  0
SECTION
  2
HEADER
  9
$ACADVER
  1
AC1024
  9
$ACADMAINTVER
 70
     6
  9
$DWGCODEPAGE
  3
ANSI_1252
  9
$INSBASE
 10
0.0
 20
0.0
 30
0.0
  9
$EXTMIN
 10
1.000000E+20
 20
1.000000E+20
 30
1.000000E+20
  9
$EXTMAX
 10
-1.000000E+20
 20
-1.000000E+20
 30
-1.000000E+20
  9
$LIMMIN
 10
0.0
 20
0.0
  9
$LIMMAX
 10
420.0
 20
297.0
  9
$ORTHOMODE
 70
     0
  9
$REGENMODE
 70
     1
  9
$FILLMODE
 70
     1
  9
$QTEXTMODE
 70
     0
  9
$MIRRTEXT
 70
     1
  9
$LTSCALE
 40
1.0
  9
$ATTMODE
 70
     1
  9
$TEXTSIZE
 40
2.5
  9
$TRACEWID
 40
1.0
  9
$TEXTSTYLE
  7
Standard
  9
$CLAYER
  8
0
  9
$CELTYPE
  6
ByLayer
  9
$CECOLOR
 62
   256
  9
$CELTSCALE
 40
1.0
  9
$DISPSILH
 70
     0
  9
$DIMSCALE
 40
1.0
  9
$DIMASZ
 40
2.5
  9
$DIMEXO
 40
0.625
  9
$DIMDLI
 40
3.75
  9
$DIMRND
 40
0.0
  9
$DIMDLE
 40
0.0
  9
$DIMEXE
 40
1.25
  9
$DIMTP
 40
0.0
  9
$DIMTM
 40
0.0
  9
$DIMTXT
 40
2.5
  9
$DIMCEN
 40
2.5
  9
$DIMTSZ
 40
0.0
  9
$DIMTOL
 70
     0
  9
$DIMLIM
 70
     0
  9
$DIMTIH
 70
     0
  9
$DIMTOH
 70
     0
  9
$DIMSE1
 70
     0
  9
$DIMSE2
 70
     0
  9
$DIMTAD
 70
     1
  9
$DIMZIN
 70
     8
  9
$DIMBLK
  1

  9
$DIMASO
 70
     1
  9
$DIMSHO
 70
     1
  9
$DIMPOST
  1

  9
$DIMAPOST
  1

  9
$DIMALT
 70
     0
  9
$DIMALTD
 70
     3
  9
$DIMALTF
 40
0.03937
  9
$DIMLFAC
 40
1.0
  9
$DIMTOFL
 70
     1
  9
$DIMTVP
 40
0.0
  9
$DIMTIX
 70
     0
  9
$DIMSOXD
 70
     0
  9
$DIMSAH
 70
     0
  9
$DIMBLK1
  1

  9
$DIMBLK2
  1

  9
$DIMSTYLE
  2
ISO-25
  9
$DIMCLRD
 70
     0
  9
$DIMCLRE
 70
     0
  9
$DIMCLRT
 70
     0
  9
$DIMTFAC
 40
1.0
  9
$DIMGAP
 40
0.625
  9
$DIMJUST
 70
     0
  9
$DIMSD1
 70
     0
  9
$DIMSD2
 70
     0
  9
$DIMTOLJ
 70
     0
  9
$DIMTZIN
 70
     8
  9
$DIMALTZ
 70
     0
  9
$DIMALTTZ
 70
     0
  9
$DIMUPT
 70
     0
  9
$DIMDEC
 70
     2
  9
$DIMTDEC
 70
     2
  9
$DIMALTU
 70
     2
  9
$DIMALTTD
 70
     3
  9
$DIMTXSTY
  7
Standard
  9
$DIMAUNIT
 70
     0
  9
$DIMADEC
 70
     0
  9
$DIMALTRND
 40
0.0
  9
$DIMAZIN
 70
     0
  9
$DIMDSEP
 70
    44
  9
$DIMATFIT
 70
     3
  9
$DIMFRAC
 70
     0
  9
$DIMLDRBLK
  1

  9
$DIMLUNIT
 70
     2
  9
$DIMLWD
 70
    -2
  9
$DIMLWE
 70
    -2
  9
$DIMTMOVE
 70
     0
  9
$DIMFXL
 40
1.0
  9
$DIMFXLON
 70
     0
  9
$DIMJOGANG
 40
0.785398
  9
$DIMTFILL
 70
     0
  9
$DIMTFILLCLR
 70
     0
  9
$DIMARCSYM
 70
     0
  9
$DIMLTYPE
  6

  9
$DIMLTEX1
  6

  9
$DIMLTEX2
  6

  9
$DIMTXTDIRECTION
 70
     0
  9
$LUNITS
 70
     2
  9
$LUPREC
 70
     4
  9
$SKETCHINC
 40
1.0
  9
$FILLETRAD
 40
10.0
  9
$AUNITS
 70
     0
  9
$AUPREC
 70
     0
  9
$MENU
  1
.
  9
$ELEVATION
 40
0.0
  9
$PELEVATION
 40
0.0
  9
$THICKNESS
 40
0.0
  9
$LIMCHECK
 70
     0
  9
$CHAMFERA
 40
0.0
  9
$CHAMFERB
 40
0.0
  9
$CHAMFERC
 40
0.0
  9
$CHAMFERD
 40
0.0
  9
$SKPOLY
 70
     0
  9
$TDCREATE
 40
2458617.373819618
  9
$TDUCREATE
 40
2458617.290486285
  9
$TDUPDATE
 40
2458617.373820255
  9
$TDUUPDATE
 40
2458617.290486921
  9
$TDINDWG
 40
0.0000000116
  9
$TDUSRTIMER
 40
0.0000000116
  9
$USRTIMER
 70
     1
  9
$ANGBASE
 50
0.0
  9
$ANGDIR
 70
     0
  9
$PDMODE
 70
     0
  9
$PDSIZE
 40
0.0
  9
$PLINEWID
 40
0.0
  9
$SPLFRAME
 70
     0
  9
$SPLINETYPE
 70
     6
  9
$SPLINESEGS
 70
     8
  9
$HANDSEED
  5
289
  9
$SURFTAB1
 70
     6
  9
$SURFTAB2
 70
     6
  9
$SURFTYPE
 70
     6
  9
$SURFU
 70
     6
  9
$SURFV
 70
     6
  9
$UCSBASE
  2

  9
$UCSNAME
  2

  9
$UCSORG
 10
0.0
 20
0.0
 30
0.0
  9
$UCSXDIR
 10
1.0
 20
0.0
 30
0.0
  9
$UCSYDIR
 10
0.0
 20
1.0
 30
0.0
  9
$UCSORTHOREF
  2

  9
$UCSORTHOVIEW
 70
     0
  9
$UCSORGTOP
 10
0.0
 20
0.0
 30
0.0
  9
$UCSORGBOTTOM
 10
0.0
 20
0.0
 30
0.0
  9
$UCSORGLEFT
 10
0.0
 20
0.0
 30
0.0
  9
$UCSORGRIGHT
 10
0.0
 20
0.0
 30
0.0
  9
$UCSORGFRONT
 10
0.0
 20
0.0
 30
0.0
  9
$UCSORGBACK
 10
0.0
 20
0.0
 30
0.0
  9
$PUCSBASE
  2

  9
$PUCSNAME
  2

  9
$PUCSORG
 10
0.0
 20
0.0
 30
0.0
  9
$PUCSXDIR
 10
1.0
 20
0.0
 30
0.0
  9
$PUCSYDIR
 10
0.0
 20
1.0
 30
0.0
  9
$PUCSORTHOREF
  2

  9
$PUCSORTHOVIEW
 70
     0
  9
$PUCSORGTOP
 10
0.0
 20
0.0
 30
0.0
  9
$PUCSORGBOTTOM
 10
0.0
 20
0.0
 30
0.0
  9
$PUCSORGLEFT
 10
0.0
 20
0.0
 30
0.0
  9
$PUCSORGRIGHT
 10
0.0
 20
0.0
 30
0.0
  9
$PUCSORGFRONT
 10
0.0
 20
0.0
 30
0.0
  9
$PUCSORGBACK
 10
0.0
 20
0.0
 30
0.0
  9
$USERI1
 70
     0
  9
$USERI2
 70
     0
  9
$USERI3
 70
     0
  9
$USERI4
 70
     0
  9
$USERI5
 70
     0
  9
$USERR1
 40
0.0
  9
$USERR2
 40
0.0
  9
$USERR3
 40
0.0
  9
$USERR4
 40
0.0
  9
$USERR5
 40
0.0
  9
$WORLDVIEW
 70
     1
  9
$SHADEDGE
 70
     3
  9
$SHADEDIF
 70
    70
  9
$TILEMODE
 70
     1
  9
$MAXACTVP
 70
    64
  9
$PINSBASE
 10
0.0
 20
0.0
 30
0.0
  9
$PLIMCHECK
 70
     0
  9
$PEXTMIN
 10
1.000000E+20
 20
1.000000E+20
 30
1.000000E+20
  9
$PEXTMAX
 10
-1.000000E+20
 20
-1.000000E+20
 30
-1.000000E+20
  9
$PLIMMIN
 10
0.0
 20
0.0
  9
$PLIMMAX
 10
420.0
 20
297.0
  9
$UNITMODE
 70
     0
  9
$VISRETAIN
 70
     1
  9
$PLINEGEN
 70
     0
  9
$PSLTSCALE
 70
     1
  9
$TREEDEPTH
 70
  3020
  9
$CMLSTYLE
  2
Standard
  9
$CMLJUST
 70
     0
  9
$CMLSCALE
 40
20.0
  9
$PROXYGRAPHICS
 70
     1
  9
$MEASUREMENT
 70
     1
  9
$CELWEIGHT
370
    -1
  9
$ENDCAPS
280
     0
  9
$JOINSTYLE
280
     0
  9
$LWDISPLAY
290
     0
  9
$INSUNITS
 70
     4
  9
$HYPERLINKBASE
  1

  9
$STYLESHEET
  1

  9
$XEDIT
290
     1
  9
$CEPSNTYPE
380
     0
  9
$PSTYLEMODE
290
     1
  9
$FINGERPRINTGUID
  2
{CAE83F96-C0FB-4F1B-A90B-68273C333750}
  9
$VERSIONGUID
  2
{FAEB1C32-E019-11D5-929B-00C0DF256EC4}
  9
$EXTNAMES
290
     1
  9
$PSVPSCALE
 40
0.0
  9
$OLESTARTUP
290
     0
  9
$SORTENTS
280
   127
  9
$INDEXCTL
280
     0
  9
$HIDETEXT
280
     1
  9
$XCLIPFRAME
280
     2
  9
$HALOGAP
280
     0
  9
$OBSCOLOR
 70
   257
  9
$OBSLTYPE
280
     0
  9
$INTERSECTIONDISPLAY
280
     0
  9
$INTERSECTIONCOLOR
 70
   257
  9
$DIMASSOC
280
     2
  9
$PROJECTNAME
  1

  9
$CAMERADISPLAY
290
     0
  9
$LENSLENGTH
 40
50.0
  9
$CAMERAHEIGHT
 40
0.0
  9
$STEPSPERSEC
 40
2.0
  9
$STEPSIZE
 40
6.0
  9
$3DDWFPREC
 40
2.0
  9
$PSOLWIDTH
 40
5.0
  9
$PSOLHEIGHT
 40
80.0
  9
$LOFTANG1
 40
1.570796
  9
$LOFTANG2
 40
1.570796
  9
$LOFTMAG1
 40
0.0
  9
$LOFTMAG2
 40
0.0
  9
$LOFTPARAM
 70
     7
  9
$LOFTNORMALS
280
     1
  9
$LATITUDE
 40
37.795
  9
$LONGITUDE
 40
-122.394
  9
$NORTHDIRECTION
 40
0.0
  9
$TIMEZONE
 70
 -8000
  9
$LIGHTGLYPHDISPLAY
280
     1
  9
$TILEMODELIGHTSYNCH
280
     1
  9
$CMATERIAL
347
44
  9
$SOLIDHIST
280
     0
  9
$SHOWHIST
280
     1
  9
$DWFFRAME
280
     2
  9
$DGNFRAME
280
     2
  9
$REALWORLDSCALE
290
     1
  9
$INTERFERECOLOR
 62
   256
  9
$CSHADOW
280
     0
  9
$SHADOWPLANELOCATION
 40
0.0
  0
ENDSEC
  0
SECTION
  2
CLASSES
  0
CLASS
  1
ACDBDICTIONARYWDFLT
  2
AcDbDictionaryWithDefault
  3
ObjectDBX Classes
 90
        0
 91
        4
280
     0
281
     0
  0
CLASS
  1
VISUALSTYLE
  2
AcDbVisualStyle
  3
ObjectDBX Classes
 90
     4095
 91
        4
280
     0
281
     0
  0
CLASS
  1
MATERIAL
  2
AcDbMaterial
  3
ObjectDBX Classes
 90
     1153
 91
        4
280
     0
281
     0
  0
CLASS
  1
SCALE
  2
AcDbScale
  3
ObjectDBX Classes
 90
     1153
 91
        4
280
     0
281
     0
  0
CLASS
  1
TABLESTYLE
  2
AcDbTableStyle
  3
ObjectDBX Classes
 90
     4095
 91
        4
280
     0
281
     0
  0
CLASS
  1
MLEADERSTYLE
  2
AcDbMLeaderStyle
  3
ACDB_MLEADERSTYLE_CLASS
 90
     4095
 91
        4
280
     0
281
     0
  0
CLASS
  1
SUN
  2
AcDbSun
  3
SCENEOE
 90
     1153
 91
        4
280
     0
281
     0
  0
CLASS
  1
DICTIONARYVAR
  2
AcDbDictionaryVar
  3
ObjectDBX Classes
 90
        0
 91
        4
280
     0
281
     0
  0
CLASS
  1
CELLSTYLEMAP
  2
AcDbCellStyleMap
  3
ObjectDBX Classes
 90
     1152
 91
        4
280
     0
281
     0
  0
ENDSEC
  0
SECTION
  2
TABLES
  0
TABLE
  2
VPORT
  5
8
330
0
100
AcDbSymbolTable
 70
     1
  0
VPORT
  5
29
330
8
100
AcDbSymbolTableRecord
100
AcDbViewportTableRecord
  2
*Active
 70
     0
 10
0.0
 20
0.0
 11
1.0
 21
1.0
 12
344.186916
 22
148.5
 13
0.0
 23
0.0
 14
10.0
 24
10.0
 15
10.0
 25
10.0
 16
0.0
 26
0.0
 36
1.0
 17
0.0
 27
0.0
 37
0.0
 40
297.0
 41
1.972973
 42
50.0
 43
0.0
 44
0.0
 50
0.0
 51
0.0
 71
     0
 72
   100
 73
     1
 74
     3
 75
     0
 76
     0
 77
     0
 78
     0
281
     0
 65
     1
110
0.0
120
0.0
130
0.0
111
1.0
121
0.0
131
0.0
112
0.0
122
1.0
132
0.0
 79
     0
146
0.0
348
2F
 60
     3
 61
     5
292
     1
282
     1
141
0.0
142
0.0
 63
   250
361
6D
  0
ENDTAB
  0
TABLE
  2
LTYPE
  5
5
330
0
100
AcDbSymbolTable
 70
     1
  0
LTYPE
  5
14
330
5
100
AcDbSymbolTableRecord
100
AcDbLinetypeTableRecord
  2
ByBlock
 70
     0
  3

 72
    65
 73
     0
 40
0.0
  0
LTYPE
  5
15
330
5
100
AcDbSymbolTableRecord
100
AcDbLinetypeTableRecord
  2
ByLayer
 70
     0
  3

 72
    65
 73
     0
 40
0.0
  0
LTYPE
  5
16
330
5
100
AcDbSymbolTableRecord
100
AcDbLinetypeTableRecord
  2
Continuous
 70
     0
  3
Solid line
 72
    65
 73
     0
 40
0.0
  0
ENDTAB
  0
TABLE
  2
LAYER
  5
2
330
0
100
AcDbSymbolTable
 70
     1
  0
LAYER
  5
10
330
2
100
AcDbSymbolTableRecord
100
AcDbLayerTableRecord
  2
0
 70
     0
 62
   106
  6
Continuous
370
     0
390
F
347
46
  0
ENDTAB
  0
TABLE
  2
STYLE
  5
3
330
0
100
AcDbSymbolTable
 70
     4
  0
STYLE
  5
11
330
3
100
AcDbSymbolTableRecord
100
AcDbTextStyleTableRecord
  2
Standard
 70
     0
 40
0.0
 41
1.0
 50
0.0
 71
     0
 42
2.5
  3
txt
  4

  0
STYLE
  5
6E
330
3
100
AcDbSymbolTableRecord
100
AcDbTextStyleTableRecord
  2
Default
 70
     0
 40
0.0
 41
1.0
 50
0.0
 71
     0
 42
2.5
  3

  4

1001
ACAD
1000
txt
1071
        0
  0
STYLE
  5
6F
330
3
100
AcDbSymbolTableRecord
100
AcDbTextStyleTableRecord
  2
ISO
 70
     0
 40
0.0
 41
1.0
 50
0.0
 71
     0
 42
2.5
  3

  4

1001
ACAD
1000
txt
1071
        0
  0
STYLE
  5
70
330
3
100
AcDbSymbolTableRecord
100
AcDbTextStyleTableRecord
  2
zucchetti
 70
     0
 40
0.0
 41
1.0
 50
0.0
 71
     0
 42
2.5
  3

  4

1001
ACAD
1000
Arial
1071
        0
  0
ENDTAB
  0
TABLE
  2
VIEW
  5
6
330
0
100
AcDbSymbolTable
 70
     0
  0
ENDTAB
  0
TABLE
  2
UCS
  5
7
330
0
100
AcDbSymbolTable
 70
     0
  0
ENDTAB
  0
TABLE
  2
APPID
  5
9
330
0
100
AcDbSymbolTable
 70
     1
  0
APPID
  5
12
330
9
100
AcDbSymbolTableRecord
100
AcDbRegAppTableRecord
  2
ACAD
 70
     0
  0
ENDTAB
  0
TABLE
  2
DIMSTYLE
  5
A
330
0
100
AcDbSymbolTable
 70
     4
100
AcDbDimStyleTable
  0
DIMSTYLE
105
27
330
A
100
AcDbSymbolTableRecord
100
AcDbDimStyleTableRecord
  2
ISO-25
 70
     0
 41
2.5
 42
0.625
 43
3.75
 44
1.25
 73
     0
 74
     0
 77
     1
 78
     8
140
2.5
141
2.5
143
0.03937
147
0.625
171
     3
172
     1
178
     0
271
     2
272
     2
274
     3
278
    44
283
     0
284
     8
340
11
  0
DIMSTYLE
105
71
330
A
100
AcDbSymbolTableRecord
100
AcDbDimStyleTableRecord
  2
Default
 70
     0
  3
<>
 41
4.375
 42
1.05
 44
2.1
 49
10.01
 73
     0
 74
     0
 77
     1
 78
     8
140
3.5
146
0.4
147
1.75
172
     1
271
     2
178
     3
271
     2
272
     3
284
     8
340
6E
341
72
342
72
  0
DIMSTYLE
105
79
330
A
100
AcDbSymbolTableRecord
100
AcDbDimStyleTableRecord
  2
ISO
 70
     0
  3
<>
 41
4.375
 42
1.05
 44
2.1
 49
10.01
 73
     0
 74
     0
 77
     1
 78
     8
140
3.5
146
0.4
147
1.75
172
     1
271
     2
178
     3
271
     2
272
     3
284
     8
340
6F
341
72
342
72
  0
DIMSTYLE
105
7A
330
A
100
AcDbSymbolTableRecord
100
AcDbDimStyleTableRecord
  2
zucchetti
 70
     0
  3
<>
 41
3.0
 42
0.9
 44
1.8
 49
8.58
 73
     0
 74
     0
 77
     1
 78
     8
140
3.0
146
0.6
147
1.5
172
     1
176
     3
177
     3
271
     2
178
     3
271
     2
272
     2
284
     8
340
70
  0
ENDTAB
  0
TABLE
  2
BLOCK_RECORD
  5
1
330
0
100
AcDbSymbolTable
 70
     6
  0
BLOCK_RECORD
  5
1F
330
1
100
AcDbSymbolTableRecord
100
AcDbBlockTableRecord
  2
*Model_Space
340
22
 70
     0
280
     1
281
     0
  0
BLOCK_RECORD
  5
1B
330
1
100
AcDbSymbolTableRecord
100
AcDbBlockTableRecord
  2
*Paper_Space
340
1E
 70
     0
280
     1
281
     0
  0
BLOCK_RECORD
  5
23
330
1
100
AcDbSymbolTableRecord
100
AcDbBlockTableRecord
  2
*Paper_Space0
340
26
 70
     0
280
     1
281
     0
  0
BLOCK_RECORD
  5
72
330
1
100
AcDbSymbolTableRecord
100
AcDbBlockTableRecord
  2
_CLOSED
340
0
 70
     0
280
     1
281
     0
  0
BLOCK_RECORD
  5
7B
330
1
100
AcDbSymbolTableRecord
100
AcDbBlockTableRecord
  2
a
340
0
102
{BLKREFS
331
BE
102
}
 70
     0
280
     1
281
     0
  0
BLOCK_RECORD
  5
BF
330
1
100
AcDbSymbolTableRecord
100
AcDbBlockTableRecord
  2
b
340
0
102
{BLKREFS
331
123
102
}
 70
     0
280
     1
281
     0
  0
BLOCK_RECORD
  5
124
330
1
100
AcDbSymbolTableRecord
100
AcDbBlockTableRecord
  2
c
340
0
102
{BLKREFS
331
1B5
102
}
 70
     0
280
     1
281
     0
  0
BLOCK_RECORD
  5
1B6
330
1
100
AcDbSymbolTableRecord
100
AcDbBlockTableRecord
  2
d
340
0
102
{BLKREFS
331
24F
102
}
 70
     0
280
     1
281
     0
  0
ENDTAB
  0
ENDSEC
  0
SECTION
  2
BLOCKS
  0
BLOCK
  5
20
330
1F
100
AcDbEntity
  8
0
100
AcDbBlockBegin
  2
*Model_Space
 70
     0
 10
0.0
 20
0.0
 30
0.0
  3
*Model_Space
  1

  0
ENDBLK
  5
21
330
1F
100
AcDbEntity
  8
0
100
AcDbBlockEnd
  0
BLOCK
  5
1C
330
1B
100
AcDbEntity
 67
     1
  8
0
100
AcDbBlockBegin
  2
*Paper_Space
 70
     0
 10
0.0
 20
0.0
 30
0.0
  3
*Paper_Space
  1

  0
ENDBLK
  5
1D
330
1B
100
AcDbEntity
 67
     1
  8
0
100
AcDbBlockEnd
  0
BLOCK
  5
24
330
23
100
AcDbEntity
  8
0
100
AcDbBlockBegin
  2
*Paper_Space0
 70
     0
 10
0.0
 20
0.0
 30
0.0
  3
*Paper_Space0
  1

  0
ENDBLK
  5
25
330
23
100
AcDbEntity
  8
0
100
AcDbBlockEnd
  0
BLOCK
  5
73
330
72
100
AcDbEntity
  8
0
100
AcDbBlockBegin
  2
_CLOSED
 70
     0
 10
0.0
 20
0.0
 30
0.0
  3
_CLOSED
  1

  0
LINE
  5
75
330
72
100
AcDbEntity
  8
0
  6
ByBlock
 62
     0
370
    -2
100
AcDbLine
 10
-1.0
 20
0.166667
 30
0.0
 11
0.0
 21
0.0
 31
0.0
  0
LINE
  5
76
330
72
100
AcDbEntity
  8
0
  6
ByBlock
 62
     0
370
    -2
100
AcDbLine
 10
0.0
 20
0.0
 30
0.0
 11
-1.0
 21
-0.166667
 31
0.0
  0
LINE
  5
77
330
72
100
AcDbEntity
  8
0
  6
ByBlock
 62
     0
370
    -2
100
AcDbLine
 10
-1.0
 20
0.166667
 30
0.0
 11
-1.0
 21
-0.166667
 31
0.0
  0
LINE
  5
78
330
72
100
AcDbEntity
  8
0
  6
ByBlock
 62
     0
370
    -2
100
AcDbLine
 10
0.0
 20
0.0
 30
0.0
 11
-1.0
 21
0.0
 31
0.0
  0
ENDBLK
  5
74
330
72
100
AcDbEntity
  8
0
100
AcDbBlockEnd
  0
BLOCK
  5
BC
330
7B
100
AcDbEntity
  8
0
100
AcDbBlockBegin
  2
a
 70
     0
 10
11.422987
 20
88.875168
 30
0.0
  3
a
  1

  0
ARC
  5
7C
330
7B
100
AcDbEntity
  8
0
  6
Continuous
 62
     0
370
     0
100
AcDbCircle
 10
68.003351
 20
688.311127
 30
0.0
 40
6.999999999999931
100
AcDbArc
 50
180.0
 51
270.0
  0
LINE
  5
7D
330
7B
100
AcDbEntity
  8
0
  6
Continuous
 62
     0
370
     0
100
AcDbLine
 10
90.003351
 20
681.311127
 30
0.0
 11
68.003351
 21
681.311127
 31
0.0
  0
ARC
  5
7E
330
7B
100
AcDbEntity
  8
0
  6
Continuous
 62
     0
370
     0
100
AcDbCircle
 10
90.003351
 20
688.311127
 30
0.0
 40
6.999999999999998
100
AcDbArc
 50
270.0
 51
0.0
  0
LINE
  5
7F
330
7B
100
AcDbEntity
  8
0
  6
Continuous
 62
     0
370
     0
100
AcDbLine
 10
97.003351
 20
710.311127
 30
0.0
 11
97.003351
 21
688.311127
 31
0.0
  0
ARC
  5
80
330
7B
100
AcDbEntity
  8
0
  6
Continuous
 62
     0
370
     0
100
AcDbCircle
 10
90.003351
 20
710.311127
 30
0.0
 40
7.000000000000071
100
AcDbArc
 50
0.0
 51
90.0
  0
LINE
  5
81
330
7B
100
AcDbEntity
  8
0
  6
Continuous
 62
     0
370
     0
100
AcDbLine
 10
68.003351
 20
717.311127
 30
0.0
 11
90.003351
 21
717.311127
 31
0.0
  0
ARC
  5
82
330
7B
100
AcDbEntity
  8
0
  6
Continuous
 62
     0
370
     0
100
AcDbCircle
 10
68.003351
 20
710.311127
 30
0.0
 40
7.000000000000099
100
AcDbArc
 50
90.0
 51
180.0
  0
LINE
  5
83
330
7B
100
AcDbEntity
  8
0
  6
Continuous
 62
     0
370
     0
100
AcDbLine
 10
61.003351
 20
688.311127
 30
0.0
 11
61.003351
 21
710.311127
 31
0.0
  0
ARC
  5
84
330
7B
100
AcDbEntity
  8
0
  6
Continuous
 62
     0
370
    30
100
AcDbCircle
 10
68.003351
 20
710.311127
 30
0.0
 40
8.0
100
AcDbArc
 50
90.0
 51
180.0
  0
LINE
  5
85
330
7B
100
AcDbEntity
  8
0
  6
Continuous
 62
     0
370
    30
100
AcDbLine
 10
90.003351
 20
718.311127
 30
0.0
 11
68.003351
 21
718.311127
 31
0.0
  0
ARC
  5
86
330
7B
100
AcDbEntity
  8
0
  6
Continuous
 62
     0
370
    30
100
AcDbCircle
 10
90.003351
 20
710.311127
 30
0.0
 40
8.0
100
AcDbArc
 50
0.0
 51
90.0
  0
LINE
  5
87
330
7B
100
AcDbEntity
  8
0
  6
Continuous
 62
     0
370
    30
100
AcDbLine
 10
98.003351
 20
688.311127
 30
0.0
 11
98.003351
 21
710.311127
 31
0.0
  0
ARC
  5
88
330
7B
100
AcDbEntity
  8
0
  6
Continuous
 62
     0
370
    30
100
AcDbCircle
 10
90.003351
 20
688.311127
 30
0.0
 40
8.0
100
AcDbArc
 50
270.0
 51
0.0
  0
LINE
  5
89
330
7B
100
AcDbEntity
  8
0
  6
Continuous
 62
     0
370
    30
100
AcDbLine
 10
68.003351
 20
680.311127
 30
0.0
 11
90.003351
 21
680.311127
 31
0.0
  0
ARC
  5
8A
330
7B
100
AcDbEntity
  8
0
  6
Continuous
 62
     0
370
    30
100
AcDbCircle
 10
68.003351
 20
688.311127
 30
0.0
 40
8.0
100
AcDbArc
 50
180.0
 51
270.0
  0
LINE
  5
8B
330
7B
100
AcDbEntity
  8
0
  6
Continuous
 62
     0
370
    30
100
AcDbLine
 10
60.003351
 20
710.311127
 30
0.0
 11
60.003351
 21
688.311127
 31
0.0
  0
LINE
  5
8C
330
7B
100
AcDbEntity
  8
0
  6
Continuous
 62
     0
370
     0
100
AcDbLine
 10
60.003351
 20
688.311127
 30
0.0
 11
61.003351
 21
688.311127
 31
0.0
  0
LINE
  5
8D
330
7B
100
AcDbEntity
  8
0
  6
Continuous
 62
     0
370
     0
100
AcDbLine
 10
61.003351
 20
710.311127
 30
0.0
 11
60.003351
 21
710.311127
 31
0.0
  0
LINE
  5
8E
330
7B
100
AcDbEntity
  8
0
  6
Continuous
 62
     0
370
     0
100
AcDbLine
 10
68.003351
 20
680.311127
 30
0.0
 11
68.003351
 21
681.311127
 31
0.0
  0
LINE
  5
8F
330
7B
100
AcDbEntity
  8
0
  6
Continuous
 62
     0
370
     0
100
AcDbLine
 10
90.003351
 20
680.311127
 30
0.0
 11
90.003351
 21
681.311127
 31
0.0
  0
LINE
  5
90
330
7B
100
AcDbEntity
  8
0
  6
Continuous
 62
     0
370
     0
100
AcDbLine
 10
98.003351
 20
688.311127
 30
0.0
 11
97.003351
 21
688.311127
 31
0.0
  0
LINE
  5
91
330
7B
100
AcDbEntity
  8
0
  6
Continuous
 62
     0
370
     0
100
AcDbLine
 10
98.003351
 20
710.311127
 30
0.0
 11
97.003351
 21
710.311127
 31
0.0
  0
LINE
  5
92
330
7B
100
AcDbEntity
  8
0
  6
Continuous
 62
     0
370
     0
100
AcDbLine
 10
90.003351
 20
718.311127
 30
0.0
 11
90.003351
 21
717.311127
 31
0.0
  0
LINE
  5
93
330
7B
100
AcDbEntity
  8
0
  6
Continuous
 62
     0
370
     0
100
AcDbLine
 10
68.003351
 20
718.311127
 30
0.0
 11
68.003351
 21
717.311127
 31
0.0
  0
ARC
  5
94
330
7B
100
AcDbEntity
  8
0
  6
Continuous
 62
     0
370
    30
100
AcDbCircle
 10
79.004984
 20
579.313843
 30
0.0
 40
21.5
100
AcDbArc
 50
270.0
 51
90.0
  0
ARC
  5
95
330
7B
100
AcDbEntity
  8
0
  6
Continuous
 62
     0
370
    30
100
AcDbCircle
 10
79.004984
 20
579.313843
 30
0.0
 40
21.5
100
AcDbArc
 50
90.0
 51
270.0
  0
ARC
  5
96
330
7B
100
AcDbEntity
  8
0
  6
Continuous
 62
     0
370
    30
100
AcDbCircle
 10
79.004984
 20
579.313843
 30
0.0
 40
22.0
100
AcDbArc
 50
270.0
 51
90.0
  0
ARC
  5
97
330
7B
100
AcDbEntity
  8
0
  6
Continuous
 62
     0
370
    30
100
AcDbCircle
 10
79.004984
 20
579.313843
 30
0.0
 40
22.0
100
AcDbArc
 50
90.0
 51
270.0
  0
LINE
  5
98
330
7B
100
AcDbEntity
  8
0
  6
Continuous
 62
     0
370
    30
100
AcDbLine
 10
82.454984
 20
609.143843
 30
0.0
 11
79.004984
 21
609.143843
 31
0.0
  0
LINE
  5
99
330
7B
100
AcDbEntity
  8
0
  6
Continuous
 62
     0
370
    30
100
AcDbLine
 10
79.004984
 20
609.143843
 30
0.0
 11
75.554984
 21
609.143843
 31
0.0
  0
LWPOLYLINE
  5
9A
330
7B
100
AcDbEntity
  8
0
  6
Continuous
 62
     0
370
    30
100
AcDbPolyline
 90
       13
 70
     0
 43
0.0
 10
82.954529
 20
608.64386
 10
82.921524
 20
608.64386
 10
82.822365
 20
608.64386
 10
82.658348
 20
608.64386
 10
82.433235
 20
608.64386
 10
82.151077
 20
608.64386
 10
81.816086
 20
608.64386
 10
81.433723
 20
608.64386
 10
81.010017
 20
608.64386
 10
80.551025
 20
608.64386
 10
80.064957
 20
608.64386
 10
79.563087
 20
608.64386
 10
79.004982
 20
608.64386
  0
LINE
  5
9B
330
7B
100
AcDbEntity
  8
0
  6
Continuous
 62
     0
370
    30
100
AcDbLine
 10
79.004984
 20
608.643843
 30
0.0
 11
75.055439
 21
608.643846
 31
0.0
  0
LINE
  5
9C
330
7B
100
AcDbEntity
  8
0
  6
Continuous
 62
     0
370
    30
100
AcDbLine
 10
75.054984
 20
608.643843
 30
0.0
 11
75.054984
 21
600.95654
 31
0.0
  0
LINE
  5
9D
330
7B
100
AcDbEntity
  8
0
  6
Continuous
 62
     0
370
    30
100
AcDbLine
 10
82.954984
 20
608.643843
 30
0.0
 11
82.954984
 21
600.956668
 31
0.0
  0
LINE
  5
9E
330
7B
100
AcDbEntity
  8
0
  6
Continuous
 62
     0
370
    30
100
AcDbLine
 10
75.554927
 20
609.143786
 30
0.0
 11
75.055031
 21
608.64389
 31
0.0
  0
LINE
  5
9F
330
7B
100
AcDbEntity
  8
0
  6
Continuous
 62
     0
370
    30
100
AcDbLine
 10
82.954936
 20
608.64389
 30
0.0
 11
82.455041
 21
609.143786
 31
0.0
  0
ARC
  5
A0
330
7B
100
AcDbEntity
  8
0
  6
Continuous
 62
     0
370
     0
100
AcDbCircle
 10
68.004234
 20
788.313702
 30
0.0
 40
7.000000000000208
100
AcDbArc
 50
180.0
 51
270.0
  0
LINE
  5
A1
330
7B
100
AcDbEntity
  8
0
  6
Continuous
 62
     0
370
     0
100
AcDbLine
 10
90.004234
 20
781.313702
 30
0.0
 11
68.004234
 21
781.313702
 31
0.0
  0
ARC
  5
A2
330
7B
100
AcDbEntity
  8
0
  6
Continuous
 62
     0
370
     0
100
AcDbCircle
 10
90.004234
 20
788.313702
 30
0.0
 40
7.000000000000716
100
AcDbArc
 50
270.0
 51
360.0
  0
LINE
  5
A3
330
7B
100
AcDbEntity
  8
0
  6
Continuous
 62
     0
370
     0
100
AcDbLine
 10
97.004234
 20
810.313702
 30
0.0
 11
97.004234
 21
788.313702
 31
0.0
  0
ARC
  5
A4
330
7B
100
AcDbEntity
  8
0
  6
Continuous
 62
     0
370
     0
100
AcDbCircle
 10
90.004234
 20
810.313702
 30
0.0
 40
6.999999999999268
100
AcDbArc
 50
0.0
 51
90.0
  0
LINE
  5
A5
330
7B
100
AcDbEntity
  8
0
  6
Continuous
 62
     0
370
     0
100
AcDbLine
 10
68.004234
 20
817.313702
 30
0.0
 11
90.004234
 21
817.313702
 31
0.0
  0
ARC
  5
A6
330
7B
100
AcDbEntity
  8
0
  6
Continuous
 62
     0
370
     0
100
AcDbCircle
 10
68.004234
 20
810.313702
 30
0.0
 40
7.000000000000149
100
AcDbArc
 50
90.0
 51
180.0
  0
LINE
  5
A7
330
7B
100
AcDbEntity
  8
0
  6
Continuous
 62
     0
370
     0
100
AcDbLine
 10
61.004234
 20
788.313702
 30
0.0
 11
61.004234
 21
810.313702
 31
0.0
  0
ARC
  5
A8
330
7B
100
AcDbEntity
  8
0
  6
Continuous
 62
     0
370
    30
100
AcDbCircle
 10
68.004234
 20
810.313702
 30
0.0
 40
8.0
100
AcDbArc
 50
90.0
 51
180.0
  0
LINE
  5
A9
330
7B
100
AcDbEntity
  8
0
  6
Continuous
 62
     0
370
    30
100
AcDbLine
 10
90.004234
 20
818.313702
 30
0.0
 11
68.004234
 21
818.313702
 31
0.0
  0
ARC
  5
AA
330
7B
100
AcDbEntity
  8
0
  6
Continuous
 62
     0
370
    30
100
AcDbCircle
 10
90.004234
 20
810.313702
 30
0.0
 40
8.0
100
AcDbArc
 50
0.0
 51
90.0
  0
LINE
  5
AB
330
7B
100
AcDbEntity
  8
0
  6
Continuous
 62
     0
370
    30
100
AcDbLine
 10
98.004234
 20
788.313702
 30
0.0
 11
98.004234
 21
810.313702
 31
0.0
  0
ARC
  5
AC
330
7B
100
AcDbEntity
  8
0
  6
Continuous
 62
     0
370
    30
100
AcDbCircle
 10
90.004234
 20
788.313702
 30
0.0
 40
8.0
100
AcDbArc
 50
270.0
 51
0.0
  0
LINE
  5
AD
330
7B
100
AcDbEntity
  8
0
  6
Continuous
 62
     0
370
    30
100
AcDbLine
 10
68.004234
 20
780.313702
 30
0.0
 11
90.004234
 21
780.313702
 31
0.0
  0
ARC
  5
AE
330
7B
100
AcDbEntity
  8
0
  6
Continuous
 62
     0
370
    30
100
AcDbCircle
 10
68.004234
 20
788.313702
 30
0.0
 40
8.0
100
AcDbArc
 50
180.0
 51
270.0
  0
LINE
  5
AF
330
7B
100
AcDbEntity
  8
0
  6
Continuous
 62
     0
370
    30
100
AcDbLine
 10
60.004234
 20
810.313702
 30
0.0
 11
60.004234
 21
788.313702
 31
0.0
  0
LINE
  5
B0
330
7B
100
AcDbEntity
  8
0
  6
Continuous
 62
     0
370
     0
100
AcDbLine
 10
60.004234
 20
788.313702
 30
0.0
 11
61.004234
 21
788.313702
 31
0.0
  0
LINE
  5
B1
330
7B
100
AcDbEntity
  8
0
  6
Continuous
 62
     0
370
     0
100
AcDbLine
 10
61.004234
 20
810.313702
 30
0.0
 11
60.004234
 21
810.313702
 31
0.0
  0
LINE
  5
B2
330
7B
100
AcDbEntity
  8
0
  6
Continuous
 62
     0
370
     0
100
AcDbLine
 10
68.004234
 20
780.313702
 30
0.0
 11
68.004234
 21
781.313702
 31
0.0
  0
LINE
  5
B3
330
7B
100
AcDbEntity
  8
0
  6
Continuous
 62
     0
370
     0
100
AcDbLine
 10
90.004234
 20
780.313702
 30
0.0
 11
90.004234
 21
781.313702
 31
0.0
  0
LINE
  5
B4
330
7B
100
AcDbEntity
  8
0
  6
Continuous
 62
     0
370
     0
100
AcDbLine
 10
98.004234
 20
788.313702
 30
0.0
 11
97.004234
 21
788.313702
 31
0.0
  0
LINE
  5
B5
330
7B
100
AcDbEntity
  8
0
  6
Continuous
 62
     0
370
     0
100
AcDbLine
 10
98.004234
 20
810.313702
 30
0.0
 11
97.004234
 21
810.313702
 31
0.0
  0
LINE
  5
B6
330
7B
100
AcDbEntity
  8
0
  6
Continuous
 62
     0
370
     0
100
AcDbLine
 10
90.004234
 20
818.313702
 30
0.0
 11
90.004234
 21
817.313702
 31
0.0
  0
LINE
  5
B7
330
7B
100
AcDbEntity
  8
0
  6
Continuous
 62
     0
370
     0
100
AcDbLine
 10
68.004234
 20
818.313702
 30
0.0
 11
68.004234
 21
817.313702
 31
0.0
  0
LINE
  5
B8
330
7B
100
AcDbEntity
  8
0
  6
Continuous
 62
     0
370
    30
100
AcDbLine
 10
119.004234
 20
505.313699
 30
0.0
 11
39.004234
 21
505.313699
 31
0.0
  0
LINE
  5
B9
330
7B
100
AcDbEntity
  8
0
  6
Continuous
 62
     0
370
    30
100
AcDbLine
 10
119.004234
 20
873.313699
 30
0.0
 11
119.004234
 21
505.313699
 31
0.0
  0
LINE
  5
BA
330
7B
100
AcDbEntity
  8
0
  6
Continuous
 62
     0
370
    30
100
AcDbLine
 10
39.004234
 20
873.313699
 30
0.0
 11
119.004234
 21
873.313699
 31
0.0
  0
LINE
  5
BB
330
7B
100
AcDbEntity
  8
0
  6
Continuous
 62
     0
370
    30
100
AcDbLine
 10
39.004234
 20
505.313699
 30
0.0
 11
39.004234
 21
873.313699
 31
0.0
  0
ENDBLK
  5
BD
330
7B
100
AcDbEntity
  8
0
100
AcDbBlockEnd
  0
BLOCK
  5
121
330
BF
100
AcDbEntity
  8
0
100
AcDbBlockBegin
  2
b
 70
     0
 10
11.422987
 20
324.029892
 30
0.0
  3
b
  1

  0
LINE
  5
C0
330
BF
100
AcDbEntity
  8
0
  6
Continuous
 62
     0
370
    30
100
AcDbLine
 10
79.004984
 20
313.368344
 30
0.0
 11
100.504984
 21
313.368345
 31
0.0
  0
LINE
  5
C1
330
BF
100
AcDbEntity
  8
0
  6
Continuous
 62
     0
370
    30
100
AcDbLine
 10
57.504984
 20
313.368345
 30
0.0
 11
79.004984
 21
313.368344
 31
0.0
  0
LINE
  5
C2
330
BF
100
AcDbEntity
  8
0
  6
Continuous
 62
     0
370
    30
100
AcDbLine
 10
79.004984
 20
313.868344
 30
0.0
 11
101.004984
 21
313.868345
 31
0.0
  0
LINE
  5
C3
330
BF
100
AcDbEntity
  8
0
  6
Continuous
 62
     0
370
    30
100
AcDbLine
 10
57.004984
 20
313.868345
 30
0.0
 11
79.004984
 21
313.868344
 31
0.0
  0
LINE
  5
C4
330
BF
100
AcDbEntity
  8
0
  6
Continuous
 62
     0
370
    30
100
AcDbLine
 10
101.004984
 20
363.368345
 30
0.0
 11
95.004234
 21
363.368345
 31
0.0
  0
LINE
  5
C5
330
BF
100
AcDbEntity
  8
0
  6
Continuous
 62
     0
370
    30
100
AcDbLine
 10
63.003351
 20
363.368345
 30
0.0
 11
57.004984
 21
363.368345
 31
0.0
  0
LWPOLYLINE
  5
C6
330
BF
100
AcDbEntity
  8
0
  6
Continuous
 62
     0
370
     0
100
AcDbPolyline
 90
       15
 70
     0
 43
0.0
 10
83.015701
 20
323.218353
 10
83.090897
 20
322.704407
 10
83.100662
 20
322.184845
 10
83.044777
 20
321.668427
 10
82.923866
 20
321.163574
 10
82.740181
 20
320.678253
 10
82.496483
 20
320.220154
 10
82.197289
 20
319.796509
 10
81.847824
 20
319.414246
 10
81.453499
 20
319.079803
 10
81.020355
 20
318.798035
 10
80.554947
 20
318.572968
 10
80.064743
 20
318.407806
 10
79.557068
 20
318.305573
 10
79.00502
 20
318.268738
  0
LWPOLYLINE
  5
C7
330
BF
100
AcDbEntity
  8
0
  6
Continuous
 62
     0
370
     0
100
AcDbPolyline
 90
       15
 70
     0
 43
0.0
 10
79.00502
 20
318.268738
 10
78.487778
 20
318.301117
 10
77.979149
 20
318.398773
 10
77.487602
 20
318.559723
 10
77.020378
 20
318.780914
 10
76.584869
 20
319.058929
 10
76.187683
 20
319.389801
 10
75.834969
 20
319.768921
 10
75.532181
 20
320.189911
 10
75.284561
 20
320.645813
 10
75.096725
 20
321.129486
 10
74.971458
 20
321.633209
 10
74.911057
 20
322.149048
 10
74.91629
 20
322.66864
 10
74.994362
 20
323.218353
  0
ARC
  5
C8
330
BF
100
AcDbEntity
  8
0
  6
Continuous
 62
     0
370
    30
100
AcDbCircle
 10
79.004984
 20
322.368344
 30
0.0
 40
3.449999999999916
100
AcDbArc
 50
270.0
 51
14.263139
  0
ARC
  5
C9
330
BF
100
AcDbEntity
  8
0
  6
Continuous
 62
     0
370
    30
100
AcDbCircle
 10
79.004984
 20
322.368344
 30
0.0
 40
3.449999999999955
100
AcDbArc
 50
165.736861
 51
270.0
  0
ARC
  5
CA
330
BF
100
AcDbEntity
  8
0
  6
Continuous
 62
     0
370
    30
100
AcDbCircle
 10
79.004385
 20
322.368595
 30
0.0
 40
3.950251075317294
100
AcDbArc
 50
270.008691
 51
12.422071
  0
ARC
  5
CB
330
BF
100
AcDbEntity
  8
0
  6
Continuous
 62
     0
370
    30
100
AcDbCircle
 10
79.005583
 20
322.368595
 30
0.0
 40
3.950251136352474
100
AcDbArc
 50
167.57793
 51
269.991308
  0
LINE
  5
CC
330
BF
100
AcDbEntity
  8
0
  6
Continuous
 62
     0
370
    30
100
AcDbLine
 10
57.004984
 20
313.868345
 30
0.0
 11
57.004984
 21
363.368345
 31
0.0
  0
LINE
  5
CD
330
BF
100
AcDbEntity
  8
0
  6
Continuous
 62
     0
370
    30
100
AcDbLine
 10
101.004984
 20
313.868345
 30
0.0
 11
101.004984
 21
363.368345
 31
0.0
  0
LINE
  5
CE
330
BF
100
AcDbEntity
  8
0
  6
Continuous
 62
     0
370
    30
100
AcDbLine
 10
100.505005
 20
313.368366
 30
0.0
 11
101.004984
 21
313.868345
 31
0.0
  0
LINE
  5
CF
330
BF
100
AcDbEntity
  8
0
  6
Continuous
 62
     0
370
    30
100
AcDbLine
 10
57.504963
 20
313.368366
 30
0.0
 11
57.004984
 21
313.868345
 31
0.0
  0
LWPOLYLINE
  5
D0
330
BF
100
AcDbEntity
  8
0
  6
Continuous
 62
     0
370
     0
100
AcDbPolyline
 90
        7
 70
     0
 43
0.0
 10
61.646317
 20
366.238159
 10
61.028099
 20
366.231201
 10
60.469017
 20
366.22467
 10
59.970905
 20
366.218628
 10
59.535404
 20
366.213074
 10
59.163944
 20
366.208038
 10
58.830956
 20
366.203094
  0
LWPOLYLINE
  5
D1
330
BF
100
AcDbEntity
  8
0
  6
Continuous
 62
     0
370
     0
100
AcDbPolyline
 90
       11
 70
     0
 43
0.0
 10
58.004982
 20
364.345764
 10
58.040672
 20
364.343475
 10
58.147705
 20
364.340576
 10
58.325367
 20
364.337128
 10
58.572903
 20
364.333069
 10
58.889534
 20
364.328491
 10
59.274181
 20
364.323364
 10
59.72546
 20
364.317719
 10
60.242043
 20
364.311554
 10
60.822617
 20
364.304901
 10
61.503349
 20
364.297363
  0
LWPOLYLINE
  5
D2
330
BF
100
AcDbEntity
  8
0
  6
Continuous
 62
     0
370
     0
100
AcDbPolyline
 90
       11
 70
     0
 43
0.0
 10
61.503349
 20
365.939331
 10
60.857288
 20
365.93219
 10
60.273148
 20
365.925507
 10
59.752914
 20
365.919312
 10
59.297913
 20
365.913635
 10
58.909462
 20
365.908478
 10
58.588955
 20
365.903839
 10
58.337498
 20
365.89978
 10
58.155869
 20
365.896301
 10
58.044823
 20
365.893372
 10
58.004982
 20
365.89093
  0
LWPOLYLINE
  5
D3
330
BF
100
AcDbEntity
  8
0
  6
Continuous
 62
     0
370
     0
100
AcDbPolyline
 90
        8
 70
     0
 43
0.0
 10
99.335541
 20
366.187683
 10
99.098648
 20
366.187927
 10
98.804749
 20
366.18869
 10
98.454666
 20
366.189972
 10
98.049393
 20
366.191772
 10
97.590088
 20
366.194061
 10
97.078041
 20
366.196838
 10
96.408676
 20
366.200714
  0
LWPOLYLINE
  5
D4
330
BF
100
AcDbEntity
  8
0
  6
Continuous
 62
     0
370
     0
100
AcDbPolyline
 90
       14
 70
     0
 43
0.0
 10
96.36113
 20
366.23819
 10
96.993164
 20
366.231049
 10
97.563271
 20
366.224426
 10
98.069473
 20
366.218262
 10
98.51004
 20
366.212616
 10
98.883446
 20
366.20752
 10
99.188416
 20
366.202972
 10
99.423882
 20
366.198975
 10
99.589058
 20
366.195587
 10
99.68335
 20
366.19278
 10
99.706451
 20
366.190582
 10
99.658272
 20
366.188995
 10
99.538986
 20
366.188019
 10
99.335541
 20
366.187683
  0
LWPOLYLINE
  5
D5
330
BF
100
AcDbEntity
  8
0
  6
Continuous
 62
     0
370
     0
100
AcDbPolyline
 90
       11
 70
     0
 43
0.0
 10
97.712624
 20
366.202087
 10
97.886047
 20
366.202362
 10
98.000816
 20
366.203186
 10
98.052422
 20
366.20459
 10
98.036743
 20
366.206604
 10
97.950142
 20
366.209259
 10
97.789604
 20
366.212585
 10
97.552826
 20
366.216553
 10
97.238365
 20
366.221161
 10
96.845688
 20
366.22644
 10
96.369743
 20
366.232422
  0
ARC
  5
D6
330
BF
100
AcDbEntity
  8
0
  6
Continuous
 62
     0
370
     0
100
AcDbCircle
 10
98.053155
 20
664.884685
 30
0.0
 40
298.6827811478984
100
AcDbArc
 50
269.683355
 51
269.934676
  0
LWPOLYLINE
  5
D7
330
BF
100
AcDbEntity
  8
0
  6
Continuous
 62
     0
370
     0
100
AcDbPolyline
 90
        5
 70
     0
 43
0.0
 10
100.004868
 20
365.89093
 10
99.985619
 20
365.889648
 10
99.92807
 20
365.888672
 10
99.83239
 20
365.888031
 10
99.627579
 20
365.887695
  0
LINE
  5
D8
330
BF
100
AcDbEntity
  8
0
  6
Continuous
 62
     0
370
     0
100
AcDbLine
 10
99.627577
 20
365.887687
 30
0.0
 11
99.627577
 21
364.349003
 31
0.0
  0
LWPOLYLINE
  5
D9
330
BF
100
AcDbEntity
  8
0
  6
Continuous
 62
     0
370
     0
100
AcDbPolyline
 90
        5
 70
     0
 43
0.0
 10
99.627579
 20
364.348999
 10
99.777908
 20
364.348846
 10
99.890419
 20
364.348358
 10
99.964867
 20
364.347504
 10
100.004868
 20
364.345764
  0
LWPOLYLINE
  5
DA
330
BF
100
AcDbEntity
  8
0
  6
Continuous
 62
     0
370
     0
100
AcDbPolyline
 90
        8
 70
     0
 43
0.0
 10
96.504234
 20
364.335022
 10
97.121872
 20
364.338654
 10
97.683777
 20
364.341736
 10
98.18824
 20
364.344269
 10
98.633553
 20
364.346283
 10
99.018196
 20
364.347748
 10
99.340691
 20
364.348663
 10
99.627579
 20
364.348999
  0
LWPOLYLINE
  5
DB
330
BF
100
AcDbEntity
  8
0
  6
Continuous
 62
     0
370
     0
100
AcDbPolyline
 90
        8
 70
     0
 43
0.0
 10
99.627579
 20
365.887695
 10
99.376099
 20
365.88797
 10
99.061356
 20
365.888794
 10
98.684303
 20
365.890198
 10
98.246391
 20
365.89212
 10
97.749138
 20
365.894623
 10
97.194214
 20
365.897644
 10
96.504234
 20
365.901672
  0
LWPOLYLINE
  5
DC
330
BF
100
AcDbEntity
  8
0
  6
Continuous
 62
     0
370
     0
100
AcDbPolyline
 90
        7
 70
     0
 43
0.0
 10
98.692078
 20
364.043304
 10
98.463112
 20
364.04306
 10
98.179123
 20
364.042297
 10
97.840919
 20
364.041077
 10
97.449455
 20
364.039337
 10
97.005836
 20
364.03714
 10
96.406517
 20
364.033875
  0
LWPOLYLINE
  5
DD
330
BF
100
AcDbEntity
  8
0
  6
Continuous
 62
     0
370
     0
100
AcDbPolyline
 90
        5
 70
     0
 43
0.0
 10
99.022484
 20
364.038086
 10
99.052078
 20
364.040344
 10
99.008423
 20
364.041962
 10
98.891678
 20
364.042938
 10
98.692078
 20
364.043304
  0
LWPOLYLINE
  5
DE
330
BF
100
AcDbEntity
  8
0
  6
Continuous
 62
     0
370
     0
100
AcDbPolyline
 90
        9
 70
     0
 43
0.0
 10
99.335541
 20
364.049011
 10
99.522957
 20
364.048737
 10
99.645538
 20
364.047882
 10
99.702904
 20
364.046448
 10
99.694862
 20
364.044464
 10
99.621452
 20
364.041931
 10
99.482895
 20
364.038818
 10
99.279633
 20
364.035217
 10
98.980339
 20
364.030579
  0
LWPOLYLINE
  5
DF
330
BF
100
AcDbEntity
  8
0
  6
Continuous
 62
     0
370
     0
100
AcDbPolyline
 90
        8
 70
     0
 43
0.0
 10
96.40873
 20
364.03595
 10
96.981049
 20
364.039307
 10
97.502357
 20
364.042175
 10
97.971191
 20
364.044556
 10
98.386208
 20
364.046417
 10
98.746239
 20
364.047791
 10
99.050247
 20
364.048645
 10
99.335541
 20
364.049011
  0
LWPOLYLINE
  5
E0
330
BF
100
AcDbEntity
  8
0
  6
Continuous
 62
     0
370
     0
100
AcDbPolyline
 90
        8
 70
     0
 43
0.0
 10
58.584808
 20
364.03775
 10
58.816917
 20
364.033813
 10
59.117039
 20
364.029327
 10
59.484161
 20
364.024292
 10
59.917046
 20
364.018738
 10
60.414238
 20
364.012665
 10
60.97406
 20
364.006104
 10
61.646488
 20
363.998535
  0
LWPOLYLINE
  5
E1
330
BF
100
AcDbEntity
  8
0
  6
Continuous
 62
     0
370
     0
100
AcDbPolyline
 90
        8
 70
     0
 43
0.0
 10
98.40004
 20
363.743317
 10
98.132187
 20
363.742981
 10
97.790749
 20
363.741974
 10
97.37722
 20
363.740295
 10
96.893166
 20
363.737976
 10
96.340553
 20
363.734985
 10
95.721542
 20
363.731354
 10
95.013641
 20
363.726959
  0
ARC
  5
E2
330
BF
100
AcDbEntity
  8
0
  6
Continuous
 62
     0
370
     0
100
AcDbCircle
 10
98.697428
 20
363.745946
 30
0.0
 40
0.2973980795744495
100
AcDbArc
 50
91.030538
 51
180.508353
  0
LWPOLYLINE
  5
E3
330
BF
100
AcDbEntity
  8
0
  6
Continuous
 62
     0
370
     0
100
AcDbPolyline
 90
        4
 70
     0
 43
0.0
 10
98.754974
 20
363.740173
 10
98.715454
 20
363.741913
 10
98.597351
 20
363.74295
 10
98.40004
 20
363.743317
  0
LWPOLYLINE
  5
E4
330
BF
100
AcDbEntity
  8
0
  6
Continuous
 62
     0
370
     0
100
AcDbPolyline
 90
       11
 70
     0
 43
0.0
 10
63.003349
 20
363.688202
 10
62.311348
 20
363.695923
 10
61.684605
 20
363.703156
 10
61.125454
 20
363.709869
 10
60.636192
 20
363.716003
 10
60.218781
 20
363.721588
 10
59.874691
 20
363.726562
 10
59.605354
 20
363.730927
 10
59.411919
 20
363.73465
 10
59.294964
 20
363.737701
 10
59.254986
 20
363.740173
  0
ARC
  5
E5
330
BF
100
AcDbEntity
  8
0
  6
Continuous
 62
     0
370
     0
100
AcDbCircle
 10
99.330191
 20
364.346364
 30
0.0
 40
0.2973980795734968
100
AcDbArc
 50
271.030538
 51
0.508353
  0
ARC
  5
E6
330
BF
100
AcDbEntity
  8
0
  6
Continuous
 62
     0
370
     0
100
AcDbCircle
 10
99.330191
 20
365.890326
 30
0.0
 40
0.2973980856209239
100
AcDbArc
 50
359.491647
 51
88.969461
  0
LINE
  5
E7
330
BF
100
AcDbEntity
  8
0
  6
Continuous
 62
     0
370
     0
100
AcDbLine
 10
98.400042
 20
363.368345
 30
0.0
 11
98.400042
 21
363.743307
 31
0.0
  0
LINE
  5
E8
330
BF
100
AcDbEntity
  8
0
  6
Continuous
 62
     0
370
    30
100
AcDbLine
 10
59.254984
 20
363.368345
 30
0.0
 11
59.254984
 21
363.74016
 31
0.0
  0
LINE
  5
E9
330
BF
100
AcDbEntity
  8
0
  6
Continuous
 62
     0
370
    30
100
AcDbLine
 10
98.754984
 20
363.368345
 30
0.0
 11
98.754984
 21
363.740163
 31
0.0
  0
LWPOLYLINE
  5
EA
330
BF
100
AcDbEntity
  8
0
  6
Continuous
 62
     0
370
    30
100
AcDbPolyline
 90
       61
 70
     0
 43
0.0
 10
58.004986
 20
365.89093
 10
58.046246
 20
366.042725
 10
58.155041
 20
366.150787
 10
58.247608
 20
366.185577
 10
58.275494
 20
366.189758
 10
58.288223
 20
366.190918
 10
58.297642
 20
366.191559
 10
58.306385
 20
366.192047
 10
58.315369
 20
366.192474
 10
58.32497
 20
366.192871
 10
58.335487
 20
366.193237
 10
58.347027
 20
366.193634
 10
58.359646
 20
366.194
 10
58.373371
 20
366.194397
 10
58.388229
 20
366.194794
 10
58.40424
 20
366.195221
 10
58.421429
 20
366.195618
 10
58.439808
 20
366.196045
 10
58.459389
 20
366.196472
 10
58.480179
 20
366.19693
 10
58.502174
 20
366.197388
 10
58.525379
 20
366.197845
 10
58.549797
 20
366.198303
 10
58.575428
 20
366.198792
 10
58.602272
 20
366.19928
 10
58.630325
 20
366.199799
 10
58.659592
 20
366.200287
 10
58.690067
 20
366.200836
 10
58.721756
 20
366.201355
 10
58.754658
 20
366.201904
 10
58.788765
 20
366.202454
 10
58.824085
 20
366.203003
 10
58.860615
 20
366.203583
 10
58.89835
 20
366.204163
 10
58.93729
 20
366.204742
 10
58.977436
 20
366.205353
 10
59.01878
 20
366.205963
 10
59.061325
 20
366.206573
 10
59.105068
 20
366.207214
 10
59.150005
 20
366.207855
 10
59.196129
 20
366.208496
 10
59.243431
 20
366.209167
 10
59.291901
 20
366.209808
 10
59.34153
 20
366.21051
 10
59.392315
 20
366.211182
 10
59.444275
 20
366.211884
 10
59.497429
 20
366.212585
 10
59.551807
 20
366.213287
 10
59.60743
 20
366.21402
 10
59.664288
 20
366.214752
 10
59.722298
 20
366.215515
 10
59.781353
 20
366.216248
 10
59.841354
 20
366.21701
 10
59.902206
 20
366.217773
 10
59.96418
 20
366.218567
 10
60.028217
 20
366.21933
 10
60.094791
 20
366.220154
 10
60.161045
 20
366.220978
 10
60.223118
 20
366.221741
 10
60.285622
 20
366.222534
 10
60.363457
 20
366.223419
  0
LWPOLYLINE
  5
EB
330
BF
100
AcDbEntity
  8
0
  6
Continuous
 62
     0
370
    30
100
AcDbPolyline
 90
       29
 70
     0
 43
0.0
 10
100.004967
 20
365.89093
 10
99.973999
 20
366.02359
 10
99.889137
 20
366.127777
 10
99.789429
 20
366.178955
 10
99.746223
 20
366.188263
 10
99.72953
 20
366.190308
 10
99.719765
 20
366.191101
 10
99.712044
 20
366.191589
 10
99.704407
 20
366.192017
 10
99.696709
 20
366.192383
 10
99.68866
 20
366.192719
 10
99.679955
 20
366.193054
 10
99.670494
 20
366.19339
 10
99.660278
 20
366.193726
 10
99.649269
 20
366.194061
 10
99.637428
 20
366.194397
 10
99.624725
 20
366.194733
 10
99.61116
 20
366.195068
 10
99.596725
 20
366.195435
 10
99.581406
 20
366.195801
 10
99.565201
 20
366.196167
 10
99.548103
 20
366.196533
 10
99.530113
 20
366.19693
 10
99.511223
 20
366.197296
 10
99.491432
 20
366.197693
 10
99.470741
 20
366.19812
 10
99.44915
 20
366.198517
 10
99.426651
 20
366.198944
 10
99.403183
 20
366.199371
  0
LWPOLYLINE
  5
EC
330
BF
100
AcDbEntity
  8
0
  6
Continuous
 62
     0
370
    30
100
AcDbPolyline
 90
       43
 70
     0
 43
0.0
 10
100.004967
 20
364.345764
 10
99.973969
 20
364.213043
 10
99.889046
 20
364.108826
 10
99.78933
 20
364.057709
 10
99.746178
 20
364.048401
 10
99.7295
 20
364.046387
 10
99.719749
 20
364.045593
 10
99.712021
 20
364.045105
 10
99.704376
 20
364.044678
 10
99.696678
 20
364.044312
 10
99.688622
 20
364.043976
 10
99.679909
 20
364.04364
 10
99.670441
 20
364.043304
 10
99.660217
 20
364.042969
 10
99.6492
 20
364.042633
 10
99.637344
 20
364.042297
 10
99.624634
 20
364.041962
 10
99.611061
 20
364.041626
 10
99.596603
 20
364.04126
 10
99.581276
 20
364.040894
 10
99.565056
 20
364.040527
 10
99.547943
 20
364.040161
 10
99.52993
 20
364.039764
 10
99.511024
 20
364.039368
 10
99.491219
 20
364.038971
 10
99.470505
 20
364.038574
 10
99.448891
 20
364.038147
 10
99.426376
 20
364.03775
 10
99.402954
 20
364.037323
 10
99.378632
 20
364.036896
 10
99.353401
 20
364.036438
 10
99.327271
 20
364.03598
 10
99.30024
 20
364.035522
 10
99.272301
 20
364.035065
 10
99.243462
 20
364.034607
 10
99.213715
 20
364.034119
 10
99.183075
 20
364.03363
 10
99.151527
 20
364.033142
 10
99.119087
 20
364.032654
 10
99.085754
 20
364.032135
 10
99.051521
 20
364.031616
 10
99.016403
 20
364.031097
 10
98.980324
 20
364.030579
  0
LWPOLYLINE
  5
ED
330
BF
100
AcDbEntity
  8
0
  6
Continuous
 62
     0
370
    30
100
AcDbPolyline
 90
       61
 70
     0
 43
0.0
 10
58.004986
 20
364.345764
 10
58.046246
 20
364.19397
 10
58.155041
 20
364.085907
 10
58.247608
 20
364.051117
 10
58.275494
 20
364.046936
 10
58.288223
 20
364.045746
 10
58.297642
 20
364.045135
 10
58.306385
 20
364.044647
 10
58.315369
 20
364.04422
 10
58.32497
 20
364.043823
 10
58.335487
 20
364.043457
 10
58.347027
 20
364.04306
 10
58.359646
 20
364.042664
 10
58.373371
 20
364.042297
 10
58.388229
 20
364.04187
 10
58.40424
 20
364.041473
 10
58.421429
 20
364.041077
 10
58.439808
 20
364.040649
 10
58.459389
 20
364.040192
 10
58.480179
 20
364.039764
 10
58.502174
 20
364.039307
 10
58.525379
 20
364.038849
 10
58.549797
 20
364.038391
 10
58.575428
 20
364.037903
 10
58.602272
 20
364.037415
 10
58.630325
 20
364.036896
 10
58.659592
 20
364.036377
 10
58.690067
 20
364.035858
 10
58.721756
 20
364.035339
 10
58.754658
 20
364.03479
 10
58.788765
 20
364.034241
 10
58.824085
 20
364.033691
 10
58.860615
 20
364.033112
 10
58.89835
 20
364.032532
 10
58.93729
 20
364.031952
 10
58.977436
 20
364.031342
 10
59.01878
 20
364.030731
 10
59.061325
 20
364.030121
 10
59.105068
 20
364.02948
 10
59.150005
 20
364.028839
 10
59.196129
 20
364.028198
 10
59.243431
 20
364.027527
 10
59.291901
 20
364.026855
 10
59.34153
 20
364.026184
 10
59.392315
 20
364.025513
 10
59.444275
 20
364.024811
 10
59.497429
 20
364.024109
 10
59.551807
 20
364.023376
 10
59.60743
 20
364.022675
 10
59.664288
 20
364.021942
 10
59.722298
 20
364.021179
 10
59.781353
 20
364.020447
 10
59.841354
 20
364.019684
 10
59.902206
 20
364.018921
 10
59.96418
 20
364.018127
 10
60.028217
 20
364.017334
 10
60.094791
 20
364.016541
 10
60.161045
 20
364.015717
 10
60.223118
 20
364.014954
 10
60.285622
 20
364.01416
 10
60.363457
 20
364.013275
  0
LWPOLYLINE
  5
EE
330
BF
100
AcDbEntity
  8
0
  6
Continuous
 62
     0
370
    30
100
AcDbPolyline
 90
        5
 70
     0
 43
0.0
 10
59.254986
 20
363.740173
 10
59.237316
 20
363.841003
 10
59.18697
 20
363.930359
 10
59.111908
 20
363.995758
 10
59.029648
 20
364.030579
  0
LWPOLYLINE
  5
EF
330
BF
100
AcDbEntity
  8
0
  6
Continuous
 62
     0
370
    30
100
AcDbPolyline
 90
        9
 70
     0
 43
0.0
 10
98.754974
 20
363.740173
 10
98.774361
 20
363.845734
 10
98.829399
 20
363.937897
 10
98.909981
 20
364.002716
 10
98.981056
 20
364.030762
 10
99.010445
 20
364.036591
 10
99.021477
 20
364.037994
 10
99.025955
 20
364.038422
 10
99.027267
 20
364.038513
  0
LINE
  5
F0
330
BF
100
AcDbEntity
  8
0
  6
Continuous
 62
     0
370
    30
100
AcDbLine
 10
100.004984
 20
364.345755
 30
0.0
 11
100.004984
 21
365.890936
 31
0.0
  0
LINE
  5
F1
330
BF
100
AcDbEntity
  8
0
  6
Continuous
 62
     0
370
    30
100
AcDbLine
 10
58.004984
 20
364.345753
 30
0.0
 11
58.004984
 21
365.890937
 31
0.0
  0
LINE
  5
F2
330
BF
100
AcDbEntity
  8
0
  6
Continuous
 62
     0
370
    30
100
AcDbLine
 10
90.004234
 20
323.21833
 30
0.0
 11
97.004234
 21
323.218331
 31
0.0
  0
LINE
  5
F3
330
BF
100
AcDbEntity
  8
0
  6
Continuous
 62
     0
370
    30
100
AcDbLine
 10
68.004234
 20
323.21833
 30
0.0
 11
90.004234
 21
323.21833
 31
0.0
  0
LINE
  5
F4
330
BF
100
AcDbEntity
  8
0
  6
Continuous
 62
     0
370
    30
100
AcDbLine
 10
61.004234
 20
323.218331
 30
0.0
 11
68.004234
 21
323.21833
 31
0.0
  0
LINE
  5
F5
330
BF
100
AcDbEntity
  8
0
  6
Continuous
 62
     0
370
    30
100
AcDbLine
 10
68.004234
 20
363.218331
 30
0.0
 11
60.004234
 21
363.218331
 31
0.0
  0
LINE
  5
F6
330
BF
100
AcDbEntity
  8
0
  6
Continuous
 62
     0
370
    30
100
AcDbLine
 10
60.004234
 20
363.218331
 30
0.0
 11
60.004234
 21
324.218331
 31
0.0
  0
LINE
  5
F7
330
BF
100
AcDbEntity
  8
0
  6
Continuous
 62
     0
370
     0
100
AcDbLine
 10
60.004234
 20
324.218331
 30
0.0
 11
68.004234
 21
324.218331
 31
0.0
  0
LINE
  5
F8
330
BF
100
AcDbEntity
  8
0
  6
Continuous
 62
     0
370
     0
100
AcDbLine
 10
68.004234
 20
324.21833
 30
0.0
 11
68.004234
 21
363.21833
 31
0.0
  0
LINE
  5
F9
330
BF
100
AcDbEntity
  8
0
  6
Continuous
 62
     0
370
     0
100
AcDbLine
 10
90.004234
 20
324.21833
 30
0.0
 11
68.004234
 21
324.21833
 31
0.0
  0
LINE
  5
FA
330
BF
100
AcDbEntity
  8
0
  6
Continuous
 62
     0
370
     0
100
AcDbLine
 10
90.004234
 20
363.21833
 30
0.0
 11
90.004234
 21
324.21833
 31
0.0
  0
LINE
  5
FB
330
BF
100
AcDbEntity
  8
0
  6
Continuous
 62
     0
370
    30
100
AcDbLine
 10
68.004234
 20
363.21833
 30
0.0
 11
90.004234
 21
363.21833
 31
0.0
  0
LINE
  5
FC
330
BF
100
AcDbEntity
  8
0
  6
Continuous
 62
     0
370
     0
100
AcDbLine
 10
90.004234
 20
324.218331
 30
0.0
 11
98.004234
 21
324.218331
 31
0.0
  0
LINE
  5
FD
330
BF
100
AcDbEntity
  8
0
  6
Continuous
 62
     0
370
    30
100
AcDbLine
 10
98.004234
 20
324.218331
 30
0.0
 11
98.004234
 21
363.218331
 31
0.0
  0
LINE
  5
FE
330
BF
100
AcDbEntity
  8
0
  6
Continuous
 62
     0
370
    30
100
AcDbLine
 10
98.004234
 20
363.218331
 30
0.0
 11
90.004234
 21
363.218331
 31
0.0
  0
ARC
  5
FF
330
BF
100
AcDbEntity
  8
0
  6
Continuous
 62
     0
370
    30
100
AcDbCircle
 10
61.004234
 20
324.218331
 30
0.0
 40
1.0
100
AcDbArc
 50
180.0
 51
270.0
  0
ARC
  5
100
330
BF
100
AcDbEntity
  8
0
  6
Continuous
 62
     0
370
    30
100
AcDbCircle
 10
97.004234
 20
324.218331
 30
0.0
 40
0.9999999999999961
100
AcDbArc
 50
270.0
 51
0.0
  0
LINE
  5
101
330
BF
100
AcDbEntity
  8
0
  6
Continuous
 62
     0
370
     0
100
AcDbLine
 10
90.004234
 20
324.21833
 30
0.0
 11
90.004234
 21
323.21833
 31
0.0
  0
LINE
  5
102
330
BF
100
AcDbEntity
  8
0
  6
Continuous
 62
     0
370
     0
100
AcDbLine
 10
68.004234
 20
324.21833
 30
0.0
 11
68.004234
 21
323.21833
 31
0.0
  0
LINE
  5
103
330
BF
100
AcDbEntity
  8
0
  6
Continuous
 62
     0
370
    30
100
AcDbLine
 10
62.588718
 20
363.868329
 30
0.0
 11
63.44767
 21
363.868329
 31
0.0
  0
LINE
  5
104
330
BF
100
AcDbEntity
  8
0
  6
Continuous
 62
     0
370
    30
100
AcDbLine
 10
95.097621
 20
363.868329
 30
0.0
 11
95.419751
 21
363.868329
 31
0.0
  0
LINE
  5
105
330
BF
100
AcDbEntity
  8
0
  6
Continuous
 62
     0
370
     0
100
AcDbLine
 10
62.302401
 20
364.168374
 30
0.0
 11
62.302401
 21
366.068283
 31
0.0
  0
LWPOLYLINE
  5
106
330
BF
100
AcDbEntity
  8
0
  6
Continuous
 62
     0
370
     0
100
AcDbPolyline
 90
        6
 70
     0
 43
0.0
 10
62.302402
 20
366.068268
 10
62.023106
 20
366.050568
 10
61.802818
 20
366.032867
 10
61.642429
 20
366.015259
 10
61.542877
 20
365.997894
 10
61.504211
 20
365.978394
  0
LWPOLYLINE
  5
107
330
BF
100
AcDbEntity
  8
0
  6
Continuous
 62
     0
370
     0
100
AcDbPolyline
 90
        6
 70
     0
 43
0.0
 10
61.504211
 20
364.25827
 10
61.53381
 20
364.24118
 10
61.624748
 20
364.223846
 10
61.776646
 20
364.206268
 10
61.988571
 20
364.188599
 10
62.302402
 20
364.168365
  0
LWPOLYLINE
  5
108
330
BF
100
AcDbEntity
  8
0
  6
Continuous
 62
     0
370
     0
100
AcDbPolyline
 90
       48
 70
     0
 43
0.0
 10
95.419754
 20
366.368317
 10
95.726143
 20
366.348297
 10
95.958176
 20
366.328339
 10
96.114571
 20
366.308533
 10
96.194504
 20
366.289032
 10
96.19767
 20
366.269867
 10
96.124191
 20
366.25116
 10
95.974266
 20
366.232941
 10
95.748543
 20
366.215363
 10
95.448174
 20
366.198456
 10
95.074387
 20
366.182281
 10
94.628799
 20
366.166962
 10
94.113556
 20
366.152527
 10
93.530823
 20
366.139069
 10
92.883202
 20
366.126648
 10
92.173706
 20
366.115265
 10
91.405396
 20
366.105042
 10
90.581665
 20
366.095978
 10
89.706314
 20
366.088135
 10
88.783188
 20
366.081543
 10
87.816345
 20
366.076233
 10
86.810211
 20
366.072235
 10
85.769226
 20
366.06955
 10
84.698006
 20
366.068176
 10
83.601402
 20
366.068176
 10
82.484299
 20
366.069489
 10
81.351639
 20
366.072144
 10
80.208511
 20
366.076141
 10
79.060028
 20
366.081421
 10
77.911301
 20
366.087982
 10
76.767464
 20
366.095795
 10
75.633652
 20
366.104828
 10
74.5149
 20
366.115051
 10
73.416176
 20
366.126373
 10
72.34243
 20
366.138794
 10
71.298462
 20
366.152252
 10
70.288872
 20
366.166656
 10
69.318237
 20
366.181946
 10
68.390869
 20
366.19809
 10
67.510826
 20
366.214996
 10
66.682144
 20
366.232574
 10
65.908493
 20
366.250763
 10
65.193237
 20
366.26947
 10
64.539726
 20
366.288635
 10
63.950951
 20
366.308136
 10
63.429241
 20
366.327911
 10
62.97681
 20
366.34787
 10
62.588718
 20
366.368317
  0
LWPOLYLINE
  5
109
330
BF
100
AcDbEntity
  8
0
  6
Continuous
 62
     0
370
     0
100
AcDbPolyline
 90
       43
 70
     0
 43
0.0
 10
65.642769
 20
366.368317
 10
65.992348
 20
366.350067
 10
66.414665
 20
366.331909
 10
66.90731
 20
366.313965
 10
67.467606
 20
366.296326
 10
68.092308
 20
366.279083
 10
68.778053
 20
366.262329
 10
69.52095
 20
366.246185
 10
70.316803
 20
366.230713
 10
71.16127
 20
366.216003
 10
72.049561
 20
366.202148
 10
72.976738
 20
366.18924
 10
73.93763
 20
366.177307
 10
74.926811
 20
366.166473
 10
75.938828
 20
366.156738
 10
76.967979
 20
366.148193
 10
78.008514
 20
366.140869
 10
79.054634
 20
366.134857
 10
80.100479
 20
366.130096
 10
81.14019
 20
366.126709
 10
82.167976
 20
366.124664
 10
83.178085
 20
366.123962
 10
84.164833
 20
366.124634
 10
85.122765
 20
366.126678
 10
86.046478
 20
366.130066
 10
86.930809
 20
366.134766
 10
87.770851
 20
366.140808
 10
88.561829
 20
366.148102
 10
89.299438
 20
366.156616
 10
89.979485
 20
366.166351
 10
90.598145
 20
366.177185
 10
91.152039
 20
366.189087
 10
91.637962
 20
366.201996
 10
92.053314
 20
366.215851
 10
92.395767
 20
366.23053
 10
92.6633
 20
366.246002
 10
92.854561
 20
366.262146
 10
92.968323
 20
366.27887
 10
93.004028
 20
366.296112
 10
92.961662
 20
366.313751
 10
92.841209
 20
366.331696
 10
92.643326
 20
366.349854
 10
92.365623
 20
366.368317
  0
LWPOLYLINE
  5
10A
330
BF
100
AcDbEntity
  8
0
  6
Continuous
 62
     0
370
     0
100
AcDbPolyline
 90
       43
 70
     0
 43
0.0
 10
62.302402
 20
364.168365
 10
62.693142
 20
364.188629
 10
63.159363
 20
364.208832
 10
63.698174
 20
364.228882
 10
64.306053
 20
364.248596
 10
64.980354
 20
364.267944
 10
65.718727
 20
364.286835
 10
66.518326
 20
364.305176
 10
67.37561
 20
364.322937
 10
68.286392
 20
364.339996
 10
69.246468
 20
364.356262
 10
70.251335
 20
364.371643
 10
71.295914
 20
364.386139
 10
72.375038
 20
364.399597
 10
73.483597
 20
364.411987
 10
74.616852
 20
364.423279
 10
75.770256
 20
364.433411
 10
76.939285
 20
364.442322
 10
78.118752
 20
364.450012
 10
79.302795
 20
364.45639
 10
80.485542
 20
364.461456
 10
81.66127
 20
364.46521
 10
82.824684
 20
364.46756
 10
83.970543
 20
364.468567
 10
85.09362
 20
364.468201
 10
86.188896
 20
364.466461
 10
87.251457
 20
364.463348
 10
88.276382
 20
364.458862
 10
89.258865
 20
364.453064
 10
90.194283
 20
364.445984
 10
91.077988
 20
364.437622
 10
91.90567
 20
364.42804
 10
92.674156
 20
364.417297
 10
93.38047
 20
364.405396
 10
94.02153
 20
364.392395
 10
94.594429
 20
364.378387
 10
95.096405
 20
364.363403
 10
95.524696
 20
364.347504
 10
95.877129
 20
364.330811
 10
96.152359
 20
364.313354
 10
96.349152
 20
364.295288
 10
96.466499
 20
364.276611
 10
96.504234
 20
364.257446
  0
LWPOLYLINE
  5
10B
330
BF
100
AcDbEntity
  8
0
  6
Continuous
 62
     0
370
     0
100
AcDbPolyline
 90
       43
 70
     0
 43
0.0
 10
96.504181
 20
365.979553
 10
96.467926
 20
365.960388
 10
96.352005
 20
365.941711
 10
96.156555
 20
365.923615
 10
95.882576
 20
365.906158
 10
95.531326
 20
365.889435
 10
95.104118
 20
365.873505
 10
94.603134
 20
365.858521
 10
94.031113
 20
365.844452
 10
93.390839
 20
365.831451
 10
92.685196
 20
365.81955
 10
91.917297
 20
365.808746
 10
91.090118
 20
365.799164
 10
90.206802
 20
365.790771
 10
89.27169
 20
365.783661
 10
88.289391
 20
365.777863
 10
87.264565
 20
365.773376
 10
86.202011
 20
365.770233
 10
85.106651
 20
365.768463
 10
83.983414
 20
365.768097
 10
82.837326
 20
365.769073
 10
81.673599
 20
365.771423
 10
80.497498
 20
365.775146
 10
79.314316
 20
365.780212
 10
78.129776
 20
365.786591
 10
76.949768
 20
365.79425
 10
75.780151
 20
365.803162
 10
74.626137
 20
365.813293
 10
73.492241
 20
365.824554
 10
72.383034
 20
365.836975
 10
71.303253
 20
365.850433
 10
70.258003
 20
365.864899
 10
69.252457
 20
365.88031
 10
68.291725
 20
365.896576
 10
67.380287
 20
365.913635
 10
66.522369
 20
365.931396
 10
65.722176
 20
365.949738
 10
64.983238
 20
365.968628
 10
64.308411
 20
365.987976
 10
63.700047
 20
366.007721
 10
63.160805
 20
366.02774
 10
62.694195
 20
366.047974
 10
62.302402
 20
366.068268
  0
LWPOLYLINE
  5
10C
330
BF
100
AcDbEntity
  8
0
  6
Continuous
 62
     0
370
     0
100
AcDbPolyline
 90
       44
 70
     0
 43
0.0
 10
95.17392
 20
363.918457
 10
95.276321
 20
363.937622
 10
95.301491
 20
363.956451
 10
95.249321
 20
363.974854
 10
95.120056
 20
363.992767
 10
94.914314
 20
364.010071
 10
94.633064
 20
364.026733
 10
94.277641
 20
364.042603
 10
93.849739
 20
364.057678
 10
93.351379
 20
364.071838
 10
92.784935
 20
364.085052
 10
92.153084
 20
364.097198
 10
91.458839
 20
364.108307
 10
90.705475
 20
364.118225
 10
89.896591
 20
364.126984
 10
89.036003
 20
364.134521
 10
88.127808
 20
364.140808
 10
87.176308
 20
364.145752
 10
86.186028
 20
364.149414
 10
85.161652
 20
364.151733
 10
84.108055
 20
364.15271
 10
83.030235
 20
364.152344
 10
81.933304
 20
364.150635
 10
80.822456
 20
364.147552
 10
79.70298
 20
364.143188
 10
78.580185
 20
364.137482
 10
77.459389
 20
364.130524
 10
76.345917
 20
364.122314
 10
75.245049
 20
364.112885
 10
74.162018
 20
364.102295
 10
73.101952
 20
364.090607
 10
72.069893
 20
364.07785
 10
71.070724
 20
364.064117
 10
70.1092
 20
364.049438
 10
69.189873
 20
364.033936
 10
68.317116
 20
364.017609
 10
67.495064
 20
364.00058
 10
66.727615
 20
363.98291
 10
66.018417
 20
363.964722
 10
65.370827
 20
363.946075
 10
64.787933
 20
363.927032
 10
64.272491
 20
363.907745
 10
63.826942
 20
363.888245
 10
63.44767
 20
363.868317
  0
LWPOLYLINE
  5
10D
330
BF
100
AcDbEntity
  8
0
  6
Continuous
 62
     0
370
     0
100
AcDbPolyline
 90
       48
 70
     0
 43
0.0
 10
62.588718
 20
363.868317
 10
62.967941
 20
363.888367
 10
63.418758
 20
363.908325
 10
63.939159
 20
363.928131
 10
64.526817
 20
363.947632
 10
65.179108
 20
363.966797
 10
65.893127
 20
363.985504
 10
66.665672
 20
364.003723
 10
67.493317
 20
364.021301
 10
68.372345
 20
364.038208
 10
69.298843
 20
364.054382
 10
70.268677
 20
364.069702
 10
71.277512
 20
364.084137
 10
72.320847
 20
364.097595
 10
73.394028
 20
364.110016
 10
74.492249
 20
364.121399
 10
75.610626
 20
364.131622
 10
76.744164
 20
364.140686
 10
77.887794
 20
364.148529
 10
79.036415
 20
364.155121
 10
80.184898
 20
364.160431
 10
81.328117
 20
364.164429
 10
82.460968
 20
364.167114
 10
83.5784
 20
364.168457
 10
84.675415
 20
364.168488
 10
85.747116
 20
364.167175
 10
86.788734
 20
364.16449
 10
87.795601
 20
364.160522
 10
88.763237
 20
364.155243
 10
89.687309
 20
364.148682
 10
90.563698
 20
364.140839
 10
91.388496
 20
364.131836
 10
92.158012
 20
364.121613
 10
92.86882
 20
364.11026
 10
93.517738
 20
364.09787
 10
94.101875
 20
364.084412
 10
94.618622
 20
364.070007
 10
95.065674
 20
364.054688
 10
95.441032
 20
364.038574
 10
95.743027
 20
364.021667
 10
95.970299
 20
364.004089
 10
96.121849
 20
363.985901
 10
96.196983
 20
363.967194
 10
96.195381
 20
363.948029
 10
96.117035
 20
363.928528
 10
95.962311
 20
363.908752
 10
95.731895
 20
363.888794
 10
95.419754
 20
363.868317
  0
LWPOLYLINE
  5
10E
330
BF
100
AcDbEntity
  8
0
  6
Continuous
 62
     0
370
     0
100
AcDbPolyline
 90
       42
 70
     0
 43
0.0
 10
95.004234
 20
363.653229
 10
94.965988
 20
363.671783
 10
94.851326
 20
363.68985
 10
94.660881
 20
363.707367
 10
94.395615
 20
363.724182
 10
94.056618
 20
363.740265
 10
93.64563
 20
363.755524
 10
93.164635
 20
363.769867
 10
92.615799
 20
363.783264
 10
92.001892
 20
363.795654
 10
91.325813
 20
363.806915
 10
90.590706
 20
363.817047
 10
89.800209
 20
363.826019
 10
88.958054
 20
363.83374
 10
88.068214
 20
363.840179
 10
87.135056
 20
363.845306
 10
86.162971
 20
363.849121
 10
85.156601
 20
363.851624
 10
84.120834
 20
363.852722
 10
83.060562
 20
363.852478
 10
81.980873
 20
363.850891
 10
80.886963
 20
363.847931
 10
79.784042
 20
363.843628
 10
78.677383
 20
363.838043
 10
77.572304
 20
363.831146
 10
76.474091
 20
363.822968
 10
75.38797
 20
363.813599
 10
74.319168
 20
363.80304
 10
73.272812
 20
363.791382
 10
72.253853
 20
363.778625
 10
71.267212
 20
363.764893
 10
70.317627
 20
363.750214
 10
69.409554
 20
363.73465
 10
68.547409
 20
363.718292
 10
67.735313
 20
363.701233
 10
66.977089
 20
363.683502
 10
66.276505
 20
363.665253
 10
65.636803
 20
363.646545
 10
65.060905
 20
363.627441
 10
64.551666
 20
363.608063
 10
64.111603
 20
363.58847
 10
63.735523
 20
363.568359
  0
ARC
  5
10F
330
BF
100
AcDbEntity
  8
0
  6
Continuous
 62
     0
370
    30
100
AcDbCircle
 10
63.440346
 20
363.573205
 30
0.0
 40
0.2952150453738048
100
AcDbArc
 50
359.062518
 51
88.578406
  0
LINE
  5
110
330
BF
100
AcDbEntity
  8
0
  6
Continuous
 62
     0
370
     0
100
AcDbLine
 10
95.435427
 20
363.86879
 30
0.0
 11
95.419751
 21
363.868329
 31
0.0
  0
LWPOLYLINE
  5
111
330
BF
100
AcDbEntity
  8
0
  6
Continuous
 62
     0
370
     0
100
AcDbPolyline
 90
        5
 70
     0
 43
0.0
 10
62.588718
 20
363.868317
 10
62.490185
 20
363.88681
 10
62.403091
 20
363.939819
 10
62.339302
 20
364.021057
 10
62.302399
 20
364.168365
  0
ARC
  5
112
330
BF
100
AcDbEntity
  8
0
  6
Continuous
 62
     0
370
     0
100
AcDbCircle
 10
62.596446
 20
366.074685
 30
0.0
 40
0.2941151889740225
100
AcDbArc
 50
94.564293
 51
181.247118
  0
LINE
  5
113
330
BF
100
AcDbEntity
  8
0
  6
Continuous
 62
     0
370
     0
100
AcDbLine
 10
63.733987
 20
363.597602
 30
0.0
 11
63.733987
 21
363.218331
 31
0.0
  0
LINE
  5
114
330
BF
100
AcDbEntity
  8
0
  6
Continuous
 62
     0
370
    30
100
AcDbLine
 10
63.004234
 20
363.218331
 30
0.0
 11
63.004234
 21
363.868329
 31
0.0
  0
LINE
  5
115
330
BF
100
AcDbEntity
  8
0
  6
Continuous
 62
     0
370
    30
100
AcDbLine
 10
95.004234
 20
363.218331
 30
0.0
 11
95.004234
 21
363.653229
 31
0.0
  0
LWPOLYLINE
  5
116
330
BF
100
AcDbEntity
  8
0
  6
Continuous
 62
     0
370
    30
100
AcDbPolyline
 90
       25
 70
     0
 43
0.0
 10
61.504238
 20
365.978638
 10
61.542702
 20
366.126953
 10
61.616573
 20
366.215637
 10
61.675613
 20
366.254608
 10
61.716801
 20
366.272766
 10
61.74892
 20
366.283325
 10
61.777458
 20
366.290863
 10
61.804832
 20
366.296906
 10
61.832443
 20
366.302124
 10
61.861252
 20
366.306915
 10
61.891708
 20
366.311432
 10
61.924129
 20
366.315765
 10
61.958759
 20
366.319977
 10
61.995728
 20
366.324097
 10
62.035118
 20
366.328186
 10
62.077015
 20
366.332214
 10
62.121502
 20
366.336243
 10
62.168617
 20
366.34024
 10
62.218372
 20
366.344208
 10
62.270771
 20
366.348175
 10
62.325832
 20
366.352142
 10
62.38356
 20
366.356079
 10
62.443966
 20
366.360016
 10
62.507061
 20
366.363922
 10
62.57304
 20
366.367859
  0
LWPOLYLINE
  5
117
330
BF
100
AcDbEntity
  8
0
  6
Continuous
 62
     0
370
    30
100
AcDbPolyline
 90
       26
 70
     0
 43
0.0
 10
62.57304
 20
363.868774
 10
62.509914
 20
363.872559
 10
62.449276
 20
363.876312
 10
62.391121
 20
363.880066
 10
62.335426
 20
363.88385
 10
62.282181
 20
363.887634
 10
62.231369
 20
363.891418
 10
62.182983
 20
363.895233
 10
62.137001
 20
363.899048
 10
62.093414
 20
363.902924
 10
62.052204
 20
363.906799
 10
62.013355
 20
363.910706
 10
61.976799
 20
363.914642
 10
61.942467
 20
363.91864
 10
61.910286
 20
363.922699
 10
61.880104
 20
363.926849
 10
61.851559
 20
363.931244
 10
61.824268
 20
363.935974
 10
61.797829
 20
363.941223
 10
61.771473
 20
363.947296
 10
61.743797
 20
363.954803
 10
61.711956
 20
363.96579
 10
61.671246
 20
363.984406
 10
61.613209
 20
364.023834
 10
61.542221
 20
364.110596
 10
61.504246
 20
364.257996
  0
LWPOLYLINE
  5
118
330
BF
100
AcDbEntity
  8
0
  6
Continuous
 62
     0
370
    30
100
AcDbPolyline
 90
       26
 70
     0
 43
0.0
 10
95.435432
 20
366.367859
 10
95.498558
 20
366.364105
 10
95.559189
 20
366.360352
 10
95.617348
 20
366.356598
 10
95.673035
 20
366.352814
 10
95.72628
 20
366.34903
 10
95.777092
 20
366.345245
 10
95.825478
 20
366.341431
 10
95.871452
 20
366.337585
 10
95.915039
 20
366.33374
 10
95.956245
 20
366.329865
 10
95.995094
 20
366.325958
 10
96.031654
 20
366.322021
 10
96.065979
 20
366.318024
 10
96.09816
 20
366.313965
 10
96.128349
 20
366.309814
 10
96.156891
 20
366.30542
 10
96.184181
 20
366.30069
 10
96.210617
 20
366.295441
 10
96.236977
 20
366.289368
 10
96.264648
 20
366.28186
 10
96.296494
 20
366.270874
 10
96.337204
 20
366.252228
 10
96.395241
 20
366.212799
 10
96.466217
 20
366.126068
 10
96.504181
 20
365.978638
  0
LWPOLYLINE
  5
119
330
BF
100
AcDbEntity
  8
0
  6
Continuous
 62
     0
370
    30
100
AcDbPolyline
 90
       25
 70
     0
 43
0.0
 10
96.504234
 20
364.257996
 10
96.465767
 20
364.109711
 10
96.391891
 20
364.020996
 10
96.332855
 20
363.982056
 10
96.291664
 20
363.963898
 10
96.259544
 20
363.953339
 10
96.23101
 20
363.945801
 10
96.203636
 20
363.939758
 10
96.176025
 20
363.93454
 10
96.147217
 20
363.929749
 10
96.11676
 20
363.925232
 10
96.084335
 20
363.920898
 10
96.049713
 20
363.916687
 10
96.012741
 20
363.912537
 10
95.973351
 20
363.908478
 10
95.93145
 20
363.904419
 10
95.886963
 20
363.900421
 10
95.839851
 20
363.896423
 10
95.7901
 20
363.892456
 10
95.737694
 20
363.888489
 10
95.68264
 20
363.884521
 10
95.624908
 20
363.880585
 10
95.564507
 20
363.876648
 10
95.501404
 20
363.872711
 10
95.435425
 20
363.868774
  0
LWPOLYLINE
  5
11A
330
BF
100
AcDbEntity
  8
0
  6
Continuous
 62
     0
370
    30
100
AcDbPolyline
 90
        7
 70
     0
 43
0.0
 10
95.193863
 20
363.925598
 10
95.190315
 20
363.924622
 10
95.177559
 20
363.919952
 10
95.150955
 20
363.907135
 10
95.102936
 20
363.873108
 10
95.039963
 20
363.794006
 10
95.004234
 20
363.653229
  0
LINE
  5
11B
330
BF
100
AcDbEntity
  8
0
  6
Continuous
 62
     0
370
    30
100
AcDbLine
 10
96.504234
 20
364.258011
 30
0.0
 11
96.504234
 21
365.978647
 31
0.0
  0
LINE
  5
11C
330
BF
100
AcDbEntity
  8
0
  6
Continuous
 62
     0
370
    30
100
AcDbLine
 10
61.504234
 20
364.258011
 30
0.0
 11
61.504234
 21
365.978647
 31
0.0
  0
LINE
  5
11D
330
BF
100
AcDbEntity
  8
0
  6
Continuous
 62
     0
370
    30
100
AcDbLine
 10
119.004234
 20
368.368326
 30
0.0
 11
119.004234
 21
366.368326
 31
0.0
  0
LINE
  5
11E
330
BF
100
AcDbEntity
  8
0
  6
Continuous
 62
     0
370
    30
100
AcDbLine
 10
119.004234
 20
368.368326
 30
0.0
 11
39.004234
 21
368.368326
 31
0.0
  0
LINE
  5
11F
330
BF
100
AcDbEntity
  8
0
  6
Continuous
 62
     0
370
    30
100
AcDbLine
 10
39.004234
 20
368.368326
 30
0.0
 11
39.004234
 21
366.368326
 31
0.0
  0
LINE
  5
120
330
BF
100
AcDbEntity
  8
0
  6
Continuous
 62
     0
370
    30
100
AcDbLine
 10
39.004234
 20
366.368326
 30
0.0
 11
119.004234
 21
366.368326
 31
0.0
  0
ENDBLK
  5
122
330
BF
100
AcDbEntity
  8
0
100
AcDbBlockEnd
  0
BLOCK
  5
1B3
330
124
100
AcDbEntity
  8
0
100
AcDbBlockBegin
  2
c
 70
     0
 10
11.422987
 20
88.875168
 30
0.0
  3
c
  1

  0
LINE
  5
125
330
124
100
AcDbEntity
  8
0
  6
Continuous
 62
     0
370
    30
100
AcDbLine
 10
271.111617
 20
681.311157
 30
0.0
 11
271.111617
 21
688.311157
 31
0.0
  0
LINE
  5
126
330
124
100
AcDbEntity
  8
0
  6
Continuous
 62
     0
370
    30
100
AcDbLine
 10
271.111617
 20
710.311157
 30
0.0
 11
271.111617
 21
717.311157
 31
0.0
  0
LINE
  5
127
330
124
100
AcDbEntity
  8
0
  6
Continuous
 62
     0
370
    30
100
AcDbLine
 10
271.111617
 20
688.311157
 30
0.0
 11
271.111617
 21
710.311157
 31
0.0
  0
LINE
  5
128
330
124
100
AcDbEntity
  8
0
  6
Continuous
 62
     0
370
    30
100
AcDbLine
 10
231.111617
 20
718.311157
 30
0.0
 11
231.111617
 21
710.311157
 31
0.0
  0
LINE
  5
129
330
124
100
AcDbEntity
  8
0
  6
Continuous
 62
     0
370
     0
100
AcDbLine
 10
231.111617
 20
710.311157
 30
0.0
 11
270.111617
 21
710.311157
 31
0.0
  0
LINE
  5
12A
330
124
100
AcDbEntity
  8
0
  6
Continuous
 62
     0
370
     0
100
AcDbLine
 10
270.111617
 20
710.311157
 30
0.0
 11
270.111617
 21
718.311157
 31
0.0
  0
LINE
  5
12B
330
124
100
AcDbEntity
  8
0
  6
Continuous
 62
     0
370
    30
100
AcDbLine
 10
270.111617
 20
718.311157
 30
0.0
 11
231.111617
 21
718.311157
 31
0.0
  0
LINE
  5
12C
330
124
100
AcDbEntity
  8
0
  6
Continuous
 62
     0
370
    30
100
AcDbLine
 10
231.111617
 20
680.311157
 30
0.0
 11
270.111617
 21
680.311157
 31
0.0
  0
LINE
  5
12D
330
124
100
AcDbEntity
  8
0
  6
Continuous
 62
     0
370
     0
100
AcDbLine
 10
270.111617
 20
680.311157
 30
0.0
 11
270.111617
 21
688.311157
 31
0.0
  0
LINE
  5
12E
330
124
100
AcDbEntity
  8
0
  6
Continuous
 62
     0
370
     0
100
AcDbLine
 10
270.111617
 20
688.311157
 30
0.0
 11
231.111617
 21
688.311157
 31
0.0
  0
LINE
  5
12F
330
124
100
AcDbEntity
  8
0
  6
Continuous
 62
     0
370
    30
100
AcDbLine
 10
231.111617
 20
688.311157
 30
0.0
 11
231.111617
 21
680.311157
 31
0.0
  0
LINE
  5
130
330
124
100
AcDbEntity
  8
0
  6
Continuous
 62
     0
370
     0
100
AcDbLine
 10
270.111617
 20
710.311157
 30
0.0
 11
270.111617
 21
688.311157
 31
0.0
  0
LINE
  5
131
330
124
100
AcDbEntity
  8
0
  6
Continuous
 62
     0
370
    30
100
AcDbLine
 10
231.111617
 20
688.311157
 30
0.0
 11
231.111617
 21
710.311157
 31
0.0
  0
LINE
  5
132
330
124
100
AcDbEntity
  8
0
  6
Continuous
 62
     0
370
     0
100
AcDbLine
 10
270.111617
 20
688.311157
 30
0.0
 11
271.111617
 21
688.311157
 31
0.0
  0
LINE
  5
133
330
124
100
AcDbEntity
  8
0
  6
Continuous
 62
     0
370
     0
100
AcDbLine
 10
271.111617
 20
710.311157
 30
0.0
 11
270.111617
 21
710.311157
 31
0.0
  0
ARC
  5
134
330
124
100
AcDbEntity
  8
0
  6
Continuous
 62
     0
370
    30
100
AcDbCircle
 10
270.111617
 20
681.311157
 30
0.0
 40
1.000000000003801
100
AcDbArc
 50
270.0
 51
360.0
  0
ARC
  5
135
330
124
100
AcDbEntity
  8
0
  6
Continuous
 62
     0
370
    30
100
AcDbCircle
 10
270.111617
 20
717.311157
 30
0.0
 40
1.0
100
AcDbArc
 50
0.0
 51
90.0
  0
LINE
  5
136
330
124
100
AcDbEntity
  8
0
  6
Continuous
 62
     0
370
    30
100
AcDbLine
 10
280.961691
 20
557.813873
 30
0.0
 11
280.961691
 21
600.813873
 31
0.0
  0
LINE
  5
137
330
124
100
AcDbEntity
  8
0
  6
Continuous
 62
     0
370
    30
100
AcDbLine
 10
280.961691
 20
557.813873
 30
0.0
 11
280.461691
 21
557.313873
 31
0.0
  0
LINE
  5
138
330
124
100
AcDbEntity
  8
0
  6
Continuous
 62
     0
370
    30
100
AcDbLine
 10
280.461691
 20
557.313873
 30
0.0
 11
280.461691
 21
601.313873
 31
0.0
  0
LINE
  5
139
330
124
100
AcDbEntity
  8
0
  6
Continuous
 62
     0
370
    30
100
AcDbLine
 10
267.211691
 20
557.313873
 30
0.0
 11
230.961691
 21
557.313873
 31
0.0
  0
LINE
  5
13A
330
124
100
AcDbEntity
  8
0
  6
Continuous
 62
     0
370
    30
100
AcDbLine
 10
230.961691
 20
601.313873
 30
0.0
 11
230.961691
 21
557.313873
 31
0.0
  0
LWPOLYLINE
  5
13B
330
124
100
AcDbEntity
  8
0
  6
Continuous
 62
     0
370
     0
100
AcDbPolyline
 90
       27
 70
     0
 43
0.0
 10
267.2117
 20
557.313843
 10
267.246002
 20
557.32135
 10
267.349579
 20
557.343201
 10
267.519531
 20
557.378296
 10
267.753662
 20
557.4245
 10
268.048401
 20
557.479248
 10
268.39978
 20
557.53949
 10
268.803345
 20
557.601746
 10
269.253326
 20
557.662598
 10
269.742889
 20
557.718445
 10
270.265137
 20
557.765808
 10
270.812561
 20
557.802002
 10
271.377197
 20
557.824829
 10
271.950867
 20
557.832703
 10
272.524719
 20
557.825378
 10
273.089844
 20
557.803101
 10
273.638062
 20
557.767395
 10
274.161407
 20
557.720459
 10
274.652344
 20
557.664856
 10
275.103943
 20
557.604065
 10
275.509369
 20
557.541809
 10
275.862762
 20
557.481445
 10
276.159637
 20
557.426392
 10
276.396118
 20
557.379822
 10
276.568665
 20
557.344299
 10
276.674652
 20
557.321899
 10
276.7117
 20
557.313904
  0
LINE
  5
13C
330
124
100
AcDbEntity
  8
0
  6
Continuous
 62
     0
370
    30
100
AcDbLine
 10
276.711691
 20
557.313873
 30
0.0
 11
280.461691
 21
557.313873
 31
0.0
  0
LWPOLYLINE
  5
13D
330
124
100
AcDbEntity
  8
0
  6
Continuous
 62
     0
370
     0
100
AcDbPolyline
 90
       25
 70
     0
 43
0.0
 10
276.061279
 20
601.313843
 10
276.026672
 20
601.307373
 10
275.922394
 20
601.28833
 10
275.750641
 20
601.258057
 10
275.514893
 20
601.218567
 10
275.218933
 20
601.172485
 10
274.86731
 20
601.122925
 10
274.465332
 20
601.073059
 10
274.020386
 20
601.026367
 10
273.540131
 20
600.986084
 10
273.032684
 20
600.955017
 10
272.506622
 20
600.935303
 10
271.970825
 20
600.928528
 10
271.434875
 20
600.934937
 10
270.908356
 20
600.954224
 10
270.400116
 20
600.984863
 10
269.918762
 20
601.024841
 10
269.472412
 20
601.071411
 10
269.068817
 20
601.121216
 10
268.715332
 20
601.170837
 10
268.417419
 20
601.217102
 10
268.179565
 20
601.256897
 10
268.005768
 20
601.287476
 10
267.898926
 20
601.306946
 10
267.861694
 20
601.313843
  0
LWPOLYLINE
  5
13E
330
124
100
AcDbEntity
  8
0
  6
Continuous
 62
     0
370
    30
100
AcDbPolyline
 90
       22
 70
     0
 43
0.0
 10
275.411682
 20
609.14386
 10
275.378754
 20
609.14386
 10
275.274139
 20
609.14386
 10
275.091919
 20
609.14386
 10
274.830963
 20
609.14386
 10
274.495819
 20
609.14386
 10
274.096924
 20
609.14386
 10
273.649445
 20
609.14386
 10
273.171509
 20
609.14386
 10
272.681885
 20
609.14386
 10
272.197845
 20
609.14386
 10
271.727234
 20
609.14386
 10
271.243256
 20
609.14386
 10
270.753601
 20
609.14386
 10
270.275604
 20
609.14386
 10
269.827972
 20
609.14386
 10
269.428864
 20
609.14386
 10
269.093506
 20
609.14386
 10
268.832245
 20
609.14386
 10
268.64975
 20
609.14386
 10
268.544891
 20
609.14386
 10
268.511688
 20
609.14386
  0
LINE
  5
13F
330
124
100
AcDbEntity
  8
0
  6
Continuous
 62
     0
370
    30
100
AcDbLine
 10
275.411691
 20
609.143873
 30
0.0
 11
275.911691
 21
608.643873
 31
0.0
  0
LWPOLYLINE
  5
140
330
124
100
AcDbEntity
  8
0
  6
Continuous
 62
     0
370
    30
100
AcDbPolyline
 90
       24
 70
     0
 43
0.0
 10
275.911682
 20
608.64386
 10
275.874756
 20
608.64386
 10
275.765472
 20
608.64386
 10
275.586029
 20
608.643921
 10
275.338867
 20
608.643921
 10
275.028839
 20
608.643921
 10
274.662292
 20
608.64386
 10
274.245636
 20
608.64386
 10
273.786377
 20
608.64386
 10
273.293488
 20
608.64386
 10
272.776001
 20
608.64386
 10
272.243256
 20
608.64386
 10
271.70517
 20
608.64386
 10
271.171906
 20
608.64386
 10
270.653412
 20
608.64386
 10
270.159058
 20
608.64386
 10
269.698029
 20
608.64386
 10
269.279327
 20
608.64386
 10
268.910492
 20
608.64386
 10
268.597809
 20
608.64386
 10
268.347382
 20
608.64386
 10
268.164307
 20
608.64386
 10
268.051697
 20
608.64386
 10
268.011688
 20
608.64386
  0
LINE
  5
141
330
124
100
AcDbEntity
  8
0
  6
Continuous
 62
     0
370
    30
100
AcDbLine
 10
275.911691
 20
601.313873
 30
0.0
 11
275.911691
 21
608.643873
 31
0.0
  0
LWPOLYLINE
  5
142
330
124
100
AcDbEntity
  8
0
  6
Continuous
 62
     0
370
    30
100
AcDbPolyline
 90
       24
 70
     0
 43
0.0
 10
268.011688
 20
601.313782
 10
268.048889
 20
601.307007
 10
268.158722
 20
601.287659
 10
268.338715
 20
601.257446
 10
268.586029
 20
601.218079
 10
268.895782
 20
601.172363
 10
269.261841
 20
601.124023
 10
269.67807
 20
601.076599
 10
270.137085
 20
601.033325
 10
270.630127
 20
600.997375
 10
271.148315
 20
600.97168
 10
271.682404
 20
600.958557
 10
272.221954
 20
600.958313
 10
272.756439
 20
600.971008
 10
273.275391
 20
600.996277
 10
273.769531
 20
601.031982
 10
274.229858
 20
601.075012
 10
274.647583
 20
601.122314
 10
275.01535
 20
601.170654
 10
275.327209
 20
601.216492
 10
275.57724
 20
601.256226
 10
275.760254
 20
601.286926
 10
275.872589
 20
601.306702
 10
275.911682
 20
601.313843
  0
LINE
  5
143
330
124
100
AcDbEntity
  8
0
  6
Continuous
 62
     0
370
    30
100
AcDbLine
 10
267.211691
 20
557.313873
 30
0.0
 11
276.711691
 21
557.313873
 31
0.0
  0
LINE
  5
144
330
124
100
AcDbEntity
  8
0
  6
Continuous
 62
     0
370
    30
100
AcDbLine
 10
275.911691
 20
601.313873
 30
0.0
 11
276.061294
 21
601.313873
 31
0.0
  0
LINE
  5
145
330
124
100
AcDbEntity
  8
0
  6
Continuous
 62
     0
370
    30
100
AcDbLine
 10
268.011691
 20
608.643873
 30
0.0
 11
268.011691
 21
601.313797
 31
0.0
  0
LINE
  5
146
330
124
100
AcDbEntity
  8
0
  6
Continuous
 62
     0
370
    30
100
AcDbLine
 10
268.511691
 20
609.143873
 30
0.0
 11
268.011691
 21
608.643873
 31
0.0
  0
LINE
  5
147
330
124
100
AcDbEntity
  8
0
  6
Continuous
 62
     0
370
    30
100
AcDbLine
 10
280.461691
 20
601.313873
 30
0.0
 11
276.061293
 21
601.313873
 31
0.0
  0
LINE
  5
148
330
124
100
AcDbEntity
  8
0
  6
Continuous
 62
     0
370
    30
100
AcDbLine
 10
267.861691
 20
601.313873
 30
0.0
 11
230.961691
 21
601.313873
 31
0.0
  0
LINE
  5
149
330
124
100
AcDbEntity
  8
0
  6
Continuous
 62
     0
370
    30
100
AcDbLine
 10
280.961691
 20
600.813873
 30
0.0
 11
280.461691
 21
601.313873
 31
0.0
  0
LWPOLYLINE
  5
14A
330
124
100
AcDbEntity
  8
0
  6
Continuous
 62
     0
370
    30
100
AcDbPolyline
 90
       28
 70
     0
 43
0.0
 10
230.461624
 20
704.088135
 10
230.442276
 20
703.018677
 10
230.423019
 20
701.931396
 10
230.403946
 20
700.831604
 10
230.385147
 20
699.724426
 10
230.36673
 20
698.615295
 10
230.348755
 20
697.50946
 10
230.331329
 20
696.412292
 10
230.314529
 20
695.329041
 10
230.298431
 20
694.264954
 10
230.283112
 20
693.225098
 10
230.268661
 20
692.214417
 10
230.255142
 20
691.237915
 10
230.242599
 20
690.300171
 10
230.231125
 20
689.405701
 10
230.220749
 20
688.558899
 10
230.211533
 20
687.763794
 10
230.203522
 20
687.024109
 10
230.196747
 20
686.343567
 10
230.191254
 20
685.725281
 10
230.187042
 20
685.172302
 10
230.184174
 20
684.687378
 10
230.182617
 20
684.272644
 10
230.182419
 20
683.930237
 10
230.183563
 20
683.661865
 10
230.186035
 20
683.468567
 10
230.189835
 20
683.351562
 10
230.195053
 20
683.311218
  0
LINE
  5
14B
330
124
100
AcDbEntity
  8
0
  6
Continuous
 62
     0
370
    30
100
AcDbLine
 10
230.461619
 20
704.177702
 30
0.0
 11
230.461619
 21
704.088134
 31
0.0
  0
LINE
  5
14C
330
124
100
AcDbEntity
  8
0
  6
Continuous
 62
     0
370
     0
100
AcDbLine
 10
230.461619
 20
704.446407
 30
0.0
 11
230.461619
 21
704.177702
 31
0.0
  0
LWPOLYLINE
  5
14D
330
124
100
AcDbEntity
  8
0
  6
Continuous
 62
     0
370
     0
100
AcDbPolyline
 90
       35
 70
     0
 43
0.0
 10
230.228027
 20
683.311157
 10
230.216064
 20
682.928162
 10
230.20517
 20
682.61676
 10
230.195404
 20
682.378296
 10
230.186798
 20
682.213867
 10
230.179398
 20
682.124268
 10
230.173233
 20
682.109741
 10
230.16832
 20
682.17041
 10
230.164703
 20
682.306091
 10
230.162369
 20
682.516052
 10
230.161346
 20
682.799561
 10
230.161652
 20
683.155151
 10
230.163254
 20
683.58136
 10
230.166153
 20
684.076416
 10
230.170364
 20
684.638062
 10
230.175842
 20
685.263794
 10
230.182556
 20
685.95105
 10
230.190506
 20
686.696655
 10
230.199631
 20
687.497375
 10
230.209915
 20
688.349731
 10
230.221283
 20
689.250061
 10
230.233704
 20
690.194275
 10
230.247131
 20
691.178345
 10
230.26149
 20
692.197998
 10
230.276718
 20
693.248657
 10
230.29277
 20
694.325867
 10
230.30954
 20
695.424805
 10
230.326981
 20
696.54071
 10
230.345016
 20
697.66864
 10
230.363556
 20
698.803833
 10
230.382538
 20
699.941162
 10
230.40184
 20
701.075623
 10
230.421417
 20
702.202393
 10
230.441177
 20
703.316772
 10
230.461624
 20
704.446411
  0
LINE
  5
14E
330
124
100
AcDbEntity
  8
0
  6
Continuous
 62
     0
370
     0
100
AcDbLine
 10
230.161573
 20
704.535976
 30
0.0
 11
228.261665
 21
704.535976
 31
0.0
  0
LWPOLYLINE
  5
14F
330
124
100
AcDbEntity
  8
0
  6
Continuous
 62
     0
370
     0
100
AcDbPolyline
 90
       29
 70
     0
 43
0.0
 10
228.261658
 20
704.53595
 10
228.281708
 20
703.409302
 10
228.301697
 20
702.261963
 10
228.321533
 20
701.100769
 10
228.341049
 20
699.933472
 10
228.360199
 20
698.764893
 10
228.378906
 20
697.598511
 10
228.39711
 20
696.438904
 10
228.414719
 20
695.291321
 10
228.431656
 20
694.161133
 10
228.44783
 20
693.053711
 10
228.463165
 20
691.974426
 10
228.4776
 20
690.928162
 10
228.491074
 20
689.919983
 10
228.503494
 20
688.954529
 10
228.514832
 20
688.035889
 10
228.52504
 20
687.167542
 10
228.534073
 20
686.352905
 10
228.541901
 20
685.595642
 10
228.548477
 20
684.899231
 10
228.553772
 20
684.267151
 10
228.557755
 20
683.70282
 10
228.560425
 20
683.208496
 10
228.561737
 20
682.786194
 10
228.561722
 20
682.437988
 10
228.560349
 20
682.165405
 10
228.557632
 20
681.969421
 10
228.553604
 20
681.851196
 10
228.548203
 20
681.81134
  0
LWPOLYLINE
  5
150
330
124
100
AcDbEntity
  8
0
  6
Continuous
 62
     0
370
     0
100
AcDbPolyline
 90
       29
 70
     0
 43
0.0
 10
229.875046
 20
681.81134
 10
229.869675
 20
681.850464
 10
229.865631
 20
681.968018
 10
229.862915
 20
682.163269
 10
229.861526
 20
682.435181
 10
229.861496
 20
682.782715
 10
229.862793
 20
683.204346
 10
229.865448
 20
683.697998
 10
229.869415
 20
684.26178
 10
229.87471
 20
684.893188
 10
229.881271
 20
685.58905
 10
229.889084
 20
686.345825
 10
229.898117
 20
687.159912
 10
229.90831
 20
688.027832
 10
229.919632
 20
688.946045
 10
229.932053
 20
689.911011
 10
229.945511
 20
690.918884
 10
229.95993
 20
691.964783
 10
229.975266
 20
693.043823
 10
229.99144
 20
694.151001
 10
230.008362
 20
695.281067
 10
230.02597
 20
696.428528
 10
230.044159
 20
697.588013
 10
230.062866
 20
698.754395
 10
230.082016
 20
699.922913
 10
230.101532
 20
701.09021
 10
230.121353
 20
702.251526
 10
230.141342
 20
703.398987
 10
230.161575
 20
704.53595
  0
LWPOLYLINE
  5
151
330
124
100
AcDbEntity
  8
0
  6
Continuous
 62
     0
370
     0
100
AcDbPolyline
 90
       48
 70
     0
 43
0.0
 10
227.9617
 20
704.442078
 10
227.98175
 20
703.334656
 10
228.001694
 20
702.209229
 10
228.021469
 20
701.070862
 10
228.040985
 20
699.924622
 10
228.060135
 20
698.775635
 10
228.078857
 20
697.629028
 10
228.097046
 20
696.489868
 10
228.114639
 20
695.363281
 10
228.131546
 20
694.254333
 10
228.147705
 20
693.167908
 10
228.163025
 20
692.108826
 10
228.177444
 20
691.081909
 10
228.190903
 20
690.091675
 10
228.203339
 20
689.142578
 10
228.214691
 20
688.238831
 10
228.22493
 20
687.38446
 10
228.233978
 20
686.583313
 10
228.241821
 20
685.838928
 10
228.248413
 20
685.154663
 10
228.253723
 20
684.533508
 10
228.257721
 20
683.978271
 10
228.260406
 20
683.491516
 10
228.261765
 20
683.075256
 10
228.26178
 20
682.731445
 10
228.260452
 20
682.461609
 10
228.257797
 20
682.266968
 10
228.253815
 20
682.148315
 10
228.248535
 20
682.106262
 10
228.241974
 20
682.14093
 10
228.234146
 20
682.252258
 10
228.225128
 20
682.439636
 10
228.21492
 20
682.702271
 10
228.203583
 20
683.039062
 10
228.191162
 20
683.448425
 10
228.177734
 20
683.928528
 10
228.16333
 20
684.477234
 10
228.148026
 20
685.092163
 10
228.131897
 20
685.770508
 10
228.115005
 20
686.509277
 10
228.097427
 20
687.305115
 10
228.079239
 20
688.154541
 10
228.060532
 20
689.053711
 10
228.041382
 20
689.998657
 10
228.021881
 20
690.985107
 10
228.002106
 20
692.008728
 10
227.982162
 20
693.06488
 10
227.9617
 20
694.17157
  0
LWPOLYLINE
  5
152
330
124
100
AcDbEntity
  8
0
  6
Continuous
 62
     0
370
     0
100
AcDbPolyline
 90
       45
 70
     0
 43
0.0
 10
227.9617
 20
695.126953
 10
227.977585
 20
694.266846
 10
227.99382
 20
693.407288
 10
228.010269
 20
692.555115
 10
228.026825
 20
691.71759
 10
228.043365
 20
690.902283
 10
228.059753
 20
690.117188
 10
228.075851
 20
689.370117
 10
228.091507
 20
688.668823
 10
228.106567
 20
688.020569
 10
228.120911
 20
687.431946
 10
228.134384
 20
686.908752
 10
228.146881
 20
686.45575
 10
228.15831
 20
686.076416
 10
228.168564
 20
685.77301
 10
228.177597
 20
685.546448
 10
228.185379
 20
685.396423
 10
228.191879
 20
685.321411
 10
228.197113
 20
685.318665
 10
228.20108
 20
685.384521
 10
228.203842
 20
685.514648
 10
228.20546
 20
685.703979
 10
228.205994
 20
685.947021
 10
228.20549
 20
686.246521
 10
228.203888
 20
686.610901
 10
228.201157
 20
687.042175
 10
228.197205
 20
687.541382
 10
228.192001
 20
688.108765
 10
228.185532
 20
688.743103
 10
228.177765
 20
689.442383
 10
228.168762
 20
690.203064
 10
228.158524
 20
691.02063
 10
228.147125
 20
691.889282
 10
228.134644
 20
692.802429
 10
228.121185
 20
693.75238
 10
228.106857
 20
694.731018
 10
228.091812
 20
695.729797
 10
228.076172
 20
696.739929
 10
228.060089
 20
697.752869
 10
228.043701
 20
698.760315
 10
228.027161
 20
699.754456
 10
228.01059
 20
700.728271
 10
227.994141
 20
701.675476
 10
227.977921
 20
702.590698
 10
227.9617
 20
703.486694
  0
LWPOLYLINE
  5
153
330
124
100
AcDbEntity
  8
0
  6
Continuous
 62
     0
370
     0
100
AcDbPolyline
 90
        8
 70
     0
 43
0.0
 10
228.11348
 20
712.044922
 10
228.093628
 20
711.141907
 10
228.073044
 20
710.172302
 10
228.051819
 20
709.141724
 10
228.030106
 20
708.055725
 10
228.007996
 20
706.920532
 10
227.985626
 20
705.742615
 10
227.9617
 20
704.450745
  0
LWPOLYLINE
  5
154
330
124
100
AcDbEntity
  8
0
  6
Continuous
 62
     0
370
     0
100
AcDbPolyline
 90
       20
 70
     0
 43
0.0
 10
230.161575
 20
704.53595
 10
230.141602
 20
705.635742
 10
230.121674
 20
706.709534
 10
230.101898
 20
707.751221
 10
230.082443
 20
708.753601
 10
230.063354
 20
709.712769
 10
230.044693
 20
710.626099
 10
230.026535
 20
711.489807
 10
230.008972
 20
712.299988
 10
229.992081
 20
713.052979
 10
229.975922
 20
713.744995
 10
229.960602
 20
714.372559
 10
229.946182
 20
714.933105
 10
229.932724
 20
715.424011
 10
229.920288
 20
715.842957
 10
229.908936
 20
716.188232
 10
229.898712
 20
716.458801
 10
229.889633
 20
716.65332
 10
229.88176
 20
716.770813
 10
229.875046
 20
716.810974
  0
LWPOLYLINE
  5
155
330
124
100
AcDbEntity
  8
0
  6
Continuous
 62
     0
370
     0
100
AcDbPolyline
 90
       20
 70
     0
 43
0.0
 10
228.548203
 20
716.810974
 10
228.54158
 20
716.772034
 10
228.533737
 20
716.655762
 10
228.524673
 20
716.462402
 10
228.514465
 20
716.193054
 10
228.503128
 20
715.848877
 10
228.490723
 20
715.431091
 10
228.47728
 20
714.941284
 10
228.46286
 20
714.381836
 10
228.447556
 20
713.75531
 10
228.431427
 20
713.06427
 10
228.414536
 20
712.312195
 10
228.396973
 20
711.502869
 10
228.37883
 20
710.639954
 10
228.360184
 20
709.727417
 10
228.341095
 20
708.768921
 10
228.32164
 20
707.767212
 10
228.30188
 20
706.726135
 10
228.281952
 20
705.65271
 10
228.261658
 20
704.53595
  0
LWPOLYLINE
  5
156
330
124
100
AcDbEntity
  8
0
  6
Continuous
 62
     0
370
     0
100
AcDbPolyline
 90
       10
 70
     0
 43
0.0
 10
230.461624
 20
704.446411
 10
230.44075
 20
705.575195
 10
230.419983
 20
706.673645
 10
230.399414
 20
707.736572
 10
230.37915
 20
708.758728
 10
230.359283
 20
709.735168
 10
230.339905
 20
710.661255
 10
230.321121
 20
711.532471
 10
230.303009
 20
712.344543
 10
230.283966
 20
713.165283
  0
LWPOLYLINE
  5
157
330
124
100
AcDbEntity
  8
0
  6
Continuous
 62
     0
370
     0
100
AcDbPolyline
 90
       19
 70
     0
 43
0.0
 10
230.490128
 20
715.311096
 10
230.496765
 20
715.271545
 10
230.50473
 20
715.152832
 10
230.513962
 20
714.95575
 10
230.524414
 20
714.681152
 10
230.536057
 20
714.330444
 10
230.548798
 20
713.905334
 10
230.562607
 20
713.40802
 10
230.577393
 20
712.84082
 10
230.593094
 20
712.206665
 10
230.609634
 20
711.508667
 10
230.626923
 20
710.750122
 10
230.644882
 20
709.93512
 10
230.663406
 20
709.067566
 10
230.682434
 20
708.151733
 10
230.701843
 20
707.191895
 10
230.721573
 20
706.192566
 10
230.741486
 20
705.159302
 10
230.761566
 20
704.093018
  0
LWPOLYLINE
  5
158
330
124
100
AcDbEntity
  8
0
  6
Continuous
 62
     0
370
    30
100
AcDbPolyline
 90
        5
 70
     0
 43
0.0
 10
230.761566
 20
704.093018
 10
230.658264
 20
704.096802
 10
230.567535
 20
704.111084
 10
230.500641
 20
704.134155
 10
230.461624
 20
704.177673
  0
LWPOLYLINE
  5
159
330
124
100
AcDbEntity
  8
0
  6
Continuous
 62
     0
370
     0
100
AcDbPolyline
 90
        5
 70
     0
 43
0.0
 10
230.461624
 20
704.446411
 10
230.443237
 20
704.477173
 10
230.390518
 20
704.504333
 10
230.309708
 20
704.524292
 10
230.161575
 20
704.53595
  0
LWPOLYLINE
  5
15A
330
124
100
AcDbEntity
  8
0
  6
Continuous
 62
     0
370
     0
100
AcDbPolyline
 90
        4
 70
     0
 43
0.0
 10
228.261658
 20
704.53595
 10
228.113754
 20
704.524353
 10
228.004272
 20
704.492432
 10
227.9617
 20
704.448425
  0
LINE
  5
15B
330
124
100
AcDbEntity
  8
0
  6
Continuous
 62
     0
370
    30
100
AcDbLine
 10
230.461619
 20
704.088134
 30
0.0
 11
230.761559
 21
704.093038
 31
0.0
  0
LINE
  5
15C
330
124
100
AcDbEntity
  8
0
  6
Continuous
 62
     0
370
     0
100
AcDbLine
 10
230.461619
 20
704.088134
 30
0.0
 11
231.111617
 21
704.088134
 31
0.0
  0
LINE
  5
15D
330
124
100
AcDbEntity
  8
0
  6
Continuous
 62
     0
370
    30
100
AcDbLine
 10
231.111616
 20
683.311154
 30
0.0
 11
230.195072
 21
683.311154
 31
0.0
  0
LINE
  5
15E
330
124
100
AcDbEntity
  8
0
  6
Continuous
 62
     0
370
    30
100
AcDbLine
 10
231.111616
 20
715.311154
 30
0.0
 11
230.49012
 21
715.311154
 31
0.0
  0
LWPOLYLINE
  5
15F
330
124
100
AcDbEntity
  8
0
  6
Continuous
 62
     0
370
    30
100
AcDbPolyline
 90
       75
 70
     0
 43
0.0
 10
228.137161
 20
685.545471
 10
228.139313
 20
685.454407
 10
228.141464
 20
685.36438
 10
228.143585
 20
685.275513
 10
228.145706
 20
685.187744
 10
228.147797
 20
685.101074
 10
228.149887
 20
685.015503
 10
228.151947
 20
684.931091
 10
228.154007
 20
684.847778
 10
228.156052
 20
684.765564
 10
228.158066
 20
684.68457
 10
228.16008
 20
684.604675
 10
228.162079
 20
684.526001
 10
228.164047
 20
684.448425
 10
228.166016
 20
684.37207
 10
228.167953
 20
684.296875
 10
228.169891
 20
684.222839
 10
228.171799
 20
684.150024
 10
228.173691
 20
684.078369
 10
228.175568
 20
684.007935
 10
228.177444
 20
683.93866
 10
228.179276
 20
683.870605
 10
228.181107
 20
683.803772
 10
228.182922
 20
683.738159
 10
228.184723
 20
683.673767
 10
228.186493
 20
683.610596
 10
228.188248
 20
683.548706
 10
228.190002
 20
683.487976
 10
228.191727
 20
683.428528
 10
228.19342
 20
683.370361
 10
228.195114
 20
683.313354
 10
228.196777
 20
683.25769
 10
228.198441
 20
683.203186
 10
228.200073
 20
683.150024
 10
228.201691
 20
683.098083
 10
228.203278
 20
683.047424
 10
228.204865
 20
682.998047
 10
228.206421
 20
682.949951
 10
228.207962
 20
682.903076
 10
228.209473
 20
682.857544
 10
228.210983
 20
682.813293
 10
228.212463
 20
682.770325
 10
228.213928
 20
682.728638
 10
228.215363
 20
682.688232
 10
228.216797
 20
682.64917
 10
228.218201
 20
682.611389
 10
228.219574
 20
682.57489
 10
228.220947
 20
682.539673
 10
228.22229
 20
682.505798
 10
228.223618
 20
682.473145
 10
228.22493
 20
682.441833
 10
228.226212
 20
682.411865
 10
228.227493
 20
682.383118
 10
228.228745
 20
682.355713
 10
228.22998
 20
682.329529
 10
228.231186
 20
682.304688
 10
228.232391
 20
682.281067
 10
228.233566
 20
682.258728
 10
228.234741
 20
682.237671
 10
228.235901
 20
682.217773
 10
228.237045
 20
682.199097
 10
228.23819
 20
682.181641
 10
228.239319
 20
682.165283
 10
228.240463
 20
682.149963
 10
228.241653
 20
682.135559
 10
228.242874
 20
682.121948
 10
228.244156
 20
682.109009
 10
228.245544
 20
682.096252
 10
228.247391
 20
682.082581
 10
228.250076
 20
682.066467
 10
228.254547
 20
682.044678
 10
228.266556
 20
682.006104
 10
228.307526
 20
681.931702
 10
228.407288
 20
681.846436
 10
228.548203
 20
681.811218
  0
LWPOLYLINE
  5
160
330
124
100
AcDbEntity
  8
0
  6
Continuous
 62
     0
370
    30
100
AcDbPolyline
 90
       42
 70
     0
 43
0.0
 10
230.228058
 20
683.311157
 10
230.226273
 20
683.251526
 10
230.224503
 20
683.193359
 10
230.222748
 20
683.136658
 10
230.221024
 20
683.08136
 10
230.21933
 20
683.027588
 10
230.217636
 20
682.97522
 10
230.215988
 20
682.924316
 10
230.21434
 20
682.874939
 10
230.212723
 20
682.827026
 10
230.211136
 20
682.780579
 10
230.209564
 20
682.735596
 10
230.208008
 20
682.692139
 10
230.206482
 20
682.650146
 10
230.204971
 20
682.609619
 10
230.203491
 20
682.570618
 10
230.202026
 20
682.533142
 10
230.200592
 20
682.49707
 10
230.199173
 20
682.462585
 10
230.197784
 20
682.429504
 10
230.196411
 20
682.397949
 10
230.195053
 20
682.367859
 10
230.193726
 20
682.339294
 10
230.192413
 20
682.312134
 10
230.191132
 20
682.286499
 10
230.18985
 20
682.262268
 10
230.188599
 20
682.239502
 10
230.187363
 20
682.21814
 10
230.186127
 20
682.198181
 10
230.184906
 20
682.179504
 10
230.183701
 20
682.16217
 10
230.182449
 20
682.145996
 10
230.181168
 20
682.130859
 10
230.17984
 20
682.116516
 10
230.178436
 20
682.102844
 10
230.176743
 20
682.088806
 10
230.174286
 20
682.072815
 10
230.170319
 20
682.052124
 10
230.16066
 20
682.017273
 10
230.125519
 20
681.945679
 10
230.025848
 20
681.851929
 10
229.875046
 20
681.811279
  0
LWPOLYLINE
  5
161
330
124
100
AcDbEntity
  8
0
  6
Continuous
 62
     0
370
    30
100
AcDbPolyline
 90
       48
 70
     0
 43
0.0
 10
227.9617
 20
704.450989
 10
227.969879
 20
704.895935
 10
227.978043
 20
705.336975
 10
227.986206
 20
705.773682
 10
227.994354
 20
706.205627
 10
228.002472
 20
706.632446
 10
228.010559
 20
707.053833
 10
228.0186
 20
707.469421
 10
228.026611
 20
707.878967
 10
228.034576
 20
708.282166
 10
228.04248
 20
708.67865
 10
228.050323
 20
709.068237
 10
228.058105
 20
709.450623
 10
228.065826
 20
709.825439
 10
228.073456
 20
710.192505
 10
228.081009
 20
710.551514
 10
228.08847
 20
710.902161
 10
228.095825
 20
711.244202
 10
228.103104
 20
711.577393
 10
228.11026
 20
711.901428
 10
228.11731
 20
712.216187
 10
228.124252
 20
712.521362
 10
228.131073
 20
712.816772
 10
228.137756
 20
713.102234
 10
228.144333
 20
713.377441
 10
228.150757
 20
713.642273
 10
228.157043
 20
713.896484
 10
228.163177
 20
714.139893
 10
228.169174
 20
714.372253
 10
228.175018
 20
714.593506
 10
228.180695
 20
714.803406
 10
228.186218
 20
715.001831
 10
228.191574
 20
715.18866
 10
228.196762
 20
715.36377
 10
228.201767
 20
715.527039
 10
228.206604
 20
715.678284
 10
228.211273
 20
715.817505
 10
228.215744
 20
715.94458
 10
228.220047
 20
716.059448
 10
228.224152
 20
716.162048
 10
228.228088
 20
716.252441
 10
228.231857
 20
716.33075
 10
228.235458
 20
716.397095
 10
228.238968
 20
716.452026
 10
228.242584
 20
716.497131
 10
228.247025
 20
716.537292
 10
228.264725
 20
716.611206
 10
228.548203
 20
716.811035
  0
LWPOLYLINE
  5
162
330
124
100
AcDbEntity
  8
0
  6
Continuous
 62
     0
370
    30
100
AcDbPolyline
 90
       48
 70
     0
 43
0.0
 10
230.461609
 20
704.446899
 10
230.453445
 20
704.891968
 10
230.445267
 20
705.33313
 10
230.437103
 20
705.769958
 10
230.428955
 20
706.202026
 10
230.420837
 20
706.628967
 10
230.41275
 20
707.050476
 10
230.404694
 20
707.466187
 10
230.396683
 20
707.875854
 10
230.388718
 20
708.279114
 10
230.380814
 20
708.67572
 10
230.372971
 20
709.06543
 10
230.365189
 20
709.447876
 10
230.357468
 20
709.822876
 10
230.349838
 20
710.190002
 10
230.342285
 20
710.549072
 10
230.334824
 20
710.899841
 10
230.327454
 20
711.242004
 10
230.32019
 20
711.575317
 10
230.313019
 20
711.899475
 10
230.305969
 20
712.214294
 10
230.299026
 20
712.519592
 10
230.292206
 20
712.815125
 10
230.285507
 20
713.100647
 10
230.278946
 20
713.376038
 10
230.272522
 20
713.64093
 10
230.266235
 20
713.895264
 10
230.260086
 20
714.138733
 10
230.254089
 20
714.371216
 10
230.248245
 20
714.592529
 10
230.242569
 20
714.80249
 10
230.237045
 20
715.001038
 10
230.231689
 20
715.187927
 10
230.226501
 20
715.363098
 10
230.221481
 20
715.526428
 10
230.216644
 20
715.677856
 10
230.211975
 20
715.817139
 10
230.207504
 20
715.944214
 10
230.203201
 20
716.059143
 10
230.199097
 20
716.161804
 10
230.19516
 20
716.252258
 10
230.191391
 20
716.330566
 10
230.18779
 20
716.396973
 10
230.18428
 20
716.451965
 10
230.180664
 20
716.49707
 10
230.176224
 20
716.537231
 10
230.158615
 20
716.610901
 10
229.875046
 20
716.811096
  0
LWPOLYLINE
  5
163
330
124
100
AcDbEntity
  8
0
  6
Continuous
 62
     0
370
    30
100
AcDbPolyline
 90
        4
 70
     0
 43
0.0
 10
230.223083
 20
715.475098
 10
230.269623
 20
715.40802
 10
230.351669
 20
715.345032
 10
230.490128
 20
715.311096
  0
LINE
  5
164
330
124
100
AcDbEntity
  8
0
  6
Continuous
 62
     0
370
    30
100
AcDbLine
 10
229.87504
 20
716.811154
 30
0.0
 11
228.548196
 21
716.811154
 31
0.0
  0
LINE
  5
165
330
124
100
AcDbEntity
  8
0
  6
Continuous
 62
     0
370
    30
100
AcDbLine
 10
229.875041
 20
681.811154
 30
0.0
 11
228.548196
 21
681.811154
 31
0.0
  0
LWPOLYLINE
  5
166
330
124
100
AcDbEntity
  8
0
  6
Continuous
 62
     0
370
     0
100
AcDbPolyline
 90
       52
 70
     0
 43
0.0
 10
227.961685
 20
599.641846
 10
227.972809
 20
599.362976
 10
227.983887
 20
599.008057
 10
227.994888
 20
598.578491
 10
228.005753
 20
598.075806
 10
228.016449
 20
597.501953
 10
228.026947
 20
596.859192
 10
228.037186
 20
596.149841
 10
228.04715
 20
595.376648
 10
228.056778
 20
594.54248
 10
228.066055
 20
593.650635
 10
228.074936
 20
592.704346
 10
228.083389
 20
591.707336
 10
228.09137
 20
590.663269
 10
228.098877
 20
589.576172
 10
228.10585
 20
588.450134
 10
228.112274
 20
587.28949
 10
228.118134
 20
586.098572
 10
228.123398
 20
584.881897
 10
228.128052
 20
583.644165
 10
228.13208
 20
582.389954
 10
228.135452
 20
581.124084
 10
228.138168
 20
579.851379
 10
228.140213
 20
578.576599
 10
228.141586
 20
577.304626
 10
228.142273
 20
576.040283
 10
228.142273
 20
574.78833
 10
228.141602
 20
573.553528
 10
228.140228
 20
572.340637
 10
228.138184
 20
571.154114
 10
228.135483
 20
569.998596
 10
228.132111
 20
568.878357
 10
228.128098
 20
567.797729
 10
228.123444
 20
566.760742
 10
228.118195
 20
565.771362
 10
228.112335
 20
564.833374
 10
228.105911
 20
563.950256
 10
228.098938
 20
563.125427
 10
228.091446
 20
562.362
 10
228.083466
 20
561.662903
 10
228.075012
 20
561.030701
 10
228.066147
 20
560.467834
 10
228.05687
 20
559.97644
 10
228.047241
 20
559.55835
 10
228.037277
 20
559.21521
 10
228.027039
 20
558.948303
 10
228.016556
 20
558.758667
 10
228.005844
 20
558.646912
 10
227.99498
 20
558.613586
 10
227.983994
 20
558.658752
 10
227.972916
 20
558.782288
 10
227.961685
 20
558.985901
  0
LWPOLYLINE
  5
167
330
124
100
AcDbEntity
  8
0
  6
Continuous
 62
     0
370
     0
100
AcDbPolyline
 90
       52
 70
     0
 43
0.0
 10
227.961685
 20
560.606262
 10
227.971008
 20
560.434143
 10
227.980499
 20
560.31958
 10
227.990112
 20
560.266968
 10
227.999817
 20
560.280273
 10
228.009537
 20
560.363098
 10
228.019241
 20
560.518372
 10
228.028854
 20
560.748291
 10
228.038315
 20
561.054504
 10
228.047546
 20
561.437439
 10
228.056503
 20
561.89679
 10
228.065125
 20
562.431213
 10
228.073349
 20
563.038452
 10
228.0811
 20
563.71521
 10
228.088348
 20
564.457336
 10
228.095047
 20
565.259827
 10
228.101166
 20
566.117065
 10
228.106674
 20
567.022644
 10
228.111526
 20
567.970093
 10
228.115753
 20
568.952271
 10
228.119324
 20
569.962158
 10
228.122253
 20
570.992737
 10
228.124557
 20
572.036987
 10
228.126236
 20
573.088379
 10
228.127335
 20
574.140625
 10
228.127869
 20
575.187866
 10
228.127884
 20
576.230652
 10
228.12735
 20
577.300415
 10
228.126266
 20
578.399475
 10
228.124603
 20
579.523254
 10
228.122314
 20
580.666626
 10
228.1194
 20
581.823669
 10
228.115829
 20
582.988037
 10
228.111633
 20
584.152893
 10
228.106766
 20
585.310974
 10
228.101288
 20
586.454895
 10
228.095184
 20
587.577087
 10
228.088486
 20
588.670105
 10
228.081253
 20
589.726624
 10
228.073502
 20
590.739868
 10
228.065292
 20
591.703552
 10
228.056686
 20
592.611877
 10
228.047729
 20
593.460022
 10
228.038498
 20
594.244019
 10
228.029053
 20
594.960571
 10
228.01944
 20
595.607666
 10
228.009735
 20
596.183899
 10
228.000015
 20
596.688904
 10
227.990311
 20
597.12323
 10
227.980698
 20
597.488037
 10
227.971191
 20
597.785278
 10
227.961685
 20
598.021484
  0
LWPOLYLINE
  5
168
330
124
100
AcDbEntity
  8
0
  6
Continuous
 62
     0
370
     0
100
AcDbPolyline
 90
       49
 70
     0
 43
0.0
 10
230.127563
 20
558.314026
 10
230.11673
 20
558.353638
 10
230.106079
 20
558.472534
 10
230.095642
 20
558.669922
 10
230.085434
 20
558.945129
 10
230.075531
 20
559.297668
 10
230.065933
 20
559.726013
 10
230.056686
 20
560.228455
 10
230.047852
 20
560.803284
 10
230.039444
 20
561.448364
 10
230.031494
 20
562.160828
 10
230.024033
 20
562.937561
 10
230.01712
 20
563.775635
 10
230.010742
 20
564.671936
 10
230.004929
 20
565.62323
 10
229.999725
 20
566.626526
 10
229.995117
 20
567.67865
 10
229.991135
 20
568.775391
 10
229.987793
 20
569.912292
 10
229.985107
 20
571.084717
 10
229.983093
 20
572.288208
 10
229.981766
 20
573.518127
 10
229.98111
 20
574.769775
 10
229.981125
 20
576.038635
 10
229.981842
 20
577.319885
 10
229.983231
 20
578.608826
 10
229.985306
 20
579.900635
 10
229.988037
 20
581.190369
 10
229.99144
 20
582.473022
 10
229.995468
 20
583.743286
 10
230.000122
 20
584.995911
 10
230.005386
 20
586.226135
 10
230.011246
 20
587.429932
 10
230.017654
 20
588.603333
 10
230.024628
 20
589.74231
 10
230.03212
 20
590.842712
 10
230.040115
 20
591.900146
 10
230.048553
 20
592.910217
 10
230.057434
 20
593.868713
 10
230.066696
 20
594.771851
 10
230.076324
 20
595.616394
 10
230.086258
 20
596.398743
 10
230.096481
 20
597.116028
 10
230.106934
 20
597.76593
 10
230.117615
 20
598.346436
 10
230.128464
 20
598.855774
 10
230.13945
 20
599.291809
 10
230.150513
 20
599.652039
 10
230.161682
 20
599.936462
  0
LINE
  5
169
330
124
100
AcDbEntity
  8
0
  6
Continuous
 62
     0
370
     0
100
AcDbLine
 10
230.16168
 20
599.936467
 30
0.0
 11
228.261703
 21
599.936467
 31
0.0
  0
LWPOLYLINE
  5
16A
330
124
100
AcDbEntity
  8
0
  6
Continuous
 62
     0
370
     0
100
AcDbPolyline
 90
       49
 70
     0
 43
0.0
 10
228.261703
 20
599.936462
 10
228.272781
 20
599.654297
 10
228.283859
 20
599.294617
 10
228.294846
 20
598.859131
 10
228.305695
 20
598.350281
 10
228.31636
 20
597.770264
 10
228.326828
 20
597.12085
 10
228.337051
 20
596.404053
 10
228.346985
 20
595.622131
 10
228.356613
 20
594.778015
 10
228.365891
 20
593.875244
 10
228.374771
 20
592.917175
 10
228.383209
 20
591.907471
 10
228.391205
 20
590.850342
 10
228.398697
 20
589.750183
 10
228.40567
 20
588.61145
 10
228.412094
 20
587.438293
 10
228.417953
 20
586.234741
 10
228.423218
 20
585.0047
 10
228.427887
 20
583.752197
 10
228.431931
 20
582.481995
 10
228.435318
 20
581.199463
 10
228.438065
 20
579.909729
 10
228.44014
 20
578.61792
 10
228.441528
 20
577.328979
 10
228.442245
 20
576.047607
 10
228.442276
 20
574.778687
 10
228.441635
 20
573.526855
 10
228.440292
 20
572.296814
 10
228.438293
 20
571.09314
 10
228.435608
 20
569.92041
 10
228.432281
 20
568.783264
 10
228.428299
 20
567.686218
 10
228.423691
 20
566.633789
 10
228.418488
 20
565.630127
 10
228.412689
 20
564.678467
 10
228.406311
 20
563.781799
 10
228.399399
 20
562.943298
 10
228.391953
 20
562.166077
 10
228.384003
 20
561.453125
 10
228.375595
 20
560.807556
 10
228.36676
 20
560.232239
 10
228.357513
 20
559.729309
 10
228.347931
 20
559.300415
 10
228.338013
 20
558.947388
 10
228.32782
 20
558.67157
 10
228.317383
 20
558.473633
 10
228.306732
 20
558.354187
 10
228.295822
 20
558.314026
  0
LWPOLYLINE
  5
16B
330
124
100
AcDbEntity
  8
0
  6
Continuous
 62
     0
370
     0
100
AcDbPolyline
 90
        5
 70
     0
 43
0.0
 10
230.161682
 20
599.936462
 10
230.153976
 20
600.08667
 10
230.146286
 20
600.199097
 10
230.138611
 20
600.27356
 10
230.127594
 20
600.313782
  0
LWPOLYLINE
  5
16C
330
124
100
AcDbEntity
  8
0
  6
Continuous
 62
     0
370
     0
100
AcDbPolyline
 90
        5
 70
     0
 43
0.0
 10
228.295792
 20
600.313782
 10
228.288162
 20
600.294434
 10
228.280502
 20
600.236877
 10
228.272827
 20
600.141296
 10
228.261703
 20
599.936462
  0
LINE
  5
16D
330
124
100
AcDbEntity
  8
0
  6
Continuous
 62
     0
370
     0
100
AcDbLine
 10
230.461691
 20
558.985888
 30
0.0
 11
230.461691
 21
559.397779
 31
0.0
  0
LINE
  5
16E
330
124
100
AcDbEntity
  8
0
  6
Continuous
 62
     0
370
     0
100
AcDbLine
 10
230.461691
 20
599.00354
 30
0.0
 11
230.461691
 21
599.641858
 31
0.0
  0
LWPOLYLINE
  5
16F
330
124
100
AcDbEntity
  8
0
  6
Continuous
 62
     0
370
     0
100
AcDbPolyline
 90
       52
 70
     0
 43
0.0
 10
230.461685
 20
558.985901
 10
230.450577
 20
558.783813
 10
230.439499
 20
558.659546
 10
230.428497
 20
558.613647
 10
230.417633
 20
558.64624
 10
230.406937
 20
558.757263
 10
230.396439
 20
558.946167
 10
230.3862
 20
559.212402
 10
230.376236
 20
559.55481
 10
230.366592
 20
559.972168
 10
230.35733
 20
560.462891
 10
230.34845
 20
561.025085
 10
230.339996
 20
561.656616
 10
230.332001
 20
562.355164
 10
230.324509
 20
563.117981
 10
230.317535
 20
563.942261
 10
230.311111
 20
564.824829
 10
230.305252
 20
565.762329
 10
230.299988
 20
566.751221
 10
230.295334
 20
567.787781
 10
230.291306
 20
568.868042
 10
230.287933
 20
569.987915
 10
230.285217
 20
571.143127
 10
230.283173
 20
572.329346
 10
230.281799
 20
573.542053
 10
230.281113
 20
574.776672
 10
230.281113
 20
576.028503
 10
230.281784
 20
577.292725
 10
230.283157
 20
578.564697
 10
230.285187
 20
579.839417
 10
230.287903
 20
581.112183
 10
230.291275
 20
582.378174
 10
230.295288
 20
583.632507
 10
230.299927
 20
584.870422
 10
230.305191
 20
586.08728
 10
230.31105
 20
587.278442
 10
230.317474
 20
588.439453
 10
230.324448
 20
589.565796
 10
230.33194
 20
590.653259
 10
230.33992
 20
591.697754
 10
230.348358
 20
592.695251
 10
230.357239
 20
593.641968
 10
230.366516
 20
594.534424
 10
230.376144
 20
595.36908
 10
230.386093
 20
596.142883
 10
230.396347
 20
596.852844
 10
230.40683
 20
597.496277
 10
230.417526
 20
598.07074
 10
230.428391
 20
598.574097
 10
230.439392
 20
599.004395
 10
230.45047
 20
599.359985
 10
230.461685
 20
599.641846
  0
LWPOLYLINE
  5
170
330
124
100
AcDbEntity
  8
0
  6
Continuous
 62
     0
370
     0
100
AcDbPolyline
 90
       50
 70
     0
 43
0.0
 10
230.461685
 20
599.00354
 10
230.450821
 20
598.730347
 10
230.440002
 20
598.382141
 10
230.42926
 20
597.960327
 10
230.41864
 20
597.466492
 10
230.408188
 20
596.902588
 10
230.397949
 20
596.270752
 10
230.387955
 20
595.573486
 10
230.378235
 20
594.813354
 10
230.368851
 20
593.993408
 10
230.359818
 20
593.116821
 10
230.351181
 20
592.18689
 10
230.342972
 20
591.207275
 10
230.33522
 20
590.181702
 10
230.327942
 20
589.114197
 10
230.321198
 20
588.00885
 10
230.315002
 20
586.869873
 10
230.309357
 20
585.701782
 10
230.304306
 20
584.509033
 10
230.299866
 20
583.296204
 10
230.296051
 20
582.067993
 10
230.292877
 20
580.829102
 10
230.290344
 20
579.584412
 10
230.288483
 20
578.338684
 10
230.287292
 20
577.096741
 10
230.286758
 20
575.863342
 10
230.286926
 20
574.64325
 10
230.28775
 20
573.441223
 10
230.289246
 20
572.261841
 10
230.291412
 20
571.109741
 10
230.294235
 20
569.989258
 10
230.297714
 20
568.904846
 10
230.301819
 20
567.860596
 10
230.306534
 20
566.860596
 10
230.311859
 20
565.908691
 10
230.317764
 20
565.008545
 10
230.324219
 20
564.163635
 10
230.331207
 20
563.377197
 10
230.338699
 20
562.652344
 10
230.346664
 20
561.991821
 10
230.355072
 20
561.398193
 10
230.363892
 20
560.873718
 10
230.373093
 20
560.420471
 10
230.382629
 20
560.040222
 10
230.392487
 20
559.734314
 10
230.402588
 20
559.504089
 10
230.412933
 20
559.350342
 10
230.423462
 20
559.273682
 10
230.434143
 20
559.274414
 10
230.445114
 20
559.354431
  0
LWPOLYLINE
  5
171
330
124
100
AcDbEntity
  8
0
  6
Continuous
 62
     0
370
     0
100
AcDbPolyline
 90
        4
 70
     0
 43
0.0
 10
230.728668
 20
599.063843
 10
230.739594
 20
599.024353
 10
230.750595
 20
598.90625
 10
230.761703
 20
598.708923
  0
ARC
  5
172
330
124
100
AcDbEntity
  8
0
  6
Continuous
 62
     0
370
     0
100
AcDbCircle
 10
230.758654
 20
599.005888
 30
0.0
 40
0.2969726101869969
100
AcDbArc
 50
180.45314
 51
270.588091
  0
LWPOLYLINE
  5
173
330
124
100
AcDbEntity
  8
0
  6
Continuous
 62
     0
370
     0
100
AcDbPolyline
 90
       48
 70
     0
 43
0.0
 10
230.761703
 20
598.708923
 10
230.750732
 20
598.437012
 10
230.739792
 20
598.089539
 10
230.728943
 20
597.66803
 10
230.718216
 20
597.174194
 10
230.707672
 20
596.610107
 10
230.697342
 20
595.977966
 10
230.687256
 20
595.28009
 10
230.677475
 20
594.519226
 10
230.668015
 20
593.698547
 10
230.65892
 20
592.821106
 10
230.650253
 20
591.890442
 10
230.641998
 20
590.910339
 10
230.634232
 20
589.88446
 10
230.626968
 20
588.816895
 10
230.620224
 20
587.711975
 10
230.614044
 20
586.573914
 10
230.608444
 20
585.407227
 10
230.603455
 20
584.216553
 10
230.599075
 20
583.006531
 10
230.595352
 20
581.781982
 10
230.59227
 20
580.547729
 10
230.589859
 20
579.308594
 10
230.588135
 20
578.069458
 10
230.587082
 20
576.835266
 10
230.586731
 20
575.610779
 10
230.587067
 20
574.40094
 10
230.588074
 20
573.210449
 10
230.589783
 20
572.043945
 10
230.592163
 20
570.906189
 10
230.595215
 20
569.801514
 10
230.598923
 20
568.734314
 10
230.603256
 20
567.708801
 10
230.608231
 20
566.729065
 10
230.613815
 20
565.798828
 10
230.619965
 20
564.921875
 10
230.626678
 20
564.101685
 10
230.633926
 20
563.34137
 10
230.641678
 20
562.644043
 10
230.649902
 20
562.01239
 10
230.658569
 20
561.448914
 10
230.667648
 20
560.95575
 10
230.677078
 20
560.535034
 10
230.686859
 20
560.188232
 10
230.69693
 20
559.916809
 10
230.70726
 20
559.721924
 10
230.717804
 20
559.604126
 10
230.728699
 20
559.563843
  0
LINE
  5
174
330
124
100
AcDbEntity
  8
0
  6
Continuous
 62
     0
370
     0
100
AcDbLine
 10
230.461385
 20
558.972754
 30
0.0
 11
230.461691
 21
558.985888
 31
0.0
  0
ARC
  5
175
330
124
100
AcDbEntity
  8
0
  6
Continuous
 62
     0
370
     0
100
AcDbCircle
 10
230.164381
 20
599.639157
 30
0.0
 40
0.2973226615459943
100
AcDbArc
 50
0.520648
 51
90.520514
  0
ARC
  5
176
330
124
100
AcDbEntity
  8
0
  6
Continuous
 62
     0
370
     0
100
AcDbCircle
 10
228.258685
 20
599.639463
 30
0.0
 40
0.2970189093496702
100
AcDbArc
 50
89.417941
 51
179.166218
  0
LINE
  5
177
330
124
100
AcDbEntity
  8
0
  6
Continuous
 62
     0
370
     0
100
AcDbLine
 10
230.761703
 20
598.708931
 30
0.0
 11
230.961691
 21
598.708931
 31
0.0
  0
LINE
  5
178
330
124
100
AcDbEntity
  8
0
  6
Continuous
 62
     0
370
    30
100
AcDbLine
 10
230.961691
 20
559.563873
 30
0.0
 11
230.728679
 21
559.563873
 31
0.0
  0
LINE
  5
179
330
124
100
AcDbEntity
  8
0
  6
Continuous
 62
     0
370
    30
100
AcDbLine
 10
230.961691
 20
599.063873
 30
0.0
 11
230.728679
 21
599.063873
 31
0.0
  0
LWPOLYLINE
  5
17A
330
124
100
AcDbEntity
  8
0
  6
Continuous
 62
     0
370
    30
100
AcDbPolyline
 90
       24
 70
     0
 43
0.0
 10
228.295822
 20
558.313904
 10
228.152023
 20
558.350464
 10
228.058777
 20
558.428772
 10
228.02002
 20
558.491821
 10
228.005264
 20
558.53009
 10
227.998001
 20
558.55603
 10
227.993622
 20
558.576294
 10
227.990433
 20
558.593994
 10
227.987869
 20
558.610779
 10
227.985657
 20
558.627441
 10
227.983643
 20
558.644592
 10
227.981766
 20
558.662476
 10
227.97998
 20
558.681213
 10
227.978241
 20
558.701111
 10
227.976532
 20
558.722168
 10
227.974869
 20
558.744507
 10
227.973221
 20
558.768188
 10
227.971588
 20
558.793213
 10
227.969971
 20
558.81958
 10
227.968353
 20
558.84729
 10
227.966766
 20
558.876465
 10
227.965179
 20
558.906982
 10
227.963593
 20
558.939026
 10
227.96199
 20
558.972778
  0
LWPOLYLINE
  5
17B
330
124
100
AcDbEntity
  8
0
  6
Continuous
 62
     0
370
    30
100
AcDbPolyline
 90
       24
 70
     0
 43
0.0
 10
227.96199
 20
599.654968
 10
227.963577
 20
599.688416
 10
227.965164
 20
599.720398
 10
227.966751
 20
599.750977
 10
227.968338
 20
599.78009
 10
227.969955
 20
599.8078
 10
227.971558
 20
599.834167
 10
227.97319
 20
599.859131
 10
227.974838
 20
599.882751
 10
227.976501
 20
599.90509
 10
227.978195
 20
599.926147
 10
227.979935
 20
599.946045
 10
227.98172
 20
599.964844
 10
227.983582
 20
599.982666
 10
227.985596
 20
599.999756
 10
227.987808
 20
600.016479
 10
227.990326
 20
600.033203
 10
227.993546
 20
600.050903
 10
227.997726
 20
600.070862
 10
228.004776
 20
600.096558
 10
228.019333
 20
600.134277
 10
228.056519
 20
600.196167
 10
228.147308
 20
600.27478
 10
228.295822
 20
600.313843
  0
LWPOLYLINE
  5
17C
330
124
100
AcDbEntity
  8
0
  6
Continuous
 62
     0
370
    30
100
AcDbPolyline
 90
       24
 70
     0
 43
0.0
 10
230.127563
 20
600.313843
 10
230.271103
 20
600.277527
 10
230.364441
 20
600.199219
 10
230.403152
 20
600.13623
 10
230.418137
 20
600.097778
 10
230.425278
 20
600.07196
 10
230.429794
 20
600.051514
 10
230.432922
 20
600.033936
 10
230.435455
 20
600.017212
 10
230.437698
 20
600.000488
 10
230.439743
 20
599.983276
 10
230.44165
 20
599.965393
 10
230.443451
 20
599.946655
 10
230.44516
 20
599.92688
 10
230.446823
 20
599.906006
 10
230.448456
 20
599.883789
 10
230.450089
 20
599.860291
 10
230.451706
 20
599.835388
 10
230.453323
 20
599.809143
 10
230.454941
 20
599.781433
 10
230.456543
 20
599.75238
 10
230.458145
 20
599.721863
 10
230.459732
 20
599.689941
 10
230.46138
 20
599.654968
  0
LWPOLYLINE
  5
17D
330
124
100
AcDbEntity
  8
0
  6
Continuous
 62
     0
370
    30
100
AcDbPolyline
 90
       24
 70
     0
 43
0.0
 10
230.46138
 20
558.972778
 10
230.459824
 20
558.939331
 10
230.458267
 20
558.907349
 10
230.456711
 20
558.876892
 10
230.455154
 20
558.847839
 10
230.453583
 20
558.82019
 10
230.451996
 20
558.793884
 10
230.450378
 20
558.76886
 10
230.4487
 20
558.745178
 10
230.446991
 20
558.722717
 10
230.445206
 20
558.701416
 10
230.443359
 20
558.681335
 10
230.441467
 20
558.662354
 10
230.439545
 20
558.644409
 10
230.437653
 20
558.627502
 10
230.435791
 20
558.611389
 10
230.433578
 20
558.595215
 10
230.430359
 20
558.577393
 10
230.425507
 20
558.556396
 10
230.418121
 20
558.530334
 10
230.403748
 20
558.492432
 10
230.365326
 20
558.429688
 10
230.272903
 20
558.351257
 10
230.127563
 20
558.313904
  0
LWPOLYLINE
  5
17E
330
124
100
AcDbEntity
  8
0
  6
Continuous
 62
     0
370
    30
100
AcDbPolyline
 90
        8
 70
     0
 43
0.0
 10
230.728699
 20
559.563843
 10
230.595703
 20
559.532532
 10
230.504105
 20
559.461792
 10
230.463593
 20
559.401611
 10
230.449478
 20
559.368164
 10
230.444092
 20
559.350647
 10
230.44223
 20
559.342407
 10
230.441711
 20
559.339844
  0
LWPOLYLINE
  5
17F
330
124
100
AcDbEntity
  8
0
  6
Continuous
 62
     0
370
    30
100
AcDbPolyline
 90
        4
 70
     0
 43
0.0
 10
230.461685
 20
599.229919
 10
230.498627
 20
599.172363
 10
230.584641
 20
599.100952
 10
230.728668
 20
599.063843
  0
LINE
  5
180
330
124
100
AcDbEntity
  8
0
  6
Continuous
 62
     0
370
    30
100
AcDbLine
 10
230.127586
 20
600.313873
 30
0.0
 11
228.295796
 21
600.313873
 31
0.0
  0
LINE
  5
181
330
124
100
AcDbEntity
  8
0
  6
Continuous
 62
     0
370
    30
100
AcDbLine
 10
230.127585
 20
558.313873
 30
0.0
 11
228.295796
 21
558.313873
 31
0.0
  0
LINE
  5
182
330
124
100
AcDbEntity
  8
0
  6
Continuous
 62
     0
370
    30
100
AcDbLine
 10
271.111696
 20
781.313733
 30
0.0
 11
271.111696
 21
788.313733
 31
0.0
  0
LINE
  5
183
330
124
100
AcDbEntity
  8
0
  6
Continuous
 62
     0
370
    30
100
AcDbLine
 10
271.111696
 20
810.313733
 30
0.0
 11
271.111696
 21
817.313733
 31
0.0
  0
LINE
  5
184
330
124
100
AcDbEntity
  8
0
  6
Continuous
 62
     0
370
    30
100
AcDbLine
 10
271.111696
 20
788.313733
 30
0.0
 11
271.111696
 21
810.313733
 31
0.0
  0
LINE
  5
185
330
124
100
AcDbEntity
  8
0
  6
Continuous
 62
     0
370
    30
100
AcDbLine
 10
231.111696
 20
818.313733
 30
0.0
 11
231.111696
 21
810.313733
 31
0.0
  0
LINE
  5
186
330
124
100
AcDbEntity
  8
0
  6
Continuous
 62
     0
370
     0
100
AcDbLine
 10
231.111696
 20
810.313733
 30
0.0
 11
270.111696
 21
810.313733
 31
0.0
  0
LINE
  5
187
330
124
100
AcDbEntity
  8
0
  6
Continuous
 62
     0
370
     0
100
AcDbLine
 10
270.111696
 20
810.313733
 30
0.0
 11
270.111696
 21
818.313733
 31
0.0
  0
LINE
  5
188
330
124
100
AcDbEntity
  8
0
  6
Continuous
 62
     0
370
    30
100
AcDbLine
 10
270.111696
 20
818.313733
 30
0.0
 11
231.111696
 21
818.313733
 31
0.0
  0
LINE
  5
189
330
124
100
AcDbEntity
  8
0
  6
Continuous
 62
     0
370
    30
100
AcDbLine
 10
231.111696
 20
780.313733
 30
0.0
 11
270.111696
 21
780.313733
 31
0.0
  0
LINE
  5
18A
330
124
100
AcDbEntity
  8
0
  6
Continuous
 62
     0
370
     0
100
AcDbLine
 10
270.111696
 20
780.313733
 30
0.0
 11
270.111696
 21
788.313733
 31
0.0
  0
LINE
  5
18B
330
124
100
AcDbEntity
  8
0
  6
Continuous
 62
     0
370
     0
100
AcDbLine
 10
270.111696
 20
788.313733
 30
0.0
 11
231.111696
 21
788.313733
 31
0.0
  0
LINE
  5
18C
330
124
100
AcDbEntity
  8
0
  6
Continuous
 62
     0
370
    30
100
AcDbLine
 10
231.111696
 20
788.313733
 30
0.0
 11
231.111696
 21
780.313733
 31
0.0
  0
LINE
  5
18D
330
124
100
AcDbEntity
  8
0
  6
Continuous
 62
     0
370
     0
100
AcDbLine
 10
270.111696
 20
810.313733
 30
0.0
 11
270.111696
 21
788.313733
 31
0.0
  0
LINE
  5
18E
330
124
100
AcDbEntity
  8
0
  6
Continuous
 62
     0
370
    30
100
AcDbLine
 10
231.111696
 20
788.313733
 30
0.0
 11
231.111696
 21
810.313733
 31
0.0
  0
LINE
  5
18F
330
124
100
AcDbEntity
  8
0
  6
Continuous
 62
     0
370
     0
100
AcDbLine
 10
270.111696
 20
788.313733
 30
0.0
 11
271.111696
 21
788.313733
 31
0.0
  0
LINE
  5
190
330
124
100
AcDbEntity
  8
0
  6
Continuous
 62
     0
370
     0
100
AcDbLine
 10
271.111696
 20
810.313733
 30
0.0
 11
270.111696
 21
810.313733
 31
0.0
  0
ARC
  5
191
330
124
100
AcDbEntity
  8
0
  6
Continuous
 62
     0
370
    30
100
AcDbCircle
 10
270.111696
 20
781.313733
 30
0.0
 40
1.000000000004071
100
AcDbArc
 50
270.0
 51
360.0
  0
ARC
  5
192
330
124
100
AcDbEntity
  8
0
  6
Continuous
 62
     0
370
    30
100
AcDbCircle
 10
270.111696
 20
817.313733
 30
0.0
 40
1.0
100
AcDbArc
 50
0.0
 51
90.0
  0
LWPOLYLINE
  5
193
330
124
100
AcDbEntity
  8
0
  6
Continuous
 62
     0
370
    30
100
AcDbPolyline
 90
       28
 70
     0
 43
0.0
 10
230.4617
 20
804.090698
 10
230.442352
 20
803.021301
 10
230.423096
 20
801.934021
 10
230.404022
 20
800.834167
 10
230.385223
 20
799.72699
 10
230.366806
 20
798.617859
 10
230.348831
 20
797.512024
 10
230.331406
 20
796.414856
 10
230.314606
 20
795.331604
 10
230.298508
 20
794.267517
 10
230.283203
 20
793.227661
 10
230.268738
 20
792.21698
 10
230.255219
 20
791.240479
 10
230.242691
 20
790.302734
 10
230.231201
 20
789.408264
 10
230.220825
 20
788.561462
 10
230.211609
 20
787.766357
 10
230.203598
 20
787.026672
 10
230.196823
 20
786.34613
 10
230.19133
 20
785.727844
 10
230.187134
 20
785.174866
 10
230.18425
 20
784.689941
 10
230.182709
 20
784.275208
 10
230.182495
 20
783.9328
 10
230.18364
 20
783.664429
 10
230.186111
 20
783.47113
 10
230.189911
 20
783.354126
 10
230.195129
 20
783.313843
  0
LINE
  5
194
330
124
100
AcDbEntity
  8
0
  6
Continuous
 62
     0
370
    30
100
AcDbLine
 10
230.461698
 20
804.180277
 30
0.0
 11
230.461698
 21
804.090709
 31
0.0
  0
LINE
  5
195
330
124
100
AcDbEntity
  8
0
  6
Continuous
 62
     0
370
     0
100
AcDbLine
 10
230.461698
 20
804.448983
 30
0.0
 11
230.461698
 21
804.180277
 31
0.0
  0
LWPOLYLINE
  5
196
330
124
100
AcDbEntity
  8
0
  6
Continuous
 62
     0
370
     0
100
AcDbPolyline
 90
       35
 70
     0
 43
0.0
 10
230.228104
 20
783.313721
 10
230.216141
 20
782.930725
 10
230.205261
 20
782.619385
 10
230.19548
 20
782.380859
 10
230.18689
 20
782.216492
 10
230.179474
 20
782.126831
 10
230.173309
 20
782.112305
 10
230.168396
 20
782.173035
 10
230.16478
 20
782.308655
 10
230.162445
 20
782.518616
 10
230.161438
 20
782.802124
 10
230.161728
 20
783.157776
 10
230.16333
 20
783.583923
 10
230.166245
 20
784.078979
 10
230.170441
 20
784.640686
 10
230.175919
 20
785.266418
 10
230.182632
 20
785.953613
 10
230.190582
 20
786.69928
 10
230.199707
 20
787.499939
 10
230.209991
 20
788.352356
 10
230.221359
 20
789.252625
 10
230.233795
 20
790.196838
 10
230.247208
 20
791.180969
 10
230.261566
 20
792.200562
 10
230.27681
 20
793.251282
 10
230.292847
 20
794.32843
 10
230.309631
 20
795.427368
 10
230.327072
 20
796.543274
 10
230.345093
 20
797.671265
 10
230.363647
 20
798.806396
 10
230.382614
 20
799.943726
 10
230.401917
 20
801.078186
 10
230.421494
 20
802.204956
 10
230.441254
 20
803.319397
 10
230.4617
 20
804.448975
  0
LINE
  5
197
330
124
100
AcDbEntity
  8
0
  6
Continuous
 62
     0
370
     0
100
AcDbLine
 10
230.161653
 20
804.538551
 30
0.0
 11
228.261744
 21
804.538551
 31
0.0
  0
LWPOLYLINE
  5
198
330
124
100
AcDbEntity
  8
0
  6
Continuous
 62
     0
370
     0
100
AcDbPolyline
 90
       29
 70
     0
 43
0.0
 10
228.261749
 20
804.538574
 10
228.281784
 20
803.411865
 10
228.301788
 20
802.264526
 10
228.321609
 20
801.103333
 10
228.341141
 20
799.936035
 10
228.360275
 20
798.767517
 10
228.378998
 20
797.601074
 10
228.397186
 20
796.441528
 10
228.414795
 20
795.293945
 10
228.431732
 20
794.163696
 10
228.447906
 20
793.056274
 10
228.463257
 20
791.97699
 10
228.477692
 20
790.930786
 10
228.49115
 20
789.922546
 10
228.503571
 20
788.957153
 10
228.514908
 20
788.038513
 10
228.525116
 20
787.170105
 10
228.534149
 20
786.355469
 10
228.541977
 20
785.598206
 10
228.548553
 20
784.901794
 10
228.553848
 20
784.269714
 10
228.557846
 20
783.705383
 10
228.560501
 20
783.21106
 10
228.561829
 20
782.788757
 10
228.561798
 20
782.440552
 10
228.560425
 20
782.167969
 10
228.557709
 20
781.971985
 10
228.55368
 20
781.85376
 10
228.548279
 20
781.813965
  0
LWPOLYLINE
  5
199
330
124
100
AcDbEntity
  8
0
  6
Continuous
 62
     0
370
     0
100
AcDbPolyline
 90
       29
 70
     0
 43
0.0
 10
229.875122
 20
781.813965
 10
229.869766
 20
781.853027
 10
229.865707
 20
781.970581
 10
229.862991
 20
782.165833
 10
229.861603
 20
782.437744
 10
229.861572
 20
782.785278
 10
229.862885
 20
783.206909
 10
229.865524
 20
783.700623
 10
229.869507
 20
784.264343
 10
229.874786
 20
784.895752
 10
229.881348
 20
785.591614
 10
229.88916
 20
786.348389
 10
229.898193
 20
787.162476
 10
229.908386
 20
788.030396
 10
229.919724
 20
788.948608
 10
229.932129
 20
789.913574
 10
229.945587
 20
790.921448
 10
229.960007
 20
791.967407
 10
229.975342
 20
793.046387
 10
229.991516
 20
794.153564
 10
230.008438
 20
795.28363
 10
230.026047
 20
796.431091
 10
230.044235
 20
797.590576
 10
230.062943
 20
798.756958
 10
230.082092
 20
799.925476
 10
230.101608
 20
801.092773
 10
230.121429
 20
802.254089
 10
230.141434
 20
803.401611
 10
230.161652
 20
804.538574
  0
LWPOLYLINE
  5
19A
330
124
100
AcDbEntity
  8
0
  6
Continuous
 62
     0
370
     0
100
AcDbPolyline
 90
       48
 70
     0
 43
0.0
 10
227.9617
 20
804.448975
 10
227.98175
 20
803.341431
 10
228.001709
 20
802.215881
 10
228.021484
 20
801.077393
 10
228.041
 20
799.930969
 10
228.060165
 20
798.781799
 10
228.078888
 20
797.634949
 10
228.097076
 20
796.495544
 10
228.114685
 20
795.368774
 10
228.131592
 20
794.259521
 10
228.147751
 20
793.172852
 10
228.163071
 20
792.113586
 10
228.17749
 20
791.086426
 10
228.190964
 20
790.095947
 10
228.2034
 20
789.146606
 10
228.214767
 20
788.242615
 10
228.224991
 20
787.388062
 10
228.234055
 20
786.58667
 10
228.241898
 20
785.842102
 10
228.248489
 20
785.157654
 10
228.253799
 20
784.536377
 10
228.257797
 20
783.981079
 10
228.260483
 20
783.494141
 10
228.261841
 20
783.07782
 10
228.261856
 20
782.733948
 10
228.260529
 20
782.464111
 10
228.257874
 20
782.269409
 10
228.253891
 20
782.150818
 10
228.248611
 20
782.108826
 10
228.242035
 20
782.143616
 10
228.234222
 20
782.255005
 10
228.225189
 20
782.442505
 10
228.214981
 20
782.705322
 10
228.203644
 20
783.042236
 10
228.191223
 20
783.451843
 10
228.17778
 20
783.932129
 10
228.163376
 20
784.48114
 10
228.148071
 20
785.096313
 10
228.131927
 20
785.774902
 10
228.115036
 20
786.513977
 10
228.097443
 20
787.31012
 10
228.079254
 20
788.159851
 10
228.060547
 20
789.059326
 10
228.041397
 20
790.004517
 10
228.021896
 20
790.991333
 10
228.002106
 20
792.015198
 10
227.982162
 20
793.071655
 10
227.9617
 20
794.178467
  0
LWPOLYLINE
  5
19B
330
124
100
AcDbEntity
  8
0
  6
Continuous
 62
     0
370
     0
100
AcDbPolyline
 90
       45
 70
     0
 43
0.0
 10
227.9617
 20
795.13385
 10
227.9776
 20
794.27356
 10
227.99382
 20
793.413818
 10
228.010269
 20
792.561401
 10
228.02684
 20
791.723572
 10
228.043381
 20
790.907959
 10
228.059784
 20
790.122559
 10
228.075882
 20
789.375183
 10
228.091537
 20
788.673523
 10
228.106598
 20
788.024963
 10
228.120941
 20
787.436035
 10
228.13443
 20
786.912537
 10
228.146942
 20
786.459229
 10
228.158356
 20
786.079651
 10
228.168625
 20
785.776001
 10
228.177673
 20
785.549316
 10
228.185455
 20
785.39917
 10
228.191956
 20
785.324036
 10
228.197189
 20
785.321228
 10
228.201157
 20
785.387085
 10
228.203934
 20
785.517151
 10
228.205536
 20
785.706482
 10
228.20607
 20
785.949585
 10
228.205566
 20
786.249207
 10
228.203964
 20
786.613708
 10
228.201233
 20
787.045105
 10
228.197266
 20
787.544556
 10
228.192062
 20
788.112061
 10
228.185593
 20
788.746704
 10
228.177841
 20
789.446228
 10
228.168823
 20
790.207214
 10
228.158569
 20
791.025085
 10
228.147171
 20
791.894043
 10
228.134689
 20
792.807495
 10
228.121216
 20
793.757751
 10
228.106903
 20
794.736694
 10
228.091843
 20
795.735779
 10
228.076187
 20
796.746155
 10
228.060104
 20
797.759338
 10
228.043716
 20
798.766968
 10
228.027161
 20
799.761292
 10
228.010605
 20
800.735229
 10
227.994141
 20
801.682556
 10
227.977921
 20
802.597778
 10
227.9617
 20
803.493591
  0
LWPOLYLINE
  5
19C
330
124
100
AcDbEntity
  8
0
  6
Continuous
 62
     0
370
     0
100
AcDbPolyline
 90
        8
 70
     0
 43
0.0
 10
228.113556
 20
812.047546
 10
228.093689
 20
811.143921
 10
228.07309
 20
810.173706
 10
228.051865
 20
809.142456
 10
228.030121
 20
808.055664
 10
228.008011
 20
806.919739
 10
227.985626
 20
805.740967
 10
227.9617
 20
804.448975
  0
LWPOLYLINE
  5
19D
330
124
100
AcDbEntity
  8
0
  6
Continuous
 62
     0
370
     0
100
AcDbPolyline
 90
       20
 70
     0
 43
0.0
 10
230.161652
 20
804.538574
 10
230.141678
 20
805.638306
 10
230.12175
 20
806.712158
 10
230.10199
 20
807.753784
 10
230.08252
 20
808.756165
 10
230.063431
 20
809.715332
 10
230.044769
 20
810.628662
 10
230.026611
 20
811.492371
 10
230.009048
 20
812.302551
 10
229.992157
 20
813.055542
 10
229.976013
 20
813.747559
 10
229.960678
 20
814.375183
 10
229.946259
 20
814.935669
 10
229.9328
 20
815.426575
 10
229.92038
 20
815.84552
 10
229.909027
 20
816.190796
 10
229.898788
 20
816.461365
 10
229.889709
 20
816.655884
 10
229.881851
 20
816.773376
 10
229.875122
 20
816.813538
  0
LWPOLYLINE
  5
19E
330
124
100
AcDbEntity
  8
0
  6
Continuous
 62
     0
370
     0
100
AcDbPolyline
 90
       20
 70
     0
 43
0.0
 10
228.548279
 20
816.813538
 10
228.541656
 20
816.774597
 10
228.533813
 20
816.658325
 10
228.524765
 20
816.464966
 10
228.514542
 20
816.195618
 10
228.503204
 20
815.85144
 10
228.490799
 20
815.433716
 10
228.477356
 20
814.943848
 10
228.462936
 20
814.38446
 10
228.447632
 20
813.757874
 10
228.431503
 20
813.066833
 10
228.414612
 20
812.314758
 10
228.397064
 20
811.505432
 10
228.378922
 20
810.642517
 10
228.36026
 20
809.72998
 10
228.341187
 20
808.771545
 10
228.321716
 20
807.769775
 10
228.301956
 20
806.728699
 10
228.282028
 20
805.655334
 10
228.261749
 20
804.538574
  0
LWPOLYLINE
  5
19F
330
124
100
AcDbEntity
  8
0
  6
Continuous
 62
     0
370
     0
100
AcDbPolyline
 90
       10
 70
     0
 43
0.0
 10
230.4617
 20
804.448975
 10
230.440826
 20
805.577759
 10
230.420059
 20
806.676208
 10
230.39949
 20
807.739136
 10
230.379227
 20
808.761292
 10
230.35936
 20
809.737732
 10
230.339981
 20
810.663818
 10
230.321198
 20
811.535034
 10
230.303085
 20
812.347107
 10
230.284058
 20
813.167847
  0
LWPOLYLINE
  5
1A0
330
124
100
AcDbEntity
  8
0
  6
Continuous
 62
     0
370
     0
100
AcDbPolyline
 90
       19
 70
     0
 43
0.0
 10
230.490204
 20
815.31366
 10
230.496841
 20
815.274109
 10
230.504807
 20
815.155457
 10
230.514038
 20
814.958313
 10
230.52449
 20
814.683777
 10
230.536133
 20
814.333008
 10
230.548874
 20
813.907898
 10
230.562683
 20
813.410583
 10
230.577469
 20
812.843384
 10
230.59317
 20
812.209229
 10
230.609711
 20
811.51123
 10
230.626999
 20
810.752747
 10
230.644958
 20
809.937683
 10
230.663498
 20
809.07019
 10
230.68251
 20
808.154297
 10
230.70192
 20
807.194458
 10
230.721649
 20
806.195129
 10
230.741562
 20
805.161926
 10
230.761658
 20
804.095642
  0
LWPOLYLINE
  5
1A1
330
124
100
AcDbEntity
  8
0
  6
Continuous
 62
     0
370
    30
100
AcDbPolyline
 90
        5
 70
     0
 43
0.0
 10
230.761658
 20
804.095642
 10
230.65834
 20
804.099365
 10
230.567627
 20
804.113647
 10
230.500717
 20
804.136719
 10
230.4617
 20
804.180298
  0
LWPOLYLINE
  5
1A2
330
124
100
AcDbEntity
  8
0
  6
Continuous
 62
     0
370
     0
100
AcDbPolyline
 90
        5
 70
     0
 43
0.0
 10
230.4617
 20
804.448975
 10
230.443329
 20
804.479736
 10
230.39061
 20
804.506897
 10
230.309784
 20
804.526855
 10
230.161652
 20
804.538574
  0
LWPOLYLINE
  5
1A3
330
124
100
AcDbEntity
  8
0
  6
Continuous
 62
     0
370
     0
100
AcDbPolyline
 90
        5
 70
     0
 43
0.0
 10
228.261749
 20
804.538574
 10
228.158798
 20
804.533081
 10
228.067703
 20
804.517334
 10
228.000839
 20
804.493225
 10
227.9617
 20
804.448975
  0
LINE
  5
1A4
330
124
100
AcDbEntity
  8
0
  6
Continuous
 62
     0
370
    30
100
AcDbLine
 10
230.461698
 20
804.090709
 30
0.0
 11
230.761638
 21
804.095614
 31
0.0
  0
LINE
  5
1A5
330
124
100
AcDbEntity
  8
0
  6
Continuous
 62
     0
370
     0
100
AcDbLine
 10
230.461698
 20
804.090709
 30
0.0
 11
231.111696
 21
804.090709
 31
0.0
  0
LINE
  5
1A6
330
124
100
AcDbEntity
  8
0
  6
Continuous
 62
     0
370
    30
100
AcDbLine
 10
231.111695
 20
783.313729
 30
0.0
 11
230.195151
 21
783.313729
 31
0.0
  0
LINE
  5
1A7
330
124
100
AcDbEntity
  8
0
  6
Continuous
 62
     0
370
    30
100
AcDbLine
 10
231.111695
 20
815.313729
 30
0.0
 11
230.490199
 21
815.313729
 31
0.0
  0
LWPOLYLINE
  5
1A8
330
124
100
AcDbEntity
  8
0
  6
Continuous
 62
     0
370
    30
100
AcDbPolyline
 90
       75
 70
     0
 43
0.0
 10
228.135925
 20
785.604126
 10
228.138107
 20
785.511597
 10
228.140274
 20
785.420227
 10
228.142426
 20
785.329956
 10
228.144562
 20
785.240845
 10
228.146683
 20
785.152771
 10
228.148804
 20
785.065857
 10
228.150894
 20
784.980103
 10
228.152969
 20
784.895508
 10
228.155029
 20
784.812012
 10
228.157089
 20
784.729736
 10
228.159119
 20
784.64856
 10
228.161133
 20
784.568604
 10
228.163132
 20
784.489807
 10
228.165115
 20
784.412231
 10
228.167099
 20
784.335815
 10
228.169052
 20
784.26062
 10
228.170975
 20
784.186646
 10
228.172897
 20
784.113831
 10
228.174805
 20
784.042236
 10
228.176697
 20
783.971863
 10
228.178558
 20
783.90271
 10
228.180405
 20
783.834839
 10
228.182251
 20
783.768127
 10
228.184067
 20
783.702698
 10
228.185867
 20
783.63855
 10
228.187637
 20
783.575562
 10
228.189407
 20
783.513916
 10
228.191147
 20
783.453491
 10
228.192871
 20
783.394287
 10
228.19458
 20
783.336426
 10
228.196274
 20
783.279785
 10
228.197952
 20
783.224426
 10
228.1996
 20
783.17041
 10
228.201233
 20
783.117615
 10
228.20285
 20
783.066101
 10
228.204453
 20
783.01593
 10
228.206024
 20
782.96698
 10
228.207581
 20
782.919373
 10
228.209122
 20
782.873108
 10
228.210632
 20
782.828064
 10
228.212143
 20
782.784424
 10
228.213623
 20
782.742004
 10
228.215073
 20
782.700989
 10
228.216522
 20
782.661255
 10
228.217941
 20
782.622803
 10
228.219345
 20
782.585693
 10
228.220718
 20
782.549927
 10
228.222092
 20
782.515442
 10
228.223434
 20
782.4823
 10
228.224747
 20
782.4505
 10
228.226059
 20
782.419983
 10
228.227341
 20
782.390747
 10
228.228607
 20
782.362915
 10
228.229858
 20
782.336304
 10
228.231079
 20
782.311035
 10
228.232285
 20
782.287048
 10
228.23349
 20
782.264343
 10
228.234665
 20
782.24292
 10
228.23584
 20
782.222717
 10
228.237
 20
782.203735
 10
228.238144
 20
782.186035
 10
228.239288
 20
782.169434
 10
228.240433
 20
782.15387
 10
228.241638
 20
782.139282
 10
228.242859
 20
782.125488
 10
228.244141
 20
782.112366
 10
228.245529
 20
782.099548
 10
228.24736
 20
782.085815
 10
228.250031
 20
782.069763
 10
228.254425
 20
782.048096
 10
228.266174
 20
782.009888
 10
228.30658
 20
781.935669
 10
228.406555
 20
781.849426
 10
228.548279
 20
781.813782
  0
LWPOLYLINE
  5
1A9
330
124
100
AcDbEntity
  8
0
  6
Continuous
 62
     0
370
    30
100
AcDbPolyline
 90
       42
 70
     0
 43
0.0
 10
230.228134
 20
783.313721
 10
230.226349
 20
783.254089
 10
230.224579
 20
783.195923
 10
230.222824
 20
783.139221
 10
230.2211
 20
783.083923
 10
230.219406
 20
783.030151
 10
230.217728
 20
782.977783
 10
230.216064
 20
782.926941
 10
230.214417
 20
782.877502
 10
230.212799
 20
782.82959
 10
230.211212
 20
782.783142
 10
230.209641
 20
782.738159
 10
230.208084
 20
782.694702
 10
230.206558
 20
782.65271
 10
230.205048
 20
782.612183
 10
230.203568
 20
782.573181
 10
230.202118
 20
782.535706
 10
230.200668
 20
782.499695
 10
230.199249
 20
782.465149
 10
230.197861
 20
782.432068
 10
230.196487
 20
782.400513
 10
230.195129
 20
782.370422
 10
230.193802
 20
782.341858
 10
230.19249
 20
782.314697
 10
230.191208
 20
782.289062
 10
230.189926
 20
782.264832
 10
230.188675
 20
782.242065
 10
230.187439
 20
782.220703
 10
230.186203
 20
782.200745
 10
230.184982
 20
782.182129
 10
230.183777
 20
782.164795
 10
230.182541
 20
782.14856
 10
230.181244
 20
782.133423
 10
230.179916
 20
782.119141
 10
230.178513
 20
782.105408
 10
230.176819
 20
782.091431
 10
230.174362
 20
782.075378
 10
230.170395
 20
782.054688
 10
230.160736
 20
782.019836
 10
230.125595
 20
781.948242
 10
230.025925
 20
781.854492
 10
229.875122
 20
781.813843
  0
LWPOLYLINE
  5
1AA
330
124
100
AcDbEntity
  8
0
  6
Continuous
 62
     0
370
    30
100
AcDbPolyline
 90
       48
 70
     0
 43
0.0
 10
227.9617
 20
804.449463
 10
227.969879
 20
804.894592
 10
227.978043
 20
805.335693
 10
227.986206
 20
805.772522
 10
227.994354
 20
806.20459
 10
228.002487
 20
806.631592
 10
228.010574
 20
807.05304
 10
228.018631
 20
807.468811
 10
228.026642
 20
807.878479
 10
228.034592
 20
808.281738
 10
228.042511
 20
808.678406
 10
228.050354
 20
809.068115
 10
228.058136
 20
809.450623
 10
228.065842
 20
809.825562
 10
228.073486
 20
810.192749
 10
228.081039
 20
810.551819
 10
228.088501
 20
810.902588
 10
228.095871
 20
811.244751
 10
228.103134
 20
811.578064
 10
228.110306
 20
811.902283
 10
228.117355
 20
812.217102
 10
228.124298
 20
812.5224
 10
228.131119
 20
812.817932
 10
228.137817
 20
813.103455
 10
228.144379
 20
813.378784
 10
228.150803
 20
813.643738
 10
228.157089
 20
813.898071
 10
228.163239
 20
814.141541
 10
228.169235
 20
814.374023
 10
228.175079
 20
814.595276
 10
228.180756
 20
814.805298
 10
228.186279
 20
815.003784
 10
228.191635
 20
815.190674
 10
228.196823
 20
815.365845
 10
228.201843
 20
815.529175
 10
228.20668
 20
815.680542
 10
228.211334
 20
815.819824
 10
228.21582
 20
815.946899
 10
228.220108
 20
816.061829
 10
228.224228
 20
816.16449
 10
228.228165
 20
816.254883
 10
228.231918
 20
816.333191
 10
228.235535
 20
816.399597
 10
228.239044
 20
816.45459
 10
228.242661
 20
816.499695
 10
228.247101
 20
816.539856
 10
228.264801
 20
816.613708
 10
228.548279
 20
816.813599
  0
LWPOLYLINE
  5
1AB
330
124
100
AcDbEntity
  8
0
  6
Continuous
 62
     0
370
    30
100
AcDbPolyline
 90
       48
 70
     0
 43
0.0
 10
230.4617
 20
804.449463
 10
230.453522
 20
804.894592
 10
230.445343
 20
805.335693
 10
230.43718
 20
805.772522
 10
230.429047
 20
806.20459
 10
230.420914
 20
806.631531
 10
230.412827
 20
807.05304
 10
230.40477
 20
807.46875
 10
230.396759
 20
807.878418
 10
230.388809
 20
808.281677
 10
230.38089
 20
808.678345
 10
230.373047
 20
809.067993
 10
230.365265
 20
809.4505
 10
230.357544
 20
809.825439
 10
230.349915
 20
810.192566
 10
230.342361
 20
810.551636
 10
230.3349
 20
810.902405
 10
230.32753
 20
811.244568
 10
230.320267
 20
811.577881
 10
230.313095
 20
811.902039
 10
230.306046
 20
812.216919
 10
230.299103
 20
812.522156
 10
230.292282
 20
812.817688
 10
230.285583
 20
813.10321
 10
230.279022
 20
813.378601
 10
230.272598
 20
813.643494
 10
230.266312
 20
813.897827
 10
230.260162
 20
814.141296
 10
230.254166
 20
814.373779
 10
230.248322
 20
814.595093
 10
230.242645
 20
814.805054
 10
230.237122
 20
815.003601
 10
230.231766
 20
815.190491
 10
230.226578
 20
815.365723
 10
230.221558
 20
815.529053
 10
230.216721
 20
815.68042
 10
230.212067
 20
815.819702
 10
230.207581
 20
815.946838
 10
230.203293
 20
816.061707
 10
230.199173
 20
816.164368
 10
230.195236
 20
816.254822
 10
230.191483
 20
816.33313
 10
230.187866
 20
816.399536
 10
230.184357
 20
816.454529
 10
230.18074
 20
816.499634
 10
230.1763
 20
816.539856
 10
230.158691
 20
816.613525
 10
229.875122
 20
816.81366
  0
LWPOLYLINE
  5
1AC
330
124
100
AcDbEntity
  8
0
  6
Continuous
 62
     0
370
    30
100
AcDbPolyline
 90
        4
 70
     0
 43
0.0
 10
230.22316
 20
815.477661
 10
230.269699
 20
815.410583
 10
230.351746
 20
815.347656
 10
230.490204
 20
815.31366
  0
LINE
  5
1AD
330
124
100
AcDbEntity
  8
0
  6
Continuous
 62
     0
370
    30
100
AcDbLine
 10
229.87512
 20
816.813729
 30
0.0
 11
228.548275
 21
816.813729
 31
0.0
  0
LINE
  5
1AE
330
124
100
AcDbEntity
  8
0
  6
Continuous
 62
     0
370
    30
100
AcDbLine
 10
229.87512
 20
781.813729
 30
0.0
 11
228.548276
 21
781.813729
 31
0.0
  0
LINE
  5
1AF
330
124
100
AcDbEntity
  8
0
  6
Continuous
 62
     0
370
    30
100
AcDbLine
 10
227.961699
 20
505.313729
 30
0.0
 11
225.961699
 21
505.313729
 31
0.0
  0
LINE
  5
1B0
330
124
100
AcDbEntity
  8
0
  6
Continuous
 62
     0
370
    30
100
AcDbLine
 10
225.961699
 20
873.313729
 30
0.0
 11
227.961699
 21
873.313729
 31
0.0
  0
LINE
  5
1B1
330
124
100
AcDbEntity
  8
0
  6
Continuous
 62
     0
370
    30
100
AcDbLine
 10
225.961699
 20
873.313729
 30
0.0
 11
225.961699
 21
505.313729
 31
0.0
  0
LINE
  5
1B2
330
124
100
AcDbEntity
  8
0
  6
Continuous
 62
     0
370
    30
100
AcDbLine
 10
227.961699
 20
505.313729
 30
0.0
 11
227.961699
 21
873.313729
 31
0.0
  0
ENDBLK
  5
1B4
330
124
100
AcDbEntity
  8
0
100
AcDbBlockEnd
  0
BLOCK
  5
24D
330
1B6
100
AcDbEntity
  8
0
100
AcDbBlockBegin
  2
d
 70
     0
 10
-43.529812
 20
0.0
 30
0.0
  3
d
  1

  0
LINE
  5
1B7
330
1B6
100
AcDbEntity
  8
0
  6
Continuous
 62
     0
370
    30
100
AcDbLine
 10
-118.424214
 20
688.311111
 30
0.0
 11
-118.424214
 21
681.311111
 31
0.0
  0
LINE
  5
1B8
330
1B6
100
AcDbEntity
  8
0
  6
Continuous
 62
     0
370
    30
100
AcDbLine
 10
-118.424214
 20
710.311111
 30
0.0
 11
-118.424214
 21
688.311111
 31
0.0
  0
LINE
  5
1B9
330
1B6
100
AcDbEntity
  8
0
  6
Continuous
 62
     0
370
    30
100
AcDbLine
 10
-118.424214
 20
717.311111
 30
0.0
 11
-118.424214
 21
710.311111
 31
0.0
  0
LINE
  5
1BA
330
1B6
100
AcDbEntity
  8
0
  6
Continuous
 62
     0
370
    30
100
AcDbLine
 10
-78.424214
 20
718.311111
 30
0.0
 11
-117.424214
 21
718.311111
 31
0.0
  0
LINE
  5
1BB
330
1B6
100
AcDbEntity
  8
0
  6
Continuous
 62
     0
370
     0
100
AcDbLine
 10
-117.424214
 20
718.311111
 30
0.0
 11
-117.424214
 21
710.311111
 31
0.0
  0
LINE
  5
1BC
330
1B6
100
AcDbEntity
  8
0
  6
Continuous
 62
     0
370
     0
100
AcDbLine
 10
-117.424214
 20
710.311111
 30
0.0
 11
-78.424214
 21
710.311111
 31
0.0
  0
LINE
  5
1BD
330
1B6
100
AcDbEntity
  8
0
  6
Continuous
 62
     0
370
    30
100
AcDbLine
 10
-78.424214
 20
710.311111
 30
0.0
 11
-78.424214
 21
718.311111
 31
0.0
  0
LINE
  5
1BE
330
1B6
100
AcDbEntity
  8
0
  6
Continuous
 62
     0
370
     0
100
AcDbLine
 10
-117.424214
 20
688.311111
 30
0.0
 11
-117.424214
 21
710.311111
 31
0.0
  0
LINE
  5
1BF
330
1B6
100
AcDbEntity
  8
0
  6
Continuous
 62
     0
370
     0
100
AcDbLine
 10
-78.424214
 20
688.311111
 30
0.0
 11
-117.424214
 21
688.311111
 31
0.0
  0
LINE
  5
1C0
330
1B6
100
AcDbEntity
  8
0
  6
Continuous
 62
     0
370
    30
100
AcDbLine
 10
-78.424214
 20
710.311111
 30
0.0
 11
-78.424214
 21
688.311111
 31
0.0
  0
LINE
  5
1C1
330
1B6
100
AcDbEntity
  8
0
  6
Continuous
 62
     0
370
     0
100
AcDbLine
 10
-117.424214
 20
688.311111
 30
0.0
 11
-117.424214
 21
680.311111
 31
0.0
  0
LINE
  5
1C2
330
1B6
100
AcDbEntity
  8
0
  6
Continuous
 62
     0
370
    30
100
AcDbLine
 10
-117.424214
 20
680.311111
 30
0.0
 11
-78.424214
 21
680.311111
 31
0.0
  0
LINE
  5
1C3
330
1B6
100
AcDbEntity
  8
0
  6
Continuous
 62
     0
370
    30
100
AcDbLine
 10
-78.424214
 20
680.311111
 30
0.0
 11
-78.424214
 21
688.311111
 31
0.0
  0
ARC
  5
1C4
330
1B6
100
AcDbEntity
  8
0
  6
Continuous
 62
     0
370
    30
100
AcDbCircle
 10
-117.424214
 20
681.311111
 30
0.0
 40
1.0
100
AcDbArc
 50
180.0
 51
270.0
  0
LINE
  5
1C5
330
1B6
100
AcDbEntity
  8
0
  6
Continuous
 62
     0
370
     0
100
AcDbLine
 10
-117.424214
 20
688.311111
 30
0.0
 11
-118.424214
 21
688.311111
 31
0.0
  0
LINE
  5
1C6
330
1B6
100
AcDbEntity
  8
0
  6
Continuous
 62
     0
370
     0
100
AcDbLine
 10
-117.424214
 20
710.311111
 30
0.0
 11
-118.424214
 21
710.311111
 31
0.0
  0
ARC
  5
1C7
330
1B6
100
AcDbEntity
  8
0
  6
Continuous
 62
     0
370
    30
100
AcDbCircle
 10
-117.424214
 20
717.311111
 30
0.0
 40
1.000000000003268
100
AcDbArc
 50
90.0
 51
180.0
  0
LINE
  5
1C8
330
1B6
100
AcDbEntity
  8
0
  6
Continuous
 62
     0
370
    30
100
AcDbLine
 10
-128.274288
 20
600.813828
 30
0.0
 11
-128.274288
 21
557.813828
 31
0.0
  0
LINE
  5
1C9
330
1B6
100
AcDbEntity
  8
0
  6
Continuous
 62
     0
370
    30
100
AcDbLine
 10
-128.274288
 20
557.813828
 30
0.0
 11
-127.774288
 21
557.313828
 31
0.0
  0
LINE
  5
1CA
330
1B6
100
AcDbEntity
  8
0
  6
Continuous
 62
     0
370
    30
100
AcDbLine
 10
-127.774288
 20
601.313828
 30
0.0
 11
-127.774288
 21
557.313828
 31
0.0
  0
LINE
  5
1CB
330
1B6
100
AcDbEntity
  8
0
  6
Continuous
 62
     0
370
    30
100
AcDbLine
 10
-114.524288
 20
557.313828
 30
0.0
 11
-78.274288
 21
557.313828
 31
0.0
  0
LINE
  5
1CC
330
1B6
100
AcDbEntity
  8
0
  6
Continuous
 62
     0
370
    30
100
AcDbLine
 10
-78.274288
 20
557.313828
 30
0.0
 11
-78.274288
 21
601.313828
 31
0.0
  0
LINE
  5
1CD
330
1B6
100
AcDbEntity
  8
0
  6
Continuous
 62
     0
370
    30
100
AcDbLine
 10
-124.024288
 20
557.313828
 30
0.0
 11
-127.774288
 21
557.313828
 31
0.0
  0
LWPOLYLINE
  5
1CE
330
1B6
100
AcDbEntity
  8
0
  6
Continuous
 62
     0
370
     0
100
AcDbPolyline
 90
       27
 70
     0
 43
0.0
 10
-124.024284
 20
557.313843
 10
-123.989922
 20
557.321289
 10
-123.886444
 20
557.343201
 10
-123.716393
 20
557.378235
 10
-123.482254
 20
557.424438
 10
-123.187569
 20
557.479187
 10
-122.83622
 20
557.539429
 10
-122.432655
 20
557.601685
 10
-121.982674
 20
557.662598
 10
-121.493095
 20
557.718445
 10
-120.97084
 20
557.765808
 10
-120.423424
 20
557.801941
 10
-119.85878
 20
557.824768
 10
-119.28511
 20
557.832642
 10
-118.711266
 20
557.825317
 10
-118.146133
 20
557.803101
 10
-117.597931
 20
557.767395
 10
-117.074585
 20
557.720398
 10
-116.583656
 20
557.664795
 10
-116.132057
 20
557.604065
 10
-115.726631
 20
557.541748
 10
-115.373222
 20
557.481384
 10
-115.076279
 20
557.426392
 10
-114.839806
 20
557.379761
 10
-114.667358
 20
557.344238
 10
-114.561279
 20
557.321838
 10
-114.524284
 20
557.313843
  0
LWPOLYLINE
  5
1CF
330
1B6
100
AcDbEntity
  8
0
  6
Continuous
 62
     0
370
     0
100
AcDbPolyline
 90
       25
 70
     0
 43
0.0
 10
-115.174286
 20
601.313843
 10
-115.209091
 20
601.307312
 10
-115.313614
 20
601.288269
 10
-115.485252
 20
601.258057
 10
-115.72094
 20
601.218567
 10
-116.016914
 20
601.172424
 10
-116.368622
 20
601.122864
 10
-116.770576
 20
601.072998
 10
-117.215492
 20
601.026245
 10
-117.695747
 20
600.986023
 10
-118.203262
 20
600.955017
 10
-118.72937
 20
600.935303
 10
-119.265175
 20
600.928528
 10
-119.801109
 20
600.934814
 10
-120.327644
 20
600.954102
 10
-120.835869
 20
600.984802
 10
-121.317169
 20
601.024841
 10
-121.763451
 20
601.071411
 10
-122.167038
 20
601.121155
 10
-122.520576
 20
601.170837
 10
-122.818489
 20
601.217102
 10
-123.056206
 20
601.256836
 10
-123.230179
 20
601.287476
 10
-123.337006
 20
601.306885
 10
-123.373894
 20
601.313843
  0
LINE
  5
1D0
330
1B6
100
AcDbEntity
  8
0
  6
Continuous
 62
     0
370
    30
100
AcDbLine
 10
-115.824288
 20
609.143827
 30
0.0
 11
-122.724288
 21
609.143827
 31
0.0
  0
LINE
  5
1D1
330
1B6
100
AcDbEntity
  8
0
  6
Continuous
 62
     0
370
    30
100
AcDbLine
 10
-122.724288
 20
609.143827
 30
0.0
 11
-123.224288
 21
608.643827
 31
0.0
  0
LINE
  5
1D2
330
1B6
100
AcDbEntity
  8
0
  6
Continuous
 62
     0
370
    30
100
AcDbLine
 10
-115.324288
 20
608.643827
 30
0.0
 11
-123.224288
 21
608.643827
 31
0.0
  0
LINE
  5
1D3
330
1B6
100
AcDbEntity
  8
0
  6
Continuous
 62
     0
370
    30
100
AcDbLine
 10
-123.224288
 20
601.313828
 30
0.0
 11
-123.224288
 21
608.643827
 31
0.0
  0
LWPOLYLINE
  5
1D4
330
1B6
100
AcDbEntity
  8
0
  6
Continuous
 62
     0
370
    30
100
AcDbPolyline
 90
       24
 70
     0
 43
0.0
 10
-123.224289
 20
601.313843
 10
-123.187798
 20
601.307251
 10
-123.078033
 20
601.287903
 10
-122.897453
 20
601.257507
 10
-122.649727
 20
601.217896
 10
-122.339951
 20
601.17218
 10
-121.974045
 20
601.12384
 10
-121.557983
 20
601.076477
 10
-121.098991
 20
601.033325
 10
-120.605911
 20
600.997437
 10
-120.087654
 20
600.971741
 10
-119.553551
 20
600.958618
 10
-119.013985
 20
600.958374
 10
-118.479538
 20
600.971008
 10
-117.960617
 20
600.996277
 10
-117.466537
 20
601.031982
 10
-117.006172
 20
601.075012
 10
-116.588303
 20
601.122375
 10
-116.220352
 20
601.170715
 10
-115.908508
 20
601.216492
 10
-115.65889
 20
601.256165
 10
-115.476494
 20
601.286743
 10
-115.364128
 20
601.306458
 10
-115.324287
 20
601.313782
  0
LINE
  5
1D5
330
1B6
100
AcDbEntity
  8
0
  6
Continuous
 62
     0
370
    30
100
AcDbLine
 10
-114.524288
 20
557.313828
 30
0.0
 11
-124.024288
 21
557.313828
 31
0.0
  0
LINE
  5
1D6
330
1B6
100
AcDbEntity
  8
0
  6
Continuous
 62
     0
370
    30
100
AcDbLine
 10
-123.224288
 20
601.313828
 30
0.0
 11
-123.373891
 21
601.313828
 31
0.0
  0
LINE
  5
1D7
330
1B6
100
AcDbEntity
  8
0
  6
Continuous
 62
     0
370
    30
100
AcDbLine
 10
-115.324288
 20
608.643827
 30
0.0
 11
-115.324288
 21
601.313751
 31
0.0
  0
LINE
  5
1D8
330
1B6
100
AcDbEntity
  8
0
  6
Continuous
 62
     0
370
    30
100
AcDbLine
 10
-115.824288
 20
609.143827
 30
0.0
 11
-115.324288
 21
608.643827
 31
0.0
  0
LINE
  5
1D9
330
1B6
100
AcDbEntity
  8
0
  6
Continuous
 62
     0
370
    30
100
AcDbLine
 10
-127.774288
 20
601.313828
 30
0.0
 11
-123.373891
 21
601.313828
 31
0.0
  0
LINE
  5
1DA
330
1B6
100
AcDbEntity
  8
0
  6
Continuous
 62
     0
370
    30
100
AcDbLine
 10
-115.174288
 20
601.313828
 30
0.0
 11
-78.274288
 21
601.313828
 31
0.0
  0
LINE
  5
1DB
330
1B6
100
AcDbEntity
  8
0
  6
Continuous
 62
     0
370
    30
100
AcDbLine
 10
-128.274288
 20
600.813828
 30
0.0
 11
-127.774288
 21
601.313828
 31
0.0
  0
LWPOLYLINE
  5
1DC
330
1B6
100
AcDbEntity
  8
0
  6
Continuous
 62
     0
370
     0
100
AcDbPolyline
 90
        8
 70
     0
 43
0.0
 10
-77.774216
 20
694.175842
 10
-77.751701
 20
692.959045
 10
-77.729301
 20
691.777832
 10
-77.707161
 20
690.639038
 10
-77.685402
 20
689.549011
 10
-77.664139
 20
688.514038
 10
-77.643494
 20
687.539856
 10
-77.62236
 20
686.577332
  0
LINE
  5
1DD
330
1B6
100
AcDbEntity
  8
0
  6
Continuous
 62
     0
370
     0
100
AcDbLine
 10
-77.774216
 20
694.44456
 30
0.0
 11
-77.774216
 21
694.175855
 31
0.0
  0
LWPOLYLINE
  5
1DE
330
1B6
100
AcDbEntity
  8
0
  6
Continuous
 62
     0
370
     0
100
AcDbPolyline
 90
       20
 70
     0
 43
0.0
 10
-75.860794
 20
681.81134
 10
-75.854179
 20
681.85022
 10
-75.846329
 20
681.966492
 10
-75.83728
 20
682.159851
 10
-75.827065
 20
682.429199
 10
-75.815727
 20
682.773376
 10
-75.803314
 20
683.191162
 10
-75.789871
 20
683.680969
 10
-75.775459
 20
684.240417
 10
-75.760155
 20
684.866943
 10
-75.744019
 20
685.557983
 10
-75.727135
 20
686.310059
 10
-75.709579
 20
687.119385
 10
-75.691437
 20
687.9823
 10
-75.672783
 20
688.894836
 10
-75.653702
 20
689.853333
 10
-75.634239
 20
690.855042
 10
-75.614479
 20
691.896179
 10
-75.594551
 20
692.969543
 10
-75.574265
 20
694.086304
  0
LINE
  5
1DF
330
1B6
100
AcDbEntity
  8
0
  6
Continuous
 62
     0
370
     0
100
AcDbLine
 10
-75.574262
 20
694.086286
 30
0.0
 11
-77.474171
 21
694.086286
 31
0.0
  0
LWPOLYLINE
  5
1E0
330
1B6
100
AcDbEntity
  8
0
  6
Continuous
 62
     0
370
     0
100
AcDbPolyline
 90
       20
 70
     0
 43
0.0
 10
-77.474174
 20
694.086304
 10
-77.454193
 20
692.986511
 10
-77.434265
 20
691.91272
 10
-77.414497
 20
690.871033
 10
-77.395035
 20
689.868652
 10
-77.375946
 20
688.909546
 10
-77.357285
 20
687.996216
 10
-77.339134
 20
687.132507
 10
-77.321571
 20
686.322266
 10
-77.304672
 20
685.569275
 10
-77.288521
 20
684.877258
 10
-77.273201
 20
684.249695
 10
-77.258781
 20
683.689209
 10
-77.245323
 20
683.198242
 10
-77.232895
 20
682.779358
 10
-77.221542
 20
682.434021
 10
-77.211304
 20
682.163452
 10
-77.202232
 20
681.968933
 10
-77.194366
 20
681.85144
 10
-77.187637
 20
681.81134
  0
LWPOLYLINE
  5
1E1
330
1B6
100
AcDbEntity
  8
0
  6
Continuous
 62
     0
370
     0
100
AcDbPolyline
 90
       10
 70
     0
 43
0.0
 10
-75.449768
 20
685.54541
 10
-75.432701
 20
686.283142
 10
-75.414894
 20
687.081848
 10
-75.396431
 20
687.937744
 10
-75.377388
 20
688.846863
 10
-75.357872
 20
689.804871
 10
-75.337959
 20
690.807434
 10
-75.317749
 20
691.849731
 10
-75.297333
 20
692.926941
 10
-75.274292
 20
694.171509
  0
LWPOLYLINE
  5
1E2
330
1B6
100
AcDbEntity
  8
0
  6
Continuous
 62
     0
370
     0
100
AcDbPolyline
 90
       48
 70
     0
 43
0.0
 10
-75.274292
 20
694.180176
 10
-75.294334
 20
695.287354
 10
-75.314293
 20
696.412964
 10
-75.334068
 20
697.551208
 10
-75.353577
 20
698.697327
 10
-75.372734
 20
699.846252
 10
-75.391449
 20
700.992859
 10
-75.409645
 20
702.131958
 10
-75.427231
 20
703.258484
 10
-75.444138
 20
704.367432
 10
-75.460289
 20
705.453857
 10
-75.475609
 20
706.512939
 10
-75.490036
 20
707.539917
 10
-75.503494
 20
708.530151
 10
-75.51593
 20
709.479248
 10
-75.52729
 20
710.383118
 10
-75.537521
 20
711.237488
 10
-75.54657
 20
712.038696
 10
-75.554413
 20
712.783142
 10
-75.561005
 20
713.467529
 10
-75.566315
 20
714.088684
 10
-75.57032
 20
714.643982
 10
-75.573006
 20
715.130798
 10
-75.574356
 20
715.546997
 10
-75.574371
 20
715.890869
 10
-75.573051
 20
716.160767
 10
-75.570389
 20
716.355347
 10
-75.566406
 20
716.473999
 10
-75.561127
 20
716.515991
 10
-75.554558
 20
716.481201
 10
-75.546745
 20
716.369934
 10
-75.537712
 20
716.182434
 10
-75.527504
 20
715.919617
 10
-75.516167
 20
715.582825
 10
-75.503754
 20
715.173462
 10
-75.490311
 20
714.693176
 10
-75.475914
 20
714.144409
 10
-75.460609
 20
713.52948
 10
-75.444473
 20
712.851013
 10
-75.427582
 20
712.112244
 10
-75.410004
 20
711.316406
 10
-75.391823
 20
710.466919
 10
-75.373116
 20
709.56781
 10
-75.353966
 20
708.622864
 10
-75.334465
 20
707.636353
 10
-75.31469
 20
706.612793
 10
-75.294739
 20
705.55658
 10
-75.274292
 20
704.450684
  0
LWPOLYLINE
  5
1E3
330
1B6
100
AcDbEntity
  8
0
  6
Continuous
 62
     0
370
     0
100
AcDbPolyline
 90
       43
 70
     0
 43
0.0
 10
-75.274292
 20
703.4953
 10
-75.292549
 20
704.481445
 10
-75.310692
 20
705.438782
 10
-75.328644
 20
706.361755
 10
-75.346283
 20
707.245422
 10
-75.363518
 20
708.084778
 10
-75.380264
 20
708.875122
 10
-75.396408
 20
709.612
 10
-75.411873
 20
710.291443
 10
-75.426567
 20
710.909485
 10
-75.440414
 20
711.462708
 10
-75.453331
 20
711.948059
 10
-75.465248
 20
712.362854
 10
-75.476097
 20
712.704712
 10
-75.485817
 20
712.97168
 10
-75.494362
 20
713.162415
 10
-75.501671
 20
713.275757
 10
-75.507706
 20
713.310974
 10
-75.512444
 20
713.268066
 10
-75.515846
 20
713.147095
 10
-75.517899
 20
712.948792
 10
-75.518585
 20
712.674377
 10
-75.517914
 20
712.325195
 10
-75.515877
 20
711.903381
 10
-75.512489
 20
711.411194
 10
-75.507767
 20
710.851318
 10
-75.501747
 20
710.227051
 10
-75.494453
 20
709.541748
 10
-75.485924
 20
708.799255
 10
-75.476219
 20
708.003845
 10
-75.465385
 20
707.15979
 10
-75.453476
 20
706.271973
 10
-75.440575
 20
705.345215
 10
-75.426735
 20
704.384766
 10
-75.412048
 20
703.395996
 10
-75.396591
 20
702.384399
 10
-75.380455
 20
701.355652
 10
-75.363716
 20
700.315491
 10
-75.346489
 20
699.269714
 10
-75.32885
 20
698.224182
 10
-75.310905
 20
697.184753
 10
-75.292763
 20
696.157227
 10
-75.274292
 20
695.13562
  0
LWPOLYLINE
  5
1E4
330
1B6
100
AcDbEntity
  8
0
  6
Continuous
 62
     0
370
     0
100
AcDbPolyline
 90
       29
 70
     0
 43
0.0
 10
-77.187637
 20
716.810913
 10
-77.182281
 20
716.77179
 10
-77.17823
 20
716.654236
 10
-77.175507
 20
716.458984
 10
-77.174126
 20
716.187073
 10
-77.174088
 20
715.839539
 10
-77.1754
 20
715.417908
 10
-77.178047
 20
714.924255
 10
-77.182014
 20
714.360474
 10
-77.187302
 20
713.729065
 10
-77.193871
 20
713.033203
 10
-77.201683
 20
712.276428
 10
-77.210709
 20
711.462341
 10
-77.220909
 20
710.594421
 10
-77.232239
 20
709.676208
 10
-77.244652
 20
708.711243
 10
-77.258102
 20
707.703369
 10
-77.27253
 20
706.657471
 10
-77.287865
 20
705.57843
 10
-77.304031
 20
704.471252
 10
-77.320961
 20
703.341187
 10
-77.338562
 20
702.193787
 10
-77.356758
 20
701.034241
 10
-77.375465
 20
699.867859
 10
-77.394608
 20
698.699341
 10
-77.414131
 20
697.532043
 10
-77.433952
 20
696.370728
 10
-77.453949
 20
695.223267
 10
-77.474174
 20
694.086304
  0
LWPOLYLINE
  5
1E5
330
1B6
100
AcDbEntity
  8
0
  6
Continuous
 62
     0
370
     0
100
AcDbPolyline
 90
       29
 70
     0
 43
0.0
 10
-75.574265
 20
694.086304
 10
-75.594307
 20
695.212952
 10
-75.614296
 20
696.360291
 10
-75.634125
 20
697.521545
 10
-75.653656
 20
698.688782
 10
-75.672798
 20
699.857361
 10
-75.691513
 20
701.023743
 10
-75.709709
 20
702.18335
 10
-75.727318
 20
703.330933
 10
-75.744247
 20
704.461121
 10
-75.760429
 20
705.568542
 10
-75.775764
 20
706.647888
 10
-75.790207
 20
707.694092
 10
-75.803665
 20
708.702332
 10
-75.816086
 20
709.667725
 10
-75.827423
 20
710.586365
 10
-75.837631
 20
711.454773
 10
-75.846672
 20
712.269348
 10
-75.8545
 20
713.026611
 10
-75.861076
 20
713.723083
 10
-75.866371
 20
714.355103
 10
-75.870361
 20
714.919434
 10
-75.873016
 20
715.413818
 10
-75.874336
 20
715.83606
 10
-75.874313
 20
716.184265
 10
-75.87294
 20
716.456848
 10
-75.870232
 20
716.652832
 10
-75.866196
 20
716.771057
 10
-75.860794
 20
716.810913
  0
LWPOLYLINE
  5
1E6
330
1B6
100
AcDbEntity
  8
0
  6
Continuous
 62
     0
370
     0
100
AcDbPolyline
 90
       29
 70
     0
 43
0.0
 10
-77.774216
 20
694.44458
 10
-77.754395
 20
695.540222
 10
-77.734673
 20
696.654114
 10
-77.715141
 20
697.780945
 10
-77.6959
 20
698.915161
 10
-77.67704
 20
700.051331
 10
-77.658646
 20
701.183838
 10
-77.640816
 20
702.30719
 10
-77.623642
 20
703.416016
 10
-77.607193
 20
704.504883
 10
-77.59156
 20
705.56842
 10
-77.576813
 20
706.601562
 10
-77.563026
 20
707.599304
 10
-77.550262
 20
708.556702
 10
-77.538589
 20
709.469177
 10
-77.528061
 20
710.332214
 10
-77.51873
 20
711.141724
 10
-77.510643
 20
711.893738
 10
-77.503838
 20
712.584534
 10
-77.498344
 20
713.210876
 10
-77.494186
 20
713.769653
 10
-77.491394
 20
714.258118
 10
-77.489983
 20
714.67395
 10
-77.489944
 20
715.015076
 10
-77.491295
 20
715.279907
 10
-77.494011
 20
715.467163
 10
-77.498093
 20
715.575867
 10
-77.503525
 20
715.605469
 10
-77.5103
 20
715.555481
  0
LWPOLYLINE
  5
1E7
330
1B6
100
AcDbEntity
  8
0
  6
Continuous
 62
     0
370
     0
100
AcDbPolyline
 90
       34
 70
     0
 43
0.0
 10
-77.535645
 20
715.475159
 10
-77.523903
 20
715.835144
 10
-77.513306
 20
716.120239
 10
-77.503883
 20
716.329102
 10
-77.495697
 20
716.460815
 10
-77.48877
 20
716.514709
 10
-77.483131
 20
716.49054
 10
-77.478821
 20
716.388489
 10
-77.475845
 20
716.208984
 10
-77.47422
 20
715.952881
 10
-77.473961
 20
715.621216
 10
-77.475067
 20
715.215637
 10
-77.477524
 20
714.737915
 10
-77.481323
 20
714.190247
 10
-77.486458
 20
713.575073
 10
-77.492897
 20
712.895203
 10
-77.50061
 20
712.153748
 10
-77.50956
 20
711.354065
 10
-77.519714
 20
710.499756
 10
-77.531021
 20
709.594666
 10
-77.543434
 20
708.643005
 10
-77.556892
 20
707.648987
 10
-77.571335
 20
706.617188
 10
-77.5867
 20
705.552307
 10
-77.602913
 20
704.459045
 10
-77.619904
 20
703.342529
 10
-77.637596
 20
702.207703
 10
-77.655907
 20
701.059753
 10
-77.674751
 20
699.903931
 10
-77.694046
 20
698.745422
 10
-77.713707
 20
697.589478
 10
-77.733643
 20
696.441406
 10
-77.753754
 20
695.306335
 10
-77.774216
 20
694.175842
  0
LWPOLYLINE
  5
1E8
330
1B6
100
AcDbEntity
  8
0
  6
Continuous
 62
     0
370
     0
100
AcDbPolyline
 90
       28
 70
     0
 43
0.0
 10
-78.074173
 20
694.539062
 10
-78.054474
 20
695.607727
 10
-78.034851
 20
696.695435
 10
-78.015411
 20
697.795837
 10
-77.996269
 20
698.903137
 10
-77.977501
 20
700.012146
 10
-77.959198
 20
701.117798
 10
-77.941444
 20
702.214844
 10
-77.924332
 20
703.298035
 10
-77.907936
 20
704.362061
 10
-77.892349
 20
705.401733
 10
-77.877625
 20
706.412231
 10
-77.863853
 20
707.388489
 10
-77.851089
 20
708.32605
 10
-77.839394
 20
709.220276
 10
-77.828835
 20
710.066833
 10
-77.81945
 20
710.861694
 10
-77.811295
 20
711.601074
 10
-77.804398
 20
712.281372
 10
-77.798805
 20
712.899353
 10
-77.794533
 20
713.452026
 10
-77.791603
 20
713.936646
 10
-77.790031
 20
714.351074
 10
-77.789825
 20
714.693176
 10
-77.790993
 20
714.961304
 10
-77.793518
 20
715.154236
 10
-77.797394
 20
715.270996
 10
-77.802719
 20
715.311035
  0
LWPOLYLINE
  5
1E9
330
1B6
100
AcDbEntity
  8
0
  6
Continuous
 62
     0
370
    30
100
AcDbPolyline
 90
        5
 70
     0
 43
0.0
 10
-77.774216
 20
694.44458
 10
-77.79258
 20
694.475708
 10
-77.845436
 20
694.503601
 10
-77.926239
 20
694.524902
 10
-78.074173
 20
694.539062
  0
LWPOLYLINE
  5
1EA
330
1B6
100
AcDbEntity
  8
0
  6
Continuous
 62
     0
370
     0
100
AcDbPolyline
 90
        5
 70
     0
 43
0.0
 10
-77.474174
 20
694.086304
 10
-77.577118
 20
694.091797
 10
-77.668205
 20
694.107483
 10
-77.735077
 20
694.131653
 10
-77.774216
 20
694.175842
  0
LWPOLYLINE
  5
1EB
330
1B6
100
AcDbEntity
  8
0
  6
Continuous
 62
     0
370
     0
100
AcDbPolyline
 90
        4
 70
     0
 43
0.0
 10
-75.274292
 20
694.173828
 10
-75.316689
 20
694.129883
 10
-75.426048
 20
694.097961
 10
-75.574265
 20
694.086304
  0
LINE
  5
1EC
330
1B6
100
AcDbEntity
  8
0
  6
Continuous
 62
     0
370
     0
100
AcDbLine
 10
-78.424214
 20
694.534128
 30
0.0
 11
-77.990984
 21
694.534128
 31
0.0
  0
LINE
  5
1ED
330
1B6
100
AcDbEntity
  8
0
  6
Continuous
 62
     0
370
    30
100
AcDbLine
 10
-78.424213
 20
683.311108
 30
0.0
 11
-77.540652
 21
683.311108
 31
0.0
  0
LINE
  5
1EE
330
1B6
100
AcDbEntity
  8
0
  6
Continuous
 62
     0
370
    30
100
AcDbLine
 10
-78.424213
 20
715.311108
 30
0.0
 11
-77.802717
 21
715.311108
 31
0.0
  0
LWPOLYLINE
  5
1EF
330
1B6
100
AcDbEntity
  8
0
  6
Continuous
 62
     0
370
    30
100
AcDbPolyline
 90
       48
 70
     0
 43
0.0
 10
-75.274292
 20
694.171265
 10
-75.282471
 20
693.726318
 10
-75.290642
 20
693.285278
 10
-75.298798
 20
692.848633
 10
-75.306946
 20
692.416626
 10
-75.315063
 20
691.989807
 10
-75.323151
 20
691.56842
 10
-75.3312
 20
691.152832
 10
-75.339211
 20
690.743347
 10
-75.347168
 20
690.34021
 10
-75.35508
 20
689.943665
 10
-75.362923
 20
689.554077
 10
-75.370705
 20
689.171753
 10
-75.37841
 20
688.796936
 10
-75.386047
 20
688.429932
 10
-75.393593
 20
688.070984
 10
-75.401054
 20
687.720337
 10
-75.408424
 20
687.378296
 10
-75.415695
 20
687.045105
 10
-75.422852
 20
686.721008
 10
-75.429909
 20
686.406311
 10
-75.436844
 20
686.101135
 10
-75.443665
 20
685.805725
 10
-75.450356
 20
685.520264
 10
-75.456917
 20
685.245056
 10
-75.463341
 20
684.980164
 10
-75.469635
 20
684.725952
 10
-75.475777
 20
684.482605
 10
-75.481766
 20
684.250183
 10
-75.48761
 20
684.028992
 10
-75.493286
 20
683.819092
 10
-75.49881
 20
683.620605
 10
-75.504166
 20
683.433777
 10
-75.509354
 20
683.258667
 10
-75.514366
 20
683.095398
 10
-75.519203
 20
682.944092
 10
-75.523865
 20
682.804871
 10
-75.528343
 20
682.677795
 10
-75.532639
 20
682.562927
 10
-75.536751
 20
682.460327
 10
-75.54068
 20
682.369873
 10
-75.544441
 20
682.291565
 10
-75.54805
 20
682.22522
 10
-75.551559
 20
682.170227
 10
-75.555176
 20
682.125183
 10
-75.559616
 20
682.084961
 10
-75.57724
 20
682.011292
 10
-75.860794
 20
681.811157
  0
LWPOLYLINE
  5
1F0
330
1B6
100
AcDbEntity
  8
0
  6
Continuous
 62
     0
370
    30
100
AcDbPolyline
 90
       48
 70
     0
 43
0.0
 10
-77.774216
 20
694.175354
 10
-77.766037
 20
693.730286
 10
-77.757866
 20
693.289124
 10
-77.749702
 20
692.852295
 10
-77.741554
 20
692.420227
 10
-77.733437
 20
691.993286
 10
-77.725342
 20
691.571777
 10
-77.717293
 20
691.156067
 10
-77.709282
 20
690.746399
 10
-77.701317
 20
690.343079
 10
-77.693413
 20
689.946411
 10
-77.685562
 20
689.556702
 10
-77.67778
 20
689.174255
 10
-77.670067
 20
688.799255
 10
-77.66243
 20
688.432129
 10
-77.654877
 20
688.072998
 10
-77.647415
 20
687.722229
 10
-77.640045
 20
687.380066
 10
-77.632774
 20
687.046753
 10
-77.62561
 20
686.722595
 10
-77.618553
 20
686.407715
 10
-77.611618
 20
686.102417
 10
-77.604797
 20
685.806885
 10
-77.598106
 20
685.521362
 10
-77.591537
 20
685.246033
 10
-77.585106
 20
684.981079
 10
-77.578819
 20
684.726807
 10
-77.572678
 20
684.483276
 10
-77.566681
 20
684.250854
 10
-77.560837
 20
684.029541
 10
-77.555153
 20
683.81958
 10
-77.549637
 20
683.621033
 10
-77.544273
 20
683.434143
 10
-77.539085
 20
683.258972
 10
-77.534073
 20
683.095642
 10
-77.529236
 20
682.944275
 10
-77.524574
 20
682.804993
 10
-77.520096
 20
682.677917
 10
-77.5158
 20
682.563049
 10
-77.511681
 20
682.460388
 10
-77.507751
 20
682.369934
 10
-77.50399
 20
682.291626
 10
-77.500374
 20
682.22522
 10
-77.496872
 20
682.170227
 10
-77.493256
 20
682.125183
 10
-77.488808
 20
682.084961
 10
-77.471115
 20
682.011108
 10
-77.187637
 20
681.811218
  0
LWPOLYLINE
  5
1F1
330
1B6
100
AcDbEntity
  8
0
  6
Continuous
 62
     0
370
    30
100
AcDbPolyline
 90
       76
 70
     0
 43
0.0
 10
-75.426064
 20
712.044922
 10
-75.42865
 20
712.160095
 10
-75.431221
 20
712.273926
 10
-75.433769
 20
712.386536
 10
-75.43631
 20
712.497803
 10
-75.438835
 20
712.607788
 10
-75.441338
 20
712.716431
 10
-75.443832
 20
712.82373
 10
-75.446304
 20
712.929688
 10
-75.448761
 20
713.034241
 10
-75.451195
 20
713.137512
 10
-75.453613
 20
713.239319
 10
-75.456017
 20
713.339783
 10
-75.458405
 20
713.438843
 10
-75.46077
 20
713.536499
 10
-75.463112
 20
713.63269
 10
-75.465446
 20
713.727478
 10
-75.467751
 20
713.820862
 10
-75.470047
 20
713.91272
 10
-75.472313
 20
714.003174
 10
-75.474564
 20
714.092102
 10
-75.476791
 20
714.179565
 10
-75.479004
 20
714.265564
 10
-75.481194
 20
714.350037
 10
-75.48336
 20
714.433044
 10
-75.485512
 20
714.514465
 10
-75.48764
 20
714.594421
 10
-75.489746
 20
714.672852
 10
-75.491829
 20
714.749756
 10
-75.493889
 20
714.825073
 10
-75.495934
 20
714.898865
 10
-75.497955
 20
714.97113
 10
-75.499947
 20
715.041809
 10
-75.501923
 20
715.110901
 10
-75.503876
 20
715.178406
 10
-75.505806
 20
715.244385
 10
-75.507706
 20
715.308716
 10
-75.50959
 20
715.37146
 10
-75.511452
 20
715.432617
 10
-75.513283
 20
715.492188
 10
-75.515099
 20
715.550171
 10
-75.516884
 20
715.606445
 10
-75.518654
 20
715.661194
 10
-75.520393
 20
715.714233
 10
-75.52211
 20
715.765686
 10
-75.523796
 20
715.815491
 10
-75.525467
 20
715.863708
 10
-75.527107
 20
715.910217
 10
-75.528725
 20
715.955078
 10
-75.530319
 20
715.998291
 10
-75.531891
 20
716.039856
 10
-75.533432
 20
716.079773
 10
-75.53495
 20
716.118042
 10
-75.536446
 20
716.154663
 10
-75.537918
 20
716.189636
 10
-75.539368
 20
716.222961
 10
-75.540787
 20
716.254639
 10
-75.542191
 20
716.284668
 10
-75.543564
 20
716.31311
 10
-75.544922
 20
716.339905
 10
-75.546257
 20
716.365051
 10
-75.547569
 20
716.388672
 10
-75.548874
 20
716.410706
 10
-75.550163
 20
716.431274
 10
-75.551445
 20
716.450317
 10
-75.552734
 20
716.467957
 10
-75.554054
 20
716.484436
 10
-75.555435
 20
716.499878
 10
-75.556877
 20
716.514465
 10
-75.55851
 20
716.528931
 10
-75.560814
 20
716.545044
 10
-75.564507
 20
716.565247
 10
-75.572823
 20
716.5979
 10
-75.604279
 20
716.667175
 10
-75.703751
 20
716.766602
 10
-75.860794
 20
716.810974
  0
LWPOLYLINE
  5
1F2
330
1B6
100
AcDbEntity
  8
0
  6
Continuous
 62
     0
370
    30
100
AcDbPolyline
 90
       39
 70
     0
 43
0.0
 10
-77.535675
 20
715.475098
 10
-77.533936
 20
715.530884
 10
-77.532227
 20
715.585205
 10
-77.530525
 20
715.638123
 10
-77.528854
 20
715.689514
 10
-77.527206
 20
715.73938
 10
-77.525581
 20
715.787781
 10
-77.523972
 20
715.834717
 10
-77.522392
 20
715.880127
 10
-77.520828
 20
715.924011
 10
-77.519287
 20
715.966431
 10
-77.517776
 20
716.007324
 10
-77.516281
 20
716.046753
 10
-77.514809
 20
716.084656
 10
-77.513359
 20
716.121033
 10
-77.511932
 20
716.155884
 10
-77.510529
 20
716.18927
 10
-77.509148
 20
716.22113
 10
-77.50779
 20
716.251526
 10
-77.506447
 20
716.280396
 10
-77.505127
 20
716.3078
 10
-77.50383
 20
716.33374
 10
-77.502548
 20
716.358154
 10
-77.501289
 20
716.381165
 10
-77.500038
 20
716.40271
 10
-77.498802
 20
716.422913
 10
-77.497581
 20
716.441711
 10
-77.496361
 20
716.459167
 10
-77.495117
 20
716.475525
 10
-77.493828
 20
716.490784
 10
-77.492485
 20
716.505188
 10
-77.491089
 20
716.518982
 10
-77.489395
 20
716.53302
 10
-77.486954
 20
716.549011
 10
-77.483017
 20
716.569702
 10
-77.473503
 20
716.604309
 10
-77.438744
 20
716.675659
 10
-77.339119
 20
716.769958
 10
-77.187637
 20
716.811035
  0
LWPOLYLINE
  5
1F3
330
1B6
100
AcDbEntity
  8
0
  6
Continuous
 62
     0
370
    30
100
AcDbPolyline
 90
        8
 70
     0
 43
0.0
 10
-77.509415
 20
715.55542
 10
-77.509666
 20
715.553589
 10
-77.510933
 20
715.546448
 10
-77.514809
 20
715.529846
 10
-77.527534
 20
715.492737
 10
-77.571175
 20
715.420776
 10
-77.66346
 20
715.345459
 10
-77.802719
 20
715.311035
  0
LINE
  5
1F4
330
1B6
100
AcDbEntity
  8
0
  6
Continuous
 62
     0
370
    30
100
AcDbLine
 10
-77.187638
 20
716.811108
 30
0.0
 11
-75.860793
 21
716.811108
 31
0.0
  0
LINE
  5
1F5
330
1B6
100
AcDbEntity
  8
0
  6
Continuous
 62
     0
370
    30
100
AcDbLine
 10
-77.187638
 20
681.811108
 30
0.0
 11
-75.860794
 21
681.811108
 31
0.0
  0
LWPOLYLINE
  5
1F6
330
1B6
100
AcDbEntity
  8
0
  6
Continuous
 62
     0
370
     0
100
AcDbPolyline
 90
        5
 70
     0
 43
0.0
 10
-77.474274
 20
558.691223
 10
-77.466568
 20
558.540955
 10
-77.45887
 20
558.428467
 10
-77.451187
 20
558.354065
 10
-77.440163
 20
558.313965
  0
LWPOLYLINE
  5
1F7
330
1B6
100
AcDbEntity
  8
0
  6
Continuous
 62
     0
370
     0
100
AcDbPolyline
 90
        5
 70
     0
 43
0.0
 10
-75.608414
 20
558.313965
 10
-75.600792
 20
558.333252
 10
-75.593124
 20
558.390747
 10
-75.585426
 20
558.486328
 10
-75.574303
 20
558.691223
  0
LINE
  5
1F8
330
1B6
100
AcDbEntity
  8
0
  6
Continuous
 62
     0
370
     0
100
AcDbLine
 10
-75.5743
 20
558.691234
 30
0.0
 11
-77.474277
 21
558.691234
 31
0.0
  0
LWPOLYLINE
  5
1F9
330
1B6
100
AcDbEntity
  8
0
  6
Continuous
 62
     0
370
     0
100
AcDbPolyline
 90
       27
 70
     0
 43
0.0
 10
-75.454956
 20
583.22113
 10
-75.454628
 20
584.440063
 10
-75.453644
 20
585.64032
 10
-75.452003
 20
586.817566
 10
-75.449722
 20
587.967468
 10
-75.446793
 20
589.085938
 10
-75.443245
 20
590.168762
 10
-75.439079
 20
591.212036
 10
-75.434311
 20
592.212036
 10
-75.428963
 20
593.1651
 10
-75.42305
 20
594.067688
 10
-75.416595
 20
594.916565
 10
-75.409622
 20
595.708679
 10
-75.402153
 20
596.44104
 10
-75.394226
 20
597.111084
 10
-75.385857
 20
597.716309
 10
-75.377083
 20
598.254517
 10
-75.367935
 20
598.723816
 10
-75.358452
 20
599.122375
 10
-75.348656
 20
599.448853
 10
-75.338593
 20
599.702026
 10
-75.328293
 20
599.880981
 10
-75.317795
 20
599.984985
 10
-75.307137
 20
600.013794
 10
-75.296364
 20
599.967224
 10
-75.285515
 20
599.845459
 10
-75.274284
 20
599.641785
  0
LWPOLYLINE
  5
1FA
330
1B6
100
AcDbEntity
  8
0
  6
Continuous
 62
     0
370
     0
100
AcDbPolyline
 90
       26
 70
     0
 43
0.0
 10
-75.274292
 20
558.98584
 10
-75.285629
 20
559.271057
 10
-75.296928
 20
559.635437
 10
-75.308136
 20
560.077393
 10
-75.319214
 20
560.595276
 10
-75.330109
 20
561.187012
 10
-75.34079
 20
561.850342
 10
-75.351204
 20
562.58252
 10
-75.361313
 20
563.380737
 10
-75.371078
 20
564.241821
 10
-75.38047
 20
565.162415
 10
-75.389435
 20
566.138855
 10
-75.397949
 20
567.167236
 10
-75.405975
 20
568.243591
 10
-75.413483
 20
569.363586
 10
-75.420441
 20
570.522888
 10
-75.426819
 20
571.716858
 10
-75.432594
 20
572.940796
 10
-75.437752
 20
574.189941
 10
-75.442261
 20
575.45929
 10
-75.446106
 20
576.743835
 10
-75.449272
 20
578.038513
 10
-75.451752
 20
579.338196
 10
-75.453529
 20
580.637817
 10
-75.454597
 20
581.932251
 10
-75.454956
 20
583.22113
  0
LWPOLYLINE
  5
1FB
330
1B6
100
AcDbEntity
  8
0
  6
Continuous
 62
     0
370
     0
100
AcDbPolyline
 90
       26
 70
     0
 43
0.0
 10
-75.440536
 20
582.90918
 10
-75.440262
 20
581.835144
 10
-75.43943
 20
580.728699
 10
-75.437996
 20
579.59436
 10
-75.435928
 20
578.437317
 10
-75.43322
 20
577.263489
 10
-75.429848
 20
576.079346
 10
-75.425804
 20
574.892029
 10
-75.421089
 20
573.708923
 10
-75.41571
 20
572.537964
 10
-75.409691
 20
571.387024
 10
-75.403046
 20
570.264038
 10
-75.395821
 20
569.176758
 10
-75.388054
 20
568.132629
 10
-75.379799
 20
567.138428
 10
-75.371109
 20
566.200317
 10
-75.362053
 20
565.323669
 10
-75.352692
 20
564.512939
 10
-75.343094
 20
563.771667
 10
-75.333328
 20
563.102234
 10
-75.323456
 20
562.506226
 10
-75.313545
 20
561.98407
 10
-75.303658
 20
561.535461
 10
-75.293846
 20
561.159058
 10
-75.284164
 20
560.852905
 10
-75.274292
 20
560.606201
  0
LWPOLYLINE
  5
1FC
330
1B6
100
AcDbEntity
  8
0
  6
Continuous
 62
     0
370
     0
100
AcDbPolyline
 90
       27
 70
     0
 43
0.0
 10
-75.274284
 20
598.021484
 10
-75.283409
 20
598.190613
 10
-75.292702
 20
598.304626
 10
-75.302124
 20
598.359375
 10
-75.311623
 20
598.351074
 10
-75.321152
 20
598.276367
 10
-75.330658
 20
598.132324
 10
-75.340088
 20
597.91687
 10
-75.34938
 20
597.628418
 10
-75.358467
 20
597.266357
 10
-75.367302
 20
596.830811
 10
-75.375824
 20
596.322876
 10
-75.383972
 20
595.744507
 10
-75.391685
 20
595.098572
 10
-75.398933
 20
594.388733
 10
-75.405663
 20
593.619568
 10
-75.411835
 20
592.796143
 10
-75.417427
 20
591.924255
 10
-75.422417
 20
591.01001
 10
-75.426796
 20
590.059937
 10
-75.430542
 20
589.080566
 10
-75.433678
 20
588.078674
 10
-75.436195
 20
587.060791
 10
-75.438126
 20
586.033264
 10
-75.439468
 20
585.002136
 10
-75.440262
 20
583.973145
 10
-75.440536
 20
582.90918
  0
LWPOLYLINE
  5
1FD
330
1B6
100
AcDbEntity
  8
0
  6
Continuous
 62
     0
370
     0
100
AcDbPolyline
 90
       27
 70
     0
 43
0.0
 10
-75.574303
 20
558.691223
 10
-75.585175
 20
558.967224
 10
-75.596024
 20
559.317688
 10
-75.606812
 20
559.741272
 10
-75.617477
 20
560.236145
 10
-75.627975
 20
560.800232
 10
-75.638275
 20
561.431519
 10
-75.648346
 20
562.127625
 10
-75.658142
 20
562.886475
 10
-75.667633
 20
563.7052
 10
-75.676796
 20
564.580688
 10
-75.685577
 20
565.509705
 10
-75.693954
 20
566.489075
 10
-75.701897
 20
567.515076
 10
-75.709373
 20
568.584045
 10
-75.716362
 20
569.692017
 10
-75.722832
 20
570.835205
 10
-75.72876
 20
572.009216
 10
-75.734131
 20
573.209595
 10
-75.738914
 20
574.431946
 10
-75.743103
 20
575.671997
 10
-75.746674
 20
576.925537
 10
-75.749619
 20
578.188416
 10
-75.751923
 20
579.45636
 10
-75.753586
 20
580.723816
 10
-75.754593
 20
581.984497
 10
-75.754944
 20
583.277222
  0
LINE
  5
1FE
330
1B6
100
AcDbEntity
  8
0
  6
Continuous
 62
     0
370
     0
100
AcDbLine
 10
-75.754947
 20
583.27724
 30
0.0
 11
-77.293631
 21
583.27724
 31
0.0
  0
LWPOLYLINE
  5
1FF
330
1B6
100
AcDbEntity
  8
0
  6
Continuous
 62
     0
370
     0
100
AcDbPolyline
 90
       27
 70
     0
 43
0.0
 10
-77.293633
 20
583.277222
 10
-77.293961
 20
582.028748
 10
-77.294945
 20
580.768433
 10
-77.296585
 20
579.501099
 10
-77.298866
 20
578.233093
 10
-77.301788
 20
576.969971
 10
-77.305344
 20
575.716003
 10
-77.309509
 20
574.475403
 10
-77.31427
 20
573.252319
 10
-77.319618
 20
572.051086
 10
-77.325531
 20
570.876099
 10
-77.331978
 20
569.731812
 10
-77.338951
 20
568.622437
 10
-77.346413
 20
567.552124
 10
-77.354332
 20
566.524475
 10
-77.362701
 20
565.543396
 10
-77.371468
 20
564.612549
 10
-77.380615
 20
563.735107
 10
-77.390099
 20
562.914307
 10
-77.399887
 20
562.15332
 10
-77.409943
 20
561.454956
 10
-77.420235
 20
560.821411
 10
-77.430733
 20
560.254822
 10
-77.441391
 20
559.757507
 10
-77.452171
 20
559.33136
 10
-77.46302
 20
558.978333
 10
-77.474274
 20
558.691223
  0
LWPOLYLINE
  5
200
330
1B6
100
AcDbEntity
  8
0
  6
Continuous
 62
     0
370
     0
100
AcDbPolyline
 90
       24
 70
     0
 43
0.0
 10
-77.440193
 20
600.313721
 10
-77.429611
 20
600.276123
 10
-77.419197
 20
600.162964
 10
-77.408989
 20
599.974915
 10
-77.399017
 20
599.712708
 10
-77.389313
 20
599.377014
 10
-77.379913
 20
598.969116
 10
-77.37085
 20
598.490784
 10
-77.36216
 20
597.943481
 10
-77.353867
 20
597.329102
 10
-77.346016
 20
596.649963
 10
-77.338623
 20
595.908569
 10
-77.331718
 20
595.107422
 10
-77.325325
 20
594.249329
 10
-77.319466
 20
593.337646
 10
-77.314163
 20
592.375732
 10
-77.309441
 20
591.367065
 10
-77.305305
 20
590.315125
 10
-77.301781
 20
589.223389
 10
-77.298874
 20
588.095398
 10
-77.2966
 20
586.934937
 10
-77.294968
 20
585.747009
 10
-77.293976
 20
584.537598
 10
-77.293633
 20
583.277222
  0
LWPOLYLINE
  5
201
330
1B6
100
AcDbEntity
  8
0
  6
Continuous
 62
     0
370
     0
100
AcDbPolyline
 90
       24
 70
     0
 43
0.0
 10
-75.754944
 20
583.277222
 10
-75.754623
 20
584.503906
 10
-75.753647
 20
585.713867
 10
-75.752029
 20
586.902405
 10
-75.749771
 20
588.063782
 10
-75.746887
 20
589.192688
 10
-75.743378
 20
590.285461
 10
-75.739258
 20
591.338562
 10
-75.73455
 20
592.348511
 10
-75.729263
 20
593.311707
 10
-75.723419
 20
594.224854
 10
-75.717041
 20
595.084473
 10
-75.710152
 20
595.887207
 10
-75.702774
 20
596.63031
 10
-75.694931
 20
597.311218
 10
-75.686653
 20
597.927429
 10
-75.677971
 20
598.476562
 10
-75.668922
 20
598.956848
 10
-75.659531
 20
599.366699
 10
-75.649834
 20
599.704407
 10
-75.639862
 20
599.968689
 10
-75.629662
 20
600.158752
 10
-75.619255
 20
600.273987
 10
-75.608383
 20
600.313721
  0
LWPOLYLINE
  5
202
330
1B6
100
AcDbEntity
  8
0
  6
Continuous
 62
     0
370
     0
100
AcDbPolyline
 90
       25
 70
     0
 43
0.0
 10
-77.599335
 20
583.097473
 10
-77.59967
 20
584.298706
 10
-77.600655
 20
585.48114
 10
-77.602303
 20
586.640381
 10
-77.604591
 20
587.771912
 10
-77.607521
 20
588.871643
 10
-77.611084
 20
589.935303
 10
-77.615257
 20
590.958862
 10
-77.620033
 20
591.938599
 10
-77.625389
 20
592.870728
 10
-77.63131
 20
593.751709
 10
-77.637764
 20
594.578247
 10
-77.644737
 20
595.34729
 10
-77.652199
 20
596.055847
 10
-77.660118
 20
596.701294
 10
-77.668472
 20
597.281189
 10
-77.677216
 20
597.793335
 10
-77.686333
 20
598.23584
 10
-77.695786
 20
598.606995
 10
-77.705528
 20
598.905396
 10
-77.71553
 20
599.129944
 10
-77.725754
 20
599.279785
 10
-77.736168
 20
599.35437
 10
-77.746719
 20
599.353394
 10
-77.757683
 20
599.27356
  0
LWPOLYLINE
  5
203
330
1B6
100
AcDbEntity
  8
0
  6
Continuous
 62
     0
370
     0
100
AcDbPolyline
 90
       26
 70
     0
 43
0.0
 10
-77.774292
 20
559.624146
 10
-77.763313
 20
559.900513
 10
-77.75238
 20
560.253296
 10
-77.741531
 20
560.681213
 10
-77.730812
 20
561.182495
 10
-77.720268
 20
561.755188
 10
-77.709938
 20
562.397034
 10
-77.699852
 20
563.105591
 10
-77.690071
 20
563.87793
 10
-77.680611
 20
564.711121
 10
-77.671524
 20
565.601807
 10
-77.662849
 20
566.546509
 10
-77.654602
 20
567.541504
 10
-77.646835
 20
568.582886
 10
-77.639565
 20
569.666504
 10
-77.632828
 20
570.788147
 10
-77.626648
 20
571.943359
 10
-77.621056
 20
573.127625
 10
-77.616058
 20
574.336304
 10
-77.611687
 20
575.564514
 10
-77.607956
 20
576.807495
 10
-77.604881
 20
578.060364
 10
-77.602478
 20
579.318176
 10
-77.600746
 20
580.575989
 10
-77.599701
 20
581.828796
 10
-77.599335
 20
583.097473
  0
LINE
  5
204
330
1B6
100
AcDbEntity
  8
0
  6
Continuous
 62
     0
370
     0
100
AcDbLine
 10
-77.774288
 20
558.985843
 30
0.0
 11
-77.774288
 21
559.624161
 31
0.0
  0
LWPOLYLINE
  5
205
330
1B6
100
AcDbEntity
  8
0
  6
Continuous
 62
     0
370
     0
100
AcDbPolyline
 90
       26
 70
     0
 43
0.0
 10
-77.59362
 20
583.22113
 10
-77.593979
 20
581.937073
 10
-77.595047
 20
580.6427
 10
-77.596817
 20
579.343079
 10
-77.599297
 20
578.043396
 10
-77.602463
 20
576.748657
 10
-77.6063
 20
575.46405
 10
-77.610809
 20
574.194702
 10
-77.615959
 20
572.945496
 10
-77.621735
 20
571.721436
 10
-77.628113
 20
570.527344
 10
-77.635071
 20
569.36792
 10
-77.64257
 20
568.247681
 10
-77.650597
 20
567.171204
 10
-77.659111
 20
566.142578
 10
-77.668076
 20
565.166016
 10
-77.67746
 20
564.245178
 10
-77.687225
 20
563.38385
 10
-77.697334
 20
562.585388
 10
-77.707748
 20
561.852966
 10
-77.71843
 20
561.189392
 10
-77.729324
 20
560.597351
 10
-77.740402
 20
560.079224
 10
-77.75161
 20
559.636902
 10
-77.762901
 20
559.272278
 10
-77.774292
 20
558.98584
  0
LWPOLYLINE
  5
206
330
1B6
100
AcDbEntity
  8
0
  6
Continuous
 62
     0
370
     0
100
AcDbPolyline
 90
       27
 70
     0
 43
0.0
 10
-77.774284
 20
599.641785
 10
-77.76339
 20
599.840576
 10
-77.752541
 20
599.964661
 10
-77.74176
 20
600.013489
 10
-77.731102
 20
599.987
 10
-77.720604
 20
599.885193
 10
-77.710297
 20
599.708496
 10
-77.700226
 20
599.457581
 10
-77.690422
 20
599.133301
 10
-77.680923
 20
598.736877
 10
-77.671761
 20
598.269714
 10
-77.662979
 20
597.733521
 10
-77.654594
 20
597.13031
 10
-77.646652
 20
596.462219
 10
-77.639175
 20
595.731628
 10
-77.632187
 20
594.941345
 10
-77.625717
 20
594.094116
 10
-77.619789
 20
593.193054
 10
-77.614418
 20
592.241516
 10
-77.609634
 20
591.242859
 10
-77.605453
 20
590.200806
 10
-77.601883
 20
589.119141
 10
-77.598938
 20
588.001709
 10
-77.596634
 20
586.852661
 10
-77.594971
 20
585.676208
 10
-77.593971
 20
584.476562
 10
-77.59362
 20
583.22113
  0
LINE
  5
207
330
1B6
100
AcDbEntity
  8
0
  6
Continuous
 62
     0
370
     0
100
AcDbLine
 10
-77.774288
 20
599.229875
 30
0.0
 11
-77.774288
 21
599.641812
 31
0.0
  0
LWPOLYLINE
  5
208
330
1B6
100
AcDbEntity
  8
0
  6
Continuous
 62
     0
370
     0
100
AcDbPolyline
 90
       23
 70
     0
 43
0.0
 10
-77.89933
 20
583.041321
 10
-77.899673
 20
584.248779
 10
-77.900703
 20
585.43811
 10
-77.902412
 20
586.603821
 10
-77.904808
 20
587.740417
 10
-77.90786
 20
588.843567
 10
-77.911575
 20
589.909058
 10
-77.915924
 20
590.932922
 10
-77.920898
 20
591.911194
 10
-77.926476
 20
592.840027
 10
-77.93264
 20
593.715576
 10
-77.939354
 20
594.534424
 10
-77.946602
 20
595.293457
 10
-77.954353
 20
595.989624
 10
-77.96257
 20
596.620117
 10
-77.97123
 20
597.182678
 10
-77.980301
 20
597.674866
 10
-77.989738
 20
598.094788
 10
-77.999504
 20
598.440918
 10
-78.009567
 20
598.711792
 10
-78.019882
 20
598.906311
 10
-78.030411
 20
599.023865
 10
-78.041275
 20
599.063843
  0
LWPOLYLINE
  5
209
330
1B6
100
AcDbEntity
  8
0
  6
Continuous
 62
     0
370
     0
100
AcDbPolyline
 90
        5
 70
     0
 43
0.0
 10
-77.599335
 20
583.097473
 10
-77.618301
 20
583.078125
 10
-77.67112
 20
583.061218
 10
-77.751366
 20
583.048706
 10
-77.89933
 20
583.041321
  0
LWPOLYLINE
  5
20A
330
1B6
100
AcDbEntity
  8
0
  6
Continuous
 62
     0
370
     0
100
AcDbPolyline
 90
       26
 70
     0
 43
0.0
 10
-78.074303
 20
559.918762
 10
-78.063332
 20
560.190613
 10
-78.052399
 20
560.537964
 10
-78.04155
 20
560.95929
 10
-78.03083
 20
561.452881
 10
-78.020287
 20
562.016724
 10
-78.009956
 20
562.648621
 10
-77.999878
 20
563.346191
 10
-77.990089
 20
564.106689
 10
-77.980637
 20
564.927002
 10
-77.97155
 20
565.804016
 10
-77.962868
 20
566.734314
 10
-77.954628
 20
567.713989
 10
-77.946854
 20
568.739441
 10
-77.93959
 20
569.806519
 10
-77.932846
 20
570.911011
 10
-77.926666
 20
572.048645
 10
-77.921066
 20
573.214966
 10
-77.916069
 20
574.405151
 10
-77.911697
 20
575.614624
 10
-77.907967
 20
576.838623
 10
-77.904884
 20
578.072449
 10
-77.902473
 20
579.311523
 10
-77.900742
 20
580.551025
 10
-77.899689
 20
581.785217
 10
-77.89933
 20
583.041321
  0
ARC
  5
20B
330
1B6
100
AcDbEntity
  8
0
  6
Continuous
 62
     0
370
     0
100
AcDbCircle
 10
-78.071607
 20
559.62145
 30
0.0
 40
0.2973315143394856
100
AcDbArc
 50
0.522422
 51
90.518809
  0
LWPOLYLINE
  5
20C
330
1B6
100
AcDbEntity
  8
0
  6
Continuous
 62
     0
370
     0
100
AcDbPolyline
 90
        4
 70
     0
 43
0.0
 10
-78.041275
 20
559.563843
 10
-78.052185
 20
559.60321
 10
-78.063187
 20
559.721252
 10
-78.074303
 20
559.918762
  0
ARC
  5
20D
330
1B6
100
AcDbEntity
  8
0
  6
Continuous
 62
     0
370
     0
100
AcDbCircle
 10
-77.477317
 20
558.988199
 30
0.0
 40
0.2969808285654714
100
AcDbArc
 50
180.454661
 51
270.586498
  0
LINE
  5
20E
330
1B6
100
AcDbEntity
  8
0
  6
Continuous
 62
     0
370
     0
100
AcDbLine
 10
-77.774288
 20
599.641813
 30
0.0
 11
-77.773981
 21
599.654942
 31
0.0
  0
LWPOLYLINE
  5
20F
330
1B6
100
AcDbEntity
  8
0
  6
Continuous
 62
     0
370
     0
100
AcDbPolyline
 90
        5
 70
     0
 43
0.0
 10
-77.59362
 20
583.22113
 10
-77.574661
 20
583.240417
 10
-77.521843
 20
583.257385
 10
-77.441589
 20
583.269897
 10
-77.293633
 20
583.277222
  0
LWPOLYLINE
  5
210
330
1B6
100
AcDbEntity
  8
0
  6
Continuous
 62
     0
370
     0
100
AcDbPolyline
 90
        5
 70
     0
 43
0.0
 10
-75.454956
 20
583.22113
 10
-75.473915
 20
583.240417
 10
-75.526733
 20
583.257385
 10
-75.606987
 20
583.269897
 10
-75.754944
 20
583.277222
  0
ARC
  5
211
330
1B6
100
AcDbEntity
  8
0
  6
Continuous
 62
     0
370
     0
100
AcDbCircle
 10
-75.571624
 20
558.988587
 30
0.0
 40
0.2973652920052984
100
AcDbArc
 50
269.484363
 51
359.100583
  0
LINE
  5
212
330
1B6
100
AcDbEntity
  8
0
  6
Continuous
 62
     0
370
     0
100
AcDbLine
 10
-78.274289
 20
583.041323
 30
0.0
 11
-77.899327
 21
583.041323
 31
0.0
  0
LINE
  5
213
330
1B6
100
AcDbEntity
  8
0
  6
Continuous
 62
     0
370
     0
100
AcDbLine
 10
-78.274288
 20
559.918769
 30
0.0
 11
-78.0743
 21
559.918769
 31
0.0
  0
LINE
  5
214
330
1B6
100
AcDbEntity
  8
0
  6
Continuous
 62
     0
370
    30
100
AcDbLine
 10
-78.274288
 20
559.563828
 30
0.0
 11
-78.041276
 21
559.563828
 31
0.0
  0
LINE
  5
215
330
1B6
100
AcDbEntity
  8
0
  6
Continuous
 62
     0
370
    30
100
AcDbLine
 10
-78.274288
 20
599.063828
 30
0.0
 11
-78.041276
 21
599.063828
 31
0.0
  0
LWPOLYLINE
  5
216
330
1B6
100
AcDbEntity
  8
0
  6
Continuous
 62
     0
370
    30
100
AcDbPolyline
 90
       24
 70
     0
 43
0.0
 10
-75.608414
 20
558.313843
 10
-75.464622
 20
558.350403
 10
-75.371368
 20
558.428711
 10
-75.332626
 20
558.49176
 10
-75.317856
 20
558.530029
 10
-75.310608
 20
558.55603
 10
-75.306221
 20
558.576294
 10
-75.303024
 20
558.593994
 10
-75.300461
 20
558.610718
 10
-75.298256
 20
558.627441
 10
-75.296242
 20
558.644531
 10
-75.294365
 20
558.662415
 10
-75.292572
 20
558.681213
 10
-75.290833
 20
558.70105
 10
-75.289139
 20
558.722168
 10
-75.287468
 20
558.744507
 10
-75.28582
 20
558.768127
 10
-75.28418
 20
558.793152
 10
-75.282562
 20
558.819519
 10
-75.28096
 20
558.84729
 10
-75.279358
 20
558.876404
 10
-75.277771
 20
558.906982
 10
-75.276184
 20
558.938965
 10
-75.27459
 20
558.972717
  0
LWPOLYLINE
  5
217
330
1B6
100
AcDbEntity
  8
0
  6
Continuous
 62
     0
370
    30
100
AcDbPolyline
 90
       24
 70
     0
 43
0.0
 10
-75.27459
 20
599.654968
 10
-75.276169
 20
599.688354
 10
-75.277756
 20
599.720337
 10
-75.279343
 20
599.750916
 10
-75.280937
 20
599.780029
 10
-75.282547
 20
599.807739
 10
-75.284164
 20
599.834106
 10
-75.285789
 20
599.85907
 10
-75.287437
 20
599.882751
 10
-75.289101
 20
599.905029
 10
-75.290794
 20
599.926147
 10
-75.292534
 20
599.946045
 10
-75.294319
 20
599.964844
 10
-75.296188
 20
599.982605
 10
-75.298187
 20
599.999695
 10
-75.3004
 20
600.016418
 10
-75.302925
 20
600.033142
 10
-75.306137
 20
600.050842
 10
-75.310326
 20
600.070862
 10
-75.317368
 20
600.096497
 10
-75.331932
 20
600.134216
 10
-75.369118
 20
600.196106
 10
-75.4599
 20
600.274719
 10
-75.608414
 20
600.313843
  0
LWPOLYLINE
  5
218
330
1B6
100
AcDbEntity
  8
0
  6
Continuous
 62
     0
370
    30
100
AcDbPolyline
 90
       24
 70
     0
 43
0.0
 10
-77.440163
 20
600.313843
 10
-77.583702
 20
600.277466
 10
-77.677032
 20
600.199158
 10
-77.715752
 20
600.13623
 10
-77.730728
 20
600.097778
 10
-77.737869
 20
600.071899
 10
-77.742393
 20
600.051514
 10
-77.745522
 20
600.033875
 10
-77.748062
 20
600.017151
 10
-77.750298
 20
600.000488
 10
-77.752342
 20
599.983276
 10
-77.75425
 20
599.965332
 10
-77.75605
 20
599.946594
 10
-77.757759
 20
599.926819
 10
-77.759422
 20
599.905945
 10
-77.761055
 20
599.883789
 10
-77.762688
 20
599.860229
 10
-77.764313
 20
599.835327
 10
-77.76593
 20
599.809082
 10
-77.76754
 20
599.781372
 10
-77.769142
 20
599.752319
 10
-77.770737
 20
599.721802
 10
-77.772331
 20
599.68988
 10
-77.773987
 20
599.654968
  0
LWPOLYLINE
  5
219
330
1B6
100
AcDbEntity
  8
0
  6
Continuous
 62
     0
370
    30
100
AcDbPolyline
 90
       24
 70
     0
 43
0.0
 10
-77.773987
 20
558.972717
 10
-77.772415
 20
558.93927
 10
-77.770859
 20
558.907349
 10
-77.76931
 20
558.876831
 10
-77.767754
 20
558.847778
 10
-77.76619
 20
558.820129
 10
-77.764595
 20
558.793823
 10
-77.76297
 20
558.76886
 10
-77.761307
 20
558.745117
 10
-77.75959
 20
558.722656
 10
-77.757812
 20
558.701355
 10
-77.755959
 20
558.681274
 10
-77.754059
 20
558.662292
 10
-77.752144
 20
558.644409
 10
-77.750252
 20
558.627441
 10
-77.74839
 20
558.611389
 10
-77.74617
 20
558.595154
 10
-77.74295
 20
558.577332
 10
-77.738098
 20
558.556335
 10
-77.730721
 20
558.530273
 10
-77.716339
 20
558.492371
 10
-77.677933
 20
558.429626
 10
-77.585503
 20
558.351196
 10
-77.440163
 20
558.313843
  0
LWPOLYLINE
  5
21A
330
1B6
100
AcDbEntity
  8
0
  6
Continuous
 62
     0
370
    30
100
AcDbPolyline
 90
        4
 70
     0
 43
0.0
 10
-78.04129
 20
559.563843
 10
-77.90876
 20
559.532715
 10
-77.817215
 20
559.462341
 10
-77.774292
 20
559.397705
  0
LWPOLYLINE
  5
21B
330
1B6
100
AcDbEntity
  8
0
  6
Continuous
 62
     0
370
    30
100
AcDbPolyline
 90
        8
 70
     0
 43
0.0
 10
-77.75428
 20
599.287781
 10
-77.754692
 20
599.285706
 10
-77.756416
 20
599.278198
 10
-77.76123
 20
599.261963
 10
-77.773804
 20
599.230835
 10
-77.810196
 20
599.173584
 10
-77.895874
 20
599.101624
 10
-78.04126
 20
599.063843
  0
LINE
  5
21C
330
1B6
100
AcDbEntity
  8
0
  6
Continuous
 62
     0
370
    30
100
AcDbLine
 10
-77.440183
 20
600.313828
 30
0.0
 11
-75.608393
 21
600.313828
 31
0.0
  0
LINE
  5
21D
330
1B6
100
AcDbEntity
  8
0
  6
Continuous
 62
     0
370
    30
100
AcDbLine
 10
-77.440183
 20
558.313828
 30
0.0
 11
-75.608394
 21
558.313828
 31
0.0
  0
LINE
  5
21E
330
1B6
100
AcDbEntity
  8
0
  6
Continuous
 62
     0
370
    30
100
AcDbLine
 10
-118.424293
 20
788.313687
 30
0.0
 11
-118.424293
 21
781.313687
 31
0.0
  0
LINE
  5
21F
330
1B6
100
AcDbEntity
  8
0
  6
Continuous
 62
     0
370
    30
100
AcDbLine
 10
-118.424293
 20
810.313687
 30
0.0
 11
-118.424293
 21
788.313687
 31
0.0
  0
LINE
  5
220
330
1B6
100
AcDbEntity
  8
0
  6
Continuous
 62
     0
370
    30
100
AcDbLine
 10
-118.424293
 20
817.313687
 30
0.0
 11
-118.424293
 21
810.313687
 31
0.0
  0
LINE
  5
221
330
1B6
100
AcDbEntity
  8
0
  6
Continuous
 62
     0
370
    30
100
AcDbLine
 10
-78.424293
 20
818.313687
 30
0.0
 11
-117.424293
 21
818.313687
 31
0.0
  0
LINE
  5
222
330
1B6
100
AcDbEntity
  8
0
  6
Continuous
 62
     0
370
     0
100
AcDbLine
 10
-117.424293
 20
818.313687
 30
0.0
 11
-117.424293
 21
810.313687
 31
0.0
  0
LINE
  5
223
330
1B6
100
AcDbEntity
  8
0
  6
Continuous
 62
     0
370
     0
100
AcDbLine
 10
-117.424293
 20
810.313687
 30
0.0
 11
-78.424293
 21
810.313687
 31
0.0
  0
LINE
  5
224
330
1B6
100
AcDbEntity
  8
0
  6
Continuous
 62
     0
370
    30
100
AcDbLine
 10
-78.424293
 20
810.313687
 30
0.0
 11
-78.424293
 21
818.313687
 31
0.0
  0
LINE
  5
225
330
1B6
100
AcDbEntity
  8
0
  6
Continuous
 62
     0
370
     0
100
AcDbLine
 10
-117.424293
 20
788.313687
 30
0.0
 11
-117.424293
 21
810.313687
 31
0.0
  0
LINE
  5
226
330
1B6
100
AcDbEntity
  8
0
  6
Continuous
 62
     0
370
     0
100
AcDbLine
 10
-78.424293
 20
788.313687
 30
0.0
 11
-117.424293
 21
788.313687
 31
0.0
  0
LINE
  5
227
330
1B6
100
AcDbEntity
  8
0
  6
Continuous
 62
     0
370
    30
100
AcDbLine
 10
-78.424293
 20
810.313687
 30
0.0
 11
-78.424293
 21
788.313687
 31
0.0
  0
LINE
  5
228
330
1B6
100
AcDbEntity
  8
0
  6
Continuous
 62
     0
370
     0
100
AcDbLine
 10
-117.424293
 20
788.313687
 30
0.0
 11
-117.424293
 21
780.313687
 31
0.0
  0
LINE
  5
229
330
1B6
100
AcDbEntity
  8
0
  6
Continuous
 62
     0
370
    30
100
AcDbLine
 10
-117.424293
 20
780.313687
 30
0.0
 11
-78.424293
 21
780.313687
 31
0.0
  0
LINE
  5
22A
330
1B6
100
AcDbEntity
  8
0
  6
Continuous
 62
     0
370
    30
100
AcDbLine
 10
-78.424293
 20
780.313687
 30
0.0
 11
-78.424293
 21
788.313687
 31
0.0
  0
ARC
  5
22B
330
1B6
100
AcDbEntity
  8
0
  6
Continuous
 62
     0
370
    30
100
AcDbCircle
 10
-117.424293
 20
781.313687
 30
0.0
 40
1.0
100
AcDbArc
 50
180.0
 51
270.0
  0
LINE
  5
22C
330
1B6
100
AcDbEntity
  8
0
  6
Continuous
 62
     0
370
     0
100
AcDbLine
 10
-117.424293
 20
788.313687
 30
0.0
 11
-118.424293
 21
788.313687
 31
0.0
  0
LINE
  5
22D
330
1B6
100
AcDbEntity
  8
0
  6
Continuous
 62
     0
370
     0
100
AcDbLine
 10
-117.424293
 20
810.313687
 30
0.0
 11
-118.424293
 21
810.313687
 31
0.0
  0
ARC
  5
22E
330
1B6
100
AcDbEntity
  8
0
  6
Continuous
 62
     0
370
    30
100
AcDbCircle
 10
-117.424293
 20
817.313687
 30
0.0
 40
1.000000000005954
100
AcDbArc
 50
90.0
 51
180.0
  0
LWPOLYLINE
  5
22F
330
1B6
100
AcDbEntity
  8
0
  6
Continuous
 62
     0
370
     0
100
AcDbPolyline
 90
        8
 70
     0
 43
0.0
 10
-77.774292
 20
794.178406
 10
-77.751778
 20
792.961609
 10
-77.729385
 20
791.780396
 10
-77.707245
 20
790.641602
 10
-77.685478
 20
789.551575
 10
-77.664215
 20
788.516602
 10
-77.64357
 20
787.542419
 10
-77.622444
 20
786.579895
  0
LINE
  5
230
330
1B6
100
AcDbEntity
  8
0
  6
Continuous
 62
     0
370
     0
100
AcDbLine
 10
-77.774296
 20
794.447135
 30
0.0
 11
-77.774296
 21
794.17843
 31
0.0
  0
LWPOLYLINE
  5
231
330
1B6
100
AcDbEntity
  8
0
  6
Continuous
 62
     0
370
     0
100
AcDbPolyline
 90
       20
 70
     0
 43
0.0
 10
-75.86087
 20
781.813904
 10
-75.854263
 20
781.852783
 10
-75.846413
 20
781.969116
 10
-75.837357
 20
782.162415
 10
-75.827141
 20
782.431763
 10
-75.815804
 20
782.77594
 10
-75.803391
 20
783.193726
 10
-75.789948
 20
783.683533
 10
-75.775543
 20
784.242981
 10
-75.760231
 20
784.869507
 10
-75.744095
 20
785.560547
 10
-75.727211
 20
786.312622
 10
-75.709656
 20
787.121948
 10
-75.691513
 20
787.984863
 10
-75.672859
 20
788.897461
 10
-75.653778
 20
789.855896
 10
-75.634315
 20
790.857666
 10
-75.614555
 20
791.898743
 10
-75.594627
 20
792.972107
 10
-75.574341
 20
794.088867
  0
LINE
  5
232
330
1B6
100
AcDbEntity
  8
0
  6
Continuous
 62
     0
370
     0
100
AcDbLine
 10
-75.574341
 20
794.088862
 30
0.0
 11
-77.47425
 21
794.088862
 31
0.0
  0
LWPOLYLINE
  5
233
330
1B6
100
AcDbEntity
  8
0
  6
Continuous
 62
     0
370
     0
100
AcDbPolyline
 90
       20
 70
     0
 43
0.0
 10
-77.474251
 20
794.088867
 10
-77.454269
 20
792.989075
 10
-77.434341
 20
791.915283
 10
-77.414581
 20
790.873657
 10
-77.395111
 20
789.871216
 10
-77.376022
 20
788.912109
 10
-77.357368
 20
787.998779
 10
-77.339218
 20
787.135071
 10
-77.321648
 20
786.324829
 10
-77.304749
 20
785.571899
 10
-77.288605
 20
784.879883
 10
-77.273285
 20
784.252258
 10
-77.258858
 20
783.691772
 10
-77.245399
 20
783.200806
 10
-77.232971
 20
782.781921
 10
-77.221619
 20
782.436584
 10
-77.211388
 20
782.166077
 10
-77.202316
 20
781.971558
 10
-77.194443
 20
781.854004
 10
-77.187714
 20
781.813904
  0
LWPOLYLINE
  5
234
330
1B6
100
AcDbEntity
  8
0
  6
Continuous
 62
     0
370
     0
100
AcDbPolyline
 90
       10
 70
     0
 43
0.0
 10
-75.448524
 20
785.604065
 10
-75.431564
 20
786.339233
 10
-75.413887
 20
787.133972
 10
-75.395569
 20
787.984558
 10
-75.376694
 20
788.887146
 10
-75.357346
 20
789.837524
 10
-75.337616
 20
790.831421
 10
-75.317596
 20
791.864197
 10
-75.297386
 20
792.931152
 10
-75.274292
 20
794.178406
  0
LWPOLYLINE
  5
235
330
1B6
100
AcDbEntity
  8
0
  6
Continuous
 62
     0
370
     0
100
AcDbPolyline
 90
       48
 70
     0
 43
0.0
 10
-75.274292
 20
794.178406
 10
-75.294334
 20
795.285706
 10
-75.314301
 20
796.411438
 10
-75.334084
 20
797.549866
 10
-75.353592
 20
798.696167
 10
-75.372757
 20
799.845276
 10
-75.391472
 20
800.992065
 10
-75.409676
 20
802.131409
 10
-75.427269
 20
803.258179
 10
-75.444183
 20
804.367371
 10
-75.460335
 20
805.454041
 10
-75.475662
 20
806.513367
 10
-75.490089
 20
807.540588
 10
-75.503548
 20
808.531067
 10
-75.515991
 20
809.480408
 10
-75.527351
 20
810.38446
 10
-75.537582
 20
811.239075
 10
-75.546646
 20
812.040466
 10
-75.554489
 20
812.785095
 10
-75.561081
 20
813.469666
 10
-75.566391
 20
814.090942
 10
-75.570396
 20
814.646362
 10
-75.57309
 20
815.133301
 10
-75.57444
 20
815.549561
 10
-75.574455
 20
815.893494
 10
-75.573128
 20
816.163391
 10
-75.570465
 20
816.358032
 10
-75.566483
 20
816.476624
 10
-75.561195
 20
816.518555
 10
-75.554626
 20
816.483704
 10
-75.546814
 20
816.372314
 10
-75.537781
 20
816.184692
 10
-75.527565
 20
815.921753
 10
-75.516228
 20
815.584778
 10
-75.503807
 20
815.175171
 10
-75.490364
 20
814.694702
 10
-75.47596
 20
814.145691
 10
-75.460648
 20
813.530457
 10
-75.444511
 20
812.851746
 10
-75.427612
 20
812.112732
 10
-75.410034
 20
811.316589
 10
-75.391846
 20
810.466797
 10
-75.373131
 20
809.567383
 10
-75.353981
 20
808.622131
 10
-75.334473
 20
807.635315
 10
-75.314697
 20
806.61145
 10
-75.294739
 20
805.554932
 10
-75.274292
 20
804.448914
  0
LWPOLYLINE
  5
236
330
1B6
100
AcDbEntity
  8
0
  6
Continuous
 62
     0
370
     0
100
AcDbPolyline
 90
       43
 70
     0
 43
0.0
 10
-75.274292
 20
803.49353
 10
-75.292549
 20
804.480042
 10
-75.310707
 20
805.437622
 10
-75.328651
 20
806.361023
 10
-75.346298
 20
807.244995
 10
-75.363541
 20
808.084717
 10
-75.380287
 20
808.875366
 10
-75.396439
 20
809.61261
 10
-75.411911
 20
810.292297
 10
-75.426613
 20
810.910583
 10
-75.440468
 20
811.464172
 10
-75.453384
 20
811.949768
 10
-75.465309
 20
812.364746
 10
-75.476166
 20
812.706848
 10
-75.485886
 20
812.973938
 10
-75.494431
 20
813.164795
 10
-75.50174
 20
813.278259
 10
-75.507782
 20
813.313538
 10
-75.51252
 20
813.270691
 10
-75.515923
 20
813.149719
 10
-75.517975
 20
812.951416
 10
-75.518669
 20
812.676941
 10
-75.51799
 20
812.327637
 10
-75.515953
 20
811.905701
 10
-75.512566
 20
811.413391
 10
-75.507843
 20
810.853333
 10
-75.501816
 20
810.228882
 10
-75.494522
 20
809.543335
 10
-75.485992
 20
808.800659
 10
-75.47628
 20
808.004944
 10
-75.465439
 20
807.160645
 10
-75.453529
 20
806.272522
 10
-75.44062
 20
805.345459
 10
-75.426781
 20
804.384766
 10
-75.412086
 20
803.395691
 10
-75.396622
 20
802.38385
 10
-75.380478
 20
801.354858
 10
-75.363739
 20
800.314453
 10
-75.346497
 20
799.268433
 10
-75.328857
 20
798.222656
 10
-75.310913
 20
797.183044
 10
-75.292763
 20
796.155396
 10
-75.274292
 20
795.13385
  0
LWPOLYLINE
  5
237
330
1B6
100
AcDbEntity
  8
0
  6
Continuous
 62
     0
370
     0
100
AcDbPolyline
 90
       29
 70
     0
 43
0.0
 10
-77.187714
 20
816.813477
 10
-77.182358
 20
816.774353
 10
-77.178307
 20
816.656799
 10
-77.175591
 20
816.461548
 10
-77.174202
 20
816.189636
 10
-77.174164
 20
815.842102
 10
-77.175476
 20
815.420471
 10
-77.178123
 20
814.926819
 10
-77.182098
 20
814.363098
 10
-77.187386
 20
813.731628
 10
-77.193947
 20
813.035767
 10
-77.201767
 20
812.278992
 10
-77.210793
 20
811.464905
 10
-77.220985
 20
810.596985
 10
-77.232315
 20
809.678772
 10
-77.244728
 20
808.713806
 10
-77.258179
 20
807.705933
 10
-77.272606
 20
806.660034
 10
-77.287941
 20
805.580994
 10
-77.304115
 20
804.473816
 10
-77.321037
 20
803.343811
 10
-77.338638
 20
802.19635
 10
-77.356834
 20
801.036865
 10
-77.375542
 20
799.870483
 10
-77.394684
 20
798.701904
 10
-77.414207
 20
797.534607
 10
-77.434036
 20
796.373291
 10
-77.454025
 20
795.22583
 10
-77.474251
 20
794.088867
  0
LWPOLYLINE
  5
238
330
1B6
100
AcDbEntity
  8
0
  6
Continuous
 62
     0
370
     0
100
AcDbPolyline
 90
       29
 70
     0
 43
0.0
 10
-75.574341
 20
794.088867
 10
-75.594383
 20
795.215576
 10
-75.61438
 20
796.362915
 10
-75.634209
 20
797.524109
 10
-75.653732
 20
798.691345
 10
-75.672874
 20
799.859924
 10
-75.691589
 20
801.026367
 10
-75.709785
 20
802.185913
 10
-75.727394
 20
803.333496
 10
-75.744331
 20
804.463684
 10
-75.760506
 20
805.571106
 10
-75.775848
 20
806.650452
 10
-75.790283
 20
807.696655
 10
-75.803741
 20
808.704895
 10
-75.81617
 20
809.670288
 10
-75.827507
 20
810.588928
 10
-75.837715
 20
811.457336
 10
-75.846748
 20
812.271912
 10
-75.854576
 20
813.029175
 10
-75.861153
 20
813.725647
 10
-75.866447
 20
814.357666
 10
-75.870438
 20
814.922058
 10
-75.873093
 20
815.416382
 10
-75.87442
 20
815.838623
 10
-75.87439
 20
816.186829
 10
-75.873016
 20
816.459473
 10
-75.870308
 20
816.655396
 10
-75.866272
 20
816.773682
 10
-75.86087
 20
816.813477
  0
LWPOLYLINE
  5
239
330
1B6
100
AcDbEntity
  8
0
  6
Continuous
 62
     0
370
     0
100
AcDbPolyline
 90
       29
 70
     0
 43
0.0
 10
-77.774292
 20
794.447144
 10
-77.754478
 20
795.542786
 10
-77.734749
 20
796.656738
 10
-77.715218
 20
797.783508
 10
-77.695976
 20
798.917786
 10
-77.677116
 20
800.053894
 10
-77.658722
 20
801.186401
 10
-77.6409
 20
802.309814
 10
-77.623718
 20
803.418579
 10
-77.607269
 20
804.507446
 10
-77.591637
 20
805.570984
 10
-77.576889
 20
806.604187
 10
-77.563103
 20
807.601868
 10
-77.550339
 20
808.559265
 10
-77.538666
 20
809.471741
 10
-77.528145
 20
810.334778
 10
-77.518814
 20
811.144287
 10
-77.510719
 20
811.896301
 10
-77.503914
 20
812.587158
 10
-77.498421
 20
813.21344
 10
-77.49427
 20
813.772217
 10
-77.491478
 20
814.260681
 10
-77.490059
 20
814.676514
 10
-77.490021
 20
815.0177
 10
-77.491371
 20
815.282532
 10
-77.494095
 20
815.469727
 10
-77.498177
 20
815.57843
 10
-77.503601
 20
815.608032
 10
-77.510376
 20
815.558044
  0
LWPOLYLINE
  5
23A
330
1B6
100
AcDbEntity
  8
0
  6
Continuous
 62
     0
370
     0
100
AcDbPolyline
 90
       34
 70
     0
 43
0.0
 10
-77.535721
 20
815.477722
 10
-77.523987
 20
815.837769
 10
-77.513382
 20
816.122864
 10
-77.503967
 20
816.331726
 10
-77.495773
 20
816.463379
 10
-77.488846
 20
816.517273
 10
-77.483208
 20
816.493103
 10
-77.478897
 20
816.391052
 10
-77.475922
 20
816.211548
 10
-77.474304
 20
815.955444
 10
-77.474045
 20
815.62384
 10
-77.475143
 20
815.218201
 10
-77.4776
 20
814.740479
 10
-77.481407
 20
814.19281
 10
-77.486534
 20
813.577637
 10
-77.492973
 20
812.897766
 10
-77.500687
 20
812.156311
 10
-77.509644
 20
811.356628
 10
-77.519798
 20
810.502319
 10
-77.531105
 20
809.59729
 10
-77.543518
 20
808.645569
 10
-77.556969
 20
807.65155
 10
-77.571419
 20
806.619751
 10
-77.586777
 20
805.554871
 10
-77.602989
 20
804.461609
 10
-77.61998
 20
803.345093
 10
-77.637672
 20
802.210266
 10
-77.655983
 20
801.062317
 10
-77.674828
 20
799.906494
 10
-77.694122
 20
798.747986
 10
-77.713783
 20
797.592041
 10
-77.733719
 20
796.44397
 10
-77.753838
 20
795.30896
 10
-77.774292
 20
794.178406
  0
LWPOLYLINE
  5
23B
330
1B6
100
AcDbEntity
  8
0
  6
Continuous
 62
     0
370
     0
100
AcDbPolyline
 90
       28
 70
     0
 43
0.0
 10
-78.074249
 20
794.541626
 10
-78.05455
 20
795.610352
 10
-78.034927
 20
796.697998
 10
-78.015495
 20
797.798401
 10
-77.996346
 20
798.905701
 10
-77.977577
 20
800.014709
 10
-77.959274
 20
801.120361
 10
-77.941528
 20
802.217407
 10
-77.924408
 20
803.300598
 10
-77.90802
 20
804.364624
 10
-77.892426
 20
805.404297
 10
-77.877708
 20
806.414795
 10
-77.86393
 20
807.391113
 10
-77.851166
 20
808.328613
 10
-77.839478
 20
809.222839
 10
-77.828911
 20
810.069397
 10
-77.819534
 20
810.864258
 10
-77.811371
 20
811.603699
 10
-77.804482
 20
812.283936
 10
-77.798882
 20
812.901917
 10
-77.794609
 20
813.45459
 10
-77.791679
 20
813.939209
 10
-77.790115
 20
814.353638
 10
-77.789909
 20
814.69574
 10
-77.791069
 20
814.963867
 10
-77.793594
 20
815.156799
 10
-77.79747
 20
815.27356
 10
-77.802803
 20
815.313599
  0
LWPOLYLINE
  5
23C
330
1B6
100
AcDbEntity
  8
0
  6
Continuous
 62
     0
370
    30
100
AcDbPolyline
 90
        5
 70
     0
 43
0.0
 10
-77.774292
 20
794.447144
 10
-77.792664
 20
794.478271
 10
-77.845512
 20
794.506226
 10
-77.926315
 20
794.527527
 10
-78.074249
 20
794.541626
  0
LWPOLYLINE
  5
23D
330
1B6
100
AcDbEntity
  8
0
  6
Continuous
 62
     0
370
     0
100
AcDbPolyline
 90
        5
 70
     0
 43
0.0
 10
-77.474251
 20
794.088867
 10
-77.577202
 20
794.09436
 10
-77.668282
 20
794.110107
 10
-77.735153
 20
794.134216
 10
-77.774292
 20
794.178406
  0
LWPOLYLINE
  5
23E
330
1B6
100
AcDbEntity
  8
0
  6
Continuous
 62
     0
370
     0
100
AcDbPolyline
 90
        5
 70
     0
 43
0.0
 10
-75.274292
 20
794.178406
 10
-75.292671
 20
794.147705
 10
-75.34539
 20
794.120483
 10
-75.426208
 20
794.100525
 10
-75.574341
 20
794.088867
  0
LINE
  5
23F
330
1B6
100
AcDbEntity
  8
0
  6
Continuous
 62
     0
370
     0
100
AcDbLine
 10
-78.424293
 20
794.536703
 30
0.0
 11
-77.991064
 21
794.536703
 31
0.0
  0
LINE
  5
240
330
1B6
100
AcDbEntity
  8
0
  6
Continuous
 62
     0
370
    30
100
AcDbLine
 10
-78.424293
 20
783.313683
 30
0.0
 11
-77.540731
 21
783.313683
 31
0.0
  0
LINE
  5
241
330
1B6
100
AcDbEntity
  8
0
  6
Continuous
 62
     0
370
    30
100
AcDbLine
 10
-78.424293
 20
815.313683
 30
0.0
 11
-77.802796
 21
815.313683
 31
0.0
  0
LWPOLYLINE
  5
242
330
1B6
100
AcDbEntity
  8
0
  6
Continuous
 62
     0
370
    30
100
AcDbPolyline
 90
       48
 70
     0
 43
0.0
 10
-75.2743
 20
794.177979
 10
-75.282478
 20
793.732849
 10
-75.290649
 20
793.291687
 10
-75.298813
 20
792.854919
 10
-75.306953
 20
792.422852
 10
-75.315079
 20
791.99585
 10
-75.323166
 20
791.574341
 10
-75.331223
 20
791.15863
 10
-75.339233
 20
790.749023
 10
-75.347191
 20
790.345703
 10
-75.355103
 20
789.949097
 10
-75.362946
 20
789.559387
 10
-75.370728
 20
789.176941
 10
-75.378441
 20
788.802002
 10
-75.386078
 20
788.434814
 10
-75.393631
 20
788.075745
 10
-75.401093
 20
787.724976
 10
-75.408463
 20
787.382812
 10
-75.415733
 20
787.049561
 10
-75.422897
 20
786.725342
 10
-75.429947
 20
786.410522
 10
-75.43689
 20
786.105225
 10
-75.44371
 20
785.809692
 10
-75.450401
 20
785.52417
 10
-75.45697
 20
785.24884
 10
-75.463394
 20
784.983887
 10
-75.469688
 20
784.729553
 10
-75.47583
 20
784.486084
 10
-75.481827
 20
784.253601
 10
-75.487663
 20
784.032349
 10
-75.493347
 20
783.822327
 10
-75.498871
 20
783.623779
 10
-75.504227
 20
783.43689
 10
-75.509415
 20
783.261719
 10
-75.514435
 20
783.098389
 10
-75.519272
 20
782.947021
 10
-75.523933
 20
782.807739
 10
-75.528412
 20
782.680603
 10
-75.532707
 20
782.565674
 10
-75.536819
 20
782.463013
 10
-75.540756
 20
782.372559
 10
-75.544518
 20
782.29425
 10
-75.548126
 20
782.227844
 10
-75.551636
 20
782.172852
 10
-75.555252
 20
782.127747
 10
-75.559692
 20
782.087585
 10
-75.577301
 20
782.013916
 10
-75.86087
 20
781.813782
  0
LWPOLYLINE
  5
243
330
1B6
100
AcDbEntity
  8
0
  6
Continuous
 62
     0
370
    30
100
AcDbPolyline
 90
       48
 70
     0
 43
0.0
 10
-77.774292
 20
794.177979
 10
-77.766113
 20
793.732849
 10
-77.757942
 20
793.291687
 10
-77.749779
 20
792.854919
 10
-77.741638
 20
792.422791
 10
-77.733513
 20
791.99585
 10
-77.725426
 20
791.574341
 10
-77.717369
 20
791.15863
 10
-77.709358
 20
790.748962
 10
-77.701393
 20
790.345642
 10
-77.693489
 20
789.948975
 10
-77.685638
 20
789.559265
 10
-77.677856
 20
789.176819
 10
-77.670143
 20
788.801819
 10
-77.662514
 20
788.434692
 10
-77.654961
 20
788.075562
 10
-77.647491
 20
787.724792
 10
-77.640121
 20
787.382629
 10
-77.632858
 20
787.049316
 10
-77.625687
 20
786.725159
 10
-77.618637
 20
786.410278
 10
-77.611694
 20
786.105042
 10
-77.604874
 20
785.809509
 10
-77.598183
 20
785.523926
 10
-77.591621
 20
785.248596
 10
-77.58519
 20
784.983643
 10
-77.578903
 20
784.72937
 10
-77.572754
 20
784.485901
 10
-77.566757
 20
784.253418
 10
-77.560921
 20
784.032104
 10
-77.555237
 20
783.822144
 10
-77.549713
 20
783.623596
 10
-77.544357
 20
783.436707
 10
-77.539169
 20
783.261536
 10
-77.534157
 20
783.098206
 10
-77.529312
 20
782.946899
 10
-77.524651
 20
782.807617
 10
-77.520172
 20
782.680481
 10
-77.515877
 20
782.565613
 10
-77.511765
 20
782.462952
 10
-77.507828
 20
782.372498
 10
-77.504066
 20
782.294189
 10
-77.500458
 20
782.227783
 10
-77.496948
 20
782.172852
 10
-77.493332
 20
782.127747
 10
-77.488884
 20
782.087524
 10
-77.471199
 20
782.013672
 10
-77.187721
 20
781.813782
  0
LWPOLYLINE
  5
244
330
1B6
100
AcDbEntity
  8
0
  6
Continuous
 62
     0
370
    30
100
AcDbPolyline
 90
       76
 70
     0
 43
0.0
 10
-75.42614
 20
812.047485
 10
-75.428726
 20
812.162659
 10
-75.431297
 20
812.27655
 10
-75.433853
 20
812.389099
 10
-75.436394
 20
812.500366
 10
-75.438911
 20
812.610352
 10
-75.441422
 20
812.718994
 10
-75.443909
 20
812.826294
 10
-75.446381
 20
812.932251
 10
-75.448837
 20
813.036804
 10
-75.451271
 20
813.140076
 10
-75.453697
 20
813.241882
 10
-75.4561
 20
813.342346
 10
-75.458481
 20
813.441406
 10
-75.460846
 20
813.539062
 10
-75.463196
 20
813.635254
 10
-75.465523
 20
813.730042
 10
-75.467834
 20
813.823425
 10
-75.470123
 20
813.915283
 10
-75.472389
 20
814.005737
 10
-75.47464
 20
814.094666
 10
-75.476875
 20
814.182129
 10
-75.47908
 20
814.268127
 10
-75.48127
 20
814.3526
 10
-75.483444
 20
814.435608
 10
-75.485588
 20
814.51709
 10
-75.487717
 20
814.596985
 10
-75.489822
 20
814.675415
 10
-75.491905
 20
814.752319
 10
-75.493973
 20
814.827637
 10
-75.49601
 20
814.901489
 10
-75.498032
 20
814.973694
 10
-75.500031
 20
815.044373
 10
-75.501999
 20
815.113464
 10
-75.503952
 20
815.18103
 10
-75.505882
 20
815.246948
 10
-75.50779
 20
815.311279
 10
-75.509666
 20
815.374084
 10
-75.511528
 20
815.435242
 10
-75.513367
 20
815.494751
 10
-75.515175
 20
815.552734
 10
-75.516968
 20
815.60907
 10
-75.51873
 20
815.663757
 10
-75.52047
 20
815.716858
 10
-75.522186
 20
815.768311
 10
-75.52388
 20
815.818115
 10
-75.525543
 20
815.866272
 10
-75.527191
 20
815.912781
 10
-75.528809
 20
815.957642
 10
-75.530403
 20
816.000854
 10
-75.531967
 20
816.042419
 10
-75.533516
 20
816.082336
 10
-75.535034
 20
816.120605
 10
-75.53653
 20
816.157227
 10
-75.538002
 20
816.1922
 10
-75.539444
 20
816.225525
 10
-75.540871
 20
816.257202
 10
-75.542267
 20
816.287292
 10
-75.543648
 20
816.315674
 10
-75.544998
 20
816.342468
 10
-75.546333
 20
816.367676
 10
-75.547653
 20
816.391235
 10
-75.548958
 20
816.41333
 10
-75.550247
 20
816.433838
 10
-75.551521
 20
816.452881
 10
-75.552811
 20
816.470581
 10
-75.554138
 20
816.487
 10
-75.555519
 20
816.502441
 10
-75.556953
 20
816.51709
 10
-75.558586
 20
816.531555
 10
-75.560898
 20
816.547607
 10
-75.56459
 20
816.567871
 10
-75.572906
 20
816.600464
 10
-75.604362
 20
816.669739
 10
-75.703827
 20
816.769226
 10
-75.86087
 20
816.813599
  0
LWPOLYLINE
  5
245
330
1B6
100
AcDbEntity
  8
0
  6
Continuous
 62
     0
370
    30
100
AcDbPolyline
 90
       39
 70
     0
 43
0.0
 10
-77.535759
 20
815.477661
 10
-77.534019
 20
815.533447
 10
-77.532303
 20
815.58783
 10
-77.530609
 20
815.640686
 10
-77.528938
 20
815.692078
 10
-77.527283
 20
815.741943
 10
-77.525658
 20
815.790344
 10
-77.524048
 20
815.83728
 10
-77.522469
 20
815.88269
 10
-77.520905
 20
815.926636
 10
-77.519371
 20
815.968994
 10
-77.517853
 20
816.009888
 10
-77.516357
 20
816.049316
 10
-77.514885
 20
816.087219
 10
-77.513435
 20
816.123596
 10
-77.512009
 20
816.158447
 10
-77.510605
 20
816.191833
 10
-77.509224
 20
816.223694
 10
-77.507866
 20
816.254089
 10
-77.506523
 20
816.282959
 10
-77.505211
 20
816.310364
 10
-77.503906
 20
816.336304
 10
-77.502632
 20
816.360718
 10
-77.501366
 20
816.383728
 10
-77.500122
 20
816.405334
 10
-77.498886
 20
816.425476
 10
-77.497658
 20
816.444275
 10
-77.496437
 20
816.461792
 10
-77.495193
 20
816.478088
 10
-77.493904
 20
816.493347
 10
-77.492569
 20
816.507751
 10
-77.491165
 20
816.521545
 10
-77.489479
 20
816.535583
 10
-77.487038
 20
816.551636
 10
-77.483101
 20
816.572266
 10
-77.473587
 20
816.606873
 10
-77.438828
 20
816.678284
 10
-77.339203
 20
816.772522
 10
-77.187721
 20
816.813599
  0
LWPOLYLINE
  5
246
330
1B6
100
AcDbEntity
  8
0
  6
Continuous
 62
     0
370
    30
100
AcDbPolyline
 90
        8
 70
     0
 43
0.0
 10
-77.509491
 20
815.557983
 10
-77.50975
 20
815.556152
 10
-77.511009
 20
815.549072
 10
-77.514885
 20
815.53241
 10
-77.527611
 20
815.4953
 10
-77.571251
 20
815.42334
 10
-77.663536
 20
815.348022
 10
-77.802803
 20
815.313599
  0
LINE
  5
247
330
1B6
100
AcDbEntity
  8
0
  6
Continuous
 62
     0
370
    30
100
AcDbLine
 10
-77.187717
 20
816.813683
 30
0.0
 11
-75.860872
 21
816.813683
 31
0.0
  0
LINE
  5
248
330
1B6
100
AcDbEntity
  8
0
  6
Continuous
 62
     0
370
    30
100
AcDbLine
 10
-77.187717
 20
781.813683
 30
0.0
 11
-75.860873
 21
781.813683
 31
0.0
  0
LINE
  5
249
330
1B6
100
AcDbEntity
  8
0
  6
Continuous
 62
     0
370
    30
100
AcDbLine
 10
-73.274297
 20
505.313683
 30
0.0
 11
-75.274297
 21
505.313683
 31
0.0
  0
LINE
  5
24A
330
1B6
100
AcDbEntity
  8
0
  6
Continuous
 62
     0
370
    30
100
AcDbLine
 10
-73.274297
 20
505.313683
 30
0.0
 11
-73.274297
 21
873.313683
 31
0.0
  0
LINE
  5
24B
330
1B6
100
AcDbEntity
  8
0
  6
Continuous
 62
     0
370
    30
100
AcDbLine
 10
-73.274297
 20
873.313683
 30
0.0
 11
-75.274297
 21
873.313683
 31
0.0
  0
LINE
  5
24C
330
1B6
100
AcDbEntity
  8
0
  6
Continuous
 62
     0
370
    30
100
AcDbLine
 10
-75.274297
 20
873.313683
 30
0.0
 11
-75.274297
 21
505.313683
 31
0.0
  0
ENDBLK
  5
24E
330
1B6
100
AcDbEntity
  8
0
100
AcDbBlockEnd
  0
ENDSEC
  0
SECTION
  2
ENTITIES
  0
INSERT
  5
BE
330
1F
100
AcDbEntity
  8
0
  6
Continuous
 62
     7
420
 16250871
370
     0
100
AcDbBlockReference
  2
a
 10
11.422987
 20
88.875168
 30
0.0
  0
INSERT
  5
123
330
1F
100
AcDbEntity
  8
0
  6
Continuous
 62
     7
420
 16250871
370
     0
100
AcDbBlockReference
  2
b
 10
11.422987
 20
324.029892
 30
0.0
  0
INSERT
  5
1B5
330
1F
100
AcDbEntity
  8
0
  6
Continuous
 62
     7
420
 16250871
370
     0
100
AcDbBlockReference
  2
c
 10
11.422987
 20
88.875168
 30
0.0
  0
INSERT
  5
24F
330
1F
100
AcDbEntity
  8
0
  6
Continuous
 62
     7
420
 16250871
370
     0
100
AcDbBlockReference
  2
d
 10
-43.529812
 20
0.0
 30
0.0
  0
ENDSEC
  0
SECTION
  2
OBJECTS
  0
DICTIONARY
  5
C
330
0
100
AcDbDictionary
281
     1
  3
ACAD_DETAILVIEWSTYLE
350
287
  3
ACAD_GROUP
350
D
  3
ACAD_LAYOUT
350
1A
  3
ACAD_MATERIAL
350
43
  3
ACAD_MLEADERSTYLE
350
6B
  3
ACAD_MLINESTYLE
350
17
  3
ACAD_PLOTSETTINGS
350
19
  3
ACAD_PLOTSTYLENAME
350
E
  3
ACAD_SCALELIST
350
47
  3
ACAD_SECTIONVIEWSTYLE
350
288
  3
ACAD_TABLESTYLE
350
69
  3
ACAD_VISUALSTYLE
350
2A
  3
ACDB_RECOMPOSE_DATA
350
284
  3
AcDbVariableDictionary
350
250
  0
SUN
  5
6D
330
29
100
AcDbSun
 90
        1
290
     0
 63
     7
421
 16777215
 40
1.0
291
     1
 91
  2455826
 92
 54000000
292
     0
 70
     2
 71
   256
280
     1
  0
DICTIONARY
  5
287
102
{ACAD_REACTORS
330
C
102
}
330
C
100
AcDbDictionary
281
     1
  0
DICTIONARY
  5
D
102
{ACAD_REACTORS
330
C
102
}
330
C
100
AcDbDictionary
281
     1
  0
DICTIONARY
  5
1A
102
{ACAD_REACTORS
330
C
102
}
330
C
100
AcDbDictionary
281
     1
  3
Layout1
350
1E
  3
Layout2
350
26
  3
Model
350
22
  0
DICTIONARY
  5
43
102
{ACAD_REACTORS
330
C
102
}
330
C
100
AcDbDictionary
281
     1
  3
ByBlock
350
45
  3
ByLayer
350
44
  3
Global
350
46
  0
DICTIONARY
  5
6B
102
{ACAD_REACTORS
330
C
102
}
330
C
100
AcDbDictionary
281
     1
  3
Standard
350
6C
  0
DICTIONARY
  5
17
102
{ACAD_REACTORS
330
C
102
}
330
C
100
AcDbDictionary
281
     1
  3
Standard
350
18
  0
DICTIONARY
  5
19
102
{ACAD_REACTORS
330
C
102
}
330
C
100
AcDbDictionary
281
     1
  0
ACDBDICTIONARYWDFLT
  5
E
102
{ACAD_REACTORS
330
C
102
}
330
C
100
AcDbDictionary
281
     1
  3
Normal
350
F
100
AcDbDictionaryWithDefault
340
F
  0
DICTIONARY
  5
47
102
{ACAD_REACTORS
330
C
102
}
330
C
100
AcDbDictionary
281
     1
  3
A0
350
48
  3
A1
350
49
  3
A2
350
4A
  3
A3
350
4B
  3
A4
350
4C
  3
A5
350
4D
  3
A6
350
4E
  3
A7
350
4F
  3
A8
350
50
  3
A9
350
51
  3
B0
350
52
  3
B1
350
53
  3
B2
350
54
  3
B3
350
55
  3
B4
350
56
  3
B5
350
57
  3
B6
350
58
  3
B7
350
59
  3
B8
350
5A
  3
B9
350
5B
  3
C0
350
5C
  3
C1
350
5D
  3
C2
350
5E
  3
C3
350
5F
  3
C4
350
60
  3
C5
350
61
  3
C6
350
62
  3
C7
350
63
  3
C8
350
64
  3
C9
350
65
  3
D0
350
66
  3
D1
350
67
  3
D2
350
68
  0
DICTIONARY
  5
288
102
{ACAD_REACTORS
330
C
102
}
330
C
100
AcDbDictionary
281
     1
  0
DICTIONARY
  5
69
102
{ACAD_REACTORS
330
C
102
}
330
C
100
AcDbDictionary
281
     1
  3
Standard
350
6A
  0
DICTIONARY
  5
2A
102
{ACAD_REACTORS
330
C
102
}
330
C
100
AcDbDictionary
281
     1
  3
2dWireframe
350
2F
  3
Basic
350
32
  3
Brighten
350
36
  3
ColorChange
350
3A
  3
Conceptual
350
34
  3
Dim
350
35
  3
EdgeColorOff
350
3D
  3
Facepattern
350
39
  3
Flat
350
2B
  3
FlatWithEdges
350
2C
  3
Gouraud
350
2D
  3
GouraudWithEdges
350
2E
  3
Hidden
350
31
  3
JitterOff
350
3B
  3
Linepattern
350
38
  3
OverhangOff
350
3C
  3
Realistic
350
33
  3
Shaded
350
42
  3
Shaded with edges
350
41
  3
Shades of Gray
350
3E
  3
Sketchy
350
3F
  3
Thicken
350
37
  3
Wireframe
350
30
  3
X-Ray
350
40
  0
XRECORD
  5
284
102
{ACAD_REACTORS
330
C
102
}
330
C
100
AcDbXrecord
280
     1
 90
        1
330
6A
  0
DICTIONARY
  5
250
102
{ACAD_REACTORS
330
C
102
}
330
C
100
AcDbDictionary
281
     1
  3
CANNOSCALE
350
251
  3
CMLEADERSTYLE
350
286
  3
CTABLESTYLE
350
285
  0
LAYOUT
  5
1E
102
{ACAD_REACTORS
330
1A
102
}
330
1A
100
AcDbPlotSettings
  1

  2
none_device
  4

  6

 40
0.0
 41
0.0
 42
0.0
 43
0.0
 44
0.0
 45
0.0
 46
0.0
 47
0.0
 48
0.0
 49
0.0
140
0.0
141
0.0
142
1.0
143
1.0
 70
   688
 72
     1
 73
     0
 74
     5
  7

 75
    16
 76
     0
 77
     2
 78
   300
147
1.0
148
0.0
149
0.0
100
AcDbLayout
  1
Layout1
 70
     1
 71
     1
 10
0.0
 20
0.0
 11
420.0
 21
297.0
 12
0.0
 22
0.0
 32
0.0
 14
1.000000E+20
 24
1.000000E+20
 34
1.000000E+20
 15
-1.000000E+20
 25
-1.000000E+20
 35
-1.000000E+20
146
0.0
 13
0.0
 23
0.0
 33
0.0
 16
1.0
 26
0.0
 36
0.0
 17
0.0
 27
1.0
 37
0.0
 76
     0
330
1B
  0
LAYOUT
  5
26
102
{ACAD_REACTORS
330
1A
102
}
330
1A
100
AcDbPlotSettings
  1

  2
none_device
  4

  6

 40
0.0
 41
0.0
 42
0.0
 43
0.0
 44
0.0
 45
0.0
 46
0.0
 47
0.0
 48
0.0
 49
0.0
140
0.0
141
0.0
142
1.0
143
1.0
 70
   688
 72
     1
 73
     0
 74
     5
  7

 75
    16
 76
     0
 77
     2
 78
   300
147
1.0
148
0.0
149
0.0
100
AcDbLayout
  1
Layout2
 70
     1
 71
     2
 10
0.0
 20
0.0
 11
0.0
 21
0.0
 12
0.0
 22
0.0
 32
0.0
 14
0.0
 24
0.0
 34
0.0
 15
0.0
 25
0.0
 35
0.0
146
0.0
 13
0.0
 23
0.0
 33
0.0
 16
1.0
 26
0.0
 36
0.0
 17
0.0
 27
1.0
 37
0.0
 76
     0
330
23
  0
LAYOUT
  5
22
102
{ACAD_REACTORS
330
1A
102
}
330
1A
100
AcDbPlotSettings
  1

  2
none_device
  4
Letter_(8.50_x_11.00_Inches)
  6

 40
6.35
 41
6.35
 42
6.350005
 43
6.350005
 44
215.9
 45
279.4
 46
0.0
 47
0.0
 48
0.0
 49
0.0
140
0.0
141
0.0
142
1.0
143
1.0
 70
  1712
 72
     1
 73
     0
 74
     0
  7

 75
     0
 76
     0
 77
     2
 78
   300
147
1.0
148
0.0
149
0.0
100
AcDbLayout
  1
Model
 70
     1
 71
     0
 10
0.0
 20
0.0
 11
420.0
 21
297.0
 12
0.0
 22
0.0
 32
0.0
 14
1.000000E+20
 24
1.000000E+20
 34
1.000000E+20
 15
-1.000000E+20
 25
-1.000000E+20
 35
-1.000000E+20
146
0.0
 13
0.0
 23
0.0
 33
0.0
 16
1.0
 26
0.0
 36
0.0
 17
0.0
 27
1.0
 37
0.0
 76
     0
330
1F
331
29
  0
MATERIAL
  5
45
102
{ACAD_REACTORS
330
43
102
}
330
43
100
AcDbMaterial
  1
ByBlock
 72
     1
 94
      127
  0
MATERIAL
  5
44
102
{ACAD_REACTORS
330
43
102
}
330
43
100
AcDbMaterial
  1
ByLayer
 72
     1
 94
      127
  0
MATERIAL
  5
46
102
{ACAD_REACTORS
330
43
102
}
330
43
100
AcDbMaterial
  1
Global
 72
     1
 94
      127
  0
MLEADERSTYLE
  5
6C
102
{ACAD_REACTORS
330
6B
102
}
330
6B
100
AcDbMLeaderStyle
179
     2
170
     2
171
     1
172
     0
 90
        2
 40
0.0
 41
0.0
173
     1
 91
-1056964608
340
14
 92
       -2
290
     1
 42
2.0
291
     1
 43
8.0
  3
Standard
341
0
 44
4.0
300

342
11
174
     1
178
     6
175
     1
176
     0
 93
-1056964608
 45
4.0
292
     0
297
     0
 46
4.0
343
0
 94
-1056964608
 47
1.0
 49
1.0
140
1.0
293
     1
141
0.0
294
     1
177
     0
142
1.0
295
     0
296
     0
143
3.75
271
     0
272
     9
273
     9
  0
MLINESTYLE
  5
18
102
{ACAD_REACTORS
330
17
102
}
330
17
100
AcDbMlineStyle
  2
Standard
 70
     0
  3

 62
   256
 51
90.0
 52
90.0
 71
     2
 49
0.5
 62
   256
  6
BYLAYER
 49
-0.5
 62
   256
  6
BYLAYER
  0
ACDBPLACEHOLDER
  5
F
102
{ACAD_REACTORS
330
E
102
}
330
E
  0
SCALE
  5
48
102
{ACAD_REACTORS
330
47
102
}
330
47
100
AcDbScale
 70
     0
300
1:1
140
1.0
141
1.0
290
     1
  0
SCALE
  5
49
102
{ACAD_REACTORS
330
47
102
}
330
47
100
AcDbScale
 70
     0
300
1:2
140
1.0
141
2.0
290
     0
  0
SCALE
  5
4A
102
{ACAD_REACTORS
330
47
102
}
330
47
100
AcDbScale
 70
     0
300
1:4
140
1.0
141
4.0
290
     0
  0
SCALE
  5
4B
102
{ACAD_REACTORS
330
47
102
}
330
47
100
AcDbScale
 70
     0
300
1:5
140
1.0
141
5.0
290
     0
  0
SCALE
  5
4C
102
{ACAD_REACTORS
330
47
102
}
330
47
100
AcDbScale
 70
     0
300
1:8
140
1.0
141
8.0
290
     0
  0
SCALE
  5
4D
102
{ACAD_REACTORS
330
47
102
}
330
47
100
AcDbScale
 70
     0
300
1:10
140
1.0
141
10.0
290
     0
  0
SCALE
  5
4E
102
{ACAD_REACTORS
330
47
102
}
330
47
100
AcDbScale
 70
     0
300
1:16
140
1.0
141
16.0
290
     0
  0
SCALE
  5
4F
102
{ACAD_REACTORS
330
47
102
}
330
47
100
AcDbScale
 70
     0
300
1:20
140
1.0
141
20.0
290
     0
  0
SCALE
  5
50
102
{ACAD_REACTORS
330
47
102
}
330
47
100
AcDbScale
 70
     0
300
1:30
140
1.0
141
30.0
290
     0
  0
SCALE
  5
51
102
{ACAD_REACTORS
330
47
102
}
330
47
100
AcDbScale
 70
     0
300
1:40
140
1.0
141
40.0
290
     0
  0
SCALE
  5
52
102
{ACAD_REACTORS
330
47
102
}
330
47
100
AcDbScale
 70
     0
300
1:50
140
1.0
141
50.0
290
     0
  0
SCALE
  5
53
102
{ACAD_REACTORS
330
47
102
}
330
47
100
AcDbScale
 70
     0
300
1:100
140
1.0
141
100.0
290
     0
  0
SCALE
  5
54
102
{ACAD_REACTORS
330
47
102
}
330
47
100
AcDbScale
 70
     0
300
2:1
140
2.0
141
1.0
290
     0
  0
SCALE
  5
55
102
{ACAD_REACTORS
330
47
102
}
330
47
100
AcDbScale
 70
     0
300
4:1
140
4.0
141
1.0
290
     0
  0
SCALE
  5
56
102
{ACAD_REACTORS
330
47
102
}
330
47
100
AcDbScale
 70
     0
300
8:1
140
8.0
141
1.0
290
     0
  0
SCALE
  5
57
102
{ACAD_REACTORS
330
47
102
}
330
47
100
AcDbScale
 70
     0
300
10:1
140
10.0
141
1.0
290
     0
  0
SCALE
  5
58
102
{ACAD_REACTORS
330
47
102
}
330
47
100
AcDbScale
 70
     0
300
100:1
140
100.0
141
1.0
290
     0
  0
SCALE
  5
59
102
{ACAD_REACTORS
330
47
102
}
330
47
100
AcDbScale
 70
     0
300
1/128" = 1'-0"
140
0.007812
141
12.0
290
     0
  0
SCALE
  5
5A
102
{ACAD_REACTORS
330
47
102
}
330
47
100
AcDbScale
 70
     0
300
1/64" = 1'-0"
140
0.015625
141
12.0
290
     0
  0
SCALE
  5
5B
102
{ACAD_REACTORS
330
47
102
}
330
47
100
AcDbScale
 70
     0
300
1/32" = 1'-0"
140
0.03125
141
12.0
290
     0
  0
SCALE
  5
5C
102
{ACAD_REACTORS
330
47
102
}
330
47
100
AcDbScale
 70
     0
300
1/16" = 1'-0"
140
0.0625
141
12.0
290
     0
  0
SCALE
  5
5D
102
{ACAD_REACTORS
330
47
102
}
330
47
100
AcDbScale
 70
     0
300
3/32" = 1'-0"
140
0.09375
141
12.0
290
     0
  0
SCALE
  5
5E
102
{ACAD_REACTORS
330
47
102
}
330
47
100
AcDbScale
 70
     0
300
1/8" = 1'-0"
140
0.125
141
12.0
290
     0
  0
SCALE
  5
5F
102
{ACAD_REACTORS
330
47
102
}
330
47
100
AcDbScale
 70
     0
300
3/16" = 1'-0"
140
0.1875
141
12.0
290
     0
  0
SCALE
  5
60
102
{ACAD_REACTORS
330
47
102
}
330
47
100
AcDbScale
 70
     0
300
1/4" = 1'-0"
140
0.25
141
12.0
290
     0
  0
SCALE
  5
61
102
{ACAD_REACTORS
330
47
102
}
330
47
100
AcDbScale
 70
     0
300
3/8" = 1'-0"
140
0.375
141
12.0
290
     0
  0
SCALE
  5
62
102
{ACAD_REACTORS
330
47
102
}
330
47
100
AcDbScale
 70
     0
300
1/2" = 1'-0"
140
0.5
141
12.0
290
     0
  0
SCALE
  5
63
102
{ACAD_REACTORS
330
47
102
}
330
47
100
AcDbScale
 70
     0
300
3/4" = 1'-0"
140
0.75
141
12.0
290
     0
  0
SCALE
  5
64
102
{ACAD_REACTORS
330
47
102
}
330
47
100
AcDbScale
 70
     0
300
1" = 1'-0"
140
1.0
141
12.0
290
     0
  0
SCALE
  5
65
102
{ACAD_REACTORS
330
47
102
}
330
47
100
AcDbScale
 70
     0
300
1-1/2" = 1'-0"
140
1.5
141
12.0
290
     0
  0
SCALE
  5
66
102
{ACAD_REACTORS
330
47
102
}
330
47
100
AcDbScale
 70
     0
300
3" = 1'-0"
140
3.0
141
12.0
290
     0
  0
SCALE
  5
67
102
{ACAD_REACTORS
330
47
102
}
330
47
100
AcDbScale
 70
     0
300
6" = 1'-0"
140
6.0
141
12.0
290
     0
  0
SCALE
  5
68
102
{ACAD_REACTORS
330
47
102
}
330
47
100
AcDbScale
 70
     0
300
1'-0" = 1'-0"
140
12.0
141
12.0
290
     0
  0
TABLESTYLE
  5
6A
102
{ACAD_REACTORS
330
69
102
}
102
{ACAD_XDICTIONARY
360
282
102
}
330
69
100
AcDbTableStyle
  3
Standard
 70
     0
 71
     0
 40
0.06
 41
0.06
280
     0
281
     0
  7
Standard
140
4.5
170
     2
 62
     0
 63
   257
283
     0
 90
        4
 91
        0
  1

274
    -2
284
     1
 64
     0
275
    -2
285
     1
 65
     0
276
    -2
286
     1
 66
     0
277
    -2
287
     1
 67
     0
278
    -2
288
     1
 68
     0
279
    -2
289
     1
 69
     0
  7
Standard
140
6.0
170
     5
 62
     0
 63
   257
283
     0
 90
        4
 91
        0
  1

274
    -2
284
     1
 64
     0
275
    -2
285
     1
 65
     0
276
    -2
286
     1
 66
     0
277
    -2
287
     1
 67
     0
278
    -2
288
     1
 68
     0
279
    -2
289
     1
 69
     0
  7
Standard
140
4.5
170
     5
 62
     0
 63
   257
283
     0
 90
        4
 91
        0
  1

274
    -2
284
     1
 64
     0
275
    -2
285
     1
 65
     0
276
    -2
286
     1
 66
     0
277
    -2
287
     1
 67
     0
278
    -2
288
     1
 68
     0
279
    -2
289
     1
 69
     0
  0
VISUALSTYLE
  5
2F
102
{ACAD_REACTORS
330
2A
102
}
102
{ACAD_XDICTIONARY
360
25A
102
}
330
2A
100
AcDbVisualStyle
  2
2dWireframe
 70
     4
177
     2
291
     0
 71
     0
176
     1
 72
     2
176
     1
 73
     0
176
     1
 90
        0
176
     1
 40
0.6
176
     1
 41
30.0
176
     1
 62
     5
 63
     7
421
 16777215
176
     1
 74
     1
176
     1
 91
        4
176
     1
 64
     7
176
     1
 65
   257
176
     1
 75
     1
176
     1
175
     1
176
     1
 42
1.0
176
     1
 92
        0
176
     1
 66
   257
176
     1
 43
1.0
176
     1
 76
     1
176
     1
 77
     6
176
     1
 78
     2
176
     1
 67
     7
176
     1
 79
     5
176
     1
170
     0
176
     1
171
     0
176
     1
290
     0
176
     1
 93
        1
176
     1
 44
0.0
176
     1
173
     0
176
     1
  0
VISUALSTYLE
  5
32
102
{ACAD_REACTORS
330
2A
102
}
102
{ACAD_XDICTIONARY
360
260
102
}
330
2A
100
AcDbVisualStyle
  2
Basic
 70
     7
177
     2
291
     1
 71
     1
176
     1
 72
     0
176
     1
 73
     1
176
     1
 90
        0
176
     1
 40
0.6
176
     1
 41
30.0
176
     1
 62
     5
 63
     7
421
 16777215
176
     1
 74
     0
176
     1
 91
        4
176
     1
 64
     7
176
     1
 65
   257
176
     1
 75
     1
176
     1
175
     1
176
     1
 42
1.0
176
     1
 92
        8
176
     1
 66
     7
176
     1
 43
1.0
176
     1
 76
     1
176
     1
 77
     6
176
     1
 78
     2
176
     1
 67
     7
176
     1
 79
     5
176
     1
170
     0
176
     1
171
     0
176
     1
290
     0
176
     1
 93
        1
176
     1
 44
0.0
176
     1
173
     0
176
     1
  0
VISUALSTYLE
  5
36
102
{ACAD_REACTORS
330
2A
102
}
102
{ACAD_XDICTIONARY
360
268
102
}
330
2A
100
AcDbVisualStyle
  2
Brighten
 70
    12
177
     2
291
     1
 71
     2
176
     1
 72
     2
176
     1
 73
     0
176
     1
 90
        0
176
     1
 40
0.6
176
     1
 41
30.0
176
     1
 62
     5
 63
     7
421
 16777215
176
     1
 74
     1
176
     1
 91
        4
176
     1
 64
     7
176
     1
 65
   257
176
     1
 75
     1
176
     1
175
     1
176
     1
 42
1.0
176
     1
 92
        8
176
     1
 66
     7
176
     1
 43
1.0
176
     1
 76
     1
176
     1
 77
     6
176
     1
 78
     2
176
     1
 67
     7
176
     1
 79
     5
176
     1
170
     0
176
     1
171
     0
176
     1
290
     0
176
     1
 93
        1
176
     1
 44
50.0
176
     1
173
     0
176
     1
  0
VISUALSTYLE
  5
3A
102
{ACAD_REACTORS
330
2A
102
}
102
{ACAD_XDICTIONARY
360
270
102
}
330
2A
100
AcDbVisualStyle
  2
ColorChange
 70
    16
177
     2
291
     1
 71
     2
176
     1
 72
     2
176
     1
 73
     3
176
     1
 90
        0
176
     1
 40
0.6
176
     1
 41
30.0
176
     1
 62
     5
 63
     8
421
  8421504
176
     1
 74
     1
176
     1
 91
        4
176
     1
 64
     7
176
     1
 65
   257
176
     1
 75
     1
176
     1
175
     1
176
     1
 42
1.0
176
     1
 92
        8
176
     1
 66
     8
424
  8421504
176
     1
 43
1.0
176
     1
 76
     1
176
     1
 77
     6
176
     1
 78
     2
176
     1
 67
     7
176
     1
 79
     5
176
     1
170
     0
176
     1
171
     0
176
     1
290
     0
176
     1
 93
        1
176
     1
 44
0.0
176
     1
173
     0
176
     1
  0
VISUALSTYLE
  5
34
102
{ACAD_REACTORS
330
2A
102
}
102
{ACAD_XDICTIONARY
360
264
102
}
330
2A
100
AcDbVisualStyle
  2
Conceptual
 70
     9
177
     2
291
     0
 71
     3
176
     1
 72
     2
176
     1
 73
     0
176
     1
 90
        0
176
     1
 40
0.6
176
     1
 41
30.0
176
     1
 62
     5
 63
     7
421
 16777215
176
     1
 74
     2
176
     1
 91
        2
176
     1
 64
     7
176
     1
 65
   257
176
     1
 75
     1
176
     1
175
     1
176
     1
 42
179.0
176
     1
 92
        8
176
     1
 66
     7
176
     1
 43
1.0
176
     1
 76
     1
176
     1
 77
     6
176
     1
 78
     2
176
     1
 67
     7
176
     1
 79
     3
176
     1
170
     0
176
     1
171
     0
176
     1
290
     0
176
     1
 93
        1
176
     1
 44
0.0
176
     1
173
     0
176
     1
  0
VISUALSTYLE
  5
35
102
{ACAD_REACTORS
330
2A
102
}
102
{ACAD_XDICTIONARY
360
266
102
}
330
2A
100
AcDbVisualStyle
  2
Dim
 70
    11
177
     2
291
     1
 71
     2
176
     1
 72
     2
176
     1
 73
     0
176
     1
 90
        0
176
     1
 40
0.6
176
     1
 41
30.0
176
     1
 62
     5
 63
     7
421
 16777215
176
     1
 74
     1
176
     1
 91
        4
176
     1
 64
     7
176
     1
 65
   257
176
     1
 75
     1
176
     1
175
     1
176
     1
 42
1.0
176
     1
 92
        8
176
     1
 66
     7
176
     1
 43
1.0
176
     1
 76
     1
176
     1
 77
     6
176
     1
 78
     2
176
     1
 67
     7
176
     1
 79
     5
176
     1
170
     0
176
     1
171
     0
176
     1
290
     0
176
     1
 93
        1
176
     1
 44
-50.0
176
     1
173
     0
176
     1
  0
VISUALSTYLE
  5
3D
102
{ACAD_REACTORS
330
2A
102
}
102
{ACAD_XDICTIONARY
360
276
102
}
330
2A
100
AcDbVisualStyle
  2
EdgeColorOff
 70
    22
177
     2
291
     1
 71
     2
176
     0
 72
     2
176
     0
 73
     0
176
     0
 90
        0
176
     0
 40
0.6
176
     0
 41
30.0
176
     0
 62
     5
 63
     7
421
 16777215
176
     0
 74
     1
176
     0
 91
        4
176
     0
 64
     7
176
     0
 65
   257
176
     0
 75
     1
176
     0
175
     1
176
     0
 42
1.0
176
     0
 92
        8
176
     2
 66
     7
176
     0
 43
1.0
176
     0
 76
     1
176
     0
 77
     6
176
     0
 78
     2
176
     0
 67
     7
176
     0
 79
     5
176
     0
170
     0
176
     0
171
     0
176
     0
290
     0
176
     0
 93
        1
176
     0
 44
0.0
176
     0
173
     0
176
     0
  0
VISUALSTYLE
  5
39
102
{ACAD_REACTORS
330
2A
102
}
102
{ACAD_XDICTIONARY
360
26E
102
}
330
2A
100
AcDbVisualStyle
  2
Facepattern
 70
    15
177
     2
291
     1
 71
     2
176
     1
 72
     2
176
     1
 73
     0
176
     1
 90
        0
176
     1
 40
0.6
176
     1
 41
30.0
176
     1
 62
     5
 63
     7
421
 16777215
176
     1
 74
     1
176
     1
 91
        4
176
     1
 64
     7
176
     1
 65
   257
176
     1
 75
     1
176
     1
175
     1
176
     1
 42
1.0
176
     1
 92
        8
176
     1
 66
     7
176
     1
 43
1.0
176
     1
 76
     1
176
     1
 77
     6
176
     1
 78
     2
176
     1
 67
     7
176
     1
 79
     5
176
     1
170
     0
176
     1
171
     0
176
     1
290
     0
176
     1
 93
        1
176
     1
 44
0.0
176
     1
173
     0
176
     1
  0
VISUALSTYLE
  5
2B
102
{ACAD_REACTORS
330
2A
102
}
102
{ACAD_XDICTIONARY
360
252
102
}
330
2A
100
AcDbVisualStyle
  2
Flat
 70
     0
177
     2
291
     1
 71
     2
176
     1
 72
     1
176
     1
 73
     1
176
     1
 90
        2
176
     1
 40
0.6
176
     1
 41
30.0
176
     1
 62
     5
 63
     7
421
 16777215
176
     1
 74
     0
176
     1
 91
        0
176
     1
 64
     7
176
     1
 65
   257
176
     1
 75
     1
176
     1
175
     1
176
     1
 42
1.0
176
     1
 92
        8
176
     1
 66
     7
176
     1
 43
1.0
176
     1
 76
     1
176
     1
 77
     6
176
     1
 78
     2
176
     1
 67
     7
176
     1
 79
     5
176
     1
170
     0
176
     1
171
     0
176
     1
290
     0
176
     1
 93
       13
176
     1
 44
0.0
176
     1
173
     0
176
     1
  0
VISUALSTYLE
  5
2C
102
{ACAD_REACTORS
330
2A
102
}
102
{ACAD_XDICTIONARY
360
254
102
}
330
2A
100
AcDbVisualStyle
  2
FlatWithEdges
 70
     1
177
     2
291
     1
 71
     2
176
     1
 72
     1
176
     1
 73
     1
176
     1
 90
        2
176
     1
 40
0.6
176
     1
 41
30.0
176
     1
 62
     5
 63
     7
421
 16777215
176
     1
 74
     1
176
     1
 91
        0
176
     1
 64
     7
176
     1
 65
   257
176
     1
 75
     1
176
     1
175
     1
176
     1
 42
1.0
176
     1
 92
        0
176
     1
 66
   257
176
     1
 43
1.0
176
     1
 76
     1
176
     1
 77
     6
176
     1
 78
     2
176
     1
 67
     7
176
     1
 79
     5
176
     1
170
     0
176
     1
171
     0
176
     1
290
     0
176
     1
 93
       13
176
     1
 44
0.0
176
     1
173
     0
176
     1
  0
VISUALSTYLE
  5
2D
102
{ACAD_REACTORS
330
2A
102
}
102
{ACAD_XDICTIONARY
360
256
102
}
330
2A
100
AcDbVisualStyle
  2
Gouraud
 70
     2
177
     2
291
     1
 71
     2
176
     1
 72
     2
176
     1
 73
     1
176
     1
 90
        2
176
     1
 40
0.6
176
     1
 41
30.0
176
     1
 62
     5
 63
     7
421
 16777215
176
     1
 74
     0
176
     1
 91
        0
176
     1
 64
     7
176
     1
 65
   257
176
     1
 75
     1
176
     1
175
     1
176
     1
 42
1.0
176
     1
 92
        0
176
     1
 66
     7
176
     1
 43
1.0
176
     1
 76
     1
176
     1
 77
     6
176
     1
 78
     2
176
     1
 67
     7
176
     1
 79
     5
176
     1
170
     0
176
     1
171
     0
176
     1
290
     0
176
     1
 93
       13
176
     1
 44
0.0
176
     1
173
     0
176
     1
  0
VISUALSTYLE
  5
2E
102
{ACAD_REACTORS
330
2A
102
}
102
{ACAD_XDICTIONARY
360
258
102
}
330
2A
100
AcDbVisualStyle
  2
GouraudWithEdges
 70
     3
177
     2
291
     1
 71
     2
176
     1
 72
     2
176
     1
 73
     1
176
     1
 90
        2
176
     1
 40
0.6
176
     1
 41
30.0
176
     1
 62
     5
 63
     7
421
 16777215
176
     1
 74
     1
176
     1
 91
        0
176
     1
 64
     7
176
     1
 65
   257
176
     1
 75
     1
176
     1
175
     1
176
     1
 42
1.0
176
     1
 92
        0
176
     1
 66
   257
176
     1
 43
1.0
176
     1
 76
     1
176
     1
 77
     6
176
     1
 78
     2
176
     1
 67
     7
176
     1
 79
     5
176
     1
170
     0
176
     1
171
     0
176
     1
290
     0
176
     1
 93
       13
176
     1
 44
0.0
176
     1
173
     0
176
     1
  0
VISUALSTYLE
  5
31
102
{ACAD_REACTORS
330
2A
102
}
102
{ACAD_XDICTIONARY
360
25E
102
}
330
2A
100
AcDbVisualStyle
  2
Hidden
 70
     6
177
     2
291
     0
 71
     1
176
     1
 72
     2
176
     1
 73
     2
176
     1
 90
        0
176
     1
 40
0.6
176
     1
 41
30.0
176
     1
 62
     5
 63
     7
421
 16777215
176
     1
 74
     2
176
     1
 91
        2
176
     1
 64
     7
176
     1
 65
   257
176
     1
 75
     2
176
     1
175
     1
176
     1
 42
40.0
176
     1
 92
        0
176
     1
 66
   257
176
     1
 43
1.0
176
     1
 76
     1
176
     1
 77
     6
176
     1
 78
     2
176
     1
 67
     7
176
     1
 79
     3
176
     1
170
     0
176
     1
171
     0
176
     1
290
     0
176
     1
 93
        1
176
     1
 44
0.0
176
     1
173
     0
176
     1
  0
VISUALSTYLE
  5
3B
102
{ACAD_REACTORS
330
2A
102
}
102
{ACAD_XDICTIONARY
360
272
102
}
330
2A
100
AcDbVisualStyle
  2
JitterOff
 70
    20
177
     2
291
     1
 71
     2
176
     0
 72
     2
176
     0
 73
     0
176
     0
 90
        0
176
     0
 40
0.6
176
     0
 41
30.0
176
     0
 62
     5
 63
     7
421
 16777215
176
     0
 74
     1
176
     0
 91
        4
176
     0
 64
     7
176
     0
 65
   257
176
     0
 75
     1
176
     0
175
     1
176
     0
 42
1.0
176
     0
 92
       10
176
     2
 66
     7
176
     0
 43
1.0
176
     0
 76
     1
176
     0
 77
     6
176
     0
 78
     2
176
     0
 67
     7
176
     0
 79
     5
176
     0
170
     0
176
     0
171
     0
176
     0
290
     0
176
     0
 93
        1
176
     0
 44
0.0
176
     0
173
     0
176
     0
  0
VISUALSTYLE
  5
38
102
{ACAD_REACTORS
330
2A
102
}
102
{ACAD_XDICTIONARY
360
26C
102
}
330
2A
100
AcDbVisualStyle
  2
Linepattern
 70
    14
177
     2
291
     1
 71
     2
176
     1
 72
     2
176
     1
 73
     0
176
     1
 90
        0
176
     1
 40
0.6
176
     1
 41
30.0
176
     1
 62
     5
 63
     7
421
 16777215
176
     1
 74
     1
176
     1
 91
        4
176
     1
 64
     7
176
     1
 65
   257
176
     1
 75
     7
176
     1
175
     7
176
     1
 42
1.0
176
     1
 92
        8
176
     1
 66
     7
176
     1
 43
1.0
176
     1
 76
     1
176
     1
 77
     6
176
     1
 78
     2
176
     1
 67
     7
176
     1
 79
     5
176
     1
170
     0
176
     1
171
     0
176
     1
290
     0
176
     1
 93
        1
176
     1
 44
0.0
176
     1
173
     0
176
     1
  0
VISUALSTYLE
  5
3C
102
{ACAD_REACTORS
330
2A
102
}
102
{ACAD_XDICTIONARY
360
274
102
}
330
2A
100
AcDbVisualStyle
  2
OverhangOff
 70
    21
177
     2
291
     1
 71
     2
176
     0
 72
     2
176
     0
 73
     0
176
     0
 90
        0
176
     0
 40
0.6
176
     0
 41
30.0
176
     0
 62
     5
 63
     7
421
 16777215
176
     0
 74
     1
176
     0
 91
        4
176
     0
 64
     7
176
     0
 65
   257
176
     0
 75
     1
176
     0
175
     1
176
     0
 42
1.0
176
     0
 92
        9
176
     2
 66
     7
176
     0
 43
1.0
176
     0
 76
     1
176
     0
 77
     6
176
     0
 78
     2
176
     0
 67
     7
176
     0
 79
     5
176
     0
170
     0
176
     0
171
     0
176
     0
290
     0
176
     0
 93
        1
176
     0
 44
0.0
176
     0
173
     0
176
     0
  0
VISUALSTYLE
  5
33
102
{ACAD_REACTORS
330
2A
102
}
102
{ACAD_XDICTIONARY
360
262
102
}
330
2A
100
AcDbVisualStyle
  2
Realistic
 70
     8
177
     2
291
     0
 71
     2
176
     1
 72
     3
176
     1
 73
     0
176
     1
 90
        2
176
     1
 40
0.6
176
     1
 41
30.0
176
     1
 62
     5
 63
     7
421
 16777215
176
     1
 74
     0
176
     1
 91
        0
176
     1
 64
     7
176
     1
 65
   257
176
     1
 75
     1
176
     1
175
     1
176
     1
 42
1.0
176
     1
 92
        8
176
     1
 66
   257
176
     1
 43
1.0
176
     1
 76
     1
176
     1
 77
     6
176
     1
 78
     2
176
     1
 67
     7
176
     1
 79
     3
176
     1
170
     0
176
     1
171
     0
176
     1
290
     0
176
     1
 93
       13
176
     1
 44
0.0
176
     1
173
     0
176
     1
  0
VISUALSTYLE
  5
42
102
{ACAD_REACTORS
330
2A
102
}
102
{ACAD_XDICTIONARY
360
280
102
}
330
2A
100
AcDbVisualStyle
  2
Shaded
 70
    27
177
     2
291
     0
 71
     2
176
     1
 72
     2
176
     1
 73
     1
176
     1
 90
        2
176
     1
 40
0.6
176
     1
 41
30.0
176
     1
 62
     5
 63
     7
421
 16777215
176
     1
 74
     0
176
     1
 91
        4
176
     1
 64
     7
176
     1
 65
   257
176
     1
 75
     1
176
     1
175
     1
176
     1
 42
1.0
176
     1
 92
        8
176
     1
 66
   257
176
     1
 43
1.0
176
     1
 76
     1
176
     1
 77
     6
176
     1
 78
     2
176
     1
 67
     8
425
  7895160
176
     1
 79
     3
176
     1
170
     0
176
     1
171
     0
176
     1
290
     0
176
     1
 93
        5
176
     1
 44
0.0
176
     1
173
     0
176
     1
  0
VISUALSTYLE
  5
41
102
{ACAD_REACTORS
330
2A
102
}
102
{ACAD_XDICTIONARY
360
27E
102
}
330
2A
100
AcDbVisualStyle
  2
Shaded with edges
 70
    26
177
     2
291
     0
 71
     2
176
     1
 72
     2
176
     1
 73
     1
176
     1
 90
        2
176
     1
 40
0.6
176
     1
 41
30.0
176
     1
 62
     5
 63
     7
421
 16777215
176
     1
 74
     1
176
     1
 91
       10
176
     1
 64
     7
176
     1
 65
   257
176
     1
 75
     2
176
     1
175
     1
176
     1
 42
1.0
176
     1
 92
        8
176
     1
 66
   257
176
     1
 43
1.0
176
     1
 76
     1
176
     1
 77
     6
176
     1
 78
     2
176
     1
 67
     7
176
     1
 79
     3
176
     1
170
     0
176
     1
171
     0
176
     1
290
     0
176
     1
 93
        5
176
     1
 44
0.0
176
     1
173
     0
176
     1
  0
VISUALSTYLE
  5
3E
102
{ACAD_REACTORS
330
2A
102
}
102
{ACAD_XDICTIONARY
360
278
102
}
330
2A
100
AcDbVisualStyle
  2
Shades of Gray
 70
    23
177
     2
291
     0
 71
     2
176
     1
 72
     2
176
     1
 73
     3
176
     1
 90
        0
176
     1
 40
0.6
176
     1
 41
30.0
176
     1
 62
     5
 63
     7
421
 16777215
176
     1
 74
     2
176
     1
 91
        2
176
     1
 64
     7
176
     1
 65
     7
176
     1
 75
     1
176
     1
175
     1
176
     1
 42
40.0
176
     1
 92
        8
176
     1
 66
     7
176
     1
 43
1.0
176
     1
 76
     1
176
     1
 77
     6
176
     1
 78
     2
176
     1
 67
     7
176
     1
 79
     3
176
     1
170
     0
176
     1
171
     0
176
     1
290
     0
176
     1
 93
        1
176
     1
 44
0.0
176
     1
173
     0
176
     1
  0
VISUALSTYLE
  5
3F
102
{ACAD_REACTORS
330
2A
102
}
102
{ACAD_XDICTIONARY
360
27A
102
}
330
2A
100
AcDbVisualStyle
  2
Sketchy
 70
    24
177
     2
291
     0
 71
     1
176
     1
 72
     2
176
     1
 73
     2
176
     1
 90
        0
176
     1
 40
0.6
176
     1
 41
30.0
176
     1
 62
     5
 63
     7
421
 16777215
176
     1
 74
     2
176
     1
 91
        2
176
     1
 64
     7
176
     1
 65
     7
176
     1
 75
     1
176
     1
175
     1
176
     1
 42
40.0
176
     1
 92
       11
176
     1
 66
     7
176
     1
 43
1.0
176
     1
 76
     1
176
     1
 77
     6
176
     1
 78
     2
176
     1
 67
     7
176
     1
 79
     6
176
     1
170
     0
176
     1
171
     0
176
     1
290
     0
176
     1
 93
        1
176
     1
 44
0.0
176
     1
173
     0
176
     1
  0
VISUALSTYLE
  5
37
102
{ACAD_REACTORS
330
2A
102
}
102
{ACAD_XDICTIONARY
360
26A
102
}
330
2A
100
AcDbVisualStyle
  2
Thicken
 70
    13
177
     2
291
     1
 71
     2
176
     1
 72
     2
176
     1
 73
     0
176
     1
 90
        0
176
     1
 40
0.6
176
     1
 41
30.0
176
     1
 62
     5
 63
     7
421
 16777215
176
     1
 74
     1
176
     1
 91
        4
176
     1
 64
     7
176
     1
 65
   257
176
     1
 75
     1
176
     1
175
     1
176
     1
 42
1.0
176
     1
 92
       12
176
     1
 66
     7
176
     1
 43
1.0
176
     1
 76
     1
176
     1
 77
     6
176
     1
 78
     2
176
     1
 67
     7
176
     1
 79
     5
176
     1
170
     0
176
     1
171
     0
176
     1
290
     0
176
     1
 93
        1
176
     1
 44
0.0
176
     1
173
     0
176
     1
  0
VISUALSTYLE
  5
30
102
{ACAD_REACTORS
330
2A
102
}
102
{ACAD_XDICTIONARY
360
25C
102
}
330
2A
100
AcDbVisualStyle
  2
Wireframe
 70
     5
177
     2
291
     0
 71
     0
176
     1
 72
     2
176
     1
 73
     0
176
     1
 90
        0
176
     1
 40
0.6
176
     1
 41
30.0
176
     1
 62
     5
 63
     7
421
 16777215
176
     1
 74
     1
176
     1
 91
        4
176
     1
 64
     7
176
     1
 65
   257
176
     1
 75
     1
176
     1
175
     1
176
     1
 42
1.0
176
     1
 92
        0
176
     1
 66
   257
176
     1
 43
1.0
176
     1
 76
     1
176
     1
 77
     6
176
     1
 78
     2
176
     1
 67
     7
176
     1
 79
     3
176
     1
170
     0
176
     1
171
     0
176
     1
290
     0
176
     1
 93
        1
176
     1
 44
0.0
176
     1
173
     0
176
     1
  0
VISUALSTYLE
  5
40
102
{ACAD_REACTORS
330
2A
102
}
102
{ACAD_XDICTIONARY
360
27C
102
}
330
2A
100
AcDbVisualStyle
  2
X-Ray
 70
    25
177
     2
291
     0
 71
     2
176
     1
 72
     2
176
     1
 73
     1
176
     1
 90
        1
176
     1
 40
0.5
176
     1
 41
30.0
176
     1
 62
     5
 63
     7
421
 16777215
176
     1
 74
     1
176
     1
 91
        0
176
     1
 64
     7
176
     1
 65
   257
176
     1
 75
     1
176
     1
175
     1
176
     1
 42
1.0
176
     1
 92
        8
176
     1
 66
     7
176
     1
 43
1.0
176
     1
 76
     1
176
     1
 77
     6
176
     1
 78
     2
176
     1
 67
     7
176
     1
 79
     3
176
     1
170
     0
176
     1
171
     0
176
     1
290
     0
176
     1
 93
       13
176
     1
 44
0.0
176
     1
173
     0
176
     1
  0
DICTIONARYVAR
  5
251
102
{ACAD_REACTORS
330
250
102
}
330
250
100
DictionaryVariables
280
     0
  1
1:1
  0
DICTIONARYVAR
  5
286
102
{ACAD_REACTORS
330
250
102
}
330
250
100
DictionaryVariables
280
     0
  1
Standard
  0
DICTIONARYVAR
  5
285
102
{ACAD_REACTORS
330
250
102
}
330
250
100
DictionaryVariables
280
     0
  1
Standard
  0
DICTIONARY
  5
282
330
6A
100
AcDbDictionary
280
     1
281
     1
  3
ACAD_ROUNDTRIP_2008_TABLESTYLE_CELLSTYLEMAP
360
283
  0
DICTIONARY
  5
25A
330
2F
100
AcDbDictionary
280
     1
281
     1
  3
ACAD_XREC_ROUNDTRIP
360
25B
  0
DICTIONARY
  5
260
330
32
100
AcDbDictionary
280
     1
281
     1
  3
ACAD_XREC_ROUNDTRIP
360
261
  0
DICTIONARY
  5
268
330
36
100
AcDbDictionary
280
     1
281
     1
  3
ACAD_XREC_ROUNDTRIP
360
269
  0
DICTIONARY
  5
270
330
3A
100
AcDbDictionary
280
     1
281
     1
  3
ACAD_XREC_ROUNDTRIP
360
271
  0
DICTIONARY
  5
264
330
34
100
AcDbDictionary
280
     1
281
     1
  3
ACAD_XREC_ROUNDTRIP
360
265
  0
DICTIONARY
  5
266
330
35
100
AcDbDictionary
280
     1
281
     1
  3
ACAD_XREC_ROUNDTRIP
360
267
  0
DICTIONARY
  5
276
330
3D
100
AcDbDictionary
280
     1
281
     1
  3
ACAD_XREC_ROUNDTRIP
360
277
  0
DICTIONARY
  5
26E
330
39
100
AcDbDictionary
280
     1
281
     1
  3
ACAD_XREC_ROUNDTRIP
360
26F
  0
DICTIONARY
  5
252
330
2B
100
AcDbDictionary
280
     1
281
     1
  3
ACAD_XREC_ROUNDTRIP
360
253
  0
DICTIONARY
  5
254
330
2C
100
AcDbDictionary
280
     1
281
     1
  3
ACAD_XREC_ROUNDTRIP
360
255
  0
DICTIONARY
  5
256
330
2D
100
AcDbDictionary
280
     1
281
     1
  3
ACAD_XREC_ROUNDTRIP
360
257
  0
DICTIONARY
  5
258
330
2E
100
AcDbDictionary
280
     1
281
     1
  3
ACAD_XREC_ROUNDTRIP
360
259
  0
DICTIONARY
  5
25E
330
31
100
AcDbDictionary
280
     1
281
     1
  3
ACAD_XREC_ROUNDTRIP
360
25F
  0
DICTIONARY
  5
272
330
3B
100
AcDbDictionary
280
     1
281
     1
  3
ACAD_XREC_ROUNDTRIP
360
273
  0
DICTIONARY
  5
26C
330
38
100
AcDbDictionary
280
     1
281
     1
  3
ACAD_XREC_ROUNDTRIP
360
26D
  0
DICTIONARY
  5
274
330
3C
100
AcDbDictionary
280
     1
281
     1
  3
ACAD_XREC_ROUNDTRIP
360
275
  0
DICTIONARY
  5
262
330
33
100
AcDbDictionary
280
     1
281
     1
  3
ACAD_XREC_ROUNDTRIP
360
263
  0
DICTIONARY
  5
280
330
42
100
AcDbDictionary
280
     1
281
     1
  3
ACAD_XREC_ROUNDTRIP
360
281
  0
DICTIONARY
  5
27E
330
41
100
AcDbDictionary
280
     1
281
     1
  3
ACAD_XREC_ROUNDTRIP
360
27F
  0
DICTIONARY
  5
278
330
3E
100
AcDbDictionary
280
     1
281
     1
  3
ACAD_XREC_ROUNDTRIP
360
279
  0
DICTIONARY
  5
27A
330
3F
100
AcDbDictionary
280
     1
281
     1
  3
ACAD_XREC_ROUNDTRIP
360
27B
  0
DICTIONARY
  5
26A
330
37
100
AcDbDictionary
280
     1
281
     1
  3
ACAD_XREC_ROUNDTRIP
360
26B
  0
DICTIONARY
  5
25C
330
30
100
AcDbDictionary
280
     1
281
     1
  3
ACAD_XREC_ROUNDTRIP
360
25D
  0
DICTIONARY
  5
27C
330
40
100
AcDbDictionary
280
     1
281
     1
  3
ACAD_XREC_ROUNDTRIP
360
27D
  0
CELLSTYLEMAP
  5
283
102
{ACAD_REACTORS
330
282
102
}
330
282
100
AcDbCellStyleMap
 90
        3
300
CELLSTYLE
  1
TABLEFORMAT_BEGIN
 90
        5
170
     1
 91
        0
 92
    32768
 62
   257
 93
        1
300
CONTENTFORMAT
  1
CONTENTFORMAT_BEGIN
 90
        0
 91
        0
 92
        4
 93
        0
300

 40
0.0
140
1.0
 94
        5
 62
     0
340
11
144
6.0
309
CONTENTFORMAT_END
171
     1
301
MARGIN
  1
CELLMARGIN_BEGIN
 40
1.5
 40
1.5
 40
1.5
 40
1.5
 40
1.5
 40
1.5
309
CELLMARGIN_END
 94
        6
 95
        1
302
GRIDFORMAT
  1
GRIDFORMAT_BEGIN
 90
        0
 91
        1
 62
     0
 92
       -2
340
14
 93
        0
 40
0.045
309
GRIDFORMAT_END
 95
        2
302
GRIDFORMAT
  1
GRIDFORMAT_BEGIN
 90
        0
 91
        1
 62
     0
 92
       -2
340
14
 93
        0
 40
0.045
309
GRIDFORMAT_END
 95
        4
302
GRIDFORMAT
  1
GRIDFORMAT_BEGIN
 90
        0
 91
        1
 62
     0
 92
       -2
340
14
 93
        0
 40
0.045
309
GRIDFORMAT_END
 95
        8
302
GRIDFORMAT
  1
GRIDFORMAT_BEGIN
 90
        0
 91
        1
 62
     0
 92
       -2
340
14
 93
        0
 40
0.045
309
GRIDFORMAT_END
 95
       16
302
GRIDFORMAT
  1
GRIDFORMAT_BEGIN
 90
        0
 91
        1
 62
     0
 92
       -2
340
14
 93
        0
 40
0.045
309
GRIDFORMAT_END
 95
       32
302
GRIDFORMAT
  1
GRIDFORMAT_BEGIN
 90
        0
 91
        1
 62
     0
 92
       -2
340
14
 93
        0
 40
0.045
309
GRIDFORMAT_END
309
TABLEFORMAT_END
  1
CELLSTYLE_BEGIN
 90
        1
 91
        1
300
_TITLE
309
CELLSTYLE_END
300
CELLSTYLE
  1
TABLEFORMAT_BEGIN
 90
        5
170
     1
 91
        0
 92
        0
 62
   257
 93
        1
300
CONTENTFORMAT
  1
CONTENTFORMAT_BEGIN
 90
        0
 91
        0
 92
        4
 93
        0
300

 40
0.0
140
1.0
 94
        5
 62
     0
340
11
144
4.5
309
CONTENTFORMAT_END
171
     1
301
MARGIN
  1
CELLMARGIN_BEGIN
 40
1.5
 40
1.5
 40
1.5
 40
1.5
 40
1.5
 40
1.5
309
CELLMARGIN_END
 94
        6
 95
        1
302
GRIDFORMAT
  1
GRIDFORMAT_BEGIN
 90
        0
 91
        1
 62
     0
 92
       -2
340
14
 93
        0
 40
0.045
309
GRIDFORMAT_END
 95
        2
302
GRIDFORMAT
  1
GRIDFORMAT_BEGIN
 90
        0
 91
        1
 62
     0
 92
       -2
340
14
 93
        0
 40
0.045
309
GRIDFORMAT_END
 95
        4
302
GRIDFORMAT
  1
GRIDFORMAT_BEGIN
 90
        0
 91
        1
 62
     0
 92
       -2
340
14
 93
        0
 40
0.045
309
GRIDFORMAT_END
 95
        8
302
GRIDFORMAT
  1
GRIDFORMAT_BEGIN
 90
        0
 91
        1
 62
     0
 92
       -2
340
14
 93
        0
 40
0.045
309
GRIDFORMAT_END
 95
       16
302
GRIDFORMAT
  1
GRIDFORMAT_BEGIN
 90
        0
 91
        1
 62
     0
 92
       -2
340
14
 93
        0
 40
0.045
309
GRIDFORMAT_END
 95
       32
302
GRIDFORMAT
  1
GRIDFORMAT_BEGIN
 90
        0
 91
        1
 62
     0
 92
       -2
340
14
 93
        0
 40
0.045
309
GRIDFORMAT_END
309
TABLEFORMAT_END
  1
CELLSTYLE_BEGIN
 90
        2
 91
        1
300
_HEADER
309
CELLSTYLE_END
300
CELLSTYLE
  1
TABLEFORMAT_BEGIN
 90
        5
170
     1
 91
        0
 92
        0
 62
   257
 93
        1
300
CONTENTFORMAT
  1
CONTENTFORMAT_BEGIN
 90
        0
 91
        0
 92
        4
 93
        0
300

 40
0.0
140
1.0
 94
        2
 62
     0
340
11
144
4.5
309
CONTENTFORMAT_END
171
     1
301
MARGIN
  1
CELLMARGIN_BEGIN
 40
1.5
 40
1.5
 40
1.5
 40
1.5
 40
1.5
 40
1.5
309
CELLMARGIN_END
 94
        6
 95
        1
302
GRIDFORMAT
  1
GRIDFORMAT_BEGIN
 90
        0
 91
        1
 62
     0
 92
       -2
340
14
 93
        0
 40
0.045
309
GRIDFORMAT_END
 95
        2
302
GRIDFORMAT
  1
GRIDFORMAT_BEGIN
 90
        0
 91
        1
 62
     0
 92
       -2
340
14
 93
        0
 40
0.045
309
GRIDFORMAT_END
 95
        4
302
GRIDFORMAT
  1
GRIDFORMAT_BEGIN
 90
        0
 91
        1
 62
     0
 92
       -2
340
14
 93
        0
 40
0.045
309
GRIDFORMAT_END
 95
        8
302
GRIDFORMAT
  1
GRIDFORMAT_BEGIN
 90
        0
 91
        1
 62
     0
 92
       -2
340
14
 93
        0
 40
0.045
309
GRIDFORMAT_END
 95
       16
302
GRIDFORMAT
  1
GRIDFORMAT_BEGIN
 90
        0
 91
        1
 62
     0
 92
       -2
340
14
 93
        0
 40
0.045
309
GRIDFORMAT_END
 95
       32
302
GRIDFORMAT
  1
GRIDFORMAT_BEGIN
 90
        0
 91
        1
 62
     0
 92
       -2
340
14
 93
        0
 40
0.045
309
GRIDFORMAT_END
309
TABLEFORMAT_END
  1
CELLSTYLE_BEGIN
 90
        3
 91
        2
300
_DATA
309
CELLSTYLE_END
  0
XRECORD
  5
25B
102
{ACAD_REACTORS
330
25A
102
}
330
25A
100
AcDbXrecord
280
     1
102
RTVSPost2010Prop28
280
     1
102
RTVSPost2010PropOp28
 70
     1
102
RTVSPost2010Prop29
280
     1
102
RTVSPost2010PropOp29
 70
     1
102
RTVSPost2010Prop30
280
     0
102
RTVSPost2010PropOp30
 70
     1
102
RTVSPost2010Prop31
280
     0
102
RTVSPost2010PropOp31
 70
     1
102
RTVSPost2010Prop32
280
     0
102
RTVSPost2010PropOp32
 70
     1
102
RTVSPost2010Prop33
280
     0
102
RTVSPost2010PropOp33
 70
     1
102
RTVSPost2010Prop34
280
     0
102
RTVSPost2010PropOp34
 70
     1
102
RTVSPost2010Prop35
280
     0
102
RTVSPost2010PropOp35
 70
     1
102
RTVSPost2010Prop36
280
     0
102
RTVSPost2010PropOp36
 70
     1
102
RTVSPost2010Prop37
 90
       50
102
RTVSPost2010PropOp37
 70
     1
102
RTVSPost2010Prop38
140
0.0
102
RTVSPost2010PropOp38
 70
     1
102
RTVSPost2010Prop39
140
1.0
102
RTVSPost2010PropOp39
 70
     1
102
RTVSPost2010Prop40
 90
        0
102
RTVSPost2010PropOp40
 70
     1
102
RTVSPost2010Prop41ColorIndex
 90
       18
102
RTVSPost2010Prop41ColorRGB
 90
        0
102
RTVSPost2010PropOp41
 70
     1
102
RTVSPost2010Prop42
 90
       50
102
RTVSPost2010PropOp42
 70
     1
102
RTVSPost2010Prop43
 90
        3
102
RTVSPost2010PropOp43
 70
     1
102
RTVSPost2010Prop44ColorIndex
 90
        5
102
RTVSPost2010Prop44ColorRGB
 90
      255
102
RTVSPost2010PropOp44
 70
     1
102
RTVSPost2010Prop45
280
     0
102
RTVSPost2010PropOp45
 70
     1
102
RTVSPost2010Prop46
 90
       50
102
RTVSPost2010PropOp46
 70
     1
102
RTVSPost2010Prop47
 90
       50
102
RTVSPost2010PropOp47
 70
     1
102
RTVSPost2010Prop48
 90
       50
102
RTVSPost2010PropOp48
 70
     1
102
RTVSPost2010Prop49
280
     0
102
RTVSPost2010PropOp49
 70
     1
102
RTVSPost2010Prop50
 90
       50
102
RTVSPost2010PropOp50
 70
     1
102
RTVSPost2010Prop51ColorIndex
 90
      256
102
RTVSPost2010Prop51ColorRGB
 90
-16777216
102
RTVSPost2010PropOp51
 70
     0
102
RTVSPost2010Prop52
140
1.0
102
RTVSPost2010PropOp52
 70
     0
102
RTVSPost2010Prop53
 90
        2
102
RTVSPost2010PropOp53
 70
     1
102
RTVSPost2010Prop54
  1
strokes_ogs.tif
102
RTVSPost2010PropOp54
 70
     1
102
RTVSPost2010Prop55
280
     0
102
RTVSPost2010PropOp55
 70
     1
102
RTVSPost2010Prop56
140
1.0
102
RTVSPost2010PropOp56
 70
     1
102
RTVSPost2010Prop57
140
1.0
102
RTVSPost2010PropOp57
 70
     1
  0
XRECORD
  5
261
102
{ACAD_REACTORS
330
260
102
}
330
260
100
AcDbXrecord
280
     1
102
RTVSPost2010Prop28
280
     0
102
RTVSPost2010PropOp28
 70
     1
102
RTVSPost2010Prop29
280
     1
102
RTVSPost2010PropOp29
 70
     1
102
RTVSPost2010Prop30
280
     1
102
RTVSPost2010PropOp30
 70
     1
102
RTVSPost2010Prop31
280
     0
102
RTVSPost2010PropOp31
 70
     1
102
RTVSPost2010Prop32
280
     0
102
RTVSPost2010PropOp32
 70
     1
102
RTVSPost2010Prop33
280
     0
102
RTVSPost2010PropOp33
 70
     1
102
RTVSPost2010Prop34
280
     0
102
RTVSPost2010PropOp34
 70
     1
102
RTVSPost2010Prop35
280
     0
102
RTVSPost2010PropOp35
 70
     1
102
RTVSPost2010Prop36
280
     0
102
RTVSPost2010PropOp36
 70
     1
102
RTVSPost2010Prop37
 90
       50
102
RTVSPost2010PropOp37
 70
     1
102
RTVSPost2010Prop38
140
0.0
102
RTVSPost2010PropOp38
 70
     1
102
RTVSPost2010Prop39
140
1.0
102
RTVSPost2010PropOp39
 70
     1
102
RTVSPost2010Prop40
 90
        0
102
RTVSPost2010PropOp40
 70
     1
102
RTVSPost2010Prop41ColorIndex
 90
       18
102
RTVSPost2010Prop41ColorRGB
 90
        0
102
RTVSPost2010PropOp41
 70
     1
102
RTVSPost2010Prop42
 90
       50
102
RTVSPost2010PropOp42
 70
     1
102
RTVSPost2010Prop43
 90
        3
102
RTVSPost2010PropOp43
 70
     1
102
RTVSPost2010Prop44ColorIndex
 90
        5
102
RTVSPost2010Prop44ColorRGB
 90
      255
102
RTVSPost2010PropOp44
 70
     1
102
RTVSPost2010Prop45
280
     0
102
RTVSPost2010PropOp45
 70
     1
102
RTVSPost2010Prop46
 90
       50
102
RTVSPost2010PropOp46
 70
     1
102
RTVSPost2010Prop47
 90
       50
102
RTVSPost2010PropOp47
 70
     1
102
RTVSPost2010Prop48
 90
       50
102
RTVSPost2010PropOp48
 70
     1
102
RTVSPost2010Prop49
280
     0
102
RTVSPost2010PropOp49
 70
     1
102
RTVSPost2010Prop50
 90
       50
102
RTVSPost2010PropOp50
 70
     1
102
RTVSPost2010Prop51ColorIndex
 90
      256
102
RTVSPost2010Prop51ColorRGB
 90
-16777216
102
RTVSPost2010PropOp51
 70
     0
102
RTVSPost2010Prop52
140
1.0
102
RTVSPost2010PropOp52
 70
     0
102
RTVSPost2010Prop53
 90
        2
102
RTVSPost2010PropOp53
 70
     1
102
RTVSPost2010Prop54
  1
strokes_ogs.tif
102
RTVSPost2010PropOp54
 70
     1
102
RTVSPost2010Prop55
280
     0
102
RTVSPost2010PropOp55
 70
     1
102
RTVSPost2010Prop56
140
1.0
102
RTVSPost2010PropOp56
 70
     1
102
RTVSPost2010Prop57
140
1.0
102
RTVSPost2010PropOp57
 70
     1
  0
XRECORD
  5
269
102
{ACAD_REACTORS
330
268
102
}
330
268
100
AcDbXrecord
280
     1
102
RTVSPost2010Prop28
280
     0
102
RTVSPost2010PropOp28
 70
     1
102
RTVSPost2010Prop29
280
     1
102
RTVSPost2010PropOp29
 70
     1
102
RTVSPost2010Prop30
280
     1
102
RTVSPost2010PropOp30
 70
     1
102
RTVSPost2010Prop31
280
     0
102
RTVSPost2010PropOp31
 70
     1
102
RTVSPost2010Prop32
280
     0
102
RTVSPost2010PropOp32
 70
     1
102
RTVSPost2010Prop33
280
     0
102
RTVSPost2010PropOp33
 70
     1
102
RTVSPost2010Prop34
280
     0
102
RTVSPost2010PropOp34
 70
     1
102
RTVSPost2010Prop35
280
     0
102
RTVSPost2010PropOp35
 70
     1
102
RTVSPost2010Prop36
280
     0
102
RTVSPost2010PropOp36
 70
     1
102
RTVSPost2010Prop37
 90
       50
102
RTVSPost2010PropOp37
 70
     1
102
RTVSPost2010Prop38
140
0.0
102
RTVSPost2010PropOp38
 70
     1
102
RTVSPost2010Prop39
140
1.0
102
RTVSPost2010PropOp39
 70
     1
102
RTVSPost2010Prop40
 90
        0
102
RTVSPost2010PropOp40
 70
     1
102
RTVSPost2010Prop41ColorIndex
 90
       18
102
RTVSPost2010Prop41ColorRGB
 90
        0
102
RTVSPost2010PropOp41
 70
     1
102
RTVSPost2010Prop42
 90
       50
102
RTVSPost2010PropOp42
 70
     1
102
RTVSPost2010Prop43
 90
        3
102
RTVSPost2010PropOp43
 70
     1
102
RTVSPost2010Prop44ColorIndex
 90
        5
102
RTVSPost2010Prop44ColorRGB
 90
      255
102
RTVSPost2010PropOp44
 70
     1
102
RTVSPost2010Prop45
280
     0
102
RTVSPost2010PropOp45
 70
     1
102
RTVSPost2010Prop46
 90
       50
102
RTVSPost2010PropOp46
 70
     1
102
RTVSPost2010Prop47
 90
       50
102
RTVSPost2010PropOp47
 70
     1
102
RTVSPost2010Prop48
 90
       50
102
RTVSPost2010PropOp48
 70
     1
102
RTVSPost2010Prop49
280
     0
102
RTVSPost2010PropOp49
 70
     1
102
RTVSPost2010Prop50
 90
       50
102
RTVSPost2010PropOp50
 70
     1
102
RTVSPost2010Prop51ColorIndex
 90
      256
102
RTVSPost2010Prop51ColorRGB
 90
-16777216
102
RTVSPost2010PropOp51
 70
     0
102
RTVSPost2010Prop52
140
1.0
102
RTVSPost2010PropOp52
 70
     0
102
RTVSPost2010Prop53
 90
        2
102
RTVSPost2010PropOp53
 70
     1
102
RTVSPost2010Prop54
  1
strokes_ogs.tif
102
RTVSPost2010PropOp54
 70
     1
102
RTVSPost2010Prop55
280
     0
102
RTVSPost2010PropOp55
 70
     1
102
RTVSPost2010Prop56
140
1.0
102
RTVSPost2010PropOp56
 70
     1
102
RTVSPost2010Prop57
140
1.0
102
RTVSPost2010PropOp57
 70
     1
  0
XRECORD
  5
271
102
{ACAD_REACTORS
330
270
102
}
330
270
100
AcDbXrecord
280
     1
102
RTVSPost2010Prop28
280
     0
102
RTVSPost2010PropOp28
 70
     1
102
RTVSPost2010Prop29
280
     1
102
RTVSPost2010PropOp29
 70
     1
102
RTVSPost2010Prop30
280
     1
102
RTVSPost2010PropOp30
 70
     1
102
RTVSPost2010Prop31
280
     0
102
RTVSPost2010PropOp31
 70
     1
102
RTVSPost2010Prop32
280
     0
102
RTVSPost2010PropOp32
 70
     1
102
RTVSPost2010Prop33
280
     0
102
RTVSPost2010PropOp33
 70
     1
102
RTVSPost2010Prop34
280
     0
102
RTVSPost2010PropOp34
 70
     1
102
RTVSPost2010Prop35
280
     0
102
RTVSPost2010PropOp35
 70
     1
102
RTVSPost2010Prop36
280
     0
102
RTVSPost2010PropOp36
 70
     1
102
RTVSPost2010Prop37
 90
       50
102
RTVSPost2010PropOp37
 70
     1
102
RTVSPost2010Prop38
140
0.0
102
RTVSPost2010PropOp38
 70
     1
102
RTVSPost2010Prop39
140
1.0
102
RTVSPost2010PropOp39
 70
     1
102
RTVSPost2010Prop40
 90
        0
102
RTVSPost2010PropOp40
 70
     1
102
RTVSPost2010Prop41ColorIndex
 90
       18
102
RTVSPost2010Prop41ColorRGB
 90
        0
102
RTVSPost2010PropOp41
 70
     1
102
RTVSPost2010Prop42
 90
       50
102
RTVSPost2010PropOp42
 70
     1
102
RTVSPost2010Prop43
 90
        3
102
RTVSPost2010PropOp43
 70
     1
102
RTVSPost2010Prop44ColorIndex
 90
        5
102
RTVSPost2010Prop44ColorRGB
 90
      255
102
RTVSPost2010PropOp44
 70
     1
102
RTVSPost2010Prop45
280
     0
102
RTVSPost2010PropOp45
 70
     1
102
RTVSPost2010Prop46
 90
       50
102
RTVSPost2010PropOp46
 70
     1
102
RTVSPost2010Prop47
 90
       50
102
RTVSPost2010PropOp47
 70
     1
102
RTVSPost2010Prop48
 90
       50
102
RTVSPost2010PropOp48
 70
     1
102
RTVSPost2010Prop49
280
     0
102
RTVSPost2010PropOp49
 70
     1
102
RTVSPost2010Prop50
 90
       50
102
RTVSPost2010PropOp50
 70
     1
102
RTVSPost2010Prop51ColorIndex
 90
      256
102
RTVSPost2010Prop51ColorRGB
 90
-16777216
102
RTVSPost2010PropOp51
 70
     0
102
RTVSPost2010Prop52
140
1.0
102
RTVSPost2010PropOp52
 70
     0
102
RTVSPost2010Prop53
 90
        2
102
RTVSPost2010PropOp53
 70
     1
102
RTVSPost2010Prop54
  1
strokes_ogs.tif
102
RTVSPost2010PropOp54
 70
     1
102
RTVSPost2010Prop55
280
     0
102
RTVSPost2010PropOp55
 70
     1
102
RTVSPost2010Prop56
140
1.0
102
RTVSPost2010PropOp56
 70
     1
102
RTVSPost2010Prop57
140
1.0
102
RTVSPost2010PropOp57
 70
     1
  0
XRECORD
  5
265
102
{ACAD_REACTORS
330
264
102
}
330
264
100
AcDbXrecord
280
     1
102
RTVSPost2010Prop28
280
     0
102
RTVSPost2010PropOp28
 70
     1
102
RTVSPost2010Prop29
280
     1
102
RTVSPost2010PropOp29
 70
     1
102
RTVSPost2010Prop30
280
     1
102
RTVSPost2010PropOp30
 70
     1
102
RTVSPost2010Prop31
280
     0
102
RTVSPost2010PropOp31
 70
     1
102
RTVSPost2010Prop32
280
     0
102
RTVSPost2010PropOp32
 70
     1
102
RTVSPost2010Prop33
280
     0
102
RTVSPost2010PropOp33
 70
     1
102
RTVSPost2010Prop34
280
     0
102
RTVSPost2010PropOp34
 70
     1
102
RTVSPost2010Prop35
280
     0
102
RTVSPost2010PropOp35
 70
     1
102
RTVSPost2010Prop36
280
     0
102
RTVSPost2010PropOp36
 70
     1
102
RTVSPost2010Prop37
 90
       50
102
RTVSPost2010PropOp37
 70
     1
102
RTVSPost2010Prop38
140
0.0
102
RTVSPost2010PropOp38
 70
     1
102
RTVSPost2010Prop39
140
1.0
102
RTVSPost2010PropOp39
 70
     1
102
RTVSPost2010Prop40
 90
        0
102
RTVSPost2010PropOp40
 70
     1
102
RTVSPost2010Prop41ColorIndex
 90
       18
102
RTVSPost2010Prop41ColorRGB
 90
        0
102
RTVSPost2010PropOp41
 70
     1
102
RTVSPost2010Prop42
 90
       50
102
RTVSPost2010PropOp42
 70
     1
102
RTVSPost2010Prop43
 90
        3
102
RTVSPost2010PropOp43
 70
     1
102
RTVSPost2010Prop44ColorIndex
 90
        5
102
RTVSPost2010Prop44ColorRGB
 90
      255
102
RTVSPost2010PropOp44
 70
     1
102
RTVSPost2010Prop45
280
     0
102
RTVSPost2010PropOp45
 70
     1
102
RTVSPost2010Prop46
 90
       50
102
RTVSPost2010PropOp46
 70
     1
102
RTVSPost2010Prop47
 90
       50
102
RTVSPost2010PropOp47
 70
     1
102
RTVSPost2010Prop48
 90
       50
102
RTVSPost2010PropOp48
 70
     1
102
RTVSPost2010Prop49
280
     0
102
RTVSPost2010PropOp49
 70
     1
102
RTVSPost2010Prop50
 90
       50
102
RTVSPost2010PropOp50
 70
     1
102
RTVSPost2010Prop51ColorIndex
 90
      256
102
RTVSPost2010Prop51ColorRGB
 90
-16777216
102
RTVSPost2010PropOp51
 70
     0
102
RTVSPost2010Prop52
140
1.0
102
RTVSPost2010PropOp52
 70
     0
102
RTVSPost2010Prop53
 90
        2
102
RTVSPost2010PropOp53
 70
     1
102
RTVSPost2010Prop54
  1
strokes_ogs.tif
102
RTVSPost2010PropOp54
 70
     1
102
RTVSPost2010Prop55
280
     0
102
RTVSPost2010PropOp55
 70
     1
102
RTVSPost2010Prop56
140
1.0
102
RTVSPost2010PropOp56
 70
     1
102
RTVSPost2010Prop57
140
1.0
102
RTVSPost2010PropOp57
 70
     1
  0
XRECORD
  5
267
102
{ACAD_REACTORS
330
266
102
}
330
266
100
AcDbXrecord
280
     1
102
RTVSPost2010Prop28
280
     0
102
RTVSPost2010PropOp28
 70
     1
102
RTVSPost2010Prop29
280
     1
102
RTVSPost2010PropOp29
 70
     1
102
RTVSPost2010Prop30
280
     1
102
RTVSPost2010PropOp30
 70
     1
102
RTVSPost2010Prop31
280
     0
102
RTVSPost2010PropOp31
 70
     1
102
RTVSPost2010Prop32
280
     0
102
RTVSPost2010PropOp32
 70
     1
102
RTVSPost2010Prop33
280
     0
102
RTVSPost2010PropOp33
 70
     1
102
RTVSPost2010Prop34
280
     0
102
RTVSPost2010PropOp34
 70
     1
102
RTVSPost2010Prop35
280
     0
102
RTVSPost2010PropOp35
 70
     1
102
RTVSPost2010Prop36
280
     0
102
RTVSPost2010PropOp36
 70
     1
102
RTVSPost2010Prop37
 90
       50
102
RTVSPost2010PropOp37
 70
     1
102
RTVSPost2010Prop38
140
0.0
102
RTVSPost2010PropOp38
 70
     1
102
RTVSPost2010Prop39
140
1.0
102
RTVSPost2010PropOp39
 70
     1
102
RTVSPost2010Prop40
 90
        0
102
RTVSPost2010PropOp40
 70
     1
102
RTVSPost2010Prop41ColorIndex
 90
       18
102
RTVSPost2010Prop41ColorRGB
 90
        0
102
RTVSPost2010PropOp41
 70
     1
102
RTVSPost2010Prop42
 90
       50
102
RTVSPost2010PropOp42
 70
     1
102
RTVSPost2010Prop43
 90
        3
102
RTVSPost2010PropOp43
 70
     1
102
RTVSPost2010Prop44ColorIndex
 90
        5
102
RTVSPost2010Prop44ColorRGB
 90
      255
102
RTVSPost2010PropOp44
 70
     1
102
RTVSPost2010Prop45
280
     0
102
RTVSPost2010PropOp45
 70
     1
102
RTVSPost2010Prop46
 90
       50
102
RTVSPost2010PropOp46
 70
     1
102
RTVSPost2010Prop47
 90
       50
102
RTVSPost2010PropOp47
 70
     1
102
RTVSPost2010Prop48
 90
       50
102
RTVSPost2010PropOp48
 70
     1
102
RTVSPost2010Prop49
280
     0
102
RTVSPost2010PropOp49
 70
     1
102
RTVSPost2010Prop50
 90
       50
102
RTVSPost2010PropOp50
 70
     1
102
RTVSPost2010Prop51ColorIndex
 90
      256
102
RTVSPost2010Prop51ColorRGB
 90
-16777216
102
RTVSPost2010PropOp51
 70
     0
102
RTVSPost2010Prop52
140
1.0
102
RTVSPost2010PropOp52
 70
     0
102
RTVSPost2010Prop53
 90
        2
102
RTVSPost2010PropOp53
 70
     1
102
RTVSPost2010Prop54
  1
strokes_ogs.tif
102
RTVSPost2010PropOp54
 70
     1
102
RTVSPost2010Prop55
280
     0
102
RTVSPost2010PropOp55
 70
     1
102
RTVSPost2010Prop56
140
1.0
102
RTVSPost2010PropOp56
 70
     1
102
RTVSPost2010Prop57
140
1.0
102
RTVSPost2010PropOp57
 70
     1
  0
XRECORD
  5
277
102
{ACAD_REACTORS
330
276
102
}
330
276
100
AcDbXrecord
280
     1
102
RTVSPost2010Prop28
280
     0
102
RTVSPost2010PropOp28
 70
     0
102
RTVSPost2010Prop29
280
     1
102
RTVSPost2010PropOp29
 70
     0
102
RTVSPost2010Prop30
280
     1
102
RTVSPost2010PropOp30
 70
     0
102
RTVSPost2010Prop31
280
     0
102
RTVSPost2010PropOp31
 70
     0
102
RTVSPost2010Prop32
280
     0
102
RTVSPost2010PropOp32
 70
     0
102
RTVSPost2010Prop33
280
     0
102
RTVSPost2010PropOp33
 70
     0
102
RTVSPost2010Prop34
280
     0
102
RTVSPost2010PropOp34
 70
     0
102
RTVSPost2010Prop35
280
     0
102
RTVSPost2010PropOp35
 70
     0
102
RTVSPost2010Prop36
280
     0
102
RTVSPost2010PropOp36
 70
     0
102
RTVSPost2010Prop37
 90
       50
102
RTVSPost2010PropOp37
 70
     0
102
RTVSPost2010Prop38
140
0.0
102
RTVSPost2010PropOp38
 70
     0
102
RTVSPost2010Prop39
140
1.0
102
RTVSPost2010PropOp39
 70
     0
102
RTVSPost2010Prop40
 90
        0
102
RTVSPost2010PropOp40
 70
     0
102
RTVSPost2010Prop41ColorIndex
 90
       18
102
RTVSPost2010Prop41ColorRGB
 90
        0
102
RTVSPost2010PropOp41
 70
     0
102
RTVSPost2010Prop42
 90
       50
102
RTVSPost2010PropOp42
 70
     0
102
RTVSPost2010Prop43
 90
        3
102
RTVSPost2010PropOp43
 70
     0
102
RTVSPost2010Prop44ColorIndex
 90
        5
102
RTVSPost2010Prop44ColorRGB
 90
      255
102
RTVSPost2010PropOp44
 70
     0
102
RTVSPost2010Prop45
280
     0
102
RTVSPost2010PropOp45
 70
     0
102
RTVSPost2010Prop46
 90
       50
102
RTVSPost2010PropOp46
 70
     0
102
RTVSPost2010Prop47
 90
       50
102
RTVSPost2010PropOp47
 70
     0
102
RTVSPost2010Prop48
 90
       50
102
RTVSPost2010PropOp48
 70
     0
102
RTVSPost2010Prop49
280
     0
102
RTVSPost2010PropOp49
 70
     0
102
RTVSPost2010Prop50
 90
       50
102
RTVSPost2010PropOp50
 70
     0
102
RTVSPost2010Prop51ColorIndex
 90
      256
102
RTVSPost2010Prop51ColorRGB
 90
-16777216
102
RTVSPost2010PropOp51
 70
     0
102
RTVSPost2010Prop52
140
1.0
102
RTVSPost2010PropOp52
 70
     0
102
RTVSPost2010Prop53
 90
        2
102
RTVSPost2010PropOp53
 70
     0
102
RTVSPost2010Prop54
  1
strokes_ogs.tif
102
RTVSPost2010PropOp54
 70
     0
102
RTVSPost2010Prop55
280
     0
102
RTVSPost2010PropOp55
 70
     0
102
RTVSPost2010Prop56
140
1.0
102
RTVSPost2010PropOp56
 70
     0
102
RTVSPost2010Prop57
140
1.0
102
RTVSPost2010PropOp57
 70
     0
  0
XRECORD
  5
26F
102
{ACAD_REACTORS
330
26E
102
}
330
26E
100
AcDbXrecord
280
     1
102
RTVSPost2010Prop28
280
     0
102
RTVSPost2010PropOp28
 70
     1
102
RTVSPost2010Prop29
280
     1
102
RTVSPost2010PropOp29
 70
     1
102
RTVSPost2010Prop30
280
     1
102
RTVSPost2010PropOp30
 70
     1
102
RTVSPost2010Prop31
280
     0
102
RTVSPost2010PropOp31
 70
     1
102
RTVSPost2010Prop32
280
     0
102
RTVSPost2010PropOp32
 70
     1
102
RTVSPost2010Prop33
280
     0
102
RTVSPost2010PropOp33
 70
     1
102
RTVSPost2010Prop34
280
     0
102
RTVSPost2010PropOp34
 70
     1
102
RTVSPost2010Prop35
280
     0
102
RTVSPost2010PropOp35
 70
     1
102
RTVSPost2010Prop36
280
     0
102
RTVSPost2010PropOp36
 70
     1
102
RTVSPost2010Prop37
 90
       50
102
RTVSPost2010PropOp37
 70
     1
102
RTVSPost2010Prop38
140
0.0
102
RTVSPost2010PropOp38
 70
     1
102
RTVSPost2010Prop39
140
1.0
102
RTVSPost2010PropOp39
 70
     1
102
RTVSPost2010Prop40
 90
        0
102
RTVSPost2010PropOp40
 70
     1
102
RTVSPost2010Prop41ColorIndex
 90
       18
102
RTVSPost2010Prop41ColorRGB
 90
        0
102
RTVSPost2010PropOp41
 70
     1
102
RTVSPost2010Prop42
 90
       50
102
RTVSPost2010PropOp42
 70
     1
102
RTVSPost2010Prop43
 90
        3
102
RTVSPost2010PropOp43
 70
     1
102
RTVSPost2010Prop44ColorIndex
 90
        5
102
RTVSPost2010Prop44ColorRGB
 90
      255
102
RTVSPost2010PropOp44
 70
     1
102
RTVSPost2010Prop45
280
     0
102
RTVSPost2010PropOp45
 70
     1
102
RTVSPost2010Prop46
 90
       50
102
RTVSPost2010PropOp46
 70
     1
102
RTVSPost2010Prop47
 90
       50
102
RTVSPost2010PropOp47
 70
     1
102
RTVSPost2010Prop48
 90
       50
102
RTVSPost2010PropOp48
 70
     1
102
RTVSPost2010Prop49
280
     0
102
RTVSPost2010PropOp49
 70
     1
102
RTVSPost2010Prop50
 90
       50
102
RTVSPost2010PropOp50
 70
     1
102
RTVSPost2010Prop51ColorIndex
 90
      256
102
RTVSPost2010Prop51ColorRGB
 90
-16777216
102
RTVSPost2010PropOp51
 70
     0
102
RTVSPost2010Prop52
140
1.0
102
RTVSPost2010PropOp52
 70
     0
102
RTVSPost2010Prop53
 90
        2
102
RTVSPost2010PropOp53
 70
     1
102
RTVSPost2010Prop54
  1
strokes_ogs.tif
102
RTVSPost2010PropOp54
 70
     1
102
RTVSPost2010Prop55
280
     0
102
RTVSPost2010PropOp55
 70
     1
102
RTVSPost2010Prop56
140
1.0
102
RTVSPost2010PropOp56
 70
     1
102
RTVSPost2010Prop57
140
1.0
102
RTVSPost2010PropOp57
 70
     1
  0
XRECORD
  5
253
102
{ACAD_REACTORS
330
252
102
}
330
252
100
AcDbXrecord
280
     1
102
RTVSPost2010Prop28
280
     0
102
RTVSPost2010PropOp28
 70
     1
102
RTVSPost2010Prop29
280
     1
102
RTVSPost2010PropOp29
 70
     1
102
RTVSPost2010Prop30
280
     1
102
RTVSPost2010PropOp30
 70
     1
102
RTVSPost2010Prop31
280
     0
102
RTVSPost2010PropOp31
 70
     1
102
RTVSPost2010Prop32
280
     0
102
RTVSPost2010PropOp32
 70
     1
102
RTVSPost2010Prop33
280
     0
102
RTVSPost2010PropOp33
 70
     1
102
RTVSPost2010Prop34
280
     0
102
RTVSPost2010PropOp34
 70
     1
102
RTVSPost2010Prop35
280
     0
102
RTVSPost2010PropOp35
 70
     1
102
RTVSPost2010Prop36
280
     0
102
RTVSPost2010PropOp36
 70
     1
102
RTVSPost2010Prop37
 90
       50
102
RTVSPost2010PropOp37
 70
     1
102
RTVSPost2010Prop38
140
0.0
102
RTVSPost2010PropOp38
 70
     1
102
RTVSPost2010Prop39
140
1.0
102
RTVSPost2010PropOp39
 70
     1
102
RTVSPost2010Prop40
 90
        0
102
RTVSPost2010PropOp40
 70
     1
102
RTVSPost2010Prop41ColorIndex
 90
       18
102
RTVSPost2010Prop41ColorRGB
 90
        0
102
RTVSPost2010PropOp41
 70
     1
102
RTVSPost2010Prop42
 90
       50
102
RTVSPost2010PropOp42
 70
     1
102
RTVSPost2010Prop43
 90
        3
102
RTVSPost2010PropOp43
 70
     1
102
RTVSPost2010Prop44ColorIndex
 90
        5
102
RTVSPost2010Prop44ColorRGB
 90
      255
102
RTVSPost2010PropOp44
 70
     1
102
RTVSPost2010Prop45
280
     0
102
RTVSPost2010PropOp45
 70
     1
102
RTVSPost2010Prop46
 90
       50
102
RTVSPost2010PropOp46
 70
     1
102
RTVSPost2010Prop47
 90
       50
102
RTVSPost2010PropOp47
 70
     1
102
RTVSPost2010Prop48
 90
       50
102
RTVSPost2010PropOp48
 70
     1
102
RTVSPost2010Prop49
280
     0
102
RTVSPost2010PropOp49
 70
     1
102
RTVSPost2010Prop50
 90
       50
102
RTVSPost2010PropOp50
 70
     1
102
RTVSPost2010Prop51ColorIndex
 90
      256
102
RTVSPost2010Prop51ColorRGB
 90
-16777216
102
RTVSPost2010PropOp51
 70
     0
102
RTVSPost2010Prop52
140
1.0
102
RTVSPost2010PropOp52
 70
     0
102
RTVSPost2010Prop53
 90
        2
102
RTVSPost2010PropOp53
 70
     1
102
RTVSPost2010Prop54
  1
strokes_ogs.tif
102
RTVSPost2010PropOp54
 70
     1
102
RTVSPost2010Prop55
280
     0
102
RTVSPost2010PropOp55
 70
     1
102
RTVSPost2010Prop56
140
1.0
102
RTVSPost2010PropOp56
 70
     1
102
RTVSPost2010Prop57
140
1.0
102
RTVSPost2010PropOp57
 70
     1
  0
XRECORD
  5
255
102
{ACAD_REACTORS
330
254
102
}
330
254
100
AcDbXrecord
280
     1
102
RTVSPost2010Prop28
280
     0
102
RTVSPost2010PropOp28
 70
     1
102
RTVSPost2010Prop29
280
     1
102
RTVSPost2010PropOp29
 70
     1
102
RTVSPost2010Prop30
280
     1
102
RTVSPost2010PropOp30
 70
     1
102
RTVSPost2010Prop31
280
     0
102
RTVSPost2010PropOp31
 70
     1
102
RTVSPost2010Prop32
280
     0
102
RTVSPost2010PropOp32
 70
     1
102
RTVSPost2010Prop33
280
     0
102
RTVSPost2010PropOp33
 70
     1
102
RTVSPost2010Prop34
280
     0
102
RTVSPost2010PropOp34
 70
     1
102
RTVSPost2010Prop35
280
     0
102
RTVSPost2010PropOp35
 70
     1
102
RTVSPost2010Prop36
280
     0
102
RTVSPost2010PropOp36
 70
     1
102
RTVSPost2010Prop37
 90
       50
102
RTVSPost2010PropOp37
 70
     1
102
RTVSPost2010Prop38
140
0.0
102
RTVSPost2010PropOp38
 70
     1
102
RTVSPost2010Prop39
140
1.0
102
RTVSPost2010PropOp39
 70
     1
102
RTVSPost2010Prop40
 90
        0
102
RTVSPost2010PropOp40
 70
     1
102
RTVSPost2010Prop41ColorIndex
 90
       18
102
RTVSPost2010Prop41ColorRGB
 90
        0
102
RTVSPost2010PropOp41
 70
     1
102
RTVSPost2010Prop42
 90
       50
102
RTVSPost2010PropOp42
 70
     1
102
RTVSPost2010Prop43
 90
        3
102
RTVSPost2010PropOp43
 70
     1
102
RTVSPost2010Prop44ColorIndex
 90
        5
102
RTVSPost2010Prop44ColorRGB
 90
      255
102
RTVSPost2010PropOp44
 70
     1
102
RTVSPost2010Prop45
280
     0
102
RTVSPost2010PropOp45
 70
     1
102
RTVSPost2010Prop46
 90
       50
102
RTVSPost2010PropOp46
 70
     1
102
RTVSPost2010Prop47
 90
       50
102
RTVSPost2010PropOp47
 70
     1
102
RTVSPost2010Prop48
 90
       50
102
RTVSPost2010PropOp48
 70
     1
102
RTVSPost2010Prop49
280
     0
102
RTVSPost2010PropOp49
 70
     1
102
RTVSPost2010Prop50
 90
       50
102
RTVSPost2010PropOp50
 70
     1
102
RTVSPost2010Prop51ColorIndex
 90
      256
102
RTVSPost2010Prop51ColorRGB
 90
-16777216
102
RTVSPost2010PropOp51
 70
     0
102
RTVSPost2010Prop52
140
1.0
102
RTVSPost2010PropOp52
 70
     0
102
RTVSPost2010Prop53
 90
        2
102
RTVSPost2010PropOp53
 70
     1
102
RTVSPost2010Prop54
  1
strokes_ogs.tif
102
RTVSPost2010PropOp54
 70
     1
102
RTVSPost2010Prop55
280
     0
102
RTVSPost2010PropOp55
 70
     1
102
RTVSPost2010Prop56
140
1.0
102
RTVSPost2010PropOp56
 70
     1
102
RTVSPost2010Prop57
140
1.0
102
RTVSPost2010PropOp57
 70
     1
  0
XRECORD
  5
257
102
{ACAD_REACTORS
330
256
102
}
330
256
100
AcDbXrecord
280
     1
102
RTVSPost2010Prop28
280
     0
102
RTVSPost2010PropOp28
 70
     1
102
RTVSPost2010Prop29
280
     1
102
RTVSPost2010PropOp29
 70
     1
102
RTVSPost2010Prop30
280
     1
102
RTVSPost2010PropOp30
 70
     1
102
RTVSPost2010Prop31
280
     0
102
RTVSPost2010PropOp31
 70
     1
102
RTVSPost2010Prop32
280
     0
102
RTVSPost2010PropOp32
 70
     1
102
RTVSPost2010Prop33
280
     0
102
RTVSPost2010PropOp33
 70
     1
102
RTVSPost2010Prop34
280
     0
102
RTVSPost2010PropOp34
 70
     1
102
RTVSPost2010Prop35
280
     0
102
RTVSPost2010PropOp35
 70
     1
102
RTVSPost2010Prop36
280
     0
102
RTVSPost2010PropOp36
 70
     1
102
RTVSPost2010Prop37
 90
       50
102
RTVSPost2010PropOp37
 70
     1
102
RTVSPost2010Prop38
140
0.0
102
RTVSPost2010PropOp38
 70
     1
102
RTVSPost2010Prop39
140
1.0
102
RTVSPost2010PropOp39
 70
     1
102
RTVSPost2010Prop40
 90
        0
102
RTVSPost2010PropOp40
 70
     1
102
RTVSPost2010Prop41ColorIndex
 90
       18
102
RTVSPost2010Prop41ColorRGB
 90
        0
102
RTVSPost2010PropOp41
 70
     1
102
RTVSPost2010Prop42
 90
       50
102
RTVSPost2010PropOp42
 70
     1
102
RTVSPost2010Prop43
 90
        3
102
RTVSPost2010PropOp43
 70
     1
102
RTVSPost2010Prop44ColorIndex
 90
        5
102
RTVSPost2010Prop44ColorRGB
 90
      255
102
RTVSPost2010PropOp44
 70
     1
102
RTVSPost2010Prop45
280
     0
102
RTVSPost2010PropOp45
 70
     1
102
RTVSPost2010Prop46
 90
       50
102
RTVSPost2010PropOp46
 70
     1
102
RTVSPost2010Prop47
 90
       50
102
RTVSPost2010PropOp47
 70
     1
102
RTVSPost2010Prop48
 90
       50
102
RTVSPost2010PropOp48
 70
     1
102
RTVSPost2010Prop49
280
     0
102
RTVSPost2010PropOp49
 70
     1
102
RTVSPost2010Prop50
 90
       50
102
RTVSPost2010PropOp50
 70
     1
102
RTVSPost2010Prop51ColorIndex
 90
      256
102
RTVSPost2010Prop51ColorRGB
 90
-16777216
102
RTVSPost2010PropOp51
 70
     0
102
RTVSPost2010Prop52
140
1.0
102
RTVSPost2010PropOp52
 70
     0
102
RTVSPost2010Prop53
 90
        2
102
RTVSPost2010PropOp53
 70
     1
102
RTVSPost2010Prop54
  1
strokes_ogs.tif
102
RTVSPost2010PropOp54
 70
     1
102
RTVSPost2010Prop55
280
     0
102
RTVSPost2010PropOp55
 70
     1
102
RTVSPost2010Prop56
140
1.0
102
RTVSPost2010PropOp56
 70
     1
102
RTVSPost2010Prop57
140
1.0
102
RTVSPost2010PropOp57
 70
     1
  0
XRECORD
  5
259
102
{ACAD_REACTORS
330
258
102
}
330
258
100
AcDbXrecord
280
     1
102
RTVSPost2010Prop28
280
     0
102
RTVSPost2010PropOp28
 70
     1
102
RTVSPost2010Prop29
280
     1
102
RTVSPost2010PropOp29
 70
     1
102
RTVSPost2010Prop30
280
     1
102
RTVSPost2010PropOp30
 70
     1
102
RTVSPost2010Prop31
280
     0
102
RTVSPost2010PropOp31
 70
     1
102
RTVSPost2010Prop32
280
     0
102
RTVSPost2010PropOp32
 70
     1
102
RTVSPost2010Prop33
280
     0
102
RTVSPost2010PropOp33
 70
     1
102
RTVSPost2010Prop34
280
     0
102
RTVSPost2010PropOp34
 70
     1
102
RTVSPost2010Prop35
280
     0
102
RTVSPost2010PropOp35
 70
     1
102
RTVSPost2010Prop36
280
     0
102
RTVSPost2010PropOp36
 70
     1
102
RTVSPost2010Prop37
 90
       50
102
RTVSPost2010PropOp37
 70
     1
102
RTVSPost2010Prop38
140
0.0
102
RTVSPost2010PropOp38
 70
     1
102
RTVSPost2010Prop39
140
1.0
102
RTVSPost2010PropOp39
 70
     1
102
RTVSPost2010Prop40
 90
        0
102
RTVSPost2010PropOp40
 70
     1
102
RTVSPost2010Prop41ColorIndex
 90
       18
102
RTVSPost2010Prop41ColorRGB
 90
        0
102
RTVSPost2010PropOp41
 70
     1
102
RTVSPost2010Prop42
 90
       50
102
RTVSPost2010PropOp42
 70
     1
102
RTVSPost2010Prop43
 90
        3
102
RTVSPost2010PropOp43
 70
     1
102
RTVSPost2010Prop44ColorIndex
 90
        5
102
RTVSPost2010Prop44ColorRGB
 90
      255
102
RTVSPost2010PropOp44
 70
     1
102
RTVSPost2010Prop45
280
     0
102
RTVSPost2010PropOp45
 70
     1
102
RTVSPost2010Prop46
 90
       50
102
RTVSPost2010PropOp46
 70
     1
102
RTVSPost2010Prop47
 90
       50
102
RTVSPost2010PropOp47
 70
     1
102
RTVSPost2010Prop48
 90
       50
102
RTVSPost2010PropOp48
 70
     1
102
RTVSPost2010Prop49
280
     0
102
RTVSPost2010PropOp49
 70
     1
102
RTVSPost2010Prop50
 90
       50
102
RTVSPost2010PropOp50
 70
     1
102
RTVSPost2010Prop51ColorIndex
 90
      256
102
RTVSPost2010Prop51ColorRGB
 90
-16777216
102
RTVSPost2010PropOp51
 70
     0
102
RTVSPost2010Prop52
140
1.0
102
RTVSPost2010PropOp52
 70
     0
102
RTVSPost2010Prop53
 90
        2
102
RTVSPost2010PropOp53
 70
     1
102
RTVSPost2010Prop54
  1
strokes_ogs.tif
102
RTVSPost2010PropOp54
 70
     1
102
RTVSPost2010Prop55
280
     0
102
RTVSPost2010PropOp55
 70
     1
102
RTVSPost2010Prop56
140
1.0
102
RTVSPost2010PropOp56
 70
     1
102
RTVSPost2010Prop57
140
1.0
102
RTVSPost2010PropOp57
 70
     1
  0
XRECORD
  5
25F
102
{ACAD_REACTORS
330
25E
102
}
330
25E
100
AcDbXrecord
280
     1
102
RTVSPost2010Prop28
280
     0
102
RTVSPost2010PropOp28
 70
     1
102
RTVSPost2010Prop29
280
     1
102
RTVSPost2010PropOp29
 70
     1
102
RTVSPost2010Prop30
280
     1
102
RTVSPost2010PropOp30
 70
     1
102
RTVSPost2010Prop31
280
     0
102
RTVSPost2010PropOp31
 70
     1
102
RTVSPost2010Prop32
280
     0
102
RTVSPost2010PropOp32
 70
     1
102
RTVSPost2010Prop33
280
     0
102
RTVSPost2010PropOp33
 70
     1
102
RTVSPost2010Prop34
280
     0
102
RTVSPost2010PropOp34
 70
     1
102
RTVSPost2010Prop35
280
     0
102
RTVSPost2010PropOp35
 70
     1
102
RTVSPost2010Prop36
280
     0
102
RTVSPost2010PropOp36
 70
     1
102
RTVSPost2010Prop37
 90
       50
102
RTVSPost2010PropOp37
 70
     1
102
RTVSPost2010Prop38
140
0.0
102
RTVSPost2010PropOp38
 70
     1
102
RTVSPost2010Prop39
140
1.0
102
RTVSPost2010PropOp39
 70
     1
102
RTVSPost2010Prop40
 90
        0
102
RTVSPost2010PropOp40
 70
     1
102
RTVSPost2010Prop41ColorIndex
 90
       18
102
RTVSPost2010Prop41ColorRGB
 90
        0
102
RTVSPost2010PropOp41
 70
     1
102
RTVSPost2010Prop42
 90
       50
102
RTVSPost2010PropOp42
 70
     1
102
RTVSPost2010Prop43
 90
        3
102
RTVSPost2010PropOp43
 70
     1
102
RTVSPost2010Prop44ColorIndex
 90
        5
102
RTVSPost2010Prop44ColorRGB
 90
      255
102
RTVSPost2010PropOp44
 70
     1
102
RTVSPost2010Prop45
280
     0
102
RTVSPost2010PropOp45
 70
     1
102
RTVSPost2010Prop46
 90
       50
102
RTVSPost2010PropOp46
 70
     1
102
RTVSPost2010Prop47
 90
       50
102
RTVSPost2010PropOp47
 70
     1
102
RTVSPost2010Prop48
 90
       50
102
RTVSPost2010PropOp48
 70
     1
102
RTVSPost2010Prop49
280
     0
102
RTVSPost2010PropOp49
 70
     1
102
RTVSPost2010Prop50
 90
       50
102
RTVSPost2010PropOp50
 70
     1
102
RTVSPost2010Prop51ColorIndex
 90
      256
102
RTVSPost2010Prop51ColorRGB
 90
-16777216
102
RTVSPost2010PropOp51
 70
     0
102
RTVSPost2010Prop52
140
1.0
102
RTVSPost2010PropOp52
 70
     0
102
RTVSPost2010Prop53
 90
        2
102
RTVSPost2010PropOp53
 70
     1
102
RTVSPost2010Prop54
  1
strokes_ogs.tif
102
RTVSPost2010PropOp54
 70
     1
102
RTVSPost2010Prop55
280
     0
102
RTVSPost2010PropOp55
 70
     1
102
RTVSPost2010Prop56
140
1.0
102
RTVSPost2010PropOp56
 70
     1
102
RTVSPost2010Prop57
140
1.0
102
RTVSPost2010PropOp57
 70
     1
  0
XRECORD
  5
273
102
{ACAD_REACTORS
330
272
102
}
330
272
100
AcDbXrecord
280
     1
102
RTVSPost2010Prop28
280
     0
102
RTVSPost2010PropOp28
 70
     0
102
RTVSPost2010Prop29
280
     1
102
RTVSPost2010PropOp29
 70
     0
102
RTVSPost2010Prop30
280
     1
102
RTVSPost2010PropOp30
 70
     0
102
RTVSPost2010Prop31
280
     0
102
RTVSPost2010PropOp31
 70
     0
102
RTVSPost2010Prop32
280
     0
102
RTVSPost2010PropOp32
 70
     0
102
RTVSPost2010Prop33
280
     0
102
RTVSPost2010PropOp33
 70
     0
102
RTVSPost2010Prop34
280
     0
102
RTVSPost2010PropOp34
 70
     0
102
RTVSPost2010Prop35
280
     0
102
RTVSPost2010PropOp35
 70
     0
102
RTVSPost2010Prop36
280
     0
102
RTVSPost2010PropOp36
 70
     0
102
RTVSPost2010Prop37
 90
       50
102
RTVSPost2010PropOp37
 70
     0
102
RTVSPost2010Prop38
140
0.0
102
RTVSPost2010PropOp38
 70
     0
102
RTVSPost2010Prop39
140
1.0
102
RTVSPost2010PropOp39
 70
     0
102
RTVSPost2010Prop40
 90
        0
102
RTVSPost2010PropOp40
 70
     0
102
RTVSPost2010Prop41ColorIndex
 90
       18
102
RTVSPost2010Prop41ColorRGB
 90
        0
102
RTVSPost2010PropOp41
 70
     0
102
RTVSPost2010Prop42
 90
       50
102
RTVSPost2010PropOp42
 70
     0
102
RTVSPost2010Prop43
 90
        3
102
RTVSPost2010PropOp43
 70
     0
102
RTVSPost2010Prop44ColorIndex
 90
        5
102
RTVSPost2010Prop44ColorRGB
 90
      255
102
RTVSPost2010PropOp44
 70
     0
102
RTVSPost2010Prop45
280
     0
102
RTVSPost2010PropOp45
 70
     0
102
RTVSPost2010Prop46
 90
       50
102
RTVSPost2010PropOp46
 70
     0
102
RTVSPost2010Prop47
 90
       50
102
RTVSPost2010PropOp47
 70
     0
102
RTVSPost2010Prop48
 90
       50
102
RTVSPost2010PropOp48
 70
     0
102
RTVSPost2010Prop49
280
     0
102
RTVSPost2010PropOp49
 70
     0
102
RTVSPost2010Prop50
 90
       50
102
RTVSPost2010PropOp50
 70
     0
102
RTVSPost2010Prop51ColorIndex
 90
      256
102
RTVSPost2010Prop51ColorRGB
 90
-16777216
102
RTVSPost2010PropOp51
 70
     0
102
RTVSPost2010Prop52
140
1.0
102
RTVSPost2010PropOp52
 70
     0
102
RTVSPost2010Prop53
 90
        2
102
RTVSPost2010PropOp53
 70
     0
102
RTVSPost2010Prop54
  1
strokes_ogs.tif
102
RTVSPost2010PropOp54
 70
     0
102
RTVSPost2010Prop55
280
     0
102
RTVSPost2010PropOp55
 70
     0
102
RTVSPost2010Prop56
140
1.0
102
RTVSPost2010PropOp56
 70
     0
102
RTVSPost2010Prop57
140
1.0
102
RTVSPost2010PropOp57
 70
     0
  0
XRECORD
  5
26D
102
{ACAD_REACTORS
330
26C
102
}
330
26C
100
AcDbXrecord
280
     1
102
RTVSPost2010Prop28
280
     0
102
RTVSPost2010PropOp28
 70
     1
102
RTVSPost2010Prop29
280
     1
102
RTVSPost2010PropOp29
 70
     1
102
RTVSPost2010Prop30
280
     1
102
RTVSPost2010PropOp30
 70
     1
102
RTVSPost2010Prop31
280
     0
102
RTVSPost2010PropOp31
 70
     1
102
RTVSPost2010Prop32
280
     0
102
RTVSPost2010PropOp32
 70
     1
102
RTVSPost2010Prop33
280
     0
102
RTVSPost2010PropOp33
 70
     1
102
RTVSPost2010Prop34
280
     0
102
RTVSPost2010PropOp34
 70
     1
102
RTVSPost2010Prop35
280
     0
102
RTVSPost2010PropOp35
 70
     1
102
RTVSPost2010Prop36
280
     0
102
RTVSPost2010PropOp36
 70
     1
102
RTVSPost2010Prop37
 90
       50
102
RTVSPost2010PropOp37
 70
     1
102
RTVSPost2010Prop38
140
0.0
102
RTVSPost2010PropOp38
 70
     1
102
RTVSPost2010Prop39
140
1.0
102
RTVSPost2010PropOp39
 70
     1
102
RTVSPost2010Prop40
 90
        0
102
RTVSPost2010PropOp40
 70
     1
102
RTVSPost2010Prop41ColorIndex
 90
       18
102
RTVSPost2010Prop41ColorRGB
 90
        0
102
RTVSPost2010PropOp41
 70
     1
102
RTVSPost2010Prop42
 90
       50
102
RTVSPost2010PropOp42
 70
     1
102
RTVSPost2010Prop43
 90
        3
102
RTVSPost2010PropOp43
 70
     1
102
RTVSPost2010Prop44ColorIndex
 90
        5
102
RTVSPost2010Prop44ColorRGB
 90
      255
102
RTVSPost2010PropOp44
 70
     1
102
RTVSPost2010Prop45
280
     0
102
RTVSPost2010PropOp45
 70
     1
102
RTVSPost2010Prop46
 90
       50
102
RTVSPost2010PropOp46
 70
     1
102
RTVSPost2010Prop47
 90
       50
102
RTVSPost2010PropOp47
 70
     1
102
RTVSPost2010Prop48
 90
       50
102
RTVSPost2010PropOp48
 70
     1
102
RTVSPost2010Prop49
280
     0
102
RTVSPost2010PropOp49
 70
     1
102
RTVSPost2010Prop50
 90
       50
102
RTVSPost2010PropOp50
 70
     1
102
RTVSPost2010Prop51ColorIndex
 90
      256
102
RTVSPost2010Prop51ColorRGB
 90
-16777216
102
RTVSPost2010PropOp51
 70
     0
102
RTVSPost2010Prop52
140
1.0
102
RTVSPost2010PropOp52
 70
     0
102
RTVSPost2010Prop53
 90
        2
102
RTVSPost2010PropOp53
 70
     1
102
RTVSPost2010Prop54
  1
strokes_ogs.tif
102
RTVSPost2010PropOp54
 70
     1
102
RTVSPost2010Prop55
280
     0
102
RTVSPost2010PropOp55
 70
     1
102
RTVSPost2010Prop56
140
1.0
102
RTVSPost2010PropOp56
 70
     1
102
RTVSPost2010Prop57
140
1.0
102
RTVSPost2010PropOp57
 70
     1
  0
XRECORD
  5
275
102
{ACAD_REACTORS
330
274
102
}
330
274
100
AcDbXrecord
280
     1
102
RTVSPost2010Prop28
280
     0
102
RTVSPost2010PropOp28
 70
     0
102
RTVSPost2010Prop29
280
     1
102
RTVSPost2010PropOp29
 70
     0
102
RTVSPost2010Prop30
280
     1
102
RTVSPost2010PropOp30
 70
     0
102
RTVSPost2010Prop31
280
     0
102
RTVSPost2010PropOp31
 70
     0
102
RTVSPost2010Prop32
280
     0
102
RTVSPost2010PropOp32
 70
     0
102
RTVSPost2010Prop33
280
     0
102
RTVSPost2010PropOp33
 70
     0
102
RTVSPost2010Prop34
280
     0
102
RTVSPost2010PropOp34
 70
     0
102
RTVSPost2010Prop35
280
     0
102
RTVSPost2010PropOp35
 70
     0
102
RTVSPost2010Prop36
280
     0
102
RTVSPost2010PropOp36
 70
     0
102
RTVSPost2010Prop37
 90
       50
102
RTVSPost2010PropOp37
 70
     0
102
RTVSPost2010Prop38
140
0.0
102
RTVSPost2010PropOp38
 70
     0
102
RTVSPost2010Prop39
140
1.0
102
RTVSPost2010PropOp39
 70
     0
102
RTVSPost2010Prop40
 90
        0
102
RTVSPost2010PropOp40
 70
     0
102
RTVSPost2010Prop41ColorIndex
 90
       18
102
RTVSPost2010Prop41ColorRGB
 90
        0
102
RTVSPost2010PropOp41
 70
     0
102
RTVSPost2010Prop42
 90
       50
102
RTVSPost2010PropOp42
 70
     0
102
RTVSPost2010Prop43
 90
        3
102
RTVSPost2010PropOp43
 70
     0
102
RTVSPost2010Prop44ColorIndex
 90
        5
102
RTVSPost2010Prop44ColorRGB
 90
      255
102
RTVSPost2010PropOp44
 70
     0
102
RTVSPost2010Prop45
280
     0
102
RTVSPost2010PropOp45
 70
     0
102
RTVSPost2010Prop46
 90
       50
102
RTVSPost2010PropOp46
 70
     0
102
RTVSPost2010Prop47
 90
       50
102
RTVSPost2010PropOp47
 70
     0
102
RTVSPost2010Prop48
 90
       50
102
RTVSPost2010PropOp48
 70
     0
102
RTVSPost2010Prop49
280
     0
102
RTVSPost2010PropOp49
 70
     0
102
RTVSPost2010Prop50
 90
       50
102
RTVSPost2010PropOp50
 70
     0
102
RTVSPost2010Prop51ColorIndex
 90
      256
102
RTVSPost2010Prop51ColorRGB
 90
-16777216
102
RTVSPost2010PropOp51
 70
     0
102
RTVSPost2010Prop52
140
1.0
102
RTVSPost2010PropOp52
 70
     0
102
RTVSPost2010Prop53
 90
        2
102
RTVSPost2010PropOp53
 70
     0
102
RTVSPost2010Prop54
  1
strokes_ogs.tif
102
RTVSPost2010PropOp54
 70
     0
102
RTVSPost2010Prop55
280
     0
102
RTVSPost2010PropOp55
 70
     0
102
RTVSPost2010Prop56
140
1.0
102
RTVSPost2010PropOp56
 70
     0
102
RTVSPost2010Prop57
140
1.0
102
RTVSPost2010PropOp57
 70
     0
  0
XRECORD
  5
263
102
{ACAD_REACTORS
330
262
102
}
330
262
100
AcDbXrecord
280
     1
102
RTVSPost2010Prop28
280
     0
102
RTVSPost2010PropOp28
 70
     1
102
RTVSPost2010Prop29
280
     1
102
RTVSPost2010PropOp29
 70
     1
102
RTVSPost2010Prop30
280
     1
102
RTVSPost2010PropOp30
 70
     1
102
RTVSPost2010Prop31
280
     0
102
RTVSPost2010PropOp31
 70
     1
102
RTVSPost2010Prop32
280
     0
102
RTVSPost2010PropOp32
 70
     1
102
RTVSPost2010Prop33
280
     0
102
RTVSPost2010PropOp33
 70
     1
102
RTVSPost2010Prop34
280
     0
102
RTVSPost2010PropOp34
 70
     1
102
RTVSPost2010Prop35
280
     0
102
RTVSPost2010PropOp35
 70
     1
102
RTVSPost2010Prop36
280
     0
102
RTVSPost2010PropOp36
 70
     1
102
RTVSPost2010Prop37
 90
       50
102
RTVSPost2010PropOp37
 70
     1
102
RTVSPost2010Prop38
140
0.0
102
RTVSPost2010PropOp38
 70
     1
102
RTVSPost2010Prop39
140
1.0
102
RTVSPost2010PropOp39
 70
     1
102
RTVSPost2010Prop40
 90
        0
102
RTVSPost2010PropOp40
 70
     1
102
RTVSPost2010Prop41ColorIndex
 90
       18
102
RTVSPost2010Prop41ColorRGB
 90
        0
102
RTVSPost2010PropOp41
 70
     1
102
RTVSPost2010Prop42
 90
       50
102
RTVSPost2010PropOp42
 70
     1
102
RTVSPost2010Prop43
 90
        3
102
RTVSPost2010PropOp43
 70
     1
102
RTVSPost2010Prop44ColorIndex
 90
        5
102
RTVSPost2010Prop44ColorRGB
 90
      255
102
RTVSPost2010PropOp44
 70
     1
102
RTVSPost2010Prop45
280
     0
102
RTVSPost2010PropOp45
 70
     1
102
RTVSPost2010Prop46
 90
       50
102
RTVSPost2010PropOp46
 70
     1
102
RTVSPost2010Prop47
 90
       50
102
RTVSPost2010PropOp47
 70
     1
102
RTVSPost2010Prop48
 90
       50
102
RTVSPost2010PropOp48
 70
     1
102
RTVSPost2010Prop49
280
     0
102
RTVSPost2010PropOp49
 70
     1
102
RTVSPost2010Prop50
 90
       50
102
RTVSPost2010PropOp50
 70
     1
102
RTVSPost2010Prop51ColorIndex
 90
      256
102
RTVSPost2010Prop51ColorRGB
 90
-16777216
102
RTVSPost2010PropOp51
 70
     0
102
RTVSPost2010Prop52
140
1.0
102
RTVSPost2010PropOp52
 70
     0
102
RTVSPost2010Prop53
 90
        2
102
RTVSPost2010PropOp53
 70
     1
102
RTVSPost2010Prop54
  1
strokes_ogs.tif
102
RTVSPost2010PropOp54
 70
     1
102
RTVSPost2010Prop55
280
     0
102
RTVSPost2010PropOp55
 70
     1
102
RTVSPost2010Prop56
140
1.0
102
RTVSPost2010PropOp56
 70
     1
102
RTVSPost2010Prop57
140
1.0
102
RTVSPost2010PropOp57
 70
     1
  0
XRECORD
  5
281
102
{ACAD_REACTORS
330
280
102
}
330
280
100
AcDbXrecord
280
     1
102
RTVSPost2010Prop28
280
     0
102
RTVSPost2010PropOp28
 70
     1
102
RTVSPost2010Prop29
280
     1
102
RTVSPost2010PropOp29
 70
     1
102
RTVSPost2010Prop30
280
     1
102
RTVSPost2010PropOp30
 70
     1
102
RTVSPost2010Prop31
280
     0
102
RTVSPost2010PropOp31
 70
     1
102
RTVSPost2010Prop32
280
     0
102
RTVSPost2010PropOp32
 70
     1
102
RTVSPost2010Prop33
280
     0
102
RTVSPost2010PropOp33
 70
     1
102
RTVSPost2010Prop34
280
     0
102
RTVSPost2010PropOp34
 70
     1
102
RTVSPost2010Prop35
280
     0
102
RTVSPost2010PropOp35
 70
     1
102
RTVSPost2010Prop36
280
     0
102
RTVSPost2010PropOp36
 70
     1
102
RTVSPost2010Prop37
 90
       50
102
RTVSPost2010PropOp37
 70
     1
102
RTVSPost2010Prop38
140
0.0
102
RTVSPost2010PropOp38
 70
     1
102
RTVSPost2010Prop39
140
1.0
102
RTVSPost2010PropOp39
 70
     1
102
RTVSPost2010Prop40
 90
        0
102
RTVSPost2010PropOp40
 70
     1
102
RTVSPost2010Prop41ColorIndex
 90
       18
102
RTVSPost2010Prop41ColorRGB
 90
        0
102
RTVSPost2010PropOp41
 70
     1
102
RTVSPost2010Prop42
 90
       50
102
RTVSPost2010PropOp42
 70
     1
102
RTVSPost2010Prop43
 90
        3
102
RTVSPost2010PropOp43
 70
     1
102
RTVSPost2010Prop44ColorIndex
 90
        5
102
RTVSPost2010Prop44ColorRGB
 90
      255
102
RTVSPost2010PropOp44
 70
     1
102
RTVSPost2010Prop45
280
     0
102
RTVSPost2010PropOp45
 70
     1
102
RTVSPost2010Prop46
 90
       50
102
RTVSPost2010PropOp46
 70
     1
102
RTVSPost2010Prop47
 90
       50
102
RTVSPost2010PropOp47
 70
     1
102
RTVSPost2010Prop48
 90
       50
102
RTVSPost2010PropOp48
 70
     1
102
RTVSPost2010Prop49
280
     0
102
RTVSPost2010PropOp49
 70
     1
102
RTVSPost2010Prop50
 90
       50
102
RTVSPost2010PropOp50
 70
     1
102
RTVSPost2010Prop51ColorIndex
 90
      256
102
RTVSPost2010Prop51ColorRGB
 90
-16777216
102
RTVSPost2010PropOp51
 70
     0
102
RTVSPost2010Prop52
140
1.0
102
RTVSPost2010PropOp52
 70
     0
102
RTVSPost2010Prop53
 90
        2
102
RTVSPost2010PropOp53
 70
     1
102
RTVSPost2010Prop54
  1
strokes_ogs.tif
102
RTVSPost2010PropOp54
 70
     1
102
RTVSPost2010Prop55
280
     0
102
RTVSPost2010PropOp55
 70
     1
102
RTVSPost2010Prop56
140
1.0
102
RTVSPost2010PropOp56
 70
     1
102
RTVSPost2010Prop57
140
1.0
102
RTVSPost2010PropOp57
 70
     1
  0
XRECORD
  5
27F
102
{ACAD_REACTORS
330
27E
102
}
330
27E
100
AcDbXrecord
280
     1
102
RTVSPost2010Prop28
280
     0
102
RTVSPost2010PropOp28
 70
     1
102
RTVSPost2010Prop29
280
     1
102
RTVSPost2010PropOp29
 70
     1
102
RTVSPost2010Prop30
280
     1
102
RTVSPost2010PropOp30
 70
     1
102
RTVSPost2010Prop31
280
     0
102
RTVSPost2010PropOp31
 70
     1
102
RTVSPost2010Prop32
280
     0
102
RTVSPost2010PropOp32
 70
     1
102
RTVSPost2010Prop33
280
     0
102
RTVSPost2010PropOp33
 70
     1
102
RTVSPost2010Prop34
280
     0
102
RTVSPost2010PropOp34
 70
     1
102
RTVSPost2010Prop35
280
     0
102
RTVSPost2010PropOp35
 70
     1
102
RTVSPost2010Prop36
280
     0
102
RTVSPost2010PropOp36
 70
     1
102
RTVSPost2010Prop37
 90
       50
102
RTVSPost2010PropOp37
 70
     1
102
RTVSPost2010Prop38
140
0.0
102
RTVSPost2010PropOp38
 70
     1
102
RTVSPost2010Prop39
140
1.0
102
RTVSPost2010PropOp39
 70
     1
102
RTVSPost2010Prop40
 90
        0
102
RTVSPost2010PropOp40
 70
     1
102
RTVSPost2010Prop41ColorIndex
 90
       18
102
RTVSPost2010Prop41ColorRGB
 90
        0
102
RTVSPost2010PropOp41
 70
     1
102
RTVSPost2010Prop42
 90
       50
102
RTVSPost2010PropOp42
 70
     1
102
RTVSPost2010Prop43
 90
        3
102
RTVSPost2010PropOp43
 70
     1
102
RTVSPost2010Prop44ColorIndex
 90
        5
102
RTVSPost2010Prop44ColorRGB
 90
      255
102
RTVSPost2010PropOp44
 70
     1
102
RTVSPost2010Prop45
280
     0
102
RTVSPost2010PropOp45
 70
     1
102
RTVSPost2010Prop46
 90
       50
102
RTVSPost2010PropOp46
 70
     1
102
RTVSPost2010Prop47
 90
       50
102
RTVSPost2010PropOp47
 70
     1
102
RTVSPost2010Prop48
 90
       50
102
RTVSPost2010PropOp48
 70
     1
102
RTVSPost2010Prop49
280
     0
102
RTVSPost2010PropOp49
 70
     1
102
RTVSPost2010Prop50
 90
       50
102
RTVSPost2010PropOp50
 70
     1
102
RTVSPost2010Prop51ColorIndex
 90
      256
102
RTVSPost2010Prop51ColorRGB
 90
-16777216
102
RTVSPost2010PropOp51
 70
     0
102
RTVSPost2010Prop52
140
1.0
102
RTVSPost2010PropOp52
 70
     0
102
RTVSPost2010Prop53
 90
        2
102
RTVSPost2010PropOp53
 70
     1
102
RTVSPost2010Prop54
  1
strokes_ogs.tif
102
RTVSPost2010PropOp54
 70
     1
102
RTVSPost2010Prop55
280
     0
102
RTVSPost2010PropOp55
 70
     1
102
RTVSPost2010Prop56
140
1.0
102
RTVSPost2010PropOp56
 70
     1
102
RTVSPost2010Prop57
140
1.0
102
RTVSPost2010PropOp57
 70
     1
  0
XRECORD
  5
279
102
{ACAD_REACTORS
330
278
102
}
330
278
100
AcDbXrecord
280
     1
102
RTVSPost2010Prop28
280
     0
102
RTVSPost2010PropOp28
 70
     1
102
RTVSPost2010Prop29
280
     1
102
RTVSPost2010PropOp29
 70
     1
102
RTVSPost2010Prop30
280
     1
102
RTVSPost2010PropOp30
 70
     1
102
RTVSPost2010Prop31
280
     0
102
RTVSPost2010PropOp31
 70
     1
102
RTVSPost2010Prop32
280
     0
102
RTVSPost2010PropOp32
 70
     1
102
RTVSPost2010Prop33
280
     0
102
RTVSPost2010PropOp33
 70
     1
102
RTVSPost2010Prop34
280
     0
102
RTVSPost2010PropOp34
 70
     1
102
RTVSPost2010Prop35
280
     0
102
RTVSPost2010PropOp35
 70
     1
102
RTVSPost2010Prop36
280
     0
102
RTVSPost2010PropOp36
 70
     1
102
RTVSPost2010Prop37
 90
       50
102
RTVSPost2010PropOp37
 70
     1
102
RTVSPost2010Prop38
140
0.0
102
RTVSPost2010PropOp38
 70
     1
102
RTVSPost2010Prop39
140
1.0
102
RTVSPost2010PropOp39
 70
     1
102
RTVSPost2010Prop40
 90
        0
102
RTVSPost2010PropOp40
 70
     1
102
RTVSPost2010Prop41ColorIndex
 90
       18
102
RTVSPost2010Prop41ColorRGB
 90
        0
102
RTVSPost2010PropOp41
 70
     1
102
RTVSPost2010Prop42
 90
       50
102
RTVSPost2010PropOp42
 70
     1
102
RTVSPost2010Prop43
 90
        3
102
RTVSPost2010PropOp43
 70
     1
102
RTVSPost2010Prop44ColorIndex
 90
        5
102
RTVSPost2010Prop44ColorRGB
 90
      255
102
RTVSPost2010PropOp44
 70
     1
102
RTVSPost2010Prop45
280
     0
102
RTVSPost2010PropOp45
 70
     1
102
RTVSPost2010Prop46
 90
       50
102
RTVSPost2010PropOp46
 70
     1
102
RTVSPost2010Prop47
 90
       50
102
RTVSPost2010PropOp47
 70
     1
102
RTVSPost2010Prop48
 90
       50
102
RTVSPost2010PropOp48
 70
     1
102
RTVSPost2010Prop49
280
     0
102
RTVSPost2010PropOp49
 70
     1
102
RTVSPost2010Prop50
 90
       50
102
RTVSPost2010PropOp50
 70
     1
102
RTVSPost2010Prop51ColorIndex
 90
      256
102
RTVSPost2010Prop51ColorRGB
 90
-16777216
102
RTVSPost2010PropOp51
 70
     0
102
RTVSPost2010Prop52
140
1.0
102
RTVSPost2010PropOp52
 70
     0
102
RTVSPost2010Prop53
 90
        2
102
RTVSPost2010PropOp53
 70
     1
102
RTVSPost2010Prop54
  1
strokes_ogs.tif
102
RTVSPost2010PropOp54
 70
     1
102
RTVSPost2010Prop55
280
     0
102
RTVSPost2010PropOp55
 70
     1
102
RTVSPost2010Prop56
140
1.0
102
RTVSPost2010PropOp56
 70
     1
102
RTVSPost2010Prop57
140
1.0
102
RTVSPost2010PropOp57
 70
     1
  0
XRECORD
  5
27B
102
{ACAD_REACTORS
330
27A
102
}
330
27A
100
AcDbXrecord
280
     1
102
RTVSPost2010Prop28
280
     0
102
RTVSPost2010PropOp28
 70
     1
102
RTVSPost2010Prop29
280
     1
102
RTVSPost2010PropOp29
 70
     1
102
RTVSPost2010Prop30
280
     1
102
RTVSPost2010PropOp30
 70
     1
102
RTVSPost2010Prop31
280
     0
102
RTVSPost2010PropOp31
 70
     1
102
RTVSPost2010Prop32
280
     0
102
RTVSPost2010PropOp32
 70
     1
102
RTVSPost2010Prop33
280
     0
102
RTVSPost2010PropOp33
 70
     1
102
RTVSPost2010Prop34
280
     0
102
RTVSPost2010PropOp34
 70
     1
102
RTVSPost2010Prop35
280
     0
102
RTVSPost2010PropOp35
 70
     1
102
RTVSPost2010Prop36
280
     0
102
RTVSPost2010PropOp36
 70
     1
102
RTVSPost2010Prop37
 90
       50
102
RTVSPost2010PropOp37
 70
     1
102
RTVSPost2010Prop38
140
0.0
102
RTVSPost2010PropOp38
 70
     1
102
RTVSPost2010Prop39
140
1.0
102
RTVSPost2010PropOp39
 70
     1
102
RTVSPost2010Prop40
 90
        0
102
RTVSPost2010PropOp40
 70
     1
102
RTVSPost2010Prop41ColorIndex
 90
       18
102
RTVSPost2010Prop41ColorRGB
 90
        0
102
RTVSPost2010PropOp41
 70
     1
102
RTVSPost2010Prop42
 90
       50
102
RTVSPost2010PropOp42
 70
     1
102
RTVSPost2010Prop43
 90
        3
102
RTVSPost2010PropOp43
 70
     1
102
RTVSPost2010Prop44ColorIndex
 90
        5
102
RTVSPost2010Prop44ColorRGB
 90
      255
102
RTVSPost2010PropOp44
 70
     1
102
RTVSPost2010Prop45
280
     0
102
RTVSPost2010PropOp45
 70
     1
102
RTVSPost2010Prop46
 90
       50
102
RTVSPost2010PropOp46
 70
     1
102
RTVSPost2010Prop47
 90
       50
102
RTVSPost2010PropOp47
 70
     1
102
RTVSPost2010Prop48
 90
       50
102
RTVSPost2010PropOp48
 70
     1
102
RTVSPost2010Prop49
280
     0
102
RTVSPost2010PropOp49
 70
     1
102
RTVSPost2010Prop50
 90
       50
102
RTVSPost2010PropOp50
 70
     1
102
RTVSPost2010Prop51ColorIndex
 90
      256
102
RTVSPost2010Prop51ColorRGB
 90
-16777216
102
RTVSPost2010PropOp51
 70
     0
102
RTVSPost2010Prop52
140
1.0
102
RTVSPost2010PropOp52
 70
     0
102
RTVSPost2010Prop53
 90
        2
102
RTVSPost2010PropOp53
 70
     1
102
RTVSPost2010Prop54
  1
strokes_ogs.tif
102
RTVSPost2010PropOp54
 70
     1
102
RTVSPost2010Prop55
280
     0
102
RTVSPost2010PropOp55
 70
     1
102
RTVSPost2010Prop56
140
1.0
102
RTVSPost2010PropOp56
 70
     1
102
RTVSPost2010Prop57
140
1.0
102
RTVSPost2010PropOp57
 70
     1
  0
XRECORD
  5
26B
102
{ACAD_REACTORS
330
26A
102
}
330
26A
100
AcDbXrecord
280
     1
102
RTVSPost2010Prop28
280
     0
102
RTVSPost2010PropOp28
 70
     1
102
RTVSPost2010Prop29
280
     1
102
RTVSPost2010PropOp29
 70
     1
102
RTVSPost2010Prop30
280
     1
102
RTVSPost2010PropOp30
 70
     1
102
RTVSPost2010Prop31
280
     0
102
RTVSPost2010PropOp31
 70
     1
102
RTVSPost2010Prop32
280
     0
102
RTVSPost2010PropOp32
 70
     1
102
RTVSPost2010Prop33
280
     0
102
RTVSPost2010PropOp33
 70
     1
102
RTVSPost2010Prop34
280
     0
102
RTVSPost2010PropOp34
 70
     1
102
RTVSPost2010Prop35
280
     0
102
RTVSPost2010PropOp35
 70
     1
102
RTVSPost2010Prop36
280
     0
102
RTVSPost2010PropOp36
 70
     1
102
RTVSPost2010Prop37
 90
       50
102
RTVSPost2010PropOp37
 70
     1
102
RTVSPost2010Prop38
140
0.0
102
RTVSPost2010PropOp38
 70
     1
102
RTVSPost2010Prop39
140
1.0
102
RTVSPost2010PropOp39
 70
     1
102
RTVSPost2010Prop40
 90
        0
102
RTVSPost2010PropOp40
 70
     1
102
RTVSPost2010Prop41ColorIndex
 90
       18
102
RTVSPost2010Prop41ColorRGB
 90
        0
102
RTVSPost2010PropOp41
 70
     1
102
RTVSPost2010Prop42
 90
       50
102
RTVSPost2010PropOp42
 70
     1
102
RTVSPost2010Prop43
 90
        3
102
RTVSPost2010PropOp43
 70
     1
102
RTVSPost2010Prop44ColorIndex
 90
        5
102
RTVSPost2010Prop44ColorRGB
 90
      255
102
RTVSPost2010PropOp44
 70
     1
102
RTVSPost2010Prop45
280
     0
102
RTVSPost2010PropOp45
 70
     1
102
RTVSPost2010Prop46
 90
       50
102
RTVSPost2010PropOp46
 70
     1
102
RTVSPost2010Prop47
 90
       50
102
RTVSPost2010PropOp47
 70
     1
102
RTVSPost2010Prop48
 90
       50
102
RTVSPost2010PropOp48
 70
     1
102
RTVSPost2010Prop49
280
     0
102
RTVSPost2010PropOp49
 70
     1
102
RTVSPost2010Prop50
 90
       50
102
RTVSPost2010PropOp50
 70
     1
102
RTVSPost2010Prop51ColorIndex
 90
      256
102
RTVSPost2010Prop51ColorRGB
 90
-16777216
102
RTVSPost2010PropOp51
 70
     0
102
RTVSPost2010Prop52
140
1.0
102
RTVSPost2010PropOp52
 70
     0
102
RTVSPost2010Prop53
 90
        2
102
RTVSPost2010PropOp53
 70
     1
102
RTVSPost2010Prop54
  1
strokes_ogs.tif
102
RTVSPost2010PropOp54
 70
     1
102
RTVSPost2010Prop55
280
     0
102
RTVSPost2010PropOp55
 70
     1
102
RTVSPost2010Prop56
140
1.0
102
RTVSPost2010PropOp56
 70
     1
102
RTVSPost2010Prop57
140
1.0
102
RTVSPost2010PropOp57
 70
     1
  0
XRECORD
  5
25D
102
{ACAD_REACTORS
330
25C
102
}
330
25C
100
AcDbXrecord
280
     1
102
RTVSPost2010Prop28
280
     0
102
RTVSPost2010PropOp28
 70
     1
102
RTVSPost2010Prop29
280
     1
102
RTVSPost2010PropOp29
 70
     1
102
RTVSPost2010Prop30
280
     1
102
RTVSPost2010PropOp30
 70
     1
102
RTVSPost2010Prop31
280
     0
102
RTVSPost2010PropOp31
 70
     1
102
RTVSPost2010Prop32
280
     0
102
RTVSPost2010PropOp32
 70
     1
102
RTVSPost2010Prop33
280
     0
102
RTVSPost2010PropOp33
 70
     1
102
RTVSPost2010Prop34
280
     0
102
RTVSPost2010PropOp34
 70
     1
102
RTVSPost2010Prop35
280
     0
102
RTVSPost2010PropOp35
 70
     1
102
RTVSPost2010Prop36
280
     0
102
RTVSPost2010PropOp36
 70
     1
102
RTVSPost2010Prop37
 90
       50
102
RTVSPost2010PropOp37
 70
     1
102
RTVSPost2010Prop38
140
0.0
102
RTVSPost2010PropOp38
 70
     1
102
RTVSPost2010Prop39
140
1.0
102
RTVSPost2010PropOp39
 70
     1
102
RTVSPost2010Prop40
 90
        0
102
RTVSPost2010PropOp40
 70
     1
102
RTVSPost2010Prop41ColorIndex
 90
       18
102
RTVSPost2010Prop41ColorRGB
 90
        0
102
RTVSPost2010PropOp41
 70
     1
102
RTVSPost2010Prop42
 90
       50
102
RTVSPost2010PropOp42
 70
     1
102
RTVSPost2010Prop43
 90
        3
102
RTVSPost2010PropOp43
 70
     1
102
RTVSPost2010Prop44ColorIndex
 90
        5
102
RTVSPost2010Prop44ColorRGB
 90
      255
102
RTVSPost2010PropOp44
 70
     1
102
RTVSPost2010Prop45
280
     0
102
RTVSPost2010PropOp45
 70
     1
102
RTVSPost2010Prop46
 90
       50
102
RTVSPost2010PropOp46
 70
     1
102
RTVSPost2010Prop47
 90
       50
102
RTVSPost2010PropOp47
 70
     1
102
RTVSPost2010Prop48
 90
       50
102
RTVSPost2010PropOp48
 70
     1
102
RTVSPost2010Prop49
280
     0
102
RTVSPost2010PropOp49
 70
     1
102
RTVSPost2010Prop50
 90
       50
102
RTVSPost2010PropOp50
 70
     1
102
RTVSPost2010Prop51ColorIndex
 90
      256
102
RTVSPost2010Prop51ColorRGB
 90
-16777216
102
RTVSPost2010PropOp51
 70
     0
102
RTVSPost2010Prop52
140
1.0
102
RTVSPost2010PropOp52
 70
     0
102
RTVSPost2010Prop53
 90
        2
102
RTVSPost2010PropOp53
 70
     1
102
RTVSPost2010Prop54
  1
strokes_ogs.tif
102
RTVSPost2010PropOp54
 70
     1
102
RTVSPost2010Prop55
280
     0
102
RTVSPost2010PropOp55
 70
     1
102
RTVSPost2010Prop56
140
1.0
102
RTVSPost2010PropOp56
 70
     1
102
RTVSPost2010Prop57
140
1.0
102
RTVSPost2010PropOp57
 70
     1
  0
XRECORD
  5
27D
102
{ACAD_REACTORS
330
27C
102
}
330
27C
100
AcDbXrecord
280
     1
102
RTVSPost2010Prop28
280
     0
102
RTVSPost2010PropOp28
 70
     1
102
RTVSPost2010Prop29
280
     1
102
RTVSPost2010PropOp29
 70
     1
102
RTVSPost2010Prop30
280
     1
102
RTVSPost2010PropOp30
 70
     1
102
RTVSPost2010Prop31
280
     0
102
RTVSPost2010PropOp31
 70
     1
102
RTVSPost2010Prop32
280
     0
102
RTVSPost2010PropOp32
 70
     1
102
RTVSPost2010Prop33
280
     0
102
RTVSPost2010PropOp33
 70
     1
102
RTVSPost2010Prop34
280
     0
102
RTVSPost2010PropOp34
 70
     1
102
RTVSPost2010Prop35
280
     0
102
RTVSPost2010PropOp35
 70
     1
102
RTVSPost2010Prop36
280
     0
102
RTVSPost2010PropOp36
 70
     1
102
RTVSPost2010Prop37
 90
       50
102
RTVSPost2010PropOp37
 70
     1
102
RTVSPost2010Prop38
140
0.0
102
RTVSPost2010PropOp38
 70
     1
102
RTVSPost2010Prop39
140
1.0
102
RTVSPost2010PropOp39
 70
     1
102
RTVSPost2010Prop40
 90
        0
102
RTVSPost2010PropOp40
 70
     1
102
RTVSPost2010Prop41ColorIndex
 90
       18
102
RTVSPost2010Prop41ColorRGB
 90
        0
102
RTVSPost2010PropOp41
 70
     1
102
RTVSPost2010Prop42
 90
       50
102
RTVSPost2010PropOp42
 70
     1
102
RTVSPost2010Prop43
 90
        3
102
RTVSPost2010PropOp43
 70
     1
102
RTVSPost2010Prop44ColorIndex
 90
        5
102
RTVSPost2010Prop44ColorRGB
 90
      255
102
RTVSPost2010PropOp44
 70
     1
102
RTVSPost2010Prop45
280
     0
102
RTVSPost2010PropOp45
 70
     1
102
RTVSPost2010Prop46
 90
       50
102
RTVSPost2010PropOp46
 70
     1
102
RTVSPost2010Prop47
 90
       50
102
RTVSPost2010PropOp47
 70
     1
102
RTVSPost2010Prop48
 90
       50
102
RTVSPost2010PropOp48
 70
     1
102
RTVSPost2010Prop49
280
     0
102
RTVSPost2010PropOp49
 70
     1
102
RTVSPost2010Prop50
 90
       50
102
RTVSPost2010PropOp50
 70
     1
102
RTVSPost2010Prop51ColorIndex
 90
      256
102
RTVSPost2010Prop51ColorRGB
 90
-16777216
102
RTVSPost2010PropOp51
 70
     0
102
RTVSPost2010Prop52
140
1.0
102
RTVSPost2010PropOp52
 70
     0
102
RTVSPost2010Prop53
 90
        2
102
RTVSPost2010PropOp53
 70
     1
102
RTVSPost2010Prop54
  1
strokes_ogs.tif
102
RTVSPost2010PropOp54
 70
     1
102
RTVSPost2010Prop55
280
     0
102
RTVSPost2010PropOp55
 70
     1
102
RTVSPost2010Prop56
140
1.0
102
RTVSPost2010PropOp56
 70
     1
102
RTVSPost2010Prop57
140
1.0
102
RTVSPost2010PropOp57
 70
     1
  0
ENDSEC
  0
EOF
