  0
SECTION
  2
HEADER
  9
$ACADVER
  1
AC1024
  9
$ACADMAINTVER
 70
     6
  9
$DWGCODEPAGE
  3
ANSI_1252
  9
$INSBASE
 10
0.0
 20
0.0
 30
0.0
  9
$EXTMIN
 10
1.000000E+20
 20
1.000000E+20
 30
1.000000E+20
  9
$EXTMAX
 10
-1.000000E+20
 20
-1.000000E+20
 30
-1.000000E+20
  9
$LIMMIN
 10
0.0
 20
0.0
  9
$LIMMAX
 10
420.0
 20
297.0
  9
$ORTHOMODE
 70
     0
  9
$REGENMODE
 70
     1
  9
$FILLMODE
 70
     1
  9
$QTEXTMODE
 70
     0
  9
$MIRRTEXT
 70
     1
  9
$LTSCALE
 40
1.0
  9
$ATTMODE
 70
     1
  9
$TEXTSIZE
 40
2.5
  9
$TRACEWID
 40
1.0
  9
$TEXTSTYLE
  7
Standard
  9
$CLAYER
  8
0
  9
$CELTYPE
  6
ByLayer
  9
$CECOLOR
 62
   256
  9
$CELTSCALE
 40
1.0
  9
$DISPSILH
 70
     0
  9
$DIMSCALE
 40
1.0
  9
$DIMASZ
 40
2.5
  9
$DIMEXO
 40
0.625
  9
$DIMDLI
 40
3.75
  9
$DIMRND
 40
0.0
  9
$DIMDLE
 40
0.0
  9
$DIMEXE
 40
1.25
  9
$DIMTP
 40
0.0
  9
$DIMTM
 40
0.0
  9
$DIMTXT
 40
2.5
  9
$DIMCEN
 40
2.5
  9
$DIMTSZ
 40
0.0
  9
$DIMTOL
 70
     0
  9
$DIMLIM
 70
     0
  9
$DIMTIH
 70
     0
  9
$DIMTOH
 70
     0
  9
$DIMSE1
 70
     0
  9
$DIMSE2
 70
     0
  9
$DIMTAD
 70
     1
  9
$DIMZIN
 70
     8
  9
$DIMBLK
  1

  9
$DIMASO
 70
     1
  9
$DIMSHO
 70
     1
  9
$DIMPOST
  1

  9
$DIMAPOST
  1

  9
$DIMALT
 70
     0
  9
$DIMALTD
 70
     3
  9
$DIMALTF
 40
0.03937
  9
$DIMLFAC
 40
1.0
  9
$DIMTOFL
 70
     1
  9
$DIMTVP
 40
0.0
  9
$DIMTIX
 70
     0
  9
$DIMSOXD
 70
     0
  9
$DIMSAH
 70
     0
  9
$DIMBLK1
  1

  9
$DIMBLK2
  1

  9
$DIMSTYLE
  2
ISO-25
  9
$DIMCLRD
 70
     0
  9
$DIMCLRE
 70
     0
  9
$DIMCLRT
 70
     0
  9
$DIMTFAC
 40
1.0
  9
$DIMGAP
 40
0.625
  9
$DIMJUST
 70
     0
  9
$DIMSD1
 70
     0
  9
$DIMSD2
 70
     0
  9
$DIMTOLJ
 70
     0
  9
$DIMTZIN
 70
     8
  9
$DIMALTZ
 70
     0
  9
$DIMALTTZ
 70
     0
  9
$DIMUPT
 70
     0
  9
$DIMDEC
 70
     2
  9
$DIMTDEC
 70
     2
  9
$DIMALTU
 70
     2
  9
$DIMALTTD
 70
     3
  9
$DIMTXSTY
  7
Standard
  9
$DIMAUNIT
 70
     0
  9
$DIMADEC
 70
     0
  9
$DIMALTRND
 40
0.0
  9
$DIMAZIN
 70
     0
  9
$DIMDSEP
 70
    44
  9
$DIMATFIT
 70
     3
  9
$DIMFRAC
 70
     0
  9
$DIMLDRBLK
  1

  9
$DIMLUNIT
 70
     2
  9
$DIMLWD
 70
    -2
  9
$DIMLWE
 70
    -2
  9
$DIMTMOVE
 70
     0
  9
$DIMFXL
 40
1.0
  9
$DIMFXLON
 70
     0
  9
$DIMJOGANG
 40
0.785398
  9
$DIMTFILL
 70
     0
  9
$DIMTFILLCLR
 70
     0
  9
$DIMARCSYM
 70
     0
  9
$DIMLTYPE
  6

  9
$DIMLTEX1
  6

  9
$DIMLTEX2
  6

  9
$DIMTXTDIRECTION
 70
     0
  9
$LUNITS
 70
     2
  9
$LUPREC
 70
     4
  9
$SKETCHINC
 40
1.0
  9
$FILLETRAD
 40
10.0
  9
$AUNITS
 70
     0
  9
$AUPREC
 70
     0
  9
$MENU
  1
.
  9
$ELEVATION
 40
0.0
  9
$PELEVATION
 40
0.0
  9
$THICKNESS
 40
0.0
  9
$LIMCHECK
 70
     0
  9
$CHAMFERA
 40
0.0
  9
$CHAMFERB
 40
0.0
  9
$CHAMFERC
 40
0.0
  9
$CHAMFERD
 40
0.0
  9
$SKPOLY
 70
     0
  9
$TDCREATE
 40
2458614.722574144
  9
$TDUCREATE
 40
2458614.63924081
  9
$TDUPDATE
 40
2458614.722574722
  9
$TDUUPDATE
 40
2458614.639241389
  9
$TDINDWG
 40
0.0000000116
  9
$TDUSRTIMER
 40
0.0000000116
  9
$USRTIMER
 70
     1
  9
$ANGBASE
 50
0.0
  9
$ANGDIR
 70
     0
  9
$PDMODE
 70
     0
  9
$PDSIZE
 40
0.0
  9
$PLINEWID
 40
0.0
  9
$SPLFRAME
 70
     0
  9
$SPLINETYPE
 70
     6
  9
$SPLINESEGS
 70
     8
  9
$HANDSEED
  5
21C
  9
$SURFTAB1
 70
     6
  9
$SURFTAB2
 70
     6
  9
$SURFTYPE
 70
     6
  9
$SURFU
 70
     6
  9
$SURFV
 70
     6
  9
$UCSBASE
  2

  9
$UCSNAME
  2

  9
$UCSORG
 10
0.0
 20
0.0
 30
0.0
  9
$UCSXDIR
 10
1.0
 20
0.0
 30
0.0
  9
$UCSYDIR
 10
0.0
 20
1.0
 30
0.0
  9
$UCSORTHOREF
  2

  9
$UCSORTHOVIEW
 70
     0
  9
$UCSORGTOP
 10
0.0
 20
0.0
 30
0.0
  9
$UCSORGBOTTOM
 10
0.0
 20
0.0
 30
0.0
  9
$UCSORGLEFT
 10
0.0
 20
0.0
 30
0.0
  9
$UCSORGRIGHT
 10
0.0
 20
0.0
 30
0.0
  9
$UCSORGFRONT
 10
0.0
 20
0.0
 30
0.0
  9
$UCSORGBACK
 10
0.0
 20
0.0
 30
0.0
  9
$PUCSBASE
  2

  9
$PUCSNAME
  2

  9
$PUCSORG
 10
0.0
 20
0.0
 30
0.0
  9
$PUCSXDIR
 10
1.0
 20
0.0
 30
0.0
  9
$PUCSYDIR
 10
0.0
 20
1.0
 30
0.0
  9
$PUCSORTHOREF
  2

  9
$PUCSORTHOVIEW
 70
     0
  9
$PUCSORGTOP
 10
0.0
 20
0.0
 30
0.0
  9
$PUCSORGBOTTOM
 10
0.0
 20
0.0
 30
0.0
  9
$PUCSORGLEFT
 10
0.0
 20
0.0
 30
0.0
  9
$PUCSORGRIGHT
 10
0.0
 20
0.0
 30
0.0
  9
$PUCSORGFRONT
 10
0.0
 20
0.0
 30
0.0
  9
$PUCSORGBACK
 10
0.0
 20
0.0
 30
0.0
  9
$USERI1
 70
     0
  9
$USERI2
 70
     0
  9
$USERI3
 70
     0
  9
$USERI4
 70
     0
  9
$USERI5
 70
     0
  9
$USERR1
 40
0.0
  9
$USERR2
 40
0.0
  9
$USERR3
 40
0.0
  9
$USERR4
 40
0.0
  9
$USERR5
 40
0.0
  9
$WORLDVIEW
 70
     1
  9
$SHADEDGE
 70
     3
  9
$SHADEDIF
 70
    70
  9
$TILEMODE
 70
     1
  9
$MAXACTVP
 70
    64
  9
$PINSBASE
 10
0.0
 20
0.0
 30
0.0
  9
$PLIMCHECK
 70
     0
  9
$PEXTMIN
 10
1.000000E+20
 20
1.000000E+20
 30
1.000000E+20
  9
$PEXTMAX
 10
-1.000000E+20
 20
-1.000000E+20
 30
-1.000000E+20
  9
$PLIMMIN
 10
0.0
 20
0.0
  9
$PLIMMAX
 10
420.0
 20
297.0
  9
$UNITMODE
 70
     0
  9
$VISRETAIN
 70
     1
  9
$PLINEGEN
 70
     0
  9
$PSLTSCALE
 70
     1
  9
$TREEDEPTH
 70
  3020
  9
$CMLSTYLE
  2
Standard
  9
$CMLJUST
 70
     0
  9
$CMLSCALE
 40
20.0
  9
$PROXYGRAPHICS
 70
     1
  9
$MEASUREMENT
 70
     1
  9
$CELWEIGHT
370
    -1
  9
$ENDCAPS
280
     0
  9
$JOINSTYLE
280
     0
  9
$LWDISPLAY
290
     0
  9
$INSUNITS
 70
     4
  9
$HYPERLINKBASE
  1

  9
$STYLESHEET
  1

  9
$XEDIT
290
     1
  9
$CEPSNTYPE
380
     0
  9
$PSTYLEMODE
290
     1
  9
$FINGERPRINTGUID
  2
{9F54BE74-7790-4F5D-B89E-098B8623954D}
  9
$VERSIONGUID
  2
{FAEB1C32-E019-11D5-929B-00C0DF256EC4}
  9
$EXTNAMES
290
     1
  9
$PSVPSCALE
 40
0.0
  9
$OLESTARTUP
290
     0
  9
$SORTENTS
280
   127
  9
$INDEXCTL
280
     0
  9
$HIDETEXT
280
     1
  9
$XCLIPFRAME
280
     2
  9
$HALOGAP
280
     0
  9
$OBSCOLOR
 70
   257
  9
$OBSLTYPE
280
     0
  9
$INTERSECTIONDISPLAY
280
     0
  9
$INTERSECTIONCOLOR
 70
   257
  9
$DIMASSOC
280
     2
  9
$PROJECTNAME
  1

  9
$CAMERADISPLAY
290
     0
  9
$LENSLENGTH
 40
50.0
  9
$CAMERAHEIGHT
 40
0.0
  9
$STEPSPERSEC
 40
2.0
  9
$STEPSIZE
 40
6.0
  9
$3DDWFPREC
 40
2.0
  9
$PSOLWIDTH
 40
5.0
  9
$PSOLHEIGHT
 40
80.0
  9
$LOFTANG1
 40
1.570796
  9
$LOFTANG2
 40
1.570796
  9
$LOFTMAG1
 40
0.0
  9
$LOFTMAG2
 40
0.0
  9
$LOFTPARAM
 70
     7
  9
$LOFTNORMALS
280
     1
  9
$LATITUDE
 40
37.795
  9
$LONGITUDE
 40
-122.394
  9
$NORTHDIRECTION
 40
0.0
  9
$TIMEZONE
 70
 -8000
  9
$LIGHTGLYPHDISPLAY
280
     1
  9
$TILEMODELIGHTSYNCH
280
     1
  9
$CMATERIAL
347
44
  9
$SOLIDHIST
280
     0
  9
$SHOWHIST
280
     1
  9
$DWFFRAME
280
     2
  9
$DGNFRAME
280
     2
  9
$REALWORLDSCALE
290
     1
  9
$INTERFERECOLOR
 62
   256
  9
$CSHADOW
280
     0
  9
$SHADOWPLANELOCATION
 40
0.0
  0
ENDSEC
  0
SECTION
  2
CLASSES
  0
CLASS
  1
ACDBDICTIONARYWDFLT
  2
AcDbDictionaryWithDefault
  3
ObjectDBX Classes
 90
        0
 91
        4
280
     0
281
     0
  0
CLASS
  1
VISUALSTYLE
  2
AcDbVisualStyle
  3
ObjectDBX Classes
 90
     4095
 91
        4
280
     0
281
     0
  0
CLASS
  1
MATERIAL
  2
AcDbMaterial
  3
ObjectDBX Classes
 90
     1153
 91
        4
280
     0
281
     0
  0
CLASS
  1
SCALE
  2
AcDbScale
  3
ObjectDBX Classes
 90
     1153
 91
        4
280
     0
281
     0
  0
CLASS
  1
TABLESTYLE
  2
AcDbTableStyle
  3
ObjectDBX Classes
 90
     4095
 91
        4
280
     0
281
     0
  0
CLASS
  1
MLEADERSTYLE
  2
AcDbMLeaderStyle
  3
ACDB_MLEADERSTYLE_CLASS
 90
     4095
 91
        4
280
     0
281
     0
  0
CLASS
  1
SUN
  2
AcDbSun
  3
SCENEOE
 90
     1153
 91
        4
280
     0
281
     0
  0
CLASS
  1
DICTIONARYVAR
  2
AcDbDictionaryVar
  3
ObjectDBX Classes
 90
        0
 91
        4
280
     0
281
     0
  0
CLASS
  1
CELLSTYLEMAP
  2
AcDbCellStyleMap
  3
ObjectDBX Classes
 90
     1152
 91
        4
280
     0
281
     0
  0
ENDSEC
  0
SECTION
  2
TABLES
  0
TABLE
  2
VPORT
  5
8
330
0
100
AcDbSymbolTable
 70
     1
  0
VPORT
  5
29
330
8
100
AcDbSymbolTableRecord
100
AcDbViewportTableRecord
  2
*Active
 70
     0
 10
0.0
 20
0.0
 11
1.0
 21
1.0
 12
344.186916
 22
148.5
 13
0.0
 23
0.0
 14
10.0
 24
10.0
 15
10.0
 25
10.0
 16
0.0
 26
0.0
 36
1.0
 17
0.0
 27
0.0
 37
0.0
 40
297.0
 41
1.972973
 42
50.0
 43
0.0
 44
0.0
 50
0.0
 51
0.0
 71
     0
 72
   100
 73
     1
 74
     3
 75
     0
 76
     0
 77
     0
 78
     0
281
     0
 65
     1
110
0.0
120
0.0
130
0.0
111
1.0
121
0.0
131
0.0
112
0.0
122
1.0
132
0.0
 79
     0
146
0.0
348
2F
 60
     3
 61
     5
292
     1
282
     1
141
0.0
142
0.0
 63
   250
361
6D
  0
ENDTAB
  0
TABLE
  2
LTYPE
  5
5
330
0
100
AcDbSymbolTable
 70
     1
  0
LTYPE
  5
14
330
5
100
AcDbSymbolTableRecord
100
AcDbLinetypeTableRecord
  2
ByBlock
 70
     0
  3

 72
    65
 73
     0
 40
0.0
  0
LTYPE
  5
15
330
5
100
AcDbSymbolTableRecord
100
AcDbLinetypeTableRecord
  2
ByLayer
 70
     0
  3

 72
    65
 73
     0
 40
0.0
  0
LTYPE
  5
16
330
5
100
AcDbSymbolTableRecord
100
AcDbLinetypeTableRecord
  2
Continuous
 70
     0
  3
Solid line
 72
    65
 73
     0
 40
0.0
  0
ENDTAB
  0
TABLE
  2
LAYER
  5
2
330
0
100
AcDbSymbolTable
 70
     1
  0
LAYER
  5
10
330
2
100
AcDbSymbolTableRecord
100
AcDbLayerTableRecord
  2
0
 70
     0
 62
   106
  6
Continuous
370
     0
390
F
347
46
  0
ENDTAB
  0
TABLE
  2
STYLE
  5
3
330
0
100
AcDbSymbolTable
 70
     4
  0
STYLE
  5
11
330
3
100
AcDbSymbolTableRecord
100
AcDbTextStyleTableRecord
  2
Standard
 70
     0
 40
0.0
 41
1.0
 50
0.0
 71
     0
 42
2.5
  3
txt
  4

  0
STYLE
  5
6E
330
3
100
AcDbSymbolTableRecord
100
AcDbTextStyleTableRecord
  2
Default
 70
     0
 40
0.0
 41
1.0
 50
0.0
 71
     0
 42
2.5
  3

  4

1001
ACAD
1000
txt
1071
        0
  0
STYLE
  5
6F
330
3
100
AcDbSymbolTableRecord
100
AcDbTextStyleTableRecord
  2
ISO
 70
     0
 40
0.0
 41
1.0
 50
0.0
 71
     0
 42
2.5
  3

  4

1001
ACAD
1000
txt
1071
        0
  0
STYLE
  5
70
330
3
100
AcDbSymbolTableRecord
100
AcDbTextStyleTableRecord
  2
zucchetti
 70
     0
 40
0.0
 41
1.0
 50
0.0
 71
     0
 42
2.5
  3

  4

1001
ACAD
1000
Arial
1071
        0
  0
ENDTAB
  0
TABLE
  2
VIEW
  5
6
330
0
100
AcDbSymbolTable
 70
     0
  0
ENDTAB
  0
TABLE
  2
UCS
  5
7
330
0
100
AcDbSymbolTable
 70
     0
  0
ENDTAB
  0
TABLE
  2
APPID
  5
9
330
0
100
AcDbSymbolTable
 70
     1
  0
APPID
  5
12
330
9
100
AcDbSymbolTableRecord
100
AcDbRegAppTableRecord
  2
ACAD
 70
     0
  0
ENDTAB
  0
TABLE
  2
DIMSTYLE
  5
A
330
0
100
AcDbSymbolTable
 70
     4
100
AcDbDimStyleTable
  0
DIMSTYLE
105
27
330
A
100
AcDbSymbolTableRecord
100
AcDbDimStyleTableRecord
  2
ISO-25
 70
     0
 41
2.5
 42
0.625
 43
3.75
 44
1.25
 73
     0
 74
     0
 77
     1
 78
     8
140
2.5
141
2.5
143
0.03937
147
0.625
171
     3
172
     1
178
     0
271
     2
272
     2
274
     3
278
    44
283
     0
284
     8
340
11
  0
DIMSTYLE
105
71
330
A
100
AcDbSymbolTableRecord
100
AcDbDimStyleTableRecord
  2
Default
 70
     0
  3
<>
 41
4.375
 42
1.05
 44
2.1
 49
10.01
 73
     0
 74
     0
 77
     1
 78
     8
140
3.5
146
0.4
147
1.75
172
     1
271
     2
178
     3
271
     2
272
     3
284
     8
340
6E
341
72
342
72
  0
DIMSTYLE
105
79
330
A
100
AcDbSymbolTableRecord
100
AcDbDimStyleTableRecord
  2
ISO
 70
     0
  3
<>
 41
4.375
 42
1.05
 44
2.1
 49
10.01
 73
     0
 74
     0
 77
     1
 78
     8
140
3.5
146
0.4
147
1.75
172
     1
271
     2
178
     3
271
     2
272
     3
284
     8
340
6F
341
72
342
72
  0
DIMSTYLE
105
7A
330
A
100
AcDbSymbolTableRecord
100
AcDbDimStyleTableRecord
  2
zucchetti
 70
     0
  3
<>
 41
3.0
 42
0.9
 44
1.8
 49
8.58
 73
     0
 74
     0
 77
     1
 78
     8
140
3.0
146
0.6
147
1.5
172
     1
176
     3
177
     3
271
     2
178
     3
271
     2
272
     2
284
     8
340
70
  0
ENDTAB
  0
TABLE
  2
BLOCK_RECORD
  5
1
330
0
100
AcDbSymbolTable
 70
     6
  0
BLOCK_RECORD
  5
1F
330
1
100
AcDbSymbolTableRecord
100
AcDbBlockTableRecord
  2
*Model_Space
340
22
 70
     0
280
     1
281
     0
  0
BLOCK_RECORD
  5
1B
330
1
100
AcDbSymbolTableRecord
100
AcDbBlockTableRecord
  2
*Paper_Space
340
1E
 70
     0
280
     1
281
     0
  0
BLOCK_RECORD
  5
23
330
1
100
AcDbSymbolTableRecord
100
AcDbBlockTableRecord
  2
*Paper_Space0
340
26
 70
     0
280
     1
281
     0
  0
BLOCK_RECORD
  5
72
330
1
100
AcDbSymbolTableRecord
100
AcDbBlockTableRecord
  2
_CLOSED
340
0
 70
     0
280
     1
281
     0
  0
BLOCK_RECORD
  5
7B
330
1
100
AcDbSymbolTableRecord
100
AcDbBlockTableRecord
  2
a
340
0
102
{BLKREFS
331
A6
102
}
 70
     0
280
     1
281
     0
  0
BLOCK_RECORD
  5
A7
330
1
100
AcDbSymbolTableRecord
100
AcDbBlockTableRecord
  2
b
340
0
102
{BLKREFS
331
10C
102
}
 70
     0
280
     1
281
     0
  0
BLOCK_RECORD
  5
10D
330
1
100
AcDbSymbolTableRecord
100
AcDbBlockTableRecord
  2
c
340
0
102
{BLKREFS
331
172
102
}
 70
     0
280
     1
281
     0
  0
BLOCK_RECORD
  5
173
330
1
100
AcDbSymbolTableRecord
100
AcDbBlockTableRecord
  2
d
340
0
102
{BLKREFS
331
1E2
102
}
 70
     0
280
     1
281
     0
  0
ENDTAB
  0
ENDSEC
  0
SECTION
  2
BLOCKS
  0
BLOCK
  5
20
330
1F
100
AcDbEntity
  8
0
100
AcDbBlockBegin
  2
*Model_Space
 70
     0
 10
0.0
 20
0.0
 30
0.0
  3
*Model_Space
  1

  0
ENDBLK
  5
21
330
1F
100
AcDbEntity
  8
0
100
AcDbBlockEnd
  0
BLOCK
  5
1C
330
1B
100
AcDbEntity
 67
     1
  8
0
100
AcDbBlockBegin
  2
*Paper_Space
 70
     0
 10
0.0
 20
0.0
 30
0.0
  3
*Paper_Space
  1

  0
ENDBLK
  5
1D
330
1B
100
AcDbEntity
 67
     1
  8
0
100
AcDbBlockEnd
  0
BLOCK
  5
24
330
23
100
AcDbEntity
  8
0
100
AcDbBlockBegin
  2
*Paper_Space0
 70
     0
 10
0.0
 20
0.0
 30
0.0
  3
*Paper_Space0
  1

  0
ENDBLK
  5
25
330
23
100
AcDbEntity
  8
0
100
AcDbBlockEnd
  0
BLOCK
  5
73
330
72
100
AcDbEntity
  8
0
100
AcDbBlockBegin
  2
_CLOSED
 70
     0
 10
0.0
 20
0.0
 30
0.0
  3
_CLOSED
  1

  0
LINE
  5
75
330
72
100
AcDbEntity
  8
0
  6
ByBlock
 62
     0
370
    -2
100
AcDbLine
 10
-1.0
 20
0.166667
 30
0.0
 11
0.0
 21
0.0
 31
0.0
  0
LINE
  5
76
330
72
100
AcDbEntity
  8
0
  6
ByBlock
 62
     0
370
    -2
100
AcDbLine
 10
0.0
 20
0.0
 30
0.0
 11
-1.0
 21
-0.166667
 31
0.0
  0
LINE
  5
77
330
72
100
AcDbEntity
  8
0
  6
ByBlock
 62
     0
370
    -2
100
AcDbLine
 10
-1.0
 20
0.166667
 30
0.0
 11
-1.0
 21
-0.166667
 31
0.0
  0
LINE
  5
78
330
72
100
AcDbEntity
  8
0
  6
ByBlock
 62
     0
370
    -2
100
AcDbLine
 10
0.0
 20
0.0
 30
0.0
 11
-1.0
 21
0.0
 31
0.0
  0
ENDBLK
  5
74
330
72
100
AcDbEntity
  8
0
100
AcDbBlockEnd
  0
BLOCK
  5
A4
330
7B
100
AcDbEntity
  8
0
100
AcDbBlockBegin
  2
a
 70
     0
 10
447.031891
 20
156.071075
 30
0.0
  3
a
  1

  0
ARC
  5
7C
330
7B
100
AcDbEntity
  8
0
  6
Continuous
 62
     0
370
     0
100
AcDbCircle
 10
503.610462
 20
656.587875
 30
0.0
 40
6.999999999999931
100
AcDbArc
 50
180.0
 51
270.0
  0
LINE
  5
7D
330
7B
100
AcDbEntity
  8
0
  6
Continuous
 62
     0
370
     0
100
AcDbLine
 10
525.610462
 20
649.587875
 30
0.0
 11
503.610462
 21
649.587875
 31
0.0
  0
ARC
  5
7E
330
7B
100
AcDbEntity
  8
0
  6
Continuous
 62
     0
370
     0
100
AcDbCircle
 10
525.610462
 20
656.587875
 30
0.0
 40
6.999999999999998
100
AcDbArc
 50
270.0
 51
0.0
  0
LINE
  5
7F
330
7B
100
AcDbEntity
  8
0
  6
Continuous
 62
     0
370
     0
100
AcDbLine
 10
532.610462
 20
678.587875
 30
0.0
 11
532.610462
 21
656.587875
 31
0.0
  0
ARC
  5
80
330
7B
100
AcDbEntity
  8
0
  6
Continuous
 62
     0
370
     0
100
AcDbCircle
 10
525.610462
 20
678.587875
 30
0.0
 40
7.000000000000071
100
AcDbArc
 50
0.0
 51
90.0
  0
LINE
  5
81
330
7B
100
AcDbEntity
  8
0
  6
Continuous
 62
     0
370
     0
100
AcDbLine
 10
503.610462
 20
685.587875
 30
0.0
 11
525.610462
 21
685.587875
 31
0.0
  0
ARC
  5
82
330
7B
100
AcDbEntity
  8
0
  6
Continuous
 62
     0
370
     0
100
AcDbCircle
 10
503.610462
 20
678.587875
 30
0.0
 40
7.000000000000099
100
AcDbArc
 50
90.0
 51
180.0
  0
LINE
  5
83
330
7B
100
AcDbEntity
  8
0
  6
Continuous
 62
     0
370
     0
100
AcDbLine
 10
496.610462
 20
656.587875
 30
0.0
 11
496.610462
 21
678.587875
 31
0.0
  0
ARC
  5
84
330
7B
100
AcDbEntity
  8
0
  6
Continuous
 62
     0
370
    30
100
AcDbCircle
 10
503.610462
 20
678.587875
 30
0.0
 40
8.0
100
AcDbArc
 50
90.0
 51
180.0
  0
LINE
  5
85
330
7B
100
AcDbEntity
  8
0
  6
Continuous
 62
     0
370
    30
100
AcDbLine
 10
525.610462
 20
686.587875
 30
0.0
 11
503.610462
 21
686.587875
 31
0.0
  0
ARC
  5
86
330
7B
100
AcDbEntity
  8
0
  6
Continuous
 62
     0
370
    30
100
AcDbCircle
 10
525.610462
 20
678.587875
 30
0.0
 40
8.0
100
AcDbArc
 50
0.0
 51
90.0
  0
LINE
  5
87
330
7B
100
AcDbEntity
  8
0
  6
Continuous
 62
     0
370
    30
100
AcDbLine
 10
533.610462
 20
656.587875
 30
0.0
 11
533.610462
 21
678.587875
 31
0.0
  0
ARC
  5
88
330
7B
100
AcDbEntity
  8
0
  6
Continuous
 62
     0
370
    30
100
AcDbCircle
 10
525.610462
 20
656.587875
 30
0.0
 40
8.0
100
AcDbArc
 50
270.0
 51
0.0
  0
LINE
  5
89
330
7B
100
AcDbEntity
  8
0
  6
Continuous
 62
     0
370
    30
100
AcDbLine
 10
503.610462
 20
648.587875
 30
0.0
 11
525.610462
 21
648.587875
 31
0.0
  0
ARC
  5
8A
330
7B
100
AcDbEntity
  8
0
  6
Continuous
 62
     0
370
    30
100
AcDbCircle
 10
503.610462
 20
656.587875
 30
0.0
 40
8.0
100
AcDbArc
 50
180.0
 51
270.0
  0
LINE
  5
8B
330
7B
100
AcDbEntity
  8
0
  6
Continuous
 62
     0
370
    30
100
AcDbLine
 10
495.610462
 20
678.587875
 30
0.0
 11
495.610462
 21
656.587875
 31
0.0
  0
LINE
  5
8C
330
7B
100
AcDbEntity
  8
0
  6
Continuous
 62
     0
370
     0
100
AcDbLine
 10
495.610462
 20
656.587875
 30
0.0
 11
496.610462
 21
656.587875
 31
0.0
  0
LINE
  5
8D
330
7B
100
AcDbEntity
  8
0
  6
Continuous
 62
     0
370
     0
100
AcDbLine
 10
496.610462
 20
678.587875
 30
0.0
 11
495.610462
 21
678.587875
 31
0.0
  0
LINE
  5
8E
330
7B
100
AcDbEntity
  8
0
  6
Continuous
 62
     0
370
     0
100
AcDbLine
 10
503.610462
 20
648.587875
 30
0.0
 11
503.610462
 21
649.587875
 31
0.0
  0
LINE
  5
8F
330
7B
100
AcDbEntity
  8
0
  6
Continuous
 62
     0
370
     0
100
AcDbLine
 10
525.610462
 20
648.587875
 30
0.0
 11
525.610462
 21
649.587875
 31
0.0
  0
LINE
  5
90
330
7B
100
AcDbEntity
  8
0
  6
Continuous
 62
     0
370
     0
100
AcDbLine
 10
533.610462
 20
656.587875
 30
0.0
 11
532.610462
 21
656.587875
 31
0.0
  0
LINE
  5
91
330
7B
100
AcDbEntity
  8
0
  6
Continuous
 62
     0
370
     0
100
AcDbLine
 10
533.610462
 20
678.587875
 30
0.0
 11
532.610462
 21
678.587875
 31
0.0
  0
LINE
  5
92
330
7B
100
AcDbEntity
  8
0
  6
Continuous
 62
     0
370
     0
100
AcDbLine
 10
525.610462
 20
686.587875
 30
0.0
 11
525.610462
 21
685.587875
 31
0.0
  0
LINE
  5
93
330
7B
100
AcDbEntity
  8
0
  6
Continuous
 62
     0
370
     0
100
AcDbLine
 10
503.610462
 20
686.587875
 30
0.0
 11
503.610462
 21
685.587875
 31
0.0
  0
ARC
  5
94
330
7B
100
AcDbEntity
  8
0
  6
Continuous
 62
     0
370
    30
100
AcDbCircle
 10
514.612095
 20
547.590591
 30
0.0
 40
21.5
100
AcDbArc
 50
270.0
 51
90.0
  0
ARC
  5
95
330
7B
100
AcDbEntity
  8
0
  6
Continuous
 62
     0
370
    30
100
AcDbCircle
 10
514.612095
 20
547.590591
 30
0.0
 40
21.5
100
AcDbArc
 50
90.0
 51
270.0
  0
ARC
  5
96
330
7B
100
AcDbEntity
  8
0
  6
Continuous
 62
     0
370
    30
100
AcDbCircle
 10
514.612095
 20
547.590591
 30
0.0
 40
22.0
100
AcDbArc
 50
270.0
 51
90.0
  0
ARC
  5
97
330
7B
100
AcDbEntity
  8
0
  6
Continuous
 62
     0
370
    30
100
AcDbCircle
 10
514.612095
 20
547.590591
 30
0.0
 40
22.0
100
AcDbArc
 50
90.0
 51
270.0
  0
LINE
  5
98
330
7B
100
AcDbEntity
  8
0
  6
Continuous
 62
     0
370
    30
100
AcDbLine
 10
518.062095
 20
577.420591
 30
0.0
 11
514.612095
 21
577.420591
 31
0.0
  0
LINE
  5
99
330
7B
100
AcDbEntity
  8
0
  6
Continuous
 62
     0
370
    30
100
AcDbLine
 10
514.612095
 20
577.420591
 30
0.0
 11
511.162095
 21
577.420591
 31
0.0
  0
LWPOLYLINE
  5
9A
330
7B
100
AcDbEntity
  8
0
  6
Continuous
 62
     0
370
    30
100
AcDbPolyline
 90
       13
 70
     0
 43
0.0
 10
518.561646
 20
576.920593
 10
518.528625
 20
576.920593
 10
518.429504
 20
576.920593
 10
518.265442
 20
576.920593
 10
518.040344
 20
576.920593
 10
517.758179
 20
576.920593
 10
517.423218
 20
576.920593
 10
517.040833
 20
576.920593
 10
516.617126
 20
576.920593
 10
516.158142
 20
576.920593
 10
515.672058
 20
576.920593
 10
515.170166
 20
576.920593
 10
514.612122
 20
576.920593
  0
LINE
  5
9B
330
7B
100
AcDbEntity
  8
0
  6
Continuous
 62
     0
370
    30
100
AcDbLine
 10
514.612095
 20
576.920591
 30
0.0
 11
510.66255
 21
576.920595
 31
0.0
  0
LINE
  5
9C
330
7B
100
AcDbEntity
  8
0
  6
Continuous
 62
     0
370
    30
100
AcDbLine
 10
510.662095
 20
576.920591
 30
0.0
 11
510.662095
 21
569.233289
 31
0.0
  0
LINE
  5
9D
330
7B
100
AcDbEntity
  8
0
  6
Continuous
 62
     0
370
    30
100
AcDbLine
 10
518.562095
 20
576.920591
 30
0.0
 11
518.562095
 21
569.233417
 31
0.0
  0
LINE
  5
9E
330
7B
100
AcDbEntity
  8
0
  6
Continuous
 62
     0
370
    30
100
AcDbLine
 10
511.162038
 20
577.420534
 30
0.0
 11
510.662142
 21
576.920639
 31
0.0
  0
LINE
  5
9F
330
7B
100
AcDbEntity
  8
0
  6
Continuous
 62
     0
370
    30
100
AcDbLine
 10
518.562047
 20
576.920639
 30
0.0
 11
518.062152
 21
577.420534
 31
0.0
  0
LINE
  5
A0
330
7B
100
AcDbEntity
  8
0
  6
Continuous
 62
     0
370
    30
100
AcDbLine
 10
554.612095
 20
473.590591
 30
0.0
 11
474.612095
 21
473.590591
 31
0.0
  0
LINE
  5
A1
330
7B
100
AcDbEntity
  8
0
  6
Continuous
 62
     0
370
    30
100
AcDbLine
 10
554.612095
 20
741.590591
 30
0.0
 11
554.612095
 21
473.590591
 31
0.0
  0
LINE
  5
A2
330
7B
100
AcDbEntity
  8
0
  6
Continuous
 62
     0
370
    30
100
AcDbLine
 10
474.612095
 20
741.590591
 30
0.0
 11
554.612095
 21
741.590591
 31
0.0
  0
LINE
  5
A3
330
7B
100
AcDbEntity
  8
0
  6
Continuous
 62
     0
370
    30
100
AcDbLine
 10
474.612095
 20
473.590591
 30
0.0
 11
474.612095
 21
741.590591
 31
0.0
  0
ENDBLK
  5
A5
330
7B
100
AcDbEntity
  8
0
100
AcDbBlockEnd
  0
BLOCK
  5
10A
330
A7
100
AcDbEntity
  8
0
100
AcDbBlockBegin
  2
b
 70
     0
 10
447.031952
 20
321.127563
 30
0.0
  3
b
  1

  0
LINE
  5
A8
330
A7
100
AcDbEntity
  8
0
  6
Continuous
 62
     0
370
    30
100
AcDbLine
 10
525.610523
 20
326.315954
 30
0.0
 11
532.610523
 21
326.315954
 31
0.0
  0
LINE
  5
A9
330
A7
100
AcDbEntity
  8
0
  6
Continuous
 62
     0
370
    30
100
AcDbLine
 10
503.610523
 20
326.315954
 30
0.0
 11
525.610523
 21
326.315954
 31
0.0
  0
LINE
  5
AA
330
A7
100
AcDbEntity
  8
0
  6
Continuous
 62
     0
370
    30
100
AcDbLine
 10
496.610523
 20
326.315954
 30
0.0
 11
503.610523
 21
326.315954
 31
0.0
  0
LINE
  5
AB
330
A7
100
AcDbEntity
  8
0
  6
Continuous
 62
     0
370
    30
100
AcDbLine
 10
503.610523
 20
366.315954
 30
0.0
 11
495.610523
 21
366.315954
 31
0.0
  0
LINE
  5
AC
330
A7
100
AcDbEntity
  8
0
  6
Continuous
 62
     0
370
    30
100
AcDbLine
 10
495.610523
 20
366.315954
 30
0.0
 11
495.610523
 21
327.315954
 31
0.0
  0
LINE
  5
AD
330
A7
100
AcDbEntity
  8
0
  6
Continuous
 62
     0
370
     0
100
AcDbLine
 10
495.610523
 20
327.315954
 30
0.0
 11
503.610523
 21
327.315954
 31
0.0
  0
LINE
  5
AE
330
A7
100
AcDbEntity
  8
0
  6
Continuous
 62
     0
370
     0
100
AcDbLine
 10
503.610523
 20
327.315954
 30
0.0
 11
503.610523
 21
366.315954
 31
0.0
  0
LINE
  5
AF
330
A7
100
AcDbEntity
  8
0
  6
Continuous
 62
     0
370
     0
100
AcDbLine
 10
525.610523
 20
327.315954
 30
0.0
 11
503.610523
 21
327.315954
 31
0.0
  0
LINE
  5
B0
330
A7
100
AcDbEntity
  8
0
  6
Continuous
 62
     0
370
     0
100
AcDbLine
 10
525.610523
 20
366.315954
 30
0.0
 11
525.610523
 21
327.315954
 31
0.0
  0
LINE
  5
B1
330
A7
100
AcDbEntity
  8
0
  6
Continuous
 62
     0
370
    30
100
AcDbLine
 10
503.610523
 20
366.315954
 30
0.0
 11
525.610523
 21
366.315954
 31
0.0
  0
LINE
  5
B2
330
A7
100
AcDbEntity
  8
0
  6
Continuous
 62
     0
370
     0
100
AcDbLine
 10
525.610523
 20
327.315954
 30
0.0
 11
533.610523
 21
327.315954
 31
0.0
  0
LINE
  5
B3
330
A7
100
AcDbEntity
  8
0
  6
Continuous
 62
     0
370
    30
100
AcDbLine
 10
533.610523
 20
327.315954
 30
0.0
 11
533.610523
 21
366.315954
 31
0.0
  0
LINE
  5
B4
330
A7
100
AcDbEntity
  8
0
  6
Continuous
 62
     0
370
    30
100
AcDbLine
 10
533.610523
 20
366.315954
 30
0.0
 11
525.610523
 21
366.315954
 31
0.0
  0
ARC
  5
B5
330
A7
100
AcDbEntity
  8
0
  6
Continuous
 62
     0
370
    30
100
AcDbCircle
 10
496.610523
 20
327.315954
 30
0.0
 40
1.0
100
AcDbArc
 50
180.0
 51
270.0
  0
ARC
  5
B6
330
A7
100
AcDbEntity
  8
0
  6
Continuous
 62
     0
370
    30
100
AcDbCircle
 10
532.610523
 20
327.315954
 30
0.0
 40
0.9999999999999961
100
AcDbArc
 50
270.0
 51
0.0
  0
LINE
  5
B7
330
A7
100
AcDbEntity
  8
0
  6
Continuous
 62
     0
370
     0
100
AcDbLine
 10
525.610523
 20
327.315954
 30
0.0
 11
525.610523
 21
326.315954
 31
0.0
  0
LINE
  5
B8
330
A7
100
AcDbEntity
  8
0
  6
Continuous
 62
     0
370
     0
100
AcDbLine
 10
503.610523
 20
327.315954
 30
0.0
 11
503.610523
 21
326.315954
 31
0.0
  0
LINE
  5
B9
330
A7
100
AcDbEntity
  8
0
  6
Continuous
 62
     0
370
    30
100
AcDbLine
 10
514.612156
 20
316.465884
 30
0.0
 11
536.112156
 21
316.465885
 31
0.0
  0
LINE
  5
BA
330
A7
100
AcDbEntity
  8
0
  6
Continuous
 62
     0
370
    30
100
AcDbLine
 10
493.112156
 20
316.465885
 30
0.0
 11
514.612156
 21
316.465884
 31
0.0
  0
LINE
  5
BB
330
A7
100
AcDbEntity
  8
0
  6
Continuous
 62
     0
370
    30
100
AcDbLine
 10
514.612156
 20
316.965884
 30
0.0
 11
536.612156
 21
316.965885
 31
0.0
  0
LINE
  5
BC
330
A7
100
AcDbEntity
  8
0
  6
Continuous
 62
     0
370
    30
100
AcDbLine
 10
492.612156
 20
316.965885
 30
0.0
 11
514.612156
 21
316.965884
 31
0.0
  0
LINE
  5
BD
330
A7
100
AcDbEntity
  8
0
  6
Continuous
 62
     0
370
    30
100
AcDbLine
 10
536.612156
 20
366.465885
 30
0.0
 11
530.610523
 21
366.465885
 31
0.0
  0
LINE
  5
BE
330
A7
100
AcDbEntity
  8
0
  6
Continuous
 62
     0
370
    30
100
AcDbLine
 10
498.610523
 20
366.465885
 30
0.0
 11
492.612156
 21
366.465885
 31
0.0
  0
LWPOLYLINE
  5
BF
330
A7
100
AcDbEntity
  8
0
  6
Continuous
 62
     0
370
     0
100
AcDbPolyline
 90
       15
 70
     0
 43
0.0
 10
518.622864
 20
326.315948
 10
518.698059
 20
325.802032
 10
518.707825
 20
325.282471
 10
518.651978
 20
324.766022
 10
518.531067
 20
324.261169
 10
518.347351
 20
323.775818
 10
518.103699
 20
323.317749
 10
517.804504
 20
322.894073
 10
517.455017
 20
322.51178
 10
517.060669
 20
322.177338
 10
516.627563
 20
321.895569
 10
516.162109
 20
321.670502
 10
515.671936
 20
321.505341
 10
515.164246
 20
321.403107
 10
514.612183
 20
321.366272
  0
LWPOLYLINE
  5
C0
330
A7
100
AcDbEntity
  8
0
  6
Continuous
 62
     0
370
     0
100
AcDbPolyline
 90
       15
 70
     0
 43
0.0
 10
514.612183
 20
321.366272
 10
514.094971
 20
321.398651
 10
513.586304
 20
321.496307
 10
513.094727
 20
321.657257
 10
512.627502
 20
321.878479
 10
512.192017
 20
322.156494
 10
511.79483
 20
322.487366
 10
511.442108
 20
322.866486
 10
511.139313
 20
323.287476
 10
510.891693
 20
323.743408
 10
510.703888
 20
324.227081
 10
510.578613
 20
324.730804
 10
510.518219
 20
325.246674
 10
510.523468
 20
325.766266
 10
510.601562
 20
326.315948
  0
ARC
  5
C1
330
A7
100
AcDbEntity
  8
0
  6
Continuous
 62
     0
370
    30
100
AcDbCircle
 10
514.612156
 20
325.465884
 30
0.0
 40
3.450000000000048
100
AcDbArc
 50
270.0
 51
14.264495
  0
ARC
  5
C2
330
A7
100
AcDbEntity
  8
0
  6
Continuous
 62
     0
370
    30
100
AcDbCircle
 10
514.612156
 20
325.465884
 30
0.0
 40
3.44999999999997
100
AcDbArc
 50
165.735505
 51
270.0
  0
ARC
  5
C3
330
A7
100
AcDbEntity
  8
0
  6
Continuous
 62
     0
370
    30
100
AcDbCircle
 10
514.611557
 20
325.466135
 30
0.0
 40
3.950251093862121
100
AcDbArc
 50
270.008692
 51
12.423246
  0
ARC
  5
C4
330
A7
100
AcDbEntity
  8
0
  6
Continuous
 62
     0
370
    30
100
AcDbCircle
 10
514.612755
 20
325.466135
 30
0.0
 40
3.950251154883165
100
AcDbArc
 50
167.576755
 51
269.991307
  0
LINE
  5
C5
330
A7
100
AcDbEntity
  8
0
  6
Continuous
 62
     0
370
    30
100
AcDbLine
 10
492.612156
 20
316.965885
 30
0.0
 11
492.612156
 21
366.465885
 31
0.0
  0
LINE
  5
C6
330
A7
100
AcDbEntity
  8
0
  6
Continuous
 62
     0
370
    30
100
AcDbLine
 10
536.612156
 20
316.965885
 30
0.0
 11
536.612156
 21
366.465885
 31
0.0
  0
LINE
  5
C7
330
A7
100
AcDbEntity
  8
0
  6
Continuous
 62
     0
370
    30
100
AcDbLine
 10
536.112177
 20
316.465906
 30
0.0
 11
536.612156
 21
316.965885
 31
0.0
  0
LINE
  5
C8
330
A7
100
AcDbEntity
  8
0
  6
Continuous
 62
     0
370
    30
100
AcDbLine
 10
493.112135
 20
316.465906
 30
0.0
 11
492.612156
 21
316.965885
 31
0.0
  0
LINE
  5
C9
330
A7
100
AcDbEntity
  8
0
  6
Continuous
 62
     0
370
    30
100
AcDbLine
 10
554.612156
 20
371.465877
 30
0.0
 11
554.612156
 21
369.465877
 31
0.0
  0
LINE
  5
CA
330
A7
100
AcDbEntity
  8
0
  6
Continuous
 62
     0
370
    30
100
AcDbLine
 10
554.612156
 20
371.465877
 30
0.0
 11
474.612156
 21
371.465877
 31
0.0
  0
LINE
  5
CB
330
A7
100
AcDbEntity
  8
0
  6
Continuous
 62
     0
370
    30
100
AcDbLine
 10
474.612156
 20
371.465877
 30
0.0
 11
474.612156
 21
369.465877
 31
0.0
  0
LINE
  5
CC
330
A7
100
AcDbEntity
  8
0
  6
Continuous
 62
     0
370
    30
100
AcDbLine
 10
474.612156
 20
369.465877
 30
0.0
 11
554.612156
 21
369.465877
 31
0.0
  0
LINE
  5
CD
330
A7
100
AcDbEntity
  8
0
  6
Continuous
 62
     0
370
    30
100
AcDbLine
 10
498.195006
 20
366.965952
 30
0.0
 11
499.053959
 21
366.965952
 31
0.0
  0
LINE
  5
CE
330
A7
100
AcDbEntity
  8
0
  6
Continuous
 62
     0
370
    30
100
AcDbLine
 10
530.703909
 20
366.965953
 30
0.0
 11
531.026039
 21
366.965953
 31
0.0
  0
LINE
  5
CF
330
A7
100
AcDbEntity
  8
0
  6
Continuous
 62
     0
370
     0
100
AcDbLine
 10
497.908689
 20
367.265998
 30
0.0
 11
497.908689
 21
369.165906
 31
0.0
  0
LWPOLYLINE
  5
D0
330
A7
100
AcDbEntity
  8
0
  6
Continuous
 62
     0
370
     0
100
AcDbPolyline
 90
        6
 70
     0
 43
0.0
 10
497.908691
 20
369.165894
 10
497.629395
 20
369.148193
 10
497.409119
 20
369.130493
 10
497.248718
 20
369.112885
 10
497.14917
 20
369.09552
 10
497.110504
 20
369.076019
  0
LWPOLYLINE
  5
D1
330
A7
100
AcDbEntity
  8
0
  6
Continuous
 62
     0
370
     0
100
AcDbPolyline
 90
        6
 70
     0
 43
0.0
 10
497.110504
 20
367.355896
 10
497.140106
 20
367.338806
 10
497.231049
 20
367.321472
 10
497.382935
 20
367.303894
 10
497.594849
 20
367.286224
 10
497.908691
 20
367.265991
  0
LWPOLYLINE
  5
D2
330
A7
100
AcDbEntity
  8
0
  6
Continuous
 62
     0
370
     0
100
AcDbPolyline
 90
       48
 70
     0
 43
0.0
 10
531.027283
 20
369.465881
 10
531.333374
 20
369.445831
 10
531.565125
 20
369.425873
 10
531.721252
 20
369.406097
 10
531.800903
 20
369.386597
 10
531.803833
 20
369.367432
 10
531.730164
 20
369.348724
 10
531.580078
 20
369.330536
 10
531.354187
 20
369.312927
 10
531.053711
 20
369.296021
 10
530.67981
 20
369.279877
 10
530.234192
 20
369.264557
 10
529.718872
 20
369.250153
 10
529.136169
 20
369.236694
 10
528.488525
 20
369.224243
 10
527.779053
 20
369.212891
 10
527.010803
 20
369.202667
 10
526.187134
 20
369.193604
 10
525.31189
 20
369.18576
 10
524.388855
 20
369.179169
 10
523.42218
 20
369.173859
 10
522.416199
 20
369.169861
 10
521.375366
 20
369.167175
 10
520.304321
 20
369.165802
 10
519.207886
 20
369.165802
 10
518.090942
 20
369.167114
 10
516.958435
 20
369.169769
 10
515.815552
 20
369.173767
 10
514.667236
 20
369.179047
 10
513.518677
 20
369.185608
 10
512.375
 20
369.19342
 10
511.241364
 20
369.202454
 10
510.122772
 20
369.212646
 10
509.02417
 20
369.223999
 10
507.950562
 20
369.23642
 10
506.906677
 20
369.249847
 10
505.897186
 20
369.264252
 10
504.926605
 20
369.279541
 10
503.999298
 20
369.295685
 10
503.119263
 20
369.312561
 10
502.290588
 20
369.330139
 10
501.516876
 20
369.348328
 10
500.801575
 20
369.367035
 10
500.14798
 20
369.3862
 10
499.559082
 20
369.405701
 10
499.037231
 20
369.425446
 10
498.584595
 20
369.445404
 10
498.196259
 20
369.465881
  0
LWPOLYLINE
  5
D3
330
A7
100
AcDbEntity
  8
0
  6
Continuous
 62
     0
370
     0
100
AcDbPolyline
 90
       43
 70
     0
 43
0.0
 10
501.250305
 20
369.465881
 10
501.600098
 20
369.447632
 10
502.022583
 20
369.429474
 10
502.515381
 20
369.41153
 10
503.075806
 20
369.39389
 10
503.700562
 20
369.376648
 10
504.386353
 20
369.359924
 10
505.129242
 20
369.34375
 10
505.925079
 20
369.328308
 10
506.769501
 20
369.313599
 10
507.657684
 20
369.299744
 10
508.584778
 20
369.286835
 10
509.545532
 20
369.274933
 10
510.534546
 20
369.264069
 10
511.546387
 20
369.254364
 10
512.575378
 20
369.245819
 10
513.615723
 20
369.238495
 10
514.661621
 20
369.232452
 10
515.707275
 20
369.227722
 10
516.746765
 20
369.224335
 10
517.774353
 20
369.22226
 10
518.784302
 20
369.221588
 10
519.770813
 20
369.22226
 10
520.728577
 20
369.224304
 10
521.652161
 20
369.227692
 10
522.536377
 20
369.232391
 10
523.376282
 20
369.238434
 10
524.167175
 20
369.245728
 10
524.904724
 20
369.254242
 10
525.584717
 20
369.263947
 10
526.203369
 20
369.27478
 10
526.757263
 20
369.286682
 10
527.243225
 20
369.299591
 10
527.658691
 20
369.313416
 10
528.001282
 20
369.328125
 10
528.268921
 20
369.343567
 10
528.460388
 20
369.359711
 10
528.574341
 20
369.376434
 10
528.610352
 20
369.393677
 10
528.568237
 20
369.411316
 10
528.44812
 20
369.42926
 10
528.250549
 20
369.447418
 10
527.973145
 20
369.465881
  0
LWPOLYLINE
  5
D4
330
A7
100
AcDbEntity
  8
0
  6
Continuous
 62
     0
370
     0
100
AcDbPolyline
 90
       43
 70
     0
 43
0.0
 10
497.908691
 20
367.265991
 10
498.299438
 20
367.286255
 10
498.765656
 20
367.306458
 10
499.304474
 20
367.326508
 10
499.912354
 20
367.346222
 10
500.586639
 20
367.36557
 10
501.325012
 20
367.38446
 10
502.124603
 20
367.402802
 10
502.981903
 20
367.420563
 10
503.89267
 20
367.437592
 10
504.852753
 20
367.453888
 10
505.857635
 20
367.469269
 10
506.902191
 20
367.483765
 10
507.981323
 20
367.497223
 10
509.089874
 20
367.509613
 10
510.223145
 20
367.520905
 10
511.376526
 20
367.531036
 10
512.545593
 20
367.539948
 10
513.725037
 20
367.547607
 10
514.909058
 20
367.554016
 10
516.091858
 20
367.559082
 10
517.267578
 20
367.562805
 10
518.430969
 20
367.565186
 10
519.576843
 20
367.566193
 10
520.69989
 20
367.565826
 10
521.795166
 20
367.564056
 10
522.857727
 20
367.560974
 10
523.88269
 20
367.556488
 10
524.865173
 20
367.55069
 10
525.800537
 20
367.54361
 10
526.684265
 20
367.535248
 10
527.511963
 20
367.525665
 10
528.280457
 20
367.514923
 10
528.986755
 20
367.503021
 10
529.627808
 20
367.490021
 10
530.200745
 20
367.476013
 10
530.702698
 20
367.461029
 10
531.130981
 20
367.445129
 10
531.483398
 20
367.428436
 10
531.758667
 20
367.41098
 10
531.955444
 20
367.392914
 10
532.072815
 20
367.374237
 10
532.110535
 20
367.355072
  0
LWPOLYLINE
  5
D5
330
A7
100
AcDbEntity
  8
0
  6
Continuous
 62
     0
370
     0
100
AcDbPolyline
 90
       43
 70
     0
 43
0.0
 10
532.110474
 20
369.077179
 10
532.074219
 20
369.058014
 10
531.958313
 20
369.039337
 10
531.762817
 20
369.02124
 10
531.488892
 20
369.003784
 10
531.137634
 20
368.987061
 10
530.710388
 20
368.97113
 10
530.209412
 20
368.956146
 10
529.63739
 20
368.942078
 10
528.997131
 20
368.929077
 10
528.291504
 20
368.917145
 10
527.52356
 20
368.906372
 10
526.696411
 20
368.89679
 10
525.81311
 20
368.888397
 10
524.877991
 20
368.881287
 10
523.895691
 20
368.875488
 10
522.87085
 20
368.871002
 10
521.808289
 20
368.867859
 10
520.712952
 20
368.866089
 10
519.589722
 20
368.865692
 10
518.443604
 20
368.866699
 10
517.279907
 20
368.869049
 10
516.10376
 20
368.872772
 10
514.920593
 20
368.877838
 10
513.736084
 20
368.884216
 10
512.55603
 20
368.891876
 10
511.386444
 20
368.900787
 10
510.232422
 20
368.910919
 10
509.098541
 20
368.92218
 10
507.989319
 20
368.93457
 10
506.909546
 20
368.948059
 10
505.864288
 20
368.962524
 10
504.858734
 20
368.977936
 10
503.89801
 20
368.994202
 10
502.986572
 20
369.011261
 10
502.128662
 20
369.028992
 10
501.328461
 20
369.047363
 10
500.589539
 20
369.066254
 10
499.914703
 20
369.085602
 10
499.306335
 20
369.105347
 10
498.76709
 20
369.125366
 10
498.300476
 20
369.145599
 10
497.908691
 20
369.165894
  0
LWPOLYLINE
  5
D6
330
A7
100
AcDbEntity
  8
0
  6
Continuous
 62
     0
370
     0
100
AcDbPolyline
 90
       44
 70
     0
 43
0.0
 10
530.780212
 20
367.016083
 10
530.882629
 20
367.035248
 10
530.907776
 20
367.054077
 10
530.855591
 20
367.072479
 10
530.726318
 20
367.090393
 10
530.52063
 20
367.107697
 10
530.23938
 20
367.124359
 10
529.883911
 20
367.140228
 10
529.456055
 20
367.155304
 10
528.957642
 20
367.169464
 10
528.391235
 20
367.182678
 10
527.759399
 20
367.194824
 10
527.065125
 20
367.205933
 10
526.311768
 20
367.215851
 10
525.502869
 20
367.224609
 10
524.642273
 20
367.232147
 10
523.73407
 20
367.238403
 10
522.782593
 20
367.243378
 10
521.792297
 20
367.24704
 10
520.767944
 20
367.249359
 10
519.714355
 20
367.250336
 10
518.636536
 20
367.249969
 10
517.539612
 20
367.24826
 10
516.428772
 20
367.245178
 10
515.309265
 20
367.240814
 10
514.186462
 20
367.235107
 10
513.065674
 20
367.228149
 10
511.952209
 20
367.21991
 10
510.851349
 20
367.21051
 10
509.768311
 20
367.199921
 10
508.708252
 20
367.188232
 10
507.676178
 20
367.175476
 10
506.677002
 20
367.161743
 10
505.715485
 20
367.147064
 10
504.796173
 20
367.131531
 10
503.923401
 20
367.115234
 10
503.101349
 20
367.098206
 10
502.333893
 20
367.080536
 10
501.624695
 20
367.062347
 10
500.977112
 20
367.043701
 10
500.394226
 20
367.024658
 10
499.878784
 20
367.005371
 10
499.433228
 20
366.98587
 10
499.053955
 20
366.965942
  0
LWPOLYLINE
  5
D7
330
A7
100
AcDbEntity
  8
0
  6
Continuous
 62
     0
370
     0
100
AcDbPolyline
 90
       48
 70
     0
 43
0.0
 10
498.195007
 20
366.965942
 10
498.574219
 20
366.985992
 10
499.025055
 20
367.005951
 10
499.545441
 20
367.025726
 10
500.133118
 20
367.045258
 10
500.7854
 20
367.064423
 10
501.49942
 20
367.08313
 10
502.271973
 20
367.101349
 10
503.099609
 20
367.118927
 10
503.978638
 20
367.135834
 10
504.905121
 20
367.152008
 10
505.874969
 20
367.167328
 10
506.883789
 20
367.181763
 10
507.927124
 20
367.195221
 10
509.000305
 20
367.207642
 10
510.098541
 20
367.219025
 10
511.216919
 20
367.229248
 10
512.350464
 20
367.238312
 10
513.49408
 20
367.246155
 10
514.6427
 20
367.252747
 10
515.791199
 20
367.258057
 10
516.934387
 20
367.262054
 10
518.067261
 20
367.26474
 10
519.184692
 20
367.266083
 10
520.281677
 20
367.266113
 10
521.353394
 20
367.264771
 10
522.39502
 20
367.262115
 10
523.401917
 20
367.258148
 10
524.369507
 20
367.252869
 10
525.293579
 20
367.246307
 10
526.169983
 20
367.238464
 10
526.994812
 20
367.229431
 10
527.764282
 20
367.219238
 10
528.475098
 20
367.207886
 10
529.124023
 20
367.195465
 10
529.708191
 20
367.182037
 10
530.224915
 20
367.167633
 10
530.671936
 20
367.152313
 10
531.047302
 20
367.1362
 10
531.349304
 20
367.119293
 10
531.576599
 20
367.101715
 10
531.728149
 20
367.083527
 10
531.803284
 20
367.064819
 10
531.801636
 20
367.045654
 10
531.723328
 20
367.026154
 10
531.568604
 20
367.006378
 10
531.338196
 20
366.98642
 10
531.026062
 20
366.965942
  0
LWPOLYLINE
  5
D8
330
A7
100
AcDbEntity
  8
0
  6
Continuous
 62
     0
370
     0
100
AcDbPolyline
 90
       42
 70
     0
 43
0.0
 10
530.610535
 20
366.750854
 10
530.572266
 20
366.769409
 10
530.457642
 20
366.787476
 10
530.267151
 20
366.804962
 10
530.001892
 20
366.821808
 10
529.662903
 20
366.837891
 10
529.251892
 20
366.853149
 10
528.770935
 20
366.867493
 10
528.222107
 20
366.88089
 10
527.608154
 20
366.89325
 10
526.932129
 20
366.904541
 10
526.197021
 20
366.914673
 10
525.406494
 20
366.923645
 10
524.564331
 20
366.931335
 10
523.6745
 20
366.937805
 10
522.741333
 20
366.942932
 10
521.769287
 20
366.946747
 10
520.762878
 20
366.949219
 10
519.727112
 20
366.950348
 10
518.66687
 20
366.950104
 10
517.587158
 20
366.948517
 10
516.493225
 20
366.945557
 10
515.39032
 20
366.941254
 10
514.283691
 20
366.935669
 10
513.178589
 20
366.928741
 10
512.080383
 20
366.920593
 10
510.994263
 20
366.911224
 10
509.925446
 20
366.900665
 10
508.879089
 20
366.889008
 10
507.860138
 20
366.876251
 10
506.873505
 20
366.862518
 10
505.92392
 20
366.847809
 10
505.015839
 20
366.832275
 10
504.153687
 20
366.815918
 10
503.341614
 20
366.798828
 10
502.583374
 20
366.781128
 10
501.882782
 20
366.762878
 10
501.243103
 20
366.744171
 10
500.667206
 20
366.725067
 10
500.157959
 20
366.705688
 10
499.717896
 20
366.686096
 10
499.341797
 20
366.665985
  0
ARC
  5
D9
330
A7
100
AcDbEntity
  8
0
  6
Continuous
 62
     0
370
    30
100
AcDbCircle
 10
499.046635
 20
366.670828
 30
0.0
 40
0.2952150453729134
100
AcDbArc
 50
359.062518
 51
88.578406
  0
LINE
  5
DA
330
A7
100
AcDbEntity
  8
0
  6
Continuous
 62
     0
370
     0
100
AcDbLine
 10
531.041715
 20
366.966414
 30
0.0
 11
531.026039
 21
366.965953
 31
0.0
  0
LWPOLYLINE
  5
DB
330
A7
100
AcDbEntity
  8
0
  6
Continuous
 62
     0
370
     0
100
AcDbPolyline
 90
        5
 70
     0
 43
0.0
 10
498.195007
 20
366.965942
 10
498.096466
 20
366.984436
 10
498.009369
 20
367.037445
 10
497.945587
 20
367.118683
 10
497.908691
 20
367.265991
  0
LINE
  5
DC
330
A7
100
AcDbEntity
  8
0
  6
Continuous
 62
     0
370
     0
100
AcDbLine
 10
531.032255
 20
369.46588
 30
0.0
 11
531.041718
 21
369.465492
 31
0.0
  0
LWPOLYLINE
  5
DD
330
A7
100
AcDbEntity
  8
0
  6
Continuous
 62
     0
370
     0
100
AcDbPolyline
 90
        5
 70
     0
 43
0.0
 10
497.908691
 20
369.165894
 10
497.925598
 20
369.267029
 10
497.974152
 20
369.356964
 10
498.048798
 20
369.423889
 10
498.188782
 20
369.465881
  0
LINE
  5
DE
330
A7
100
AcDbEntity
  8
0
  6
Continuous
 62
     0
370
     0
100
AcDbLine
 10
499.340275
 20
366.695226
 30
0.0
 11
499.340275
 21
366.315954
 31
0.0
  0
LINE
  5
DF
330
A7
100
AcDbEntity
  8
0
  6
Continuous
 62
     0
370
    30
100
AcDbLine
 10
498.610523
 20
366.315955
 30
0.0
 11
498.610523
 21
366.965952
 31
0.0
  0
LINE
  5
E0
330
A7
100
AcDbEntity
  8
0
  6
Continuous
 62
     0
370
    30
100
AcDbLine
 10
530.610523
 20
366.315955
 30
0.0
 11
530.610523
 21
366.750853
 31
0.0
  0
LWPOLYLINE
  5
E1
330
A7
100
AcDbEntity
  8
0
  6
Continuous
 62
     0
370
    30
100
AcDbPolyline
 90
       25
 70
     0
 43
0.0
 10
497.110535
 20
369.076263
 10
497.148987
 20
369.224579
 10
497.22287
 20
369.313263
 10
497.281891
 20
369.352234
 10
497.32309
 20
369.370392
 10
497.355194
 20
369.380951
 10
497.383759
 20
369.388489
 10
497.411133
 20
369.394531
 10
497.438721
 20
369.39975
 10
497.467529
 20
369.404541
 10
497.497986
 20
369.409058
 10
497.530426
 20
369.413391
 10
497.565033
 20
369.417603
 10
497.60202
 20
369.421722
 10
497.641418
 20
369.425812
 10
497.683319
 20
369.42984
 10
497.727783
 20
369.433868
 10
497.774902
 20
369.437866
 10
497.824646
 20
369.441833
 10
497.877075
 20
369.445801
 10
497.932129
 20
369.449738
 10
497.989838
 20
369.453705
 10
498.050262
 20
369.457642
 10
498.113342
 20
369.461548
 10
498.179321
 20
369.465485
  0
LWPOLYLINE
  5
E2
330
A7
100
AcDbEntity
  8
0
  6
Continuous
 62
     0
370
    30
100
AcDbPolyline
 90
       26
 70
     0
 43
0.0
 10
498.179321
 20
366.9664
 10
498.116211
 20
366.970184
 10
498.055573
 20
366.973938
 10
497.997406
 20
366.977692
 10
497.941711
 20
366.981476
 10
497.888458
 20
366.98526
 10
497.837646
 20
366.989044
 10
497.789276
 20
366.992859
 10
497.743286
 20
366.996674
 10
497.699707
 20
367.000519
 10
497.658508
 20
367.004425
 10
497.619629
 20
367.008331
 10
497.583099
 20
367.012268
 10
497.548767
 20
367.016266
 10
497.516571
 20
367.020325
 10
497.486389
 20
367.024475
 10
497.457855
 20
367.02887
 10
497.430542
 20
367.0336
 10
497.404114
 20
367.038849
 10
497.377747
 20
367.044922
 10
497.350098
 20
367.052429
 10
497.318237
 20
367.063416
 10
497.277527
 20
367.082031
 10
497.219482
 20
367.12146
 10
497.148499
 20
367.208221
 10
497.110535
 20
367.355621
  0
LWPOLYLINE
  5
E3
330
A7
100
AcDbEntity
  8
0
  6
Continuous
 62
     0
370
    30
100
AcDbPolyline
 90
       26
 70
     0
 43
0.0
 10
531.041748
 20
369.465485
 10
531.104858
 20
369.461731
 10
531.165466
 20
369.457977
 10
531.223633
 20
369.454224
 10
531.279297
 20
369.450439
 10
531.332581
 20
369.446655
 10
531.383362
 20
369.442871
 10
531.431763
 20
369.439056
 10
531.477722
 20
369.435211
 10
531.521301
 20
369.431366
 10
531.562561
 20
369.42749
 10
531.601379
 20
369.423584
 10
531.637939
 20
369.419647
 10
531.672241
 20
369.415649
 10
531.704468
 20
369.411591
 10
531.734619
 20
369.40744
 10
531.763184
 20
369.403046
 10
531.790466
 20
369.398285
 10
531.816895
 20
369.393066
 10
531.843262
 20
369.386993
 10
531.870911
 20
369.379486
 10
531.902771
 20
369.3685
 10
531.943481
 20
369.349854
 10
532.001526
 20
369.310425
 10
532.07251
 20
369.223663
 10
532.110474
 20
369.076263
  0
LWPOLYLINE
  5
E4
330
A7
100
AcDbEntity
  8
0
  6
Continuous
 62
     0
370
    30
100
AcDbPolyline
 90
       25
 70
     0
 43
0.0
 10
532.110535
 20
367.355621
 10
532.072083
 20
367.207336
 10
531.998169
 20
367.118622
 10
531.939148
 20
367.079681
 10
531.897949
 20
367.061523
 10
531.865845
 20
367.050964
 10
531.83728
 20
367.043427
 10
531.809937
 20
367.037384
 10
531.782288
 20
367.032166
 10
531.753479
 20
367.027374
 10
531.723022
 20
367.022858
 10
531.690613
 20
367.018524
 10
531.656006
 20
367.014313
 10
531.619019
 20
367.010162
 10
531.579651
 20
367.006104
 10
531.53772
 20
367.002045
 10
531.493225
 20
366.998047
 10
531.446167
 20
366.994049
 10
531.396362
 20
366.990082
 10
531.343994
 20
366.986115
 10
531.28894
 20
366.982147
 10
531.231201
 20
366.97821
 10
531.170776
 20
366.974274
 10
531.107666
 20
366.970337
 10
531.041687
 20
366.9664
  0
LWPOLYLINE
  5
E5
330
A7
100
AcDbEntity
  8
0
  6
Continuous
 62
     0
370
    30
100
AcDbPolyline
 90
        7
 70
     0
 43
0.0
 10
530.800171
 20
367.023224
 10
530.79657
 20
367.022247
 10
530.783875
 20
367.017578
 10
530.757263
 20
367.004761
 10
530.709229
 20
366.970734
 10
530.64624
 20
366.891632
 10
530.610535
 20
366.750854
  0
LINE
  5
E6
330
A7
100
AcDbEntity
  8
0
  6
Continuous
 62
     0
370
    30
100
AcDbLine
 10
532.110523
 20
367.355635
 30
0.0
 11
532.110523
 21
369.07627
 31
0.0
  0
LINE
  5
E7
330
A7
100
AcDbEntity
  8
0
  6
Continuous
 62
     0
370
    30
100
AcDbLine
 10
497.110523
 20
367.355635
 30
0.0
 11
497.110523
 21
369.07627
 31
0.0
  0
LWPOLYLINE
  5
E8
330
A7
100
AcDbEntity
  8
0
  6
Continuous
 62
     0
370
     0
100
AcDbPolyline
 90
        7
 70
     0
 43
0.0
 10
497.253479
 20
369.335693
 10
496.635284
 20
369.328735
 10
496.076202
 20
369.322205
 10
495.578064
 20
369.316162
 10
495.142578
 20
369.310608
 10
494.771118
 20
369.305573
 10
494.438141
 20
369.300659
  0
LWPOLYLINE
  5
E9
330
A7
100
AcDbEntity
  8
0
  6
Continuous
 62
     0
370
     0
100
AcDbPolyline
 90
       11
 70
     0
 43
0.0
 10
493.612152
 20
367.443298
 10
493.647858
 20
367.44101
 10
493.754883
 20
367.43811
 10
493.932526
 20
367.434662
 10
494.180084
 20
367.430634
 10
494.496704
 20
367.426025
 10
494.881348
 20
367.420898
 10
495.332642
 20
367.415253
 10
495.849213
 20
367.409088
 10
496.429779
 20
367.402435
 10
497.110535
 20
367.394897
  0
LWPOLYLINE
  5
EA
330
A7
100
AcDbEntity
  8
0
  6
Continuous
 62
     0
370
     0
100
AcDbPolyline
 90
       11
 70
     0
 43
0.0
 10
497.110535
 20
369.036865
 10
496.464447
 20
369.029724
 10
495.88031
 20
369.023041
 10
495.360077
 20
369.016846
 10
494.90509
 20
369.011169
 10
494.516632
 20
369.006012
 10
494.196136
 20
369.001404
 10
493.944672
 20
368.997314
 10
493.763031
 20
368.993835
 10
493.652008
 20
368.990906
 10
493.612152
 20
368.988464
  0
LWPOLYLINE
  5
EB
330
A7
100
AcDbEntity
  8
0
  6
Continuous
 62
     0
370
     0
100
AcDbPolyline
 90
        8
 70
     0
 43
0.0
 10
534.942688
 20
369.285217
 10
534.70575
 20
369.285461
 10
534.411804
 20
369.286255
 10
534.061584
 20
369.287506
 10
533.656189
 20
369.289307
 10
533.196716
 20
369.291595
 10
532.684509
 20
369.294373
 10
532.015076
 20
369.298279
  0
LWPOLYLINE
  5
EC
330
A7
100
AcDbEntity
  8
0
  6
Continuous
 62
     0
370
     0
100
AcDbPolyline
 90
       14
 70
     0
 43
0.0
 10
531.967529
 20
369.335724
 10
532.59967
 20
369.328613
 10
533.169922
 20
369.32196
 10
533.676208
 20
369.315796
 10
534.116882
 20
369.31015
 10
534.490356
 20
369.305054
 10
534.79541
 20
369.300507
 10
535.030945
 20
369.296509
 10
535.196167
 20
369.293121
 10
535.290527
 20
369.290314
 10
535.313599
 20
369.288116
 10
535.265442
 20
369.28653
 10
535.146179
 20
369.285553
 10
534.942688
 20
369.285217
  0
LWPOLYLINE
  5
ED
330
A7
100
AcDbEntity
  8
0
  6
Continuous
 62
     0
370
     0
100
AcDbPolyline
 90
       11
 70
     0
 43
0.0
 10
533.319824
 20
369.299652
 10
533.493225
 20
369.299896
 10
533.608032
 20
369.30072
 10
533.659607
 20
369.302124
 10
533.64386
 20
369.304169
 10
533.55719
 20
369.306824
 10
533.396545
 20
369.31012
 10
533.159668
 20
369.314087
 10
532.845032
 20
369.318726
 10
532.452209
 20
369.324005
 10
531.976135
 20
369.329987
  0
ARC
  5
EE
330
A7
100
AcDbEntity
  8
0
  6
Continuous
 62
     0
370
     0
100
AcDbCircle
 10
533.660672
 20
668.121174
 30
0.0
 40
298.821730553683
100
AcDbArc
 50
269.683283
 51
269.934641
  0
LWPOLYLINE
  5
EF
330
A7
100
AcDbEntity
  8
0
  6
Continuous
 62
     0
370
     0
100
AcDbPolyline
 90
        5
 70
     0
 43
0.0
 10
535.612061
 20
368.988464
 10
535.592773
 20
368.987183
 10
535.535217
 20
368.986206
 10
535.439575
 20
368.985565
 10
535.234741
 20
368.985229
  0
LINE
  5
F0
330
A7
100
AcDbEntity
  8
0
  6
Continuous
 62
     0
370
     0
100
AcDbLine
 10
535.234749
 20
368.985227
 30
0.0
 11
535.234749
 21
367.446543
 31
0.0
  0
LWPOLYLINE
  5
F1
330
A7
100
AcDbEntity
  8
0
  6
Continuous
 62
     0
370
     0
100
AcDbPolyline
 90
        5
 70
     0
 43
0.0
 10
535.234741
 20
367.446533
 10
535.385071
 20
367.446381
 10
535.49762
 20
367.445892
 10
535.572021
 20
367.445068
 10
535.612061
 20
367.443298
  0
LWPOLYLINE
  5
F2
330
A7
100
AcDbEntity
  8
0
  6
Continuous
 62
     0
370
     0
100
AcDbPolyline
 90
        8
 70
     0
 43
0.0
 10
532.110535
 20
367.432556
 10
532.728394
 20
367.436188
 10
533.290466
 20
367.43927
 10
533.795105
 20
367.441833
 10
534.24054
 20
367.443817
 10
534.625305
 20
367.445282
 10
534.947876
 20
367.446198
 10
535.234741
 20
367.446533
  0
LWPOLYLINE
  5
F3
330
A7
100
AcDbEntity
  8
0
  6
Continuous
 62
     0
370
     0
100
AcDbPolyline
 90
        8
 70
     0
 43
0.0
 10
535.234741
 20
368.985229
 10
534.983215
 20
368.985504
 10
534.668396
 20
368.986328
 10
534.291199
 20
368.987732
 10
533.853149
 20
368.989685
 10
533.355713
 20
368.992157
 10
532.800598
 20
368.995178
 10
532.110535
 20
368.999207
  0
LWPOLYLINE
  5
F4
330
A7
100
AcDbEntity
  8
0
  6
Continuous
 62
     0
370
     0
100
AcDbPolyline
 90
        7
 70
     0
 43
0.0
 10
534.299255
 20
367.140839
 10
534.07019
 20
367.140594
 10
533.786072
 20
367.139832
 10
533.447693
 20
367.138611
 10
533.05603
 20
367.136902
 10
532.612122
 20
367.134674
 10
532.012695
 20
367.131409
  0
LWPOLYLINE
  5
F5
330
A7
100
AcDbEntity
  8
0
  6
Continuous
 62
     0
370
     0
100
AcDbPolyline
 90
        5
 70
     0
 43
0.0
 10
534.629639
 20
367.13562
 10
534.659241
 20
367.137878
 10
534.615601
 20
367.139496
 10
534.49884
 20
367.140472
 10
534.299255
 20
367.140839
  0
LWPOLYLINE
  5
F6
330
A7
100
AcDbEntity
  8
0
  6
Continuous
 62
     0
370
     0
100
AcDbPolyline
 90
        9
 70
     0
 43
0.0
 10
534.942688
 20
367.146545
 10
535.130127
 20
367.146271
 10
535.252686
 20
367.145416
 10
535.310059
 20
367.143982
 10
535.302063
 20
367.141998
 10
535.228638
 20
367.139465
 10
535.090088
 20
367.136383
 10
534.88678
 20
367.132751
 10
534.587524
 20
367.128113
  0
LWPOLYLINE
  5
F7
330
A7
100
AcDbEntity
  8
0
  6
Continuous
 62
     0
370
     0
100
AcDbPolyline
 90
        8
 70
     0
 43
0.0
 10
532.014954
 20
367.133484
 10
532.587463
 20
367.136841
 10
533.109009
 20
367.139709
 10
533.578003
 20
367.14209
 10
533.993164
 20
367.143982
 10
534.353333
 20
367.145325
 10
534.65741
 20
367.14621
 10
534.942688
 20
367.146545
  0
LINE
  5
F8
330
A7
100
AcDbEntity
  8
0
  6
Continuous
 62
     0
370
     0
100
AcDbLine
 10
495.380785
 20
367.118075
 30
0.0
 11
497.253659
 21
367.096068
 31
0.0
  0
LWPOLYLINE
  5
F9
330
A7
100
AcDbEntity
  8
0
  6
Continuous
 62
     0
370
     0
100
AcDbPolyline
 90
        8
 70
     0
 43
0.0
 10
534.007202
 20
366.840851
 10
533.739319
 20
366.840515
 10
533.397766
 20
366.839508
 10
532.984131
 20
366.83783
 10
532.499878
 20
366.83551
 10
531.947083
 20
366.83252
 10
531.327881
 20
366.828888
 10
530.619934
 20
366.824493
  0
ARC
  5
FA
330
A7
100
AcDbEntity
  8
0
  6
Continuous
 62
     0
370
     0
100
AcDbCircle
 10
534.3046
 20
366.843486
 30
0.0
 40
0.2973980795744495
100
AcDbArc
 50
91.030538
 51
180.508353
  0
LWPOLYLINE
  5
FB
330
A7
100
AcDbEntity
  8
0
  6
Continuous
 62
     0
370
     0
100
AcDbPolyline
 90
        4
 70
     0
 43
0.0
 10
534.362122
 20
366.837708
 10
534.322632
 20
366.839447
 10
534.204529
 20
366.840485
 10
534.007202
 20
366.840851
  0
LWPOLYLINE
  5
FC
330
A7
100
AcDbEntity
  8
0
  6
Continuous
 62
     0
370
     0
100
AcDbPolyline
 90
       11
 70
     0
 43
0.0
 10
498.610535
 20
366.785736
 10
497.918518
 20
366.793457
 10
497.291779
 20
366.80069
 10
496.732635
 20
366.807404
 10
496.243378
 20
366.813568
 10
495.825958
 20
366.819122
 10
495.481873
 20
366.824097
 10
495.212524
 20
366.828461
 10
495.019104
 20
366.832184
 10
494.90213
 20
366.835266
 10
494.862152
 20
366.837708
  0
ARC
  5
FD
330
A7
100
AcDbEntity
  8
0
  6
Continuous
 62
     0
370
     0
100
AcDbCircle
 10
534.937363
 20
367.443904
 30
0.0
 40
0.2973980795734968
100
AcDbArc
 50
271.030538
 51
0.508353
  0
ARC
  5
FE
330
A7
100
AcDbEntity
  8
0
  6
Continuous
 62
     0
370
     0
100
AcDbCircle
 10
534.937363
 20
368.987866
 30
0.0
 40
0.2973980856209239
100
AcDbArc
 50
359.491647
 51
88.969461
  0
LINE
  5
FF
330
A7
100
AcDbEntity
  8
0
  6
Continuous
 62
     0
370
     0
100
AcDbLine
 10
534.007214
 20
366.465885
 30
0.0
 11
534.007214
 21
366.840847
 31
0.0
  0
LINE
  5
100
330
A7
100
AcDbEntity
  8
0
  6
Continuous
 62
     0
370
    30
100
AcDbLine
 10
494.862156
 20
366.465885
 30
0.0
 11
494.862156
 21
366.8377
 31
0.0
  0
LINE
  5
101
330
A7
100
AcDbEntity
  8
0
  6
Continuous
 62
     0
370
    30
100
AcDbLine
 10
534.362156
 20
366.465885
 30
0.0
 11
534.362156
 21
366.837702
 31
0.0
  0
LWPOLYLINE
  5
102
330
A7
100
AcDbEntity
  8
0
  6
Continuous
 62
     0
370
    30
100
AcDbPolyline
 90
       61
 70
     0
 43
0.0
 10
493.612152
 20
368.988464
 10
493.653412
 20
369.140259
 10
493.762207
 20
369.248322
 10
493.854767
 20
369.283112
 10
493.88266
 20
369.287292
 10
493.895386
 20
369.288483
 10
493.904816
 20
369.289124
 10
493.913544
 20
369.289581
 10
493.922546
 20
369.290009
 10
493.932129
 20
369.290405
 10
493.942657
 20
369.290771
 10
493.954193
 20
369.291168
 10
493.966827
 20
369.291565
 10
493.98053
 20
369.291962
 10
493.995392
 20
369.292358
 10
494.011414
 20
369.292755
 10
494.028595
 20
369.293152
 10
494.046967
 20
369.293579
 10
494.066559
 20
369.294037
 10
494.087341
 20
369.294464
 10
494.109344
 20
369.294922
 10
494.132538
 20
369.29538
 10
494.156982
 20
369.295868
 10
494.182587
 20
369.296326
 10
494.209442
 20
369.296814
 10
494.237488
 20
369.297333
 10
494.266754
 20
369.297852
 10
494.297241
 20
369.29837
 10
494.328918
 20
369.298889
 10
494.361816
 20
369.299438
 10
494.395935
 20
369.299988
 10
494.431244
 20
369.300537
 10
494.467773
 20
369.301117
 10
494.505524
 20
369.301697
 10
494.544464
 20
369.302277
 10
494.584595
 20
369.302887
 10
494.625946
 20
369.303497
 10
494.668488
 20
369.304108
 10
494.71225
 20
369.304749
 10
494.757172
 20
369.305389
 10
494.803314
 20
369.30603
 10
494.850616
 20
369.306702
 10
494.899078
 20
369.307373
 10
494.9487
 20
369.308044
 10
494.999481
 20
369.308716
 10
495.051453
 20
369.309418
 10
495.104614
 20
369.31012
 10
495.158966
 20
369.310852
 10
495.2146
 20
369.311554
 10
495.271454
 20
369.312286
 10
495.329468
 20
369.313049
 10
495.388519
 20
369.313782
 10
495.448517
 20
369.314545
 10
495.509369
 20
369.315308
 10
495.57135
 20
369.316101
 10
495.635376
 20
369.316895
 10
495.701965
 20
369.317688
 10
495.768219
 20
369.318512
 10
495.830292
 20
369.319275
 10
495.892792
 20
369.320068
 10
495.970642
 20
369.320953
  0
LWPOLYLINE
  5
103
330
A7
100
AcDbEntity
  8
0
  6
Continuous
 62
     0
370
    30
100
AcDbPolyline
 90
       27
 70
     0
 43
0.0
 10
535.612122
 20
368.988464
 10
535.583923
 20
369.115448
 10
535.505859
 20
369.21759
 10
535.407471
 20
369.27301
 10
535.358093
 20
369.285095
 10
535.339722
 20
369.287506
 10
535.329224
 20
369.288483
 10
535.321716
 20
369.288971
 10
535.314392
 20
369.289398
 10
535.307068
 20
369.289764
 10
535.299622
 20
369.2901
 10
535.291626
 20
369.290405
 10
535.282959
 20
369.290741
 10
535.273682
 20
369.291046
 10
535.263611
 20
369.291382
 10
535.252869
 20
369.291687
 10
535.241333
 20
369.292023
 10
535.229004
 20
369.292328
 10
535.215942
 20
369.292664
 10
535.202026
 20
369.29303
 10
535.187317
 20
369.293365
 10
535.171814
 20
369.293701
 10
535.155518
 20
369.294067
 10
535.138367
 20
369.294434
 10
535.120422
 20
369.2948
 10
535.101685
 20
369.295197
 10
535.08136
 20
369.295593
  0
LWPOLYLINE
  5
104
330
A7
100
AcDbEntity
  8
0
  6
Continuous
 62
     0
370
    30
100
AcDbPolyline
 90
       43
 70
     0
 43
0.0
 10
535.612122
 20
367.443298
 10
535.581116
 20
367.310577
 10
535.496216
 20
367.20639
 10
535.396484
 20
367.155243
 10
535.353333
 20
367.145966
 10
535.33667
 20
367.143921
 10
535.326904
 20
367.143127
 10
535.319214
 20
367.142639
 10
535.311523
 20
367.142212
 10
535.303833
 20
367.141846
 10
535.295776
 20
367.14151
 10
535.287109
 20
367.141174
 10
535.277588
 20
367.140839
 10
535.267395
 20
367.140503
 10
535.256348
 20
367.140167
 10
535.244507
 20
367.139832
 10
535.231812
 20
367.139496
 10
535.218201
 20
367.13916
 10
535.203796
 20
367.138794
 10
535.188477
 20
367.138428
 10
535.172241
 20
367.138062
 10
535.15509
 20
367.137695
 10
535.137085
 20
367.137299
 10
535.118225
 20
367.136902
 10
535.098389
 20
367.136505
 10
535.077698
 20
367.136108
 10
535.056091
 20
367.135712
 10
535.033569
 20
367.135284
 10
535.010132
 20
367.134857
 10
534.985779
 20
367.13443
 10
534.960571
 20
367.133972
 10
534.934448
 20
367.133545
 10
534.90741
 20
367.133087
 10
534.879456
 20
367.132599
 10
534.850647
 20
367.132141
 10
534.820862
 20
367.131653
 10
534.790222
 20
367.131165
 10
534.758728
 20
367.130676
 10
534.726257
 20
367.130188
 10
534.692932
 20
367.129669
 10
534.658691
 20
367.12915
 10
534.623596
 20
367.128632
 10
534.587463
 20
367.128113
  0
LWPOLYLINE
  5
105
330
A7
100
AcDbEntity
  8
0
  6
Continuous
 62
     0
370
    30
100
AcDbPolyline
 90
       61
 70
     0
 43
0.0
 10
493.612152
 20
367.443298
 10
493.653412
 20
367.291504
 10
493.762207
 20
367.183441
 10
493.854767
 20
367.148682
 10
493.88266
 20
367.14447
 10
493.895386
 20
367.143311
 10
493.904816
 20
367.14267
 10
493.913544
 20
367.142181
 10
493.922546
 20
367.141754
 10
493.932129
 20
367.141357
 10
493.942657
 20
367.140991
 10
493.954193
 20
367.140594
 10
493.966827
 20
367.140228
 10
493.98053
 20
367.139832
 10
493.995392
 20
367.139435
 10
494.011414
 20
367.139008
 10
494.028595
 20
367.138611
 10
494.046967
 20
367.138184
 10
494.066559
 20
367.137756
 10
494.087341
 20
367.137299
 10
494.109344
 20
367.136841
 10
494.132538
 20
367.136383
 10
494.156982
 20
367.135925
 10
494.182587
 20
367.135437
 10
494.209442
 20
367.134949
 10
494.237488
 20
367.13443
 10
494.266754
 20
367.133942
 10
494.297241
 20
367.133392
 10
494.328918
 20
367.132874
 10
494.361816
 20
367.132324
 10
494.395935
 20
367.131775
 10
494.431244
 20
367.131226
 10
494.467773
 20
367.130646
 10
494.505524
 20
367.130066
 10
494.544464
 20
367.129486
 10
494.584595
 20
367.128876
 10
494.625946
 20
367.128265
 10
494.668488
 20
367.127655
 10
494.71225
 20
367.127014
 10
494.757172
 20
367.126373
 10
494.803314
 20
367.125732
 10
494.850616
 20
367.125061
 10
494.899078
 20
367.12442
 10
494.9487
 20
367.123718
 10
494.999481
 20
367.123047
 10
495.051453
 20
367.122345
 10
495.104614
 20
367.121643
 10
495.158966
 20
367.120941
 10
495.2146
 20
367.120209
 10
495.271454
 20
367.119476
 10
495.329468
 20
367.118713
 10
495.388519
 20
367.117981
 10
495.448517
 20
367.117218
 10
495.509369
 20
367.116455
 10
495.57135
 20
367.115662
 10
495.635376
 20
367.114899
 10
495.701965
 20
367.114075
 10
495.768219
 20
367.113251
 10
495.830292
 20
367.112488
 10
495.892792
 20
367.111694
 10
495.970642
 20
367.110809
  0
LWPOLYLINE
  5
106
330
A7
100
AcDbEntity
  8
0
  6
Continuous
 62
     0
370
    30
100
AcDbPolyline
 90
        5
 70
     0
 43
0.0
 10
494.862152
 20
366.837708
 10
494.844482
 20
366.938538
 10
494.794128
 20
367.027893
 10
494.719086
 20
367.093292
 10
494.63681
 20
367.128113
  0
LWPOLYLINE
  5
107
330
A7
100
AcDbEntity
  8
0
  6
Continuous
 62
     0
370
    30
100
AcDbPolyline
 90
        9
 70
     0
 43
0.0
 10
534.362122
 20
366.837708
 10
534.381531
 20
366.943268
 10
534.436584
 20
367.035431
 10
534.517151
 20
367.10025
 10
534.588196
 20
367.128296
 10
534.617615
 20
367.134125
 10
534.628662
 20
367.135529
 10
534.633118
 20
367.135956
 10
534.63446
 20
367.136047
  0
LINE
  5
108
330
A7
100
AcDbEntity
  8
0
  6
Continuous
 62
     0
370
    30
100
AcDbLine
 10
535.612156
 20
367.443295
 30
0.0
 11
535.612156
 21
368.988475
 31
0.0
  0
LINE
  5
109
330
A7
100
AcDbEntity
  8
0
  6
Continuous
 62
     0
370
    30
100
AcDbLine
 10
493.612156
 20
367.443293
 30
0.0
 11
493.612156
 21
368.988477
 31
0.0
  0
ENDBLK
  5
10B
330
A7
100
AcDbEntity
  8
0
100
AcDbBlockEnd
  0
BLOCK
  5
170
330
10D
100
AcDbEntity
  8
0
100
AcDbBlockBegin
  2
c
 70
     0
 10
447.031891
 20
156.071075
 30
0.0
  3
c
  1

  0
LINE
  5
10E
330
10D
100
AcDbEntity
  8
0
  6
Continuous
 62
     0
370
    30
100
AcDbLine
 10
700.720662
 20
649.587845
 30
0.0
 11
700.720662
 21
656.587845
 31
0.0
  0
LINE
  5
10F
330
10D
100
AcDbEntity
  8
0
  6
Continuous
 62
     0
370
    30
100
AcDbLine
 10
700.720662
 20
678.587845
 30
0.0
 11
700.720662
 21
685.587845
 31
0.0
  0
LINE
  5
110
330
10D
100
AcDbEntity
  8
0
  6
Continuous
 62
     0
370
    30
100
AcDbLine
 10
700.720662
 20
656.587845
 30
0.0
 11
700.720662
 21
678.587845
 31
0.0
  0
LINE
  5
111
330
10D
100
AcDbEntity
  8
0
  6
Continuous
 62
     0
370
    30
100
AcDbLine
 10
660.720662
 20
686.587845
 30
0.0
 11
660.720662
 21
678.587845
 31
0.0
  0
LINE
  5
112
330
10D
100
AcDbEntity
  8
0
  6
Continuous
 62
     0
370
     0
100
AcDbLine
 10
660.720662
 20
678.587845
 30
0.0
 11
699.720662
 21
678.587845
 31
0.0
  0
LINE
  5
113
330
10D
100
AcDbEntity
  8
0
  6
Continuous
 62
     0
370
     0
100
AcDbLine
 10
699.720662
 20
678.587845
 30
0.0
 11
699.720662
 21
686.587845
 31
0.0
  0
LINE
  5
114
330
10D
100
AcDbEntity
  8
0
  6
Continuous
 62
     0
370
    30
100
AcDbLine
 10
699.720662
 20
686.587845
 30
0.0
 11
660.720662
 21
686.587845
 31
0.0
  0
LINE
  5
115
330
10D
100
AcDbEntity
  8
0
  6
Continuous
 62
     0
370
    30
100
AcDbLine
 10
660.720662
 20
648.587845
 30
0.0
 11
699.720662
 21
648.587845
 31
0.0
  0
LINE
  5
116
330
10D
100
AcDbEntity
  8
0
  6
Continuous
 62
     0
370
     0
100
AcDbLine
 10
699.720662
 20
648.587845
 30
0.0
 11
699.720662
 21
656.587845
 31
0.0
  0
LINE
  5
117
330
10D
100
AcDbEntity
  8
0
  6
Continuous
 62
     0
370
     0
100
AcDbLine
 10
699.720662
 20
656.587845
 30
0.0
 11
660.720662
 21
656.587845
 31
0.0
  0
LINE
  5
118
330
10D
100
AcDbEntity
  8
0
  6
Continuous
 62
     0
370
    30
100
AcDbLine
 10
660.720662
 20
656.587845
 30
0.0
 11
660.720662
 21
648.587845
 31
0.0
  0
LINE
  5
119
330
10D
100
AcDbEntity
  8
0
  6
Continuous
 62
     0
370
     0
100
AcDbLine
 10
699.720662
 20
678.587845
 30
0.0
 11
699.720662
 21
656.587845
 31
0.0
  0
LINE
  5
11A
330
10D
100
AcDbEntity
  8
0
  6
Continuous
 62
     0
370
    30
100
AcDbLine
 10
660.720662
 20
656.587845
 30
0.0
 11
660.720662
 21
678.587845
 31
0.0
  0
LINE
  5
11B
330
10D
100
AcDbEntity
  8
0
  6
Continuous
 62
     0
370
     0
100
AcDbLine
 10
699.720662
 20
656.587845
 30
0.0
 11
700.720662
 21
656.587845
 31
0.0
  0
LINE
  5
11C
330
10D
100
AcDbEntity
  8
0
  6
Continuous
 62
     0
370
     0
100
AcDbLine
 10
700.720662
 20
678.587845
 30
0.0
 11
699.720662
 21
678.587845
 31
0.0
  0
ARC
  5
11D
330
10D
100
AcDbEntity
  8
0
  6
Continuous
 62
     0
370
    30
100
AcDbCircle
 10
699.720662
 20
649.587845
 30
0.0
 40
1.000000000003801
100
AcDbArc
 50
270.0
 51
360.0
  0
ARC
  5
11E
330
10D
100
AcDbEntity
  8
0
  6
Continuous
 62
     0
370
    30
100
AcDbCircle
 10
699.720662
 20
685.587845
 30
0.0
 40
1.0
100
AcDbArc
 50
0.0
 51
90.0
  0
LINE
  5
11F
330
10D
100
AcDbEntity
  8
0
  6
Continuous
 62
     0
370
    30
100
AcDbLine
 10
710.570736
 20
526.090561
 30
0.0
 11
710.570736
 21
569.090561
 31
0.0
  0
LINE
  5
120
330
10D
100
AcDbEntity
  8
0
  6
Continuous
 62
     0
370
    30
100
AcDbLine
 10
710.570736
 20
526.090561
 30
0.0
 11
710.070736
 21
525.590561
 31
0.0
  0
LINE
  5
121
330
10D
100
AcDbEntity
  8
0
  6
Continuous
 62
     0
370
    30
100
AcDbLine
 10
710.070736
 20
525.590561
 30
0.0
 11
710.070736
 21
569.590561
 31
0.0
  0
LINE
  5
122
330
10D
100
AcDbEntity
  8
0
  6
Continuous
 62
     0
370
    30
100
AcDbLine
 10
696.820736
 20
525.590561
 30
0.0
 11
660.570736
 21
525.590561
 31
0.0
  0
LINE
  5
123
330
10D
100
AcDbEntity
  8
0
  6
Continuous
 62
     0
370
    30
100
AcDbLine
 10
660.570736
 20
569.590561
 30
0.0
 11
660.570736
 21
525.590561
 31
0.0
  0
LWPOLYLINE
  5
124
330
10D
100
AcDbEntity
  8
0
  6
Continuous
 62
     0
370
     0
100
AcDbPolyline
 90
       27
 70
     0
 43
0.0
 10
696.82074
 20
525.590576
 10
696.855042
 20
525.598022
 10
696.958618
 20
525.619873
 10
697.128601
 20
525.654968
 10
697.362732
 20
525.701172
 10
697.657471
 20
525.75592
 10
698.008789
 20
525.816162
 10
698.412415
 20
525.878418
 10
698.862366
 20
525.93927
 10
699.351929
 20
525.995178
 10
699.874207
 20
526.042542
 10
700.421631
 20
526.078674
 10
700.986267
 20
526.101501
 10
701.559937
 20
526.109375
 10
702.133789
 20
526.102051
 10
702.698914
 20
526.079834
 10
703.247131
 20
526.044128
 10
703.770447
 20
525.997131
 10
704.261353
 20
525.941528
 10
704.712952
 20
525.880798
 10
705.118408
 20
525.818481
 10
705.471802
 20
525.758118
 10
705.768677
 20
525.703125
 10
706.005188
 20
525.656494
 10
706.177673
 20
525.620972
 10
706.283691
 20
525.598572
 10
706.32074
 20
525.590576
  0
LINE
  5
125
330
10D
100
AcDbEntity
  8
0
  6
Continuous
 62
     0
370
    30
100
AcDbLine
 10
706.320736
 20
525.590561
 30
0.0
 11
710.070736
 21
525.590561
 31
0.0
  0
LWPOLYLINE
  5
126
330
10D
100
AcDbEntity
  8
0
  6
Continuous
 62
     0
370
     0
100
AcDbPolyline
 90
       25
 70
     0
 43
0.0
 10
705.670349
 20
569.590576
 10
705.635742
 20
569.584045
 10
705.531433
 20
569.565002
 10
705.35968
 20
569.53479
 10
705.123901
 20
569.4953
 10
704.828003
 20
569.449219
 10
704.476318
 20
569.399597
 10
704.074402
 20
569.349792
 10
703.629395
 20
569.30304
 10
703.14917
 20
569.262756
 10
702.641724
 20
569.231689
 10
702.115662
 20
569.212036
 10
701.579895
 20
569.205261
 10
701.043945
 20
569.211609
 10
700.517395
 20
569.230896
 10
700.009155
 20
569.261536
 10
699.527832
 20
569.301575
 10
699.081482
 20
569.348083
 10
698.677856
 20
569.397888
 10
698.324402
 20
569.44751
 10
698.026489
 20
569.493774
 10
697.788635
 20
569.533569
 10
697.614807
 20
569.564148
 10
697.507996
 20
569.583618
 10
697.470764
 20
569.590576
  0
LWPOLYLINE
  5
127
330
10D
100
AcDbEntity
  8
0
  6
Continuous
 62
     0
370
    30
100
AcDbPolyline
 90
       22
 70
     0
 43
0.0
 10
705.020752
 20
577.420532
 10
704.987793
 20
577.420532
 10
704.883179
 20
577.420532
 10
704.700989
 20
577.420532
 10
704.440002
 20
577.420532
 10
704.104858
 20
577.420532
 10
703.705994
 20
577.420532
 10
703.258484
 20
577.420532
 10
702.780579
 20
577.420532
 10
702.290955
 20
577.420532
 10
701.806885
 20
577.420532
 10
701.336304
 20
577.420532
 10
700.852295
 20
577.420532
 10
700.362671
 20
577.420532
 10
699.884644
 20
577.420532
 10
699.437012
 20
577.420532
 10
699.037903
 20
577.420532
 10
698.702515
 20
577.420532
 10
698.441284
 20
577.420532
 10
698.258789
 20
577.420532
 10
698.153931
 20
577.420532
 10
698.120728
 20
577.420532
  0
LINE
  5
128
330
10D
100
AcDbEntity
  8
0
  6
Continuous
 62
     0
370
    30
100
AcDbLine
 10
705.020736
 20
577.420561
 30
0.0
 11
705.520736
 21
576.920561
 31
0.0
  0
LWPOLYLINE
  5
129
330
10D
100
AcDbEntity
  8
0
  6
Continuous
 62
     0
370
    30
100
AcDbPolyline
 90
       24
 70
     0
 43
0.0
 10
705.520752
 20
576.920532
 10
705.483826
 20
576.920532
 10
705.374512
 20
576.920593
 10
705.195068
 20
576.920593
 10
704.947876
 20
576.920593
 10
704.637878
 20
576.920593
 10
704.271362
 20
576.920593
 10
703.854675
 20
576.920532
 10
703.395386
 20
576.920532
 10
702.902527
 20
576.920593
 10
702.385071
 20
576.920593
 10
701.852295
 20
576.920593
 10
701.314209
 20
576.920593
 10
700.780945
 20
576.920532
 10
700.262451
 20
576.920532
 10
699.768127
 20
576.920532
 10
699.307068
 20
576.920532
 10
698.888367
 20
576.920532
 10
698.519531
 20
576.920532
 10
698.206848
 20
576.920532
 10
697.956421
 20
576.920532
 10
697.773376
 20
576.920532
 10
697.660767
 20
576.920532
 10
697.620728
 20
576.920532
  0
LINE
  5
12A
330
10D
100
AcDbEntity
  8
0
  6
Continuous
 62
     0
370
    30
100
AcDbLine
 10
705.520736
 20
569.590561
 30
0.0
 11
705.520736
 21
576.920561
 31
0.0
  0
LWPOLYLINE
  5
12B
330
10D
100
AcDbEntity
  8
0
  6
Continuous
 62
     0
370
    30
100
AcDbPolyline
 90
       24
 70
     0
 43
0.0
 10
697.620728
 20
569.590515
 10
697.657898
 20
569.583679
 10
697.767761
 20
569.564392
 10
697.947754
 20
569.534119
 10
698.195068
 20
569.494751
 10
698.504822
 20
569.449097
 10
698.870911
 20
569.400696
 10
699.287109
 20
569.353271
 10
699.746155
 20
569.310059
 10
700.239197
 20
569.274048
 10
700.757385
 20
569.248352
 10
701.291443
 20
569.235229
 10
701.830994
 20
569.234985
 10
702.365479
 20
569.247681
 10
702.88446
 20
569.272949
 10
703.37854
 20
569.308655
 10
703.838928
 20
569.351685
 10
704.256653
 20
569.398987
 10
704.62439
 20
569.447388
 10
704.936279
 20
569.493164
 10
705.186279
 20
569.532959
 10
705.369324
 20
569.563599
 10
705.481628
 20
569.583374
 10
705.520752
 20
569.590576
  0
LINE
  5
12C
330
10D
100
AcDbEntity
  8
0
  6
Continuous
 62
     0
370
    30
100
AcDbLine
 10
696.820736
 20
525.590561
 30
0.0
 11
706.320736
 21
525.590561
 31
0.0
  0
LINE
  5
12D
330
10D
100
AcDbEntity
  8
0
  6
Continuous
 62
     0
370
    30
100
AcDbLine
 10
705.520736
 20
569.590561
 30
0.0
 11
705.670339
 21
569.590561
 31
0.0
  0
LINE
  5
12E
330
10D
100
AcDbEntity
  8
0
  6
Continuous
 62
     0
370
    30
100
AcDbLine
 10
697.620736
 20
576.920561
 30
0.0
 11
697.620736
 21
569.590485
 31
0.0
  0
LINE
  5
12F
330
10D
100
AcDbEntity
  8
0
  6
Continuous
 62
     0
370
    30
100
AcDbLine
 10
698.120736
 20
577.420561
 30
0.0
 11
697.620736
 21
576.920561
 31
0.0
  0
LINE
  5
130
330
10D
100
AcDbEntity
  8
0
  6
Continuous
 62
     0
370
    30
100
AcDbLine
 10
710.070736
 20
569.590561
 30
0.0
 11
705.670338
 21
569.590561
 31
0.0
  0
LINE
  5
131
330
10D
100
AcDbEntity
  8
0
  6
Continuous
 62
     0
370
    30
100
AcDbLine
 10
697.470736
 20
569.590561
 30
0.0
 11
660.570736
 21
569.590561
 31
0.0
  0
LINE
  5
132
330
10D
100
AcDbEntity
  8
0
  6
Continuous
 62
     0
370
    30
100
AcDbLine
 10
710.570736
 20
569.090561
 30
0.0
 11
710.070736
 21
569.590561
 31
0.0
  0
LINE
  5
133
330
10D
100
AcDbEntity
  8
0
  6
Continuous
 62
     0
370
    30
100
AcDbLine
 10
657.570738
 20
473.590561
 30
0.0
 11
655.570738
 21
473.590561
 31
0.0
  0
LINE
  5
134
330
10D
100
AcDbEntity
  8
0
  6
Continuous
 62
     0
370
    30
100
AcDbLine
 10
655.570738
 20
741.590561
 30
0.0
 11
657.570738
 21
741.590561
 31
0.0
  0
LINE
  5
135
330
10D
100
AcDbEntity
  8
0
  6
Continuous
 62
     0
370
    30
100
AcDbLine
 10
655.570738
 20
741.590561
 30
0.0
 11
655.570738
 21
473.590561
 31
0.0
  0
LINE
  5
136
330
10D
100
AcDbEntity
  8
0
  6
Continuous
 62
     0
370
    30
100
AcDbLine
 10
657.570738
 20
473.590561
 30
0.0
 11
657.570738
 21
741.590561
 31
0.0
  0
LWPOLYLINE
  5
137
330
10D
100
AcDbEntity
  8
0
  6
Continuous
 62
     0
370
    30
100
AcDbPolyline
 90
       28
 70
     0
 43
0.0
 10
660.070679
 20
672.364807
 10
660.051331
 20
671.29541
 10
660.032043
 20
670.20813
 10
660.013
 20
669.108276
 10
659.994202
 20
668.001099
 10
659.975769
 20
666.891968
 10
659.957825
 20
665.786133
 10
659.940369
 20
664.688965
 10
659.923584
 20
663.605713
 10
659.907471
 20
662.541626
 10
659.892151
 20
661.50177
 10
659.877686
 20
660.491089
 10
659.864197
 20
659.514587
 10
659.851624
 20
658.576843
 10
659.840149
 20
657.682373
 10
659.829773
 20
656.835632
 10
659.820557
 20
656.040466
 10
659.812561
 20
655.300781
 10
659.805786
 20
654.620239
 10
659.800293
 20
654.001953
 10
659.796082
 20
653.448975
 10
659.793213
 20
652.96405
 10
659.791687
 20
652.549316
 10
659.791443
 20
652.206909
 10
659.792603
 20
651.938538
 10
659.795105
 20
651.7453
 10
659.798889
 20
651.628235
 10
659.804077
 20
651.587952
  0
LINE
  5
138
330
10D
100
AcDbEntity
  8
0
  6
Continuous
 62
     0
370
    30
100
AcDbLine
 10
660.070664
 20
672.45439
 30
0.0
 11
660.070664
 21
672.364822
 31
0.0
  0
LINE
  5
139
330
10D
100
AcDbEntity
  8
0
  6
Continuous
 62
     0
370
     0
100
AcDbLine
 10
660.070664
 20
672.723095
 30
0.0
 11
660.070664
 21
672.45439
 31
0.0
  0
LWPOLYLINE
  5
13A
330
10D
100
AcDbEntity
  8
0
  6
Continuous
 62
     0
370
     0
100
AcDbPolyline
 90
       35
 70
     0
 43
0.0
 10
659.837097
 20
651.58783
 10
659.825134
 20
651.204834
 10
659.814209
 20
650.893494
 10
659.804443
 20
650.654968
 10
659.795837
 20
650.490601
 10
659.788452
 20
650.40094
 10
659.782288
 20
650.386414
 10
659.777344
 20
650.447144
 10
659.773743
 20
650.582764
 10
659.771423
 20
650.792725
 10
659.770386
 20
651.076233
 10
659.770691
 20
651.431885
 10
659.772278
 20
651.858032
 10
659.775208
 20
652.353088
 10
659.779419
 20
652.914795
 10
659.784851
 20
653.540527
 10
659.791626
 20
654.227722
 10
659.799561
 20
654.973389
 10
659.808655
 20
655.774048
 10
659.81897
 20
656.626465
 10
659.830322
 20
657.526733
 10
659.842773
 20
658.470947
 10
659.856201
 20
659.455078
 10
659.870544
 20
660.47467
 10
659.885742
 20
661.525391
 10
659.901794
 20
662.602539
 10
659.918579
 20
663.701477
 10
659.936035
 20
664.817383
 10
659.954041
 20
665.945374
 10
659.972595
 20
667.080505
 10
659.991577
 20
668.217834
 10
660.010864
 20
669.352295
 10
660.030457
 20
670.479065
 10
660.050232
 20
671.593506
 10
660.070679
 20
672.723083
  0
LINE
  5
13B
330
10D
100
AcDbEntity
  8
0
  6
Continuous
 62
     0
370
     0
100
AcDbLine
 10
659.770618
 20
672.812663
 30
0.0
 11
657.87071
 21
672.812663
 31
0.0
  0
LWPOLYLINE
  5
13C
330
10D
100
AcDbEntity
  8
0
  6
Continuous
 62
     0
370
     0
100
AcDbPolyline
 90
       29
 70
     0
 43
0.0
 10
657.870728
 20
672.812683
 10
657.890747
 20
671.685974
 10
657.910767
 20
670.538635
 10
657.930603
 20
669.377441
 10
657.950073
 20
668.210144
 10
657.969238
 20
667.041626
 10
657.987976
 20
665.875183
 10
658.006165
 20
664.715637
 10
658.023743
 20
663.568054
 10
658.04071
 20
662.437805
 10
658.056885
 20
661.330444
 10
658.072205
 20
660.251099
 10
658.08667
 20
659.204895
 10
658.100098
 20
658.196655
 10
658.112549
 20
657.231262
 10
658.123901
 20
656.312622
 10
658.134094
 20
655.444214
 10
658.143127
 20
654.629639
 10
658.15094
 20
653.872314
 10
658.157532
 20
653.175903
 10
658.162842
 20
652.543884
 10
658.166809
 20
651.979492
 10
658.169495
 20
651.485168
 10
658.170776
 20
651.062866
 10
658.170776
 20
650.714661
 10
658.169373
 20
650.442078
 10
658.166687
 20
650.246094
 10
658.162659
 20
650.127869
 10
658.157227
 20
650.088074
  0
LWPOLYLINE
  5
13D
330
10D
100
AcDbEntity
  8
0
  6
Continuous
 62
     0
370
     0
100
AcDbPolyline
 90
       29
 70
     0
 43
0.0
 10
659.48407
 20
650.088074
 10
659.478699
 20
650.127136
 10
659.47467
 20
650.24469
 10
659.471985
 20
650.439941
 10
659.470581
 20
650.711853
 10
659.47052
 20
651.059387
 10
659.471863
 20
651.481018
 10
659.474487
 20
651.974731
 10
659.478455
 20
652.538452
 10
659.483765
 20
653.169922
 10
659.490295
 20
653.865784
 10
659.498108
 20
654.622498
 10
659.507141
 20
655.436584
 10
659.517334
 20
656.304504
 10
659.528687
 20
657.222717
 10
659.541077
 20
658.187683
 10
659.554565
 20
659.195557
 10
659.56897
 20
660.241516
 10
659.58429
 20
661.320557
 10
659.600464
 20
662.427734
 10
659.617432
 20
663.557739
 10
659.63501
 20
664.7052
 10
659.653198
 20
665.864685
 10
659.671936
 20
667.031067
 10
659.69104
 20
668.199646
 10
659.710571
 20
669.366882
 10
659.730408
 20
670.528198
 10
659.750366
 20
671.67572
 10
659.77063
 20
672.812683
  0
LWPOLYLINE
  5
13E
330
10D
100
AcDbEntity
  8
0
  6
Continuous
 62
     0
370
     0
100
AcDbPolyline
 90
       48
 70
     0
 43
0.0
 10
657.57074
 20
672.719116
 10
657.590759
 20
671.611694
 10
657.610718
 20
670.486267
 10
657.630493
 20
669.3479
 10
657.650024
 20
668.20166
 10
657.669189
 20
667.052612
 10
657.687927
 20
665.906006
 10
657.706116
 20
664.766846
 10
657.723694
 20
663.640259
 10
657.740601
 20
662.53125
 10
657.756714
 20
661.444763
 10
657.772034
 20
660.385742
 10
657.786499
 20
659.358765
 10
657.799927
 20
658.36853
 10
657.812378
 20
657.419373
 10
657.82373
 20
656.515625
 10
657.833984
 20
655.661255
 10
657.843018
 20
654.860046
 10
657.850891
 20
654.115662
 10
657.857422
 20
653.431396
 10
657.862732
 20
652.810242
 10
657.86676
 20
652.255005
 10
657.869446
 20
651.768188
 10
657.870789
 20
651.351929
 10
657.87085
 20
651.008118
 10
657.869507
 20
650.738281
 10
657.866821
 20
650.54364
 10
657.862854
 20
650.424988
 10
657.857605
 20
650.382935
 10
657.851013
 20
650.417603
 10
657.843201
 20
650.528931
 10
657.834167
 20
650.71637
 10
657.823975
 20
650.979004
 10
657.812622
 20
651.315796
 10
657.800232
 20
651.725159
 10
657.786743
 20
652.205322
 10
657.7724
 20
652.754089
 10
657.75708
 20
653.369019
 10
657.740906
 20
654.047363
 10
657.72406
 20
654.786133
 10
657.706482
 20
655.582031
 10
657.688293
 20
656.431458
 10
657.669556
 20
657.330688
 10
657.650452
 20
658.275635
 10
657.63092
 20
659.262085
 10
657.611145
 20
660.285706
 10
657.591187
 20
661.341919
 10
657.57074
 20
662.448608
  0
LWPOLYLINE
  5
13F
330
10D
100
AcDbEntity
  8
0
  6
Continuous
 62
     0
370
     0
100
AcDbPolyline
 90
       45
 70
     0
 43
0.0
 10
657.57074
 20
663.403992
 10
657.586609
 20
662.543884
 10
657.602844
 20
661.684326
 10
657.619324
 20
660.832153
 10
657.635864
 20
659.994568
 10
657.652405
 20
659.17926
 10
657.668823
 20
658.394104
 10
657.684875
 20
657.647034
 10
657.700562
 20
656.945679
 10
657.715637
 20
656.297363
 10
657.729919
 20
655.70874
 10
657.743408
 20
655.185547
 10
657.75592
 20
654.732544
 10
657.767334
 20
654.353149
 10
657.777588
 20
654.049744
 10
657.786621
 20
653.823181
 10
657.794434
 20
653.673157
 10
657.800903
 20
653.598083
 10
657.806152
 20
653.595337
 10
657.81012
 20
653.661255
 10
657.812866
 20
653.791321
 10
657.814514
 20
653.980652
 10
657.815063
 20
654.223694
 10
657.814514
 20
654.523193
 10
657.812927
 20
654.887573
 10
657.810181
 20
655.318909
 10
657.806213
 20
655.818115
 10
657.801025
 20
656.385498
 10
657.794556
 20
657.019897
 10
657.786804
 20
657.719177
 10
657.777832
 20
658.479858
 10
657.767578
 20
659.297485
 10
657.756165
 20
660.166199
 10
657.743713
 20
661.079285
 10
657.730225
 20
662.029297
 10
657.715881
 20
663.007935
 10
657.700867
 20
664.006714
 10
657.685242
 20
665.016907
 10
657.669128
 20
666.029907
 10
657.65271
 20
667.037354
 10
657.636169
 20
668.031494
 10
657.619629
 20
669.005371
 10
657.60321
 20
669.952576
 10
657.586975
 20
670.867737
 10
657.57074
 20
671.763733
  0
LWPOLYLINE
  5
140
330
10D
100
AcDbEntity
  8
0
  6
Continuous
 62
     0
370
     0
100
AcDbPolyline
 90
        8
 70
     0
 43
0.0
 10
657.722534
 20
680.321655
 10
657.702698
 20
679.418579
 10
657.682068
 20
678.448914
 10
657.660889
 20
677.418274
 10
657.63916
 20
676.332153
 10
657.617004
 20
675.19696
 10
657.594666
 20
674.018921
 10
657.57074
 20
672.727051
  0
LWPOLYLINE
  5
141
330
10D
100
AcDbEntity
  8
0
  6
Continuous
 62
     0
370
     0
100
AcDbPolyline
 90
       20
 70
     0
 43
0.0
 10
659.77063
 20
672.812683
 10
659.750671
 20
673.912415
 10
659.730713
 20
674.986267
 10
659.710938
 20
676.027893
 10
659.691467
 20
677.030273
 10
659.672363
 20
677.989441
 10
659.653748
 20
678.902771
 10
659.635559
 20
679.766479
 10
659.618042
 20
680.57666
 10
659.601135
 20
681.329651
 10
659.584961
 20
682.021667
 10
659.569641
 20
682.649292
 10
659.555237
 20
683.209778
 10
659.541748
 20
683.700684
 10
659.529358
 20
684.119629
 10
659.518005
 20
684.464905
 10
659.507751
 20
684.735474
 10
659.498657
 20
684.929993
 10
659.490784
 20
685.047485
 10
659.48407
 20
685.087646
  0
LWPOLYLINE
  5
142
330
10D
100
AcDbEntity
  8
0
  6
Continuous
 62
     0
370
     0
100
AcDbPolyline
 90
       20
 70
     0
 43
0.0
 10
658.157227
 20
685.087646
 10
658.150635
 20
685.048706
 10
658.142761
 20
684.932434
 10
658.133728
 20
684.739136
 10
658.123535
 20
684.469727
 10
658.112183
 20
684.12561
 10
658.099731
 20
683.707825
 10
658.086304
 20
683.217957
 10
658.071899
 20
682.658569
 10
658.05658
 20
682.031982
 10
658.040466
 20
681.340942
 10
658.02356
 20
680.588867
 10
658.006042
 20
679.779541
 10
657.987854
 20
678.916626
 10
657.969238
 20
678.004089
 10
657.950134
 20
677.045654
 10
657.930664
 20
676.043884
 10
657.91095
 20
675.002808
 10
657.890991
 20
673.929443
 10
657.870728
 20
672.812683
  0
LWPOLYLINE
  5
143
330
10D
100
AcDbEntity
  8
0
  6
Continuous
 62
     0
370
     0
100
AcDbPolyline
 90
       10
 70
     0
 43
0.0
 10
660.070679
 20
672.723083
 10
660.050171
 20
673.83136
 10
660.029785
 20
674.910522
 10
660.009583
 20
675.955627
 10
659.989685
 20
676.961731
 10
659.970154
 20
677.924133
 10
659.95105
 20
678.838379
 10
659.932556
 20
679.700195
 10
659.914673
 20
680.505615
 10
659.895447
 20
681.339905
  0
LWPOLYLINE
  5
144
330
10D
100
AcDbEntity
  8
0
  6
Continuous
 62
     0
370
     0
100
AcDbPolyline
 90
       19
 70
     0
 43
0.0
 10
660.099182
 20
683.587769
 10
660.105835
 20
683.548218
 10
660.11377
 20
683.429504
 10
660.122986
 20
683.232361
 10
660.133484
 20
682.957764
 10
660.145081
 20
682.606995
 10
660.157837
 20
682.181885
 10
660.171631
 20
681.68457
 10
660.186462
 20
681.117371
 10
660.202148
 20
680.483215
 10
660.218689
 20
679.785217
 10
660.235962
 20
679.026733
 10
660.253906
 20
678.211731
 10
660.272461
 20
677.344177
 10
660.291504
 20
676.428345
 10
660.310913
 20
675.468506
 10
660.330627
 20
674.469177
 10
660.350525
 20
673.436035
 10
660.370605
 20
672.369751
  0
LWPOLYLINE
  5
145
330
10D
100
AcDbEntity
  8
0
  6
Continuous
 62
     0
370
    30
100
AcDbPolyline
 90
        5
 70
     0
 43
0.0
 10
660.370605
 20
672.369751
 10
660.267334
 20
672.373474
 10
660.176575
 20
672.387756
 10
660.10968
 20
672.410828
 10
660.070679
 20
672.454407
  0
LWPOLYLINE
  5
146
330
10D
100
AcDbEntity
  8
0
  6
Continuous
 62
     0
370
     0
100
AcDbPolyline
 90
        5
 70
     0
 43
0.0
 10
660.070679
 20
672.723083
 10
660.052307
 20
672.753845
 10
659.999573
 20
672.781006
 10
659.918762
 20
672.800964
 10
659.77063
 20
672.812683
  0
LWPOLYLINE
  5
147
330
10D
100
AcDbEntity
  8
0
  6
Continuous
 62
     0
370
     0
100
AcDbPolyline
 90
        4
 70
     0
 43
0.0
 10
657.870728
 20
672.812683
 10
657.722656
 20
672.800964
 10
657.613159
 20
672.769043
 10
657.57074
 20
672.725037
  0
LINE
  5
148
330
10D
100
AcDbEntity
  8
0
  6
Continuous
 62
     0
370
    30
100
AcDbLine
 10
660.070664
 20
672.364822
 30
0.0
 11
660.370604
 21
672.369726
 31
0.0
  0
LINE
  5
149
330
10D
100
AcDbEntity
  8
0
  6
Continuous
 62
     0
370
     0
100
AcDbLine
 10
660.070664
 20
672.364822
 30
0.0
 11
660.720662
 21
672.364822
 31
0.0
  0
LINE
  5
14A
330
10D
100
AcDbEntity
  8
0
  6
Continuous
 62
     0
370
    30
100
AcDbLine
 10
660.720661
 20
651.587842
 30
0.0
 11
659.804117
 21
651.587842
 31
0.0
  0
LINE
  5
14B
330
10D
100
AcDbEntity
  8
0
  6
Continuous
 62
     0
370
    30
100
AcDbLine
 10
660.720661
 20
683.587842
 30
0.0
 11
660.099165
 21
683.587842
 31
0.0
  0
LWPOLYLINE
  5
14C
330
10D
100
AcDbEntity
  8
0
  6
Continuous
 62
     0
370
    30
100
AcDbPolyline
 90
       75
 70
     0
 43
0.0
 10
657.745239
 20
653.86322
 10
657.747437
 20
653.771118
 10
657.749573
 20
653.680115
 10
657.751709
 20
653.59021
 10
657.753845
 20
653.501404
 10
657.755981
 20
653.413757
 10
657.758057
 20
653.327209
 10
657.760132
 20
653.24176
 10
657.762207
 20
653.157532
 10
657.764282
 20
653.074402
 10
657.766357
 20
652.992432
 10
657.768372
 20
652.911621
 10
657.770386
 20
652.83197
 10
657.772339
 20
652.75354
 10
657.774353
 20
652.67627
 10
657.776306
 20
652.60022
 10
657.778259
 20
652.52533
 10
657.780212
 20
652.451599
 10
657.782104
 20
652.37915
 10
657.783997
 20
652.307861
 10
657.785889
 20
652.237793
 10
657.78772
 20
652.168945
 10
657.789612
 20
652.101318
 10
657.791443
 20
652.034912
 10
657.793213
 20
651.969788
 10
657.795044
 20
651.905823
 10
657.796814
 20
651.843201
 10
657.798523
 20
651.781738
 10
657.800293
 20
651.721619
 10
657.802002
 20
651.66272
 10
657.803711
 20
651.605042
 10
657.80542
 20
651.548645
 10
657.807068
 20
651.493591
 10
657.808716
 20
651.439758
 10
657.810364
 20
651.387146
 10
657.811951
 20
651.335876
 10
657.813538
 20
651.285889
 10
657.815125
 20
651.237244
 10
657.81665
 20
651.189819
 10
657.818176
 20
651.143738
 10
657.819702
 20
651.098938
 10
657.821228
 20
651.05542
 10
657.822693
 20
651.013245
 10
657.824158
 20
650.972351
 10
657.825562
 20
650.9328
 10
657.826965
 20
650.894531
 10
657.828369
 20
650.857605
 10
657.829773
 20
650.82196
 10
657.831116
 20
650.787659
 10
657.832458
 20
650.754639
 10
657.833801
 20
650.722961
 10
657.835083
 20
650.692627
 10
657.836365
 20
650.663513
 10
657.837646
 20
650.635742
 10
657.838867
 20
650.609314
 10
657.840088
 20
650.584106
 10
657.841309
 20
650.560242
 10
657.842468
 20
650.537659
 10
657.843689
 20
650.516296
 10
657.844849
 20
650.496216
 10
657.846008
 20
650.477295
 10
657.847168
 20
650.459656
 10
657.848267
 20
650.443115
 10
657.849426
 20
650.427612
 10
657.850647
 20
650.413086
 10
657.851868
 20
650.399353
 10
657.853149
 20
650.386292
 10
657.854553
 20
650.373474
 10
657.856384
 20
650.359741
 10
657.859009
 20
650.343689
 10
657.863464
 20
650.32196
 10
657.875244
 20
650.283691
 10
657.915833
 20
650.209412
 10
658.015747
 20
650.123413
 10
658.157227
 20
650.087891
  0
LWPOLYLINE
  5
14D
330
10D
100
AcDbEntity
  8
0
  6
Continuous
 62
     0
370
    30
100
AcDbPolyline
 90
       42
 70
     0
 43
0.0
 10
659.837097
 20
651.58783
 10
659.835327
 20
651.528198
 10
659.833557
 20
651.470032
 10
659.831787
 20
651.41333
 10
659.830078
 20
651.358093
 10
659.828369
 20
651.30426
 10
659.82666
 20
651.251892
 10
659.825012
 20
651.20105
 10
659.823364
 20
651.151611
 10
659.821777
 20
651.103699
 10
659.82019
 20
651.057251
 10
659.818604
 20
651.012268
 10
659.817078
 20
650.968811
 10
659.815552
 20
650.926819
 10
659.814026
 20
650.886353
 10
659.812561
 20
650.84729
 10
659.811096
 20
650.809814
 10
659.809631
 20
650.773804
 10
659.808228
 20
650.739258
 10
659.806824
 20
650.706177
 10
659.805481
 20
650.674622
 10
659.804077
 20
650.644531
 10
659.802795
 20
650.615967
 10
659.801453
 20
650.588806
 10
659.800171
 20
650.563171
 10
659.798889
 20
650.53894
 10
659.797668
 20
650.516174
 10
659.796387
 20
650.494812
 10
659.795166
 20
650.474854
 10
659.793945
 20
650.456238
 10
659.792725
 20
650.438904
 10
659.791504
 20
650.422729
 10
659.790222
 20
650.407532
 10
659.788879
 20
650.39325
 10
659.787476
 20
650.379517
 10
659.785767
 20
650.36554
 10
659.783325
 20
650.349487
 10
659.779358
 20
650.328796
 10
659.769714
 20
650.293945
 10
659.734558
 20
650.222351
 10
659.634888
 20
650.128601
 10
659.48407
 20
650.087952
  0
LWPOLYLINE
  5
14E
330
10D
100
AcDbEntity
  8
0
  6
Continuous
 62
     0
370
    30
100
AcDbPolyline
 90
       48
 70
     0
 43
0.0
 10
657.57074
 20
672.727295
 10
657.578918
 20
673.172302
 10
657.587097
 20
673.613342
 10
657.595215
 20
674.050049
 10
657.603394
 20
674.481995
 10
657.611511
 20
674.908813
 10
657.619568
 20
675.3302
 10
657.627625
 20
675.74585
 10
657.635681
 20
676.155396
 10
657.643616
 20
676.558594
 10
657.65155
 20
676.955078
 10
657.659363
 20
677.344727
 10
657.667175
 20
677.727051
 10
657.674866
 20
678.101929
 10
657.682495
 20
678.468994
 10
657.690063
 20
678.828003
 10
657.69751
 20
679.17865
 10
657.704895
 20
679.520691
 10
657.712158
 20
679.853882
 10
657.719299
 20
680.177979
 10
657.726379
 20
680.492737
 10
657.733276
 20
680.797913
 10
657.740112
 20
681.093323
 10
657.746826
 20
681.378784
 10
657.753357
 20
681.654053
 10
657.759766
 20
681.918884
 10
657.766113
 20
682.173096
 10
657.772217
 20
682.416504
 10
657.778198
 20
682.648865
 10
657.784058
 20
682.870117
 10
657.789734
 20
683.080017
 10
657.795288
 20
683.278442
 10
657.800598
 20
683.465271
 10
657.805786
 20
683.640381
 10
657.810791
 20
683.80365
 10
657.815674
 20
683.954956
 10
657.820312
 20
684.094177
 10
657.824768
 20
684.221252
 10
657.829102
 20
684.336121
 10
657.833191
 20
684.438721
 10
657.837158
 20
684.529114
 10
657.840881
 20
684.607422
 10
657.844482
 20
684.673767
 10
657.848022
 20
684.72876
 10
657.851624
 20
684.773804
 10
657.856079
 20
684.813965
 10
657.873779
 20
684.887878
 10
658.157227
 20
685.087708
  0
LWPOLYLINE
  5
14F
330
10D
100
AcDbEntity
  8
0
  6
Continuous
 62
     0
370
    30
100
AcDbPolyline
 90
       48
 70
     0
 43
0.0
 10
660.070679
 20
672.723572
 10
660.0625
 20
673.168701
 10
660.054321
 20
673.609802
 10
660.046143
 20
674.046631
 10
660.038025
 20
674.478699
 10
660.029907
 20
674.90564
 10
660.02179
 20
675.327148
 10
660.013733
 20
675.742859
 10
660.005737
 20
676.152527
 10
659.997742
 20
676.555786
 10
659.989868
 20
676.952454
 10
659.981995
 20
677.342102
 10
659.974243
 20
677.724609
 10
659.966492
 20
678.099548
 10
659.958862
 20
678.466675
 10
659.951355
 20
678.825806
 10
659.943848
 20
679.176514
 10
659.936523
 20
679.518677
 10
659.929199
 20
679.85199
 10
659.922058
 20
680.176147
 10
659.915039
 20
680.491028
 10
659.908081
 20
680.796265
 10
659.901245
 20
681.091797
 10
659.894531
 20
681.37738
 10
659.888
 20
681.65271
 10
659.881592
 20
681.917664
 10
659.875244
 20
682.171936
 10
659.869141
 20
682.415405
 10
659.863159
 20
682.647888
 10
659.8573
 20
682.869202
 10
659.851624
 20
683.079163
 10
659.846069
 20
683.27771
 10
659.840759
 20
683.464661
 10
659.835571
 20
683.639832
 10
659.830505
 20
683.803162
 10
659.825684
 20
683.954529
 10
659.821045
 20
684.093811
 10
659.816528
 20
684.220947
 10
659.812256
 20
684.335815
 10
659.808167
 20
684.438477
 10
659.804199
 20
684.528931
 10
659.800415
 20
684.607239
 10
659.796814
 20
684.673645
 10
659.793335
 20
684.728638
 10
659.789734
 20
684.773743
 10
659.785278
 20
684.813965
 10
659.767639
 20
684.887634
 10
659.48407
 20
685.087769
  0
LWPOLYLINE
  5
150
330
10D
100
AcDbEntity
  8
0
  6
Continuous
 62
     0
370
    30
100
AcDbPolyline
 90
        4
 70
     0
 43
0.0
 10
659.832153
 20
683.751831
 10
659.878662
 20
683.684692
 10
659.960693
 20
683.621765
 10
660.099182
 20
683.587769
  0
LINE
  5
151
330
10D
100
AcDbEntity
  8
0
  6
Continuous
 62
     0
370
    30
100
AcDbLine
 10
659.484085
 20
685.087842
 30
0.0
 11
658.157241
 21
685.087842
 31
0.0
  0
LINE
  5
152
330
10D
100
AcDbEntity
  8
0
  6
Continuous
 62
     0
370
    30
100
AcDbLine
 10
659.484086
 20
650.087842
 30
0.0
 11
658.157241
 21
650.087842
 31
0.0
  0
LWPOLYLINE
  5
153
330
10D
100
AcDbEntity
  8
0
  6
Continuous
 62
     0
370
     0
100
AcDbPolyline
 90
       52
 70
     0
 43
0.0
 10
657.57074
 20
567.918518
 10
657.581848
 20
567.639648
 10
657.592957
 20
567.28479
 10
657.603943
 20
566.855164
 10
657.614807
 20
566.352478
 10
657.625488
 20
565.778687
 10
657.635986
 20
565.135864
 10
657.64624
 20
564.426514
 10
657.656189
 20
563.65332
 10
657.665833
 20
562.819153
 10
657.67511
 20
561.927307
 10
657.68396
 20
560.981018
 10
657.692444
 20
559.984009
 10
657.700439
 20
558.939941
 10
657.707947
 20
557.852844
 10
657.714905
 20
556.726868
 10
657.721313
 20
555.566162
 10
657.727173
 20
554.375244
 10
657.732422
 20
553.15863
 10
657.737122
 20
551.920837
 10
657.74115
 20
550.666626
 10
657.744507
 20
549.400818
 10
657.747192
 20
548.128052
 10
657.749268
 20
546.853271
 10
657.75061
 20
545.581299
 10
657.751343
 20
544.316956
 10
657.751343
 20
543.065002
 10
657.75061
 20
541.830261
 10
657.749268
 20
540.61731
 10
657.747253
 20
539.430786
 10
657.744507
 20
538.275269
 10
657.74115
 20
537.155029
 10
657.737122
 20
536.074402
 10
657.732483
 20
535.037415
 10
657.727234
 20
534.048035
 10
657.721375
 20
533.110046
 10
657.714966
 20
532.226929
 10
657.708008
 20
531.402161
 10
657.7005
 20
530.638733
 10
657.692505
 20
529.939575
 10
657.684082
 20
529.307373
 10
657.675171
 20
528.744507
 10
657.665894
 20
528.253113
 10
657.656311
 20
527.835083
 10
657.646301
 20
527.491943
 10
657.636108
 20
527.225037
 10
657.62561
 20
527.035339
 10
657.614868
 20
526.923645
 10
657.604004
 20
526.89032
 10
657.593018
 20
526.935486
 10
657.58197
 20
527.05896
 10
657.57074
 20
527.262573
  0
LWPOLYLINE
  5
154
330
10D
100
AcDbEntity
  8
0
  6
Continuous
 62
     0
370
     0
100
AcDbPolyline
 90
       52
 70
     0
 43
0.0
 10
657.57074
 20
528.882935
 10
657.580078
 20
528.710815
 10
657.589539
 20
528.596313
 10
657.599182
 20
528.54364
 10
657.608887
 20
528.556946
 10
657.618591
 20
528.639771
 10
657.628296
 20
528.795044
 10
657.637878
 20
529.025024
 10
657.647339
 20
529.331177
 10
657.656616
 20
529.714111
 10
657.665527
 20
530.173462
 10
657.674194
 20
530.707947
 10
657.682373
 20
531.315186
 10
657.690125
 20
531.991943
 10
657.697388
 20
532.734009
 10
657.704102
 20
533.53656
 10
657.710205
 20
534.393738
 10
657.715698
 20
535.299377
 10
657.720581
 20
536.246765
 10
657.724792
 20
537.228943
 10
657.728394
 20
538.238831
 10
657.731323
 20
539.269409
 10
657.733582
 20
540.31366
 10
657.735291
 20
541.365051
 10
657.736389
 20
542.417297
 10
657.736938
 20
543.464539
 10
657.736938
 20
544.507324
 10
657.736389
 20
545.577087
 10
657.735291
 20
546.676147
 10
657.733643
 20
547.799988
 10
657.731384
 20
548.943298
 10
657.728455
 20
550.100342
 10
657.724854
 20
551.264709
 10
657.720642
 20
552.429565
 10
657.71582
 20
553.587708
 10
657.710327
 20
554.731567
 10
657.704224
 20
555.85376
 10
657.69751
 20
556.946777
 10
657.690308
 20
558.003296
 10
657.682556
 20
559.016602
 10
657.674316
 20
559.980225
 10
657.66571
 20
560.88855
 10
657.656799
 20
561.736755
 10
657.647522
 20
562.520691
 10
657.638123
 20
563.237305
 10
657.628479
 20
563.884338
 10
657.618774
 20
564.460571
 10
657.60907
 20
564.965576
 10
657.599365
 20
565.399902
 10
657.589722
 20
565.764709
 10
657.580261
 20
566.061951
 10
657.57074
 20
566.298218
  0
LWPOLYLINE
  5
155
330
10D
100
AcDbEntity
  8
0
  6
Continuous
 62
     0
370
     0
100
AcDbPolyline
 90
       49
 70
     0
 43
0.0
 10
659.736633
 20
526.590698
 10
659.725769
 20
526.63031
 10
659.715149
 20
526.749207
 10
659.704712
 20
526.946594
 10
659.694458
 20
527.221863
 10
659.68457
 20
527.574341
 10
659.674988
 20
528.002686
 10
659.66571
 20
528.505127
 10
659.656921
 20
529.079956
 10
659.648499
 20
529.725037
 10
659.640564
 20
530.4375
 10
659.633057
 20
531.214294
 10
659.62616
 20
532.052368
 10
659.619812
 20
532.948608
 10
659.613953
 20
533.899963
 10
659.608765
 20
534.903198
 10
659.604187
 20
535.955322
 10
659.600159
 20
537.052124
 10
659.596863
 20
538.188965
 10
659.594177
 20
539.36145
 10
659.592163
 20
540.56488
 10
659.59082
 20
541.7948
 10
659.590149
 20
543.046448
 10
659.590149
 20
544.315308
 10
659.590881
 20
545.596619
 10
659.592285
 20
546.885498
 10
659.59436
 20
548.177307
 10
659.597107
 20
549.467041
 10
659.600464
 20
550.749695
 10
659.604492
 20
552.019958
 10
659.609192
 20
553.272644
 10
659.614441
 20
554.502808
 10
659.6203
 20
555.706604
 10
659.626709
 20
556.880005
 10
659.633667
 20
558.018982
 10
659.641174
 20
559.119385
 10
659.64917
 20
560.17688
 10
659.657593
 20
561.186951
 10
659.666504
 20
562.145386
 10
659.67572
 20
563.048584
 10
659.685364
 20
563.893066
 10
659.695312
 20
564.675476
 10
659.705505
 20
565.3927
 10
659.716003
 20
566.042603
 10
659.726624
 20
566.623108
 10
659.737488
 20
567.132507
 10
659.748474
 20
567.568542
 10
659.759583
 20
567.928772
 10
659.770752
 20
568.213135
  0
LINE
  5
156
330
10D
100
AcDbEntity
  8
0
  6
Continuous
 62
     0
370
     0
100
AcDbLine
 10
659.770725
 20
568.213154
 30
0.0
 11
657.870748
 21
568.213154
 31
0.0
  0
LWPOLYLINE
  5
157
330
10D
100
AcDbEntity
  8
0
  6
Continuous
 62
     0
370
     0
100
AcDbPolyline
 90
       49
 70
     0
 43
0.0
 10
657.870728
 20
568.213135
 10
657.881836
 20
567.93103
 10
657.892883
 20
567.57135
 10
657.90387
 20
567.135803
 10
657.914734
 20
566.626953
 10
657.925415
 20
566.046936
 10
657.935852
 20
565.397522
 10
657.946106
 20
564.680725
 10
657.956055
 20
563.898804
 10
657.965637
 20
563.054749
 10
657.974915
 20
562.151978
 10
657.983826
 20
561.193848
 10
657.992249
 20
560.184143
 10
658.000244
 20
559.127014
 10
658.007751
 20
558.026917
 10
658.014709
 20
556.888123
 10
658.021118
 20
555.714966
 10
658.026978
 20
554.511414
 10
658.032288
 20
553.281372
 10
658.036926
 20
552.02887
 10
658.040955
 20
550.758728
 10
658.044373
 20
549.476135
 10
658.047119
 20
548.186401
 10
658.049194
 20
546.894653
 10
658.050598
 20
545.605652
 10
658.05127
 20
544.32428
 10
658.051331
 20
543.055359
 10
658.050659
 20
541.803528
 10
658.049316
 20
540.573486
 10
658.047363
 20
539.369812
 10
658.044678
 20
538.197144
 10
658.041321
 20
537.059998
 10
658.037354
 20
535.962952
 10
658.032715
 20
534.910461
 10
658.027527
 20
533.90686
 10
658.021729
 20
532.955139
 10
658.015381
 20
532.058472
 10
658.008423
 20
531.219971
 10
658.000977
 20
530.442749
 10
657.993042
 20
529.729858
 10
657.984619
 20
529.084229
 10
657.97583
 20
528.508911
 10
657.966553
 20
528.005981
 10
657.95697
 20
527.577087
 10
657.947083
 20
527.22406
 10
657.93689
 20
526.948242
 10
657.926453
 20
526.750305
 10
657.915771
 20
526.63092
 10
657.904846
 20
526.590698
  0
LWPOLYLINE
  5
158
330
10D
100
AcDbEntity
  8
0
  6
Continuous
 62
     0
370
     0
100
AcDbPolyline
 90
        5
 70
     0
 43
0.0
 10
659.770752
 20
568.213135
 10
659.763
 20
568.363342
 10
659.75531
 20
568.475769
 10
659.747681
 20
568.550232
 10
659.736633
 20
568.590454
  0
LWPOLYLINE
  5
159
330
10D
100
AcDbEntity
  8
0
  6
Continuous
 62
     0
370
     0
100
AcDbPolyline
 90
        5
 70
     0
 43
0.0
 10
657.904846
 20
568.590454
 10
657.897217
 20
568.571106
 10
657.889526
 20
568.51355
 10
657.881836
 20
568.417969
 10
657.870728
 20
568.213135
  0
LINE
  5
15A
330
10D
100
AcDbEntity
  8
0
  6
Continuous
 62
     0
370
     0
100
AcDbLine
 10
660.070736
 20
527.262576
 30
0.0
 11
660.070736
 21
527.674466
 31
0.0
  0
LINE
  5
15B
330
10D
100
AcDbEntity
  8
0
  6
Continuous
 62
     0
370
     0
100
AcDbLine
 10
660.070736
 20
567.280227
 30
0.0
 11
660.070736
 21
567.918546
 31
0.0
  0
LWPOLYLINE
  5
15C
330
10D
100
AcDbEntity
  8
0
  6
Continuous
 62
     0
370
     0
100
AcDbPolyline
 90
       52
 70
     0
 43
0.0
 10
660.07074
 20
527.262573
 10
660.059631
 20
527.060486
 10
660.048523
 20
526.936279
 10
660.037537
 20
526.89032
 10
660.026672
 20
526.922974
 10
660.015991
 20
527.033936
 10
660.005493
 20
527.2229
 10
659.995239
 20
527.489075
 10
659.985291
 20
527.831482
 10
659.975647
 20
528.24884
 10
659.96637
 20
528.739563
 10
659.95752
 20
529.301758
 10
659.949036
 20
529.93335
 10
659.94104
 20
530.631836
 10
659.933533
 20
531.394714
 10
659.926575
 20
532.218933
 10
659.920166
 20
533.101501
 10
659.914307
 20
534.039001
 10
659.908997
 20
535.027954
 10
659.904358
 20
536.064453
 10
659.90033
 20
537.144714
 10
659.896973
 20
538.264587
 10
659.894287
 20
539.4198
 10
659.892212
 20
540.606079
 10
659.890869
 20
541.818787
 10
659.890137
 20
543.053345
 10
659.890137
 20
544.305176
 10
659.890808
 20
545.569458
 10
659.892212
 20
546.84137
 10
659.894226
 20
548.11615
 10
659.896973
 20
549.388916
 10
659.90033
 20
550.654846
 10
659.904358
 20
551.90918
 10
659.908997
 20
553.147095
 10
659.914246
 20
554.363953
 10
659.920105
 20
555.555176
 10
659.926514
 20
556.716125
 10
659.933472
 20
557.842468
 10
659.940979
 20
558.929993
 10
659.948975
 20
559.974426
 10
659.957397
 20
560.971924
 10
659.966309
 20
561.918701
 10
659.975525
 20
562.811096
 10
659.985168
 20
563.645752
 10
659.995117
 20
564.419556
 10
660.005371
 20
565.129517
 10
660.015869
 20
565.772949
 10
660.02655
 20
566.347473
 10
660.037415
 20
566.850769
 10
660.048462
 20
567.281067
 10
660.059509
 20
567.636719
 10
660.07074
 20
567.918518
  0
LWPOLYLINE
  5
15D
330
10D
100
AcDbEntity
  8
0
  6
Continuous
 62
     0
370
     0
100
AcDbPolyline
 90
       50
 70
     0
 43
0.0
 10
660.07074
 20
567.280212
 10
660.059875
 20
567.007019
 10
660.049072
 20
566.658813
 10
660.03833
 20
566.237
 10
660.02771
 20
565.743225
 10
660.017212
 20
565.17926
 10
660.007019
 20
564.547485
 10
659.997009
 20
563.850159
 10
659.987305
 20
563.090088
 10
659.977905
 20
562.270142
 10
659.968872
 20
561.393494
 10
659.960205
 20
560.463562
 10
659.952026
 20
559.483948
 10
659.944275
 20
558.458374
 10
659.937012
 20
557.390869
 10
659.930237
 20
556.285522
 10
659.924072
 20
555.146606
 10
659.918396
 20
553.978455
 10
659.91333
 20
552.785706
 10
659.908936
 20
551.572876
 10
659.90509
 20
550.344666
 10
659.901917
 20
549.105835
 10
659.899414
 20
547.861145
 10
659.897522
 20
546.615417
 10
659.896362
 20
545.373413
 10
659.895813
 20
544.140015
 10
659.895935
 20
542.919922
 10
659.89679
 20
541.717896
 10
659.898315
 20
540.538513
 10
659.900452
 20
539.386414
 10
659.903259
 20
538.265991
 10
659.906738
 20
537.181519
 10
659.910889
 20
536.137268
 10
659.915588
 20
535.137268
 10
659.920898
 20
534.185364
 10
659.926819
 20
533.285217
 10
659.933289
 20
532.440308
 10
659.940247
 20
531.65387
 10
659.947754
 20
530.929016
 10
659.955688
 20
530.268494
 10
659.964111
 20
529.674866
 10
659.972961
 20
529.150391
 10
659.982117
 20
528.697144
 10
659.991699
 20
528.316895
 10
660.001526
 20
528.011047
 10
660.011658
 20
527.780762
 10
660.021973
 20
527.627014
 10
660.032532
 20
527.550354
 10
660.043213
 20
527.551086
 10
660.054138
 20
527.631165
  0
LWPOLYLINE
  5
15E
330
10D
100
AcDbEntity
  8
0
  6
Continuous
 62
     0
370
     0
100
AcDbPolyline
 90
        4
 70
     0
 43
0.0
 10
660.337708
 20
567.340576
 10
660.348633
 20
567.301025
 10
660.359619
 20
567.182922
 10
660.370728
 20
566.985596
  0
ARC
  5
15F
330
10D
100
AcDbEntity
  8
0
  6
Continuous
 62
     0
370
     0
100
AcDbCircle
 10
660.367699
 20
567.282576
 30
0.0
 40
0.2969726101857265
100
AcDbArc
 50
180.45314
 51
270.588091
  0
LWPOLYLINE
  5
160
330
10D
100
AcDbEntity
  8
0
  6
Continuous
 62
     0
370
     0
100
AcDbPolyline
 90
       48
 70
     0
 43
0.0
 10
660.370728
 20
566.985596
 10
660.359802
 20
566.713684
 10
660.348816
 20
566.366211
 10
660.338013
 20
565.944702
 10
660.327271
 20
565.450928
 10
660.316711
 20
564.88678
 10
660.306396
 20
564.254639
 10
660.296326
 20
563.556763
 10
660.286499
 20
562.795898
 10
660.277039
 20
561.97522
 10
660.267944
 20
561.097839
 10
660.259277
 20
560.167175
 10
660.251038
 20
559.187012
 10
660.243286
 20
558.161133
 10
660.236023
 20
557.093567
 10
660.229248
 20
555.988647
 10
660.223083
 20
554.850586
 10
660.217468
 20
553.683899
 10
660.212524
 20
552.493225
 10
660.20813
 20
551.283264
 10
660.204407
 20
550.058655
 10
660.201294
 20
548.824402
 10
660.198914
 20
547.585266
 10
660.197205
 20
546.34613
 10
660.196106
 20
545.111938
 10
660.195801
 20
543.887451
 10
660.196106
 20
542.677612
 10
660.197144
 20
541.487122
 10
660.198853
 20
540.320618
 10
660.201233
 20
539.182861
 10
660.204285
 20
538.078186
 10
660.207947
 20
537.010986
 10
660.21228
 20
535.985474
 10
660.217285
 20
535.005737
 10
660.222839
 20
534.0755
 10
660.229004
 20
533.198608
 10
660.235718
 20
532.378418
 10
660.242981
 20
531.618042
 10
660.250732
 20
530.920715
 10
660.258972
 20
530.289124
 10
660.267639
 20
529.725586
 10
660.276672
 20
529.232422
 10
660.286133
 20
528.811707
 10
660.295898
 20
528.464905
 10
660.305969
 20
528.193481
 10
660.316284
 20
527.998596
 10
660.326843
 20
527.880798
 10
660.337708
 20
527.840576
  0
LINE
  5
161
330
10D
100
AcDbEntity
  8
0
  6
Continuous
 62
     0
370
     0
100
AcDbLine
 10
660.07043
 20
527.249442
 30
0.0
 11
660.070736
 21
527.262576
 31
0.0
  0
ARC
  5
162
330
10D
100
AcDbEntity
  8
0
  6
Continuous
 62
     0
370
     0
100
AcDbCircle
 10
659.773426
 20
567.915844
 30
0.0
 40
0.2973226615459943
100
AcDbArc
 50
0.520648
 51
90.520514
  0
ARC
  5
163
330
10D
100
AcDbEntity
  8
0
  6
Continuous
 62
     0
370
     0
100
AcDbCircle
 10
657.867708
 20
567.916189
 30
0.0
 40
0.2969808915948391
100
AcDbArc
 50
89.41351
 51
179.545326
  0
LINE
  5
164
330
10D
100
AcDbEntity
  8
0
  6
Continuous
 62
     0
370
     0
100
AcDbLine
 10
657.570736
 20
527.262576
 30
0.0
 11
657.571042
 21
527.249446
 31
0.0
  0
LINE
  5
165
330
10D
100
AcDbEntity
  8
0
  6
Continuous
 62
     0
370
     0
100
AcDbLine
 10
660.370748
 20
566.985619
 30
0.0
 11
660.570736
 21
566.985619
 31
0.0
  0
LINE
  5
166
330
10D
100
AcDbEntity
  8
0
  6
Continuous
 62
     0
370
    30
100
AcDbLine
 10
660.570736
 20
527.840561
 30
0.0
 11
660.337724
 21
527.840561
 31
0.0
  0
LINE
  5
167
330
10D
100
AcDbEntity
  8
0
  6
Continuous
 62
     0
370
    30
100
AcDbLine
 10
660.570736
 20
567.340561
 30
0.0
 11
660.337724
 21
567.340561
 31
0.0
  0
LWPOLYLINE
  5
168
330
10D
100
AcDbEntity
  8
0
  6
Continuous
 62
     0
370
    30
100
AcDbPolyline
 90
       24
 70
     0
 43
0.0
 10
657.904846
 20
526.590576
 10
657.761047
 20
526.627136
 10
657.667847
 20
526.705444
 10
657.629089
 20
526.768494
 10
657.614319
 20
526.806763
 10
657.607056
 20
526.832764
 10
657.602661
 20
526.853027
 10
657.599487
 20
526.870728
 10
657.596924
 20
526.887451
 10
657.594727
 20
526.904175
 10
657.592712
 20
526.921265
 10
657.59082
 20
526.939148
 10
657.588989
 20
526.957947
 10
657.58728
 20
526.977783
 10
657.585571
 20
526.998901
 10
657.583923
 20
527.02124
 10
657.582275
 20
527.044861
 10
657.580627
 20
527.069885
 10
657.579041
 20
527.096252
 10
657.577393
 20
527.124023
 10
657.575806
 20
527.153137
 10
657.574219
 20
527.183716
 10
657.572632
 20
527.215698
 10
657.571045
 20
527.249451
  0
LWPOLYLINE
  5
169
330
10D
100
AcDbEntity
  8
0
  6
Continuous
 62
     0
370
    30
100
AcDbPolyline
 90
       24
 70
     0
 43
0.0
 10
657.571045
 20
567.931702
 10
657.572632
 20
567.965088
 10
657.574219
 20
567.99707
 10
657.575806
 20
568.027649
 10
657.577393
 20
568.056763
 10
657.578979
 20
568.084473
 10
657.580627
 20
568.11084
 10
657.582214
 20
568.135803
 10
657.583862
 20
568.159485
 10
657.585571
 20
568.181763
 10
657.587219
 20
568.202881
 10
657.588989
 20
568.222778
 10
657.590759
 20
568.241577
 10
657.592651
 20
568.259338
 10
657.594666
 20
568.276428
 10
657.596863
 20
568.293152
 10
657.599365
 20
568.309875
 10
657.6026
 20
568.327576
 10
657.60675
 20
568.347595
 10
657.613831
 20
568.37323
 10
657.628357
 20
568.41095
 10
657.665588
 20
568.472839
 10
657.756348
 20
568.551453
 10
657.904846
 20
568.590576
  0
LWPOLYLINE
  5
16A
330
10D
100
AcDbEntity
  8
0
  6
Continuous
 62
     0
370
    30
100
AcDbPolyline
 90
       24
 70
     0
 43
0.0
 10
659.736633
 20
568.590576
 10
659.880127
 20
568.554199
 10
659.97345
 20
568.475891
 10
660.012207
 20
568.412964
 10
660.027161
 20
568.374512
 10
660.034302
 20
568.348633
 10
660.038818
 20
568.328247
 10
660.041992
 20
568.310608
 10
660.044495
 20
568.293884
 10
660.046753
 20
568.277222
 10
660.048767
 20
568.26001
 10
660.05072
 20
568.242065
 10
660.05249
 20
568.223328
 10
660.054199
 20
568.203552
 10
660.055847
 20
568.182678
 10
660.057495
 20
568.160522
 10
660.059143
 20
568.136963
 10
660.06073
 20
568.112061
 10
660.062378
 20
568.085815
 10
660.063965
 20
568.058105
 10
660.065613
 20
568.029053
 10
660.0672
 20
567.998535
 10
660.068787
 20
567.966614
 10
660.070435
 20
567.931702
  0
LWPOLYLINE
  5
16B
330
10D
100
AcDbEntity
  8
0
  6
Continuous
 62
     0
370
    30
100
AcDbPolyline
 90
       24
 70
     0
 43
0.0
 10
660.070435
 20
527.249451
 10
660.068848
 20
527.216003
 10
660.067322
 20
527.184082
 10
660.065735
 20
527.153564
 10
660.064209
 20
527.124512
 10
660.062622
 20
527.096863
 10
660.061035
 20
527.070557
 10
660.059448
 20
527.045593
 10
660.057739
 20
527.021851
 10
660.05603
 20
526.99939
 10
660.05426
 20
526.978088
 10
660.052429
 20
526.958008
 10
660.050537
 20
526.939026
 10
660.048584
 20
526.921143
 10
660.046692
 20
526.904175
 10
660.044861
 20
526.888123
 10
660.042603
 20
526.871887
 10
660.039429
 20
526.854065
 10
660.034546
 20
526.833069
 10
660.027161
 20
526.807007
 10
660.012817
 20
526.769104
 10
659.974365
 20
526.70636
 10
659.881958
 20
526.62793
 10
659.736633
 20
526.590576
  0
LWPOLYLINE
  5
16C
330
10D
100
AcDbEntity
  8
0
  6
Continuous
 62
     0
370
    30
100
AcDbPolyline
 90
        8
 70
     0
 43
0.0
 10
660.337708
 20
527.840576
 10
660.204712
 20
527.809265
 10
660.113159
 20
527.738525
 10
660.072632
 20
527.678284
 10
660.058533
 20
527.644836
 10
660.053162
 20
527.627319
 10
660.05127
 20
527.619141
 10
660.05072
 20
527.616516
  0
LWPOLYLINE
  5
16D
330
10D
100
AcDbEntity
  8
0
  6
Continuous
 62
     0
370
    30
100
AcDbPolyline
 90
        4
 70
     0
 43
0.0
 10
660.07074
 20
567.506592
 10
660.107666
 20
567.449097
 10
660.193665
 20
567.377625
 10
660.337708
 20
567.340576
  0
LINE
  5
16E
330
10D
100
AcDbEntity
  8
0
  6
Continuous
 62
     0
370
    30
100
AcDbLine
 10
659.736631
 20
568.590561
 30
0.0
 11
657.904841
 21
568.590561
 31
0.0
  0
LINE
  5
16F
330
10D
100
AcDbEntity
  8
0
  6
Continuous
 62
     0
370
    30
100
AcDbLine
 10
659.73663
 20
526.590561
 30
0.0
 11
657.904841
 21
526.590561
 31
0.0
  0
ENDBLK
  5
171
330
10D
100
AcDbEntity
  8
0
100
AcDbBlockEnd
  0
BLOCK
  5
1E0
330
173
100
AcDbEntity
  8
0
100
AcDbBlockBegin
  2
d
 70
     0
 10
427.592224
 20
0.0
 30
0.0
  3
d
  1

  0
LINE
  5
174
330
173
100
AcDbEntity
  8
0
  6
Continuous
 62
     0
370
    30
100
AcDbLine
 10
337.691055
 20
656.587906
 30
0.0
 11
337.691055
 21
649.587906
 31
0.0
  0
LINE
  5
175
330
173
100
AcDbEntity
  8
0
  6
Continuous
 62
     0
370
    30
100
AcDbLine
 10
337.691055
 20
678.587906
 30
0.0
 11
337.691055
 21
656.587906
 31
0.0
  0
LINE
  5
176
330
173
100
AcDbEntity
  8
0
  6
Continuous
 62
     0
370
    30
100
AcDbLine
 10
337.691055
 20
685.587906
 30
0.0
 11
337.691055
 21
678.587906
 31
0.0
  0
LINE
  5
177
330
173
100
AcDbEntity
  8
0
  6
Continuous
 62
     0
370
    30
100
AcDbLine
 10
377.691055
 20
686.587906
 30
0.0
 11
338.691055
 21
686.587906
 31
0.0
  0
LINE
  5
178
330
173
100
AcDbEntity
  8
0
  6
Continuous
 62
     0
370
     0
100
AcDbLine
 10
338.691055
 20
686.587906
 30
0.0
 11
338.691055
 21
678.587906
 31
0.0
  0
LINE
  5
179
330
173
100
AcDbEntity
  8
0
  6
Continuous
 62
     0
370
     0
100
AcDbLine
 10
338.691054
 20
678.587906
 30
0.0
 11
377.691054
 21
678.587906
 31
0.0
  0
LINE
  5
17A
330
173
100
AcDbEntity
  8
0
  6
Continuous
 62
     0
370
    30
100
AcDbLine
 10
377.691055
 20
678.587906
 30
0.0
 11
377.691055
 21
686.587906
 31
0.0
  0
LINE
  5
17B
330
173
100
AcDbEntity
  8
0
  6
Continuous
 62
     0
370
     0
100
AcDbLine
 10
338.691054
 20
656.587906
 30
0.0
 11
338.691054
 21
678.587906
 31
0.0
  0
LINE
  5
17C
330
173
100
AcDbEntity
  8
0
  6
Continuous
 62
     0
370
     0
100
AcDbLine
 10
377.691054
 20
656.587906
 30
0.0
 11
338.691054
 21
656.587906
 31
0.0
  0
LINE
  5
17D
330
173
100
AcDbEntity
  8
0
  6
Continuous
 62
     0
370
    30
100
AcDbLine
 10
377.691054
 20
678.587906
 30
0.0
 11
377.691054
 21
656.587906
 31
0.0
  0
LINE
  5
17E
330
173
100
AcDbEntity
  8
0
  6
Continuous
 62
     0
370
     0
100
AcDbLine
 10
338.691055
 20
656.587906
 30
0.0
 11
338.691055
 21
648.587906
 31
0.0
  0
LINE
  5
17F
330
173
100
AcDbEntity
  8
0
  6
Continuous
 62
     0
370
    30
100
AcDbLine
 10
338.691055
 20
648.587906
 30
0.0
 11
377.691055
 21
648.587906
 31
0.0
  0
LINE
  5
180
330
173
100
AcDbEntity
  8
0
  6
Continuous
 62
     0
370
    30
100
AcDbLine
 10
377.691055
 20
648.587906
 30
0.0
 11
377.691055
 21
656.587906
 31
0.0
  0
ARC
  5
181
330
173
100
AcDbEntity
  8
0
  6
Continuous
 62
     0
370
    30
100
AcDbCircle
 10
338.691055
 20
649.587906
 30
0.0
 40
1.0
100
AcDbArc
 50
180.0
 51
270.0
  0
LINE
  5
182
330
173
100
AcDbEntity
  8
0
  6
Continuous
 62
     0
370
     0
100
AcDbLine
 10
338.691054
 20
656.587906
 30
0.0
 11
337.691055
 21
656.587906
 31
0.0
  0
LINE
  5
183
330
173
100
AcDbEntity
  8
0
  6
Continuous
 62
     0
370
     0
100
AcDbLine
 10
338.691054
 20
678.587906
 30
0.0
 11
337.691055
 21
678.587906
 31
0.0
  0
ARC
  5
184
330
173
100
AcDbEntity
  8
0
  6
Continuous
 62
     0
370
    30
100
AcDbCircle
 10
338.691055
 20
685.587906
 30
0.0
 40
1.000000000003268
100
AcDbArc
 50
90.0
 51
180.0
  0
LINE
  5
185
330
173
100
AcDbEntity
  8
0
  6
Continuous
 62
     0
370
    30
100
AcDbLine
 10
327.840981
 20
569.090622
 30
0.0
 11
327.840981
 21
526.090622
 31
0.0
  0
LINE
  5
186
330
173
100
AcDbEntity
  8
0
  6
Continuous
 62
     0
370
    30
100
AcDbLine
 10
327.840981
 20
526.090622
 30
0.0
 11
328.340981
 21
525.590622
 31
0.0
  0
LINE
  5
187
330
173
100
AcDbEntity
  8
0
  6
Continuous
 62
     0
370
    30
100
AcDbLine
 10
328.340981
 20
569.590622
 30
0.0
 11
328.340981
 21
525.590622
 31
0.0
  0
LINE
  5
188
330
173
100
AcDbEntity
  8
0
  6
Continuous
 62
     0
370
    30
100
AcDbLine
 10
341.590981
 20
525.590622
 30
0.0
 11
377.840981
 21
525.590622
 31
0.0
  0
LINE
  5
189
330
173
100
AcDbEntity
  8
0
  6
Continuous
 62
     0
370
    30
100
AcDbLine
 10
377.840981
 20
525.590622
 30
0.0
 11
377.840981
 21
569.590622
 31
0.0
  0
LINE
  5
18A
330
173
100
AcDbEntity
  8
0
  6
Continuous
 62
     0
370
    30
100
AcDbLine
 10
332.090981
 20
525.590622
 30
0.0
 11
328.340981
 21
525.590622
 31
0.0
  0
LWPOLYLINE
  5
18B
330
173
100
AcDbEntity
  8
0
  6
Continuous
 62
     0
370
     0
100
AcDbPolyline
 90
       27
 70
     0
 43
0.0
 10
332.090973
 20
525.590637
 10
332.125336
 20
525.598083
 10
332.228821
 20
525.619995
 10
332.398865
 20
525.655029
 10
332.633026
 20
525.701233
 10
332.927704
 20
525.755981
 10
333.279053
 20
525.816223
 10
333.682617
 20
525.878479
 10
334.132599
 20
525.939392
 10
334.622162
 20
525.995239
 10
335.14444
 20
526.042603
 10
335.691833
 20
526.078735
 10
336.2565
 20
526.101562
 10
336.83017
 20
526.109436
 10
337.403992
 20
526.102112
 10
337.969147
 20
526.079895
 10
338.517334
 20
526.044189
 10
339.04068
 20
525.997192
 10
339.531616
 20
525.941589
 10
339.983215
 20
525.880859
 10
340.388641
 20
525.818542
 10
340.742035
 20
525.758179
 10
341.039001
 20
525.703186
 10
341.275452
 20
525.656555
 10
341.447906
 20
525.621033
 10
341.553986
 20
525.598633
 10
341.590973
 20
525.590637
  0
LWPOLYLINE
  5
18C
330
173
100
AcDbEntity
  8
0
  6
Continuous
 62
     0
370
     0
100
AcDbPolyline
 90
       25
 70
     0
 43
0.0
 10
340.940979
 20
569.590637
 10
340.906189
 20
569.584106
 10
340.801666
 20
569.565063
 10
340.630005
 20
569.534851
 10
340.394318
 20
569.495361
 10
340.098358
 20
569.449219
 10
339.746643
 20
569.399658
 10
339.344696
 20
569.349792
 10
338.89978
 20
569.30304
 10
338.419525
 20
569.262817
 10
337.912018
 20
569.231812
 10
337.385895
 20
569.212097
 10
336.850098
 20
569.205322
 10
336.314148
 20
569.211609
 10
335.787628
 20
569.230896
 10
335.279388
 20
569.261597
 10
334.798096
 20
569.301636
 10
334.351807
 20
569.348206
 10
333.948242
 20
569.397949
 10
333.594696
 20
569.447632
 10
333.296783
 20
569.493896
 10
333.059052
 20
569.53363
 10
332.885101
 20
569.56427
 10
332.778259
 20
569.583679
 10
332.741364
 20
569.590637
  0
LINE
  5
18D
330
173
100
AcDbEntity
  8
0
  6
Continuous
 62
     0
370
    30
100
AcDbLine
 10
340.290981
 20
577.420622
 30
0.0
 11
333.390981
 21
577.420622
 31
0.0
  0
LINE
  5
18E
330
173
100
AcDbEntity
  8
0
  6
Continuous
 62
     0
370
    30
100
AcDbLine
 10
333.390981
 20
577.420622
 30
0.0
 11
332.890981
 21
576.920622
 31
0.0
  0
LINE
  5
18F
330
173
100
AcDbEntity
  8
0
  6
Continuous
 62
     0
370
    30
100
AcDbLine
 10
340.790981
 20
576.920622
 30
0.0
 11
332.890981
 21
576.920622
 31
0.0
  0
LINE
  5
190
330
173
100
AcDbEntity
  8
0
  6
Continuous
 62
     0
370
    30
100
AcDbLine
 10
332.890981
 20
569.590622
 30
0.0
 11
332.890981
 21
576.920622
 31
0.0
  0
LWPOLYLINE
  5
191
330
173
100
AcDbEntity
  8
0
  6
Continuous
 62
     0
370
    30
100
AcDbPolyline
 90
       24
 70
     0
 43
0.0
 10
332.890991
 20
569.590637
 10
332.92746
 20
569.584045
 10
333.037231
 20
569.564697
 10
333.217804
 20
569.534302
 10
333.465546
 20
569.49469
 10
333.77533
 20
569.448975
 10
334.141235
 20
569.400635
 10
334.557281
 20
569.353271
 10
335.016266
 20
569.31012
 10
335.509369
 20
569.274231
 10
336.027618
 20
569.248535
 10
336.561707
 20
569.235413
 10
337.101288
 20
569.235168
 10
337.635742
 20
569.247803
 10
338.154663
 20
569.273071
 10
338.648743
 20
569.308777
 10
339.1091
 20
569.351807
 10
339.526978
 20
569.39917
 10
339.894928
 20
569.44751
 10
340.206757
 20
569.493286
 10
340.45639
 20
569.532959
 10
340.638763
 20
569.563538
 10
340.751129
 20
569.583252
 10
340.790985
 20
569.590576
  0
LINE
  5
192
330
173
100
AcDbEntity
  8
0
  6
Continuous
 62
     0
370
    30
100
AcDbLine
 10
341.590981
 20
525.590622
 30
0.0
 11
332.090981
 21
525.590622
 31
0.0
  0
LINE
  5
193
330
173
100
AcDbEntity
  8
0
  6
Continuous
 62
     0
370
    30
100
AcDbLine
 10
332.890981
 20
569.590622
 30
0.0
 11
332.741378
 21
569.590622
 31
0.0
  0
LINE
  5
194
330
173
100
AcDbEntity
  8
0
  6
Continuous
 62
     0
370
    30
100
AcDbLine
 10
340.790981
 20
576.920622
 30
0.0
 11
340.790981
 21
569.590546
 31
0.0
  0
LINE
  5
195
330
173
100
AcDbEntity
  8
0
  6
Continuous
 62
     0
370
    30
100
AcDbLine
 10
340.290981
 20
577.420622
 30
0.0
 11
340.790981
 21
576.920622
 31
0.0
  0
LINE
  5
196
330
173
100
AcDbEntity
  8
0
  6
Continuous
 62
     0
370
    30
100
AcDbLine
 10
328.340981
 20
569.590622
 30
0.0
 11
332.741378
 21
569.590622
 31
0.0
  0
LINE
  5
197
330
173
100
AcDbEntity
  8
0
  6
Continuous
 62
     0
370
    30
100
AcDbLine
 10
340.940981
 20
569.590622
 30
0.0
 11
377.840981
 21
569.590622
 31
0.0
  0
LINE
  5
198
330
173
100
AcDbEntity
  8
0
  6
Continuous
 62
     0
370
    30
100
AcDbLine
 10
327.840981
 20
569.090622
 30
0.0
 11
328.340981
 21
569.590622
 31
0.0
  0
LINE
  5
199
330
173
100
AcDbEntity
  8
0
  6
Continuous
 62
     0
370
    30
100
AcDbLine
 10
382.840979
 20
473.590622
 30
0.0
 11
380.840979
 21
473.590622
 31
0.0
  0
LINE
  5
19A
330
173
100
AcDbEntity
  8
0
  6
Continuous
 62
     0
370
    30
100
AcDbLine
 10
382.840979
 20
473.590622
 30
0.0
 11
382.840979
 21
741.590622
 31
0.0
  0
LINE
  5
19B
330
173
100
AcDbEntity
  8
0
  6
Continuous
 62
     0
370
    30
100
AcDbLine
 10
382.840979
 20
741.590622
 30
0.0
 11
380.840979
 21
741.590622
 31
0.0
  0
LINE
  5
19C
330
173
100
AcDbEntity
  8
0
  6
Continuous
 62
     0
370
    30
100
AcDbLine
 10
380.840979
 20
741.590622
 30
0.0
 11
380.840979
 21
473.590622
 31
0.0
  0
LWPOLYLINE
  5
19D
330
173
100
AcDbEntity
  8
0
  6
Continuous
 62
     0
370
     0
100
AcDbPolyline
 90
        8
 70
     0
 43
0.0
 10
378.341064
 20
662.452637
 10
378.363556
 20
661.23584
 10
378.385956
 20
660.054626
 10
378.408112
 20
658.915833
 10
378.429871
 20
657.825806
 10
378.451141
 20
656.790833
 10
378.471771
 20
655.81665
 10
378.49292
 20
654.854126
  0
LINE
  5
19E
330
173
100
AcDbEntity
  8
0
  6
Continuous
 62
     0
370
     0
100
AcDbLine
 10
378.341052
 20
662.721355
 30
0.0
 11
378.341052
 21
662.452649
 31
0.0
  0
LWPOLYLINE
  5
19F
330
173
100
AcDbEntity
  8
0
  6
Continuous
 62
     0
370
     0
100
AcDbPolyline
 90
       20
 70
     0
 43
0.0
 10
380.254486
 20
650.088135
 10
380.261078
 20
650.127014
 10
380.268951
 20
650.243286
 10
380.277985
 20
650.436646
 10
380.288208
 20
650.705994
 10
380.29953
 20
651.050171
 10
380.311951
 20
651.467957
 10
380.325409
 20
651.957764
 10
380.339813
 20
652.517212
 10
380.355103
 20
653.143738
 10
380.371246
 20
653.834778
 10
380.388123
 20
654.586853
 10
380.405701
 20
655.396179
 10
380.423828
 20
656.259094
 10
380.442474
 20
657.171631
 10
380.461578
 20
658.130127
 10
380.481018
 20
659.131836
 10
380.500793
 20
660.172974
 10
380.520721
 20
661.246338
 10
380.541016
 20
662.363098
  0
LINE
  5
1A0
330
173
100
AcDbEntity
  8
0
  6
Continuous
 62
     0
370
     0
100
AcDbLine
 10
380.541007
 20
662.363081
 30
0.0
 11
378.641098
 21
662.363081
 31
0.0
  0
LWPOLYLINE
  5
1A1
330
173
100
AcDbEntity
  8
0
  6
Continuous
 62
     0
370
     0
100
AcDbPolyline
 90
       20
 70
     0
 43
0.0
 10
378.641083
 20
662.363098
 10
378.661072
 20
661.263306
 10
378.681
 20
660.189514
 10
378.700775
 20
659.147827
 10
378.720245
 20
658.145447
 10
378.739319
 20
657.18634
 10
378.757996
 20
656.27301
 10
378.776123
 20
655.409302
 10
378.793701
 20
654.59906
 10
378.810608
 20
653.846069
 10
378.826752
 20
653.154053
 10
378.842072
 20
652.526489
 10
378.856476
 20
651.966003
 10
378.869934
 20
651.475037
 10
378.882385
 20
651.056152
 10
378.893738
 20
650.710815
 10
378.903961
 20
650.440247
 10
378.913025
 20
650.245728
 10
378.920898
 20
650.128235
 10
378.927643
 20
650.088135
  0
LWPOLYLINE
  5
1A2
330
173
100
AcDbEntity
  8
0
  6
Continuous
 62
     0
370
     0
100
AcDbPolyline
 90
       10
 70
     0
 43
0.0
 10
380.666473
 20
653.863281
 10
380.683441
 20
654.598877
 10
380.701172
 20
655.394409
 10
380.719513
 20
656.246094
 10
380.738434
 20
657.150085
 10
380.757812
 20
658.102173
 10
380.777588
 20
659.097961
 10
380.797638
 20
660.132935
 10
380.817902
 20
661.202148
 10
380.840973
 20
662.448669
  0
LWPOLYLINE
  5
1A3
330
173
100
AcDbEntity
  8
0
  6
Continuous
 62
     0
370
     0
100
AcDbPolyline
 90
       48
 70
     0
 43
0.0
 10
380.840973
 20
662.456604
 10
380.820953
 20
663.563782
 10
380.800995
 20
664.689392
 10
380.781219
 20
665.827698
 10
380.761688
 20
666.973816
 10
380.742554
 20
668.122742
 10
380.723816
 20
669.269348
 10
380.705627
 20
670.408447
 10
380.688049
 20
671.535034
 10
380.671143
 20
672.644043
 10
380.654968
 20
673.730469
 10
380.639648
 20
674.789551
 10
380.625244
 20
675.816528
 10
380.611786
 20
676.806824
 10
380.599335
 20
677.75592
 10
380.587982
 20
678.65979
 10
380.577759
 20
679.514221
 10
380.568695
 20
680.31543
 10
380.560852
 20
681.059937
 10
380.55426
 20
681.744263
 10
380.54895
 20
682.365417
 10
380.544952
 20
682.920715
 10
380.542267
 20
683.407593
 10
380.540924
 20
683.823792
 10
380.540894
 20
684.167664
 10
380.542206
 20
684.437561
 10
380.544891
 20
684.632141
 10
380.548859
 20
684.750793
 10
380.554138
 20
684.792786
 10
380.560699
 20
684.757996
 10
380.568512
 20
684.646667
 10
380.577545
 20
684.459167
 10
380.587769
 20
684.19635
 10
380.599091
 20
683.859558
 10
380.611511
 20
683.450134
 10
380.624969
 20
682.96991
 10
380.639374
 20
682.421143
 10
380.654663
 20
681.806091
 10
380.670807
 20
681.127625
 10
380.687683
 20
680.388855
 10
380.705261
 20
679.592957
 10
380.72345
 20
678.743469
 10
380.742157
 20
677.844299
 10
380.761322
 20
676.899414
 10
380.780823
 20
675.912842
 10
380.800568
 20
674.889221
 10
380.820526
 20
673.833069
 10
380.840973
 20
672.727112
  0
LWPOLYLINE
  5
1A4
330
173
100
AcDbEntity
  8
0
  6
Continuous
 62
     0
370
     0
100
AcDbPolyline
 90
       43
 70
     0
 43
0.0
 10
380.840973
 20
671.771729
 10
380.822723
 20
672.757935
 10
380.804565
 20
673.71521
 10
380.786621
 20
674.638306
 10
380.768982
 20
675.521973
 10
380.75174
 20
676.361389
 10
380.735016
 20
677.151733
 10
380.718872
 20
677.888672
 10
380.7034
 20
678.568115
 10
380.68869
 20
679.186157
 10
380.674866
 20
679.739441
 10
380.661926
 20
680.224792
 10
380.650024
 20
680.639587
 10
380.63916
 20
680.981506
 10
380.629456
 20
681.248474
 10
380.620911
 20
681.439209
 10
380.613586
 20
681.552551
 10
380.607574
 20
681.587769
 10
380.602814
 20
681.544861
 10
380.599426
 20
681.423889
 10
380.597382
 20
681.225586
 10
380.59668
 20
680.951172
 10
380.597351
 20
680.60199
 10
380.599396
 20
680.180176
 10
380.602783
 20
679.687927
 10
380.607513
 20
679.128052
 10
380.613525
 20
678.503784
 10
380.620819
 20
677.81842
 10
380.629333
 20
677.075989
 10
380.639038
 20
676.280518
 10
380.649902
 20
675.436462
 10
380.661804
 20
674.548584
 10
380.674713
 20
673.621826
 10
380.688538
 20
672.661316
 10
380.703217
 20
671.672546
 10
380.718689
 20
670.66095
 10
380.734833
 20
669.632141
 10
380.751556
 20
668.59198
 10
380.768799
 20
667.546204
 10
380.786438
 20
666.50061
 10
380.804382
 20
665.461182
 10
380.82251
 20
664.433655
 10
380.840973
 20
663.412048
  0
LWPOLYLINE
  5
1A5
330
173
100
AcDbEntity
  8
0
  6
Continuous
 62
     0
370
     0
100
AcDbPolyline
 90
       29
 70
     0
 43
0.0
 10
378.927643
 20
685.087708
 10
378.932983
 20
685.048584
 10
378.937042
 20
684.93103
 10
378.939758
 20
684.735779
 10
378.941132
 20
684.463867
 10
378.941193
 20
684.116333
 10
378.93988
 20
683.694702
 10
378.937225
 20
683.20105
 10
378.933258
 20
682.637268
 10
378.927979
 20
682.005859
 10
378.921387
 20
681.309998
 10
378.913574
 20
680.553223
 10
378.904572
 20
679.739136
 10
378.894348
 20
678.871216
 10
378.883026
 20
677.953003
 10
378.870605
 20
676.988037
 10
378.857178
 20
675.980164
 10
378.842743
 20
674.934265
 10
378.827393
 20
673.855225
 10
378.811249
 20
672.748047
 10
378.794312
 20
671.617981
 10
378.776703
 20
670.470581
 10
378.758514
 20
669.311035
 10
378.739807
 20
668.144653
 10
378.720673
 20
666.976135
 10
378.701141
 20
665.808838
 10
378.681305
 20
664.647522
 10
378.661316
 20
663.500061
 10
378.641083
 20
662.363098
  0
LWPOLYLINE
  5
1A6
330
173
100
AcDbEntity
  8
0
  6
Continuous
 62
     0
370
     0
100
AcDbPolyline
 90
       29
 70
     0
 43
0.0
 10
380.541016
 20
662.363098
 10
380.520966
 20
663.489746
 10
380.500977
 20
664.637085
 10
380.48114
 20
665.79834
 10
380.461609
 20
666.965576
 10
380.442474
 20
668.134155
 10
380.423767
 20
669.300537
 10
380.405548
 20
670.460144
 10
380.387939
 20
671.607727
 10
380.371033
 20
672.737915
 10
380.354828
 20
673.845337
 10
380.339508
 20
674.924683
 10
380.325073
 20
675.970886
 10
380.311615
 20
676.979126
 10
380.299194
 20
677.944519
 10
380.287842
 20
678.863159
 10
380.277649
 20
679.731567
 10
380.268585
 20
680.546143
 10
380.260773
 20
681.303406
 10
380.254181
 20
681.999878
 10
380.248901
 20
682.631897
 10
380.244904
 20
683.196228
 10
380.242249
 20
683.690613
 10
380.240936
 20
684.112854
 10
380.240967
 20
684.46106
 10
380.24234
 20
684.733643
 10
380.245026
 20
684.929626
 10
380.249084
 20
685.047852
 10
380.254486
 20
685.087708
  0
LWPOLYLINE
  5
1A7
330
173
100
AcDbEntity
  8
0
  6
Continuous
 62
     0
370
     0
100
AcDbPolyline
 90
       29
 70
     0
 43
0.0
 10
378.341064
 20
662.721375
 10
378.36087
 20
663.817017
 10
378.380585
 20
664.930908
 10
378.400116
 20
666.057739
 10
378.419373
 20
667.191956
 10
378.438232
 20
668.328125
 10
378.456635
 20
669.460632
 10
378.474457
 20
670.583984
 10
378.491638
 20
671.69281
 10
378.508087
 20
672.781677
 10
378.523712
 20
673.845215
 10
378.538452
 20
674.878357
 10
378.552246
 20
675.876099
 10
378.565002
 20
676.833496
 10
378.576691
 20
677.745972
 10
378.587219
 20
678.609009
 10
378.596527
 20
679.418518
 10
378.604614
 20
680.170532
 10
378.61142
 20
680.861328
 10
378.616913
 20
681.487671
 10
378.621094
 20
682.046448
 10
378.623871
 20
682.534912
 10
378.625275
 20
682.950745
 10
378.625336
 20
683.29187
 10
378.623962
 20
683.556702
 10
378.621246
 20
683.743958
 10
378.617188
 20
683.852661
 10
378.611755
 20
683.882263
 10
378.60498
 20
683.832275
  0
LWPOLYLINE
  5
1A8
330
173
100
AcDbEntity
  8
0
  6
Continuous
 62
     0
370
     0
100
AcDbPolyline
 90
       34
 70
     0
 43
0.0
 10
378.57962
 20
683.751953
 10
378.59137
 20
684.111938
 10
378.601959
 20
684.397034
 10
378.611389
 20
684.605896
 10
378.619568
 20
684.73761
 10
378.626495
 20
684.791504
 10
378.632141
 20
684.767334
 10
378.636444
 20
684.665283
 10
378.639435
 20
684.485779
 10
378.641052
 20
684.229675
 10
378.641296
 20
683.89801
 10
378.640198
 20
683.492432
 10
378.637756
 20
683.014709
 10
378.633942
 20
682.467041
 10
378.628815
 20
681.851868
 10
378.622375
 20
681.171997
 10
378.614655
 20
680.430542
 10
378.605713
 20
679.630859
 10
378.595551
 20
678.77655
 10
378.584259
 20
677.87146
 10
378.571838
 20
676.9198
 10
378.55838
 20
675.925781
 10
378.543945
 20
674.893982
 10
378.528564
 20
673.829102
 10
378.51236
 20
672.73584
 10
378.495361
 20
671.619324
 10
378.477661
 20
670.484497
 10
378.459351
 20
669.336548
 10
378.440521
 20
668.180725
 10
378.421234
 20
667.022217
 10
378.40155
 20
665.866272
 10
378.381622
 20
664.718201
 10
378.361511
 20
663.58313
 10
378.341064
 20
662.452637
  0
LWPOLYLINE
  5
1A9
330
173
100
AcDbEntity
  8
0
  6
Continuous
 62
     0
370
     0
100
AcDbPolyline
 90
       28
 70
     0
 43
0.0
 10
378.041107
 20
662.815857
 10
378.060791
 20
663.884583
 10
378.080414
 20
664.972229
 10
378.099854
 20
666.072693
 10
378.118988
 20
667.179993
 10
378.137756
 20
668.289062
 10
378.156067
 20
669.394653
 10
378.173828
 20
670.49176
 10
378.190948
 20
671.574951
 10
378.207336
 20
672.638977
 10
378.222931
 20
673.678711
 10
378.23764
 20
674.689148
 10
378.251434
 20
675.665466
 10
378.264191
 20
676.602966
 10
378.275879
 20
677.497253
 10
378.286438
 20
678.34375
 10
378.295807
 20
679.138672
 10
378.303986
 20
679.878052
 10
378.310883
 20
680.558289
 10
378.316467
 20
681.17627
 10
378.32074
 20
681.728943
 10
378.323669
 20
682.213562
 10
378.325226
 20
682.627991
 10
378.325439
 20
682.970093
 10
378.32428
 20
683.238159
 10
378.321747
 20
683.431091
 10
378.317871
 20
683.547852
 10
378.312561
 20
683.58783
  0
LWPOLYLINE
  5
1AA
330
173
100
AcDbEntity
  8
0
  6
Continuous
 62
     0
370
    30
100
AcDbPolyline
 90
        5
 70
     0
 43
0.0
 10
378.341064
 20
662.721375
 10
378.322693
 20
662.752502
 10
378.269836
 20
662.780396
 10
378.189026
 20
662.801697
 10
378.041107
 20
662.815857
  0
LWPOLYLINE
  5
1AB
330
173
100
AcDbEntity
  8
0
  6
Continuous
 62
     0
370
     0
100
AcDbPolyline
 90
        5
 70
     0
 43
0.0
 10
378.641083
 20
662.363098
 10
378.538147
 20
662.368591
 10
378.447052
 20
662.384277
 10
378.380188
 20
662.408447
 10
378.341064
 20
662.452637
  0
LWPOLYLINE
  5
1AC
330
173
100
AcDbEntity
  8
0
  6
Continuous
 62
     0
370
     0
100
AcDbPolyline
 90
        4
 70
     0
 43
0.0
 10
380.840973
 20
662.450684
 10
380.798645
 20
662.406738
 10
380.689209
 20
662.374756
 10
380.541016
 20
662.363098
  0
LINE
  5
1AD
330
173
100
AcDbEntity
  8
0
  6
Continuous
 62
     0
370
     0
100
AcDbLine
 10
377.691055
 20
662.810923
 30
0.0
 11
378.124284
 21
662.810923
 31
0.0
  0
LINE
  5
1AE
330
173
100
AcDbEntity
  8
0
  6
Continuous
 62
     0
370
    30
100
AcDbLine
 10
377.691055
 20
651.587903
 30
0.0
 11
378.574617
 21
651.587903
 31
0.0
  0
LINE
  5
1AF
330
173
100
AcDbEntity
  8
0
  6
Continuous
 62
     0
370
    30
100
AcDbLine
 10
377.691055
 20
683.587903
 30
0.0
 11
378.312552
 21
683.587903
 31
0.0
  0
LWPOLYLINE
  5
1B0
330
173
100
AcDbEntity
  8
0
  6
Continuous
 62
     0
370
    30
100
AcDbPolyline
 90
       48
 70
     0
 43
0.0
 10
380.840973
 20
662.448425
 10
380.832794
 20
662.003418
 10
380.824646
 20
661.562439
 10
380.816467
 20
661.125732
 10
380.808319
 20
660.693787
 10
380.800201
 20
660.266907
 10
380.792114
 20
659.84552
 10
380.784058
 20
659.429932
 10
380.776062
 20
659.020386
 10
380.768097
 20
658.617249
 10
380.760193
 20
658.220703
 10
380.75235
 20
657.831116
 10
380.744568
 20
657.448792
 10
380.736847
 20
657.073975
 10
380.729218
 20
656.706909
 10
380.72168
 20
656.347961
 10
380.714203
 20
655.997314
 10
380.706848
 20
655.655273
 10
380.699585
 20
655.322083
 10
380.692413
 20
654.997986
 10
380.685364
 20
654.683228
 10
380.678436
 20
654.378052
 10
380.6716
 20
654.082642
 10
380.664917
 20
653.79718
 10
380.658356
 20
653.521912
 10
380.651917
 20
653.25708
 10
380.64563
 20
653.002869
 10
380.639496
 20
652.75946
 10
380.633514
 20
652.5271
 10
380.627655
 20
652.305847
 10
380.621979
 20
652.095947
 10
380.616455
 20
651.897461
 10
380.611115
 20
651.710632
 10
380.605927
 20
651.535522
 10
380.600891
 20
651.372253
 10
380.596069
 20
651.220886
 10
380.5914
 20
651.081665
 10
380.586945
 20
650.95459
 10
380.582642
 20
650.839722
 10
380.578522
 20
650.737122
 10
380.574585
 20
650.646667
 10
380.570831
 20
650.56842
 10
380.56723
 20
650.502014
 10
380.563721
 20
650.447021
 10
380.560089
 20
650.401978
 10
380.555664
 20
650.361755
 10
380.538025
 20
650.288086
 10
380.254486
 20
650.087952
  0
LWPOLYLINE
  5
1B1
330
173
100
AcDbEntity
  8
0
  6
Continuous
 62
     0
370
    30
100
AcDbPolyline
 90
       48
 70
     0
 43
0.0
 10
378.341064
 20
662.452148
 10
378.349243
 20
662.00708
 10
378.357391
 20
661.565918
 10
378.36557
 20
661.129089
 10
378.373718
 20
660.697021
 10
378.381836
 20
660.270081
 10
378.389923
 20
659.848572
 10
378.39798
 20
659.432861
 10
378.405975
 20
659.023193
 10
378.41394
 20
658.619873
 10
378.421844
 20
658.223206
 10
378.429718
 20
657.833496
 10
378.4375
 20
657.45105
 10
378.44519
 20
657.07605
 10
378.45285
 20
656.708923
 10
378.460388
 20
656.349792
 10
378.467865
 20
655.999023
 10
378.47522
 20
655.65686
 10
378.482483
 20
655.323547
 10
378.489655
 20
654.99939
 10
378.496704
 20
654.684509
 10
378.503662
 20
654.379211
 10
378.510468
 20
654.083679
 10
378.517151
 20
653.798157
 10
378.523743
 20
653.522827
 10
378.530151
 20
653.257874
 10
378.536438
 20
653.003601
 10
378.542603
 20
652.760071
 10
378.548584
 20
652.527649
 10
378.554443
 20
652.306335
 10
378.56012
 20
652.096375
 10
378.565643
 20
651.897827
 10
378.570984
 20
651.710938
 10
378.576172
 20
651.535767
 10
378.581207
 20
651.372437
 10
378.586029
 20
651.221069
 10
378.590698
 20
651.081787
 10
378.595184
 20
650.954712
 10
378.599457
 20
650.839844
 10
378.603577
 20
650.737183
 10
378.607513
 20
650.646729
 10
378.611267
 20
650.56842
 10
378.614899
 20
650.502014
 10
378.618408
 20
650.447021
 10
378.622009
 20
650.401978
 10
378.626465
 20
650.361755
 10
378.644165
 20
650.287903
 10
378.927643
 20
650.088013
  0
LWPOLYLINE
  5
1B2
330
173
100
AcDbEntity
  8
0
  6
Continuous
 62
     0
370
    30
100
AcDbPolyline
 90
       76
 70
     0
 43
0.0
 10
380.689209
 20
680.321716
 10
380.686615
 20
680.43689
 10
380.684052
 20
680.55072
 10
380.681488
 20
680.66333
 10
380.678955
 20
680.774597
 10
380.676422
 20
680.884583
 10
380.67392
 20
680.993225
 10
380.671448
 20
681.100525
 10
380.668976
 20
681.206482
 10
380.666504
 20
681.311035
 10
380.664062
 20
681.414307
 10
380.661652
 20
681.516113
 10
380.659241
 20
681.616577
 10
380.65686
 20
681.715637
 10
380.65451
 20
681.813293
 10
380.652161
 20
681.909485
 10
380.649811
 20
682.004272
 10
380.647522
 20
682.097656
 10
380.645233
 20
682.189514
 10
380.642944
 20
682.279968
 10
380.640717
 20
682.368896
 10
380.638489
 20
682.45636
 10
380.636261
 20
682.542358
 10
380.634064
 20
682.626831
 10
380.631897
 20
682.709839
 10
380.629761
 20
682.79126
 10
380.627625
 20
682.871216
 10
380.625519
 20
682.949646
 10
380.623444
 20
683.02655
 10
380.621368
 20
683.101868
 10
380.619324
 20
683.175659
 10
380.61731
 20
683.247925
 10
380.615326
 20
683.318604
 10
380.613342
 20
683.387695
 10
380.611389
 20
683.4552
 10
380.609467
 20
683.521179
 10
380.607574
 20
683.58551
 10
380.605682
 20
683.648254
 10
380.603821
 20
683.709412
 10
380.60199
 20
683.768982
 10
380.600159
 20
683.826965
 10
380.598389
 20
683.88324
 10
380.596619
 20
683.937988
 10
380.594879
 20
683.991028
 10
380.59317
 20
684.04248
 10
380.591461
 20
684.092285
 10
380.589813
 20
684.140503
 10
380.588165
 20
684.187012
 10
380.586548
 20
684.231873
 10
380.584961
 20
684.275085
 10
380.583374
 20
684.31665
 10
380.581848
 20
684.356567
 10
380.580322
 20
684.394836
 10
380.578827
 20
684.431458
 10
380.577362
 20
684.466431
 10
380.575897
 20
684.499756
 10
380.574493
 20
684.531433
 10
380.57309
 20
684.561462
 10
380.571716
 20
684.589905
 10
380.570343
 20
684.616699
 10
380.569
 20
684.641846
 10
380.567688
 20
684.665466
 10
380.566406
 20
684.6875
 10
380.565094
 20
684.708069
 10
380.563812
 20
684.727112
 10
380.562531
 20
684.744751
 10
380.561218
 20
684.76123
 10
380.559845
 20
684.776672
 10
380.55838
 20
684.79126
 10
380.556763
 20
684.805725
 10
380.554443
 20
684.821838
 10
380.550751
 20
684.842041
 10
380.54245
 20
684.874695
 10
380.510986
 20
684.94397
 10
380.41153
 20
685.043396
 10
380.254486
 20
685.087769
  0
LWPOLYLINE
  5
1B3
330
173
100
AcDbEntity
  8
0
  6
Continuous
 62
     0
370
    30
100
AcDbPolyline
 90
       39
 70
     0
 43
0.0
 10
378.57959
 20
683.751892
 10
378.581329
 20
683.807678
 10
378.583038
 20
683.862
 10
378.584747
 20
683.914917
 10
378.586426
 20
683.966309
 10
378.588074
 20
684.016174
 10
378.589691
 20
684.064575
 10
378.591309
 20
684.111511
 10
378.592865
 20
684.156921
 10
378.594452
 20
684.200806
 10
378.595978
 20
684.243225
 10
378.597504
 20
684.284119
 10
378.598999
 20
684.323547
 10
378.600464
 20
684.36145
 10
378.601898
 20
684.397827
 10
378.603333
 20
684.432678
 10
378.604736
 20
684.466064
 10
378.60611
 20
684.497925
 10
378.607483
 20
684.52832
 10
378.608826
 20
684.55719
 10
378.610138
 20
684.584595
 10
378.61145
 20
684.610535
 10
378.612732
 20
684.634949
 10
378.613983
 20
684.657959
 10
378.615234
 20
684.679504
 10
378.616455
 20
684.699707
 10
378.617676
 20
684.718506
 10
378.618896
 20
684.735962
 10
378.620148
 20
684.752319
 10
378.621429
 20
684.767578
 10
378.622772
 20
684.781982
 10
378.624176
 20
684.795776
 10
378.625885
 20
684.809814
 10
378.628326
 20
684.825806
 10
378.632263
 20
684.846497
 10
378.641754
 20
684.881104
 10
378.676514
 20
684.952454
 10
378.776154
 20
685.046753
 10
378.927643
 20
685.08783
  0
LWPOLYLINE
  5
1B4
330
173
100
AcDbEntity
  8
0
  6
Continuous
 62
     0
370
    30
100
AcDbPolyline
 90
        8
 70
     0
 43
0.0
 10
378.605865
 20
683.832214
 10
378.605591
 20
683.830383
 10
378.60434
 20
683.823242
 10
378.600464
 20
683.806641
 10
378.587738
 20
683.769531
 10
378.544098
 20
683.697571
 10
378.451813
 20
683.622253
 10
378.312561
 20
683.58783
  0
LINE
  5
1B5
330
173
100
AcDbEntity
  8
0
  6
Continuous
 62
     0
370
    30
100
AcDbLine
 10
378.927631
 20
685.087903
 30
0.0
 11
380.254475
 21
685.087903
 31
0.0
  0
LINE
  5
1B6
330
173
100
AcDbEntity
  8
0
  6
Continuous
 62
     0
370
    30
100
AcDbLine
 10
378.927631
 20
650.087903
 30
0.0
 11
380.254475
 21
650.087903
 31
0.0
  0
LWPOLYLINE
  5
1B7
330
173
100
AcDbEntity
  8
0
  6
Continuous
 62
     0
370
     0
100
AcDbPolyline
 90
        5
 70
     0
 43
0.0
 10
378.640991
 20
526.968018
 10
378.648712
 20
526.817749
 10
378.656403
 20
526.705261
 10
378.664093
 20
526.630859
 10
378.67511
 20
526.590759
  0
LWPOLYLINE
  5
1B8
330
173
100
AcDbEntity
  8
0
  6
Continuous
 62
     0
370
     0
100
AcDbPolyline
 90
        5
 70
     0
 43
0.0
 10
380.506866
 20
526.590759
 10
380.514465
 20
526.610046
 10
380.522156
 20
526.667542
 10
380.529846
 20
526.763123
 10
380.540955
 20
526.968018
  0
LINE
  5
1B9
330
173
100
AcDbEntity
  8
0
  6
Continuous
 62
     0
370
     0
100
AcDbLine
 10
380.540969
 20
526.968029
 30
0.0
 11
378.640992
 21
526.968029
 31
0.0
  0
LWPOLYLINE
  5
1BA
330
173
100
AcDbEntity
  8
0
  6
Continuous
 62
     0
370
     0
100
AcDbPolyline
 90
       27
 70
     0
 43
0.0
 10
380.660309
 20
551.497925
 10
380.660645
 20
552.716858
 10
380.661621
 20
553.917114
 10
380.663269
 20
555.09436
 10
380.665558
 20
556.244263
 10
380.668488
 20
557.362732
 10
380.672028
 20
558.445557
 10
380.676178
 20
559.488831
 10
380.680969
 20
560.488831
 10
380.68631
 20
561.441895
 10
380.69223
 20
562.344482
 10
380.698669
 20
563.193359
 10
380.705658
 20
563.985474
 10
380.713104
 20
564.717834
 10
380.721039
 20
565.387878
 10
380.729401
 20
565.993103
 10
380.73819
 20
566.531311
 10
380.747345
 20
567.00061
 10
380.756805
 20
567.39917
 10
380.766602
 20
567.725647
 10
380.776672
 20
567.978821
 10
380.786987
 20
568.157776
 10
380.797485
 20
568.26178
 10
380.808136
 20
568.290588
 10
380.818909
 20
568.244019
 10
380.829742
 20
568.122253
 10
380.840973
 20
567.918579
  0
LWPOLYLINE
  5
1BB
330
173
100
AcDbEntity
  8
0
  6
Continuous
 62
     0
370
     0
100
AcDbPolyline
 90
       26
 70
     0
 43
0.0
 10
380.840973
 20
527.262634
 10
380.829651
 20
527.547852
 10
380.818329
 20
527.912231
 10
380.807129
 20
528.354187
 10
380.796051
 20
528.87207
 10
380.785156
 20
529.463806
 10
380.774475
 20
530.127136
 10
380.764069
 20
530.859314
 10
380.753967
 20
531.657532
 10
380.744202
 20
532.518616
 10
380.734802
 20
533.439209
 10
380.72583
 20
534.415649
 10
380.717316
 20
535.444031
 10
380.70929
 20
536.520386
 10
380.701782
 20
537.640381
 10
380.694824
 20
538.799683
 10
380.688446
 20
539.993652
 10
380.682678
 20
541.21759
 10
380.677521
 20
542.466736
 10
380.673004
 20
543.736084
 10
380.669159
 20
545.02063
 10
380.665985
 20
546.315308
 10
380.663513
 20
547.61499
 10
380.661743
 20
548.914612
 10
380.660675
 20
550.209045
 10
380.660309
 20
551.497925
  0
LWPOLYLINE
  5
1BC
330
173
100
AcDbEntity
  8
0
  6
Continuous
 62
     0
370
     0
100
AcDbPolyline
 90
       26
 70
     0
 43
0.0
 10
380.674744
 20
551.185974
 10
380.675018
 20
550.111938
 10
380.675842
 20
549.005493
 10
380.677277
 20
547.871155
 10
380.679352
 20
546.714111
 10
380.682037
 20
545.540283
 10
380.685425
 20
544.35614
 10
380.689453
 20
543.168823
 10
380.694183
 20
541.985718
 10
380.699554
 20
540.814758
 10
380.705566
 20
539.663818
 10
380.712219
 20
538.540833
 10
380.719452
 20
537.453552
 10
380.727203
 20
536.409424
 10
380.735474
 20
535.415222
 10
380.744171
 20
534.477112
 10
380.753204
 20
533.600464
 10
380.762573
 20
532.789734
 10
380.772186
 20
532.048462
 10
380.781952
 20
531.379028
 10
380.791809
 20
530.78302
 10
380.801727
 20
530.260864
 10
380.811615
 20
529.812256
 10
380.821411
 20
529.435852
 10
380.831116
 20
529.1297
 10
380.840973
 20
528.882996
  0
LWPOLYLINE
  5
1BD
330
173
100
AcDbEntity
  8
0
  6
Continuous
 62
     0
370
     0
100
AcDbPolyline
 90
       27
 70
     0
 43
0.0
 10
380.840973
 20
566.298279
 10
380.831848
 20
566.467407
 10
380.822571
 20
566.581421
 10
380.813141
 20
566.636169
 10
380.80365
 20
566.627869
 10
380.794128
 20
566.553162
 10
380.784607
 20
566.409119
 10
380.775177
 20
566.193665
 10
380.7659
 20
565.905212
 10
380.756805
 20
565.543152
 10
380.747955
 20
565.107605
 10
380.739441
 20
564.59967
 10
380.731293
 20
564.021301
 10
380.723572
 20
563.375366
 10
380.716339
 20
562.665527
 10
380.709595
 20
561.896362
 10
380.70343
 20
561.072937
 10
380.697845
 20
560.20105
 10
380.692841
 20
559.286804
 10
380.688477
 20
558.336731
 10
380.684723
 20
557.357361
 10
380.68158
 20
556.355469
 10
380.679077
 20
555.337585
 10
380.677155
 20
554.310059
 10
380.675812
 20
553.278931
 10
380.675018
 20
552.249939
 10
380.674744
 20
551.185974
  0
LWPOLYLINE
  5
1BE
330
173
100
AcDbEntity
  8
0
  6
Continuous
 62
     0
370
     0
100
AcDbPolyline
 90
       27
 70
     0
 43
0.0
 10
380.540955
 20
526.968018
 10
380.53009
 20
527.244019
 10
380.519257
 20
527.594482
 10
380.508453
 20
528.018066
 10
380.497803
 20
528.512939
 10
380.487305
 20
529.077026
 10
380.47699
 20
529.708313
 10
380.466919
 20
530.404419
 10
380.457123
 20
531.163269
 10
380.447632
 20
531.981995
 10
380.438477
 20
532.857483
 10
380.429688
 20
533.786499
 10
380.421326
 20
534.765869
 10
380.413361
 20
535.79187
 10
380.405884
 20
536.86084
 10
380.398895
 20
537.968811
 10
380.392426
 20
539.112
 10
380.386505
 20
540.286011
 10
380.381134
 20
541.486389
 10
380.376343
 20
542.70874
 10
380.372162
 20
543.948792
 10
380.368591
 20
545.202332
 10
380.365662
 20
546.46521
 10
380.363342
 20
547.733154
 10
380.361694
 20
549.00061
 10
380.360687
 20
550.261292
 10
380.360321
 20
551.554016
  0
LINE
  5
1BF
330
173
100
AcDbEntity
  8
0
  6
Continuous
 62
     0
370
     0
100
AcDbLine
 10
380.360322
 20
551.554035
 30
0.0
 11
378.821637
 21
551.554035
 31
0.0
  0
LWPOLYLINE
  5
1C0
330
173
100
AcDbEntity
  8
0
  6
Continuous
 62
     0
370
     0
100
AcDbPolyline
 90
       27
 70
     0
 43
0.0
 10
378.821625
 20
551.554016
 10
378.82132
 20
550.305542
 10
378.820312
 20
549.045227
 10
378.818695
 20
547.777893
 10
378.816406
 20
546.509888
 10
378.813477
 20
545.246765
 10
378.809937
 20
543.992798
 10
378.805756
 20
542.752197
 10
378.800995
 20
541.529114
 10
378.795654
 20
540.327881
 10
378.789734
 20
539.152893
 10
378.783295
 20
538.008606
 10
378.776306
 20
536.899231
 10
378.76886
 20
535.828918
 10
378.760925
 20
534.80127
 10
378.752563
 20
533.82019
 10
378.743805
 20
532.889343
 10
378.73465
 20
532.011902
 10
378.725159
 20
531.191101
 10
378.715393
 20
530.430115
 10
378.705322
 20
529.73175
 10
378.695038
 20
529.098206
 10
378.68454
 20
528.531616
 10
378.673889
 20
528.034302
 10
378.663086
 20
527.608154
 10
378.652252
 20
527.255127
 10
378.640991
 20
526.968018
  0
LWPOLYLINE
  5
1C1
330
173
100
AcDbEntity
  8
0
  6
Continuous
 62
     0
370
     0
100
AcDbPolyline
 90
       24
 70
     0
 43
0.0
 10
378.675079
 20
568.590515
 10
378.685669
 20
568.552917
 10
378.696075
 20
568.439758
 10
378.706268
 20
568.251709
 10
378.716248
 20
567.989502
 10
378.725952
 20
567.653809
 10
378.735352
 20
567.245911
 10
378.744415
 20
566.767578
 10
378.753113
 20
566.220276
 10
378.761414
 20
565.605896
 10
378.769257
 20
564.926758
 10
378.776642
 20
564.185364
 10
378.783539
 20
563.384216
 10
378.789948
 20
562.526123
 10
378.795807
 20
561.614441
 10
378.801117
 20
560.652527
 10
378.805817
 20
559.64386
 10
378.809967
 20
558.591919
 10
378.813477
 20
557.500183
 10
378.816406
 20
556.372192
 10
378.818665
 20
555.211731
 10
378.820312
 20
554.023804
 10
378.821289
 20
552.814392
 10
378.821625
 20
551.554016
  0
LWPOLYLINE
  5
1C2
330
173
100
AcDbEntity
  8
0
  6
Continuous
 62
     0
370
     0
100
AcDbPolyline
 90
       24
 70
     0
 43
0.0
 10
380.360321
 20
551.554016
 10
380.360657
 20
552.780701
 10
380.361633
 20
553.990662
 10
380.363251
 20
555.179199
 10
380.365509
 20
556.340576
 10
380.368378
 20
557.469482
 10
380.371887
 20
558.562256
 10
380.376007
 20
559.615356
 10
380.380707
 20
560.625305
 10
380.386017
 20
561.588501
 10
380.391846
 20
562.501648
 10
380.398224
 20
563.361267
 10
380.405121
 20
564.164001
 10
380.412506
 20
564.907104
 10
380.420349
 20
565.588013
 10
380.428619
 20
566.204224
 10
380.437286
 20
566.753357
 10
380.44635
 20
567.233643
 10
380.45575
 20
567.643494
 10
380.465424
 20
567.981201
 10
380.475403
 20
568.245483
 10
380.485596
 20
568.435547
 10
380.496002
 20
568.550781
 10
380.506897
 20
568.590515
  0
LWPOLYLINE
  5
1C3
330
173
100
AcDbEntity
  8
0
  6
Continuous
 62
     0
370
     0
100
AcDbPolyline
 90
       25
 70
     0
 43
0.0
 10
378.51593
 20
551.374268
 10
378.515594
 20
552.5755
 10
378.514618
 20
553.757935
 10
378.51297
 20
554.917175
 10
378.510681
 20
556.048706
 10
378.507751
 20
557.148438
 10
378.504181
 20
558.212097
 10
378.5
 20
559.235657
 10
378.495239
 20
560.215393
 10
378.489868
 20
561.147522
 10
378.483948
 20
562.028503
 10
378.477509
 20
562.855042
 10
378.47052
 20
563.624084
 10
378.463074
 20
564.332642
 10
378.455139
 20
564.978088
 10
378.446808
 20
565.557983
 10
378.438049
 20
566.070129
 10
378.428925
 20
566.512634
 10
378.419495
 20
566.883789
 10
378.409729
 20
567.18219
 10
378.39975
 20
567.406738
 10
378.389526
 20
567.55658
 10
378.379089
 20
567.631165
 10
378.368561
 20
567.630188
 10
378.357574
 20
567.550354
  0
LWPOLYLINE
  5
1C4
330
173
100
AcDbEntity
  8
0
  6
Continuous
 62
     0
370
     0
100
AcDbPolyline
 90
       26
 70
     0
 43
0.0
 10
378.340973
 20
527.90094
 10
378.351959
 20
528.177307
 10
378.362885
 20
528.53009
 10
378.373749
 20
528.958008
 10
378.38446
 20
529.45929
 10
378.394989
 20
530.031982
 10
378.405334
 20
530.673828
 10
378.415405
 20
531.382385
 10
378.425201
 20
532.154724
 10
378.434662
 20
532.987915
 10
378.443756
 20
533.878601
 10
378.452423
 20
534.823303
 10
378.460663
 20
535.818298
 10
378.468445
 20
536.85968
 10
378.475708
 20
537.943298
 10
378.482452
 20
539.064941
 10
378.488617
 20
540.220154
 10
378.494202
 20
541.404419
 10
378.499207
 20
542.613098
 10
378.503571
 20
543.841309
 10
378.507324
 20
545.08429
 10
378.510376
 20
546.337158
 10
378.512787
 20
547.594971
 10
378.514526
 20
548.852783
 10
378.515564
 20
550.105591
 10
378.51593
 20
551.374268
  0
LINE
  5
1C5
330
173
100
AcDbEntity
  8
0
  6
Continuous
 62
     0
370
     0
100
AcDbLine
 10
378.34098
 20
527.262637
 30
0.0
 11
378.34098
 21
527.900956
 31
0.0
  0
LWPOLYLINE
  5
1C6
330
173
100
AcDbEntity
  8
0
  6
Continuous
 62
     0
370
     0
100
AcDbPolyline
 90
       26
 70
     0
 43
0.0
 10
378.521637
 20
551.497925
 10
378.521301
 20
550.213867
 10
378.520233
 20
548.919495
 10
378.518463
 20
547.619873
 10
378.515961
 20
546.32019
 10
378.512817
 20
545.025452
 10
378.508972
 20
543.740845
 10
378.504456
 20
542.471497
 10
378.499298
 20
541.22229
 10
378.49353
 20
539.99823
 10
378.487152
 20
538.804138
 10
378.480194
 20
537.644714
 10
378.472687
 20
536.524475
 10
378.464661
 20
535.447998
 10
378.456146
 20
534.419373
 10
378.447205
 20
533.44281
 10
378.437805
 20
532.521973
 10
378.42804
 20
531.660645
 10
378.417938
 20
530.862183
 10
378.407532
 20
530.129761
 10
378.396851
 20
529.466187
 10
378.385956
 20
528.874146
 10
378.374878
 20
528.356018
 10
378.363647
 20
527.913696
 10
378.352356
 20
527.549072
 10
378.340973
 20
527.262634
  0
LWPOLYLINE
  5
1C7
330
173
100
AcDbEntity
  8
0
  6
Continuous
 62
     0
370
     0
100
AcDbPolyline
 90
       27
 70
     0
 43
0.0
 10
378.340973
 20
567.918579
 10
378.351868
 20
568.117371
 10
378.362732
 20
568.241455
 10
378.373505
 20
568.290283
 10
378.384155
 20
568.263794
 10
378.394653
 20
568.161987
 10
378.404968
 20
567.985291
 10
378.415039
 20
567.734375
 10
378.424835
 20
567.410095
 10
378.434357
 20
567.013672
 10
378.443512
 20
566.546509
 10
378.452301
 20
566.010315
 10
378.460663
 20
565.407104
 10
378.468628
 20
564.739014
 10
378.476105
 20
564.008423
 10
378.483093
 20
563.21814
 10
378.489563
 20
562.370911
 10
378.495483
 20
561.469849
 10
378.500854
 20
560.518311
 10
378.505646
 20
559.519653
 10
378.509827
 20
558.4776
 10
378.513397
 20
557.395935
 10
378.516327
 20
556.278503
 10
378.518646
 20
555.129456
 10
378.520294
 20
553.953003
 10
378.521301
 20
552.753357
 10
378.521637
 20
551.497925
  0
LINE
  5
1C8
330
173
100
AcDbEntity
  8
0
  6
Continuous
 62
     0
370
     0
100
AcDbLine
 10
378.340981
 20
567.50667
 30
0.0
 11
378.340981
 21
567.918607
 31
0.0
  0
LWPOLYLINE
  5
1C9
330
173
100
AcDbEntity
  8
0
  6
Continuous
 62
     0
370
     0
100
AcDbPolyline
 90
       23
 70
     0
 43
0.0
 10
378.215942
 20
551.318115
 10
378.215607
 20
552.525574
 10
378.214569
 20
553.714905
 10
378.21286
 20
554.880615
 10
378.210449
 20
556.017212
 10
378.207397
 20
557.120361
 10
378.203705
 20
558.185852
 10
378.199341
 20
559.209717
 10
378.194366
 20
560.187988
 10
378.188782
 20
561.116821
 10
378.182617
 20
561.992371
 10
378.175903
 20
562.811218
 10
378.168671
 20
563.570251
 10
378.160919
 20
564.266418
 10
378.15271
 20
564.896912
 10
378.144043
 20
565.459473
 10
378.134979
 20
565.95166
 10
378.125519
 20
566.371582
 10
378.115753
 20
566.717712
 10
378.105713
 20
566.988586
 10
378.095398
 20
567.183105
 10
378.084869
 20
567.300659
 10
378.074005
 20
567.340637
  0
LWPOLYLINE
  5
1CA
330
173
100
AcDbEntity
  8
0
  6
Continuous
 62
     0
370
     0
100
AcDbPolyline
 90
        5
 70
     0
 43
0.0
 10
378.51593
 20
551.374268
 10
378.496979
 20
551.354919
 10
378.444153
 20
551.338013
 10
378.363892
 20
551.3255
 10
378.215942
 20
551.318115
  0
LWPOLYLINE
  5
1CB
330
173
100
AcDbEntity
  8
0
  6
Continuous
 62
     0
370
     0
100
AcDbPolyline
 90
       26
 70
     0
 43
0.0
 10
378.040955
 20
528.195557
 10
378.051941
 20
528.467407
 10
378.062866
 20
528.814758
 10
378.07373
 20
529.236084
 10
378.084442
 20
529.729675
 10
378.094971
 20
530.293518
 10
378.105316
 20
530.925415
 10
378.115387
 20
531.622986
 10
378.125183
 20
532.383484
 10
378.134644
 20
533.203796
 10
378.143707
 20
534.080811
 10
378.152405
 20
535.011108
 10
378.160645
 20
535.990784
 10
378.168427
 20
537.016235
 10
378.17569
 20
538.083313
 10
378.182434
 20
539.187805
 10
378.188599
 20
540.325439
 10
378.194214
 20
541.49176
 10
378.199188
 20
542.681946
 10
378.203583
 20
543.891418
 10
378.207306
 20
545.115417
 10
378.210388
 20
546.349243
 10
378.212799
 20
547.588318
 10
378.214539
 20
548.82782
 10
378.215576
 20
550.062012
 10
378.215942
 20
551.318115
  0
ARC
  5
1CC
330
173
100
AcDbEntity
  8
0
  6
Continuous
 62
     0
370
     0
100
AcDbCircle
 10
378.043661
 20
527.898245
 30
0.0
 40
0.2973315143394856
100
AcDbArc
 50
0.522422
 51
90.518809
  0
LWPOLYLINE
  5
1CD
330
173
100
AcDbEntity
  8
0
  6
Continuous
 62
     0
370
     0
100
AcDbPolyline
 90
        4
 70
     0
 43
0.0
 10
378.074005
 20
527.840637
 10
378.06308
 20
527.880005
 10
378.052094
 20
527.998047
 10
378.040955
 20
528.195557
  0
ARC
  5
1CE
330
173
100
AcDbEntity
  8
0
  6
Continuous
 62
     0
370
     0
100
AcDbCircle
 10
378.637952
 20
527.264994
 30
0.0
 40
0.2969808285664007
100
AcDbArc
 50
180.454661
 51
270.586498
  0
LINE
  5
1CF
330
173
100
AcDbEntity
  8
0
  6
Continuous
 62
     0
370
     0
100
AcDbLine
 10
378.340981
 20
567.918607
 30
0.0
 11
378.341287
 21
567.931736
 31
0.0
  0
LWPOLYLINE
  5
1D0
330
173
100
AcDbEntity
  8
0
  6
Continuous
 62
     0
370
     0
100
AcDbPolyline
 90
        5
 70
     0
 43
0.0
 10
378.521637
 20
551.497925
 10
378.540619
 20
551.517212
 10
378.593414
 20
551.53418
 10
378.673676
 20
551.546692
 10
378.821625
 20
551.554016
  0
LWPOLYLINE
  5
1D1
330
173
100
AcDbEntity
  8
0
  6
Continuous
 62
     0
370
     0
100
AcDbPolyline
 90
        5
 70
     0
 43
0.0
 10
380.660309
 20
551.497925
 10
380.641357
 20
551.517212
 10
380.588531
 20
551.53418
 10
380.50827
 20
551.546692
 10
380.360321
 20
551.554016
  0
LINE
  5
1D2
330
173
100
AcDbEntity
  8
0
  6
Continuous
 62
     0
370
     0
100
AcDbLine
 10
380.840675
 20
567.931741
 30
0.0
 11
380.840981
 21
567.918607
 31
0.0
  0
ARC
  5
1D3
330
173
100
AcDbEntity
  8
0
  6
Continuous
 62
     0
370
     0
100
AcDbCircle
 10
380.54367
 20
527.265339
 30
0.0
 40
0.2973227003545941
100
AcDbArc
 50
269.479492
 51
359.479344
  0
LINE
  5
1D4
330
173
100
AcDbEntity
  8
0
  6
Continuous
 62
     0
370
     0
100
AcDbLine
 10
377.84098
 20
551.318117
 30
0.0
 11
378.215942
 21
551.318117
 31
0.0
  0
LINE
  5
1D5
330
173
100
AcDbEntity
  8
0
  6
Continuous
 62
     0
370
     0
100
AcDbLine
 10
377.84098
 20
528.195564
 30
0.0
 11
378.040969
 21
528.195564
 31
0.0
  0
LINE
  5
1D6
330
173
100
AcDbEntity
  8
0
  6
Continuous
 62
     0
370
    30
100
AcDbLine
 10
377.840981
 20
527.840622
 30
0.0
 11
378.073992
 21
527.840622
 31
0.0
  0
LINE
  5
1D7
330
173
100
AcDbEntity
  8
0
  6
Continuous
 62
     0
370
    30
100
AcDbLine
 10
377.840981
 20
567.340622
 30
0.0
 11
378.073992
 21
567.340622
 31
0.0
  0
LWPOLYLINE
  5
1D8
330
173
100
AcDbEntity
  8
0
  6
Continuous
 62
     0
370
    30
100
AcDbPolyline
 90
       24
 70
     0
 43
0.0
 10
380.506866
 20
526.590637
 10
380.650635
 20
526.627197
 10
380.743896
 20
526.705505
 10
380.782654
 20
526.768555
 10
380.797424
 20
526.806824
 10
380.804657
 20
526.832825
 10
380.809052
 20
526.853088
 10
380.812256
 20
526.870789
 10
380.814819
 20
526.887512
 10
380.817017
 20
526.904236
 10
380.819031
 20
526.921326
 10
380.820892
 20
526.939209
 10
380.822693
 20
526.958008
 10
380.824432
 20
526.977844
 10
380.826141
 20
526.998962
 10
380.827789
 20
527.021301
 10
380.829437
 20
527.044922
 10
380.831085
 20
527.069946
 10
380.832703
 20
527.096313
 10
380.83432
 20
527.124084
 10
380.835907
 20
527.153198
 10
380.837494
 20
527.183777
 10
380.839081
 20
527.215759
 10
380.840668
 20
527.249512
  0
LWPOLYLINE
  5
1D9
330
173
100
AcDbEntity
  8
0
  6
Continuous
 62
     0
370
    30
100
AcDbPolyline
 90
       24
 70
     0
 43
0.0
 10
380.840668
 20
567.931763
 10
380.839111
 20
567.965149
 10
380.837524
 20
567.997131
 10
380.835938
 20
568.02771
 10
380.83432
 20
568.056824
 10
380.832733
 20
568.084534
 10
380.831116
 20
568.110901
 10
380.829468
 20
568.135864
 10
380.82782
 20
568.159546
 10
380.826172
 20
568.181824
 10
380.824463
 20
568.202942
 10
380.822723
 20
568.222839
 10
380.820953
 20
568.241638
 10
380.819092
 20
568.259399
 10
380.817078
 20
568.276489
 10
380.81488
 20
568.293213
 10
380.812347
 20
568.309937
 10
380.809143
 20
568.327637
 10
380.804932
 20
568.347656
 10
380.797913
 20
568.373291
 10
380.783325
 20
568.411011
 10
380.746155
 20
568.4729
 10
380.655365
 20
568.551514
 10
380.506866
 20
568.590637
  0
LWPOLYLINE
  5
1DA
330
173
100
AcDbEntity
  8
0
  6
Continuous
 62
     0
370
    30
100
AcDbPolyline
 90
       24
 70
     0
 43
0.0
 10
378.67511
 20
568.590637
 10
378.531555
 20
568.55426
 10
378.438232
 20
568.475952
 10
378.399506
 20
568.413025
 10
378.384552
 20
568.374573
 10
378.377411
 20
568.348694
 10
378.372864
 20
568.328308
 10
378.369751
 20
568.310669
 10
378.367218
 20
568.293945
 10
378.36496
 20
568.277283
 10
378.362915
 20
568.260071
 10
378.361023
 20
568.242126
 10
378.359222
 20
568.223389
 10
378.357513
 20
568.203613
 10
378.355835
 20
568.182739
 10
378.354218
 20
568.160583
 10
378.35257
 20
568.137024
 10
378.350952
 20
568.112122
 10
378.349335
 20
568.085876
 10
378.347717
 20
568.058167
 10
378.34613
 20
568.029114
 10
378.344543
 20
567.998596
 10
378.342926
 20
567.966675
 10
378.341278
 20
567.931763
  0
LWPOLYLINE
  5
1DB
330
173
100
AcDbEntity
  8
0
  6
Continuous
 62
     0
370
    30
100
AcDbPolyline
 90
       24
 70
     0
 43
0.0
 10
378.341278
 20
527.249512
 10
378.342865
 20
527.216064
 10
378.344421
 20
527.184143
 10
378.345947
 20
527.153625
 10
378.347504
 20
527.124573
 10
378.349091
 20
527.096924
 10
378.350677
 20
527.070618
 10
378.352295
 20
527.045654
 10
378.353973
 20
527.021912
 10
378.355682
 20
526.999451
 10
378.357452
 20
526.978149
 10
378.359314
 20
526.958069
 10
378.361206
 20
526.939087
 10
378.363129
 20
526.921204
 10
378.365021
 20
526.904236
 10
378.366882
 20
526.888184
 10
378.36911
 20
526.871948
 10
378.372314
 20
526.854126
 10
378.377167
 20
526.83313
 10
378.384552
 20
526.807068
 10
378.398926
 20
526.769165
 10
378.437347
 20
526.706421
 10
378.529755
 20
526.627991
 10
378.67511
 20
526.590637
  0
LWPOLYLINE
  5
1DC
330
173
100
AcDbEntity
  8
0
  6
Continuous
 62
     0
370
    30
100
AcDbPolyline
 90
        4
 70
     0
 43
0.0
 10
378.073975
 20
527.840637
 10
378.206512
 20
527.809509
 10
378.298065
 20
527.739136
 10
378.340973
 20
527.6745
  0
LWPOLYLINE
  5
1DD
330
173
100
AcDbEntity
  8
0
  6
Continuous
 62
     0
370
    30
100
AcDbPolyline
 90
        8
 70
     0
 43
0.0
 10
378.360992
 20
567.564575
 10
378.360565
 20
567.5625
 10
378.358856
 20
567.554993
 10
378.354034
 20
567.538757
 10
378.341461
 20
567.507629
 10
378.305084
 20
567.450378
 10
378.219391
 20
567.378418
 10
378.074005
 20
567.340637
  0
LINE
  5
1DE
330
173
100
AcDbEntity
  8
0
  6
Continuous
 62
     0
370
    30
100
AcDbLine
 10
378.675086
 20
568.590622
 30
0.0
 11
380.506875
 21
568.590622
 31
0.0
  0
LINE
  5
1DF
330
173
100
AcDbEntity
  8
0
  6
Continuous
 62
     0
370
    30
100
AcDbLine
 10
378.675086
 20
526.590622
 30
0.0
 11
380.506875
 21
526.590622
 31
0.0
  0
ENDBLK
  5
1E1
330
173
100
AcDbEntity
  8
0
100
AcDbBlockEnd
  0
ENDSEC
  0
SECTION
  2
ENTITIES
  0
INSERT
  5
A6
330
1F
100
AcDbEntity
  8
0
  6
Continuous
 62
     7
420
 16250871
370
     0
100
AcDbBlockReference
  2
a
 10
447.031891
 20
156.071075
 30
0.0
  0
INSERT
  5
10C
330
1F
100
AcDbEntity
  8
0
  6
Continuous
 62
     7
420
 16250871
370
     0
100
AcDbBlockReference
  2
b
 10
447.031952
 20
321.127563
 30
0.0
  0
INSERT
  5
172
330
1F
100
AcDbEntity
  8
0
  6
Continuous
 62
     7
420
 16250871
370
     0
100
AcDbBlockReference
  2
c
 10
447.031891
 20
156.071075
 30
0.0
  0
INSERT
  5
1E2
330
1F
100
AcDbEntity
  8
0
  6
Continuous
 62
     7
420
 16250871
370
     0
100
AcDbBlockReference
  2
d
 10
427.592224
 20
0.0
 30
0.0
  0
ENDSEC
  0
SECTION
  2
OBJECTS
  0
DICTIONARY
  5
C
330
0
100
AcDbDictionary
281
     1
  3
ACAD_DETAILVIEWSTYLE
350
21A
  3
ACAD_GROUP
350
D
  3
ACAD_LAYOUT
350
1A
  3
ACAD_MATERIAL
350
43
  3
ACAD_MLEADERSTYLE
350
6B
  3
ACAD_MLINESTYLE
350
17
  3
ACAD_PLOTSETTINGS
350
19
  3
ACAD_PLOTSTYLENAME
350
E
  3
ACAD_SCALELIST
350
47
  3
ACAD_SECTIONVIEWSTYLE
350
21B
  3
ACAD_TABLESTYLE
350
69
  3
ACAD_VISUALSTYLE
350
2A
  3
ACDB_RECOMPOSE_DATA
350
217
  3
AcDbVariableDictionary
350
1E3
  0
SUN
  5
6D
330
29
100
AcDbSun
 90
        1
290
     0
 63
     7
421
 16777215
 40
1.0
291
     1
 91
  2455826
 92
 54000000
292
     0
 70
     2
 71
   256
280
     1
  0
DICTIONARY
  5
21A
102
{ACAD_REACTORS
330
C
102
}
330
C
100
AcDbDictionary
281
     1
  0
DICTIONARY
  5
D
102
{ACAD_REACTORS
330
C
102
}
330
C
100
AcDbDictionary
281
     1
  0
DICTIONARY
  5
1A
102
{ACAD_REACTORS
330
C
102
}
330
C
100
AcDbDictionary
281
     1
  3
Layout1
350
1E
  3
Layout2
350
26
  3
Model
350
22
  0
DICTIONARY
  5
43
102
{ACAD_REACTORS
330
C
102
}
330
C
100
AcDbDictionary
281
     1
  3
ByBlock
350
45
  3
ByLayer
350
44
  3
Global
350
46
  0
DICTIONARY
  5
6B
102
{ACAD_REACTORS
330
C
102
}
330
C
100
AcDbDictionary
281
     1
  3
Standard
350
6C
  0
DICTIONARY
  5
17
102
{ACAD_REACTORS
330
C
102
}
330
C
100
AcDbDictionary
281
     1
  3
Standard
350
18
  0
DICTIONARY
  5
19
102
{ACAD_REACTORS
330
C
102
}
330
C
100
AcDbDictionary
281
     1
  0
ACDBDICTIONARYWDFLT
  5
E
102
{ACAD_REACTORS
330
C
102
}
330
C
100
AcDbDictionary
281
     1
  3
Normal
350
F
100
AcDbDictionaryWithDefault
340
F
  0
DICTIONARY
  5
47
102
{ACAD_REACTORS
330
C
102
}
330
C
100
AcDbDictionary
281
     1
  3
A0
350
48
  3
A1
350
49
  3
A2
350
4A
  3
A3
350
4B
  3
A4
350
4C
  3
A5
350
4D
  3
A6
350
4E
  3
A7
350
4F
  3
A8
350
50
  3
A9
350
51
  3
B0
350
52
  3
B1
350
53
  3
B2
350
54
  3
B3
350
55
  3
B4
350
56
  3
B5
350
57
  3
B6
350
58
  3
B7
350
59
  3
B8
350
5A
  3
B9
350
5B
  3
C0
350
5C
  3
C1
350
5D
  3
C2
350
5E
  3
C3
350
5F
  3
C4
350
60
  3
C5
350
61
  3
C6
350
62
  3
C7
350
63
  3
C8
350
64
  3
C9
350
65
  3
D0
350
66
  3
D1
350
67
  3
D2
350
68
  0
DICTIONARY
  5
21B
102
{ACAD_REACTORS
330
C
102
}
330
C
100
AcDbDictionary
281
     1
  0
DICTIONARY
  5
69
102
{ACAD_REACTORS
330
C
102
}
330
C
100
AcDbDictionary
281
     1
  3
Standard
350
6A
  0
DICTIONARY
  5
2A
102
{ACAD_REACTORS
330
C
102
}
330
C
100
AcDbDictionary
281
     1
  3
2dWireframe
350
2F
  3
Basic
350
32
  3
Brighten
350
36
  3
ColorChange
350
3A
  3
Conceptual
350
34
  3
Dim
350
35
  3
EdgeColorOff
350
3D
  3
Facepattern
350
39
  3
Flat
350
2B
  3
FlatWithEdges
350
2C
  3
Gouraud
350
2D
  3
GouraudWithEdges
350
2E
  3
Hidden
350
31
  3
JitterOff
350
3B
  3
Linepattern
350
38
  3
OverhangOff
350
3C
  3
Realistic
350
33
  3
Shaded
350
42
  3
Shaded with edges
350
41
  3
Shades of Gray
350
3E
  3
Sketchy
350
3F
  3
Thicken
350
37
  3
Wireframe
350
30
  3
X-Ray
350
40
  0
XRECORD
  5
217
102
{ACAD_REACTORS
330
C
102
}
330
C
100
AcDbXrecord
280
     1
 90
        1
330
6A
  0
DICTIONARY
  5
1E3
102
{ACAD_REACTORS
330
C
102
}
330
C
100
AcDbDictionary
281
     1
  3
CANNOSCALE
350
1E4
  3
CMLEADERSTYLE
350
219
  3
CTABLESTYLE
350
218
  0
LAYOUT
  5
1E
102
{ACAD_REACTORS
330
1A
102
}
330
1A
100
AcDbPlotSettings
  1

  2
none_device
  4

  6

 40
0.0
 41
0.0
 42
0.0
 43
0.0
 44
0.0
 45
0.0
 46
0.0
 47
0.0
 48
0.0
 49
0.0
140
0.0
141
0.0
142
1.0
143
1.0
 70
   688
 72
     1
 73
     0
 74
     5
  7

 75
    16
 76
     0
 77
     2
 78
   300
147
1.0
148
0.0
149
0.0
100
AcDbLayout
  1
Layout1
 70
     1
 71
     1
 10
0.0
 20
0.0
 11
420.0
 21
297.0
 12
0.0
 22
0.0
 32
0.0
 14
1.000000E+20
 24
1.000000E+20
 34
1.000000E+20
 15
-1.000000E+20
 25
-1.000000E+20
 35
-1.000000E+20
146
0.0
 13
0.0
 23
0.0
 33
0.0
 16
1.0
 26
0.0
 36
0.0
 17
0.0
 27
1.0
 37
0.0
 76
     0
330
1B
  0
LAYOUT
  5
26
102
{ACAD_REACTORS
330
1A
102
}
330
1A
100
AcDbPlotSettings
  1

  2
none_device
  4

  6

 40
0.0
 41
0.0
 42
0.0
 43
0.0
 44
0.0
 45
0.0
 46
0.0
 47
0.0
 48
0.0
 49
0.0
140
0.0
141
0.0
142
1.0
143
1.0
 70
   688
 72
     1
 73
     0
 74
     5
  7

 75
    16
 76
     0
 77
     2
 78
   300
147
1.0
148
0.0
149
0.0
100
AcDbLayout
  1
Layout2
 70
     1
 71
     2
 10
0.0
 20
0.0
 11
0.0
 21
0.0
 12
0.0
 22
0.0
 32
0.0
 14
0.0
 24
0.0
 34
0.0
 15
0.0
 25
0.0
 35
0.0
146
0.0
 13
0.0
 23
0.0
 33
0.0
 16
1.0
 26
0.0
 36
0.0
 17
0.0
 27
1.0
 37
0.0
 76
     0
330
23
  0
LAYOUT
  5
22
102
{ACAD_REACTORS
330
1A
102
}
330
1A
100
AcDbPlotSettings
  1

  2
none_device
  4
Letter_(8.50_x_11.00_Inches)
  6

 40
6.35
 41
6.35
 42
6.350005
 43
6.350005
 44
215.9
 45
279.4
 46
0.0
 47
0.0
 48
0.0
 49
0.0
140
0.0
141
0.0
142
1.0
143
1.0
 70
  1712
 72
     1
 73
     0
 74
     0
  7

 75
     0
 76
     0
 77
     2
 78
   300
147
1.0
148
0.0
149
0.0
100
AcDbLayout
  1
Model
 70
     1
 71
     0
 10
0.0
 20
0.0
 11
420.0
 21
297.0
 12
0.0
 22
0.0
 32
0.0
 14
1.000000E+20
 24
1.000000E+20
 34
1.000000E+20
 15
-1.000000E+20
 25
-1.000000E+20
 35
-1.000000E+20
146
0.0
 13
0.0
 23
0.0
 33
0.0
 16
1.0
 26
0.0
 36
0.0
 17
0.0
 27
1.0
 37
0.0
 76
     0
330
1F
331
29
  0
MATERIAL
  5
45
102
{ACAD_REACTORS
330
43
102
}
330
43
100
AcDbMaterial
  1
ByBlock
 72
     1
 94
      127
  0
MATERIAL
  5
44
102
{ACAD_REACTORS
330
43
102
}
330
43
100
AcDbMaterial
  1
ByLayer
 72
     1
 94
      127
  0
MATERIAL
  5
46
102
{ACAD_REACTORS
330
43
102
}
330
43
100
AcDbMaterial
  1
Global
 72
     1
 94
      127
  0
MLEADERSTYLE
  5
6C
102
{ACAD_REACTORS
330
6B
102
}
330
6B
100
AcDbMLeaderStyle
179
     2
170
     2
171
     1
172
     0
 90
        2
 40
0.0
 41
0.0
173
     1
 91
-1056964608
340
14
 92
       -2
290
     1
 42
2.0
291
     1
 43
8.0
  3
Standard
341
0
 44
4.0
300

342
11
174
     1
178
     6
175
     1
176
     0
 93
-1056964608
 45
4.0
292
     0
297
     0
 46
4.0
343
0
 94
-1056964608
 47
1.0
 49
1.0
140
1.0
293
     1
141
0.0
294
     1
177
     0
142
1.0
295
     0
296
     0
143
3.75
271
     0
272
     9
273
     9
  0
MLINESTYLE
  5
18
102
{ACAD_REACTORS
330
17
102
}
330
17
100
AcDbMlineStyle
  2
Standard
 70
     0
  3

 62
   256
 51
90.0
 52
90.0
 71
     2
 49
0.5
 62
   256
  6
BYLAYER
 49
-0.5
 62
   256
  6
BYLAYER
  0
ACDBPLACEHOLDER
  5
F
102
{ACAD_REACTORS
330
E
102
}
330
E
  0
SCALE
  5
48
102
{ACAD_REACTORS
330
47
102
}
330
47
100
AcDbScale
 70
     0
300
1:1
140
1.0
141
1.0
290
     1
  0
SCALE
  5
49
102
{ACAD_REACTORS
330
47
102
}
330
47
100
AcDbScale
 70
     0
300
1:2
140
1.0
141
2.0
290
     0
  0
SCALE
  5
4A
102
{ACAD_REACTORS
330
47
102
}
330
47
100
AcDbScale
 70
     0
300
1:4
140
1.0
141
4.0
290
     0
  0
SCALE
  5
4B
102
{ACAD_REACTORS
330
47
102
}
330
47
100
AcDbScale
 70
     0
300
1:5
140
1.0
141
5.0
290
     0
  0
SCALE
  5
4C
102
{ACAD_REACTORS
330
47
102
}
330
47
100
AcDbScale
 70
     0
300
1:8
140
1.0
141
8.0
290
     0
  0
SCALE
  5
4D
102
{ACAD_REACTORS
330
47
102
}
330
47
100
AcDbScale
 70
     0
300
1:10
140
1.0
141
10.0
290
     0
  0
SCALE
  5
4E
102
{ACAD_REACTORS
330
47
102
}
330
47
100
AcDbScale
 70
     0
300
1:16
140
1.0
141
16.0
290
     0
  0
SCALE
  5
4F
102
{ACAD_REACTORS
330
47
102
}
330
47
100
AcDbScale
 70
     0
300
1:20
140
1.0
141
20.0
290
     0
  0
SCALE
  5
50
102
{ACAD_REACTORS
330
47
102
}
330
47
100
AcDbScale
 70
     0
300
1:30
140
1.0
141
30.0
290
     0
  0
SCALE
  5
51
102
{ACAD_REACTORS
330
47
102
}
330
47
100
AcDbScale
 70
     0
300
1:40
140
1.0
141
40.0
290
     0
  0
SCALE
  5
52
102
{ACAD_REACTORS
330
47
102
}
330
47
100
AcDbScale
 70
     0
300
1:50
140
1.0
141
50.0
290
     0
  0
SCALE
  5
53
102
{ACAD_REACTORS
330
47
102
}
330
47
100
AcDbScale
 70
     0
300
1:100
140
1.0
141
100.0
290
     0
  0
SCALE
  5
54
102
{ACAD_REACTORS
330
47
102
}
330
47
100
AcDbScale
 70
     0
300
2:1
140
2.0
141
1.0
290
     0
  0
SCALE
  5
55
102
{ACAD_REACTORS
330
47
102
}
330
47
100
AcDbScale
 70
     0
300
4:1
140
4.0
141
1.0
290
     0
  0
SCALE
  5
56
102
{ACAD_REACTORS
330
47
102
}
330
47
100
AcDbScale
 70
     0
300
8:1
140
8.0
141
1.0
290
     0
  0
SCALE
  5
57
102
{ACAD_REACTORS
330
47
102
}
330
47
100
AcDbScale
 70
     0
300
10:1
140
10.0
141
1.0
290
     0
  0
SCALE
  5
58
102
{ACAD_REACTORS
330
47
102
}
330
47
100
AcDbScale
 70
     0
300
100:1
140
100.0
141
1.0
290
     0
  0
SCALE
  5
59
102
{ACAD_REACTORS
330
47
102
}
330
47
100
AcDbScale
 70
     0
300
1/128" = 1'-0"
140
0.007812
141
12.0
290
     0
  0
SCALE
  5
5A
102
{ACAD_REACTORS
330
47
102
}
330
47
100
AcDbScale
 70
     0
300
1/64" = 1'-0"
140
0.015625
141
12.0
290
     0
  0
SCALE
  5
5B
102
{ACAD_REACTORS
330
47
102
}
330
47
100
AcDbScale
 70
     0
300
1/32" = 1'-0"
140
0.03125
141
12.0
290
     0
  0
SCALE
  5
5C
102
{ACAD_REACTORS
330
47
102
}
330
47
100
AcDbScale
 70
     0
300
1/16" = 1'-0"
140
0.0625
141
12.0
290
     0
  0
SCALE
  5
5D
102
{ACAD_REACTORS
330
47
102
}
330
47
100
AcDbScale
 70
     0
300
3/32" = 1'-0"
140
0.09375
141
12.0
290
     0
  0
SCALE
  5
5E
102
{ACAD_REACTORS
330
47
102
}
330
47
100
AcDbScale
 70
     0
300
1/8" = 1'-0"
140
0.125
141
12.0
290
     0
  0
SCALE
  5
5F
102
{ACAD_REACTORS
330
47
102
}
330
47
100
AcDbScale
 70
     0
300
3/16" = 1'-0"
140
0.1875
141
12.0
290
     0
  0
SCALE
  5
60
102
{ACAD_REACTORS
330
47
102
}
330
47
100
AcDbScale
 70
     0
300
1/4" = 1'-0"
140
0.25
141
12.0
290
     0
  0
SCALE
  5
61
102
{ACAD_REACTORS
330
47
102
}
330
47
100
AcDbScale
 70
     0
300
3/8" = 1'-0"
140
0.375
141
12.0
290
     0
  0
SCALE
  5
62
102
{ACAD_REACTORS
330
47
102
}
330
47
100
AcDbScale
 70
     0
300
1/2" = 1'-0"
140
0.5
141
12.0
290
     0
  0
SCALE
  5
63
102
{ACAD_REACTORS
330
47
102
}
330
47
100
AcDbScale
 70
     0
300
3/4" = 1'-0"
140
0.75
141
12.0
290
     0
  0
SCALE
  5
64
102
{ACAD_REACTORS
330
47
102
}
330
47
100
AcDbScale
 70
     0
300
1" = 1'-0"
140
1.0
141
12.0
290
     0
  0
SCALE
  5
65
102
{ACAD_REACTORS
330
47
102
}
330
47
100
AcDbScale
 70
     0
300
1-1/2" = 1'-0"
140
1.5
141
12.0
290
     0
  0
SCALE
  5
66
102
{ACAD_REACTORS
330
47
102
}
330
47
100
AcDbScale
 70
     0
300
3" = 1'-0"
140
3.0
141
12.0
290
     0
  0
SCALE
  5
67
102
{ACAD_REACTORS
330
47
102
}
330
47
100
AcDbScale
 70
     0
300
6" = 1'-0"
140
6.0
141
12.0
290
     0
  0
SCALE
  5
68
102
{ACAD_REACTORS
330
47
102
}
330
47
100
AcDbScale
 70
     0
300
1'-0" = 1'-0"
140
12.0
141
12.0
290
     0
  0
TABLESTYLE
  5
6A
102
{ACAD_REACTORS
330
69
102
}
102
{ACAD_XDICTIONARY
360
215
102
}
330
69
100
AcDbTableStyle
  3
Standard
 70
     0
 71
     0
 40
0.06
 41
0.06
280
     0
281
     0
  7
Standard
140
4.5
170
     2
 62
     0
 63
   257
283
     0
 90
        4
 91
        0
  1

274
    -2
284
     1
 64
     0
275
    -2
285
     1
 65
     0
276
    -2
286
     1
 66
     0
277
    -2
287
     1
 67
     0
278
    -2
288
     1
 68
     0
279
    -2
289
     1
 69
     0
  7
Standard
140
6.0
170
     5
 62
     0
 63
   257
283
     0
 90
        4
 91
        0
  1

274
    -2
284
     1
 64
     0
275
    -2
285
     1
 65
     0
276
    -2
286
     1
 66
     0
277
    -2
287
     1
 67
     0
278
    -2
288
     1
 68
     0
279
    -2
289
     1
 69
     0
  7
Standard
140
4.5
170
     5
 62
     0
 63
   257
283
     0
 90
        4
 91
        0
  1

274
    -2
284
     1
 64
     0
275
    -2
285
     1
 65
     0
276
    -2
286
     1
 66
     0
277
    -2
287
     1
 67
     0
278
    -2
288
     1
 68
     0
279
    -2
289
     1
 69
     0
  0
VISUALSTYLE
  5
2F
102
{ACAD_REACTORS
330
2A
102
}
102
{ACAD_XDICTIONARY
360
1ED
102
}
330
2A
100
AcDbVisualStyle
  2
2dWireframe
 70
     4
177
     2
291
     0
 71
     0
176
     1
 72
     2
176
     1
 73
     0
176
     1
 90
        0
176
     1
 40
0.6
176
     1
 41
30.0
176
     1
 62
     5
 63
     7
421
 16777215
176
     1
 74
     1
176
     1
 91
        4
176
     1
 64
     7
176
     1
 65
   257
176
     1
 75
     1
176
     1
175
     1
176
     1
 42
1.0
176
     1
 92
        0
176
     1
 66
   257
176
     1
 43
1.0
176
     1
 76
     1
176
     1
 77
     6
176
     1
 78
     2
176
     1
 67
     7
176
     1
 79
     5
176
     1
170
     0
176
     1
171
     0
176
     1
290
     0
176
     1
 93
        1
176
     1
 44
0.0
176
     1
173
     0
176
     1
  0
VISUALSTYLE
  5
32
102
{ACAD_REACTORS
330
2A
102
}
102
{ACAD_XDICTIONARY
360
1F3
102
}
330
2A
100
AcDbVisualStyle
  2
Basic
 70
     7
177
     2
291
     1
 71
     1
176
     1
 72
     0
176
     1
 73
     1
176
     1
 90
        0
176
     1
 40
0.6
176
     1
 41
30.0
176
     1
 62
     5
 63
     7
421
 16777215
176
     1
 74
     0
176
     1
 91
        4
176
     1
 64
     7
176
     1
 65
   257
176
     1
 75
     1
176
     1
175
     1
176
     1
 42
1.0
176
     1
 92
        8
176
     1
 66
     7
176
     1
 43
1.0
176
     1
 76
     1
176
     1
 77
     6
176
     1
 78
     2
176
     1
 67
     7
176
     1
 79
     5
176
     1
170
     0
176
     1
171
     0
176
     1
290
     0
176
     1
 93
        1
176
     1
 44
0.0
176
     1
173
     0
176
     1
  0
VISUALSTYLE
  5
36
102
{ACAD_REACTORS
330
2A
102
}
102
{ACAD_XDICTIONARY
360
1FB
102
}
330
2A
100
AcDbVisualStyle
  2
Brighten
 70
    12
177
     2
291
     1
 71
     2
176
     1
 72
     2
176
     1
 73
     0
176
     1
 90
        0
176
     1
 40
0.6
176
     1
 41
30.0
176
     1
 62
     5
 63
     7
421
 16777215
176
     1
 74
     1
176
     1
 91
        4
176
     1
 64
     7
176
     1
 65
   257
176
     1
 75
     1
176
     1
175
     1
176
     1
 42
1.0
176
     1
 92
        8
176
     1
 66
     7
176
     1
 43
1.0
176
     1
 76
     1
176
     1
 77
     6
176
     1
 78
     2
176
     1
 67
     7
176
     1
 79
     5
176
     1
170
     0
176
     1
171
     0
176
     1
290
     0
176
     1
 93
        1
176
     1
 44
50.0
176
     1
173
     0
176
     1
  0
VISUALSTYLE
  5
3A
102
{ACAD_REACTORS
330
2A
102
}
102
{ACAD_XDICTIONARY
360
203
102
}
330
2A
100
AcDbVisualStyle
  2
ColorChange
 70
    16
177
     2
291
     1
 71
     2
176
     1
 72
     2
176
     1
 73
     3
176
     1
 90
        0
176
     1
 40
0.6
176
     1
 41
30.0
176
     1
 62
     5
 63
     8
421
  8421504
176
     1
 74
     1
176
     1
 91
        4
176
     1
 64
     7
176
     1
 65
   257
176
     1
 75
     1
176
     1
175
     1
176
     1
 42
1.0
176
     1
 92
        8
176
     1
 66
     8
424
  8421504
176
     1
 43
1.0
176
     1
 76
     1
176
     1
 77
     6
176
     1
 78
     2
176
     1
 67
     7
176
     1
 79
     5
176
     1
170
     0
176
     1
171
     0
176
     1
290
     0
176
     1
 93
        1
176
     1
 44
0.0
176
     1
173
     0
176
     1
  0
VISUALSTYLE
  5
34
102
{ACAD_REACTORS
330
2A
102
}
102
{ACAD_XDICTIONARY
360
1F7
102
}
330
2A
100
AcDbVisualStyle
  2
Conceptual
 70
     9
177
     2
291
     0
 71
     3
176
     1
 72
     2
176
     1
 73
     0
176
     1
 90
        0
176
     1
 40
0.6
176
     1
 41
30.0
176
     1
 62
     5
 63
     7
421
 16777215
176
     1
 74
     2
176
     1
 91
        2
176
     1
 64
     7
176
     1
 65
   257
176
     1
 75
     1
176
     1
175
     1
176
     1
 42
179.0
176
     1
 92
        8
176
     1
 66
     7
176
     1
 43
1.0
176
     1
 76
     1
176
     1
 77
     6
176
     1
 78
     2
176
     1
 67
     7
176
     1
 79
     3
176
     1
170
     0
176
     1
171
     0
176
     1
290
     0
176
     1
 93
        1
176
     1
 44
0.0
176
     1
173
     0
176
     1
  0
VISUALSTYLE
  5
35
102
{ACAD_REACTORS
330
2A
102
}
102
{ACAD_XDICTIONARY
360
1F9
102
}
330
2A
100
AcDbVisualStyle
  2
Dim
 70
    11
177
     2
291
     1
 71
     2
176
     1
 72
     2
176
     1
 73
     0
176
     1
 90
        0
176
     1
 40
0.6
176
     1
 41
30.0
176
     1
 62
     5
 63
     7
421
 16777215
176
     1
 74
     1
176
     1
 91
        4
176
     1
 64
     7
176
     1
 65
   257
176
     1
 75
     1
176
     1
175
     1
176
     1
 42
1.0
176
     1
 92
        8
176
     1
 66
     7
176
     1
 43
1.0
176
     1
 76
     1
176
     1
 77
     6
176
     1
 78
     2
176
     1
 67
     7
176
     1
 79
     5
176
     1
170
     0
176
     1
171
     0
176
     1
290
     0
176
     1
 93
        1
176
     1
 44
-50.0
176
     1
173
     0
176
     1
  0
VISUALSTYLE
  5
3D
102
{ACAD_REACTORS
330
2A
102
}
102
{ACAD_XDICTIONARY
360
209
102
}
330
2A
100
AcDbVisualStyle
  2
EdgeColorOff
 70
    22
177
     2
291
     1
 71
     2
176
     0
 72
     2
176
     0
 73
     0
176
     0
 90
        0
176
     0
 40
0.6
176
     0
 41
30.0
176
     0
 62
     5
 63
     7
421
 16777215
176
     0
 74
     1
176
     0
 91
        4
176
     0
 64
     7
176
     0
 65
   257
176
     0
 75
     1
176
     0
175
     1
176
     0
 42
1.0
176
     0
 92
        8
176
     2
 66
     7
176
     0
 43
1.0
176
     0
 76
     1
176
     0
 77
     6
176
     0
 78
     2
176
     0
 67
     7
176
     0
 79
     5
176
     0
170
     0
176
     0
171
     0
176
     0
290
     0
176
     0
 93
        1
176
     0
 44
0.0
176
     0
173
     0
176
     0
  0
VISUALSTYLE
  5
39
102
{ACAD_REACTORS
330
2A
102
}
102
{ACAD_XDICTIONARY
360
201
102
}
330
2A
100
AcDbVisualStyle
  2
Facepattern
 70
    15
177
     2
291
     1
 71
     2
176
     1
 72
     2
176
     1
 73
     0
176
     1
 90
        0
176
     1
 40
0.6
176
     1
 41
30.0
176
     1
 62
     5
 63
     7
421
 16777215
176
     1
 74
     1
176
     1
 91
        4
176
     1
 64
     7
176
     1
 65
   257
176
     1
 75
     1
176
     1
175
     1
176
     1
 42
1.0
176
     1
 92
        8
176
     1
 66
     7
176
     1
 43
1.0
176
     1
 76
     1
176
     1
 77
     6
176
     1
 78
     2
176
     1
 67
     7
176
     1
 79
     5
176
     1
170
     0
176
     1
171
     0
176
     1
290
     0
176
     1
 93
        1
176
     1
 44
0.0
176
     1
173
     0
176
     1
  0
VISUALSTYLE
  5
2B
102
{ACAD_REACTORS
330
2A
102
}
102
{ACAD_XDICTIONARY
360
1E5
102
}
330
2A
100
AcDbVisualStyle
  2
Flat
 70
     0
177
     2
291
     1
 71
     2
176
     1
 72
     1
176
     1
 73
     1
176
     1
 90
        2
176
     1
 40
0.6
176
     1
 41
30.0
176
     1
 62
     5
 63
     7
421
 16777215
176
     1
 74
     0
176
     1
 91
        0
176
     1
 64
     7
176
     1
 65
   257
176
     1
 75
     1
176
     1
175
     1
176
     1
 42
1.0
176
     1
 92
        8
176
     1
 66
     7
176
     1
 43
1.0
176
     1
 76
     1
176
     1
 77
     6
176
     1
 78
     2
176
     1
 67
     7
176
     1
 79
     5
176
     1
170
     0
176
     1
171
     0
176
     1
290
     0
176
     1
 93
       13
176
     1
 44
0.0
176
     1
173
     0
176
     1
  0
VISUALSTYLE
  5
2C
102
{ACAD_REACTORS
330
2A
102
}
102
{ACAD_XDICTIONARY
360
1E7
102
}
330
2A
100
AcDbVisualStyle
  2
FlatWithEdges
 70
     1
177
     2
291
     1
 71
     2
176
     1
 72
     1
176
     1
 73
     1
176
     1
 90
        2
176
     1
 40
0.6
176
     1
 41
30.0
176
     1
 62
     5
 63
     7
421
 16777215
176
     1
 74
     1
176
     1
 91
        0
176
     1
 64
     7
176
     1
 65
   257
176
     1
 75
     1
176
     1
175
     1
176
     1
 42
1.0
176
     1
 92
        0
176
     1
 66
   257
176
     1
 43
1.0
176
     1
 76
     1
176
     1
 77
     6
176
     1
 78
     2
176
     1
 67
     7
176
     1
 79
     5
176
     1
170
     0
176
     1
171
     0
176
     1
290
     0
176
     1
 93
       13
176
     1
 44
0.0
176
     1
173
     0
176
     1
  0
VISUALSTYLE
  5
2D
102
{ACAD_REACTORS
330
2A
102
}
102
{ACAD_XDICTIONARY
360
1E9
102
}
330
2A
100
AcDbVisualStyle
  2
Gouraud
 70
     2
177
     2
291
     1
 71
     2
176
     1
 72
     2
176
     1
 73
     1
176
     1
 90
        2
176
     1
 40
0.6
176
     1
 41
30.0
176
     1
 62
     5
 63
     7
421
 16777215
176
     1
 74
     0
176
     1
 91
        0
176
     1
 64
     7
176
     1
 65
   257
176
     1
 75
     1
176
     1
175
     1
176
     1
 42
1.0
176
     1
 92
        0
176
     1
 66
     7
176
     1
 43
1.0
176
     1
 76
     1
176
     1
 77
     6
176
     1
 78
     2
176
     1
 67
     7
176
     1
 79
     5
176
     1
170
     0
176
     1
171
     0
176
     1
290
     0
176
     1
 93
       13
176
     1
 44
0.0
176
     1
173
     0
176
     1
  0
VISUALSTYLE
  5
2E
102
{ACAD_REACTORS
330
2A
102
}
102
{ACAD_XDICTIONARY
360
1EB
102
}
330
2A
100
AcDbVisualStyle
  2
GouraudWithEdges
 70
     3
177
     2
291
     1
 71
     2
176
     1
 72
     2
176
     1
 73
     1
176
     1
 90
        2
176
     1
 40
0.6
176
     1
 41
30.0
176
     1
 62
     5
 63
     7
421
 16777215
176
     1
 74
     1
176
     1
 91
        0
176
     1
 64
     7
176
     1
 65
   257
176
     1
 75
     1
176
     1
175
     1
176
     1
 42
1.0
176
     1
 92
        0
176
     1
 66
   257
176
     1
 43
1.0
176
     1
 76
     1
176
     1
 77
     6
176
     1
 78
     2
176
     1
 67
     7
176
     1
 79
     5
176
     1
170
     0
176
     1
171
     0
176
     1
290
     0
176
     1
 93
       13
176
     1
 44
0.0
176
     1
173
     0
176
     1
  0
VISUALSTYLE
  5
31
102
{ACAD_REACTORS
330
2A
102
}
102
{ACAD_XDICTIONARY
360
1F1
102
}
330
2A
100
AcDbVisualStyle
  2
Hidden
 70
     6
177
     2
291
     0
 71
     1
176
     1
 72
     2
176
     1
 73
     2
176
     1
 90
        0
176
     1
 40
0.6
176
     1
 41
30.0
176
     1
 62
     5
 63
     7
421
 16777215
176
     1
 74
     2
176
     1
 91
        2
176
     1
 64
     7
176
     1
 65
   257
176
     1
 75
     2
176
     1
175
     1
176
     1
 42
40.0
176
     1
 92
        0
176
     1
 66
   257
176
     1
 43
1.0
176
     1
 76
     1
176
     1
 77
     6
176
     1
 78
     2
176
     1
 67
     7
176
     1
 79
     3
176
     1
170
     0
176
     1
171
     0
176
     1
290
     0
176
     1
 93
        1
176
     1
 44
0.0
176
     1
173
     0
176
     1
  0
VISUALSTYLE
  5
3B
102
{ACAD_REACTORS
330
2A
102
}
102
{ACAD_XDICTIONARY
360
205
102
}
330
2A
100
AcDbVisualStyle
  2
JitterOff
 70
    20
177
     2
291
     1
 71
     2
176
     0
 72
     2
176
     0
 73
     0
176
     0
 90
        0
176
     0
 40
0.6
176
     0
 41
30.0
176
     0
 62
     5
 63
     7
421
 16777215
176
     0
 74
     1
176
     0
 91
        4
176
     0
 64
     7
176
     0
 65
   257
176
     0
 75
     1
176
     0
175
     1
176
     0
 42
1.0
176
     0
 92
       10
176
     2
 66
     7
176
     0
 43
1.0
176
     0
 76
     1
176
     0
 77
     6
176
     0
 78
     2
176
     0
 67
     7
176
     0
 79
     5
176
     0
170
     0
176
     0
171
     0
176
     0
290
     0
176
     0
 93
        1
176
     0
 44
0.0
176
     0
173
     0
176
     0
  0
VISUALSTYLE
  5
38
102
{ACAD_REACTORS
330
2A
102
}
102
{ACAD_XDICTIONARY
360
1FF
102
}
330
2A
100
AcDbVisualStyle
  2
Linepattern
 70
    14
177
     2
291
     1
 71
     2
176
     1
 72
     2
176
     1
 73
     0
176
     1
 90
        0
176
     1
 40
0.6
176
     1
 41
30.0
176
     1
 62
     5
 63
     7
421
 16777215
176
     1
 74
     1
176
     1
 91
        4
176
     1
 64
     7
176
     1
 65
   257
176
     1
 75
     7
176
     1
175
     7
176
     1
 42
1.0
176
     1
 92
        8
176
     1
 66
     7
176
     1
 43
1.0
176
     1
 76
     1
176
     1
 77
     6
176
     1
 78
     2
176
     1
 67
     7
176
     1
 79
     5
176
     1
170
     0
176
     1
171
     0
176
     1
290
     0
176
     1
 93
        1
176
     1
 44
0.0
176
     1
173
     0
176
     1
  0
VISUALSTYLE
  5
3C
102
{ACAD_REACTORS
330
2A
102
}
102
{ACAD_XDICTIONARY
360
207
102
}
330
2A
100
AcDbVisualStyle
  2
OverhangOff
 70
    21
177
     2
291
     1
 71
     2
176
     0
 72
     2
176
     0
 73
     0
176
     0
 90
        0
176
     0
 40
0.6
176
     0
 41
30.0
176
     0
 62
     5
 63
     7
421
 16777215
176
     0
 74
     1
176
     0
 91
        4
176
     0
 64
     7
176
     0
 65
   257
176
     0
 75
     1
176
     0
175
     1
176
     0
 42
1.0
176
     0
 92
        9
176
     2
 66
     7
176
     0
 43
1.0
176
     0
 76
     1
176
     0
 77
     6
176
     0
 78
     2
176
     0
 67
     7
176
     0
 79
     5
176
     0
170
     0
176
     0
171
     0
176
     0
290
     0
176
     0
 93
        1
176
     0
 44
0.0
176
     0
173
     0
176
     0
  0
VISUALSTYLE
  5
33
102
{ACAD_REACTORS
330
2A
102
}
102
{ACAD_XDICTIONARY
360
1F5
102
}
330
2A
100
AcDbVisualStyle
  2
Realistic
 70
     8
177
     2
291
     0
 71
     2
176
     1
 72
     3
176
     1
 73
     0
176
     1
 90
        2
176
     1
 40
0.6
176
     1
 41
30.0
176
     1
 62
     5
 63
     7
421
 16777215
176
     1
 74
     0
176
     1
 91
        0
176
     1
 64
     7
176
     1
 65
   257
176
     1
 75
     1
176
     1
175
     1
176
     1
 42
1.0
176
     1
 92
        8
176
     1
 66
   257
176
     1
 43
1.0
176
     1
 76
     1
176
     1
 77
     6
176
     1
 78
     2
176
     1
 67
     7
176
     1
 79
     3
176
     1
170
     0
176
     1
171
     0
176
     1
290
     0
176
     1
 93
       13
176
     1
 44
0.0
176
     1
173
     0
176
     1
  0
VISUALSTYLE
  5
42
102
{ACAD_REACTORS
330
2A
102
}
102
{ACAD_XDICTIONARY
360
213
102
}
330
2A
100
AcDbVisualStyle
  2
Shaded
 70
    27
177
     2
291
     0
 71
     2
176
     1
 72
     2
176
     1
 73
     1
176
     1
 90
        2
176
     1
 40
0.6
176
     1
 41
30.0
176
     1
 62
     5
 63
     7
421
 16777215
176
     1
 74
     0
176
     1
 91
        4
176
     1
 64
     7
176
     1
 65
   257
176
     1
 75
     1
176
     1
175
     1
176
     1
 42
1.0
176
     1
 92
        8
176
     1
 66
   257
176
     1
 43
1.0
176
     1
 76
     1
176
     1
 77
     6
176
     1
 78
     2
176
     1
 67
     8
425
  7895160
176
     1
 79
     3
176
     1
170
     0
176
     1
171
     0
176
     1
290
     0
176
     1
 93
        5
176
     1
 44
0.0
176
     1
173
     0
176
     1
  0
VISUALSTYLE
  5
41
102
{ACAD_REACTORS
330
2A
102
}
102
{ACAD_XDICTIONARY
360
211
102
}
330
2A
100
AcDbVisualStyle
  2
Shaded with edges
 70
    26
177
     2
291
     0
 71
     2
176
     1
 72
     2
176
     1
 73
     1
176
     1
 90
        2
176
     1
 40
0.6
176
     1
 41
30.0
176
     1
 62
     5
 63
     7
421
 16777215
176
     1
 74
     1
176
     1
 91
       10
176
     1
 64
     7
176
     1
 65
   257
176
     1
 75
     2
176
     1
175
     1
176
     1
 42
1.0
176
     1
 92
        8
176
     1
 66
   257
176
     1
 43
1.0
176
     1
 76
     1
176
     1
 77
     6
176
     1
 78
     2
176
     1
 67
     7
176
     1
 79
     3
176
     1
170
     0
176
     1
171
     0
176
     1
290
     0
176
     1
 93
        5
176
     1
 44
0.0
176
     1
173
     0
176
     1
  0
VISUALSTYLE
  5
3E
102
{ACAD_REACTORS
330
2A
102
}
102
{ACAD_XDICTIONARY
360
20B
102
}
330
2A
100
AcDbVisualStyle
  2
Shades of Gray
 70
    23
177
     2
291
     0
 71
     2
176
     1
 72
     2
176
     1
 73
     3
176
     1
 90
        0
176
     1
 40
0.6
176
     1
 41
30.0
176
     1
 62
     5
 63
     7
421
 16777215
176
     1
 74
     2
176
     1
 91
        2
176
     1
 64
     7
176
     1
 65
     7
176
     1
 75
     1
176
     1
175
     1
176
     1
 42
40.0
176
     1
 92
        8
176
     1
 66
     7
176
     1
 43
1.0
176
     1
 76
     1
176
     1
 77
     6
176
     1
 78
     2
176
     1
 67
     7
176
     1
 79
     3
176
     1
170
     0
176
     1
171
     0
176
     1
290
     0
176
     1
 93
        1
176
     1
 44
0.0
176
     1
173
     0
176
     1
  0
VISUALSTYLE
  5
3F
102
{ACAD_REACTORS
330
2A
102
}
102
{ACAD_XDICTIONARY
360
20D
102
}
330
2A
100
AcDbVisualStyle
  2
Sketchy
 70
    24
177
     2
291
     0
 71
     1
176
     1
 72
     2
176
     1
 73
     2
176
     1
 90
        0
176
     1
 40
0.6
176
     1
 41
30.0
176
     1
 62
     5
 63
     7
421
 16777215
176
     1
 74
     2
176
     1
 91
        2
176
     1
 64
     7
176
     1
 65
     7
176
     1
 75
     1
176
     1
175
     1
176
     1
 42
40.0
176
     1
 92
       11
176
     1
 66
     7
176
     1
 43
1.0
176
     1
 76
     1
176
     1
 77
     6
176
     1
 78
     2
176
     1
 67
     7
176
     1
 79
     6
176
     1
170
     0
176
     1
171
     0
176
     1
290
     0
176
     1
 93
        1
176
     1
 44
0.0
176
     1
173
     0
176
     1
  0
VISUALSTYLE
  5
37
102
{ACAD_REACTORS
330
2A
102
}
102
{ACAD_XDICTIONARY
360
1FD
102
}
330
2A
100
AcDbVisualStyle
  2
Thicken
 70
    13
177
     2
291
     1
 71
     2
176
     1
 72
     2
176
     1
 73
     0
176
     1
 90
        0
176
     1
 40
0.6
176
     1
 41
30.0
176
     1
 62
     5
 63
     7
421
 16777215
176
     1
 74
     1
176
     1
 91
        4
176
     1
 64
     7
176
     1
 65
   257
176
     1
 75
     1
176
     1
175
     1
176
     1
 42
1.0
176
     1
 92
       12
176
     1
 66
     7
176
     1
 43
1.0
176
     1
 76
     1
176
     1
 77
     6
176
     1
 78
     2
176
     1
 67
     7
176
     1
 79
     5
176
     1
170
     0
176
     1
171
     0
176
     1
290
     0
176
     1
 93
        1
176
     1
 44
0.0
176
     1
173
     0
176
     1
  0
VISUALSTYLE
  5
30
102
{ACAD_REACTORS
330
2A
102
}
102
{ACAD_XDICTIONARY
360
1EF
102
}
330
2A
100
AcDbVisualStyle
  2
Wireframe
 70
     5
177
     2
291
     0
 71
     0
176
     1
 72
     2
176
     1
 73
     0
176
     1
 90
        0
176
     1
 40
0.6
176
     1
 41
30.0
176
     1
 62
     5
 63
     7
421
 16777215
176
     1
 74
     1
176
     1
 91
        4
176
     1
 64
     7
176
     1
 65
   257
176
     1
 75
     1
176
     1
175
     1
176
     1
 42
1.0
176
     1
 92
        0
176
     1
 66
   257
176
     1
 43
1.0
176
     1
 76
     1
176
     1
 77
     6
176
     1
 78
     2
176
     1
 67
     7
176
     1
 79
     3
176
     1
170
     0
176
     1
171
     0
176
     1
290
     0
176
     1
 93
        1
176
     1
 44
0.0
176
     1
173
     0
176
     1
  0
VISUALSTYLE
  5
40
102
{ACAD_REACTORS
330
2A
102
}
102
{ACAD_XDICTIONARY
360
20F
102
}
330
2A
100
AcDbVisualStyle
  2
X-Ray
 70
    25
177
     2
291
     0
 71
     2
176
     1
 72
     2
176
     1
 73
     1
176
     1
 90
        1
176
     1
 40
0.5
176
     1
 41
30.0
176
     1
 62
     5
 63
     7
421
 16777215
176
     1
 74
     1
176
     1
 91
        0
176
     1
 64
     7
176
     1
 65
   257
176
     1
 75
     1
176
     1
175
     1
176
     1
 42
1.0
176
     1
 92
        8
176
     1
 66
     7
176
     1
 43
1.0
176
     1
 76
     1
176
     1
 77
     6
176
     1
 78
     2
176
     1
 67
     7
176
     1
 79
     3
176
     1
170
     0
176
     1
171
     0
176
     1
290
     0
176
     1
 93
       13
176
     1
 44
0.0
176
     1
173
     0
176
     1
  0
DICTIONARYVAR
  5
1E4
102
{ACAD_REACTORS
330
1E3
102
}
330
1E3
100
DictionaryVariables
280
     0
  1
1:1
  0
DICTIONARYVAR
  5
219
102
{ACAD_REACTORS
330
1E3
102
}
330
1E3
100
DictionaryVariables
280
     0
  1
Standard
  0
DICTIONARYVAR
  5
218
102
{ACAD_REACTORS
330
1E3
102
}
330
1E3
100
DictionaryVariables
280
     0
  1
Standard
  0
DICTIONARY
  5
215
330
6A
100
AcDbDictionary
280
     1
281
     1
  3
ACAD_ROUNDTRIP_2008_TABLESTYLE_CELLSTYLEMAP
360
216
  0
DICTIONARY
  5
1ED
330
2F
100
AcDbDictionary
280
     1
281
     1
  3
ACAD_XREC_ROUNDTRIP
360
1EE
  0
DICTIONARY
  5
1F3
330
32
100
AcDbDictionary
280
     1
281
     1
  3
ACAD_XREC_ROUNDTRIP
360
1F4
  0
DICTIONARY
  5
1FB
330
36
100
AcDbDictionary
280
     1
281
     1
  3
ACAD_XREC_ROUNDTRIP
360
1FC
  0
DICTIONARY
  5
203
330
3A
100
AcDbDictionary
280
     1
281
     1
  3
ACAD_XREC_ROUNDTRIP
360
204
  0
DICTIONARY
  5
1F7
330
34
100
AcDbDictionary
280
     1
281
     1
  3
ACAD_XREC_ROUNDTRIP
360
1F8
  0
DICTIONARY
  5
1F9
330
35
100
AcDbDictionary
280
     1
281
     1
  3
ACAD_XREC_ROUNDTRIP
360
1FA
  0
DICTIONARY
  5
209
330
3D
100
AcDbDictionary
280
     1
281
     1
  3
ACAD_XREC_ROUNDTRIP
360
20A
  0
DICTIONARY
  5
201
330
39
100
AcDbDictionary
280
     1
281
     1
  3
ACAD_XREC_ROUNDTRIP
360
202
  0
DICTIONARY
  5
1E5
330
2B
100
AcDbDictionary
280
     1
281
     1
  3
ACAD_XREC_ROUNDTRIP
360
1E6
  0
DICTIONARY
  5
1E7
330
2C
100
AcDbDictionary
280
     1
281
     1
  3
ACAD_XREC_ROUNDTRIP
360
1E8
  0
DICTIONARY
  5
1E9
330
2D
100
AcDbDictionary
280
     1
281
     1
  3
ACAD_XREC_ROUNDTRIP
360
1EA
  0
DICTIONARY
  5
1EB
330
2E
100
AcDbDictionary
280
     1
281
     1
  3
ACAD_XREC_ROUNDTRIP
360
1EC
  0
DICTIONARY
  5
1F1
330
31
100
AcDbDictionary
280
     1
281
     1
  3
ACAD_XREC_ROUNDTRIP
360
1F2
  0
DICTIONARY
  5
205
330
3B
100
AcDbDictionary
280
     1
281
     1
  3
ACAD_XREC_ROUNDTRIP
360
206
  0
DICTIONARY
  5
1FF
330
38
100
AcDbDictionary
280
     1
281
     1
  3
ACAD_XREC_ROUNDTRIP
360
200
  0
DICTIONARY
  5
207
330
3C
100
AcDbDictionary
280
     1
281
     1
  3
ACAD_XREC_ROUNDTRIP
360
208
  0
DICTIONARY
  5
1F5
330
33
100
AcDbDictionary
280
     1
281
     1
  3
ACAD_XREC_ROUNDTRIP
360
1F6
  0
DICTIONARY
  5
213
330
42
100
AcDbDictionary
280
     1
281
     1
  3
ACAD_XREC_ROUNDTRIP
360
214
  0
DICTIONARY
  5
211
330
41
100
AcDbDictionary
280
     1
281
     1
  3
ACAD_XREC_ROUNDTRIP
360
212
  0
DICTIONARY
  5
20B
330
3E
100
AcDbDictionary
280
     1
281
     1
  3
ACAD_XREC_ROUNDTRIP
360
20C
  0
DICTIONARY
  5
20D
330
3F
100
AcDbDictionary
280
     1
281
     1
  3
ACAD_XREC_ROUNDTRIP
360
20E
  0
DICTIONARY
  5
1FD
330
37
100
AcDbDictionary
280
     1
281
     1
  3
ACAD_XREC_ROUNDTRIP
360
1FE
  0
DICTIONARY
  5
1EF
330
30
100
AcDbDictionary
280
     1
281
     1
  3
ACAD_XREC_ROUNDTRIP
360
1F0
  0
DICTIONARY
  5
20F
330
40
100
AcDbDictionary
280
     1
281
     1
  3
ACAD_XREC_ROUNDTRIP
360
210
  0
CELLSTYLEMAP
  5
216
102
{ACAD_REACTORS
330
215
102
}
330
215
100
AcDbCellStyleMap
 90
        3
300
CELLSTYLE
  1
TABLEFORMAT_BEGIN
 90
        5
170
     1
 91
        0
 92
    32768
 62
   257
 93
        1
300
CONTENTFORMAT
  1
CONTENTFORMAT_BEGIN
 90
        0
 91
        0
 92
        4
 93
        0
300

 40
0.0
140
1.0
 94
        5
 62
     0
340
11
144
6.0
309
CONTENTFORMAT_END
171
     1
301
MARGIN
  1
CELLMARGIN_BEGIN
 40
1.5
 40
1.5
 40
1.5
 40
1.5
 40
1.5
 40
1.5
309
CELLMARGIN_END
 94
        6
 95
        1
302
GRIDFORMAT
  1
GRIDFORMAT_BEGIN
 90
        0
 91
        1
 62
     0
 92
       -2
340
14
 93
        0
 40
0.045
309
GRIDFORMAT_END
 95
        2
302
GRIDFORMAT
  1
GRIDFORMAT_BEGIN
 90
        0
 91
        1
 62
     0
 92
       -2
340
14
 93
        0
 40
0.045
309
GRIDFORMAT_END
 95
        4
302
GRIDFORMAT
  1
GRIDFORMAT_BEGIN
 90
        0
 91
        1
 62
     0
 92
       -2
340
14
 93
        0
 40
0.045
309
GRIDFORMAT_END
 95
        8
302
GRIDFORMAT
  1
GRIDFORMAT_BEGIN
 90
        0
 91
        1
 62
     0
 92
       -2
340
14
 93
        0
 40
0.045
309
GRIDFORMAT_END
 95
       16
302
GRIDFORMAT
  1
GRIDFORMAT_BEGIN
 90
        0
 91
        1
 62
     0
 92
       -2
340
14
 93
        0
 40
0.045
309
GRIDFORMAT_END
 95
       32
302
GRIDFORMAT
  1
GRIDFORMAT_BEGIN
 90
        0
 91
        1
 62
     0
 92
       -2
340
14
 93
        0
 40
0.045
309
GRIDFORMAT_END
309
TABLEFORMAT_END
  1
CELLSTYLE_BEGIN
 90
        1
 91
        1
300
_TITLE
309
CELLSTYLE_END
300
CELLSTYLE
  1
TABLEFORMAT_BEGIN
 90
        5
170
     1
 91
        0
 92
        0
 62
   257
 93
        1
300
CONTENTFORMAT
  1
CONTENTFORMAT_BEGIN
 90
        0
 91
        0
 92
        4
 93
        0
300

 40
0.0
140
1.0
 94
        5
 62
     0
340
11
144
4.5
309
CONTENTFORMAT_END
171
     1
301
MARGIN
  1
CELLMARGIN_BEGIN
 40
1.5
 40
1.5
 40
1.5
 40
1.5
 40
1.5
 40
1.5
309
CELLMARGIN_END
 94
        6
 95
        1
302
GRIDFORMAT
  1
GRIDFORMAT_BEGIN
 90
        0
 91
        1
 62
     0
 92
       -2
340
14
 93
        0
 40
0.045
309
GRIDFORMAT_END
 95
        2
302
GRIDFORMAT
  1
GRIDFORMAT_BEGIN
 90
        0
 91
        1
 62
     0
 92
       -2
340
14
 93
        0
 40
0.045
309
GRIDFORMAT_END
 95
        4
302
GRIDFORMAT
  1
GRIDFORMAT_BEGIN
 90
        0
 91
        1
 62
     0
 92
       -2
340
14
 93
        0
 40
0.045
309
GRIDFORMAT_END
 95
        8
302
GRIDFORMAT
  1
GRIDFORMAT_BEGIN
 90
        0
 91
        1
 62
     0
 92
       -2
340
14
 93
        0
 40
0.045
309
GRIDFORMAT_END
 95
       16
302
GRIDFORMAT
  1
GRIDFORMAT_BEGIN
 90
        0
 91
        1
 62
     0
 92
       -2
340
14
 93
        0
 40
0.045
309
GRIDFORMAT_END
 95
       32
302
GRIDFORMAT
  1
GRIDFORMAT_BEGIN
 90
        0
 91
        1
 62
     0
 92
       -2
340
14
 93
        0
 40
0.045
309
GRIDFORMAT_END
309
TABLEFORMAT_END
  1
CELLSTYLE_BEGIN
 90
        2
 91
        1
300
_HEADER
309
CELLSTYLE_END
300
CELLSTYLE
  1
TABLEFORMAT_BEGIN
 90
        5
170
     1
 91
        0
 92
        0
 62
   257
 93
        1
300
CONTENTFORMAT
  1
CONTENTFORMAT_BEGIN
 90
        0
 91
        0
 92
        4
 93
        0
300

 40
0.0
140
1.0
 94
        2
 62
     0
340
11
144
4.5
309
CONTENTFORMAT_END
171
     1
301
MARGIN
  1
CELLMARGIN_BEGIN
 40
1.5
 40
1.5
 40
1.5
 40
1.5
 40
1.5
 40
1.5
309
CELLMARGIN_END
 94
        6
 95
        1
302
GRIDFORMAT
  1
GRIDFORMAT_BEGIN
 90
        0
 91
        1
 62
     0
 92
       -2
340
14
 93
        0
 40
0.045
309
GRIDFORMAT_END
 95
        2
302
GRIDFORMAT
  1
GRIDFORMAT_BEGIN
 90
        0
 91
        1
 62
     0
 92
       -2
340
14
 93
        0
 40
0.045
309
GRIDFORMAT_END
 95
        4
302
GRIDFORMAT
  1
GRIDFORMAT_BEGIN
 90
        0
 91
        1
 62
     0
 92
       -2
340
14
 93
        0
 40
0.045
309
GRIDFORMAT_END
 95
        8
302
GRIDFORMAT
  1
GRIDFORMAT_BEGIN
 90
        0
 91
        1
 62
     0
 92
       -2
340
14
 93
        0
 40
0.045
309
GRIDFORMAT_END
 95
       16
302
GRIDFORMAT
  1
GRIDFORMAT_BEGIN
 90
        0
 91
        1
 62
     0
 92
       -2
340
14
 93
        0
 40
0.045
309
GRIDFORMAT_END
 95
       32
302
GRIDFORMAT
  1
GRIDFORMAT_BEGIN
 90
        0
 91
        1
 62
     0
 92
       -2
340
14
 93
        0
 40
0.045
309
GRIDFORMAT_END
309
TABLEFORMAT_END
  1
CELLSTYLE_BEGIN
 90
        3
 91
        2
300
_DATA
309
CELLSTYLE_END
  0
XRECORD
  5
1EE
102
{ACAD_REACTORS
330
1ED
102
}
330
1ED
100
AcDbXrecord
280
     1
102
RTVSPost2010Prop28
280
     1
102
RTVSPost2010PropOp28
 70
     1
102
RTVSPost2010Prop29
280
     1
102
RTVSPost2010PropOp29
 70
     1
102
RTVSPost2010Prop30
280
     0
102
RTVSPost2010PropOp30
 70
     1
102
RTVSPost2010Prop31
280
     0
102
RTVSPost2010PropOp31
 70
     1
102
RTVSPost2010Prop32
280
     0
102
RTVSPost2010PropOp32
 70
     1
102
RTVSPost2010Prop33
280
     0
102
RTVSPost2010PropOp33
 70
     1
102
RTVSPost2010Prop34
280
     0
102
RTVSPost2010PropOp34
 70
     1
102
RTVSPost2010Prop35
280
     0
102
RTVSPost2010PropOp35
 70
     1
102
RTVSPost2010Prop36
280
     0
102
RTVSPost2010PropOp36
 70
     1
102
RTVSPost2010Prop37
 90
       50
102
RTVSPost2010PropOp37
 70
     1
102
RTVSPost2010Prop38
140
0.0
102
RTVSPost2010PropOp38
 70
     1
102
RTVSPost2010Prop39
140
1.0
102
RTVSPost2010PropOp39
 70
     1
102
RTVSPost2010Prop40
 90
        0
102
RTVSPost2010PropOp40
 70
     1
102
RTVSPost2010Prop41ColorIndex
 90
       18
102
RTVSPost2010Prop41ColorRGB
 90
        0
102
RTVSPost2010PropOp41
 70
     1
102
RTVSPost2010Prop42
 90
       50
102
RTVSPost2010PropOp42
 70
     1
102
RTVSPost2010Prop43
 90
        3
102
RTVSPost2010PropOp43
 70
     1
102
RTVSPost2010Prop44ColorIndex
 90
        5
102
RTVSPost2010Prop44ColorRGB
 90
      255
102
RTVSPost2010PropOp44
 70
     1
102
RTVSPost2010Prop45
280
     0
102
RTVSPost2010PropOp45
 70
     1
102
RTVSPost2010Prop46
 90
       50
102
RTVSPost2010PropOp46
 70
     1
102
RTVSPost2010Prop47
 90
       50
102
RTVSPost2010PropOp47
 70
     1
102
RTVSPost2010Prop48
 90
       50
102
RTVSPost2010PropOp48
 70
     1
102
RTVSPost2010Prop49
280
     0
102
RTVSPost2010PropOp49
 70
     1
102
RTVSPost2010Prop50
 90
       50
102
RTVSPost2010PropOp50
 70
     1
102
RTVSPost2010Prop51ColorIndex
 90
      256
102
RTVSPost2010Prop51ColorRGB
 90
-16777216
102
RTVSPost2010PropOp51
 70
     0
102
RTVSPost2010Prop52
140
1.0
102
RTVSPost2010PropOp52
 70
     0
102
RTVSPost2010Prop53
 90
        2
102
RTVSPost2010PropOp53
 70
     1
102
RTVSPost2010Prop54
  1
strokes_ogs.tif
102
RTVSPost2010PropOp54
 70
     1
102
RTVSPost2010Prop55
280
     0
102
RTVSPost2010PropOp55
 70
     1
102
RTVSPost2010Prop56
140
1.0
102
RTVSPost2010PropOp56
 70
     1
102
RTVSPost2010Prop57
140
1.0
102
RTVSPost2010PropOp57
 70
     1
  0
XRECORD
  5
1F4
102
{ACAD_REACTORS
330
1F3
102
}
330
1F3
100
AcDbXrecord
280
     1
102
RTVSPost2010Prop28
280
     0
102
RTVSPost2010PropOp28
 70
     1
102
RTVSPost2010Prop29
280
     1
102
RTVSPost2010PropOp29
 70
     1
102
RTVSPost2010Prop30
280
     1
102
RTVSPost2010PropOp30
 70
     1
102
RTVSPost2010Prop31
280
     0
102
RTVSPost2010PropOp31
 70
     1
102
RTVSPost2010Prop32
280
     0
102
RTVSPost2010PropOp32
 70
     1
102
RTVSPost2010Prop33
280
     0
102
RTVSPost2010PropOp33
 70
     1
102
RTVSPost2010Prop34
280
     0
102
RTVSPost2010PropOp34
 70
     1
102
RTVSPost2010Prop35
280
     0
102
RTVSPost2010PropOp35
 70
     1
102
RTVSPost2010Prop36
280
     0
102
RTVSPost2010PropOp36
 70
     1
102
RTVSPost2010Prop37
 90
       50
102
RTVSPost2010PropOp37
 70
     1
102
RTVSPost2010Prop38
140
0.0
102
RTVSPost2010PropOp38
 70
     1
102
RTVSPost2010Prop39
140
1.0
102
RTVSPost2010PropOp39
 70
     1
102
RTVSPost2010Prop40
 90
        0
102
RTVSPost2010PropOp40
 70
     1
102
RTVSPost2010Prop41ColorIndex
 90
       18
102
RTVSPost2010Prop41ColorRGB
 90
        0
102
RTVSPost2010PropOp41
 70
     1
102
RTVSPost2010Prop42
 90
       50
102
RTVSPost2010PropOp42
 70
     1
102
RTVSPost2010Prop43
 90
        3
102
RTVSPost2010PropOp43
 70
     1
102
RTVSPost2010Prop44ColorIndex
 90
        5
102
RTVSPost2010Prop44ColorRGB
 90
      255
102
RTVSPost2010PropOp44
 70
     1
102
RTVSPost2010Prop45
280
     0
102
RTVSPost2010PropOp45
 70
     1
102
RTVSPost2010Prop46
 90
       50
102
RTVSPost2010PropOp46
 70
     1
102
RTVSPost2010Prop47
 90
       50
102
RTVSPost2010PropOp47
 70
     1
102
RTVSPost2010Prop48
 90
       50
102
RTVSPost2010PropOp48
 70
     1
102
RTVSPost2010Prop49
280
     0
102
RTVSPost2010PropOp49
 70
     1
102
RTVSPost2010Prop50
 90
       50
102
RTVSPost2010PropOp50
 70
     1
102
RTVSPost2010Prop51ColorIndex
 90
      256
102
RTVSPost2010Prop51ColorRGB
 90
-16777216
102
RTVSPost2010PropOp51
 70
     0
102
RTVSPost2010Prop52
140
1.0
102
RTVSPost2010PropOp52
 70
     0
102
RTVSPost2010Prop53
 90
        2
102
RTVSPost2010PropOp53
 70
     1
102
RTVSPost2010Prop54
  1
strokes_ogs.tif
102
RTVSPost2010PropOp54
 70
     1
102
RTVSPost2010Prop55
280
     0
102
RTVSPost2010PropOp55
 70
     1
102
RTVSPost2010Prop56
140
1.0
102
RTVSPost2010PropOp56
 70
     1
102
RTVSPost2010Prop57
140
1.0
102
RTVSPost2010PropOp57
 70
     1
  0
XRECORD
  5
1FC
102
{ACAD_REACTORS
330
1FB
102
}
330
1FB
100
AcDbXrecord
280
     1
102
RTVSPost2010Prop28
280
     0
102
RTVSPost2010PropOp28
 70
     1
102
RTVSPost2010Prop29
280
     1
102
RTVSPost2010PropOp29
 70
     1
102
RTVSPost2010Prop30
280
     1
102
RTVSPost2010PropOp30
 70
     1
102
RTVSPost2010Prop31
280
     0
102
RTVSPost2010PropOp31
 70
     1
102
RTVSPost2010Prop32
280
     0
102
RTVSPost2010PropOp32
 70
     1
102
RTVSPost2010Prop33
280
     0
102
RTVSPost2010PropOp33
 70
     1
102
RTVSPost2010Prop34
280
     0
102
RTVSPost2010PropOp34
 70
     1
102
RTVSPost2010Prop35
280
     0
102
RTVSPost2010PropOp35
 70
     1
102
RTVSPost2010Prop36
280
     0
102
RTVSPost2010PropOp36
 70
     1
102
RTVSPost2010Prop37
 90
       50
102
RTVSPost2010PropOp37
 70
     1
102
RTVSPost2010Prop38
140
0.0
102
RTVSPost2010PropOp38
 70
     1
102
RTVSPost2010Prop39
140
1.0
102
RTVSPost2010PropOp39
 70
     1
102
RTVSPost2010Prop40
 90
        0
102
RTVSPost2010PropOp40
 70
     1
102
RTVSPost2010Prop41ColorIndex
 90
       18
102
RTVSPost2010Prop41ColorRGB
 90
        0
102
RTVSPost2010PropOp41
 70
     1
102
RTVSPost2010Prop42
 90
       50
102
RTVSPost2010PropOp42
 70
     1
102
RTVSPost2010Prop43
 90
        3
102
RTVSPost2010PropOp43
 70
     1
102
RTVSPost2010Prop44ColorIndex
 90
        5
102
RTVSPost2010Prop44ColorRGB
 90
      255
102
RTVSPost2010PropOp44
 70
     1
102
RTVSPost2010Prop45
280
     0
102
RTVSPost2010PropOp45
 70
     1
102
RTVSPost2010Prop46
 90
       50
102
RTVSPost2010PropOp46
 70
     1
102
RTVSPost2010Prop47
 90
       50
102
RTVSPost2010PropOp47
 70
     1
102
RTVSPost2010Prop48
 90
       50
102
RTVSPost2010PropOp48
 70
     1
102
RTVSPost2010Prop49
280
     0
102
RTVSPost2010PropOp49
 70
     1
102
RTVSPost2010Prop50
 90
       50
102
RTVSPost2010PropOp50
 70
     1
102
RTVSPost2010Prop51ColorIndex
 90
      256
102
RTVSPost2010Prop51ColorRGB
 90
-16777216
102
RTVSPost2010PropOp51
 70
     0
102
RTVSPost2010Prop52
140
1.0
102
RTVSPost2010PropOp52
 70
     0
102
RTVSPost2010Prop53
 90
        2
102
RTVSPost2010PropOp53
 70
     1
102
RTVSPost2010Prop54
  1
strokes_ogs.tif
102
RTVSPost2010PropOp54
 70
     1
102
RTVSPost2010Prop55
280
     0
102
RTVSPost2010PropOp55
 70
     1
102
RTVSPost2010Prop56
140
1.0
102
RTVSPost2010PropOp56
 70
     1
102
RTVSPost2010Prop57
140
1.0
102
RTVSPost2010PropOp57
 70
     1
  0
XRECORD
  5
204
102
{ACAD_REACTORS
330
203
102
}
330
203
100
AcDbXrecord
280
     1
102
RTVSPost2010Prop28
280
     0
102
RTVSPost2010PropOp28
 70
     1
102
RTVSPost2010Prop29
280
     1
102
RTVSPost2010PropOp29
 70
     1
102
RTVSPost2010Prop30
280
     1
102
RTVSPost2010PropOp30
 70
     1
102
RTVSPost2010Prop31
280
     0
102
RTVSPost2010PropOp31
 70
     1
102
RTVSPost2010Prop32
280
     0
102
RTVSPost2010PropOp32
 70
     1
102
RTVSPost2010Prop33
280
     0
102
RTVSPost2010PropOp33
 70
     1
102
RTVSPost2010Prop34
280
     0
102
RTVSPost2010PropOp34
 70
     1
102
RTVSPost2010Prop35
280
     0
102
RTVSPost2010PropOp35
 70
     1
102
RTVSPost2010Prop36
280
     0
102
RTVSPost2010PropOp36
 70
     1
102
RTVSPost2010Prop37
 90
       50
102
RTVSPost2010PropOp37
 70
     1
102
RTVSPost2010Prop38
140
0.0
102
RTVSPost2010PropOp38
 70
     1
102
RTVSPost2010Prop39
140
1.0
102
RTVSPost2010PropOp39
 70
     1
102
RTVSPost2010Prop40
 90
        0
102
RTVSPost2010PropOp40
 70
     1
102
RTVSPost2010Prop41ColorIndex
 90
       18
102
RTVSPost2010Prop41ColorRGB
 90
        0
102
RTVSPost2010PropOp41
 70
     1
102
RTVSPost2010Prop42
 90
       50
102
RTVSPost2010PropOp42
 70
     1
102
RTVSPost2010Prop43
 90
        3
102
RTVSPost2010PropOp43
 70
     1
102
RTVSPost2010Prop44ColorIndex
 90
        5
102
RTVSPost2010Prop44ColorRGB
 90
      255
102
RTVSPost2010PropOp44
 70
     1
102
RTVSPost2010Prop45
280
     0
102
RTVSPost2010PropOp45
 70
     1
102
RTVSPost2010Prop46
 90
       50
102
RTVSPost2010PropOp46
 70
     1
102
RTVSPost2010Prop47
 90
       50
102
RTVSPost2010PropOp47
 70
     1
102
RTVSPost2010Prop48
 90
       50
102
RTVSPost2010PropOp48
 70
     1
102
RTVSPost2010Prop49
280
     0
102
RTVSPost2010PropOp49
 70
     1
102
RTVSPost2010Prop50
 90
       50
102
RTVSPost2010PropOp50
 70
     1
102
RTVSPost2010Prop51ColorIndex
 90
      256
102
RTVSPost2010Prop51ColorRGB
 90
-16777216
102
RTVSPost2010PropOp51
 70
     0
102
RTVSPost2010Prop52
140
1.0
102
RTVSPost2010PropOp52
 70
     0
102
RTVSPost2010Prop53
 90
        2
102
RTVSPost2010PropOp53
 70
     1
102
RTVSPost2010Prop54
  1
strokes_ogs.tif
102
RTVSPost2010PropOp54
 70
     1
102
RTVSPost2010Prop55
280
     0
102
RTVSPost2010PropOp55
 70
     1
102
RTVSPost2010Prop56
140
1.0
102
RTVSPost2010PropOp56
 70
     1
102
RTVSPost2010Prop57
140
1.0
102
RTVSPost2010PropOp57
 70
     1
  0
XRECORD
  5
1F8
102
{ACAD_REACTORS
330
1F7
102
}
330
1F7
100
AcDbXrecord
280
     1
102
RTVSPost2010Prop28
280
     0
102
RTVSPost2010PropOp28
 70
     1
102
RTVSPost2010Prop29
280
     1
102
RTVSPost2010PropOp29
 70
     1
102
RTVSPost2010Prop30
280
     1
102
RTVSPost2010PropOp30
 70
     1
102
RTVSPost2010Prop31
280
     0
102
RTVSPost2010PropOp31
 70
     1
102
RTVSPost2010Prop32
280
     0
102
RTVSPost2010PropOp32
 70
     1
102
RTVSPost2010Prop33
280
     0
102
RTVSPost2010PropOp33
 70
     1
102
RTVSPost2010Prop34
280
     0
102
RTVSPost2010PropOp34
 70
     1
102
RTVSPost2010Prop35
280
     0
102
RTVSPost2010PropOp35
 70
     1
102
RTVSPost2010Prop36
280
     0
102
RTVSPost2010PropOp36
 70
     1
102
RTVSPost2010Prop37
 90
       50
102
RTVSPost2010PropOp37
 70
     1
102
RTVSPost2010Prop38
140
0.0
102
RTVSPost2010PropOp38
 70
     1
102
RTVSPost2010Prop39
140
1.0
102
RTVSPost2010PropOp39
 70
     1
102
RTVSPost2010Prop40
 90
        0
102
RTVSPost2010PropOp40
 70
     1
102
RTVSPost2010Prop41ColorIndex
 90
       18
102
RTVSPost2010Prop41ColorRGB
 90
        0
102
RTVSPost2010PropOp41
 70
     1
102
RTVSPost2010Prop42
 90
       50
102
RTVSPost2010PropOp42
 70
     1
102
RTVSPost2010Prop43
 90
        3
102
RTVSPost2010PropOp43
 70
     1
102
RTVSPost2010Prop44ColorIndex
 90
        5
102
RTVSPost2010Prop44ColorRGB
 90
      255
102
RTVSPost2010PropOp44
 70
     1
102
RTVSPost2010Prop45
280
     0
102
RTVSPost2010PropOp45
 70
     1
102
RTVSPost2010Prop46
 90
       50
102
RTVSPost2010PropOp46
 70
     1
102
RTVSPost2010Prop47
 90
       50
102
RTVSPost2010PropOp47
 70
     1
102
RTVSPost2010Prop48
 90
       50
102
RTVSPost2010PropOp48
 70
     1
102
RTVSPost2010Prop49
280
     0
102
RTVSPost2010PropOp49
 70
     1
102
RTVSPost2010Prop50
 90
       50
102
RTVSPost2010PropOp50
 70
     1
102
RTVSPost2010Prop51ColorIndex
 90
      256
102
RTVSPost2010Prop51ColorRGB
 90
-16777216
102
RTVSPost2010PropOp51
 70
     0
102
RTVSPost2010Prop52
140
1.0
102
RTVSPost2010PropOp52
 70
     0
102
RTVSPost2010Prop53
 90
        2
102
RTVSPost2010PropOp53
 70
     1
102
RTVSPost2010Prop54
  1
strokes_ogs.tif
102
RTVSPost2010PropOp54
 70
     1
102
RTVSPost2010Prop55
280
     0
102
RTVSPost2010PropOp55
 70
     1
102
RTVSPost2010Prop56
140
1.0
102
RTVSPost2010PropOp56
 70
     1
102
RTVSPost2010Prop57
140
1.0
102
RTVSPost2010PropOp57
 70
     1
  0
XRECORD
  5
1FA
102
{ACAD_REACTORS
330
1F9
102
}
330
1F9
100
AcDbXrecord
280
     1
102
RTVSPost2010Prop28
280
     0
102
RTVSPost2010PropOp28
 70
     1
102
RTVSPost2010Prop29
280
     1
102
RTVSPost2010PropOp29
 70
     1
102
RTVSPost2010Prop30
280
     1
102
RTVSPost2010PropOp30
 70
     1
102
RTVSPost2010Prop31
280
     0
102
RTVSPost2010PropOp31
 70
     1
102
RTVSPost2010Prop32
280
     0
102
RTVSPost2010PropOp32
 70
     1
102
RTVSPost2010Prop33
280
     0
102
RTVSPost2010PropOp33
 70
     1
102
RTVSPost2010Prop34
280
     0
102
RTVSPost2010PropOp34
 70
     1
102
RTVSPost2010Prop35
280
     0
102
RTVSPost2010PropOp35
 70
     1
102
RTVSPost2010Prop36
280
     0
102
RTVSPost2010PropOp36
 70
     1
102
RTVSPost2010Prop37
 90
       50
102
RTVSPost2010PropOp37
 70
     1
102
RTVSPost2010Prop38
140
0.0
102
RTVSPost2010PropOp38
 70
     1
102
RTVSPost2010Prop39
140
1.0
102
RTVSPost2010PropOp39
 70
     1
102
RTVSPost2010Prop40
 90
        0
102
RTVSPost2010PropOp40
 70
     1
102
RTVSPost2010Prop41ColorIndex
 90
       18
102
RTVSPost2010Prop41ColorRGB
 90
        0
102
RTVSPost2010PropOp41
 70
     1
102
RTVSPost2010Prop42
 90
       50
102
RTVSPost2010PropOp42
 70
     1
102
RTVSPost2010Prop43
 90
        3
102
RTVSPost2010PropOp43
 70
     1
102
RTVSPost2010Prop44ColorIndex
 90
        5
102
RTVSPost2010Prop44ColorRGB
 90
      255
102
RTVSPost2010PropOp44
 70
     1
102
RTVSPost2010Prop45
280
     0
102
RTVSPost2010PropOp45
 70
     1
102
RTVSPost2010Prop46
 90
       50
102
RTVSPost2010PropOp46
 70
     1
102
RTVSPost2010Prop47
 90
       50
102
RTVSPost2010PropOp47
 70
     1
102
RTVSPost2010Prop48
 90
       50
102
RTVSPost2010PropOp48
 70
     1
102
RTVSPost2010Prop49
280
     0
102
RTVSPost2010PropOp49
 70
     1
102
RTVSPost2010Prop50
 90
       50
102
RTVSPost2010PropOp50
 70
     1
102
RTVSPost2010Prop51ColorIndex
 90
      256
102
RTVSPost2010Prop51ColorRGB
 90
-16777216
102
RTVSPost2010PropOp51
 70
     0
102
RTVSPost2010Prop52
140
1.0
102
RTVSPost2010PropOp52
 70
     0
102
RTVSPost2010Prop53
 90
        2
102
RTVSPost2010PropOp53
 70
     1
102
RTVSPost2010Prop54
  1
strokes_ogs.tif
102
RTVSPost2010PropOp54
 70
     1
102
RTVSPost2010Prop55
280
     0
102
RTVSPost2010PropOp55
 70
     1
102
RTVSPost2010Prop56
140
1.0
102
RTVSPost2010PropOp56
 70
     1
102
RTVSPost2010Prop57
140
1.0
102
RTVSPost2010PropOp57
 70
     1
  0
XRECORD
  5
20A
102
{ACAD_REACTORS
330
209
102
}
330
209
100
AcDbXrecord
280
     1
102
RTVSPost2010Prop28
280
     0
102
RTVSPost2010PropOp28
 70
     0
102
RTVSPost2010Prop29
280
     1
102
RTVSPost2010PropOp29
 70
     0
102
RTVSPost2010Prop30
280
     1
102
RTVSPost2010PropOp30
 70
     0
102
RTVSPost2010Prop31
280
     0
102
RTVSPost2010PropOp31
 70
     0
102
RTVSPost2010Prop32
280
     0
102
RTVSPost2010PropOp32
 70
     0
102
RTVSPost2010Prop33
280
     0
102
RTVSPost2010PropOp33
 70
     0
102
RTVSPost2010Prop34
280
     0
102
RTVSPost2010PropOp34
 70
     0
102
RTVSPost2010Prop35
280
     0
102
RTVSPost2010PropOp35
 70
     0
102
RTVSPost2010Prop36
280
     0
102
RTVSPost2010PropOp36
 70
     0
102
RTVSPost2010Prop37
 90
       50
102
RTVSPost2010PropOp37
 70
     0
102
RTVSPost2010Prop38
140
0.0
102
RTVSPost2010PropOp38
 70
     0
102
RTVSPost2010Prop39
140
1.0
102
RTVSPost2010PropOp39
 70
     0
102
RTVSPost2010Prop40
 90
        0
102
RTVSPost2010PropOp40
 70
     0
102
RTVSPost2010Prop41ColorIndex
 90
       18
102
RTVSPost2010Prop41ColorRGB
 90
        0
102
RTVSPost2010PropOp41
 70
     0
102
RTVSPost2010Prop42
 90
       50
102
RTVSPost2010PropOp42
 70
     0
102
RTVSPost2010Prop43
 90
        3
102
RTVSPost2010PropOp43
 70
     0
102
RTVSPost2010Prop44ColorIndex
 90
        5
102
RTVSPost2010Prop44ColorRGB
 90
      255
102
RTVSPost2010PropOp44
 70
     0
102
RTVSPost2010Prop45
280
     0
102
RTVSPost2010PropOp45
 70
     0
102
RTVSPost2010Prop46
 90
       50
102
RTVSPost2010PropOp46
 70
     0
102
RTVSPost2010Prop47
 90
       50
102
RTVSPost2010PropOp47
 70
     0
102
RTVSPost2010Prop48
 90
       50
102
RTVSPost2010PropOp48
 70
     0
102
RTVSPost2010Prop49
280
     0
102
RTVSPost2010PropOp49
 70
     0
102
RTVSPost2010Prop50
 90
       50
102
RTVSPost2010PropOp50
 70
     0
102
RTVSPost2010Prop51ColorIndex
 90
      256
102
RTVSPost2010Prop51ColorRGB
 90
-16777216
102
RTVSPost2010PropOp51
 70
     0
102
RTVSPost2010Prop52
140
1.0
102
RTVSPost2010PropOp52
 70
     0
102
RTVSPost2010Prop53
 90
        2
102
RTVSPost2010PropOp53
 70
     0
102
RTVSPost2010Prop54
  1
strokes_ogs.tif
102
RTVSPost2010PropOp54
 70
     0
102
RTVSPost2010Prop55
280
     0
102
RTVSPost2010PropOp55
 70
     0
102
RTVSPost2010Prop56
140
1.0
102
RTVSPost2010PropOp56
 70
     0
102
RTVSPost2010Prop57
140
1.0
102
RTVSPost2010PropOp57
 70
     0
  0
XRECORD
  5
202
102
{ACAD_REACTORS
330
201
102
}
330
201
100
AcDbXrecord
280
     1
102
RTVSPost2010Prop28
280
     0
102
RTVSPost2010PropOp28
 70
     1
102
RTVSPost2010Prop29
280
     1
102
RTVSPost2010PropOp29
 70
     1
102
RTVSPost2010Prop30
280
     1
102
RTVSPost2010PropOp30
 70
     1
102
RTVSPost2010Prop31
280
     0
102
RTVSPost2010PropOp31
 70
     1
102
RTVSPost2010Prop32
280
     0
102
RTVSPost2010PropOp32
 70
     1
102
RTVSPost2010Prop33
280
     0
102
RTVSPost2010PropOp33
 70
     1
102
RTVSPost2010Prop34
280
     0
102
RTVSPost2010PropOp34
 70
     1
102
RTVSPost2010Prop35
280
     0
102
RTVSPost2010PropOp35
 70
     1
102
RTVSPost2010Prop36
280
     0
102
RTVSPost2010PropOp36
 70
     1
102
RTVSPost2010Prop37
 90
       50
102
RTVSPost2010PropOp37
 70
     1
102
RTVSPost2010Prop38
140
0.0
102
RTVSPost2010PropOp38
 70
     1
102
RTVSPost2010Prop39
140
1.0
102
RTVSPost2010PropOp39
 70
     1
102
RTVSPost2010Prop40
 90
        0
102
RTVSPost2010PropOp40
 70
     1
102
RTVSPost2010Prop41ColorIndex
 90
       18
102
RTVSPost2010Prop41ColorRGB
 90
        0
102
RTVSPost2010PropOp41
 70
     1
102
RTVSPost2010Prop42
 90
       50
102
RTVSPost2010PropOp42
 70
     1
102
RTVSPost2010Prop43
 90
        3
102
RTVSPost2010PropOp43
 70
     1
102
RTVSPost2010Prop44ColorIndex
 90
        5
102
RTVSPost2010Prop44ColorRGB
 90
      255
102
RTVSPost2010PropOp44
 70
     1
102
RTVSPost2010Prop45
280
     0
102
RTVSPost2010PropOp45
 70
     1
102
RTVSPost2010Prop46
 90
       50
102
RTVSPost2010PropOp46
 70
     1
102
RTVSPost2010Prop47
 90
       50
102
RTVSPost2010PropOp47
 70
     1
102
RTVSPost2010Prop48
 90
       50
102
RTVSPost2010PropOp48
 70
     1
102
RTVSPost2010Prop49
280
     0
102
RTVSPost2010PropOp49
 70
     1
102
RTVSPost2010Prop50
 90
       50
102
RTVSPost2010PropOp50
 70
     1
102
RTVSPost2010Prop51ColorIndex
 90
      256
102
RTVSPost2010Prop51ColorRGB
 90
-16777216
102
RTVSPost2010PropOp51
 70
     0
102
RTVSPost2010Prop52
140
1.0
102
RTVSPost2010PropOp52
 70
     0
102
RTVSPost2010Prop53
 90
        2
102
RTVSPost2010PropOp53
 70
     1
102
RTVSPost2010Prop54
  1
strokes_ogs.tif
102
RTVSPost2010PropOp54
 70
     1
102
RTVSPost2010Prop55
280
     0
102
RTVSPost2010PropOp55
 70
     1
102
RTVSPost2010Prop56
140
1.0
102
RTVSPost2010PropOp56
 70
     1
102
RTVSPost2010Prop57
140
1.0
102
RTVSPost2010PropOp57
 70
     1
  0
XRECORD
  5
1E6
102
{ACAD_REACTORS
330
1E5
102
}
330
1E5
100
AcDbXrecord
280
     1
102
RTVSPost2010Prop28
280
     0
102
RTVSPost2010PropOp28
 70
     1
102
RTVSPost2010Prop29
280
     1
102
RTVSPost2010PropOp29
 70
     1
102
RTVSPost2010Prop30
280
     1
102
RTVSPost2010PropOp30
 70
     1
102
RTVSPost2010Prop31
280
     0
102
RTVSPost2010PropOp31
 70
     1
102
RTVSPost2010Prop32
280
     0
102
RTVSPost2010PropOp32
 70
     1
102
RTVSPost2010Prop33
280
     0
102
RTVSPost2010PropOp33
 70
     1
102
RTVSPost2010Prop34
280
     0
102
RTVSPost2010PropOp34
 70
     1
102
RTVSPost2010Prop35
280
     0
102
RTVSPost2010PropOp35
 70
     1
102
RTVSPost2010Prop36
280
     0
102
RTVSPost2010PropOp36
 70
     1
102
RTVSPost2010Prop37
 90
       50
102
RTVSPost2010PropOp37
 70
     1
102
RTVSPost2010Prop38
140
0.0
102
RTVSPost2010PropOp38
 70
     1
102
RTVSPost2010Prop39
140
1.0
102
RTVSPost2010PropOp39
 70
     1
102
RTVSPost2010Prop40
 90
        0
102
RTVSPost2010PropOp40
 70
     1
102
RTVSPost2010Prop41ColorIndex
 90
       18
102
RTVSPost2010Prop41ColorRGB
 90
        0
102
RTVSPost2010PropOp41
 70
     1
102
RTVSPost2010Prop42
 90
       50
102
RTVSPost2010PropOp42
 70
     1
102
RTVSPost2010Prop43
 90
        3
102
RTVSPost2010PropOp43
 70
     1
102
RTVSPost2010Prop44ColorIndex
 90
        5
102
RTVSPost2010Prop44ColorRGB
 90
      255
102
RTVSPost2010PropOp44
 70
     1
102
RTVSPost2010Prop45
280
     0
102
RTVSPost2010PropOp45
 70
     1
102
RTVSPost2010Prop46
 90
       50
102
RTVSPost2010PropOp46
 70
     1
102
RTVSPost2010Prop47
 90
       50
102
RTVSPost2010PropOp47
 70
     1
102
RTVSPost2010Prop48
 90
       50
102
RTVSPost2010PropOp48
 70
     1
102
RTVSPost2010Prop49
280
     0
102
RTVSPost2010PropOp49
 70
     1
102
RTVSPost2010Prop50
 90
       50
102
RTVSPost2010PropOp50
 70
     1
102
RTVSPost2010Prop51ColorIndex
 90
      256
102
RTVSPost2010Prop51ColorRGB
 90
-16777216
102
RTVSPost2010PropOp51
 70
     0
102
RTVSPost2010Prop52
140
1.0
102
RTVSPost2010PropOp52
 70
     0
102
RTVSPost2010Prop53
 90
        2
102
RTVSPost2010PropOp53
 70
     1
102
RTVSPost2010Prop54
  1
strokes_ogs.tif
102
RTVSPost2010PropOp54
 70
     1
102
RTVSPost2010Prop55
280
     0
102
RTVSPost2010PropOp55
 70
     1
102
RTVSPost2010Prop56
140
1.0
102
RTVSPost2010PropOp56
 70
     1
102
RTVSPost2010Prop57
140
1.0
102
RTVSPost2010PropOp57
 70
     1
  0
XRECORD
  5
1E8
102
{ACAD_REACTORS
330
1E7
102
}
330
1E7
100
AcDbXrecord
280
     1
102
RTVSPost2010Prop28
280
     0
102
RTVSPost2010PropOp28
 70
     1
102
RTVSPost2010Prop29
280
     1
102
RTVSPost2010PropOp29
 70
     1
102
RTVSPost2010Prop30
280
     1
102
RTVSPost2010PropOp30
 70
     1
102
RTVSPost2010Prop31
280
     0
102
RTVSPost2010PropOp31
 70
     1
102
RTVSPost2010Prop32
280
     0
102
RTVSPost2010PropOp32
 70
     1
102
RTVSPost2010Prop33
280
     0
102
RTVSPost2010PropOp33
 70
     1
102
RTVSPost2010Prop34
280
     0
102
RTVSPost2010PropOp34
 70
     1
102
RTVSPost2010Prop35
280
     0
102
RTVSPost2010PropOp35
 70
     1
102
RTVSPost2010Prop36
280
     0
102
RTVSPost2010PropOp36
 70
     1
102
RTVSPost2010Prop37
 90
       50
102
RTVSPost2010PropOp37
 70
     1
102
RTVSPost2010Prop38
140
0.0
102
RTVSPost2010PropOp38
 70
     1
102
RTVSPost2010Prop39
140
1.0
102
RTVSPost2010PropOp39
 70
     1
102
RTVSPost2010Prop40
 90
        0
102
RTVSPost2010PropOp40
 70
     1
102
RTVSPost2010Prop41ColorIndex
 90
       18
102
RTVSPost2010Prop41ColorRGB
 90
        0
102
RTVSPost2010PropOp41
 70
     1
102
RTVSPost2010Prop42
 90
       50
102
RTVSPost2010PropOp42
 70
     1
102
RTVSPost2010Prop43
 90
        3
102
RTVSPost2010PropOp43
 70
     1
102
RTVSPost2010Prop44ColorIndex
 90
        5
102
RTVSPost2010Prop44ColorRGB
 90
      255
102
RTVSPost2010PropOp44
 70
     1
102
RTVSPost2010Prop45
280
     0
102
RTVSPost2010PropOp45
 70
     1
102
RTVSPost2010Prop46
 90
       50
102
RTVSPost2010PropOp46
 70
     1
102
RTVSPost2010Prop47
 90
       50
102
RTVSPost2010PropOp47
 70
     1
102
RTVSPost2010Prop48
 90
       50
102
RTVSPost2010PropOp48
 70
     1
102
RTVSPost2010Prop49
280
     0
102
RTVSPost2010PropOp49
 70
     1
102
RTVSPost2010Prop50
 90
       50
102
RTVSPost2010PropOp50
 70
     1
102
RTVSPost2010Prop51ColorIndex
 90
      256
102
RTVSPost2010Prop51ColorRGB
 90
-16777216
102
RTVSPost2010PropOp51
 70
     0
102
RTVSPost2010Prop52
140
1.0
102
RTVSPost2010PropOp52
 70
     0
102
RTVSPost2010Prop53
 90
        2
102
RTVSPost2010PropOp53
 70
     1
102
RTVSPost2010Prop54
  1
strokes_ogs.tif
102
RTVSPost2010PropOp54
 70
     1
102
RTVSPost2010Prop55
280
     0
102
RTVSPost2010PropOp55
 70
     1
102
RTVSPost2010Prop56
140
1.0
102
RTVSPost2010PropOp56
 70
     1
102
RTVSPost2010Prop57
140
1.0
102
RTVSPost2010PropOp57
 70
     1
  0
XRECORD
  5
1EA
102
{ACAD_REACTORS
330
1E9
102
}
330
1E9
100
AcDbXrecord
280
     1
102
RTVSPost2010Prop28
280
     0
102
RTVSPost2010PropOp28
 70
     1
102
RTVSPost2010Prop29
280
     1
102
RTVSPost2010PropOp29
 70
     1
102
RTVSPost2010Prop30
280
     1
102
RTVSPost2010PropOp30
 70
     1
102
RTVSPost2010Prop31
280
     0
102
RTVSPost2010PropOp31
 70
     1
102
RTVSPost2010Prop32
280
     0
102
RTVSPost2010PropOp32
 70
     1
102
RTVSPost2010Prop33
280
     0
102
RTVSPost2010PropOp33
 70
     1
102
RTVSPost2010Prop34
280
     0
102
RTVSPost2010PropOp34
 70
     1
102
RTVSPost2010Prop35
280
     0
102
RTVSPost2010PropOp35
 70
     1
102
RTVSPost2010Prop36
280
     0
102
RTVSPost2010PropOp36
 70
     1
102
RTVSPost2010Prop37
 90
       50
102
RTVSPost2010PropOp37
 70
     1
102
RTVSPost2010Prop38
140
0.0
102
RTVSPost2010PropOp38
 70
     1
102
RTVSPost2010Prop39
140
1.0
102
RTVSPost2010PropOp39
 70
     1
102
RTVSPost2010Prop40
 90
        0
102
RTVSPost2010PropOp40
 70
     1
102
RTVSPost2010Prop41ColorIndex
 90
       18
102
RTVSPost2010Prop41ColorRGB
 90
        0
102
RTVSPost2010PropOp41
 70
     1
102
RTVSPost2010Prop42
 90
       50
102
RTVSPost2010PropOp42
 70
     1
102
RTVSPost2010Prop43
 90
        3
102
RTVSPost2010PropOp43
 70
     1
102
RTVSPost2010Prop44ColorIndex
 90
        5
102
RTVSPost2010Prop44ColorRGB
 90
      255
102
RTVSPost2010PropOp44
 70
     1
102
RTVSPost2010Prop45
280
     0
102
RTVSPost2010PropOp45
 70
     1
102
RTVSPost2010Prop46
 90
       50
102
RTVSPost2010PropOp46
 70
     1
102
RTVSPost2010Prop47
 90
       50
102
RTVSPost2010PropOp47
 70
     1
102
RTVSPost2010Prop48
 90
       50
102
RTVSPost2010PropOp48
 70
     1
102
RTVSPost2010Prop49
280
     0
102
RTVSPost2010PropOp49
 70
     1
102
RTVSPost2010Prop50
 90
       50
102
RTVSPost2010PropOp50
 70
     1
102
RTVSPost2010Prop51ColorIndex
 90
      256
102
RTVSPost2010Prop51ColorRGB
 90
-16777216
102
RTVSPost2010PropOp51
 70
     0
102
RTVSPost2010Prop52
140
1.0
102
RTVSPost2010PropOp52
 70
     0
102
RTVSPost2010Prop53
 90
        2
102
RTVSPost2010PropOp53
 70
     1
102
RTVSPost2010Prop54
  1
strokes_ogs.tif
102
RTVSPost2010PropOp54
 70
     1
102
RTVSPost2010Prop55
280
     0
102
RTVSPost2010PropOp55
 70
     1
102
RTVSPost2010Prop56
140
1.0
102
RTVSPost2010PropOp56
 70
     1
102
RTVSPost2010Prop57
140
1.0
102
RTVSPost2010PropOp57
 70
     1
  0
XRECORD
  5
1EC
102
{ACAD_REACTORS
330
1EB
102
}
330
1EB
100
AcDbXrecord
280
     1
102
RTVSPost2010Prop28
280
     0
102
RTVSPost2010PropOp28
 70
     1
102
RTVSPost2010Prop29
280
     1
102
RTVSPost2010PropOp29
 70
     1
102
RTVSPost2010Prop30
280
     1
102
RTVSPost2010PropOp30
 70
     1
102
RTVSPost2010Prop31
280
     0
102
RTVSPost2010PropOp31
 70
     1
102
RTVSPost2010Prop32
280
     0
102
RTVSPost2010PropOp32
 70
     1
102
RTVSPost2010Prop33
280
     0
102
RTVSPost2010PropOp33
 70
     1
102
RTVSPost2010Prop34
280
     0
102
RTVSPost2010PropOp34
 70
     1
102
RTVSPost2010Prop35
280
     0
102
RTVSPost2010PropOp35
 70
     1
102
RTVSPost2010Prop36
280
     0
102
RTVSPost2010PropOp36
 70
     1
102
RTVSPost2010Prop37
 90
       50
102
RTVSPost2010PropOp37
 70
     1
102
RTVSPost2010Prop38
140
0.0
102
RTVSPost2010PropOp38
 70
     1
102
RTVSPost2010Prop39
140
1.0
102
RTVSPost2010PropOp39
 70
     1
102
RTVSPost2010Prop40
 90
        0
102
RTVSPost2010PropOp40
 70
     1
102
RTVSPost2010Prop41ColorIndex
 90
       18
102
RTVSPost2010Prop41ColorRGB
 90
        0
102
RTVSPost2010PropOp41
 70
     1
102
RTVSPost2010Prop42
 90
       50
102
RTVSPost2010PropOp42
 70
     1
102
RTVSPost2010Prop43
 90
        3
102
RTVSPost2010PropOp43
 70
     1
102
RTVSPost2010Prop44ColorIndex
 90
        5
102
RTVSPost2010Prop44ColorRGB
 90
      255
102
RTVSPost2010PropOp44
 70
     1
102
RTVSPost2010Prop45
280
     0
102
RTVSPost2010PropOp45
 70
     1
102
RTVSPost2010Prop46
 90
       50
102
RTVSPost2010PropOp46
 70
     1
102
RTVSPost2010Prop47
 90
       50
102
RTVSPost2010PropOp47
 70
     1
102
RTVSPost2010Prop48
 90
       50
102
RTVSPost2010PropOp48
 70
     1
102
RTVSPost2010Prop49
280
     0
102
RTVSPost2010PropOp49
 70
     1
102
RTVSPost2010Prop50
 90
       50
102
RTVSPost2010PropOp50
 70
     1
102
RTVSPost2010Prop51ColorIndex
 90
      256
102
RTVSPost2010Prop51ColorRGB
 90
-16777216
102
RTVSPost2010PropOp51
 70
     0
102
RTVSPost2010Prop52
140
1.0
102
RTVSPost2010PropOp52
 70
     0
102
RTVSPost2010Prop53
 90
        2
102
RTVSPost2010PropOp53
 70
     1
102
RTVSPost2010Prop54
  1
strokes_ogs.tif
102
RTVSPost2010PropOp54
 70
     1
102
RTVSPost2010Prop55
280
     0
102
RTVSPost2010PropOp55
 70
     1
102
RTVSPost2010Prop56
140
1.0
102
RTVSPost2010PropOp56
 70
     1
102
RTVSPost2010Prop57
140
1.0
102
RTVSPost2010PropOp57
 70
     1
  0
XRECORD
  5
1F2
102
{ACAD_REACTORS
330
1F1
102
}
330
1F1
100
AcDbXrecord
280
     1
102
RTVSPost2010Prop28
280
     0
102
RTVSPost2010PropOp28
 70
     1
102
RTVSPost2010Prop29
280
     1
102
RTVSPost2010PropOp29
 70
     1
102
RTVSPost2010Prop30
280
     1
102
RTVSPost2010PropOp30
 70
     1
102
RTVSPost2010Prop31
280
     0
102
RTVSPost2010PropOp31
 70
     1
102
RTVSPost2010Prop32
280
     0
102
RTVSPost2010PropOp32
 70
     1
102
RTVSPost2010Prop33
280
     0
102
RTVSPost2010PropOp33
 70
     1
102
RTVSPost2010Prop34
280
     0
102
RTVSPost2010PropOp34
 70
     1
102
RTVSPost2010Prop35
280
     0
102
RTVSPost2010PropOp35
 70
     1
102
RTVSPost2010Prop36
280
     0
102
RTVSPost2010PropOp36
 70
     1
102
RTVSPost2010Prop37
 90
       50
102
RTVSPost2010PropOp37
 70
     1
102
RTVSPost2010Prop38
140
0.0
102
RTVSPost2010PropOp38
 70
     1
102
RTVSPost2010Prop39
140
1.0
102
RTVSPost2010PropOp39
 70
     1
102
RTVSPost2010Prop40
 90
        0
102
RTVSPost2010PropOp40
 70
     1
102
RTVSPost2010Prop41ColorIndex
 90
       18
102
RTVSPost2010Prop41ColorRGB
 90
        0
102
RTVSPost2010PropOp41
 70
     1
102
RTVSPost2010Prop42
 90
       50
102
RTVSPost2010PropOp42
 70
     1
102
RTVSPost2010Prop43
 90
        3
102
RTVSPost2010PropOp43
 70
     1
102
RTVSPost2010Prop44ColorIndex
 90
        5
102
RTVSPost2010Prop44ColorRGB
 90
      255
102
RTVSPost2010PropOp44
 70
     1
102
RTVSPost2010Prop45
280
     0
102
RTVSPost2010PropOp45
 70
     1
102
RTVSPost2010Prop46
 90
       50
102
RTVSPost2010PropOp46
 70
     1
102
RTVSPost2010Prop47
 90
       50
102
RTVSPost2010PropOp47
 70
     1
102
RTVSPost2010Prop48
 90
       50
102
RTVSPost2010PropOp48
 70
     1
102
RTVSPost2010Prop49
280
     0
102
RTVSPost2010PropOp49
 70
     1
102
RTVSPost2010Prop50
 90
       50
102
RTVSPost2010PropOp50
 70
     1
102
RTVSPost2010Prop51ColorIndex
 90
      256
102
RTVSPost2010Prop51ColorRGB
 90
-16777216
102
RTVSPost2010PropOp51
 70
     0
102
RTVSPost2010Prop52
140
1.0
102
RTVSPost2010PropOp52
 70
     0
102
RTVSPost2010Prop53
 90
        2
102
RTVSPost2010PropOp53
 70
     1
102
RTVSPost2010Prop54
  1
strokes_ogs.tif
102
RTVSPost2010PropOp54
 70
     1
102
RTVSPost2010Prop55
280
     0
102
RTVSPost2010PropOp55
 70
     1
102
RTVSPost2010Prop56
140
1.0
102
RTVSPost2010PropOp56
 70
     1
102
RTVSPost2010Prop57
140
1.0
102
RTVSPost2010PropOp57
 70
     1
  0
XRECORD
  5
206
102
{ACAD_REACTORS
330
205
102
}
330
205
100
AcDbXrecord
280
     1
102
RTVSPost2010Prop28
280
     0
102
RTVSPost2010PropOp28
 70
     0
102
RTVSPost2010Prop29
280
     1
102
RTVSPost2010PropOp29
 70
     0
102
RTVSPost2010Prop30
280
     1
102
RTVSPost2010PropOp30
 70
     0
102
RTVSPost2010Prop31
280
     0
102
RTVSPost2010PropOp31
 70
     0
102
RTVSPost2010Prop32
280
     0
102
RTVSPost2010PropOp32
 70
     0
102
RTVSPost2010Prop33
280
     0
102
RTVSPost2010PropOp33
 70
     0
102
RTVSPost2010Prop34
280
     0
102
RTVSPost2010PropOp34
 70
     0
102
RTVSPost2010Prop35
280
     0
102
RTVSPost2010PropOp35
 70
     0
102
RTVSPost2010Prop36
280
     0
102
RTVSPost2010PropOp36
 70
     0
102
RTVSPost2010Prop37
 90
       50
102
RTVSPost2010PropOp37
 70
     0
102
RTVSPost2010Prop38
140
0.0
102
RTVSPost2010PropOp38
 70
     0
102
RTVSPost2010Prop39
140
1.0
102
RTVSPost2010PropOp39
 70
     0
102
RTVSPost2010Prop40
 90
        0
102
RTVSPost2010PropOp40
 70
     0
102
RTVSPost2010Prop41ColorIndex
 90
       18
102
RTVSPost2010Prop41ColorRGB
 90
        0
102
RTVSPost2010PropOp41
 70
     0
102
RTVSPost2010Prop42
 90
       50
102
RTVSPost2010PropOp42
 70
     0
102
RTVSPost2010Prop43
 90
        3
102
RTVSPost2010PropOp43
 70
     0
102
RTVSPost2010Prop44ColorIndex
 90
        5
102
RTVSPost2010Prop44ColorRGB
 90
      255
102
RTVSPost2010PropOp44
 70
     0
102
RTVSPost2010Prop45
280
     0
102
RTVSPost2010PropOp45
 70
     0
102
RTVSPost2010Prop46
 90
       50
102
RTVSPost2010PropOp46
 70
     0
102
RTVSPost2010Prop47
 90
       50
102
RTVSPost2010PropOp47
 70
     0
102
RTVSPost2010Prop48
 90
       50
102
RTVSPost2010PropOp48
 70
     0
102
RTVSPost2010Prop49
280
     0
102
RTVSPost2010PropOp49
 70
     0
102
RTVSPost2010Prop50
 90
       50
102
RTVSPost2010PropOp50
 70
     0
102
RTVSPost2010Prop51ColorIndex
 90
      256
102
RTVSPost2010Prop51ColorRGB
 90
-16777216
102
RTVSPost2010PropOp51
 70
     0
102
RTVSPost2010Prop52
140
1.0
102
RTVSPost2010PropOp52
 70
     0
102
RTVSPost2010Prop53
 90
        2
102
RTVSPost2010PropOp53
 70
     0
102
RTVSPost2010Prop54
  1
strokes_ogs.tif
102
RTVSPost2010PropOp54
 70
     0
102
RTVSPost2010Prop55
280
     0
102
RTVSPost2010PropOp55
 70
     0
102
RTVSPost2010Prop56
140
1.0
102
RTVSPost2010PropOp56
 70
     0
102
RTVSPost2010Prop57
140
1.0
102
RTVSPost2010PropOp57
 70
     0
  0
XRECORD
  5
200
102
{ACAD_REACTORS
330
1FF
102
}
330
1FF
100
AcDbXrecord
280
     1
102
RTVSPost2010Prop28
280
     0
102
RTVSPost2010PropOp28
 70
     1
102
RTVSPost2010Prop29
280
     1
102
RTVSPost2010PropOp29
 70
     1
102
RTVSPost2010Prop30
280
     1
102
RTVSPost2010PropOp30
 70
     1
102
RTVSPost2010Prop31
280
     0
102
RTVSPost2010PropOp31
 70
     1
102
RTVSPost2010Prop32
280
     0
102
RTVSPost2010PropOp32
 70
     1
102
RTVSPost2010Prop33
280
     0
102
RTVSPost2010PropOp33
 70
     1
102
RTVSPost2010Prop34
280
     0
102
RTVSPost2010PropOp34
 70
     1
102
RTVSPost2010Prop35
280
     0
102
RTVSPost2010PropOp35
 70
     1
102
RTVSPost2010Prop36
280
     0
102
RTVSPost2010PropOp36
 70
     1
102
RTVSPost2010Prop37
 90
       50
102
RTVSPost2010PropOp37
 70
     1
102
RTVSPost2010Prop38
140
0.0
102
RTVSPost2010PropOp38
 70
     1
102
RTVSPost2010Prop39
140
1.0
102
RTVSPost2010PropOp39
 70
     1
102
RTVSPost2010Prop40
 90
        0
102
RTVSPost2010PropOp40
 70
     1
102
RTVSPost2010Prop41ColorIndex
 90
       18
102
RTVSPost2010Prop41ColorRGB
 90
        0
102
RTVSPost2010PropOp41
 70
     1
102
RTVSPost2010Prop42
 90
       50
102
RTVSPost2010PropOp42
 70
     1
102
RTVSPost2010Prop43
 90
        3
102
RTVSPost2010PropOp43
 70
     1
102
RTVSPost2010Prop44ColorIndex
 90
        5
102
RTVSPost2010Prop44ColorRGB
 90
      255
102
RTVSPost2010PropOp44
 70
     1
102
RTVSPost2010Prop45
280
     0
102
RTVSPost2010PropOp45
 70
     1
102
RTVSPost2010Prop46
 90
       50
102
RTVSPost2010PropOp46
 70
     1
102
RTVSPost2010Prop47
 90
       50
102
RTVSPost2010PropOp47
 70
     1
102
RTVSPost2010Prop48
 90
       50
102
RTVSPost2010PropOp48
 70
     1
102
RTVSPost2010Prop49
280
     0
102
RTVSPost2010PropOp49
 70
     1
102
RTVSPost2010Prop50
 90
       50
102
RTVSPost2010PropOp50
 70
     1
102
RTVSPost2010Prop51ColorIndex
 90
      256
102
RTVSPost2010Prop51ColorRGB
 90
-16777216
102
RTVSPost2010PropOp51
 70
     0
102
RTVSPost2010Prop52
140
1.0
102
RTVSPost2010PropOp52
 70
     0
102
RTVSPost2010Prop53
 90
        2
102
RTVSPost2010PropOp53
 70
     1
102
RTVSPost2010Prop54
  1
strokes_ogs.tif
102
RTVSPost2010PropOp54
 70
     1
102
RTVSPost2010Prop55
280
     0
102
RTVSPost2010PropOp55
 70
     1
102
RTVSPost2010Prop56
140
1.0
102
RTVSPost2010PropOp56
 70
     1
102
RTVSPost2010Prop57
140
1.0
102
RTVSPost2010PropOp57
 70
     1
  0
XRECORD
  5
208
102
{ACAD_REACTORS
330
207
102
}
330
207
100
AcDbXrecord
280
     1
102
RTVSPost2010Prop28
280
     0
102
RTVSPost2010PropOp28
 70
     0
102
RTVSPost2010Prop29
280
     1
102
RTVSPost2010PropOp29
 70
     0
102
RTVSPost2010Prop30
280
     1
102
RTVSPost2010PropOp30
 70
     0
102
RTVSPost2010Prop31
280
     0
102
RTVSPost2010PropOp31
 70
     0
102
RTVSPost2010Prop32
280
     0
102
RTVSPost2010PropOp32
 70
     0
102
RTVSPost2010Prop33
280
     0
102
RTVSPost2010PropOp33
 70
     0
102
RTVSPost2010Prop34
280
     0
102
RTVSPost2010PropOp34
 70
     0
102
RTVSPost2010Prop35
280
     0
102
RTVSPost2010PropOp35
 70
     0
102
RTVSPost2010Prop36
280
     0
102
RTVSPost2010PropOp36
 70
     0
102
RTVSPost2010Prop37
 90
       50
102
RTVSPost2010PropOp37
 70
     0
102
RTVSPost2010Prop38
140
0.0
102
RTVSPost2010PropOp38
 70
     0
102
RTVSPost2010Prop39
140
1.0
102
RTVSPost2010PropOp39
 70
     0
102
RTVSPost2010Prop40
 90
        0
102
RTVSPost2010PropOp40
 70
     0
102
RTVSPost2010Prop41ColorIndex
 90
       18
102
RTVSPost2010Prop41ColorRGB
 90
        0
102
RTVSPost2010PropOp41
 70
     0
102
RTVSPost2010Prop42
 90
       50
102
RTVSPost2010PropOp42
 70
     0
102
RTVSPost2010Prop43
 90
        3
102
RTVSPost2010PropOp43
 70
     0
102
RTVSPost2010Prop44ColorIndex
 90
        5
102
RTVSPost2010Prop44ColorRGB
 90
      255
102
RTVSPost2010PropOp44
 70
     0
102
RTVSPost2010Prop45
280
     0
102
RTVSPost2010PropOp45
 70
     0
102
RTVSPost2010Prop46
 90
       50
102
RTVSPost2010PropOp46
 70
     0
102
RTVSPost2010Prop47
 90
       50
102
RTVSPost2010PropOp47
 70
     0
102
RTVSPost2010Prop48
 90
       50
102
RTVSPost2010PropOp48
 70
     0
102
RTVSPost2010Prop49
280
     0
102
RTVSPost2010PropOp49
 70
     0
102
RTVSPost2010Prop50
 90
       50
102
RTVSPost2010PropOp50
 70
     0
102
RTVSPost2010Prop51ColorIndex
 90
      256
102
RTVSPost2010Prop51ColorRGB
 90
-16777216
102
RTVSPost2010PropOp51
 70
     0
102
RTVSPost2010Prop52
140
1.0
102
RTVSPost2010PropOp52
 70
     0
102
RTVSPost2010Prop53
 90
        2
102
RTVSPost2010PropOp53
 70
     0
102
RTVSPost2010Prop54
  1
strokes_ogs.tif
102
RTVSPost2010PropOp54
 70
     0
102
RTVSPost2010Prop55
280
     0
102
RTVSPost2010PropOp55
 70
     0
102
RTVSPost2010Prop56
140
1.0
102
RTVSPost2010PropOp56
 70
     0
102
RTVSPost2010Prop57
140
1.0
102
RTVSPost2010PropOp57
 70
     0
  0
XRECORD
  5
1F6
102
{ACAD_REACTORS
330
1F5
102
}
330
1F5
100
AcDbXrecord
280
     1
102
RTVSPost2010Prop28
280
     0
102
RTVSPost2010PropOp28
 70
     1
102
RTVSPost2010Prop29
280
     1
102
RTVSPost2010PropOp29
 70
     1
102
RTVSPost2010Prop30
280
     1
102
RTVSPost2010PropOp30
 70
     1
102
RTVSPost2010Prop31
280
     0
102
RTVSPost2010PropOp31
 70
     1
102
RTVSPost2010Prop32
280
     0
102
RTVSPost2010PropOp32
 70
     1
102
RTVSPost2010Prop33
280
     0
102
RTVSPost2010PropOp33
 70
     1
102
RTVSPost2010Prop34
280
     0
102
RTVSPost2010PropOp34
 70
     1
102
RTVSPost2010Prop35
280
     0
102
RTVSPost2010PropOp35
 70
     1
102
RTVSPost2010Prop36
280
     0
102
RTVSPost2010PropOp36
 70
     1
102
RTVSPost2010Prop37
 90
       50
102
RTVSPost2010PropOp37
 70
     1
102
RTVSPost2010Prop38
140
0.0
102
RTVSPost2010PropOp38
 70
     1
102
RTVSPost2010Prop39
140
1.0
102
RTVSPost2010PropOp39
 70
     1
102
RTVSPost2010Prop40
 90
        0
102
RTVSPost2010PropOp40
 70
     1
102
RTVSPost2010Prop41ColorIndex
 90
       18
102
RTVSPost2010Prop41ColorRGB
 90
        0
102
RTVSPost2010PropOp41
 70
     1
102
RTVSPost2010Prop42
 90
       50
102
RTVSPost2010PropOp42
 70
     1
102
RTVSPost2010Prop43
 90
        3
102
RTVSPost2010PropOp43
 70
     1
102
RTVSPost2010Prop44ColorIndex
 90
        5
102
RTVSPost2010Prop44ColorRGB
 90
      255
102
RTVSPost2010PropOp44
 70
     1
102
RTVSPost2010Prop45
280
     0
102
RTVSPost2010PropOp45
 70
     1
102
RTVSPost2010Prop46
 90
       50
102
RTVSPost2010PropOp46
 70
     1
102
RTVSPost2010Prop47
 90
       50
102
RTVSPost2010PropOp47
 70
     1
102
RTVSPost2010Prop48
 90
       50
102
RTVSPost2010PropOp48
 70
     1
102
RTVSPost2010Prop49
280
     0
102
RTVSPost2010PropOp49
 70
     1
102
RTVSPost2010Prop50
 90
       50
102
RTVSPost2010PropOp50
 70
     1
102
RTVSPost2010Prop51ColorIndex
 90
      256
102
RTVSPost2010Prop51ColorRGB
 90
-16777216
102
RTVSPost2010PropOp51
 70
     0
102
RTVSPost2010Prop52
140
1.0
102
RTVSPost2010PropOp52
 70
     0
102
RTVSPost2010Prop53
 90
        2
102
RTVSPost2010PropOp53
 70
     1
102
RTVSPost2010Prop54
  1
strokes_ogs.tif
102
RTVSPost2010PropOp54
 70
     1
102
RTVSPost2010Prop55
280
     0
102
RTVSPost2010PropOp55
 70
     1
102
RTVSPost2010Prop56
140
1.0
102
RTVSPost2010PropOp56
 70
     1
102
RTVSPost2010Prop57
140
1.0
102
RTVSPost2010PropOp57
 70
     1
  0
XRECORD
  5
214
102
{ACAD_REACTORS
330
213
102
}
330
213
100
AcDbXrecord
280
     1
102
RTVSPost2010Prop28
280
     0
102
RTVSPost2010PropOp28
 70
     1
102
RTVSPost2010Prop29
280
     1
102
RTVSPost2010PropOp29
 70
     1
102
RTVSPost2010Prop30
280
     1
102
RTVSPost2010PropOp30
 70
     1
102
RTVSPost2010Prop31
280
     0
102
RTVSPost2010PropOp31
 70
     1
102
RTVSPost2010Prop32
280
     0
102
RTVSPost2010PropOp32
 70
     1
102
RTVSPost2010Prop33
280
     0
102
RTVSPost2010PropOp33
 70
     1
102
RTVSPost2010Prop34
280
     0
102
RTVSPost2010PropOp34
 70
     1
102
RTVSPost2010Prop35
280
     0
102
RTVSPost2010PropOp35
 70
     1
102
RTVSPost2010Prop36
280
     0
102
RTVSPost2010PropOp36
 70
     1
102
RTVSPost2010Prop37
 90
       50
102
RTVSPost2010PropOp37
 70
     1
102
RTVSPost2010Prop38
140
0.0
102
RTVSPost2010PropOp38
 70
     1
102
RTVSPost2010Prop39
140
1.0
102
RTVSPost2010PropOp39
 70
     1
102
RTVSPost2010Prop40
 90
        0
102
RTVSPost2010PropOp40
 70
     1
102
RTVSPost2010Prop41ColorIndex
 90
       18
102
RTVSPost2010Prop41ColorRGB
 90
        0
102
RTVSPost2010PropOp41
 70
     1
102
RTVSPost2010Prop42
 90
       50
102
RTVSPost2010PropOp42
 70
     1
102
RTVSPost2010Prop43
 90
        3
102
RTVSPost2010PropOp43
 70
     1
102
RTVSPost2010Prop44ColorIndex
 90
        5
102
RTVSPost2010Prop44ColorRGB
 90
      255
102
RTVSPost2010PropOp44
 70
     1
102
RTVSPost2010Prop45
280
     0
102
RTVSPost2010PropOp45
 70
     1
102
RTVSPost2010Prop46
 90
       50
102
RTVSPost2010PropOp46
 70
     1
102
RTVSPost2010Prop47
 90
       50
102
RTVSPost2010PropOp47
 70
     1
102
RTVSPost2010Prop48
 90
       50
102
RTVSPost2010PropOp48
 70
     1
102
RTVSPost2010Prop49
280
     0
102
RTVSPost2010PropOp49
 70
     1
102
RTVSPost2010Prop50
 90
       50
102
RTVSPost2010PropOp50
 70
     1
102
RTVSPost2010Prop51ColorIndex
 90
      256
102
RTVSPost2010Prop51ColorRGB
 90
-16777216
102
RTVSPost2010PropOp51
 70
     0
102
RTVSPost2010Prop52
140
1.0
102
RTVSPost2010PropOp52
 70
     0
102
RTVSPost2010Prop53
 90
        2
102
RTVSPost2010PropOp53
 70
     1
102
RTVSPost2010Prop54
  1
strokes_ogs.tif
102
RTVSPost2010PropOp54
 70
     1
102
RTVSPost2010Prop55
280
     0
102
RTVSPost2010PropOp55
 70
     1
102
RTVSPost2010Prop56
140
1.0
102
RTVSPost2010PropOp56
 70
     1
102
RTVSPost2010Prop57
140
1.0
102
RTVSPost2010PropOp57
 70
     1
  0
XRECORD
  5
212
102
{ACAD_REACTORS
330
211
102
}
330
211
100
AcDbXrecord
280
     1
102
RTVSPost2010Prop28
280
     0
102
RTVSPost2010PropOp28
 70
     1
102
RTVSPost2010Prop29
280
     1
102
RTVSPost2010PropOp29
 70
     1
102
RTVSPost2010Prop30
280
     1
102
RTVSPost2010PropOp30
 70
     1
102
RTVSPost2010Prop31
280
     0
102
RTVSPost2010PropOp31
 70
     1
102
RTVSPost2010Prop32
280
     0
102
RTVSPost2010PropOp32
 70
     1
102
RTVSPost2010Prop33
280
     0
102
RTVSPost2010PropOp33
 70
     1
102
RTVSPost2010Prop34
280
     0
102
RTVSPost2010PropOp34
 70
     1
102
RTVSPost2010Prop35
280
     0
102
RTVSPost2010PropOp35
 70
     1
102
RTVSPost2010Prop36
280
     0
102
RTVSPost2010PropOp36
 70
     1
102
RTVSPost2010Prop37
 90
       50
102
RTVSPost2010PropOp37
 70
     1
102
RTVSPost2010Prop38
140
0.0
102
RTVSPost2010PropOp38
 70
     1
102
RTVSPost2010Prop39
140
1.0
102
RTVSPost2010PropOp39
 70
     1
102
RTVSPost2010Prop40
 90
        0
102
RTVSPost2010PropOp40
 70
     1
102
RTVSPost2010Prop41ColorIndex
 90
       18
102
RTVSPost2010Prop41ColorRGB
 90
        0
102
RTVSPost2010PropOp41
 70
     1
102
RTVSPost2010Prop42
 90
       50
102
RTVSPost2010PropOp42
 70
     1
102
RTVSPost2010Prop43
 90
        3
102
RTVSPost2010PropOp43
 70
     1
102
RTVSPost2010Prop44ColorIndex
 90
        5
102
RTVSPost2010Prop44ColorRGB
 90
      255
102
RTVSPost2010PropOp44
 70
     1
102
RTVSPost2010Prop45
280
     0
102
RTVSPost2010PropOp45
 70
     1
102
RTVSPost2010Prop46
 90
       50
102
RTVSPost2010PropOp46
 70
     1
102
RTVSPost2010Prop47
 90
       50
102
RTVSPost2010PropOp47
 70
     1
102
RTVSPost2010Prop48
 90
       50
102
RTVSPost2010PropOp48
 70
     1
102
RTVSPost2010Prop49
280
     0
102
RTVSPost2010PropOp49
 70
     1
102
RTVSPost2010Prop50
 90
       50
102
RTVSPost2010PropOp50
 70
     1
102
RTVSPost2010Prop51ColorIndex
 90
      256
102
RTVSPost2010Prop51ColorRGB
 90
-16777216
102
RTVSPost2010PropOp51
 70
     0
102
RTVSPost2010Prop52
140
1.0
102
RTVSPost2010PropOp52
 70
     0
102
RTVSPost2010Prop53
 90
        2
102
RTVSPost2010PropOp53
 70
     1
102
RTVSPost2010Prop54
  1
strokes_ogs.tif
102
RTVSPost2010PropOp54
 70
     1
102
RTVSPost2010Prop55
280
     0
102
RTVSPost2010PropOp55
 70
     1
102
RTVSPost2010Prop56
140
1.0
102
RTVSPost2010PropOp56
 70
     1
102
RTVSPost2010Prop57
140
1.0
102
RTVSPost2010PropOp57
 70
     1
  0
XRECORD
  5
20C
102
{ACAD_REACTORS
330
20B
102
}
330
20B
100
AcDbXrecord
280
     1
102
RTVSPost2010Prop28
280
     0
102
RTVSPost2010PropOp28
 70
     1
102
RTVSPost2010Prop29
280
     1
102
RTVSPost2010PropOp29
 70
     1
102
RTVSPost2010Prop30
280
     1
102
RTVSPost2010PropOp30
 70
     1
102
RTVSPost2010Prop31
280
     0
102
RTVSPost2010PropOp31
 70
     1
102
RTVSPost2010Prop32
280
     0
102
RTVSPost2010PropOp32
 70
     1
102
RTVSPost2010Prop33
280
     0
102
RTVSPost2010PropOp33
 70
     1
102
RTVSPost2010Prop34
280
     0
102
RTVSPost2010PropOp34
 70
     1
102
RTVSPost2010Prop35
280
     0
102
RTVSPost2010PropOp35
 70
     1
102
RTVSPost2010Prop36
280
     0
102
RTVSPost2010PropOp36
 70
     1
102
RTVSPost2010Prop37
 90
       50
102
RTVSPost2010PropOp37
 70
     1
102
RTVSPost2010Prop38
140
0.0
102
RTVSPost2010PropOp38
 70
     1
102
RTVSPost2010Prop39
140
1.0
102
RTVSPost2010PropOp39
 70
     1
102
RTVSPost2010Prop40
 90
        0
102
RTVSPost2010PropOp40
 70
     1
102
RTVSPost2010Prop41ColorIndex
 90
       18
102
RTVSPost2010Prop41ColorRGB
 90
        0
102
RTVSPost2010PropOp41
 70
     1
102
RTVSPost2010Prop42
 90
       50
102
RTVSPost2010PropOp42
 70
     1
102
RTVSPost2010Prop43
 90
        3
102
RTVSPost2010PropOp43
 70
     1
102
RTVSPost2010Prop44ColorIndex
 90
        5
102
RTVSPost2010Prop44ColorRGB
 90
      255
102
RTVSPost2010PropOp44
 70
     1
102
RTVSPost2010Prop45
280
     0
102
RTVSPost2010PropOp45
 70
     1
102
RTVSPost2010Prop46
 90
       50
102
RTVSPost2010PropOp46
 70
     1
102
RTVSPost2010Prop47
 90
       50
102
RTVSPost2010PropOp47
 70
     1
102
RTVSPost2010Prop48
 90
       50
102
RTVSPost2010PropOp48
 70
     1
102
RTVSPost2010Prop49
280
     0
102
RTVSPost2010PropOp49
 70
     1
102
RTVSPost2010Prop50
 90
       50
102
RTVSPost2010PropOp50
 70
     1
102
RTVSPost2010Prop51ColorIndex
 90
      256
102
RTVSPost2010Prop51ColorRGB
 90
-16777216
102
RTVSPost2010PropOp51
 70
     0
102
RTVSPost2010Prop52
140
1.0
102
RTVSPost2010PropOp52
 70
     0
102
RTVSPost2010Prop53
 90
        2
102
RTVSPost2010PropOp53
 70
     1
102
RTVSPost2010Prop54
  1
strokes_ogs.tif
102
RTVSPost2010PropOp54
 70
     1
102
RTVSPost2010Prop55
280
     0
102
RTVSPost2010PropOp55
 70
     1
102
RTVSPost2010Prop56
140
1.0
102
RTVSPost2010PropOp56
 70
     1
102
RTVSPost2010Prop57
140
1.0
102
RTVSPost2010PropOp57
 70
     1
  0
XRECORD
  5
20E
102
{ACAD_REACTORS
330
20D
102
}
330
20D
100
AcDbXrecord
280
     1
102
RTVSPost2010Prop28
280
     0
102
RTVSPost2010PropOp28
 70
     1
102
RTVSPost2010Prop29
280
     1
102
RTVSPost2010PropOp29
 70
     1
102
RTVSPost2010Prop30
280
     1
102
RTVSPost2010PropOp30
 70
     1
102
RTVSPost2010Prop31
280
     0
102
RTVSPost2010PropOp31
 70
     1
102
RTVSPost2010Prop32
280
     0
102
RTVSPost2010PropOp32
 70
     1
102
RTVSPost2010Prop33
280
     0
102
RTVSPost2010PropOp33
 70
     1
102
RTVSPost2010Prop34
280
     0
102
RTVSPost2010PropOp34
 70
     1
102
RTVSPost2010Prop35
280
     0
102
RTVSPost2010PropOp35
 70
     1
102
RTVSPost2010Prop36
280
     0
102
RTVSPost2010PropOp36
 70
     1
102
RTVSPost2010Prop37
 90
       50
102
RTVSPost2010PropOp37
 70
     1
102
RTVSPost2010Prop38
140
0.0
102
RTVSPost2010PropOp38
 70
     1
102
RTVSPost2010Prop39
140
1.0
102
RTVSPost2010PropOp39
 70
     1
102
RTVSPost2010Prop40
 90
        0
102
RTVSPost2010PropOp40
 70
     1
102
RTVSPost2010Prop41ColorIndex
 90
       18
102
RTVSPost2010Prop41ColorRGB
 90
        0
102
RTVSPost2010PropOp41
 70
     1
102
RTVSPost2010Prop42
 90
       50
102
RTVSPost2010PropOp42
 70
     1
102
RTVSPost2010Prop43
 90
        3
102
RTVSPost2010PropOp43
 70
     1
102
RTVSPost2010Prop44ColorIndex
 90
        5
102
RTVSPost2010Prop44ColorRGB
 90
      255
102
RTVSPost2010PropOp44
 70
     1
102
RTVSPost2010Prop45
280
     0
102
RTVSPost2010PropOp45
 70
     1
102
RTVSPost2010Prop46
 90
       50
102
RTVSPost2010PropOp46
 70
     1
102
RTVSPost2010Prop47
 90
       50
102
RTVSPost2010PropOp47
 70
     1
102
RTVSPost2010Prop48
 90
       50
102
RTVSPost2010PropOp48
 70
     1
102
RTVSPost2010Prop49
280
     0
102
RTVSPost2010PropOp49
 70
     1
102
RTVSPost2010Prop50
 90
       50
102
RTVSPost2010PropOp50
 70
     1
102
RTVSPost2010Prop51ColorIndex
 90
      256
102
RTVSPost2010Prop51ColorRGB
 90
-16777216
102
RTVSPost2010PropOp51
 70
     0
102
RTVSPost2010Prop52
140
1.0
102
RTVSPost2010PropOp52
 70
     0
102
RTVSPost2010Prop53
 90
        2
102
RTVSPost2010PropOp53
 70
     1
102
RTVSPost2010Prop54
  1
strokes_ogs.tif
102
RTVSPost2010PropOp54
 70
     1
102
RTVSPost2010Prop55
280
     0
102
RTVSPost2010PropOp55
 70
     1
102
RTVSPost2010Prop56
140
1.0
102
RTVSPost2010PropOp56
 70
     1
102
RTVSPost2010Prop57
140
1.0
102
RTVSPost2010PropOp57
 70
     1
  0
XRECORD
  5
1FE
102
{ACAD_REACTORS
330
1FD
102
}
330
1FD
100
AcDbXrecord
280
     1
102
RTVSPost2010Prop28
280
     0
102
RTVSPost2010PropOp28
 70
     1
102
RTVSPost2010Prop29
280
     1
102
RTVSPost2010PropOp29
 70
     1
102
RTVSPost2010Prop30
280
     1
102
RTVSPost2010PropOp30
 70
     1
102
RTVSPost2010Prop31
280
     0
102
RTVSPost2010PropOp31
 70
     1
102
RTVSPost2010Prop32
280
     0
102
RTVSPost2010PropOp32
 70
     1
102
RTVSPost2010Prop33
280
     0
102
RTVSPost2010PropOp33
 70
     1
102
RTVSPost2010Prop34
280
     0
102
RTVSPost2010PropOp34
 70
     1
102
RTVSPost2010Prop35
280
     0
102
RTVSPost2010PropOp35
 70
     1
102
RTVSPost2010Prop36
280
     0
102
RTVSPost2010PropOp36
 70
     1
102
RTVSPost2010Prop37
 90
       50
102
RTVSPost2010PropOp37
 70
     1
102
RTVSPost2010Prop38
140
0.0
102
RTVSPost2010PropOp38
 70
     1
102
RTVSPost2010Prop39
140
1.0
102
RTVSPost2010PropOp39
 70
     1
102
RTVSPost2010Prop40
 90
        0
102
RTVSPost2010PropOp40
 70
     1
102
RTVSPost2010Prop41ColorIndex
 90
       18
102
RTVSPost2010Prop41ColorRGB
 90
        0
102
RTVSPost2010PropOp41
 70
     1
102
RTVSPost2010Prop42
 90
       50
102
RTVSPost2010PropOp42
 70
     1
102
RTVSPost2010Prop43
 90
        3
102
RTVSPost2010PropOp43
 70
     1
102
RTVSPost2010Prop44ColorIndex
 90
        5
102
RTVSPost2010Prop44ColorRGB
 90
      255
102
RTVSPost2010PropOp44
 70
     1
102
RTVSPost2010Prop45
280
     0
102
RTVSPost2010PropOp45
 70
     1
102
RTVSPost2010Prop46
 90
       50
102
RTVSPost2010PropOp46
 70
     1
102
RTVSPost2010Prop47
 90
       50
102
RTVSPost2010PropOp47
 70
     1
102
RTVSPost2010Prop48
 90
       50
102
RTVSPost2010PropOp48
 70
     1
102
RTVSPost2010Prop49
280
     0
102
RTVSPost2010PropOp49
 70
     1
102
RTVSPost2010Prop50
 90
       50
102
RTVSPost2010PropOp50
 70
     1
102
RTVSPost2010Prop51ColorIndex
 90
      256
102
RTVSPost2010Prop51ColorRGB
 90
-16777216
102
RTVSPost2010PropOp51
 70
     0
102
RTVSPost2010Prop52
140
1.0
102
RTVSPost2010PropOp52
 70
     0
102
RTVSPost2010Prop53
 90
        2
102
RTVSPost2010PropOp53
 70
     1
102
RTVSPost2010Prop54
  1
strokes_ogs.tif
102
RTVSPost2010PropOp54
 70
     1
102
RTVSPost2010Prop55
280
     0
102
RTVSPost2010PropOp55
 70
     1
102
RTVSPost2010Prop56
140
1.0
102
RTVSPost2010PropOp56
 70
     1
102
RTVSPost2010Prop57
140
1.0
102
RTVSPost2010PropOp57
 70
     1
  0
XRECORD
  5
1F0
102
{ACAD_REACTORS
330
1EF
102
}
330
1EF
100
AcDbXrecord
280
     1
102
RTVSPost2010Prop28
280
     0
102
RTVSPost2010PropOp28
 70
     1
102
RTVSPost2010Prop29
280
     1
102
RTVSPost2010PropOp29
 70
     1
102
RTVSPost2010Prop30
280
     1
102
RTVSPost2010PropOp30
 70
     1
102
RTVSPost2010Prop31
280
     0
102
RTVSPost2010PropOp31
 70
     1
102
RTVSPost2010Prop32
280
     0
102
RTVSPost2010PropOp32
 70
     1
102
RTVSPost2010Prop33
280
     0
102
RTVSPost2010PropOp33
 70
     1
102
RTVSPost2010Prop34
280
     0
102
RTVSPost2010PropOp34
 70
     1
102
RTVSPost2010Prop35
280
     0
102
RTVSPost2010PropOp35
 70
     1
102
RTVSPost2010Prop36
280
     0
102
RTVSPost2010PropOp36
 70
     1
102
RTVSPost2010Prop37
 90
       50
102
RTVSPost2010PropOp37
 70
     1
102
RTVSPost2010Prop38
140
0.0
102
RTVSPost2010PropOp38
 70
     1
102
RTVSPost2010Prop39
140
1.0
102
RTVSPost2010PropOp39
 70
     1
102
RTVSPost2010Prop40
 90
        0
102
RTVSPost2010PropOp40
 70
     1
102
RTVSPost2010Prop41ColorIndex
 90
       18
102
RTVSPost2010Prop41ColorRGB
 90
        0
102
RTVSPost2010PropOp41
 70
     1
102
RTVSPost2010Prop42
 90
       50
102
RTVSPost2010PropOp42
 70
     1
102
RTVSPost2010Prop43
 90
        3
102
RTVSPost2010PropOp43
 70
     1
102
RTVSPost2010Prop44ColorIndex
 90
        5
102
RTVSPost2010Prop44ColorRGB
 90
      255
102
RTVSPost2010PropOp44
 70
     1
102
RTVSPost2010Prop45
280
     0
102
RTVSPost2010PropOp45
 70
     1
102
RTVSPost2010Prop46
 90
       50
102
RTVSPost2010PropOp46
 70
     1
102
RTVSPost2010Prop47
 90
       50
102
RTVSPost2010PropOp47
 70
     1
102
RTVSPost2010Prop48
 90
       50
102
RTVSPost2010PropOp48
 70
     1
102
RTVSPost2010Prop49
280
     0
102
RTVSPost2010PropOp49
 70
     1
102
RTVSPost2010Prop50
 90
       50
102
RTVSPost2010PropOp50
 70
     1
102
RTVSPost2010Prop51ColorIndex
 90
      256
102
RTVSPost2010Prop51ColorRGB
 90
-16777216
102
RTVSPost2010PropOp51
 70
     0
102
RTVSPost2010Prop52
140
1.0
102
RTVSPost2010PropOp52
 70
     0
102
RTVSPost2010Prop53
 90
        2
102
RTVSPost2010PropOp53
 70
     1
102
RTVSPost2010Prop54
  1
strokes_ogs.tif
102
RTVSPost2010PropOp54
 70
     1
102
RTVSPost2010Prop55
280
     0
102
RTVSPost2010PropOp55
 70
     1
102
RTVSPost2010Prop56
140
1.0
102
RTVSPost2010PropOp56
 70
     1
102
RTVSPost2010Prop57
140
1.0
102
RTVSPost2010PropOp57
 70
     1
  0
XRECORD
  5
210
102
{ACAD_REACTORS
330
20F
102
}
330
20F
100
AcDbXrecord
280
     1
102
RTVSPost2010Prop28
280
     0
102
RTVSPost2010PropOp28
 70
     1
102
RTVSPost2010Prop29
280
     1
102
RTVSPost2010PropOp29
 70
     1
102
RTVSPost2010Prop30
280
     1
102
RTVSPost2010PropOp30
 70
     1
102
RTVSPost2010Prop31
280
     0
102
RTVSPost2010PropOp31
 70
     1
102
RTVSPost2010Prop32
280
     0
102
RTVSPost2010PropOp32
 70
     1
102
RTVSPost2010Prop33
280
     0
102
RTVSPost2010PropOp33
 70
     1
102
RTVSPost2010Prop34
280
     0
102
RTVSPost2010PropOp34
 70
     1
102
RTVSPost2010Prop35
280
     0
102
RTVSPost2010PropOp35
 70
     1
102
RTVSPost2010Prop36
280
     0
102
RTVSPost2010PropOp36
 70
     1
102
RTVSPost2010Prop37
 90
       50
102
RTVSPost2010PropOp37
 70
     1
102
RTVSPost2010Prop38
140
0.0
102
RTVSPost2010PropOp38
 70
     1
102
RTVSPost2010Prop39
140
1.0
102
RTVSPost2010PropOp39
 70
     1
102
RTVSPost2010Prop40
 90
        0
102
RTVSPost2010PropOp40
 70
     1
102
RTVSPost2010Prop41ColorIndex
 90
       18
102
RTVSPost2010Prop41ColorRGB
 90
        0
102
RTVSPost2010PropOp41
 70
     1
102
RTVSPost2010Prop42
 90
       50
102
RTVSPost2010PropOp42
 70
     1
102
RTVSPost2010Prop43
 90
        3
102
RTVSPost2010PropOp43
 70
     1
102
RTVSPost2010Prop44ColorIndex
 90
        5
102
RTVSPost2010Prop44ColorRGB
 90
      255
102
RTVSPost2010PropOp44
 70
     1
102
RTVSPost2010Prop45
280
     0
102
RTVSPost2010PropOp45
 70
     1
102
RTVSPost2010Prop46
 90
       50
102
RTVSPost2010PropOp46
 70
     1
102
RTVSPost2010Prop47
 90
       50
102
RTVSPost2010PropOp47
 70
     1
102
RTVSPost2010Prop48
 90
       50
102
RTVSPost2010PropOp48
 70
     1
102
RTVSPost2010Prop49
280
     0
102
RTVSPost2010PropOp49
 70
     1
102
RTVSPost2010Prop50
 90
       50
102
RTVSPost2010PropOp50
 70
     1
102
RTVSPost2010Prop51ColorIndex
 90
      256
102
RTVSPost2010Prop51ColorRGB
 90
-16777216
102
RTVSPost2010PropOp51
 70
     0
102
RTVSPost2010Prop52
140
1.0
102
RTVSPost2010PropOp52
 70
     0
102
RTVSPost2010Prop53
 90
        2
102
RTVSPost2010PropOp53
 70
     1
102
RTVSPost2010Prop54
  1
strokes_ogs.tif
102
RTVSPost2010PropOp54
 70
     1
102
RTVSPost2010Prop55
280
     0
102
RTVSPost2010PropOp55
 70
     1
102
RTVSPost2010Prop56
140
1.0
102
RTVSPost2010PropOp56
 70
     1
102
RTVSPost2010Prop57
140
1.0
102
RTVSPost2010PropOp57
 70
     1
  0
ENDSEC
  0
EOF
