  0
SECTION
  2
HEADER
  9
$ACADVER
  1
AC1024
  9
$ACADMAINTVER
 70
     6
  9
$DWGCODEPAGE
  3
ANSI_1252
  9
$INSBASE
 10
0.0
 20
0.0
 30
0.0
  9
$EXTMIN
 10
1.000000E+20
 20
1.000000E+20
 30
1.000000E+20
  9
$EXTMAX
 10
-1.000000E+20
 20
-1.000000E+20
 30
-1.000000E+20
  9
$LIMMIN
 10
0.0
 20
0.0
  9
$LIMMAX
 10
420.0
 20
297.0
  9
$ORTHOMODE
 70
     0
  9
$REGENMODE
 70
     1
  9
$FILLMODE
 70
     1
  9
$QTEXTMODE
 70
     0
  9
$MIRRTEXT
 70
     1
  9
$LTSCALE
 40
1.0
  9
$ATTMODE
 70
     1
  9
$TEXTSIZE
 40
2.5
  9
$TRACEWID
 40
1.0
  9
$TEXTSTYLE
  7
Standard
  9
$CLAYER
  8
0
  9
$CELTYPE
  6
ByLayer
  9
$CECOLOR
 62
   256
  9
$CELTSCALE
 40
1.0
  9
$DISPSILH
 70
     0
  9
$DIMSCALE
 40
1.0
  9
$DIMASZ
 40
2.5
  9
$DIMEXO
 40
0.625
  9
$DIMDLI
 40
3.75
  9
$DIMRND
 40
0.0
  9
$DIMDLE
 40
0.0
  9
$DIMEXE
 40
1.25
  9
$DIMTP
 40
0.0
  9
$DIMTM
 40
0.0
  9
$DIMTXT
 40
2.5
  9
$DIMCEN
 40
2.5
  9
$DIMTSZ
 40
0.0
  9
$DIMTOL
 70
     0
  9
$DIMLIM
 70
     0
  9
$DIMTIH
 70
     0
  9
$DIMTOH
 70
     0
  9
$DIMSE1
 70
     0
  9
$DIMSE2
 70
     0
  9
$DIMTAD
 70
     1
  9
$DIMZIN
 70
     8
  9
$DIMBLK
  1

  9
$DIMASO
 70
     1
  9
$DIMSHO
 70
     1
  9
$DIMPOST
  1

  9
$DIMAPOST
  1

  9
$DIMALT
 70
     0
  9
$DIMALTD
 70
     3
  9
$DIMALTF
 40
0.03937
  9
$DIMLFAC
 40
1.0
  9
$DIMTOFL
 70
     1
  9
$DIMTVP
 40
0.0
  9
$DIMTIX
 70
     0
  9
$DIMSOXD
 70
     0
  9
$DIMSAH
 70
     0
  9
$DIMBLK1
  1

  9
$DIMBLK2
  1

  9
$DIMSTYLE
  2
ISO-25
  9
$DIMCLRD
 70
     0
  9
$DIMCLRE
 70
     0
  9
$DIMCLRT
 70
     0
  9
$DIMTFAC
 40
1.0
  9
$DIMGAP
 40
0.625
  9
$DIMJUST
 70
     0
  9
$DIMSD1
 70
     0
  9
$DIMSD2
 70
     0
  9
$DIMTOLJ
 70
     0
  9
$DIMTZIN
 70
     8
  9
$DIMALTZ
 70
     0
  9
$DIMALTTZ
 70
     0
  9
$DIMUPT
 70
     0
  9
$DIMDEC
 70
     2
  9
$DIMTDEC
 70
     2
  9
$DIMALTU
 70
     2
  9
$DIMALTTD
 70
     3
  9
$DIMTXSTY
  7
Standard
  9
$DIMAUNIT
 70
     0
  9
$DIMADEC
 70
     0
  9
$DIMALTRND
 40
0.0
  9
$DIMAZIN
 70
     0
  9
$DIMDSEP
 70
    44
  9
$DIMATFIT
 70
     3
  9
$DIMFRAC
 70
     0
  9
$DIMLDRBLK
  1

  9
$DIMLUNIT
 70
     2
  9
$DIMLWD
 70
    -2
  9
$DIMLWE
 70
    -2
  9
$DIMTMOVE
 70
     0
  9
$DIMFXL
 40
1.0
  9
$DIMFXLON
 70
     0
  9
$DIMJOGANG
 40
0.785398
  9
$DIMTFILL
 70
     0
  9
$DIMTFILLCLR
 70
     0
  9
$DIMARCSYM
 70
     0
  9
$DIMLTYPE
  6

  9
$DIMLTEX1
  6

  9
$DIMLTEX2
  6

  9
$DIMTXTDIRECTION
 70
     0
  9
$LUNITS
 70
     2
  9
$LUPREC
 70
     4
  9
$SKETCHINC
 40
1.0
  9
$FILLETRAD
 40
10.0
  9
$AUNITS
 70
     0
  9
$AUPREC
 70
     0
  9
$MENU
  1
.
  9
$ELEVATION
 40
0.0
  9
$PELEVATION
 40
0.0
  9
$THICKNESS
 40
0.0
  9
$LIMCHECK
 70
     0
  9
$CHAMFERA
 40
0.0
  9
$CHAMFERB
 40
0.0
  9
$CHAMFERC
 40
0.0
  9
$CHAMFERD
 40
0.0
  9
$SKPOLY
 70
     0
  9
$TDCREATE
 40
2458617.446592917
  9
$TDUCREATE
 40
2458617.363259583
  9
$TDUPDATE
 40
2458617.446593507
  9
$TDUUPDATE
 40
2458617.363260174
  9
$TDINDWG
 40
0.0000000116
  9
$TDUSRTIMER
 40
0.0000000116
  9
$USRTIMER
 70
     1
  9
$ANGBASE
 50
0.0
  9
$ANGDIR
 70
     0
  9
$PDMODE
 70
     0
  9
$PDSIZE
 40
0.0
  9
$PLINEWID
 40
0.0
  9
$SPLFRAME
 70
     0
  9
$SPLINETYPE
 70
     6
  9
$SPLINESEGS
 70
     8
  9
$HANDSEED
  5
219
  9
$SURFTAB1
 70
     6
  9
$SURFTAB2
 70
     6
  9
$SURFTYPE
 70
     6
  9
$SURFU
 70
     6
  9
$SURFV
 70
     6
  9
$UCSBASE
  2

  9
$UCSNAME
  2

  9
$UCSORG
 10
0.0
 20
0.0
 30
0.0
  9
$UCSXDIR
 10
1.0
 20
0.0
 30
0.0
  9
$UCSYDIR
 10
0.0
 20
1.0
 30
0.0
  9
$UCSORTHOREF
  2

  9
$UCSORTHOVIEW
 70
     0
  9
$UCSORGTOP
 10
0.0
 20
0.0
 30
0.0
  9
$UCSORGBOTTOM
 10
0.0
 20
0.0
 30
0.0
  9
$UCSORGLEFT
 10
0.0
 20
0.0
 30
0.0
  9
$UCSORGRIGHT
 10
0.0
 20
0.0
 30
0.0
  9
$UCSORGFRONT
 10
0.0
 20
0.0
 30
0.0
  9
$UCSORGBACK
 10
0.0
 20
0.0
 30
0.0
  9
$PUCSBASE
  2

  9
$PUCSNAME
  2

  9
$PUCSORG
 10
0.0
 20
0.0
 30
0.0
  9
$PUCSXDIR
 10
1.0
 20
0.0
 30
0.0
  9
$PUCSYDIR
 10
0.0
 20
1.0
 30
0.0
  9
$PUCSORTHOREF
  2

  9
$PUCSORTHOVIEW
 70
     0
  9
$PUCSORGTOP
 10
0.0
 20
0.0
 30
0.0
  9
$PUCSORGBOTTOM
 10
0.0
 20
0.0
 30
0.0
  9
$PUCSORGLEFT
 10
0.0
 20
0.0
 30
0.0
  9
$PUCSORGRIGHT
 10
0.0
 20
0.0
 30
0.0
  9
$PUCSORGFRONT
 10
0.0
 20
0.0
 30
0.0
  9
$PUCSORGBACK
 10
0.0
 20
0.0
 30
0.0
  9
$USERI1
 70
     0
  9
$USERI2
 70
     0
  9
$USERI3
 70
     0
  9
$USERI4
 70
     0
  9
$USERI5
 70
     0
  9
$USERR1
 40
0.0
  9
$USERR2
 40
0.0
  9
$USERR3
 40
0.0
  9
$USERR4
 40
0.0
  9
$USERR5
 40
0.0
  9
$WORLDVIEW
 70
     1
  9
$SHADEDGE
 70
     3
  9
$SHADEDIF
 70
    70
  9
$TILEMODE
 70
     1
  9
$MAXACTVP
 70
    64
  9
$PINSBASE
 10
0.0
 20
0.0
 30
0.0
  9
$PLIMCHECK
 70
     0
  9
$PEXTMIN
 10
1.000000E+20
 20
1.000000E+20
 30
1.000000E+20
  9
$PEXTMAX
 10
-1.000000E+20
 20
-1.000000E+20
 30
-1.000000E+20
  9
$PLIMMIN
 10
0.0
 20
0.0
  9
$PLIMMAX
 10
420.0
 20
297.0
  9
$UNITMODE
 70
     0
  9
$VISRETAIN
 70
     1
  9
$PLINEGEN
 70
     0
  9
$PSLTSCALE
 70
     1
  9
$TREEDEPTH
 70
  3020
  9
$CMLSTYLE
  2
Standard
  9
$CMLJUST
 70
     0
  9
$CMLSCALE
 40
20.0
  9
$PROXYGRAPHICS
 70
     1
  9
$MEASUREMENT
 70
     1
  9
$CELWEIGHT
370
    -1
  9
$ENDCAPS
280
     0
  9
$JOINSTYLE
280
     0
  9
$LWDISPLAY
290
     0
  9
$INSUNITS
 70
     4
  9
$HYPERLINKBASE
  1

  9
$STYLESHEET
  1

  9
$XEDIT
290
     1
  9
$CEPSNTYPE
380
     0
  9
$PSTYLEMODE
290
     1
  9
$FINGERPRINTGUID
  2
{44C137A0-D964-4E6F-A3F6-34BC11BED1CF}
  9
$VERSIONGUID
  2
{FAEB1C32-E019-11D5-929B-00C0DF256EC4}
  9
$EXTNAMES
290
     1
  9
$PSVPSCALE
 40
0.0
  9
$OLESTARTUP
290
     0
  9
$SORTENTS
280
   127
  9
$INDEXCTL
280
     0
  9
$HIDETEXT
280
     1
  9
$XCLIPFRAME
280
     2
  9
$HALOGAP
280
     0
  9
$OBSCOLOR
 70
   257
  9
$OBSLTYPE
280
     0
  9
$INTERSECTIONDISPLAY
280
     0
  9
$INTERSECTIONCOLOR
 70
   257
  9
$DIMASSOC
280
     2
  9
$PROJECTNAME
  1

  9
$CAMERADISPLAY
290
     0
  9
$LENSLENGTH
 40
50.0
  9
$CAMERAHEIGHT
 40
0.0
  9
$STEPSPERSEC
 40
2.0
  9
$STEPSIZE
 40
6.0
  9
$3DDWFPREC
 40
2.0
  9
$PSOLWIDTH
 40
5.0
  9
$PSOLHEIGHT
 40
80.0
  9
$LOFTANG1
 40
1.570796
  9
$LOFTANG2
 40
1.570796
  9
$LOFTMAG1
 40
0.0
  9
$LOFTMAG2
 40
0.0
  9
$LOFTPARAM
 70
     7
  9
$LOFTNORMALS
280
     1
  9
$LATITUDE
 40
37.795
  9
$LONGITUDE
 40
-122.394
  9
$NORTHDIRECTION
 40
0.0
  9
$TIMEZONE
 70
 -8000
  9
$LIGHTGLYPHDISPLAY
280
     1
  9
$TILEMODELIGHTSYNCH
280
     1
  9
$CMATERIAL
347
44
  9
$SOLIDHIST
280
     0
  9
$SHOWHIST
280
     1
  9
$DWFFRAME
280
     2
  9
$DGNFRAME
280
     2
  9
$REALWORLDSCALE
290
     1
  9
$INTERFERECOLOR
 62
   256
  9
$CSHADOW
280
     0
  9
$SHADOWPLANELOCATION
 40
0.0
  0
ENDSEC
  0
SECTION
  2
CLASSES
  0
CLASS
  1
ACDBDICTIONARYWDFLT
  2
AcDbDictionaryWithDefault
  3
ObjectDBX Classes
 90
        0
 91
        4
280
     0
281
     0
  0
CLASS
  1
VISUALSTYLE
  2
AcDbVisualStyle
  3
ObjectDBX Classes
 90
     4095
 91
        4
280
     0
281
     0
  0
CLASS
  1
MATERIAL
  2
AcDbMaterial
  3
ObjectDBX Classes
 90
     1153
 91
        4
280
     0
281
     0
  0
CLASS
  1
SCALE
  2
AcDbScale
  3
ObjectDBX Classes
 90
     1153
 91
        4
280
     0
281
     0
  0
CLASS
  1
TABLESTYLE
  2
AcDbTableStyle
  3
ObjectDBX Classes
 90
     4095
 91
        4
280
     0
281
     0
  0
CLASS
  1
MLEADERSTYLE
  2
AcDbMLeaderStyle
  3
ACDB_MLEADERSTYLE_CLASS
 90
     4095
 91
        4
280
     0
281
     0
  0
CLASS
  1
SUN
  2
AcDbSun
  3
SCENEOE
 90
     1153
 91
        4
280
     0
281
     0
  0
CLASS
  1
DICTIONARYVAR
  2
AcDbDictionaryVar
  3
ObjectDBX Classes
 90
        0
 91
        4
280
     0
281
     0
  0
CLASS
  1
CELLSTYLEMAP
  2
AcDbCellStyleMap
  3
ObjectDBX Classes
 90
     1152
 91
        4
280
     0
281
     0
  0
ENDSEC
  0
SECTION
  2
TABLES
  0
TABLE
  2
VPORT
  5
8
330
0
100
AcDbSymbolTable
 70
     1
  0
VPORT
  5
29
330
8
100
AcDbSymbolTableRecord
100
AcDbViewportTableRecord
  2
*Active
 70
     0
 10
0.0
 20
0.0
 11
1.0
 21
1.0
 12
344.186916
 22
148.5
 13
0.0
 23
0.0
 14
10.0
 24
10.0
 15
10.0
 25
10.0
 16
0.0
 26
0.0
 36
1.0
 17
0.0
 27
0.0
 37
0.0
 40
297.0
 41
1.972973
 42
50.0
 43
0.0
 44
0.0
 50
0.0
 51
0.0
 71
     0
 72
   100
 73
     1
 74
     3
 75
     0
 76
     0
 77
     0
 78
     0
281
     0
 65
     1
110
0.0
120
0.0
130
0.0
111
1.0
121
0.0
131
0.0
112
0.0
122
1.0
132
0.0
 79
     0
146
0.0
348
2F
 60
     3
 61
     5
292
     1
282
     1
141
0.0
142
0.0
 63
   250
361
6D
  0
ENDTAB
  0
TABLE
  2
LTYPE
  5
5
330
0
100
AcDbSymbolTable
 70
     1
  0
LTYPE
  5
14
330
5
100
AcDbSymbolTableRecord
100
AcDbLinetypeTableRecord
  2
ByBlock
 70
     0
  3

 72
    65
 73
     0
 40
0.0
  0
LTYPE
  5
15
330
5
100
AcDbSymbolTableRecord
100
AcDbLinetypeTableRecord
  2
ByLayer
 70
     0
  3

 72
    65
 73
     0
 40
0.0
  0
LTYPE
  5
16
330
5
100
AcDbSymbolTableRecord
100
AcDbLinetypeTableRecord
  2
Continuous
 70
     0
  3
Solid line
 72
    65
 73
     0
 40
0.0
  0
ENDTAB
  0
TABLE
  2
LAYER
  5
2
330
0
100
AcDbSymbolTable
 70
     1
  0
LAYER
  5
10
330
2
100
AcDbSymbolTableRecord
100
AcDbLayerTableRecord
  2
0
 70
     0
 62
   106
  6
Continuous
370
     0
390
F
347
46
  0
ENDTAB
  0
TABLE
  2
STYLE
  5
3
330
0
100
AcDbSymbolTable
 70
     4
  0
STYLE
  5
11
330
3
100
AcDbSymbolTableRecord
100
AcDbTextStyleTableRecord
  2
Standard
 70
     0
 40
0.0
 41
1.0
 50
0.0
 71
     0
 42
2.5
  3
txt
  4

  0
STYLE
  5
6E
330
3
100
AcDbSymbolTableRecord
100
AcDbTextStyleTableRecord
  2
Default
 70
     0
 40
0.0
 41
1.0
 50
0.0
 71
     0
 42
2.5
  3

  4

1001
ACAD
1000
txt
1071
        0
  0
STYLE
  5
6F
330
3
100
AcDbSymbolTableRecord
100
AcDbTextStyleTableRecord
  2
ISO
 70
     0
 40
0.0
 41
1.0
 50
0.0
 71
     0
 42
2.5
  3

  4

1001
ACAD
1000
txt
1071
        0
  0
STYLE
  5
70
330
3
100
AcDbSymbolTableRecord
100
AcDbTextStyleTableRecord
  2
zucchetti
 70
     0
 40
0.0
 41
1.0
 50
0.0
 71
     0
 42
2.5
  3

  4

1001
ACAD
1000
Arial
1071
        0
  0
ENDTAB
  0
TABLE
  2
VIEW
  5
6
330
0
100
AcDbSymbolTable
 70
     0
  0
ENDTAB
  0
TABLE
  2
UCS
  5
7
330
0
100
AcDbSymbolTable
 70
     0
  0
ENDTAB
  0
TABLE
  2
APPID
  5
9
330
0
100
AcDbSymbolTable
 70
     1
  0
APPID
  5
12
330
9
100
AcDbSymbolTableRecord
100
AcDbRegAppTableRecord
  2
ACAD
 70
     0
  0
ENDTAB
  0
TABLE
  2
DIMSTYLE
  5
A
330
0
100
AcDbSymbolTable
 70
     4
100
AcDbDimStyleTable
  0
DIMSTYLE
105
27
330
A
100
AcDbSymbolTableRecord
100
AcDbDimStyleTableRecord
  2
ISO-25
 70
     0
 41
2.5
 42
0.625
 43
3.75
 44
1.25
 73
     0
 74
     0
 77
     1
 78
     8
140
2.5
141
2.5
143
0.03937
147
0.625
171
     3
172
     1
178
     0
271
     2
272
     2
274
     3
278
    44
283
     0
284
     8
340
11
  0
DIMSTYLE
105
71
330
A
100
AcDbSymbolTableRecord
100
AcDbDimStyleTableRecord
  2
Default
 70
     0
  3
<>
 41
4.375
 42
1.05
 44
2.1
 49
10.01
 73
     0
 74
     0
 77
     1
 78
     8
140
3.5
146
0.4
147
1.75
172
     1
271
     2
178
     3
271
     2
272
     3
284
     8
340
6E
341
72
342
72
  0
DIMSTYLE
105
79
330
A
100
AcDbSymbolTableRecord
100
AcDbDimStyleTableRecord
  2
ISO
 70
     0
  3
<>
 41
4.375
 42
1.05
 44
2.1
 49
10.01
 73
     0
 74
     0
 77
     1
 78
     8
140
3.5
146
0.4
147
1.75
172
     1
271
     2
178
     3
271
     2
272
     3
284
     8
340
6F
341
72
342
72
  0
DIMSTYLE
105
7A
330
A
100
AcDbSymbolTableRecord
100
AcDbDimStyleTableRecord
  2
zucchetti
 70
     0
  3
<>
 41
3.0
 42
0.9
 44
1.8
 49
8.58
 73
     0
 74
     0
 77
     1
 78
     8
140
3.0
146
0.6
147
1.5
172
     1
176
     3
177
     3
271
     2
178
     3
271
     2
272
     2
284
     8
340
70
  0
ENDTAB
  0
TABLE
  2
BLOCK_RECORD
  5
1
330
0
100
AcDbSymbolTable
 70
     6
  0
BLOCK_RECORD
  5
1F
330
1
100
AcDbSymbolTableRecord
100
AcDbBlockTableRecord
  2
*Model_Space
340
22
 70
     0
280
     1
281
     0
  0
BLOCK_RECORD
  5
1B
330
1
100
AcDbSymbolTableRecord
100
AcDbBlockTableRecord
  2
*Paper_Space
340
1E
 70
     0
280
     1
281
     0
  0
BLOCK_RECORD
  5
23
330
1
100
AcDbSymbolTableRecord
100
AcDbBlockTableRecord
  2
*Paper_Space0
340
26
 70
     0
280
     1
281
     0
  0
BLOCK_RECORD
  5
72
330
1
100
AcDbSymbolTableRecord
100
AcDbBlockTableRecord
  2
_CLOSED
340
0
 70
     0
280
     1
281
     0
  0
BLOCK_RECORD
  5
7B
330
1
100
AcDbSymbolTableRecord
100
AcDbBlockTableRecord
  2
a
340
0
102
{BLKREFS
331
A6
102
}
 70
     0
280
     1
281
     0
  0
BLOCK_RECORD
  5
A7
330
1
100
AcDbSymbolTableRecord
100
AcDbBlockTableRecord
  2
b
340
0
102
{BLKREFS
331
10B
102
}
 70
     0
280
     1
281
     0
  0
BLOCK_RECORD
  5
10C
330
1
100
AcDbSymbolTableRecord
100
AcDbBlockTableRecord
  2
c
340
0
102
{BLKREFS
331
170
102
}
 70
     0
280
     1
281
     0
  0
BLOCK_RECORD
  5
171
330
1
100
AcDbSymbolTableRecord
100
AcDbBlockTableRecord
  2
d
340
0
102
{BLKREFS
331
1DF
102
}
 70
     0
280
     1
281
     0
  0
ENDTAB
  0
ENDSEC
  0
SECTION
  2
BLOCKS
  0
BLOCK
  5
20
330
1F
100
AcDbEntity
  8
0
100
AcDbBlockBegin
  2
*Model_Space
 70
     0
 10
0.0
 20
0.0
 30
0.0
  3
*Model_Space
  1

  0
ENDBLK
  5
21
330
1F
100
AcDbEntity
  8
0
100
AcDbBlockEnd
  0
BLOCK
  5
1C
330
1B
100
AcDbEntity
 67
     1
  8
0
100
AcDbBlockBegin
  2
*Paper_Space
 70
     0
 10
0.0
 20
0.0
 30
0.0
  3
*Paper_Space
  1

  0
ENDBLK
  5
1D
330
1B
100
AcDbEntity
 67
     1
  8
0
100
AcDbBlockEnd
  0
BLOCK
  5
24
330
23
100
AcDbEntity
  8
0
100
AcDbBlockBegin
  2
*Paper_Space0
 70
     0
 10
0.0
 20
0.0
 30
0.0
  3
*Paper_Space0
  1

  0
ENDBLK
  5
25
330
23
100
AcDbEntity
  8
0
100
AcDbBlockEnd
  0
BLOCK
  5
73
330
72
100
AcDbEntity
  8
0
100
AcDbBlockBegin
  2
_CLOSED
 70
     0
 10
0.0
 20
0.0
 30
0.0
  3
_CLOSED
  1

  0
LINE
  5
75
330
72
100
AcDbEntity
  8
0
  6
ByBlock
 62
     0
370
    -2
100
AcDbLine
 10
-1.0
 20
0.166667
 30
0.0
 11
0.0
 21
0.0
 31
0.0
  0
LINE
  5
76
330
72
100
AcDbEntity
  8
0
  6
ByBlock
 62
     0
370
    -2
100
AcDbLine
 10
0.0
 20
0.0
 30
0.0
 11
-1.0
 21
-0.166667
 31
0.0
  0
LINE
  5
77
330
72
100
AcDbEntity
  8
0
  6
ByBlock
 62
     0
370
    -2
100
AcDbLine
 10
-1.0
 20
0.166667
 30
0.0
 11
-1.0
 21
-0.166667
 31
0.0
  0
LINE
  5
78
330
72
100
AcDbEntity
  8
0
  6
ByBlock
 62
     0
370
    -2
100
AcDbLine
 10
0.0
 20
0.0
 30
0.0
 11
-1.0
 21
0.0
 31
0.0
  0
ENDBLK
  5
74
330
72
100
AcDbEntity
  8
0
100
AcDbBlockEnd
  0
BLOCK
  5
A4
330
7B
100
AcDbEntity
  8
0
100
AcDbBlockBegin
  2
a
 70
     0
 10
446.735718
 20
146.428482
 30
0.0
  3
a
  1

  0
ARC
  5
7C
330
7B
100
AcDbEntity
  8
0
  6
Continuous
 62
     0
370
     0
100
AcDbCircle
 10
503.316324
 20
666.821161
 30
0.0
 40
6.999999999999915
100
AcDbArc
 50
180.0
 51
270.0
  0
LINE
  5
7D
330
7B
100
AcDbEntity
  8
0
  6
Continuous
 62
     0
370
     0
100
AcDbLine
 10
525.316324
 20
659.821161
 30
0.0
 11
503.316324
 21
659.821161
 31
0.0
  0
ARC
  5
7E
330
7B
100
AcDbEntity
  8
0
  6
Continuous
 62
     0
370
     0
100
AcDbCircle
 10
525.316324
 20
666.821161
 30
0.0
 40
7.00000000000027
100
AcDbArc
 50
270.0
 51
360.0
  0
LINE
  5
7F
330
7B
100
AcDbEntity
  8
0
  6
Continuous
 62
     0
370
     0
100
AcDbLine
 10
532.316324
 20
688.821161
 30
0.0
 11
532.316324
 21
666.821161
 31
0.0
  0
ARC
  5
80
330
7B
100
AcDbEntity
  8
0
  6
Continuous
 62
     0
370
     0
100
AcDbCircle
 10
525.316324
 20
688.821161
 30
0.0
 40
6.999999999999973
100
AcDbArc
 50
0.0
 51
90.0
  0
LINE
  5
81
330
7B
100
AcDbEntity
  8
0
  6
Continuous
 62
     0
370
     0
100
AcDbLine
 10
503.316324
 20
695.821161
 30
0.0
 11
525.316324
 21
695.821161
 31
0.0
  0
ARC
  5
82
330
7B
100
AcDbEntity
  8
0
  6
Continuous
 62
     0
370
     0
100
AcDbCircle
 10
503.316324
 20
688.821161
 30
0.0
 40
6.999999999999842
100
AcDbArc
 50
90.0
 51
180.0
  0
LINE
  5
83
330
7B
100
AcDbEntity
  8
0
  6
Continuous
 62
     0
370
     0
100
AcDbLine
 10
496.316324
 20
666.821161
 30
0.0
 11
496.316324
 21
688.821161
 31
0.0
  0
ARC
  5
84
330
7B
100
AcDbEntity
  8
0
  6
Continuous
 62
     0
370
    30
100
AcDbCircle
 10
503.316324
 20
688.821161
 30
0.0
 40
8.0
100
AcDbArc
 50
90.0
 51
180.0
  0
LINE
  5
85
330
7B
100
AcDbEntity
  8
0
  6
Continuous
 62
     0
370
    30
100
AcDbLine
 10
525.316324
 20
696.821161
 30
0.0
 11
503.316324
 21
696.821161
 31
0.0
  0
ARC
  5
86
330
7B
100
AcDbEntity
  8
0
  6
Continuous
 62
     0
370
    30
100
AcDbCircle
 10
525.316324
 20
688.821161
 30
0.0
 40
8.0
100
AcDbArc
 50
0.0
 51
90.0
  0
LINE
  5
87
330
7B
100
AcDbEntity
  8
0
  6
Continuous
 62
     0
370
    30
100
AcDbLine
 10
533.316324
 20
666.821161
 30
0.0
 11
533.316324
 21
688.821161
 31
0.0
  0
ARC
  5
88
330
7B
100
AcDbEntity
  8
0
  6
Continuous
 62
     0
370
    30
100
AcDbCircle
 10
525.316324
 20
666.821161
 30
0.0
 40
8.0
100
AcDbArc
 50
270.0
 51
0.0
  0
LINE
  5
89
330
7B
100
AcDbEntity
  8
0
  6
Continuous
 62
     0
370
    30
100
AcDbLine
 10
503.316324
 20
658.821161
 30
0.0
 11
525.316324
 21
658.821161
 31
0.0
  0
ARC
  5
8A
330
7B
100
AcDbEntity
  8
0
  6
Continuous
 62
     0
370
    30
100
AcDbCircle
 10
503.316324
 20
666.821161
 30
0.0
 40
8.0
100
AcDbArc
 50
180.0
 51
270.0
  0
LINE
  5
8B
330
7B
100
AcDbEntity
  8
0
  6
Continuous
 62
     0
370
    30
100
AcDbLine
 10
495.316324
 20
688.821161
 30
0.0
 11
495.316324
 21
666.821161
 31
0.0
  0
LINE
  5
8C
330
7B
100
AcDbEntity
  8
0
  6
Continuous
 62
     0
370
     0
100
AcDbLine
 10
495.316324
 20
666.821161
 30
0.0
 11
496.316324
 21
666.821161
 31
0.0
  0
LINE
  5
8D
330
7B
100
AcDbEntity
  8
0
  6
Continuous
 62
     0
370
     0
100
AcDbLine
 10
496.316324
 20
688.821161
 30
0.0
 11
495.316324
 21
688.821161
 31
0.0
  0
LINE
  5
8E
330
7B
100
AcDbEntity
  8
0
  6
Continuous
 62
     0
370
     0
100
AcDbLine
 10
503.316324
 20
658.821161
 30
0.0
 11
503.316324
 21
659.821161
 31
0.0
  0
LINE
  5
8F
330
7B
100
AcDbEntity
  8
0
  6
Continuous
 62
     0
370
     0
100
AcDbLine
 10
525.316324
 20
658.821161
 30
0.0
 11
525.316324
 21
659.821161
 31
0.0
  0
LINE
  5
90
330
7B
100
AcDbEntity
  8
0
  6
Continuous
 62
     0
370
     0
100
AcDbLine
 10
533.316324
 20
666.821161
 30
0.0
 11
532.316324
 21
666.821161
 31
0.0
  0
LINE
  5
91
330
7B
100
AcDbEntity
  8
0
  6
Continuous
 62
     0
370
     0
100
AcDbLine
 10
533.316324
 20
688.821161
 30
0.0
 11
532.316324
 21
688.821161
 31
0.0
  0
LINE
  5
92
330
7B
100
AcDbEntity
  8
0
  6
Continuous
 62
     0
370
     0
100
AcDbLine
 10
525.316324
 20
696.821161
 30
0.0
 11
525.316324
 21
695.821161
 31
0.0
  0
LINE
  5
93
330
7B
100
AcDbEntity
  8
0
  6
Continuous
 62
     0
370
     0
100
AcDbLine
 10
503.316324
 20
696.821161
 30
0.0
 11
503.316324
 21
695.821161
 31
0.0
  0
ARC
  5
94
330
7B
100
AcDbEntity
  8
0
  6
Continuous
 62
     0
370
    30
100
AcDbCircle
 10
514.317715
 20
547.82341
 30
0.0
 40
21.5
100
AcDbArc
 50
270.0
 51
90.0
  0
ARC
  5
95
330
7B
100
AcDbEntity
  8
0
  6
Continuous
 62
     0
370
    30
100
AcDbCircle
 10
514.317715
 20
547.82341
 30
0.0
 40
21.5
100
AcDbArc
 50
90.0
 51
270.0
  0
ARC
  5
96
330
7B
100
AcDbEntity
  8
0
  6
Continuous
 62
     0
370
    30
100
AcDbCircle
 10
514.317715
 20
547.82341
 30
0.0
 40
22.0
100
AcDbArc
 50
270.0
 51
90.0
  0
ARC
  5
97
330
7B
100
AcDbEntity
  8
0
  6
Continuous
 62
     0
370
    30
100
AcDbCircle
 10
514.317715
 20
547.82341
 30
0.0
 40
22.0
100
AcDbArc
 50
90.0
 51
270.0
  0
LINE
  5
98
330
7B
100
AcDbEntity
  8
0
  6
Continuous
 62
     0
370
    30
100
AcDbLine
 10
517.767715
 20
577.65341
 30
0.0
 11
514.317715
 21
577.65341
 31
0.0
  0
LINE
  5
99
330
7B
100
AcDbEntity
  8
0
  6
Continuous
 62
     0
370
    30
100
AcDbLine
 10
514.317715
 20
577.65341
 30
0.0
 11
510.867715
 21
577.65341
 31
0.0
  0
LWPOLYLINE
  5
9A
330
7B
100
AcDbEntity
  8
0
  6
Continuous
 62
     0
370
    30
100
AcDbPolyline
 90
       13
 70
     0
 43
0.0
 10
518.267273
 20
577.153442
 10
518.234253
 20
577.153442
 10
518.135071
 20
577.153442
 10
517.971069
 20
577.153381
 10
517.745972
 20
577.153381
 10
517.463806
 20
577.153381
 10
517.128845
 20
577.153442
 10
516.74646
 20
577.153442
 10
516.322754
 20
577.153442
 10
515.86377
 20
577.153442
 10
515.377686
 20
577.153442
 10
514.875793
 20
577.153442
 10
514.317688
 20
577.153381
  0
LINE
  5
9B
330
7B
100
AcDbEntity
  8
0
  6
Continuous
 62
     0
370
    30
100
AcDbLine
 10
514.317715
 20
577.15341
 30
0.0
 11
510.368169
 21
577.153414
 31
0.0
  0
LINE
  5
9C
330
7B
100
AcDbEntity
  8
0
  6
Continuous
 62
     0
370
    30
100
AcDbLine
 10
510.367715
 20
577.15341
 30
0.0
 11
510.367715
 21
569.466107
 31
0.0
  0
LINE
  5
9D
330
7B
100
AcDbEntity
  8
0
  6
Continuous
 62
     0
370
    30
100
AcDbLine
 10
518.267715
 20
577.15341
 30
0.0
 11
518.267715
 21
569.466235
 31
0.0
  0
LINE
  5
9E
330
7B
100
AcDbEntity
  8
0
  6
Continuous
 62
     0
370
    30
100
AcDbLine
 10
510.867658
 20
577.653353
 30
0.0
 11
510.367762
 21
577.153457
 31
0.0
  0
LINE
  5
9F
330
7B
100
AcDbEntity
  8
0
  6
Continuous
 62
     0
370
    30
100
AcDbLine
 10
518.267667
 20
577.153457
 30
0.0
 11
517.767772
 21
577.653353
 31
0.0
  0
LINE
  5
A0
330
7B
100
AcDbEntity
  8
0
  6
Continuous
 62
     0
370
    30
100
AcDbLine
 10
554.316965
 20
473.823266
 30
0.0
 11
474.316965
 21
473.823266
 31
0.0
  0
LINE
  5
A1
330
7B
100
AcDbEntity
  8
0
  6
Continuous
 62
     0
370
    30
100
AcDbLine
 10
554.316965
 20
751.823266
 30
0.0
 11
554.316965
 21
473.823266
 31
0.0
  0
LINE
  5
A2
330
7B
100
AcDbEntity
  8
0
  6
Continuous
 62
     0
370
    30
100
AcDbLine
 10
474.316965
 20
751.823266
 30
0.0
 11
554.316965
 21
751.823266
 31
0.0
  0
LINE
  5
A3
330
7B
100
AcDbEntity
  8
0
  6
Continuous
 62
     0
370
    30
100
AcDbLine
 10
474.316965
 20
473.823266
 30
0.0
 11
474.316965
 21
751.823266
 31
0.0
  0
ENDBLK
  5
A5
330
7B
100
AcDbEntity
  8
0
100
AcDbBlockEnd
  0
BLOCK
  5
109
330
A7
100
AcDbEntity
  8
0
100
AcDbBlockBegin
  2
b
 70
     0
 10
446.735718
 20
313.032822
 30
0.0
  3
b
  1

  0
LINE
  5
A8
330
A7
100
AcDbEntity
  8
0
  6
Continuous
 62
     0
370
    30
100
AcDbLine
 10
525.316324
 20
317.6311
 30
0.0
 11
532.316324
 21
317.631101
 31
0.0
  0
LINE
  5
A9
330
A7
100
AcDbEntity
  8
0
  6
Continuous
 62
     0
370
    30
100
AcDbLine
 10
503.316324
 20
317.6311
 30
0.0
 11
525.316324
 21
317.6311
 31
0.0
  0
LINE
  5
AA
330
A7
100
AcDbEntity
  8
0
  6
Continuous
 62
     0
370
    30
100
AcDbLine
 10
496.316324
 20
317.631101
 30
0.0
 11
503.316324
 21
317.6311
 31
0.0
  0
LINE
  5
AB
330
A7
100
AcDbEntity
  8
0
  6
Continuous
 62
     0
370
    30
100
AcDbLine
 10
503.316324
 20
357.631101
 30
0.0
 11
495.316324
 21
357.631101
 31
0.0
  0
LINE
  5
AC
330
A7
100
AcDbEntity
  8
0
  6
Continuous
 62
     0
370
    30
100
AcDbLine
 10
495.316324
 20
357.631101
 30
0.0
 11
495.316324
 21
318.631101
 31
0.0
  0
LINE
  5
AD
330
A7
100
AcDbEntity
  8
0
  6
Continuous
 62
     0
370
     0
100
AcDbLine
 10
495.316324
 20
318.631101
 30
0.0
 11
503.316324
 21
318.631101
 31
0.0
  0
LINE
  5
AE
330
A7
100
AcDbEntity
  8
0
  6
Continuous
 62
     0
370
     0
100
AcDbLine
 10
503.316324
 20
318.6311
 30
0.0
 11
503.316324
 21
357.6311
 31
0.0
  0
LINE
  5
AF
330
A7
100
AcDbEntity
  8
0
  6
Continuous
 62
     0
370
     0
100
AcDbLine
 10
525.316324
 20
318.6311
 30
0.0
 11
503.316324
 21
318.6311
 31
0.0
  0
LINE
  5
B0
330
A7
100
AcDbEntity
  8
0
  6
Continuous
 62
     0
370
     0
100
AcDbLine
 10
525.316324
 20
357.6311
 30
0.0
 11
525.316324
 21
318.6311
 31
0.0
  0
LINE
  5
B1
330
A7
100
AcDbEntity
  8
0
  6
Continuous
 62
     0
370
    30
100
AcDbLine
 10
503.316324
 20
357.6311
 30
0.0
 11
525.316324
 21
357.6311
 31
0.0
  0
LINE
  5
B2
330
A7
100
AcDbEntity
  8
0
  6
Continuous
 62
     0
370
     0
100
AcDbLine
 10
525.316324
 20
318.631101
 30
0.0
 11
533.316324
 21
318.631101
 31
0.0
  0
LINE
  5
B3
330
A7
100
AcDbEntity
  8
0
  6
Continuous
 62
     0
370
    30
100
AcDbLine
 10
533.316324
 20
318.631101
 30
0.0
 11
533.316324
 21
357.631101
 31
0.0
  0
LINE
  5
B4
330
A7
100
AcDbEntity
  8
0
  6
Continuous
 62
     0
370
    30
100
AcDbLine
 10
533.316324
 20
357.631101
 30
0.0
 11
525.316324
 21
357.631101
 31
0.0
  0
ARC
  5
B5
330
A7
100
AcDbEntity
  8
0
  6
Continuous
 62
     0
370
    30
100
AcDbCircle
 10
496.316324
 20
318.631101
 30
0.0
 40
1.0
100
AcDbArc
 50
180.0
 51
270.0
  0
ARC
  5
B6
330
A7
100
AcDbEntity
  8
0
  6
Continuous
 62
     0
370
    30
100
AcDbCircle
 10
532.316324
 20
318.631101
 30
0.0
 40
0.9999999999999961
100
AcDbArc
 50
270.0
 51
0.0
  0
LINE
  5
B7
330
A7
100
AcDbEntity
  8
0
  6
Continuous
 62
     0
370
     0
100
AcDbLine
 10
525.316324
 20
318.6311
 30
0.0
 11
525.316324
 21
317.6311
 31
0.0
  0
LINE
  5
B8
330
A7
100
AcDbEntity
  8
0
  6
Continuous
 62
     0
370
     0
100
AcDbLine
 10
503.316324
 20
318.6311
 30
0.0
 11
503.316324
 21
317.6311
 31
0.0
  0
LINE
  5
B9
330
A7
100
AcDbEntity
  8
0
  6
Continuous
 62
     0
370
    30
100
AcDbLine
 10
514.317715
 20
307.781072
 30
0.0
 11
535.817715
 21
307.781073
 31
0.0
  0
LINE
  5
BA
330
A7
100
AcDbEntity
  8
0
  6
Continuous
 62
     0
370
    30
100
AcDbLine
 10
492.817715
 20
307.781073
 30
0.0
 11
514.317715
 21
307.781072
 31
0.0
  0
LINE
  5
BB
330
A7
100
AcDbEntity
  8
0
  6
Continuous
 62
     0
370
    30
100
AcDbLine
 10
514.317715
 20
308.281072
 30
0.0
 11
536.317715
 21
308.281073
 31
0.0
  0
LINE
  5
BC
330
A7
100
AcDbEntity
  8
0
  6
Continuous
 62
     0
370
    30
100
AcDbLine
 10
492.317715
 20
308.281073
 30
0.0
 11
514.317715
 21
308.281072
 31
0.0
  0
LINE
  5
BD
330
A7
100
AcDbEntity
  8
0
  6
Continuous
 62
     0
370
    30
100
AcDbLine
 10
536.317715
 20
357.781073
 30
0.0
 11
530.316324
 21
357.781073
 31
0.0
  0
LINE
  5
BE
330
A7
100
AcDbEntity
  8
0
  6
Continuous
 62
     0
370
    30
100
AcDbLine
 10
498.316324
 20
357.781073
 30
0.0
 11
492.317715
 21
357.781073
 31
0.0
  0
LWPOLYLINE
  5
BF
330
A7
100
AcDbEntity
  8
0
  6
Continuous
 62
     0
370
     0
100
AcDbPolyline
 90
       15
 70
     0
 43
0.0
 10
518.32843
 20
317.631104
 10
518.403625
 20
317.117188
 10
518.413391
 20
316.597626
 10
518.357544
 20
316.081177
 10
518.236633
 20
315.576324
 10
518.052917
 20
315.090973
 10
517.809204
 20
314.632904
 10
517.51001
 20
314.209259
 10
517.160583
 20
313.826965
 10
516.766235
 20
313.492523
 10
516.333069
 20
313.210754
 10
515.867676
 20
312.985687
 10
515.377502
 20
312.820526
 10
514.869812
 20
312.718292
 10
514.317749
 20
312.681458
  0
LWPOLYLINE
  5
C0
330
A7
100
AcDbEntity
  8
0
  6
Continuous
 62
     0
370
     0
100
AcDbPolyline
 90
       15
 70
     0
 43
0.0
 10
514.317749
 20
312.681458
 10
513.800476
 20
312.713837
 10
513.29187
 20
312.811493
 10
512.800354
 20
312.972443
 10
512.333069
 20
313.193665
 10
511.897583
 20
313.47168
 10
511.500397
 20
313.802551
 10
511.147675
 20
314.181671
 10
510.84491
 20
314.602661
 10
510.59729
 20
315.058563
 10
510.409454
 20
315.542236
 10
510.28418
 20
316.045959
 10
510.223785
 20
316.561829
 10
510.229034
 20
317.08139
 10
510.307098
 20
317.631104
  0
ARC
  5
C1
330
A7
100
AcDbEntity
  8
0
  6
Continuous
 62
     0
370
    30
100
AcDbCircle
 10
514.317715
 20
316.781071
 30
0.0
 40
3.449999999999931
100
AcDbArc
 50
270.0
 51
14.263798
  0
ARC
  5
C2
330
A7
100
AcDbEntity
  8
0
  6
Continuous
 62
     0
370
    30
100
AcDbCircle
 10
514.317715
 20
316.781071
 30
0.0
 40
3.450000000000069
100
AcDbArc
 50
165.736202
 51
270.0
  0
ARC
  5
C3
330
A7
100
AcDbEntity
  8
0
  6
Continuous
 62
     0
370
    30
100
AcDbCircle
 10
514.317115
 20
316.781322
 30
0.0
 40
3.950251084332852
100
AcDbArc
 50
270.008692
 51
12.422642
  0
ARC
  5
C4
330
A7
100
AcDbEntity
  8
0
  6
Continuous
 62
     0
370
    30
100
AcDbCircle
 10
514.318314
 20
316.781322
 30
0.0
 40
3.950251145361089
100
AcDbArc
 50
167.577359
 51
269.991308
  0
LINE
  5
C5
330
A7
100
AcDbEntity
  8
0
  6
Continuous
 62
     0
370
    30
100
AcDbLine
 10
492.317715
 20
308.281073
 30
0.0
 11
492.317715
 21
357.781073
 31
0.0
  0
LINE
  5
C6
330
A7
100
AcDbEntity
  8
0
  6
Continuous
 62
     0
370
    30
100
AcDbLine
 10
536.317715
 20
308.281073
 30
0.0
 11
536.317715
 21
357.781073
 31
0.0
  0
LINE
  5
C7
330
A7
100
AcDbEntity
  8
0
  6
Continuous
 62
     0
370
    30
100
AcDbLine
 10
535.817735
 20
307.781093
 30
0.0
 11
536.317715
 21
308.281073
 31
0.0
  0
LINE
  5
C8
330
A7
100
AcDbEntity
  8
0
  6
Continuous
 62
     0
370
    30
100
AcDbLine
 10
492.817694
 20
307.781093
 30
0.0
 11
492.317715
 21
308.281073
 31
0.0
  0
LINE
  5
C9
330
A7
100
AcDbEntity
  8
0
  6
Continuous
 62
     0
370
    30
100
AcDbLine
 10
497.900808
 20
358.281099
 30
0.0
 11
498.75976
 21
358.281099
 31
0.0
  0
LINE
  5
CA
330
A7
100
AcDbEntity
  8
0
  6
Continuous
 62
     0
370
    30
100
AcDbLine
 10
530.409711
 20
358.281099
 30
0.0
 11
530.731841
 21
358.281099
 31
0.0
  0
LINE
  5
CB
330
A7
100
AcDbEntity
  8
0
  6
Continuous
 62
     0
370
     0
100
AcDbLine
 10
497.614491
 20
358.581144
 30
0.0
 11
497.614491
 21
360.481053
 31
0.0
  0
LWPOLYLINE
  5
CC
330
A7
100
AcDbEntity
  8
0
  6
Continuous
 62
     0
370
     0
100
AcDbPolyline
 90
        6
 70
     0
 43
0.0
 10
497.614502
 20
360.481049
 10
497.335205
 20
360.463318
 10
497.114899
 20
360.445648
 10
496.954529
 20
360.42804
 10
496.85498
 20
360.410645
 10
496.816315
 20
360.391174
  0
LWPOLYLINE
  5
CD
330
A7
100
AcDbEntity
  8
0
  6
Continuous
 62
     0
370
     0
100
AcDbPolyline
 90
        6
 70
     0
 43
0.0
 10
496.816315
 20
358.671021
 10
496.845886
 20
358.653961
 10
496.936829
 20
358.636597
 10
497.088745
 20
358.619049
 10
497.300659
 20
358.601349
 10
497.614502
 20
358.581146
  0
LWPOLYLINE
  5
CE
330
A7
100
AcDbEntity
  8
0
  6
Continuous
 62
     0
370
     0
100
AcDbPolyline
 90
       48
 70
     0
 43
0.0
 10
530.731812
 20
360.781097
 10
531.038208
 20
360.761047
 10
531.270264
 20
360.741089
 10
531.426636
 20
360.721313
 10
531.506592
 20
360.701813
 10
531.509766
 20
360.682648
 10
531.436279
 20
360.66391
 10
531.286377
 20
360.645721
 10
531.060608
 20
360.628143
 10
530.760254
 20
360.611206
 10
530.386475
 20
360.595062
 10
529.940918
 20
360.579742
 10
529.425659
 20
360.565308
 10
528.842896
 20
360.551849
 10
528.195312
 20
360.539398
 10
527.485779
 20
360.528046
 10
526.717468
 20
360.517822
 10
525.893738
 20
360.508759
 10
525.018372
 20
360.500916
 10
524.095276
 20
360.494324
 10
523.128418
 20
360.489014
 10
522.122314
 20
360.484985
 10
521.081299
 20
360.4823
 10
520.010071
 20
360.480957
 10
518.913513
 20
360.480927
 10
517.796387
 20
360.482269
 10
516.663696
 20
360.484924
 10
515.52063
 20
360.488892
 10
514.372131
 20
360.494202
 10
513.223389
 20
360.500763
 10
512.079529
 20
360.508575
 10
510.94574
 20
360.517609
 10
509.826996
 20
360.527832
 10
508.728271
 20
360.539154
 10
507.65451
 20
360.551575
 10
506.610565
 20
360.565002
 10
505.600952
 20
360.579437
 10
504.630341
 20
360.594727
 10
503.702972
 20
360.61087
 10
502.822906
 20
360.627777
 10
501.994232
 20
360.645355
 10
501.220581
 20
360.663544
 10
500.505341
 20
360.682251
 10
499.851807
 20
360.701385
 10
499.263031
 20
360.720917
 10
498.741333
 20
360.740662
 10
498.28891
 20
360.76062
 10
497.900818
 20
360.781097
  0
LWPOLYLINE
  5
CF
330
A7
100
AcDbEntity
  8
0
  6
Continuous
 62
     0
370
     0
100
AcDbPolyline
 90
       43
 70
     0
 43
0.0
 10
500.954865
 20
360.781097
 10
501.304443
 20
360.762848
 10
501.726746
 20
360.74469
 10
502.219391
 20
360.726746
 10
502.779694
 20
360.709106
 10
503.404388
 20
360.691864
 10
504.090149
 20
360.67511
 10
504.833038
 20
360.658966
 10
505.628906
 20
360.643494
 10
506.473358
 20
360.628784
 10
507.361633
 20
360.614929
 10
508.288818
 20
360.60202
 10
509.249725
 20
360.590088
 10
510.238892
 20
360.579224
 10
511.250916
 20
360.569519
 10
512.28009
 20
360.560974
 10
513.320618
 20
360.55365
 10
514.366699
 20
360.547607
 10
515.412598
 20
360.542877
 10
516.452271
 20
360.539459
 10
517.480042
 20
360.537415
 10
518.490173
 20
360.536713
 10
519.476929
 20
360.537415
 10
520.434875
 20
360.539429
 10
521.358582
 20
360.542816
 10
522.24292
 20
360.547546
 10
523.082947
 20
360.553558
 10
523.873901
 20
360.560883
 10
524.611511
 20
360.569397
 10
525.291565
 20
360.579102
 10
525.910217
 20
360.589935
 10
526.464111
 20
360.601868
 10
526.950073
 20
360.614777
 10
527.365417
 20
360.628601
 10
527.707886
 20
360.643311
 10
527.975403
 20
360.658752
 10
528.166626
 20
360.674896
 10
528.280396
 20
360.69165
 10
528.316101
 20
360.708893
 10
528.273743
 20
360.726532
 10
528.15332
 20
360.744476
 10
527.955383
 20
360.762634
 10
527.677734
 20
360.781097
  0
LWPOLYLINE
  5
D0
330
A7
100
AcDbEntity
  8
0
  6
Continuous
 62
     0
370
     0
100
AcDbPolyline
 90
       43
 70
     0
 43
0.0
 10
497.614502
 20
358.581146
 10
498.005219
 20
358.60141
 10
498.471466
 20
358.621613
 10
499.010254
 20
358.641663
 10
499.618134
 20
358.661377
 10
500.29245
 20
358.680725
 10
501.030823
 20
358.699585
 10
501.830414
 20
358.717957
 10
502.687683
 20
358.735687
 10
503.59848
 20
358.752747
 10
504.558563
 20
358.769012
 10
505.563416
 20
358.784424
 10
506.608002
 20
358.798889
 10
507.687134
 20
358.812378
 10
508.795685
 20
358.824768
 10
509.928955
 20
358.83606
 10
511.082336
 20
358.846161
 10
512.251404
 20
358.855103
 10
513.430847
 20
358.862762
 10
514.614868
 20
358.869171
 10
515.797607
 20
358.874237
 10
516.973389
 20
358.87796
 10
518.13678
 20
358.880341
 10
519.282654
 20
358.881348
 10
520.405701
 20
358.880981
 10
521.500977
 20
358.879211
 10
522.563538
 20
358.876099
 10
523.588501
 20
358.871643
 10
524.570984
 20
358.865845
 10
525.506348
 20
358.858765
 10
526.390076
 20
358.850403
 10
527.217773
 20
358.84082
 10
527.986267
 20
358.830048
 10
528.692566
 20
358.818176
 10
529.333618
 20
358.805176
 10
529.906494
 20
358.791168
 10
530.408508
 20
358.776154
 10
530.836792
 20
358.760284
 10
531.189209
 20
358.743591
 10
531.464478
 20
358.726135
 10
531.661255
 20
358.708038
 10
531.778564
 20
358.689392
 10
531.816345
 20
358.670197
  0
LWPOLYLINE
  5
D1
330
A7
100
AcDbEntity
  8
0
  6
Continuous
 62
     0
370
     0
100
AcDbPolyline
 90
       43
 70
     0
 43
0.0
 10
531.816284
 20
360.392303
 10
531.780029
 20
360.373169
 10
531.664062
 20
360.354492
 10
531.468628
 20
360.336365
 10
531.194641
 20
360.318909
 10
530.843445
 20
360.302185
 10
530.416199
 20
360.286285
 10
529.915222
 20
360.271271
 10
529.343201
 20
360.257233
 10
528.702942
 20
360.244232
 10
527.997314
 20
360.2323
 10
527.22937
 20
360.221527
 10
526.402222
 20
360.211914
 10
525.518921
 20
360.203552
 10
524.583801
 20
360.196442
 10
523.601501
 20
360.190613
 10
522.57666
 20
360.186127
 10
521.514099
 20
360.183014
 10
520.418762
 20
360.181244
 10
519.295532
 20
360.180847
 10
518.149414
 20
360.181854
 10
516.985718
 20
360.184204
 10
515.80957
 20
360.187927
 10
514.626404
 20
360.192993
 10
513.441895
 20
360.199371
 10
512.261841
 20
360.207031
 10
511.092255
 20
360.215942
 10
509.938232
 20
360.226044
 10
508.804321
 20
360.237335
 10
507.695129
 20
360.249725
 10
506.615326
 20
360.263214
 10
505.570099
 20
360.277679
 10
504.564545
 20
360.293091
 10
503.603821
 20
360.309357
 10
502.692383
 20
360.326416
 10
501.834473
 20
360.344147
 10
501.034271
 20
360.362518
 10
500.295319
 20
360.381409
 10
499.620483
 20
360.400757
 10
499.012146
 20
360.420471
 10
498.4729
 20
360.440521
 10
498.006287
 20
360.460754
 10
497.614502
 20
360.481049
  0
LWPOLYLINE
  5
D2
330
A7
100
AcDbEntity
  8
0
  6
Continuous
 62
     0
370
     0
100
AcDbPolyline
 90
       44
 70
     0
 43
0.0
 10
530.486023
 20
358.331207
 10
530.588379
 20
358.350372
 10
530.613586
 20
358.369202
 10
530.561401
 20
358.387634
 10
530.432129
 20
358.405548
 10
530.226379
 20
358.422852
 10
529.945129
 20
358.439484
 10
529.589722
 20
358.455383
 10
529.161804
 20
358.470459
 10
528.663452
 20
358.484619
 10
528.097046
 20
358.497803
 10
527.465149
 20
358.509979
 10
526.770935
 20
358.521057
 10
526.017578
 20
358.531006
 10
525.208679
 20
358.539764
 10
524.348083
 20
358.547302
 10
523.43988
 20
358.553558
 10
522.488403
 20
358.558533
 10
521.498108
 20
358.562195
 10
520.473755
 20
358.564514
 10
519.420166
 20
358.565491
 10
518.342346
 20
358.565125
 10
517.245361
 20
358.563385
 10
516.134521
 20
358.560333
 10
515.015076
 20
358.555939
 10
513.892273
 20
358.550262
 10
512.771484
 20
358.543274
 10
511.65802
 20
358.535065
 10
510.557129
 20
358.525665
 10
509.474121
 20
358.515076
 10
508.414032
 20
358.503387
 10
507.381989
 20
358.490631
 10
506.382812
 20
358.476898
 10
505.421295
 20
358.462219
 10
504.501953
 20
358.446686
 10
503.629211
 20
358.430359
 10
502.807159
 20
358.413361
 10
502.039703
 20
358.395691
 10
501.330505
 20
358.377502
 10
500.682922
 20
358.358826
 10
500.100037
 20
358.339813
 10
499.584564
 20
358.320526
 10
499.139038
 20
358.301025
 10
498.759766
 20
358.281097
  0
LWPOLYLINE
  5
D3
330
A7
100
AcDbEntity
  8
0
  6
Continuous
 62
     0
370
     0
100
AcDbPolyline
 90
       48
 70
     0
 43
0.0
 10
497.900818
 20
358.281097
 10
498.280029
 20
358.301147
 10
498.730865
 20
358.321106
 10
499.251251
 20
358.340881
 10
499.838898
 20
358.360413
 10
500.491211
 20
358.379547
 10
501.2052
 20
358.398285
 10
501.977753
 20
358.416473
 10
502.805389
 20
358.434082
 10
503.684448
 20
358.450989
 10
504.610931
 20
358.467133
 10
505.58078
 20
358.482483
 10
506.5896
 20
358.496887
 10
507.632935
 20
358.510345
 10
508.706116
 20
358.522797
 10
509.804352
 20
358.534149
 10
510.922729
 20
358.544403
 10
512.056274
 20
358.553436
 10
513.19989
 20
358.561279
 10
514.348511
 20
358.567871
 10
515.497009
 20
358.573181
 10
516.640198
 20
358.577209
 10
517.773071
 20
358.579895
 10
518.890503
 20
358.581238
 10
519.987488
 20
358.581268
 10
521.059204
 20
358.579926
 10
522.10083
 20
358.577271
 10
523.107666
 20
358.573303
 10
524.075317
 20
358.567993
 10
524.99939
 20
358.561432
 10
525.875793
 20
358.553619
 10
526.700562
 20
358.544586
 10
527.470093
 20
358.534393
 10
528.180908
 20
358.523041
 10
528.829834
 20
358.51062
 10
529.41394
 20
358.497192
 10
529.930725
 20
358.482788
 10
530.377747
 20
358.467468
 10
530.753113
 20
358.451324
 10
531.055115
 20
358.434448
 10
531.28241
 20
358.41684
 10
531.43396
 20
358.398651
 10
531.509094
 20
358.379944
 10
531.507446
 20
358.360809
 10
531.429138
 20
358.341278
 10
531.274414
 20
358.321503
 10
531.044006
 20
358.301544
 10
530.731812
 20
358.281097
  0
LWPOLYLINE
  5
D4
330
A7
100
AcDbEntity
  8
0
  6
Continuous
 62
     0
370
     0
100
AcDbPolyline
 90
       42
 70
     0
 43
0.0
 10
530.316345
 20
358.06601
 10
530.278076
 20
358.084564
 10
530.163391
 20
358.102631
 10
529.972961
 20
358.120117
 10
529.707703
 20
358.136963
 10
529.368713
 20
358.153015
 10
528.957703
 20
358.168274
 10
528.476746
 20
358.182648
 10
527.927917
 20
358.196045
 10
527.313965
 20
358.208405
 10
526.637878
 20
358.219696
 10
525.902771
 20
358.229828
 10
525.112305
 20
358.23877
 10
524.270142
 20
358.24649
 10
523.38031
 20
358.25293
 10
522.447144
 20
358.258087
 10
521.475037
 20
358.261902
 10
520.468689
 20
358.264374
 10
519.432922
 20
358.265503
 10
518.372681
 20
358.265259
 10
517.292969
 20
358.263641
 10
516.199036
 20
358.260712
 10
515.09613
 20
358.256409
 10
513.989502
 20
358.250793
 10
512.884399
 20
358.243896
 10
511.786194
 20
358.235748
 10
510.700073
 20
358.226379
 10
509.631256
 20
358.21582
 10
508.5849
 20
358.204132
 10
507.565948
 20
358.191406
 10
506.579315
 20
358.177643
 10
505.6297
 20
358.162964
 10
504.721649
 20
358.1474
 10
503.859497
 20
358.131073
 10
503.047394
 20
358.113983
 10
502.289185
 20
358.096283
 10
501.588593
 20
358.078033
 10
500.948883
 20
358.059296
 10
500.372986
 20
358.040222
 10
499.86377
 20
358.020813
 10
499.423706
 20
358.001251
 10
499.047607
 20
357.98114
  0
ARC
  5
D5
330
A7
100
AcDbEntity
  8
0
  6
Continuous
 62
     0
370
    30
100
AcDbCircle
 10
498.752436
 20
357.985974
 30
0.0
 40
0.2952150453727893
100
AcDbArc
 50
359.062518
 51
88.578406
  0
LINE
  5
D6
330
A7
100
AcDbEntity
  8
0
  6
Continuous
 62
     0
370
     0
100
AcDbLine
 10
530.747517
 20
358.28156
 30
0.0
 11
530.731841
 21
358.281099
 31
0.0
  0
LWPOLYLINE
  5
D7
330
A7
100
AcDbEntity
  8
0
  6
Continuous
 62
     0
370
     0
100
AcDbPolyline
 90
        5
 70
     0
 43
0.0
 10
497.900818
 20
358.281097
 10
497.802277
 20
358.299591
 10
497.715179
 20
358.3526
 10
497.651398
 20
358.433838
 10
497.614502
 20
358.581146
  0
LWPOLYLINE
  5
D8
330
A7
100
AcDbEntity
  8
0
  6
Continuous
 62
     0
370
     0
100
AcDbPolyline
 90
        5
 70
     0
 43
0.0
 10
497.614502
 20
360.481049
 10
497.632111
 20
360.58429
 10
497.682709
 20
360.675568
 10
497.760223
 20
360.742432
 10
497.900818
 20
360.781097
  0
LINE
  5
D9
330
A7
100
AcDbEntity
  8
0
  6
Continuous
 62
     0
370
     0
100
AcDbLine
 10
499.046077
 20
358.010372
 30
0.0
 11
499.046077
 21
357.631101
 31
0.0
  0
LINE
  5
DA
330
A7
100
AcDbEntity
  8
0
  6
Continuous
 62
     0
370
    30
100
AcDbLine
 10
498.316324
 20
357.631101
 30
0.0
 11
498.316324
 21
358.281099
 31
0.0
  0
LINE
  5
DB
330
A7
100
AcDbEntity
  8
0
  6
Continuous
 62
     0
370
    30
100
AcDbLine
 10
530.316324
 20
357.631101
 30
0.0
 11
530.316324
 21
358.065999
 31
0.0
  0
LWPOLYLINE
  5
DC
330
A7
100
AcDbEntity
  8
0
  6
Continuous
 62
     0
370
    30
100
AcDbPolyline
 90
       25
 70
     0
 43
0.0
 10
496.816315
 20
360.391418
 10
496.854797
 20
360.539703
 10
496.92865
 20
360.628418
 10
496.987701
 20
360.667358
 10
497.0289
 20
360.685516
 10
497.061005
 20
360.696106
 10
497.089539
 20
360.703613
 10
497.116913
 20
360.709686
 10
497.144531
 20
360.714905
 10
497.17334
 20
360.719696
 10
497.203796
 20
360.724182
 10
497.236206
 20
360.728516
 10
497.270844
 20
360.732727
 10
497.307831
 20
360.736877
 10
497.347198
 20
360.740967
 10
497.389099
 20
360.744995
 10
497.433594
 20
360.748993
 10
497.480713
 20
360.752991
 10
497.530457
 20
360.756989
 10
497.582855
 20
360.760956
 10
497.637909
 20
360.764893
 10
497.695648
 20
360.768829
 10
497.756042
 20
360.772766
 10
497.819153
 20
360.776703
 10
497.885132
 20
360.78064
  0
LWPOLYLINE
  5
DD
330
A7
100
AcDbEntity
  8
0
  6
Continuous
 62
     0
370
    30
100
AcDbPolyline
 90
       26
 70
     0
 43
0.0
 10
497.885132
 20
358.281555
 10
497.821991
 20
358.285309
 10
497.761353
 20
358.289062
 10
497.703217
 20
358.292847
 10
497.647522
 20
358.2966
 10
497.594269
 20
358.300385
 10
497.543457
 20
358.304199
 10
497.495087
 20
358.307983
 10
497.449097
 20
358.311829
 10
497.405518
 20
358.315674
 10
497.364288
 20
358.31955
 10
497.325439
 20
358.323456
 10
497.288879
 20
358.327423
 10
497.254547
 20
358.331421
 10
497.222382
 20
358.33548
 10
497.1922
 20
358.33963
 10
497.163635
 20
358.343994
 10
497.136353
 20
358.348755
 10
497.109924
 20
358.354004
 10
497.083557
 20
358.360046
 10
497.055878
 20
358.367584
 10
497.024048
 20
358.378571
 10
496.983337
 20
358.397186
 10
496.925293
 20
358.436615
 10
496.854309
 20
358.523376
 10
496.816345
 20
358.670776
  0
LWPOLYLINE
  5
DE
330
A7
100
AcDbEntity
  8
0
  6
Continuous
 62
     0
370
    30
100
AcDbPolyline
 90
       26
 70
     0
 43
0.0
 10
530.747498
 20
360.78064
 10
530.810669
 20
360.776886
 10
530.871277
 20
360.773132
 10
530.929443
 20
360.769348
 10
530.985107
 20
360.765594
 10
531.038391
 20
360.76181
 10
531.089172
 20
360.757996
 10
531.137573
 20
360.754211
 10
531.183533
 20
360.750366
 10
531.227112
 20
360.746521
 10
531.268311
 20
360.742645
 10
531.30719
 20
360.738739
 10
531.34375
 20
360.734772
 10
531.378052
 20
360.730774
 10
531.410278
 20
360.726715
 10
531.44043
 20
360.722565
 10
531.468994
 20
360.718201
 10
531.496277
 20
360.71344
 10
531.522705
 20
360.708191
 10
531.549072
 20
360.702148
 10
531.576721
 20
360.694611
 10
531.608582
 20
360.683624
 10
531.649292
 20
360.665009
 10
531.707336
 20
360.62558
 10
531.77832
 20
360.538818
 10
531.816284
 20
360.391418
  0
LWPOLYLINE
  5
DF
330
A7
100
AcDbEntity
  8
0
  6
Continuous
 62
     0
370
    30
100
AcDbPolyline
 90
       25
 70
     0
 43
0.0
 10
531.816345
 20
358.670776
 10
531.777832
 20
358.522491
 10
531.703979
 20
358.433777
 10
531.644958
 20
358.394836
 10
531.60376
 20
358.376678
 10
531.571655
 20
358.366119
 10
531.543091
 20
358.358582
 10
531.515747
 20
358.352509
 10
531.488098
 20
358.34729
 10
531.45929
 20
358.342529
 10
531.428833
 20
358.338013
 10
531.396423
 20
358.333679
 10
531.361816
 20
358.329468
 10
531.324829
 20
358.325317
 10
531.285461
 20
358.321228
 10
531.24353
 20
358.3172
 10
531.199036
 20
358.313202
 10
531.151917
 20
358.309204
 10
531.102173
 20
358.305206
 10
531.049805
 20
358.301239
 10
530.994751
 20
358.297302
 10
530.937012
 20
358.293365
 10
530.876587
 20
358.289429
 10
530.813477
 20
358.285492
 10
530.747498
 20
358.281555
  0
LWPOLYLINE
  5
E0
330
A7
100
AcDbEntity
  8
0
  6
Continuous
 62
     0
370
    30
100
AcDbPolyline
 90
        7
 70
     0
 43
0.0
 10
530.505981
 20
358.338379
 10
530.50238
 20
358.337402
 10
530.489624
 20
358.332703
 10
530.463074
 20
358.319916
 10
530.415039
 20
358.285889
 10
530.352051
 20
358.206757
 10
530.316345
 20
358.06601
  0
LINE
  5
E1
330
A7
100
AcDbEntity
  8
0
  6
Continuous
 62
     0
370
    30
100
AcDbLine
 10
531.816324
 20
358.670781
 30
0.0
 11
531.816324
 21
360.391417
 31
0.0
  0
LINE
  5
E2
330
A7
100
AcDbEntity
  8
0
  6
Continuous
 62
     0
370
    30
100
AcDbLine
 10
496.816324
 20
358.670781
 30
0.0
 11
496.816324
 21
360.391416
 31
0.0
  0
LWPOLYLINE
  5
E3
330
A7
100
AcDbEntity
  8
0
  6
Continuous
 62
     0
370
     0
100
AcDbPolyline
 90
        7
 70
     0
 43
0.0
 10
496.959351
 20
360.650879
 10
496.341064
 20
360.643921
 10
495.781891
 20
360.63739
 10
495.283722
 20
360.631348
 10
494.848175
 20
360.625793
 10
494.476685
 20
360.620758
 10
494.143677
 20
360.615845
  0
LWPOLYLINE
  5
E4
330
A7
100
AcDbEntity
  8
0
  6
Continuous
 62
     0
370
     0
100
AcDbPolyline
 90
       11
 70
     0
 43
0.0
 10
493.317719
 20
358.758484
 10
493.353394
 20
358.756195
 10
493.460449
 20
358.753326
 10
493.638123
 20
358.749847
 10
493.885681
 20
358.745819
 10
494.202332
 20
358.741211
 10
494.587006
 20
358.736084
 10
495.03833
 20
358.730438
 10
495.554932
 20
358.724274
 10
496.135559
 20
358.717621
 10
496.816315
 20
358.710083
  0
LWPOLYLINE
  5
E5
330
A7
100
AcDbEntity
  8
0
  6
Continuous
 62
     0
370
     0
100
AcDbPolyline
 90
       11
 70
     0
 43
0.0
 10
496.816315
 20
360.352051
 10
496.170227
 20
360.34491
 10
495.586029
 20
360.338226
 10
495.065765
 20
360.332031
 10
494.610718
 20
360.326355
 10
494.22226
 20
360.321198
 10
493.901733
 20
360.316589
 10
493.650238
 20
360.3125
 10
493.468597
 20
360.309021
 10
493.357544
 20
360.306091
 10
493.317719
 20
360.30365
  0
LWPOLYLINE
  5
E6
330
A7
100
AcDbEntity
  8
0
  6
Continuous
 62
     0
370
     0
100
AcDbPolyline
 90
        8
 70
     0
 43
0.0
 10
534.648254
 20
360.600403
 10
534.411316
 20
360.600647
 10
534.117371
 20
360.60144
 10
533.767212
 20
360.602692
 10
533.361816
 20
360.604492
 10
532.902405
 20
360.606781
 10
532.390259
 20
360.609558
 10
531.720825
 20
360.613464
  0
LWPOLYLINE
  5
E7
330
A7
100
AcDbEntity
  8
0
  6
Continuous
 62
     0
370
     0
100
AcDbPolyline
 90
       14
 70
     0
 43
0.0
 10
531.673279
 20
360.650909
 10
532.30542
 20
360.643799
 10
532.87561
 20
360.637146
 10
533.381897
 20
360.630981
 10
533.82251
 20
360.625336
 10
534.195984
 20
360.620239
 10
534.501038
 20
360.615692
 10
534.736511
 20
360.611694
 10
534.901733
 20
360.608307
 10
534.996094
 20
360.605499
 10
535.019165
 20
360.603302
 10
534.971008
 20
360.601715
 10
534.851746
 20
360.600739
 10
534.648254
 20
360.600403
  0
LWPOLYLINE
  5
E8
330
A7
100
AcDbEntity
  8
0
  6
Continuous
 62
     0
370
     0
100
AcDbPolyline
 90
       11
 70
     0
 43
0.0
 10
533.02533
 20
360.614838
 10
533.198792
 20
360.615082
 10
533.313538
 20
360.615906
 10
533.365173
 20
360.61731
 10
533.349426
 20
360.619354
 10
533.262817
 20
360.622009
 10
533.102173
 20
360.625305
 10
532.865295
 20
360.629272
 10
532.55072
 20
360.633911
 10
532.157898
 20
360.639191
 10
531.681885
 20
360.645172
  0
ARC
  5
E9
330
A7
100
AcDbEntity
  8
0
  6
Continuous
 62
     0
370
     0
100
AcDbCircle
 10
533.366145
 20
659.401831
 30
0.0
 40
298.7871997472616
100
AcDbArc
 50
269.683301
 51
269.934649
  0
LWPOLYLINE
  5
EA
330
A7
100
AcDbEntity
  8
0
  6
Continuous
 62
     0
370
     0
100
AcDbPolyline
 90
        5
 70
     0
 43
0.0
 10
535.317627
 20
360.30368
 10
535.29834
 20
360.302368
 10
535.240784
 20
360.301392
 10
535.145142
 20
360.300751
 10
534.940308
 20
360.300415
  0
LINE
  5
EB
330
A7
100
AcDbEntity
  8
0
  6
Continuous
 62
     0
370
     0
100
AcDbLine
 10
534.940308
 20
360.300415
 30
0.0
 11
534.940308
 21
358.76173
 31
0.0
  0
LWPOLYLINE
  5
EC
330
A7
100
AcDbEntity
  8
0
  6
Continuous
 62
     0
370
     0
100
AcDbPolyline
 90
        5
 70
     0
 43
0.0
 10
534.940308
 20
358.761719
 10
535.090637
 20
358.761566
 10
535.203125
 20
358.761078
 10
535.277588
 20
358.760254
 10
535.317627
 20
358.758484
  0
LWPOLYLINE
  5
ED
330
A7
100
AcDbEntity
  8
0
  6
Continuous
 62
     0
370
     0
100
AcDbPolyline
 90
        8
 70
     0
 43
0.0
 10
531.816345
 20
358.747742
 10
532.434082
 20
358.751373
 10
532.996155
 20
358.754456
 10
533.500732
 20
358.757019
 10
533.946167
 20
358.759003
 10
534.330872
 20
358.760468
 10
534.653442
 20
358.761383
 10
534.940308
 20
358.761719
  0
LWPOLYLINE
  5
EE
330
A7
100
AcDbEntity
  8
0
  6
Continuous
 62
     0
370
     0
100
AcDbPolyline
 90
        8
 70
     0
 43
0.0
 10
534.940308
 20
360.300415
 10
534.688782
 20
360.30069
 10
534.373962
 20
360.301544
 10
533.996826
 20
360.302917
 10
533.558838
 20
360.304871
 10
533.061401
 20
360.307343
 10
532.506348
 20
360.310364
 10
531.816345
 20
360.314392
  0
LWPOLYLINE
  5
EF
330
A7
100
AcDbEntity
  8
0
  6
Continuous
 62
     0
370
     0
100
AcDbPolyline
 90
        7
 70
     0
 43
0.0
 10
534.004822
 20
358.456024
 10
533.775757
 20
358.45578
 10
533.491699
 20
358.455048
 10
533.153381
 20
358.453796
 10
532.76178
 20
358.452087
 10
532.317932
 20
358.44986
 10
531.718567
 20
358.446594
  0
LWPOLYLINE
  5
F0
330
A7
100
AcDbEntity
  8
0
  6
Continuous
 62
     0
370
     0
100
AcDbPolyline
 90
        5
 70
     0
 43
0.0
 10
534.335205
 20
358.450806
 10
534.364807
 20
358.453064
 10
534.321167
 20
358.454681
 10
534.204407
 20
358.455688
 10
534.004822
 20
358.456024
  0
LWPOLYLINE
  5
F1
330
A7
100
AcDbEntity
  8
0
  6
Continuous
 62
     0
370
     0
100
AcDbPolyline
 90
        9
 70
     0
 43
0.0
 10
534.648254
 20
358.461731
 10
534.835693
 20
358.461456
 10
534.958252
 20
358.460602
 10
535.015625
 20
358.459167
 10
535.007568
 20
358.457184
 10
534.934204
 20
358.454651
 10
534.795654
 20
358.451569
 10
534.592346
 20
358.447937
 10
534.293091
 20
358.443298
  0
LWPOLYLINE
  5
F2
330
A7
100
AcDbEntity
  8
0
  6
Continuous
 62
     0
370
     0
100
AcDbPolyline
 90
        8
 70
     0
 43
0.0
 10
531.720764
 20
358.4487
 10
532.293274
 20
358.452026
 10
532.814697
 20
358.454895
 10
533.283691
 20
358.457275
 10
533.698792
 20
358.459167
 10
534.058899
 20
358.46051
 10
534.362976
 20
358.461395
 10
534.648254
 20
358.461731
  0
LWPOLYLINE
  5
F3
330
A7
100
AcDbEntity
  8
0
  6
Continuous
 62
     0
370
     0
100
AcDbPolyline
 90
        8
 70
     0
 43
0.0
 10
493.897552
 20
358.45047
 10
494.129669
 20
358.446533
 10
494.42981
 20
358.442047
 10
494.796936
 20
358.437012
 10
495.229858
 20
358.431458
 10
495.727081
 20
358.425385
 10
496.286957
 20
358.418854
 10
496.959412
 20
358.411255
  0
LWPOLYLINE
  5
F4
330
A7
100
AcDbEntity
  8
0
  6
Continuous
 62
     0
370
     0
100
AcDbPolyline
 90
        8
 70
     0
 43
0.0
 10
533.712769
 20
358.156036
 10
533.444885
 20
358.155701
 10
533.103394
 20
358.154694
 10
532.689758
 20
358.153015
 10
532.205566
 20
358.150696
 10
531.652832
 20
358.147705
 10
531.033691
 20
358.144073
 10
530.325745
 20
358.139679
  0
ARC
  5
F5
330
A7
100
AcDbEntity
  8
0
  6
Continuous
 62
     0
370
     0
100
AcDbCircle
 10
534.010159
 20
358.158673
 30
0.0
 40
0.2973980795744495
100
AcDbArc
 50
91.030538
 51
180.508353
  0
LWPOLYLINE
  5
F6
330
A7
100
AcDbEntity
  8
0
  6
Continuous
 62
     0
370
     0
100
AcDbPolyline
 90
        4
 70
     0
 43
0.0
 10
534.067688
 20
358.152893
 10
534.028198
 20
358.154633
 10
533.910095
 20
358.15567
 10
533.712769
 20
358.156036
  0
LWPOLYLINE
  5
F7
330
A7
100
AcDbEntity
  8
0
  6
Continuous
 62
     0
370
     0
100
AcDbPolyline
 90
       11
 70
     0
 43
0.0
 10
498.316315
 20
358.100922
 10
497.624268
 20
358.108643
 10
496.997498
 20
358.115875
 10
496.438293
 20
358.122589
 10
495.949005
 20
358.128754
 10
495.531555
 20
358.134308
 10
495.187469
 20
358.139282
 10
494.918091
 20
358.143646
 10
494.72467
 20
358.147369
 10
494.607697
 20
358.150452
 10
494.567719
 20
358.152893
  0
ARC
  5
F8
330
A7
100
AcDbEntity
  8
0
  6
Continuous
 62
     0
370
     0
100
AcDbCircle
 10
534.642922
 20
358.759091
 30
0.0
 40
0.2973980795734968
100
AcDbArc
 50
271.030538
 51
0.508353
  0
ARC
  5
F9
330
A7
100
AcDbEntity
  8
0
  6
Continuous
 62
     0
370
     0
100
AcDbCircle
 10
534.642922
 20
360.303053
 30
0.0
 40
0.2973980856209239
100
AcDbArc
 50
359.491647
 51
88.969461
  0
LINE
  5
FA
330
A7
100
AcDbEntity
  8
0
  6
Continuous
 62
     0
370
     0
100
AcDbLine
 10
533.712773
 20
357.781072
 30
0.0
 11
533.712773
 21
358.156035
 31
0.0
  0
LINE
  5
FB
330
A7
100
AcDbEntity
  8
0
  6
Continuous
 62
     0
370
    30
100
AcDbLine
 10
494.567715
 20
357.781073
 30
0.0
 11
494.567715
 21
358.152888
 31
0.0
  0
LINE
  5
FC
330
A7
100
AcDbEntity
  8
0
  6
Continuous
 62
     0
370
    30
100
AcDbLine
 10
534.067715
 20
357.781073
 30
0.0
 11
534.067715
 21
358.15289
 31
0.0
  0
LWPOLYLINE
  5
FD
330
A7
100
AcDbEntity
  8
0
  6
Continuous
 62
     0
370
    30
100
AcDbPolyline
 90
       61
 70
     0
 43
0.0
 10
493.317719
 20
360.30365
 10
493.358978
 20
360.455444
 10
493.467773
 20
360.563507
 10
493.560333
 20
360.598297
 10
493.588226
 20
360.602478
 10
493.600952
 20
360.603668
 10
493.610382
 20
360.604309
 10
493.61911
 20
360.604767
 10
493.628113
 20
360.605194
 10
493.637695
 20
360.605591
 10
493.648224
 20
360.605957
 10
493.65976
 20
360.606354
 10
493.672363
 20
360.60675
 10
493.686096
 20
360.607147
 10
493.700958
 20
360.607544
 10
493.71698
 20
360.607941
 10
493.734161
 20
360.608368
 10
493.752533
 20
360.608765
 10
493.772125
 20
360.609222
 10
493.792908
 20
360.60965
 10
493.814911
 20
360.610107
 10
493.838104
 20
360.610565
 10
493.862518
 20
360.611053
 10
493.888153
 20
360.611511
 10
493.915009
 20
360.61203
 10
493.943054
 20
360.612518
 10
493.972321
 20
360.613037
 10
494.002808
 20
360.613556
 10
494.034485
 20
360.614075
 10
494.067383
 20
360.614624
 10
494.101501
 20
360.615173
 10
494.13681
 20
360.615723
 10
494.17334
 20
360.616302
 10
494.21109
 20
360.616882
 10
494.250031
 20
360.617462
 10
494.290161
 20
360.618073
 10
494.331512
 20
360.618683
 10
494.374054
 20
360.619293
 10
494.417786
 20
360.619934
 10
494.462738
 20
360.620575
 10
494.50885
 20
360.621216
 10
494.556152
 20
360.621887
 10
494.604645
 20
360.622559
 10
494.654266
 20
360.62323
 10
494.705048
 20
360.623901
 10
494.757019
 20
360.624603
 10
494.81015
 20
360.625305
 10
494.864532
 20
360.626038
 10
494.920166
 20
360.62674
 10
494.97702
 20
360.627472
 10
495.035034
 20
360.628235
 10
495.094086
 20
360.628967
 10
495.154083
 20
360.62973
 10
495.214935
 20
360.630493
 10
495.276917
 20
360.631287
 10
495.340942
 20
360.63208
 10
495.407532
 20
360.632874
 10
495.473785
 20
360.633698
 10
495.535858
 20
360.63446
 10
495.598358
 20
360.635254
 10
495.676178
 20
360.636139
  0
LWPOLYLINE
  5
FE
330
A7
100
AcDbEntity
  8
0
  6
Continuous
 62
     0
370
    30
100
AcDbPolyline
 90
       29
 70
     0
 43
0.0
 10
535.317688
 20
360.30368
 10
535.286743
 20
360.43631
 10
535.201843
 20
360.540497
 10
535.102173
 20
360.591675
 10
535.05896
 20
360.600983
 10
535.042236
 20
360.603027
 10
535.032471
 20
360.603821
 10
535.02478
 20
360.604309
 10
535.017151
 20
360.604736
 10
535.00946
 20
360.605103
 10
535.001404
 20
360.605438
 10
534.992676
 20
360.605774
 10
534.983215
 20
360.60611
 10
534.973022
 20
360.606445
 10
534.961975
 20
360.606781
 10
534.950134
 20
360.607117
 10
534.937439
 20
360.607452
 10
534.923889
 20
360.607819
 10
534.909485
 20
360.608154
 10
534.894165
 20
360.608521
 10
534.87793
 20
360.608887
 10
534.86084
 20
360.609253
 10
534.842834
 20
360.60965
 10
534.823975
 20
360.610046
 10
534.804138
 20
360.610443
 10
534.783447
 20
360.61084
 10
534.761902
 20
360.611237
 10
534.73938
 20
360.611664
 10
534.715942
 20
360.612091
  0
LWPOLYLINE
  5
FF
330
A7
100
AcDbEntity
  8
0
  6
Continuous
 62
     0
370
    30
100
AcDbPolyline
 90
       43
 70
     0
 43
0.0
 10
535.317688
 20
358.758484
 10
535.286682
 20
358.625763
 10
535.201782
 20
358.521576
 10
535.102051
 20
358.470428
 10
535.058899
 20
358.461151
 10
535.042236
 20
358.459106
 10
535.032471
 20
358.458313
 10
535.02478
 20
358.457825
 10
535.01709
 20
358.457397
 10
535.009399
 20
358.457031
 10
535.001343
 20
358.456696
 10
534.992615
 20
358.45636
 10
534.983154
 20
358.456024
 10
534.972961
 20
358.455688
 10
534.961914
 20
358.455383
 10
534.950073
 20
358.455017
 10
534.937378
 20
358.454681
 10
534.923767
 20
358.454346
 10
534.909363
 20
358.453979
 10
534.893982
 20
358.453613
 10
534.877808
 20
358.453247
 10
534.860657
 20
358.452881
 10
534.842651
 20
358.452484
 10
534.82373
 20
358.452118
 10
534.803955
 20
358.451691
 10
534.783264
 20
358.451294
 10
534.761597
 20
358.450897
 10
534.739136
 20
358.45047
 10
534.715698
 20
358.450043
 10
534.691345
 20
358.449615
 10
534.666138
 20
358.449158
 10
534.640015
 20
358.44873
 10
534.612976
 20
358.448273
 10
534.585022
 20
358.447815
 10
534.556213
 20
358.447327
 10
534.526428
 20
358.446838
 10
534.495789
 20
358.446381
 10
534.464233
 20
358.445862
 10
534.431824
 20
358.445374
 10
534.398499
 20
358.444855
 10
534.364258
 20
358.444366
 10
534.329102
 20
358.443817
 10
534.29303
 20
358.443298
  0
LWPOLYLINE
  5
100
330
A7
100
AcDbEntity
  8
0
  6
Continuous
 62
     0
370
    30
100
AcDbPolyline
 90
       61
 70
     0
 43
0.0
 10
493.317719
 20
358.758484
 10
493.358978
 20
358.606689
 10
493.467773
 20
358.498627
 10
493.560333
 20
358.463867
 10
493.588226
 20
358.459656
 10
493.600952
 20
358.458496
 10
493.610382
 20
358.457855
 10
493.61911
 20
358.457367
 10
493.628113
 20
358.45694
 10
493.637695
 20
358.456573
 10
493.648224
 20
358.456177
 10
493.65976
 20
358.45578
 10
493.672363
 20
358.455414
 10
493.686096
 20
358.455017
 10
493.700958
 20
358.45462
 10
493.71698
 20
358.454193
 10
493.734161
 20
358.453796
 10
493.752533
 20
358.453369
 10
493.772125
 20
358.452942
 10
493.792908
 20
358.452484
 10
493.814911
 20
358.452026
 10
493.838104
 20
358.451569
 10
493.862518
 20
358.451111
 10
493.888153
 20
358.450623
 10
493.915009
 20
358.450134
 10
493.943054
 20
358.449615
 10
493.972321
 20
358.449127
 10
494.002808
 20
358.448608
 10
494.034485
 20
358.448059
 10
494.067383
 20
358.44751
 10
494.101501
 20
358.44696
 10
494.13681
 20
358.446411
 10
494.17334
 20
358.445831
 10
494.21109
 20
358.445251
 10
494.250031
 20
358.444672
 10
494.290161
 20
358.444061
 10
494.331512
 20
358.443451
 10
494.374054
 20
358.442841
 10
494.417786
 20
358.4422
 10
494.462738
 20
358.441559
 10
494.50885
 20
358.440918
 10
494.556152
 20
358.440277
 10
494.604645
 20
358.439606
 10
494.654266
 20
358.438934
 10
494.705048
 20
358.438232
 10
494.757019
 20
358.437531
 10
494.81015
 20
358.436829
 10
494.864532
 20
358.436127
 10
494.920166
 20
358.435394
 10
494.97702
 20
358.434662
 10
495.035034
 20
358.433929
 10
495.094086
 20
358.433167
 10
495.154083
 20
358.432404
 10
495.214935
 20
358.431641
 10
495.276917
 20
358.430878
 10
495.340942
 20
358.430084
 10
495.407532
 20
358.42926
 10
495.473785
 20
358.428467
 10
495.535858
 20
358.427673
 10
495.598358
 20
358.42691
 10
495.676178
 20
358.425995
  0
LWPOLYLINE
  5
101
330
A7
100
AcDbEntity
  8
0
  6
Continuous
 62
     0
370
    30
100
AcDbPolyline
 90
        5
 70
     0
 43
0.0
 10
494.567719
 20
358.152893
 10
494.550049
 20
358.253754
 10
494.499695
 20
358.343079
 10
494.424652
 20
358.408478
 10
494.342377
 20
358.443298
  0
LWPOLYLINE
  5
102
330
A7
100
AcDbEntity
  8
0
  6
Continuous
 62
     0
370
    30
100
AcDbPolyline
 90
        9
 70
     0
 43
0.0
 10
534.067688
 20
358.152893
 10
534.087097
 20
358.258453
 10
534.142151
 20
358.350616
 10
534.222717
 20
358.415436
 10
534.293762
 20
358.443481
 10
534.323181
 20
358.44931
 10
534.334229
 20
358.450714
 10
534.338684
 20
358.451141
 10
534.339966
 20
358.451233
  0
LINE
  5
103
330
A7
100
AcDbEntity
  8
0
  6
Continuous
 62
     0
370
    30
100
AcDbLine
 10
535.317715
 20
358.758482
 30
0.0
 11
535.317715
 21
360.303663
 31
0.0
  0
LINE
  5
104
330
A7
100
AcDbEntity
  8
0
  6
Continuous
 62
     0
370
    30
100
AcDbLine
 10
493.317715
 20
358.75848
 30
0.0
 11
493.317715
 21
360.303665
 31
0.0
  0
LINE
  5
105
330
A7
100
AcDbEntity
  8
0
  6
Continuous
 62
     0
370
    30
100
AcDbLine
 10
554.316965
 20
362.781057
 30
0.0
 11
554.316965
 21
360.781057
 31
0.0
  0
LINE
  5
106
330
A7
100
AcDbEntity
  8
0
  6
Continuous
 62
     0
370
    30
100
AcDbLine
 10
554.316965
 20
362.781057
 30
0.0
 11
474.316965
 21
362.781057
 31
0.0
  0
LINE
  5
107
330
A7
100
AcDbEntity
  8
0
  6
Continuous
 62
     0
370
    30
100
AcDbLine
 10
474.316965
 20
362.781057
 30
0.0
 11
474.316965
 21
360.781057
 31
0.0
  0
LINE
  5
108
330
A7
100
AcDbEntity
  8
0
  6
Continuous
 62
     0
370
    30
100
AcDbLine
 10
474.316965
 20
360.781057
 30
0.0
 11
554.316965
 21
360.781057
 31
0.0
  0
ENDBLK
  5
10A
330
A7
100
AcDbEntity
  8
0
100
AcDbBlockEnd
  0
BLOCK
  5
16E
330
10C
100
AcDbEntity
  8
0
100
AcDbBlockBegin
  2
c
 70
     0
 10
446.735718
 20
146.428482
 30
0.0
  3
c
  1

  0
LINE
  5
10D
330
10C
100
AcDbEntity
  8
0
  6
Continuous
 62
     0
370
    30
100
AcDbLine
 10
701.014598
 20
659.821161
 30
0.0
 11
701.014598
 21
666.821161
 31
0.0
  0
LINE
  5
10E
330
10C
100
AcDbEntity
  8
0
  6
Continuous
 62
     0
370
    30
100
AcDbLine
 10
701.014598
 20
688.821161
 30
0.0
 11
701.014598
 21
695.821161
 31
0.0
  0
LINE
  5
10F
330
10C
100
AcDbEntity
  8
0
  6
Continuous
 62
     0
370
    30
100
AcDbLine
 10
701.014598
 20
666.821161
 30
0.0
 11
701.014598
 21
688.821161
 31
0.0
  0
LINE
  5
110
330
10C
100
AcDbEntity
  8
0
  6
Continuous
 62
     0
370
    30
100
AcDbLine
 10
661.014598
 20
696.821161
 30
0.0
 11
661.014598
 21
688.821161
 31
0.0
  0
LINE
  5
111
330
10C
100
AcDbEntity
  8
0
  6
Continuous
 62
     0
370
     0
100
AcDbLine
 10
661.014598
 20
688.821161
 30
0.0
 11
700.014598
 21
688.821161
 31
0.0
  0
LINE
  5
112
330
10C
100
AcDbEntity
  8
0
  6
Continuous
 62
     0
370
     0
100
AcDbLine
 10
700.014598
 20
688.821161
 30
0.0
 11
700.014598
 21
696.821161
 31
0.0
  0
LINE
  5
113
330
10C
100
AcDbEntity
  8
0
  6
Continuous
 62
     0
370
    30
100
AcDbLine
 10
700.014598
 20
696.821161
 30
0.0
 11
661.014598
 21
696.821161
 31
0.0
  0
LINE
  5
114
330
10C
100
AcDbEntity
  8
0
  6
Continuous
 62
     0
370
    30
100
AcDbLine
 10
661.014598
 20
658.821161
 30
0.0
 11
700.014598
 21
658.821161
 31
0.0
  0
LINE
  5
115
330
10C
100
AcDbEntity
  8
0
  6
Continuous
 62
     0
370
     0
100
AcDbLine
 10
700.014598
 20
658.821161
 30
0.0
 11
700.014598
 21
666.821161
 31
0.0
  0
LINE
  5
116
330
10C
100
AcDbEntity
  8
0
  6
Continuous
 62
     0
370
     0
100
AcDbLine
 10
700.014598
 20
666.821161
 30
0.0
 11
661.014598
 21
666.821161
 31
0.0
  0
LINE
  5
117
330
10C
100
AcDbEntity
  8
0
  6
Continuous
 62
     0
370
    30
100
AcDbLine
 10
661.014598
 20
666.821161
 30
0.0
 11
661.014598
 21
658.821161
 31
0.0
  0
LINE
  5
118
330
10C
100
AcDbEntity
  8
0
  6
Continuous
 62
     0
370
     0
100
AcDbLine
 10
700.014598
 20
688.821161
 30
0.0
 11
700.014598
 21
666.821161
 31
0.0
  0
LINE
  5
119
330
10C
100
AcDbEntity
  8
0
  6
Continuous
 62
     0
370
    30
100
AcDbLine
 10
661.014598
 20
666.821161
 30
0.0
 11
661.014598
 21
688.821161
 31
0.0
  0
LINE
  5
11A
330
10C
100
AcDbEntity
  8
0
  6
Continuous
 62
     0
370
     0
100
AcDbLine
 10
700.014598
 20
666.821161
 30
0.0
 11
701.014598
 21
666.821161
 31
0.0
  0
LINE
  5
11B
330
10C
100
AcDbEntity
  8
0
  6
Continuous
 62
     0
370
     0
100
AcDbLine
 10
701.014598
 20
688.821161
 30
0.0
 11
700.014598
 21
688.821161
 31
0.0
  0
ARC
  5
11C
330
10C
100
AcDbEntity
  8
0
  6
Continuous
 62
     0
370
    30
100
AcDbCircle
 10
700.014598
 20
659.821161
 30
0.0
 40
1.000000000000632
100
AcDbArc
 50
270.0
 51
360.0
  0
ARC
  5
11D
330
10C
100
AcDbEntity
  8
0
  6
Continuous
 62
     0
370
    30
100
AcDbCircle
 10
700.014598
 20
695.821161
 30
0.0
 40
1.0
100
AcDbArc
 50
0.0
 51
90.0
  0
LINE
  5
11E
330
10C
100
AcDbEntity
  8
0
  6
Continuous
 62
     0
370
    30
100
AcDbLine
 10
710.864632
 20
526.32341
 30
0.0
 11
710.864632
 21
569.32341
 31
0.0
  0
LINE
  5
11F
330
10C
100
AcDbEntity
  8
0
  6
Continuous
 62
     0
370
    30
100
AcDbLine
 10
710.864632
 20
526.32341
 30
0.0
 11
710.364632
 21
525.82341
 31
0.0
  0
LINE
  5
120
330
10C
100
AcDbEntity
  8
0
  6
Continuous
 62
     0
370
    30
100
AcDbLine
 10
710.364632
 20
525.82341
 30
0.0
 11
710.364632
 21
569.82341
 31
0.0
  0
LINE
  5
121
330
10C
100
AcDbEntity
  8
0
  6
Continuous
 62
     0
370
    30
100
AcDbLine
 10
697.114632
 20
525.82341
 30
0.0
 11
660.864632
 21
525.82341
 31
0.0
  0
LINE
  5
122
330
10C
100
AcDbEntity
  8
0
  6
Continuous
 62
     0
370
    30
100
AcDbLine
 10
660.864632
 20
569.82341
 30
0.0
 11
660.864632
 21
525.82341
 31
0.0
  0
LWPOLYLINE
  5
123
330
10C
100
AcDbEntity
  8
0
  6
Continuous
 62
     0
370
     0
100
AcDbPolyline
 90
       27
 70
     0
 43
0.0
 10
697.114624
 20
525.823425
 10
697.148926
 20
525.830872
 10
697.252502
 20
525.852722
 10
697.422485
 20
525.887817
 10
697.656616
 20
525.934021
 10
697.951355
 20
525.98877
 10
698.302734
 20
526.049011
 10
698.706299
 20
526.111267
 10
699.15625
 20
526.172119
 10
699.645813
 20
526.228027
 10
700.168091
 20
526.275391
 10
700.715515
 20
526.311523
 10
701.280151
 20
526.334351
 10
701.853821
 20
526.342224
 10
702.427673
 20
526.3349
 10
702.992798
 20
526.312683
 10
703.541016
 20
526.276978
 10
704.064331
 20
526.22998
 10
704.555298
 20
526.174377
 10
705.006897
 20
526.113647
 10
705.412292
 20
526.051331
 10
705.765686
 20
525.990967
 10
706.062622
 20
525.935974
 10
706.299072
 20
525.889343
 10
706.471619
 20
525.853821
 10
706.577576
 20
525.831421
 10
706.614624
 20
525.823425
  0
LINE
  5
124
330
10C
100
AcDbEntity
  8
0
  6
Continuous
 62
     0
370
    30
100
AcDbLine
 10
706.614632
 20
525.82341
 30
0.0
 11
710.364632
 21
525.82341
 31
0.0
  0
LWPOLYLINE
  5
125
330
10C
100
AcDbEntity
  8
0
  6
Continuous
 62
     0
370
     0
100
AcDbPolyline
 90
       25
 70
     0
 43
0.0
 10
705.964233
 20
569.823425
 10
705.929626
 20
569.816895
 10
705.825378
 20
569.797852
 10
705.653564
 20
569.767639
 10
705.417847
 20
569.728149
 10
705.121887
 20
569.682068
 10
704.770264
 20
569.632446
 10
704.368286
 20
569.582642
 10
703.92334
 20
569.535889
 10
703.443054
 20
569.495605
 10
702.935608
 20
569.464539
 10
702.409546
 20
569.444885
 10
701.873779
 20
569.43811
 10
701.33783
 20
569.444458
 10
700.811279
 20
569.463745
 10
700.30304
 20
569.494385
 10
699.821716
 20
569.534424
 10
699.375366
 20
569.580933
 10
698.971741
 20
569.630737
 10
698.618286
 20
569.680359
 10
698.320374
 20
569.726624
 10
698.08252
 20
569.766418
 10
697.908691
 20
569.796997
 10
697.80188
 20
569.816467
 10
697.764648
 20
569.823425
  0
LWPOLYLINE
  5
126
330
10C
100
AcDbEntity
  8
0
  6
Continuous
 62
     0
370
    30
100
AcDbPolyline
 90
       22
 70
     0
 43
0.0
 10
705.314636
 20
577.653381
 10
705.281677
 20
577.653381
 10
705.177063
 20
577.653381
 10
704.994873
 20
577.653381
 10
704.733887
 20
577.653381
 10
704.398743
 20
577.653381
 10
703.999878
 20
577.653381
 10
703.552368
 20
577.653381
 10
703.074463
 20
577.653381
 10
702.584839
 20
577.653381
 10
702.100769
 20
577.653381
 10
701.630188
 20
577.653381
 10
701.146179
 20
577.653381
 10
700.656555
 20
577.653381
 10
700.178528
 20
577.653381
 10
699.730957
 20
577.653381
 10
699.331848
 20
577.653381
 10
698.99646
 20
577.653381
 10
698.735168
 20
577.653381
 10
698.552673
 20
577.653381
 10
698.447815
 20
577.653381
 10
698.414612
 20
577.653381
  0
LINE
  5
127
330
10C
100
AcDbEntity
  8
0
  6
Continuous
 62
     0
370
    30
100
AcDbLine
 10
705.314632
 20
577.65341
 30
0.0
 11
705.814632
 21
577.15341
 31
0.0
  0
LWPOLYLINE
  5
128
330
10C
100
AcDbEntity
  8
0
  6
Continuous
 62
     0
370
    30
100
AcDbPolyline
 90
       24
 70
     0
 43
0.0
 10
705.814636
 20
577.153381
 10
705.77771
 20
577.153381
 10
705.668396
 20
577.153442
 10
705.488953
 20
577.153442
 10
705.241821
 20
577.153442
 10
704.931763
 20
577.153442
 10
704.565247
 20
577.153442
 10
704.14856
 20
577.153381
 10
703.689331
 20
577.153381
 10
703.196411
 20
577.153442
 10
702.678955
 20
577.153442
 10
702.146179
 20
577.153442
 10
701.608093
 20
577.153442
 10
701.074829
 20
577.153381
 10
700.556335
 20
577.153381
 10
700.062012
 20
577.153381
 10
699.600952
 20
577.153381
 10
699.182251
 20
577.153381
 10
698.813477
 20
577.153381
 10
698.500732
 20
577.153381
 10
698.250305
 20
577.153381
 10
698.067261
 20
577.153381
 10
697.954651
 20
577.153381
 10
697.914612
 20
577.153381
  0
LINE
  5
129
330
10C
100
AcDbEntity
  8
0
  6
Continuous
 62
     0
370
    30
100
AcDbLine
 10
705.814632
 20
569.82341
 30
0.0
 11
705.814632
 21
577.15341
 31
0.0
  0
LWPOLYLINE
  5
12A
330
10C
100
AcDbEntity
  8
0
  6
Continuous
 62
     0
370
    30
100
AcDbPolyline
 90
       24
 70
     0
 43
0.0
 10
697.914612
 20
569.823364
 10
697.951843
 20
569.816528
 10
698.061646
 20
569.797241
 10
698.241638
 20
569.766968
 10
698.488953
 20
569.7276
 10
698.798706
 20
569.681946
 10
699.164795
 20
569.633545
 10
699.580994
 20
569.586121
 10
700.040039
 20
569.542908
 10
700.533081
 20
569.506897
 10
701.05127
 20
569.481201
 10
701.585327
 20
569.468079
 10
702.124878
 20
569.467834
 10
702.659363
 20
569.48053
 10
703.178345
 20
569.505798
 10
703.672485
 20
569.541504
 10
704.132812
 20
569.584534
 10
704.550537
 20
569.631836
 10
704.918274
 20
569.680237
 10
705.230164
 20
569.726013
 10
705.480164
 20
569.765808
 10
705.663208
 20
569.796448
 10
705.775513
 20
569.816223
 10
705.814636
 20
569.823425
  0
LINE
  5
12B
330
10C
100
AcDbEntity
  8
0
  6
Continuous
 62
     0
370
    30
100
AcDbLine
 10
697.114632
 20
525.82341
 30
0.0
 11
706.614632
 21
525.82341
 31
0.0
  0
LINE
  5
12C
330
10C
100
AcDbEntity
  8
0
  6
Continuous
 62
     0
370
    30
100
AcDbLine
 10
705.814632
 20
569.82341
 30
0.0
 11
705.964234
 21
569.82341
 31
0.0
  0
LINE
  5
12D
330
10C
100
AcDbEntity
  8
0
  6
Continuous
 62
     0
370
    30
100
AcDbLine
 10
697.914632
 20
577.15341
 30
0.0
 11
697.914632
 21
569.823334
 31
0.0
  0
LINE
  5
12E
330
10C
100
AcDbEntity
  8
0
  6
Continuous
 62
     0
370
    30
100
AcDbLine
 10
698.414632
 20
577.65341
 30
0.0
 11
697.914632
 21
577.15341
 31
0.0
  0
LINE
  5
12F
330
10C
100
AcDbEntity
  8
0
  6
Continuous
 62
     0
370
    30
100
AcDbLine
 10
710.364632
 20
569.82341
 30
0.0
 11
705.964234
 21
569.82341
 31
0.0
  0
LINE
  5
130
330
10C
100
AcDbEntity
  8
0
  6
Continuous
 62
     0
370
    30
100
AcDbLine
 10
697.764632
 20
569.82341
 30
0.0
 11
660.864632
 21
569.82341
 31
0.0
  0
LINE
  5
131
330
10C
100
AcDbEntity
  8
0
  6
Continuous
 62
     0
370
    30
100
AcDbLine
 10
710.864632
 20
569.32341
 30
0.0
 11
710.364632
 21
569.82341
 31
0.0
  0
LWPOLYLINE
  5
132
330
10C
100
AcDbEntity
  8
0
  6
Continuous
 62
     0
370
    30
100
AcDbPolyline
 90
       28
 70
     0
 43
0.0
 10
660.364624
 20
682.598145
 10
660.345276
 20
681.528687
 10
660.325989
 20
680.441406
 10
660.306946
 20
679.341614
 10
660.288147
 20
678.234436
 10
660.269714
 20
677.125244
 10
660.251709
 20
676.01947
 10
660.234314
 20
674.922302
 10
660.217529
 20
673.83905
 10
660.201416
 20
672.774963
 10
660.186096
 20
671.735107
 10
660.171631
 20
670.724426
 10
660.158142
 20
669.747925
 10
660.145569
 20
668.810181
 10
660.134094
 20
667.91571
 10
660.123718
 20
667.068909
 10
660.114502
 20
666.273743
 10
660.106506
 20
665.534058
 10
660.099731
 20
664.853516
 10
660.094238
 20
664.235291
 10
660.090027
 20
663.682312
 10
660.087158
 20
663.197388
 10
660.085632
 20
662.782654
 10
660.085388
 20
662.440247
 10
660.086548
 20
662.171875
 10
660.088989
 20
661.978577
 10
660.092834
 20
661.861572
 10
660.098022
 20
661.821228
  0
LINE
  5
133
330
10C
100
AcDbEntity
  8
0
  6
Continuous
 62
     0
370
    30
100
AcDbLine
 10
660.364601
 20
682.687706
 30
0.0
 11
660.364601
 21
682.598138
 31
0.0
  0
LINE
  5
134
330
10C
100
AcDbEntity
  8
0
  6
Continuous
 62
     0
370
     0
100
AcDbLine
 10
660.364601
 20
682.956411
 30
0.0
 11
660.364601
 21
682.687706
 31
0.0
  0
LWPOLYLINE
  5
135
330
10C
100
AcDbEntity
  8
0
  6
Continuous
 62
     0
370
     0
100
AcDbPolyline
 90
       35
 70
     0
 43
0.0
 10
660.130981
 20
661.821167
 10
660.119019
 20
661.438171
 10
660.108154
 20
661.12677
 10
660.098389
 20
660.888306
 10
660.089783
 20
660.723877
 10
660.082397
 20
660.634277
 10
660.076233
 20
660.61969
 10
660.071289
 20
660.68042
 10
660.067688
 20
660.816101
 10
660.065369
 20
661.026062
 10
660.064331
 20
661.30957
 10
660.064636
 20
661.665161
 10
660.066223
 20
662.09137
 10
660.069153
 20
662.586426
 10
660.073364
 20
663.148071
 10
660.078796
 20
663.773804
 10
660.085571
 20
664.46106
 10
660.093506
 20
665.206665
 10
660.1026
 20
666.007385
 10
660.112915
 20
666.859741
 10
660.124268
 20
667.760071
 10
660.136719
 20
668.704285
 10
660.150085
 20
669.688354
 10
660.16449
 20
670.708008
 10
660.179688
 20
671.758667
 10
660.19574
 20
672.835876
 10
660.212524
 20
673.934814
 10
660.22998
 20
675.05072
 10
660.247986
 20
676.17865
 10
660.266541
 20
677.313782
 10
660.285522
 20
678.451172
 10
660.30481
 20
679.585632
 10
660.324402
 20
680.712402
 10
660.344177
 20
681.826782
 10
660.364624
 20
682.956421
  0
LINE
  5
136
330
10C
100
AcDbEntity
  8
0
  6
Continuous
 62
     0
370
     0
100
AcDbLine
 10
660.064555
 20
683.04598
 30
0.0
 11
658.164646
 21
683.04598
 31
0.0
  0
LWPOLYLINE
  5
137
330
10C
100
AcDbEntity
  8
0
  6
Continuous
 62
     0
370
     0
100
AcDbPolyline
 90
       29
 70
     0
 43
0.0
 10
658.164673
 20
683.045959
 10
658.184692
 20
681.919312
 10
658.204712
 20
680.771973
 10
658.224487
 20
679.610779
 10
658.244019
 20
678.443481
 10
658.263184
 20
677.274902
 10
658.281921
 20
676.108521
 10
658.30011
 20
674.948914
 10
658.317688
 20
673.801331
 10
658.334656
 20
672.671143
 10
658.35083
 20
671.563721
 10
658.36615
 20
670.484436
 10
658.380615
 20
669.438171
 10
658.394043
 20
668.429932
 10
658.406494
 20
667.464539
 10
658.417786
 20
666.545898
 10
658.42804
 20
665.677551
 10
658.437073
 20
664.862915
 10
658.444885
 20
664.105652
 10
658.451477
 20
663.409241
 10
658.456787
 20
662.777161
 10
658.460754
 20
662.21283
 10
658.463379
 20
661.718506
 10
658.464722
 20
661.296204
 10
658.464722
 20
660.947998
 10
658.463318
 20
660.675415
 10
658.460632
 20
660.479431
 10
658.456604
 20
660.361206
 10
658.451172
 20
660.32135
  0
LWPOLYLINE
  5
138
330
10C
100
AcDbEntity
  8
0
  6
Continuous
 62
     0
370
     0
100
AcDbPolyline
 90
       29
 70
     0
 43
0.0
 10
659.778015
 20
660.32135
 10
659.772644
 20
660.360474
 10
659.768616
 20
660.478027
 10
659.765869
 20
660.673279
 10
659.764526
 20
660.94519
 10
659.764465
 20
661.292725
 10
659.765808
 20
661.714355
 10
659.768433
 20
662.208008
 10
659.7724
 20
662.771729
 10
659.77771
 20
663.403198
 10
659.784241
 20
664.09906
 10
659.792053
 20
664.855835
 10
659.801086
 20
665.669922
 10
659.811279
 20
666.537842
 10
659.822632
 20
667.456055
 10
659.835022
 20
668.421021
 10
659.848511
 20
669.428894
 10
659.862915
 20
670.474792
 10
659.878235
 20
671.553833
 10
659.894409
 20
672.661011
 10
659.911316
 20
673.791016
 10
659.928955
 20
674.938477
 10
659.947144
 20
676.098022
 10
659.96582
 20
677.264343
 10
659.984985
 20
678.432922
 10
660.004517
 20
679.60022
 10
660.024353
 20
680.761536
 10
660.044312
 20
681.908997
 10
660.064575
 20
683.045959
  0
LWPOLYLINE
  5
139
330
10C
100
AcDbEntity
  8
0
  6
Continuous
 62
     0
370
     0
100
AcDbPolyline
 90
       48
 70
     0
 43
0.0
 10
657.864624
 20
682.954285
 10
657.884705
 20
681.846802
 10
657.904663
 20
680.721375
 10
657.924438
 20
679.582886
 10
657.943909
 20
678.436584
 10
657.963074
 20
677.287476
 10
657.981812
 20
676.140747
 10
658.0
 20
675.001465
 10
658.017578
 20
673.874817
 10
658.034485
 20
672.765686
 10
658.050659
 20
671.679138
 10
658.065979
 20
670.619934
 10
658.080383
 20
669.592896
 10
658.093872
 20
668.602539
 10
658.106323
 20
667.65332
 10
658.117676
 20
666.749451
 10
658.12793
 20
665.89502
 10
658.136963
 20
665.09375
 10
658.144775
 20
664.349243
 10
658.151367
 20
663.664856
 10
658.156677
 20
663.04364
 10
658.160706
 20
662.488403
 10
658.163391
 20
662.001526
 10
658.164734
 20
661.585266
 10
658.164734
 20
661.241455
 10
658.163452
 20
660.971558
 10
658.160767
 20
660.776917
 10
658.156799
 20
660.658264
 10
658.151489
 20
660.616272
 10
658.144958
 20
660.651001
 10
658.137146
 20
660.762329
 10
658.128113
 20
660.949768
 10
658.11792
 20
661.212524
 10
658.106567
 20
661.549377
 10
658.094116
 20
661.958862
 10
658.080688
 20
662.439087
 10
658.066284
 20
662.987915
 10
658.050964
 20
663.602966
 10
658.034851
 20
664.281494
 10
658.017944
 20
665.020386
 10
658.000366
 20
665.816345
 10
657.982178
 20
666.665955
 10
657.963501
 20
667.565247
 10
657.944336
 20
668.510376
 10
657.924805
 20
669.497009
 10
657.905029
 20
670.520752
 10
657.885071
 20
671.577026
 10
657.864624
 20
672.683777
  0
LWPOLYLINE
  5
13A
330
10C
100
AcDbEntity
  8
0
  6
Continuous
 62
     0
370
     0
100
AcDbPolyline
 90
       45
 70
     0
 43
0.0
 10
657.864624
 20
673.639221
 10
657.880554
 20
672.778992
 10
657.896729
 20
671.919312
 10
657.913208
 20
671.067017
 10
657.929749
 20
670.229309
 10
657.946289
 20
669.413879
 10
657.962708
 20
668.628601
 10
657.978821
 20
667.881409
 10
657.994446
 20
667.179932
 10
658.009521
 20
666.531494
 10
658.023865
 20
665.942749
 10
658.037354
 20
665.419434
 10
658.049866
 20
664.966248
 10
658.061279
 20
664.586731
 10
658.071533
 20
664.283203
 10
658.080566
 20
664.05658
 10
658.088379
 20
663.906555
 10
658.094849
 20
663.831421
 10
658.100098
 20
663.828613
 10
658.104065
 20
663.894531
 10
658.106812
 20
664.024658
 10
658.108459
 20
664.213928
 10
658.108948
 20
664.457031
 10
658.108459
 20
664.756531
 10
658.106873
 20
665.121033
 10
658.104126
 20
665.552368
 10
658.100159
 20
666.051697
 10
658.094971
 20
666.619141
 10
658.088501
 20
667.253662
 10
658.08075
 20
667.953003
 10
658.071716
 20
668.713867
 10
658.061462
 20
669.531555
 10
658.05011
 20
670.400452
 10
658.037598
 20
671.313721
 10
658.02417
 20
672.263794
 10
658.009827
 20
673.242615
 10
657.994751
 20
674.241516
 10
657.979126
 20
675.251831
 10
657.963013
 20
676.264893
 10
657.946655
 20
677.2724
 10
657.930115
 20
678.266663
 10
657.913513
 20
679.24054
 10
657.897095
 20
680.187805
 10
657.880859
 20
681.103027
 10
657.864624
 20
681.998901
  0
LWPOLYLINE
  5
13B
330
10C
100
AcDbEntity
  8
0
  6
Continuous
 62
     0
370
     0
100
AcDbPolyline
 90
        8
 70
     0
 43
0.0
 10
658.016479
 20
690.554932
 10
657.996582
 20
689.651611
 10
657.976013
 20
688.681702
 10
657.954773
 20
687.650757
 10
657.933044
 20
686.564392
 10
657.91095
 20
685.428772
 10
657.88855
 20
684.250427
 10
657.864624
 20
682.958496
  0
LWPOLYLINE
  5
13C
330
10C
100
AcDbEntity
  8
0
  6
Continuous
 62
     0
370
     0
100
AcDbPolyline
 90
       20
 70
     0
 43
0.0
 10
660.064575
 20
683.045959
 10
660.044556
 20
684.145752
 10
660.024658
 20
685.219543
 10
660.004883
 20
686.26123
 10
659.985413
 20
687.263611
 10
659.966309
 20
688.222778
 10
659.947693
 20
689.136047
 10
659.929504
 20
689.999817
 10
659.911926
 20
690.809998
 10
659.895081
 20
691.562988
 10
659.878906
 20
692.255005
 10
659.863586
 20
692.882568
 10
659.849182
 20
693.443115
 10
659.835693
 20
693.934021
 10
659.823303
 20
694.352966
 10
659.811951
 20
694.698242
 10
659.801697
 20
694.968811
 10
659.792603
 20
695.16333
 10
659.784729
 20
695.280823
 10
659.778015
 20
695.320923
  0
LWPOLYLINE
  5
13D
330
10C
100
AcDbEntity
  8
0
  6
Continuous
 62
     0
370
     0
100
AcDbPolyline
 90
       20
 70
     0
 43
0.0
 10
658.451172
 20
695.320923
 10
658.44458
 20
695.282043
 10
658.436707
 20
695.165771
 10
658.427673
 20
694.972412
 10
658.417419
 20
694.703064
 10
658.406128
 20
694.358887
 10
658.393677
 20
693.941101
 10
658.380249
 20
693.451294
 10
658.365845
 20
692.891846
 10
658.350525
 20
692.26532
 10
658.334412
 20
691.57428
 10
658.317505
 20
690.822205
 10
658.299988
 20
690.012878
 10
658.281799
 20
689.149963
 10
658.263184
 20
688.237366
 10
658.24408
 20
687.278931
 10
658.224609
 20
686.277222
 10
658.204834
 20
685.236084
 10
658.184937
 20
684.16272
 10
658.164673
 20
683.045959
  0
LWPOLYLINE
  5
13E
330
10C
100
AcDbEntity
  8
0
  6
Continuous
 62
     0
370
     0
100
AcDbPolyline
 90
       10
 70
     0
 43
0.0
 10
660.364624
 20
682.956421
 10
660.344116
 20
684.063354
 10
660.323792
 20
685.141296
 10
660.303589
 20
686.185181
 10
660.283691
 20
687.190247
 10
660.26416
 20
688.151733
 10
660.245117
 20
689.065247
 10
660.226624
 20
689.926453
 10
660.208801
 20
690.731445
 10
660.189514
 20
691.566589
  0
LWPOLYLINE
  5
13F
330
10C
100
AcDbEntity
  8
0
  6
Continuous
 62
     0
370
     0
100
AcDbPolyline
 90
       19
 70
     0
 43
0.0
 10
660.393127
 20
693.821106
 10
660.39978
 20
693.781555
 10
660.407715
 20
693.662842
 10
660.416931
 20
693.465698
 10
660.427368
 20
693.191162
 10
660.439026
 20
692.840454
 10
660.451782
 20
692.415344
 10
660.465576
 20
691.91803
 10
660.480347
 20
691.35083
 10
660.496094
 20
690.716675
 10
660.512634
 20
690.018616
 10
660.529907
 20
689.260132
 10
660.547852
 20
688.445129
 10
660.566406
 20
687.577576
 10
660.585388
 20
686.661743
 10
660.604797
 20
685.701843
 10
660.624573
 20
684.702515
 10
660.64447
 20
683.669312
 10
660.664551
 20
682.603027
  0
LWPOLYLINE
  5
140
330
10C
100
AcDbEntity
  8
0
  6
Continuous
 62
     0
370
    30
100
AcDbPolyline
 90
        5
 70
     0
 43
0.0
 10
660.664551
 20
682.603027
 10
660.561218
 20
682.606812
 10
660.47052
 20
682.621094
 10
660.403625
 20
682.644165
 10
660.364624
 20
682.687683
  0
LWPOLYLINE
  5
141
330
10C
100
AcDbEntity
  8
0
  6
Continuous
 62
     0
370
     0
100
AcDbPolyline
 90
        5
 70
     0
 43
0.0
 10
660.364624
 20
682.956421
 10
660.346252
 20
682.987122
 10
660.293518
 20
683.014343
 10
660.212708
 20
683.034302
 10
660.064575
 20
683.045959
  0
LWPOLYLINE
  5
142
330
10C
100
AcDbEntity
  8
0
  6
Continuous
 62
     0
370
     0
100
AcDbPolyline
 90
        5
 70
     0
 43
0.0
 10
658.164673
 20
683.045959
 10
658.061707
 20
683.040466
 10
657.970642
 20
683.02478
 10
657.903748
 20
683.00061
 10
657.864624
 20
682.956421
  0
LINE
  5
143
330
10C
100
AcDbEntity
  8
0
  6
Continuous
 62
     0
370
    30
100
AcDbLine
 10
660.364601
 20
682.598138
 30
0.0
 11
660.66454
 21
682.603042
 31
0.0
  0
LINE
  5
144
330
10C
100
AcDbEntity
  8
0
  6
Continuous
 62
     0
370
     0
100
AcDbLine
 10
660.364601
 20
682.598138
 30
0.0
 11
661.014598
 21
682.598138
 31
0.0
  0
LINE
  5
145
330
10C
100
AcDbEntity
  8
0
  6
Continuous
 62
     0
370
    30
100
AcDbLine
 10
661.014598
 20
661.821158
 30
0.0
 11
660.098053
 21
661.821158
 31
0.0
  0
LINE
  5
146
330
10C
100
AcDbEntity
  8
0
  6
Continuous
 62
     0
370
    30
100
AcDbLine
 10
661.014598
 20
693.821158
 30
0.0
 11
660.393101
 21
693.821158
 31
0.0
  0
LWPOLYLINE
  5
147
330
10C
100
AcDbEntity
  8
0
  6
Continuous
 62
     0
370
    30
100
AcDbPolyline
 90
       74
 70
     0
 43
0.0
 10
658.041443
 20
664.001648
 10
658.043579
 20
663.910767
 10
658.045715
 20
663.820923
 10
658.047852
 20
663.732178
 10
658.049988
 20
663.644592
 10
658.052063
 20
663.558105
 10
658.054138
 20
663.472778
 10
658.056213
 20
663.38855
 10
658.058289
 20
663.305542
 10
658.060303
 20
663.223633
 10
658.062378
 20
663.142883
 10
658.064331
 20
663.063293
 10
658.066345
 20
662.984924
 10
658.068359
 20
662.907715
 10
658.070312
 20
662.831726
 10
658.072266
 20
662.756897
 10
658.074158
 20
662.683228
 10
658.07605
 20
662.610779
 10
658.078003
 20
662.539612
 10
658.079834
 20
662.469604
 10
658.081726
 20
662.400757
 10
658.083557
 20
662.333191
 10
658.085388
 20
662.266907
 10
658.087219
 20
662.201782
 10
658.088989
 20
662.137939
 10
658.090759
 20
662.075317
 10
658.092529
 20
662.013916
 10
658.094238
 20
661.953796
 10
658.096008
 20
661.894958
 10
658.097656
 20
661.837341
 10
658.099365
 20
661.781006
 10
658.101013
 20
661.725952
 10
658.102661
 20
661.67218
 10
658.104309
 20
661.61969
 10
658.105896
 20
661.56842
 10
658.107483
 20
661.518494
 10
658.10907
 20
661.469849
 10
658.110657
 20
661.422485
 10
658.112183
 20
661.376404
 10
658.113647
 20
661.331665
 10
658.115173
 20
661.288208
 10
658.116638
 20
661.246033
 10
658.118103
 20
661.2052
 10
658.119507
 20
661.165649
 10
658.120972
 20
661.127441
 10
658.122314
 20
661.090515
 10
658.123718
 20
661.054932
 10
658.125061
 20
661.02063
 10
658.126404
 20
660.987671
 10
658.127747
 20
660.955994
 10
658.129028
 20
660.925659
 10
658.13031
 20
660.896606
 10
658.131592
 20
660.868835
 10
658.132812
 20
660.842407
 10
658.134033
 20
660.817261
 10
658.135254
 20
660.793396
 10
658.136414
 20
660.770813
 10
658.137634
 20
660.749512
 10
658.138794
 20
660.729431
 10
658.139954
 20
660.710571
 10
658.141052
 20
660.692871
 10
658.142212
 20
660.676392
 10
658.143372
 20
660.660889
 10
658.144592
 20
660.646362
 10
658.145813
 20
660.632629
 10
658.147095
 20
660.619568
 10
658.148438
 20
660.60675
 10
658.150269
 20
660.593018
 10
658.152954
 20
660.576965
 10
658.15741
 20
660.555298
 10
658.169189
 20
660.516968
 10
658.209778
 20
660.442749
 10
658.309631
 20
660.35675
 10
658.451172
 20
660.321228
  0
LWPOLYLINE
  5
148
330
10C
100
AcDbEntity
  8
0
  6
Continuous
 62
     0
370
    30
100
AcDbPolyline
 90
       42
 70
     0
 43
0.0
 10
660.131042
 20
661.821167
 10
660.129272
 20
661.761536
 10
660.127502
 20
661.703369
 10
660.125732
 20
661.646667
 10
660.124023
 20
661.59137
 10
660.122314
 20
661.537598
 10
660.120605
 20
661.485229
 10
660.118958
 20
661.434326
 10
660.11731
 20
661.384949
 10
660.115723
 20
661.336975
 10
660.114136
 20
661.290527
 10
660.112549
 20
661.245605
 10
660.110962
 20
661.202148
 10
660.109436
 20
661.160156
 10
660.107971
 20
661.119629
 10
660.106445
 20
661.080627
 10
660.105042
 20
661.043091
 10
660.103577
 20
661.00708
 10
660.102173
 20
660.972534
 10
660.100769
 20
660.939514
 10
660.099365
 20
660.907959
 10
660.098022
 20
660.877869
 10
660.09668
 20
660.849304
 10
660.095398
 20
660.822144
 10
660.094116
 20
660.796509
 10
660.092834
 20
660.772278
 10
660.091553
 20
660.749512
 10
660.090332
 20
660.728149
 10
660.089111
 20
660.708191
 10
660.087891
 20
660.689514
 10
660.08667
 20
660.67218
 10
660.085449
 20
660.656006
 10
660.084167
 20
660.640869
 10
660.082825
 20
660.626526
 10
660.081421
 20
660.612854
 10
660.079712
 20
660.598816
 10
660.077271
 20
660.582825
 10
660.073303
 20
660.562073
 10
660.06366
 20
660.527283
 10
660.028503
 20
660.455627
 10
659.928833
 20
660.361938
 10
659.778015
 20
660.321289
  0
LWPOLYLINE
  5
149
330
10C
100
AcDbEntity
  8
0
  6
Continuous
 62
     0
370
    30
100
AcDbPolyline
 90
       48
 70
     0
 43
0.0
 10
657.864624
 20
682.95874
 10
657.872803
 20
683.403809
 10
657.880981
 20
683.84491
 10
657.88916
 20
684.281616
 10
657.897278
 20
684.713684
 10
657.905396
 20
685.140564
 10
657.913513
 20
685.562012
 10
657.92157
 20
685.977661
 10
657.929565
 20
686.387268
 10
657.9375
 20
686.790527
 10
657.945435
 20
687.187134
 10
657.953308
 20
687.576782
 10
657.96106
 20
687.959229
 10
657.96875
 20
688.334106
 10
657.976379
 20
688.701233
 10
657.983948
 20
689.060303
 10
657.991394
 20
689.411011
 10
657.998779
 20
689.753113
 10
658.006042
 20
690.086365
 10
658.013245
 20
690.410461
 10
658.020264
 20
690.725281
 10
658.027222
 20
691.030518
 10
658.034058
 20
691.325989
 10
658.04071
 20
691.611511
 10
658.047302
 20
691.88678
 10
658.053711
 20
692.151672
 10
658.059998
 20
692.405945
 10
658.066162
 20
692.649414
 10
658.072144
 20
692.881836
 10
658.078003
 20
693.103088
 10
658.083679
 20
693.313049
 10
658.089172
 20
693.511475
 10
658.094543
 20
693.698364
 10
658.099731
 20
693.873474
 10
658.104736
 20
694.036804
 10
658.109558
 20
694.18811
 10
658.114258
 20
694.327393
 10
658.118713
 20
694.454468
 10
658.123047
 20
694.569336
 10
658.127136
 20
694.671936
 10
658.131042
 20
694.76239
 10
658.134827
 20
694.840698
 10
658.138428
 20
694.907043
 10
658.141968
 20
694.962036
 10
658.145569
 20
695.007141
 10
658.150024
 20
695.047302
 10
658.167725
 20
695.121155
 10
658.451172
 20
695.321045
  0
LWPOLYLINE
  5
14A
330
10C
100
AcDbEntity
  8
0
  6
Continuous
 62
     0
370
    30
100
AcDbPolyline
 90
       48
 70
     0
 43
0.0
 10
660.364624
 20
682.956909
 10
660.356445
 20
683.401978
 10
660.348267
 20
683.84314
 10
660.340088
 20
684.279968
 10
660.33197
 20
684.712036
 10
660.323792
 20
685.138977
 10
660.315735
 20
685.560486
 10
660.307678
 20
685.976196
 10
660.299683
 20
686.385864
 10
660.291687
 20
686.789124
 10
660.283813
 20
687.18573
 10
660.27594
 20
687.575439
 10
660.268188
 20
687.957886
 10
660.260437
 20
688.332825
 10
660.252808
 20
688.700012
 10
660.245239
 20
689.059082
 10
660.237793
 20
689.409851
 10
660.230408
 20
689.752014
 10
660.223145
 20
690.085266
 10
660.216003
 20
690.409485
 10
660.208923
 20
690.724304
 10
660.202026
 20
691.029602
 10
660.19519
 20
691.325134
 10
660.188477
 20
691.610657
 10
660.181946
 20
691.885986
 10
660.175476
 20
692.15094
 10
660.169189
 20
692.405273
 10
660.163086
 20
692.648743
 10
660.157043
 20
692.881226
 10
660.151245
 20
693.102539
 10
660.145569
 20
693.3125
 10
660.140015
 20
693.511047
 10
660.134644
 20
693.697937
 10
660.129456
 20
693.873108
 10
660.124451
 20
694.036438
 10
660.119629
 20
694.187805
 10
660.11499
 20
694.327148
 10
660.110474
 20
694.454224
 10
660.106201
 20
694.569153
 10
660.102051
 20
694.671814
 10
660.098145
 20
694.762268
 10
660.09436
 20
694.840576
 10
660.090759
 20
694.906982
 10
660.08728
 20
694.961975
 10
660.083618
 20
695.00708
 10
660.079224
 20
695.047241
 10
660.061584
 20
695.120911
 10
659.778015
 20
695.321106
  0
LWPOLYLINE
  5
14B
330
10C
100
AcDbEntity
  8
0
  6
Continuous
 62
     0
370
    30
100
AcDbPolyline
 90
        4
 70
     0
 43
0.0
 10
660.126038
 20
693.985107
 10
660.172607
 20
693.91803
 10
660.254639
 20
693.855042
 10
660.393127
 20
693.821106
  0
LINE
  5
14C
330
10C
100
AcDbEntity
  8
0
  6
Continuous
 62
     0
370
    30
100
AcDbLine
 10
659.778022
 20
695.321158
 30
0.0
 11
658.451177
 21
695.321158
 31
0.0
  0
LINE
  5
14D
330
10C
100
AcDbEntity
  8
0
  6
Continuous
 62
     0
370
    30
100
AcDbLine
 10
659.778022
 20
660.321158
 30
0.0
 11
658.451178
 21
660.321158
 31
0.0
  0
LWPOLYLINE
  5
14E
330
10C
100
AcDbEntity
  8
0
  6
Continuous
 62
     0
370
     0
100
AcDbPolyline
 90
       52
 70
     0
 43
0.0
 10
657.864624
 20
568.151367
 10
657.875732
 20
567.872498
 10
657.886841
 20
567.517639
 10
657.897827
 20
567.088013
 10
657.908691
 20
566.585327
 10
657.919373
 20
566.011536
 10
657.929871
 20
565.368713
 10
657.940125
 20
564.659363
 10
657.950073
 20
563.886169
 10
657.959717
 20
563.052002
 10
657.968994
 20
562.160156
 10
657.977905
 20
561.213867
 10
657.986328
 20
560.216858
 10
657.994324
 20
559.172791
 10
658.001831
 20
558.085693
 10
658.008789
 20
556.959717
 10
658.015198
 20
555.799011
 10
658.021057
 20
554.608093
 10
658.026367
 20
553.391479
 10
658.031006
 20
552.153687
 10
658.035034
 20
550.899475
 10
658.038391
 20
549.633667
 10
658.041138
 20
548.360901
 10
658.043152
 20
547.086121
 10
658.044556
 20
545.814148
 10
658.045227
 20
544.549805
 10
658.045227
 20
543.297852
 10
658.044556
 20
542.06311
 10
658.043152
 20
540.850159
 10
658.041138
 20
539.663635
 10
658.038391
 20
538.508118
 10
658.035034
 20
537.387878
 10
658.031067
 20
536.307251
 10
658.026367
 20
535.270264
 10
658.021118
 20
534.280884
 10
658.015259
 20
533.342896
 10
658.00885
 20
532.459778
 10
658.001892
 20
531.63501
 10
657.994385
 20
530.871582
 10
657.986389
 20
530.172424
 10
657.977966
 20
529.540222
 10
657.969055
 20
528.977356
 10
657.959839
 20
528.485962
 10
657.950195
 20
528.067932
 10
657.940247
 20
527.724792
 10
657.929993
 20
527.457886
 10
657.919495
 20
527.268188
 10
657.908813
 20
527.156494
 10
657.897949
 20
527.123169
 10
657.886902
 20
527.168335
 10
657.875854
 20
527.291809
 10
657.864624
 20
527.495422
  0
LWPOLYLINE
  5
14F
330
10C
100
AcDbEntity
  8
0
  6
Continuous
 62
     0
370
     0
100
AcDbPolyline
 90
       52
 70
     0
 43
0.0
 10
657.864624
 20
529.115784
 10
657.873962
 20
528.943665
 10
657.883423
 20
528.829163
 10
657.893066
 20
528.776489
 10
657.902771
 20
528.789795
 10
657.912476
 20
528.87262
 10
657.92218
 20
529.027893
 10
657.931824
 20
529.257874
 10
657.941223
 20
529.564026
 10
657.9505
 20
529.94696
 10
657.959473
 20
530.406311
 10
657.968079
 20
530.940796
 10
657.976257
 20
531.548035
 10
657.98407
 20
532.224792
 10
657.991272
 20
532.966858
 10
657.997986
 20
533.769409
 10
658.004089
 20
534.626587
 10
658.009583
 20
535.532227
 10
658.014465
 20
536.479614
 10
658.018677
 20
537.461792
 10
658.022278
 20
538.47168
 10
658.025208
 20
539.502258
 10
658.027527
 20
540.546509
 10
658.029175
 20
541.5979
 10
658.030273
 20
542.650146
 10
658.030823
 20
543.697388
 10
658.030823
 20
544.740173
 10
658.030273
 20
545.809937
 10
658.029236
 20
546.908997
 10
658.027527
 20
548.032837
 10
658.025269
 20
549.176147
 10
658.022339
 20
550.333191
 10
658.018799
 20
551.497559
 10
658.014587
 20
552.662415
 10
658.009705
 20
553.820557
 10
658.004211
 20
554.964417
 10
657.998108
 20
556.086609
 10
657.991455
 20
557.179626
 10
657.984192
 20
558.236145
 10
657.97644
 20
559.249451
 10
657.968262
 20
560.213074
 10
657.959656
 20
561.121399
 10
657.950684
 20
561.969604
 10
657.941467
 20
562.75354
 10
657.932007
 20
563.470154
 10
657.922363
 20
564.117188
 10
657.912659
 20
564.69342
 10
657.902954
 20
565.198425
 10
657.89325
 20
565.632751
 10
657.883606
 20
565.997559
 10
657.874146
 20
566.2948
 10
657.864624
 20
566.531067
  0
LWPOLYLINE
  5
150
330
10C
100
AcDbEntity
  8
0
  6
Continuous
 62
     0
370
     0
100
AcDbPolyline
 90
       49
 70
     0
 43
0.0
 10
660.030518
 20
526.823547
 10
660.019653
 20
526.863159
 10
660.009033
 20
526.982056
 10
659.998596
 20
527.179443
 10
659.988403
 20
527.454712
 10
659.978455
 20
527.80719
 10
659.968872
 20
528.235535
 10
659.959656
 20
528.737976
 10
659.950806
 20
529.312805
 10
659.942383
 20
529.957886
 10
659.934448
 20
530.670349
 10
659.927002
 20
531.447144
 10
659.920044
 20
532.285217
 10
659.913696
 20
533.181458
 10
659.907898
 20
534.132812
 10
659.902649
 20
535.136047
 10
659.898071
 20
536.188171
 10
659.894043
 20
537.284973
 10
659.890747
 20
538.421814
 10
659.888062
 20
539.594299
 10
659.886047
 20
540.797729
 10
659.884705
 20
542.027649
 10
659.884033
 20
543.279297
 10
659.884094
 20
544.548157
 10
659.884766
 20
545.829468
 10
659.886169
 20
547.118347
 10
659.888245
 20
548.410156
 10
659.890991
 20
549.69989
 10
659.894348
 20
550.982544
 10
659.898438
 20
552.252808
 10
659.903076
 20
553.505493
 10
659.908325
 20
554.735657
 10
659.914185
 20
555.939453
 10
659.920593
 20
557.112854
 10
659.927551
 20
558.251831
 10
659.935059
 20
559.352234
 10
659.943054
 20
560.409729
 10
659.951477
 20
561.4198
 10
659.960388
 20
562.378235
 10
659.969666
 20
563.281433
 10
659.979248
 20
564.125916
 10
659.989197
 20
564.908325
 10
659.999451
 20
565.625549
 10
660.009888
 20
566.275452
 10
660.020569
 20
566.855957
 10
660.031372
 20
567.365356
 10
660.042419
 20
567.801392
 10
660.053467
 20
568.161621
 10
660.064636
 20
568.445984
  0
LINE
  5
151
330
10C
100
AcDbEntity
  8
0
  6
Continuous
 62
     0
370
     0
100
AcDbLine
 10
660.06462
 20
568.446003
 30
0.0
 11
658.164643
 21
568.446003
 31
0.0
  0
LWPOLYLINE
  5
152
330
10C
100
AcDbEntity
  8
0
  6
Continuous
 62
     0
370
     0
100
AcDbPolyline
 90
       49
 70
     0
 43
0.0
 10
658.164673
 20
568.445984
 10
658.17572
 20
568.163879
 10
658.186768
 20
567.804199
 10
658.197815
 20
567.368652
 10
658.208618
 20
566.859802
 10
658.219299
 20
566.279785
 10
658.229797
 20
565.630371
 10
658.23999
 20
564.913574
 10
658.249939
 20
564.131653
 10
658.259583
 20
563.287598
 10
658.268799
 20
562.384827
 10
658.27771
 20
561.426697
 10
658.286133
 20
560.416992
 10
658.294128
 20
559.359863
 10
658.301636
 20
558.259766
 10
658.308594
 20
557.120972
 10
658.315063
 20
555.947815
 10
658.320923
 20
554.744263
 10
658.326172
 20
553.514221
 10
658.330811
 20
552.261719
 10
658.334839
 20
550.991577
 10
658.338257
 20
549.708984
 10
658.341003
 20
548.41925
 10
658.343079
 20
547.127502
 10
658.344482
 20
545.838501
 10
658.345215
 20
544.557129
 10
658.345215
 20
543.288208
 10
658.344543
 20
542.036377
 10
658.343262
 20
540.806335
 10
658.341248
 20
539.602661
 10
658.338562
 20
538.429993
 10
658.335205
 20
537.292847
 10
658.331238
 20
536.195801
 10
658.32666
 20
535.143311
 10
658.321411
 20
534.139709
 10
658.315613
 20
533.187988
 10
658.309265
 20
532.291321
 10
658.302307
 20
531.45282
 10
658.294861
 20
530.675598
 10
658.286926
 20
529.962708
 10
658.278564
 20
529.317078
 10
658.269714
 20
528.74176
 10
658.260437
 20
528.238831
 10
658.250854
 20
527.809937
 10
658.240967
 20
527.456909
 10
658.230774
 20
527.181091
 10
658.220337
 20
526.983154
 10
658.209656
 20
526.86377
 10
658.19873
 20
526.823547
  0
LWPOLYLINE
  5
153
330
10C
100
AcDbEntity
  8
0
  6
Continuous
 62
     0
370
     0
100
AcDbPolyline
 90
        5
 70
     0
 43
0.0
 10
660.064636
 20
568.445984
 10
660.056946
 20
568.596191
 10
660.049255
 20
568.708618
 10
660.041565
 20
568.783081
 10
660.030518
 20
568.823303
  0
LWPOLYLINE
  5
154
330
10C
100
AcDbEntity
  8
0
  6
Continuous
 62
     0
370
     0
100
AcDbPolyline
 90
        5
 70
     0
 43
0.0
 10
658.19873
 20
568.823303
 10
658.191101
 20
568.803955
 10
658.183472
 20
568.746399
 10
658.175781
 20
568.650818
 10
658.164673
 20
568.445984
  0
LINE
  5
155
330
10C
100
AcDbEntity
  8
0
  6
Continuous
 62
     0
370
     0
100
AcDbLine
 10
660.364631
 20
527.495425
 30
0.0
 11
660.364631
 21
527.907315
 31
0.0
  0
LINE
  5
156
330
10C
100
AcDbEntity
  8
0
  6
Continuous
 62
     0
370
     0
100
AcDbLine
 10
660.364632
 20
567.513076
 30
0.0
 11
660.364632
 21
568.151395
 31
0.0
  0
LWPOLYLINE
  5
157
330
10C
100
AcDbEntity
  8
0
  6
Continuous
 62
     0
370
     0
100
AcDbPolyline
 90
       52
 70
     0
 43
0.0
 10
660.364624
 20
527.495422
 10
660.353516
 20
527.293335
 10
660.342407
 20
527.169128
 10
660.331421
 20
527.123169
 10
660.320557
 20
527.155823
 10
660.309875
 20
527.266785
 10
660.299377
 20
527.45575
 10
660.289124
 20
527.721924
 10
660.279175
 20
528.064331
 10
660.269531
 20
528.481689
 10
660.260254
 20
528.972412
 10
660.251404
 20
529.534607
 10
660.24292
 20
530.166199
 10
660.234924
 20
530.864685
 10
660.227478
 20
531.627563
 10
660.220459
 20
532.451782
 10
660.21405
 20
533.334351
 10
660.208191
 20
534.271851
 10
660.202942
 20
535.260803
 10
660.198242
 20
536.297302
 10
660.194275
 20
537.377563
 10
660.190857
 20
538.497437
 10
660.188171
 20
539.652649
 10
660.186096
 20
540.838928
 10
660.184753
 20
542.051636
 10
660.184021
 20
543.286194
 10
660.184021
 20
544.538025
 10
660.184753
 20
545.802307
 10
660.186096
 20
547.074219
 10
660.18811
 20
548.348999
 10
660.190857
 20
549.621765
 10
660.194214
 20
550.887695
 10
660.198242
 20
552.142029
 10
660.202881
 20
553.379944
 10
660.20813
 20
554.596802
 10
660.213989
 20
555.788025
 10
660.220398
 20
556.948975
 10
660.227356
 20
558.075317
 10
660.234863
 20
559.162842
 10
660.242859
 20
560.207275
 10
660.251282
 20
561.204773
 10
660.260193
 20
562.15155
 10
660.26947
 20
563.043945
 10
660.279053
 20
563.878601
 10
660.289062
 20
564.652405
 10
660.299255
 20
565.362366
 10
660.309753
 20
566.005798
 10
660.320496
 20
566.580322
 10
660.33136
 20
567.083618
 10
660.342346
 20
567.513916
 10
660.353394
 20
567.869568
 10
660.364624
 20
568.151367
  0
LWPOLYLINE
  5
158
330
10C
100
AcDbEntity
  8
0
  6
Continuous
 62
     0
370
     0
100
AcDbPolyline
 90
       50
 70
     0
 43
0.0
 10
660.364624
 20
567.513062
 10
660.35376
 20
567.239868
 10
660.342957
 20
566.891663
 10
660.332214
 20
566.469849
 10
660.321594
 20
565.976074
 10
660.311157
 20
565.412109
 10
660.300903
 20
564.780334
 10
660.290894
 20
564.083008
 10
660.281189
 20
563.322937
 10
660.27179
 20
562.502991
 10
660.262756
 20
561.626343
 10
660.254089
 20
560.696411
 10
660.245911
 20
559.716797
 10
660.238159
 20
558.691223
 10
660.230896
 20
557.623718
 10
660.224121
 20
556.518372
 10
660.217957
 20
555.379456
 10
660.21228
 20
554.211304
 10
660.207275
 20
553.018555
 10
660.20282
 20
551.805725
 10
660.198975
 20
550.577515
 10
660.195801
 20
549.338684
 10
660.193298
 20
548.093994
 10
660.191406
 20
546.848267
 10
660.190247
 20
545.606262
 10
660.189697
 20
544.372864
 10
660.18988
 20
543.152771
 10
660.190674
 20
541.950745
 10
660.1922
 20
540.771362
 10
660.194336
 20
539.619263
 10
660.197205
 20
538.49884
 10
660.200684
 20
537.414368
 10
660.204773
 20
536.370117
 10
660.209473
 20
535.370117
 10
660.214783
 20
534.418213
 10
660.220703
 20
533.518066
 10
660.227173
 20
532.673157
 10
660.234131
 20
531.886719
 10
660.241638
 20
531.161865
 10
660.249573
 20
530.501343
 10
660.257996
 20
529.907715
 10
660.266846
 20
529.38324
 10
660.276001
 20
528.929993
 10
660.285583
 20
528.549744
 10
660.29541
 20
528.243896
 10
660.305542
 20
528.013611
 10
660.315857
 20
527.859863
 10
660.326416
 20
527.783203
 10
660.337097
 20
527.783936
 10
660.348022
 20
527.864014
  0
LWPOLYLINE
  5
159
330
10C
100
AcDbEntity
  8
0
  6
Continuous
 62
     0
370
     0
100
AcDbPolyline
 90
        4
 70
     0
 43
0.0
 10
660.631592
 20
567.573425
 10
660.642517
 20
567.533875
 10
660.653564
 20
567.415771
 10
660.664673
 20
567.218445
  0
ARC
  5
15A
330
10C
100
AcDbEntity
  8
0
  6
Continuous
 62
     0
370
     0
100
AcDbCircle
 10
660.661595
 20
567.515425
 30
0.0
 40
0.2969726101869969
100
AcDbArc
 50
180.45314
 51
270.588091
  0
LWPOLYLINE
  5
15B
330
10C
100
AcDbEntity
  8
0
  6
Continuous
 62
     0
370
     0
100
AcDbPolyline
 90
       48
 70
     0
 43
0.0
 10
660.664673
 20
567.218445
 10
660.653687
 20
566.946533
 10
660.642761
 20
566.59906
 10
660.631897
 20
566.177551
 10
660.621155
 20
565.683777
 10
660.610596
 20
565.119629
 10
660.600281
 20
564.487488
 10
660.59021
 20
563.789612
 10
660.580383
 20
563.028748
 10
660.570984
 20
562.208069
 10
660.56189
 20
561.330688
 10
660.553162
 20
560.400024
 10
660.544922
 20
559.419861
 10
660.53717
 20
558.393982
 10
660.529907
 20
557.326416
 10
660.523193
 20
556.221497
 10
660.516968
 20
555.083435
 10
660.511414
 20
553.916748
 10
660.506409
 20
552.726074
 10
660.502014
 20
551.516113
 10
660.498291
 20
550.291504
 10
660.495239
 20
549.057251
 10
660.492798
 20
547.818115
 10
660.491089
 20
546.578979
 10
660.490051
 20
545.344788
 10
660.489685
 20
544.1203
 10
660.48999
 20
542.910461
 10
660.491028
 20
541.719971
 10
660.492737
 20
540.553467
 10
660.495117
 20
539.41571
 10
660.498169
 20
538.311035
 10
660.501831
 20
537.243835
 10
660.506226
 20
536.218323
 10
660.511169
 20
535.238586
 10
660.516724
 20
534.30835
 10
660.522888
 20
533.431458
 10
660.529602
 20
532.611267
 10
660.536865
 20
531.850891
 10
660.544617
 20
531.153564
 10
660.552856
 20
530.521973
 10
660.561523
 20
529.958435
 10
660.570557
 20
529.465271
 10
660.580017
 20
529.044556
 10
660.589783
 20
528.697754
 10
660.599854
 20
528.426331
 10
660.610229
 20
528.231445
 10
660.620728
 20
528.113647
 10
660.631653
 20
528.073425
  0
LINE
  5
15C
330
10C
100
AcDbEntity
  8
0
  6
Continuous
 62
     0
370
     0
100
AcDbLine
 10
660.364326
 20
527.482291
 30
0.0
 11
660.364631
 21
527.495425
 31
0.0
  0
ARC
  5
15D
330
10C
100
AcDbEntity
  8
0
  6
Continuous
 62
     0
370
     0
100
AcDbCircle
 10
660.067321
 20
568.148693
 30
0.0
 40
0.2973226615459943
100
AcDbArc
 50
0.520648
 51
90.520514
  0
ARC
  5
15E
330
10C
100
AcDbEntity
  8
0
  6
Continuous
 62
     0
370
     0
100
AcDbCircle
 10
658.161626
 20
568.149
 30
0.0
 40
0.2970189093519598
100
AcDbArc
 50
89.417941
 51
179.166218
  0
LINE
  5
15F
330
10C
100
AcDbEntity
  8
0
  6
Continuous
 62
     0
370
     0
100
AcDbLine
 10
660.664643
 20
567.218468
 30
0.0
 11
660.864632
 21
567.218468
 31
0.0
  0
LINE
  5
160
330
10C
100
AcDbEntity
  8
0
  6
Continuous
 62
     0
370
    30
100
AcDbLine
 10
660.864632
 20
528.07341
 30
0.0
 11
660.63162
 21
528.07341
 31
0.0
  0
LINE
  5
161
330
10C
100
AcDbEntity
  8
0
  6
Continuous
 62
     0
370
    30
100
AcDbLine
 10
660.864632
 20
567.57341
 30
0.0
 11
660.63162
 21
567.57341
 31
0.0
  0
LWPOLYLINE
  5
162
330
10C
100
AcDbEntity
  8
0
  6
Continuous
 62
     0
370
    30
100
AcDbPolyline
 90
       24
 70
     0
 43
0.0
 10
658.19873
 20
526.823425
 10
658.054993
 20
526.859985
 10
657.961731
 20
526.938293
 10
657.922974
 20
527.001343
 10
657.908203
 20
527.039612
 10
657.90094
 20
527.065613
 10
657.896545
 20
527.085876
 10
657.893372
 20
527.103577
 10
657.890808
 20
527.1203
 10
657.888611
 20
527.137024
 10
657.886597
 20
527.154114
 10
657.884705
 20
527.171997
 10
657.882935
 20
527.190796
 10
657.881165
 20
527.210632
 10
657.879456
 20
527.23175
 10
657.877808
 20
527.254089
 10
657.87616
 20
527.27771
 10
657.874512
 20
527.302734
 10
657.872925
 20
527.329102
 10
657.871277
 20
527.356873
 10
657.86969
 20
527.385986
 10
657.868103
 20
527.416565
 10
657.866516
 20
527.448547
 10
657.864929
 20
527.4823
  0
LWPOLYLINE
  5
163
330
10C
100
AcDbEntity
  8
0
  6
Continuous
 62
     0
370
    30
100
AcDbPolyline
 90
       24
 70
     0
 43
0.0
 10
657.864929
 20
568.164551
 10
657.866516
 20
568.197937
 10
657.868103
 20
568.229919
 10
657.86969
 20
568.260498
 10
657.871277
 20
568.289612
 10
657.872864
 20
568.317322
 10
657.874512
 20
568.343689
 10
657.87616
 20
568.368652
 10
657.877808
 20
568.392334
 10
657.879456
 20
568.414612
 10
657.881165
 20
568.43573
 10
657.882874
 20
568.455627
 10
657.884644
 20
568.474426
 10
657.886536
 20
568.492188
 10
657.88855
 20
568.509277
 10
657.890747
 20
568.526001
 10
657.89325
 20
568.542725
 10
657.896484
 20
568.560425
 10
657.900696
 20
568.580444
 10
657.907715
 20
568.606079
 10
657.922302
 20
568.643799
 10
657.959473
 20
568.705688
 10
658.050232
 20
568.784302
 10
658.19873
 20
568.823425
  0
LWPOLYLINE
  5
164
330
10C
100
AcDbEntity
  8
0
  6
Continuous
 62
     0
370
    30
100
AcDbPolyline
 90
       24
 70
     0
 43
0.0
 10
660.030518
 20
568.823425
 10
660.174072
 20
568.787048
 10
660.267395
 20
568.70874
 10
660.306091
 20
568.645813
 10
660.321045
 20
568.607361
 10
660.328186
 20
568.581482
 10
660.332764
 20
568.561096
 10
660.335876
 20
568.543457
 10
660.338379
 20
568.526733
 10
660.340637
 20
568.510071
 10
660.342712
 20
568.492859
 10
660.344604
 20
568.474915
 10
660.346375
 20
568.456177
 10
660.348083
 20
568.436401
 10
660.349792
 20
568.415527
 10
660.351379
 20
568.393372
 10
660.353027
 20
568.369812
 10
660.354675
 20
568.34491
 10
660.356262
 20
568.318665
 10
660.35791
 20
568.290955
 10
660.359497
 20
568.261902
 10
660.361084
 20
568.231384
 10
660.362671
 20
568.199463
 10
660.364319
 20
568.164551
  0
LWPOLYLINE
  5
165
330
10C
100
AcDbEntity
  8
0
  6
Continuous
 62
     0
370
    30
100
AcDbPolyline
 90
       24
 70
     0
 43
0.0
 10
660.364319
 20
527.4823
 10
660.362732
 20
527.448853
 10
660.361206
 20
527.416931
 10
660.35968
 20
527.386414
 10
660.358093
 20
527.357361
 10
660.356506
 20
527.329712
 10
660.354919
 20
527.303406
 10
660.353333
 20
527.278442
 10
660.351624
 20
527.2547
 10
660.349915
 20
527.232239
 10
660.348145
 20
527.210938
 10
660.346313
 20
527.190857
 10
660.344421
 20
527.171875
 10
660.342468
 20
527.153992
 10
660.340576
 20
527.137024
 10
660.338745
 20
527.120972
 10
660.336487
 20
527.104736
 10
660.333313
 20
527.086914
 10
660.32843
 20
527.065918
 10
660.321045
 20
527.039856
 10
660.306702
 20
527.001953
 10
660.26825
 20
526.939209
 10
660.175842
 20
526.860779
 10
660.030518
 20
526.823425
  0
LWPOLYLINE
  5
166
330
10C
100
AcDbEntity
  8
0
  6
Continuous
 62
     0
370
    30
100
AcDbPolyline
 90
        8
 70
     0
 43
0.0
 10
660.631653
 20
528.073425
 10
660.498657
 20
528.042114
 10
660.407043
 20
527.971375
 10
660.366516
 20
527.911133
 10
660.352417
 20
527.877686
 10
660.347046
 20
527.860168
 10
660.345154
 20
527.85199
 10
660.344666
 20
527.849365
  0
LWPOLYLINE
  5
167
330
10C
100
AcDbEntity
  8
0
  6
Continuous
 62
     0
370
    30
100
AcDbPolyline
 90
        4
 70
     0
 43
0.0
 10
660.364624
 20
567.739441
 10
660.40155
 20
567.681946
 10
660.487549
 20
567.610474
 10
660.631592
 20
567.573425
  0
LINE
  5
168
330
10C
100
AcDbEntity
  8
0
  6
Continuous
 62
     0
370
    30
100
AcDbLine
 10
660.030526
 20
568.82341
 30
0.0
 11
658.198737
 21
568.82341
 31
0.0
  0
LINE
  5
169
330
10C
100
AcDbEntity
  8
0
  6
Continuous
 62
     0
370
    30
100
AcDbLine
 10
660.030526
 20
526.82341
 30
0.0
 11
658.198737
 21
526.82341
 31
0.0
  0
LINE
  5
16A
330
10C
100
AcDbEntity
  8
0
  6
Continuous
 62
     0
370
    30
100
AcDbLine
 10
657.86464
 20
473.823266
 30
0.0
 11
655.86464
 21
473.823266
 31
0.0
  0
LINE
  5
16B
330
10C
100
AcDbEntity
  8
0
  6
Continuous
 62
     0
370
    30
100
AcDbLine
 10
655.86464
 20
751.823266
 30
0.0
 11
657.86464
 21
751.823266
 31
0.0
  0
LINE
  5
16C
330
10C
100
AcDbEntity
  8
0
  6
Continuous
 62
     0
370
    30
100
AcDbLine
 10
655.86464
 20
751.823266
 30
0.0
 11
655.86464
 21
473.823266
 31
0.0
  0
LINE
  5
16D
330
10C
100
AcDbEntity
  8
0
  6
Continuous
 62
     0
370
    30
100
AcDbLine
 10
657.86464
 20
473.823266
 30
0.0
 11
657.86464
 21
751.823266
 31
0.0
  0
ENDBLK
  5
16F
330
10C
100
AcDbEntity
  8
0
100
AcDbBlockEnd
  0
BLOCK
  5
1DD
330
171
100
AcDbEntity
  8
0
100
AcDbBlockBegin
  2
d
 70
     0
 10
425.647949
 20
0.0
 30
0.0
  3
d
  1

  0
LINE
  5
172
330
171
100
AcDbEntity
  8
0
  6
Continuous
 62
     0
370
    30
100
AcDbLine
 10
335.746747
 20
666.821146
 30
0.0
 11
335.746747
 21
659.821146
 31
0.0
  0
LINE
  5
173
330
171
100
AcDbEntity
  8
0
  6
Continuous
 62
     0
370
    30
100
AcDbLine
 10
335.746747
 20
688.821146
 30
0.0
 11
335.746747
 21
666.821146
 31
0.0
  0
LINE
  5
174
330
171
100
AcDbEntity
  8
0
  6
Continuous
 62
     0
370
    30
100
AcDbLine
 10
335.746747
 20
695.821146
 30
0.0
 11
335.746747
 21
688.821146
 31
0.0
  0
LINE
  5
175
330
171
100
AcDbEntity
  8
0
  6
Continuous
 62
     0
370
    30
100
AcDbLine
 10
375.746747
 20
696.821146
 30
0.0
 11
336.746747
 21
696.821146
 31
0.0
  0
LINE
  5
176
330
171
100
AcDbEntity
  8
0
  6
Continuous
 62
     0
370
     0
100
AcDbLine
 10
336.746747
 20
696.821146
 30
0.0
 11
336.746747
 21
688.821146
 31
0.0
  0
LINE
  5
177
330
171
100
AcDbEntity
  8
0
  6
Continuous
 62
     0
370
     0
100
AcDbLine
 10
336.746747
 20
688.821146
 30
0.0
 11
375.746747
 21
688.821146
 31
0.0
  0
LINE
  5
178
330
171
100
AcDbEntity
  8
0
  6
Continuous
 62
     0
370
    30
100
AcDbLine
 10
375.746747
 20
688.821146
 30
0.0
 11
375.746747
 21
696.821146
 31
0.0
  0
LINE
  5
179
330
171
100
AcDbEntity
  8
0
  6
Continuous
 62
     0
370
     0
100
AcDbLine
 10
336.746747
 20
666.821146
 30
0.0
 11
336.746747
 21
688.821146
 31
0.0
  0
LINE
  5
17A
330
171
100
AcDbEntity
  8
0
  6
Continuous
 62
     0
370
     0
100
AcDbLine
 10
375.746747
 20
666.821146
 30
0.0
 11
336.746747
 21
666.821146
 31
0.0
  0
LINE
  5
17B
330
171
100
AcDbEntity
  8
0
  6
Continuous
 62
     0
370
    30
100
AcDbLine
 10
375.746747
 20
688.821146
 30
0.0
 11
375.746747
 21
666.821146
 31
0.0
  0
LINE
  5
17C
330
171
100
AcDbEntity
  8
0
  6
Continuous
 62
     0
370
     0
100
AcDbLine
 10
336.746747
 20
666.821146
 30
0.0
 11
336.746747
 21
658.821146
 31
0.0
  0
LINE
  5
17D
330
171
100
AcDbEntity
  8
0
  6
Continuous
 62
     0
370
    30
100
AcDbLine
 10
336.746747
 20
658.821146
 30
0.0
 11
375.746747
 21
658.821146
 31
0.0
  0
LINE
  5
17E
330
171
100
AcDbEntity
  8
0
  6
Continuous
 62
     0
370
    30
100
AcDbLine
 10
375.746747
 20
658.821146
 30
0.0
 11
375.746747
 21
666.821146
 31
0.0
  0
ARC
  5
17F
330
171
100
AcDbEntity
  8
0
  6
Continuous
 62
     0
370
    30
100
AcDbCircle
 10
336.746747
 20
659.821146
 30
0.0
 40
1.0
100
AcDbArc
 50
180.0
 51
270.0
  0
LINE
  5
180
330
171
100
AcDbEntity
  8
0
  6
Continuous
 62
     0
370
     0
100
AcDbLine
 10
336.746747
 20
666.821146
 30
0.0
 11
335.746747
 21
666.821146
 31
0.0
  0
LINE
  5
181
330
171
100
AcDbEntity
  8
0
  6
Continuous
 62
     0
370
     0
100
AcDbLine
 10
336.746747
 20
688.821146
 30
0.0
 11
335.746747
 21
688.821146
 31
0.0
  0
ARC
  5
182
330
171
100
AcDbEntity
  8
0
  6
Continuous
 62
     0
370
    30
100
AcDbCircle
 10
336.746747
 20
695.821146
 30
0.0
 40
0.9999999999997371
100
AcDbArc
 50
90.0
 51
180.0
  0
LINE
  5
183
330
171
100
AcDbEntity
  8
0
  6
Continuous
 62
     0
370
    30
100
AcDbLine
 10
325.896713
 20
569.323395
 30
0.0
 11
325.896713
 21
526.323395
 31
0.0
  0
LINE
  5
184
330
171
100
AcDbEntity
  8
0
  6
Continuous
 62
     0
370
    30
100
AcDbLine
 10
325.896713
 20
526.323395
 30
0.0
 11
326.396713
 21
525.823395
 31
0.0
  0
LINE
  5
185
330
171
100
AcDbEntity
  8
0
  6
Continuous
 62
     0
370
    30
100
AcDbLine
 10
326.396713
 20
569.823395
 30
0.0
 11
326.396713
 21
525.823395
 31
0.0
  0
LINE
  5
186
330
171
100
AcDbEntity
  8
0
  6
Continuous
 62
     0
370
    30
100
AcDbLine
 10
339.646713
 20
525.823395
 30
0.0
 11
375.896713
 21
525.823395
 31
0.0
  0
LINE
  5
187
330
171
100
AcDbEntity
  8
0
  6
Continuous
 62
     0
370
    30
100
AcDbLine
 10
375.896713
 20
525.823395
 30
0.0
 11
375.896713
 21
569.823395
 31
0.0
  0
LINE
  5
188
330
171
100
AcDbEntity
  8
0
  6
Continuous
 62
     0
370
    30
100
AcDbLine
 10
330.146713
 20
525.823395
 30
0.0
 11
326.396713
 21
525.823395
 31
0.0
  0
LWPOLYLINE
  5
189
330
171
100
AcDbEntity
  8
0
  6
Continuous
 62
     0
370
     0
100
AcDbPolyline
 90
       27
 70
     0
 43
0.0
 10
330.146729
 20
525.823364
 10
330.181091
 20
525.830872
 10
330.284546
 20
525.852722
 10
330.45462
 20
525.887817
 10
330.688751
 20
525.934021
 10
330.983429
 20
525.98877
 10
331.334778
 20
526.049011
 10
331.738342
 20
526.111267
 10
332.188324
 20
526.172119
 10
332.677917
 20
526.228027
 10
333.200165
 20
526.275391
 10
333.747589
 20
526.311523
 10
334.312225
 20
526.334351
 10
334.885895
 20
526.342224
 10
335.459747
 20
526.3349
 10
336.024872
 20
526.312622
 10
336.573059
 20
526.276917
 10
337.096405
 20
526.229919
 10
337.587341
 20
526.174316
 10
338.03894
 20
526.113586
 10
338.444366
 20
526.051331
 10
338.797791
 20
525.990967
 10
339.094727
 20
525.935913
 10
339.331207
 20
525.889343
 10
339.503632
 20
525.853821
 10
339.609711
 20
525.831421
 10
339.646729
 20
525.823364
  0
LWPOLYLINE
  5
18A
330
171
100
AcDbEntity
  8
0
  6
Continuous
 62
     0
370
     0
100
AcDbPolyline
 90
       25
 70
     0
 43
0.0
 10
338.996704
 20
569.823364
 10
338.961914
 20
569.816895
 10
338.857391
 20
569.797852
 10
338.68576
 20
569.767578
 10
338.450073
 20
569.728088
 10
338.154083
 20
569.682007
 10
337.802368
 20
569.632446
 10
337.400421
 20
569.582581
 10
336.955505
 20
569.535828
 10
336.47525
 20
569.495544
 10
335.967743
 20
569.4646
 10
335.44162
 20
569.444885
 10
334.905823
 20
569.438049
 10
334.369904
 20
569.444397
 10
333.843353
 20
569.463684
 10
333.335144
 20
569.494385
 10
332.853821
 20
569.534363
 10
332.407562
 20
569.580933
 10
332.003967
 20
569.630737
 10
331.650421
 20
569.680359
 10
331.352509
 20
569.726624
 10
331.114807
 20
569.766418
 10
330.940826
 20
569.796997
 10
330.833984
 20
569.816467
 10
330.797119
 20
569.823364
  0
LINE
  5
18B
330
171
100
AcDbEntity
  8
0
  6
Continuous
 62
     0
370
    30
100
AcDbLine
 10
338.346713
 20
577.653395
 30
0.0
 11
331.446713
 21
577.653395
 31
0.0
  0
LINE
  5
18C
330
171
100
AcDbEntity
  8
0
  6
Continuous
 62
     0
370
    30
100
AcDbLine
 10
331.446713
 20
577.653395
 30
0.0
 11
330.946713
 21
577.153395
 31
0.0
  0
LINE
  5
18D
330
171
100
AcDbEntity
  8
0
  6
Continuous
 62
     0
370
    30
100
AcDbLine
 10
338.846713
 20
577.153395
 30
0.0
 11
330.946713
 21
577.153395
 31
0.0
  0
LINE
  5
18E
330
171
100
AcDbEntity
  8
0
  6
Continuous
 62
     0
370
    30
100
AcDbLine
 10
330.946713
 20
569.823395
 30
0.0
 11
330.946713
 21
577.153395
 31
0.0
  0
LWPOLYLINE
  5
18F
330
171
100
AcDbEntity
  8
0
  6
Continuous
 62
     0
370
    30
100
AcDbPolyline
 90
       24
 70
     0
 43
0.0
 10
330.946716
 20
569.823364
 10
330.983215
 20
569.816772
 10
331.092957
 20
569.797485
 10
331.27356
 20
569.767029
 10
331.521271
 20
569.727478
 10
331.831055
 20
569.681763
 10
332.19696
 20
569.633423
 10
332.613007
 20
569.585999
 10
333.072021
 20
569.542847
 10
333.565094
 20
569.506958
 10
334.083344
 20
569.481323
 10
334.617462
 20
569.468201
 10
335.157013
 20
569.467957
 10
335.691467
 20
569.480591
 10
336.210388
 20
569.505859
 10
336.704468
 20
569.541565
 10
337.164825
 20
569.584595
 10
337.582703
 20
569.631958
 10
337.950653
 20
569.680298
 10
338.262482
 20
569.726074
 10
338.512115
 20
569.765686
 10
338.694519
 20
569.796265
 10
338.806885
 20
569.81604
 10
338.84671
 20
569.823303
  0
LINE
  5
190
330
171
100
AcDbEntity
  8
0
  6
Continuous
 62
     0
370
    30
100
AcDbLine
 10
339.646713
 20
525.823395
 30
0.0
 11
330.146713
 21
525.823395
 31
0.0
  0
LINE
  5
191
330
171
100
AcDbEntity
  8
0
  6
Continuous
 62
     0
370
    30
100
AcDbLine
 10
330.946713
 20
569.823395
 30
0.0
 11
330.79711
 21
569.823395
 31
0.0
  0
LINE
  5
192
330
171
100
AcDbEntity
  8
0
  6
Continuous
 62
     0
370
    30
100
AcDbLine
 10
338.846713
 20
577.153395
 30
0.0
 11
338.846713
 21
569.823319
 31
0.0
  0
LINE
  5
193
330
171
100
AcDbEntity
  8
0
  6
Continuous
 62
     0
370
    30
100
AcDbLine
 10
338.346713
 20
577.653395
 30
0.0
 11
338.846713
 21
577.153395
 31
0.0
  0
LINE
  5
194
330
171
100
AcDbEntity
  8
0
  6
Continuous
 62
     0
370
    30
100
AcDbLine
 10
326.396713
 20
569.823395
 30
0.0
 11
330.797111
 21
569.823395
 31
0.0
  0
LINE
  5
195
330
171
100
AcDbEntity
  8
0
  6
Continuous
 62
     0
370
    30
100
AcDbLine
 10
338.996713
 20
569.823395
 30
0.0
 11
375.896713
 21
569.823395
 31
0.0
  0
LINE
  5
196
330
171
100
AcDbEntity
  8
0
  6
Continuous
 62
     0
370
    30
100
AcDbLine
 10
325.896713
 20
569.323395
 30
0.0
 11
326.396713
 21
569.823395
 31
0.0
  0
LWPOLYLINE
  5
197
330
171
100
AcDbEntity
  8
0
  6
Continuous
 62
     0
370
     0
100
AcDbPolyline
 90
       10
 70
     0
 43
0.0
 10
376.396759
 20
672.685913
 10
376.417664
 20
671.554565
 10
376.438477
 20
670.453491
 10
376.459106
 20
669.388245
 10
376.479401
 20
668.363892
 10
376.499329
 20
667.385559
 10
376.518738
 20
666.457947
 10
376.537567
 20
665.585449
 10
376.555695
 20
664.772522
 10
376.574738
 20
663.952881
  0
LINE
  5
198
330
171
100
AcDbEntity
  8
0
  6
Continuous
 62
     0
370
     0
100
AcDbLine
 10
376.396744
 20
672.954595
 30
0.0
 11
376.396744
 21
672.685889
 31
0.0
  0
LWPOLYLINE
  5
199
330
171
100
AcDbEntity
  8
0
  6
Continuous
 62
     0
370
     0
100
AcDbPolyline
 90
       20
 70
     0
 43
0.0
 10
378.310181
 20
660.32135
 10
378.316772
 20
660.360229
 10
378.324615
 20
660.476562
 10
378.333679
 20
660.669861
 10
378.343903
 20
660.93927
 10
378.355225
 20
661.283386
 10
378.367645
 20
661.701172
 10
378.381104
 20
662.190979
 10
378.395508
 20
662.750427
 10
378.410797
 20
663.377014
 10
378.426941
 20
664.068054
 10
378.443817
 20
664.820068
 10
378.461395
 20
665.629395
 10
378.479523
 20
666.49231
 10
378.498169
 20
667.404907
 10
378.517273
 20
668.363342
 10
378.536713
 20
669.365112
 10
378.556488
 20
670.406189
 10
378.576416
 20
671.479553
 10
378.59671
 20
672.596313
  0
LINE
  5
19A
330
171
100
AcDbEntity
  8
0
  6
Continuous
 62
     0
370
     0
100
AcDbLine
 10
378.596699
 20
672.596321
 30
0.0
 11
376.69679
 21
672.596321
 31
0.0
  0
LWPOLYLINE
  5
19B
330
171
100
AcDbEntity
  8
0
  6
Continuous
 62
     0
370
     0
100
AcDbPolyline
 90
       20
 70
     0
 43
0.0
 10
376.696777
 20
672.596313
 10
376.716766
 20
671.496582
 10
376.736694
 20
670.422729
 10
376.75647
 20
669.381104
 10
376.77594
 20
668.378723
 10
376.795013
 20
667.419556
 10
376.81366
 20
666.506226
 10
376.831818
 20
665.642517
 10
376.849396
 20
664.832336
 10
376.866302
 20
664.079346
 10
376.882446
 20
663.387329
 10
376.897766
 20
662.759705
 10
376.91217
 20
662.199219
 10
376.925629
 20
661.708313
 10
376.93808
 20
661.289368
 10
376.949432
 20
660.944031
 10
376.959656
 20
660.673523
 10
376.968719
 20
660.479004
 10
376.976593
 20
660.36145
 10
376.983337
 20
660.32135
  0
LWPOLYLINE
  5
19C
330
171
100
AcDbEntity
  8
0
  6
Continuous
 62
     0
370
     0
100
AcDbPolyline
 90
       10
 70
     0
 43
0.0
 10
378.71991
 20
664.001648
 10
378.737091
 20
664.74231
 10
378.755035
 20
665.545349
 10
378.773682
 20
666.407043
 10
378.792877
 20
667.323181
 10
378.812592
 20
668.289429
 10
378.832672
 20
669.301147
 10
378.853088
 20
670.353577
 10
378.873718
 20
671.441589
 10
378.896698
 20
672.683777
  0
LWPOLYLINE
  5
19D
330
171
100
AcDbEntity
  8
0
  6
Continuous
 62
     0
370
     0
100
AcDbPolyline
 90
       48
 70
     0
 43
0.0
 10
378.896698
 20
672.687988
 10
378.876678
 20
673.795227
 10
378.856689
 20
674.920898
 10
378.836914
 20
676.059204
 10
378.817413
 20
677.205444
 10
378.798248
 20
678.354492
 10
378.779541
 20
679.50116
 10
378.761353
 20
680.640381
 10
378.743744
 20
681.767029
 10
378.726837
 20
682.87616
 10
378.710693
 20
683.962708
 10
378.695374
 20
685.021851
 10
378.680939
 20
686.04895
 10
378.66748
 20
687.039307
 10
378.655029
 20
687.988586
 10
378.643677
 20
688.892517
 10
378.633453
 20
689.747009
 10
378.62439
 20
690.54834
 10
378.616547
 20
691.292908
 10
378.609955
 20
691.977356
 10
378.604645
 20
692.598572
 10
378.600647
 20
693.153931
 10
378.597961
 20
693.640808
 10
378.596588
 20
694.057007
 10
378.596588
 20
694.40094
 10
378.5979
 20
694.670837
 10
378.600586
 20
694.865417
 10
378.604553
 20
694.98407
 10
378.609833
 20
695.026062
 10
378.616394
 20
694.991211
 10
378.624237
 20
694.879822
 10
378.63327
 20
694.692322
 10
378.643463
 20
694.429443
 10
378.654816
 20
694.092529
 10
378.667206
 20
693.683044
 10
378.680664
 20
693.202698
 10
378.695068
 20
692.653809
 10
378.710358
 20
692.038696
 10
378.726501
 20
691.360107
 10
378.743408
 20
690.621216
 10
378.760986
 20
689.825195
 10
378.779175
 20
688.975586
 10
378.797882
 20
688.076294
 10
378.817017
 20
687.131226
 10
378.836548
 20
686.144531
 10
378.856293
 20
685.120789
 10
378.876251
 20
684.064453
 10
378.896698
 20
682.958496
  0
LWPOLYLINE
  5
19E
330
171
100
AcDbEntity
  8
0
  6
Continuous
 62
     0
370
     0
100
AcDbPolyline
 90
       43
 70
     0
 43
0.0
 10
378.896698
 20
682.003113
 10
378.878448
 20
682.989441
 10
378.860291
 20
683.946899
 10
378.842346
 20
684.870056
 10
378.824707
 20
685.753906
 10
378.807465
 20
686.593445
 10
378.790741
 20
687.383972
 10
378.774567
 20
688.121033
 10
378.759094
 20
688.800598
 10
378.744415
 20
689.418762
 10
378.73056
 20
689.972168
 10
378.717651
 20
690.457642
 10
378.705719
 20
690.872498
 10
378.694855
 20
691.214539
 10
378.68515
 20
691.481567
 10
378.676605
 20
691.672363
 10
378.669281
 20
691.785706
 10
378.663269
 20
691.820984
 10
378.658508
 20
691.778137
 10
378.655121
 20
691.657104
 10
378.653076
 20
691.458862
 10
378.652374
 20
691.184387
 10
378.653046
 20
690.835205
 10
378.65509
 20
690.413269
 10
378.658478
 20
689.921021
 10
378.663208
 20
689.361084
 10
378.66922
 20
688.736694
 10
378.676514
 20
688.05127
 10
378.685028
 20
687.308716
 10
378.694763
 20
686.513123
 10
378.705597
 20
685.668945
 10
378.717499
 20
684.780945
 10
378.730408
 20
683.854065
 10
378.744232
 20
682.893494
 10
378.758942
 20
681.904541
 10
378.774384
 20
680.892822
 10
378.790527
 20
679.863953
 10
378.807281
 20
678.823669
 10
378.824493
 20
677.777771
 10
378.842163
 20
676.732117
 10
378.860107
 20
675.692627
 10
378.878235
 20
674.664978
 10
378.896698
 20
673.643433
  0
LWPOLYLINE
  5
19F
330
171
100
AcDbEntity
  8
0
  6
Continuous
 62
     0
370
     0
100
AcDbPolyline
 90
       29
 70
     0
 43
0.0
 10
376.983337
 20
695.320923
 10
376.988678
 20
695.281799
 10
376.992737
 20
695.164307
 10
376.995453
 20
694.968994
 10
376.996826
 20
694.697083
 10
376.996887
 20
694.349548
 10
376.995575
 20
693.927979
 10
376.99292
 20
693.434265
 10
376.988953
 20
692.870544
 10
376.983643
 20
692.239075
 10
376.977081
 20
691.543213
 10
376.969269
 20
690.786499
 10
376.960236
 20
689.972351
 10
376.950043
 20
689.104431
 10
376.938721
 20
688.186279
 10
376.9263
 20
687.221252
 10
376.912872
 20
686.213379
 10
376.898438
 20
685.16748
 10
376.883087
 20
684.08844
 10
376.866943
 20
682.981262
 10
376.850006
 20
681.851257
 10
376.832397
 20
680.703796
 10
376.814209
 20
679.544312
 10
376.795502
 20
678.37793
 10
376.776367
 20
677.209351
 10
376.756836
 20
676.042053
 10
376.737
 20
674.880798
 10
376.71701
 20
673.733276
 10
376.696777
 20
672.596313
  0
LWPOLYLINE
  5
1A0
330
171
100
AcDbEntity
  8
0
  6
Continuous
 62
     0
370
     0
100
AcDbPolyline
 90
       29
 70
     0
 43
0.0
 10
378.59671
 20
672.596313
 10
378.57666
 20
673.723022
 10
378.556671
 20
674.870361
 10
378.536835
 20
676.031555
 10
378.517303
 20
677.198792
 10
378.498169
 20
678.367371
 10
378.479462
 20
679.533813
 10
378.461243
 20
680.693359
 10
378.443634
 20
681.840942
 10
378.426697
 20
682.971191
 10
378.410522
 20
684.078552
 10
378.395203
 20
685.157898
 10
378.380768
 20
686.204102
 10
378.36731
 20
687.212341
 10
378.354858
 20
688.177734
 10
378.343536
 20
689.096375
 10
378.333313
 20
689.964783
 10
378.32428
 20
690.779358
 10
378.316467
 20
691.536682
 10
378.309875
 20
692.233093
 10
378.304596
 20
692.865112
 10
378.300598
 20
693.429504
 10
378.297943
 20
693.923828
 10
378.296631
 20
694.34613
 10
378.296661
 20
694.694275
 10
378.298035
 20
694.966919
 10
378.30072
 20
695.162842
 10
378.304779
 20
695.281128
 10
378.310181
 20
695.320923
  0
LWPOLYLINE
  5
1A1
330
171
100
AcDbEntity
  8
0
  6
Continuous
 62
     0
370
     0
100
AcDbPolyline
 90
       29
 70
     0
 43
0.0
 10
376.396759
 20
672.95459
 10
376.416565
 20
674.050232
 10
376.436279
 20
675.164185
 10
376.455811
 20
676.291016
 10
376.475067
 20
677.425232
 10
376.493927
 20
678.56134
 10
376.512329
 20
679.693848
 10
376.530151
 20
680.817261
 10
376.547333
 20
681.926086
 10
376.563782
 20
683.014893
 10
376.579407
 20
684.078491
 10
376.594147
 20
685.111633
 10
376.607941
 20
686.109314
 10
376.620697
 20
687.066711
 10
376.632385
 20
687.979187
 10
376.642883
 20
688.842285
 10
376.652222
 20
689.651794
 10
376.660309
 20
690.403748
 10
376.667114
 20
691.094604
 10
376.672607
 20
691.720886
 10
376.676758
 20
692.279663
 10
376.679565
 20
692.768127
 10
376.680969
 20
693.18396
 10
376.68103
 20
693.525146
 10
376.679657
 20
693.789978
 10
376.676941
 20
693.977173
 10
376.672852
 20
694.085876
 10
376.66745
 20
694.11554
 10
376.660675
 20
694.065552
  0
LWPOLYLINE
  5
1A2
330
171
100
AcDbEntity
  8
0
  6
Continuous
 62
     0
370
     0
100
AcDbPolyline
 90
       34
 70
     0
 43
0.0
 10
376.635315
 20
693.985168
 10
376.647064
 20
694.345215
 10
376.657654
 20
694.63031
 10
376.667084
 20
694.839172
 10
376.675262
 20
694.970825
 10
376.68219
 20
695.024719
 10
376.687836
 20
695.00061
 10
376.692139
 20
694.89856
 10
376.695129
 20
694.719055
 10
376.696747
 20
694.462891
 10
376.696991
 20
694.131287
 10
376.695892
 20
693.725708
 10
376.693451
 20
693.247986
 10
376.689636
 20
692.700256
 10
376.684509
 20
692.085083
 10
376.67807
 20
691.405273
 10
376.670349
 20
690.663818
 10
376.661407
 20
689.864075
 10
376.651245
 20
689.009766
 10
376.639923
 20
688.104736
 10
376.627533
 20
687.153015
 10
376.614075
 20
686.159058
 10
376.599609
 20
685.127258
 10
376.584259
 20
684.062317
 10
376.568054
 20
682.969116
 10
376.551056
 20
681.852539
 10
376.533356
 20
680.717712
 10
376.515045
 20
679.569824
 10
376.496216
 20
678.41394
 10
376.476929
 20
677.255432
 10
376.457245
 20
676.099548
 10
376.437317
 20
674.951416
 10
376.417206
 20
673.816406
 10
376.396759
 20
672.685913
  0
LWPOLYLINE
  5
1A3
330
171
100
AcDbEntity
  8
0
  6
Continuous
 62
     0
370
     0
100
AcDbPolyline
 90
       28
 70
     0
 43
0.0
 10
376.096802
 20
673.049072
 10
376.116486
 20
674.117798
 10
376.136108
 20
675.205444
 10
376.155548
 20
676.305847
 10
376.174683
 20
677.413208
 10
376.193451
 20
678.522217
 10
376.211761
 20
679.627808
 10
376.229523
 20
680.724854
 10
376.246643
 20
681.808044
 10
376.263031
 20
682.87207
 10
376.278625
 20
683.911804
 10
376.293335
 20
684.922241
 10
376.307098
 20
685.89856
 10
376.319885
 20
686.83606
 10
376.331573
 20
687.730286
 10
376.342133
 20
688.576843
 10
376.351501
 20
689.371704
 10
376.35968
 20
690.111145
 10
376.366547
 20
690.791382
 10
376.372162
 20
691.409363
 10
376.376434
 20
691.962036
 10
376.379364
 20
692.446716
 10
376.38092
 20
692.861084
 10
376.381134
 20
693.203186
 10
376.379974
 20
693.471313
 10
376.377441
 20
693.664307
 10
376.373566
 20
693.781067
 10
376.368225
 20
693.821106
  0
LWPOLYLINE
  5
1A4
330
171
100
AcDbEntity
  8
0
  6
Continuous
 62
     0
370
    30
100
AcDbPolyline
 90
        5
 70
     0
 43
0.0
 10
376.396759
 20
672.95459
 10
376.378387
 20
672.985718
 10
376.325531
 20
673.013672
 10
376.24472
 20
673.034973
 10
376.096802
 20
673.049072
  0
LWPOLYLINE
  5
1A5
330
171
100
AcDbEntity
  8
0
  6
Continuous
 62
     0
370
     0
100
AcDbPolyline
 90
        5
 70
     0
 43
0.0
 10
376.696777
 20
672.596313
 10
376.593842
 20
672.601807
 10
376.502747
 20
672.617554
 10
376.435883
 20
672.641663
 10
376.396759
 20
672.685913
  0
LWPOLYLINE
  5
1A6
330
171
100
AcDbEntity
  8
0
  6
Continuous
 62
     0
370
     0
100
AcDbPolyline
 90
        5
 70
     0
 43
0.0
 10
378.896759
 20
672.685913
 10
378.878357
 20
672.655151
 10
378.825653
 20
672.627991
 10
378.744843
 20
672.607971
 10
378.59671
 20
672.596313
  0
LINE
  5
1A7
330
171
100
AcDbEntity
  8
0
  6
Continuous
 62
     0
370
     0
100
AcDbLine
 10
375.746747
 20
673.044163
 30
0.0
 11
376.179976
 21
673.044163
 31
0.0
  0
LINE
  5
1A8
330
171
100
AcDbEntity
  8
0
  6
Continuous
 62
     0
370
    30
100
AcDbLine
 10
375.746747
 20
661.821143
 30
0.0
 11
376.630309
 21
661.821143
 31
0.0
  0
LINE
  5
1A9
330
171
100
AcDbEntity
  8
0
  6
Continuous
 62
     0
370
    30
100
AcDbLine
 10
375.746747
 20
693.821143
 30
0.0
 11
376.368244
 21
693.821143
 31
0.0
  0
LWPOLYLINE
  5
1AA
330
171
100
AcDbEntity
  8
0
  6
Continuous
 62
     0
370
    30
100
AcDbPolyline
 90
       48
 70
     0
 43
0.0
 10
378.896698
 20
672.683533
 10
378.888519
 20
672.238464
 10
378.880371
 20
671.797424
 10
378.872192
 20
671.360657
 10
378.864044
 20
670.92865
 10
378.855927
 20
670.501709
 10
378.847839
 20
670.080322
 10
378.839783
 20
669.664673
 10
378.831787
 20
669.255066
 10
378.823822
 20
668.851807
 10
378.815918
 20
668.455261
 10
378.808075
 20
668.065613
 10
378.800293
 20
667.683228
 10
378.792572
 20
667.30835
 10
378.784943
 20
666.941223
 10
378.777405
 20
666.582214
 10
378.769928
 20
666.231506
 10
378.762573
 20
665.889404
 10
378.75528
 20
665.556152
 10
378.748138
 20
665.232056
 10
378.741058
 20
664.917236
 10
378.734131
 20
664.612
 10
378.727325
 20
664.316528
 10
378.720612
 20
664.031006
 10
378.71405
 20
663.755737
 10
378.707642
 20
663.490845
 10
378.701355
 20
663.236572
 10
378.69519
 20
662.993103
 10
378.689209
 20
662.760681
 10
378.68338
 20
662.539429
 10
378.677673
 20
662.329468
 10
378.67215
 20
662.130981
 10
378.666809
 20
661.944092
 10
378.661621
 20
661.768982
 10
378.656616
 20
661.605652
 10
378.651764
 20
661.454285
 10
378.647095
 20
661.315063
 10
378.642639
 20
661.187927
 10
378.638336
 20
661.073059
 10
378.634216
 20
660.970398
 10
378.63028
 20
660.880005
 10
378.626526
 20
660.801697
 10
378.622894
 20
660.735291
 10
378.619415
 20
660.680298
 10
378.615784
 20
660.635193
 10
378.611328
 20
660.595032
 10
378.593719
 20
660.521362
 10
378.310181
 20
660.321228
  0
LWPOLYLINE
  5
1AB
330
171
100
AcDbEntity
  8
0
  6
Continuous
 62
     0
370
    30
100
AcDbPolyline
 90
       48
 70
     0
 43
0.0
 10
376.396759
 20
672.685425
 10
376.404938
 20
672.240295
 10
376.413086
 20
671.799133
 10
376.421265
 20
671.362366
 10
376.429413
 20
670.930298
 10
376.437531
 20
670.503296
 10
376.445618
 20
670.081787
 10
376.453674
 20
669.666077
 10
376.46167
 20
669.256409
 10
376.469635
 20
668.853088
 10
376.477539
 20
668.456482
 10
376.485413
 20
668.066772
 10
376.493195
 20
667.684265
 10
376.500885
 20
667.309326
 10
376.508545
 20
666.942139
 10
376.516083
 20
666.583008
 10
376.52356
 20
666.232239
 10
376.530914
 20
665.890076
 10
376.538177
 20
665.556824
 10
376.545349
 20
665.232605
 10
376.552399
 20
664.917786
 10
376.559357
 20
664.612488
 10
376.566162
 20
664.316956
 10
376.572845
 20
664.031433
 10
376.579407
 20
663.756042
 10
376.585846
 20
663.49115
 10
376.592133
 20
663.236816
 10
376.598297
 20
662.993347
 10
376.604279
 20
662.760864
 10
376.610107
 20
662.539551
 10
376.615814
 20
662.32959
 10
376.621338
 20
662.131104
 10
376.626678
 20
661.944153
 10
376.631866
 20
661.768982
 10
376.636902
 20
661.605713
 10
376.641724
 20
661.454346
 10
376.646393
 20
661.315063
 10
376.650879
 20
661.187927
 10
376.655151
 20
661.073059
 10
376.659271
 20
660.970398
 10
376.663208
 20
660.879944
 10
376.666962
 20
660.801636
 10
376.670593
 20
660.735291
 10
376.674103
 20
660.680298
 10
376.677704
 20
660.635193
 10
376.682159
 20
660.595032
 10
376.699829
 20
660.521179
 10
376.983307
 20
660.321228
  0
LWPOLYLINE
  5
1AC
330
171
100
AcDbEntity
  8
0
  6
Continuous
 62
     0
370
    30
100
AcDbPolyline
 90
       76
 70
     0
 43
0.0
 10
378.744904
 20
690.554932
 10
378.74231
 20
690.670105
 10
378.739746
 20
690.783997
 10
378.737183
 20
690.896545
 10
378.73465
 20
691.007874
 10
378.732117
 20
691.117798
 10
378.729614
 20
691.22644
 10
378.727142
 20
691.33374
 10
378.72467
 20
691.439697
 10
378.722198
 20
691.544312
 10
378.719757
 20
691.647522
 10
378.717346
 20
691.74939
 10
378.714935
 20
691.849792
 10
378.712555
 20
691.948853
 10
378.710205
 20
692.046509
 10
378.707855
 20
692.142761
 10
378.705505
 20
692.237549
 10
378.703217
 20
692.330872
 10
378.700928
 20
692.422791
 10
378.698639
 20
692.513184
 10
378.696411
 20
692.602112
 10
378.694153
 20
692.689636
 10
378.691956
 20
692.775574
 10
378.689758
 20
692.860107
 10
378.687592
 20
692.943054
 10
378.685455
 20
693.024536
 10
378.683319
 20
693.104492
 10
378.681213
 20
693.182922
 10
378.679138
 20
693.259766
 10
378.677063
 20
693.335144
 10
378.675018
 20
693.408936
 10
378.673004
 20
693.48114
 10
378.671021
 20
693.551819
 10
378.669037
 20
693.620911
 10
378.667084
 20
693.688477
 10
378.665161
 20
693.754395
 10
378.663239
 20
693.818726
 10
378.661377
 20
693.881531
 10
378.659515
 20
693.942688
 10
378.657684
 20
694.002258
 10
378.655853
 20
694.060181
 10
378.654083
 20
694.116516
 10
378.652313
 20
694.171204
 10
378.650574
 20
694.224304
 10
378.648865
 20
694.275757
 10
378.647156
 20
694.325562
 10
378.645508
 20
694.373718
 10
378.64386
 20
694.420227
 10
378.642242
 20
694.465088
 10
378.640625
 20
694.508301
 10
378.639069
 20
694.549866
 10
378.637512
 20
694.589844
 10
378.636017
 20
694.628113
 10
378.634521
 20
694.664673
 10
378.633026
 20
694.699646
 10
378.631592
 20
694.732971
 10
378.630157
 20
694.764648
 10
378.628784
 20
694.794739
 10
378.62738
 20
694.82312
 10
378.626038
 20
694.849915
 10
378.624695
 20
694.875122
 10
378.623383
 20
694.898743
 10
378.62207
 20
694.920776
 10
378.620789
 20
694.941284
 10
378.619507
 20
694.960327
 10
378.618225
 20
694.978027
 10
378.616913
 20
694.994446
 10
378.615509
 20
695.009888
 10
378.614075
 20
695.024536
 10
378.612457
 20
695.039001
 10
378.610138
 20
695.055054
 10
378.606445
 20
695.075317
 10
378.598145
 20
695.10791
 10
378.566681
 20
695.177246
 10
378.467224
 20
695.276672
 10
378.310181
 20
695.321045
  0
LWPOLYLINE
  5
1AD
330
171
100
AcDbEntity
  8
0
  6
Continuous
 62
     0
370
    30
100
AcDbPolyline
 90
       39
 70
     0
 43
0.0
 10
376.635284
 20
693.985107
 10
376.637024
 20
694.040894
 10
376.638733
 20
694.095276
 10
376.640442
 20
694.148132
 10
376.64209
 20
694.199524
 10
376.643768
 20
694.249451
 10
376.645386
 20
694.297852
 10
376.647003
 20
694.344727
 10
376.64856
 20
694.390137
 10
376.650146
 20
694.434082
 10
376.651672
 20
694.476501
 10
376.653198
 20
694.517395
 10
376.654694
 20
694.556763
 10
376.656158
 20
694.594666
 10
376.657593
 20
694.631042
 10
376.659027
 20
694.665955
 10
376.660431
 20
694.69928
 10
376.661804
 20
694.731201
 10
376.663177
 20
694.761536
 10
376.66452
 20
694.790466
 10
376.665833
 20
694.81781
 10
376.667145
 20
694.84375
 10
376.668396
 20
694.868164
 10
376.669678
 20
694.891174
 10
376.670929
 20
694.912781
 10
376.67215
 20
694.932922
 10
376.67337
 20
694.951721
 10
376.674591
 20
694.969238
 10
376.675842
 20
694.985535
 10
376.677124
 20
695.000793
 10
376.678467
 20
695.015259
 10
376.679871
 20
695.028992
 10
376.681549
 20
695.043091
 10
376.68399
 20
695.059082
 10
376.687927
 20
695.079773
 10
376.697449
 20
695.114319
 10
376.732208
 20
695.18573
 10
376.831848
 20
695.280029
 10
376.983337
 20
695.321045
  0
LWPOLYLINE
  5
1AE
330
171
100
AcDbEntity
  8
0
  6
Continuous
 62
     0
370
    30
100
AcDbPolyline
 90
        8
 70
     0
 43
0.0
 10
376.66156
 20
694.06543
 10
376.661285
 20
694.063599
 10
376.660034
 20
694.056519
 10
376.656158
 20
694.039856
 10
376.643433
 20
694.002808
 10
376.599792
 20
693.930847
 10
376.507507
 20
693.855469
 10
376.368225
 20
693.821106
  0
LINE
  5
1AF
330
171
100
AcDbEntity
  8
0
  6
Continuous
 62
     0
370
    30
100
AcDbLine
 10
376.983323
 20
695.321143
 30
0.0
 11
378.310168
 21
695.321143
 31
0.0
  0
LINE
  5
1B0
330
171
100
AcDbEntity
  8
0
  6
Continuous
 62
     0
370
    30
100
AcDbLine
 10
376.983323
 20
660.321143
 30
0.0
 11
378.310167
 21
660.321143
 31
0.0
  0
LWPOLYLINE
  5
1B1
330
171
100
AcDbEntity
  8
0
  6
Continuous
 62
     0
370
     0
100
AcDbPolyline
 90
        5
 70
     0
 43
0.0
 10
376.696716
 20
527.200806
 10
376.704437
 20
527.050537
 10
376.712128
 20
526.938049
 10
376.719818
 20
526.863647
 10
376.730835
 20
526.823547
  0
LWPOLYLINE
  5
1B2
330
171
100
AcDbEntity
  8
0
  6
Continuous
 62
     0
370
     0
100
AcDbPolyline
 90
        5
 70
     0
 43
0.0
 10
378.562592
 20
526.823547
 10
378.570221
 20
526.842773
 10
378.577881
 20
526.900269
 10
378.585571
 20
526.99585
 10
378.59671
 20
527.200806
  0
LINE
  5
1B3
330
171
100
AcDbEntity
  8
0
  6
Continuous
 62
     0
370
     0
100
AcDbLine
 10
378.596702
 20
527.200801
 30
0.0
 11
376.696725
 21
527.200801
 31
0.0
  0
LWPOLYLINE
  5
1B4
330
171
100
AcDbEntity
  8
0
  6
Continuous
 62
     0
370
     0
100
AcDbPolyline
 90
       27
 70
     0
 43
0.0
 10
378.716034
 20
551.730652
 10
378.71637
 20
552.949646
 10
378.717346
 20
554.149902
 10
378.718994
 20
555.327148
 10
378.721283
 20
556.477051
 10
378.724213
 20
557.595459
 10
378.727753
 20
558.678345
 10
378.731934
 20
559.721619
 10
378.736694
 20
560.721619
 10
378.742035
 20
561.674683
 10
378.747955
 20
562.577271
 10
378.754395
 20
563.426147
 10
378.761383
 20
564.218262
 10
378.76886
 20
564.950623
 10
378.776764
 20
565.620667
 10
378.785156
 20
566.225891
 10
378.793915
 20
566.764099
 10
378.80307
 20
567.233398
 10
378.812561
 20
567.631958
 10
378.822357
 20
567.958435
 10
378.832397
 20
568.211609
 10
378.842712
 20
568.390503
 10
378.85321
 20
568.494568
 10
378.863861
 20
568.523376
 10
378.874634
 20
568.476807
 10
378.885498
 20
568.35498
 10
378.896729
 20
568.151367
  0
LWPOLYLINE
  5
1B5
330
171
100
AcDbEntity
  8
0
  6
Continuous
 62
     0
370
     0
100
AcDbPolyline
 90
       26
 70
     0
 43
0.0
 10
378.896698
 20
527.495422
 10
378.885376
 20
527.78064
 10
378.874084
 20
528.144958
 10
378.862854
 20
528.586975
 10
378.851776
 20
529.104858
 10
378.840881
 20
529.696594
 10
378.8302
 20
530.359924
 10
378.819794
 20
531.092102
 10
378.809692
 20
531.89032
 10
378.799927
 20
532.751404
 10
378.790527
 20
533.671997
 10
378.781555
 20
534.648376
 10
378.773041
 20
535.676819
 10
378.765015
 20
536.753113
 10
378.757507
 20
537.873169
 10
378.750549
 20
539.032471
 10
378.744171
 20
540.22644
 10
378.738403
 20
541.450378
 10
378.733246
 20
542.699524
 10
378.728729
 20
543.968811
 10
378.724884
 20
545.253357
 10
378.721741
 20
546.548035
 10
378.719238
 20
547.847778
 10
378.717468
 20
549.1474
 10
378.7164
 20
550.441833
 10
378.716034
 20
551.730652
  0
LWPOLYLINE
  5
1B6
330
171
100
AcDbEntity
  8
0
  6
Continuous
 62
     0
370
     0
100
AcDbPolyline
 90
       26
 70
     0
 43
0.0
 10
378.730469
 20
551.418762
 10
378.730743
 20
550.344727
 10
378.731567
 20
549.238281
 10
378.733002
 20
548.103943
 10
378.735077
 20
546.946899
 10
378.737793
 20
545.773071
 10
378.74115
 20
544.588928
 10
378.745209
 20
543.401611
 10
378.749908
 20
542.218506
 10
378.75528
 20
541.047546
 10
378.761322
 20
539.896606
 10
378.767944
 20
538.773621
 10
378.775177
 20
537.68634
 10
378.782959
 20
536.642212
 10
378.791199
 20
535.64801
 10
378.799896
 20
534.7099
 10
378.80896
 20
533.833252
 10
378.818298
 20
533.022522
 10
378.827911
 20
532.28125
 10
378.837677
 20
531.611816
 10
378.847534
 20
531.015808
 10
378.857452
 20
530.493652
 10
378.86734
 20
530.044983
 10
378.877167
 20
529.668579
 10
378.886841
 20
529.362488
 10
378.896698
 20
529.115784
  0
LWPOLYLINE
  5
1B7
330
171
100
AcDbEntity
  8
0
  6
Continuous
 62
     0
370
     0
100
AcDbPolyline
 90
       27
 70
     0
 43
0.0
 10
378.896729
 20
566.531006
 10
378.887604
 20
566.700134
 10
378.878296
 20
566.814148
 10
378.868866
 20
566.868896
 10
378.859375
 20
566.860657
 10
378.849854
 20
566.785889
 10
378.840332
 20
566.641907
 10
378.830902
 20
566.426453
 10
378.821625
 20
566.138
 10
378.812531
 20
565.77594
 10
378.803711
 20
565.340393
 10
378.795166
 20
564.832458
 10
378.787018
 20
564.254028
 10
378.779327
 20
563.608093
 10
378.772064
 20
562.898315
 10
378.76535
 20
562.12915
 10
378.759155
 20
561.305725
 10
378.753571
 20
560.433838
 10
378.748596
 20
559.519592
 10
378.744202
 20
558.569519
 10
378.740448
 20
557.590149
 10
378.737335
 20
556.588257
 10
378.734802
 20
555.570374
 10
378.73288
 20
554.542847
 10
378.731537
 20
553.511719
 10
378.730743
 20
552.482727
 10
378.730469
 20
551.418762
  0
LWPOLYLINE
  5
1B8
330
171
100
AcDbEntity
  8
0
  6
Continuous
 62
     0
370
     0
100
AcDbPolyline
 90
       27
 70
     0
 43
0.0
 10
378.59671
 20
527.200806
 10
378.585815
 20
527.476746
 10
378.574982
 20
527.827209
 10
378.564178
 20
528.250854
 10
378.553528
 20
528.745667
 10
378.54303
 20
529.309814
 10
378.532715
 20
529.94104
 10
378.522644
 20
530.637207
 10
378.512848
 20
531.395996
 10
378.503357
 20
532.214783
 10
378.494202
 20
533.090271
 10
378.485413
 20
534.019287
 10
378.477051
 20
534.998657
 10
378.469116
 20
536.024658
 10
378.461639
 20
537.093567
 10
378.454651
 20
538.201599
 10
378.448181
 20
539.344788
 10
378.44223
 20
540.518738
 10
378.436859
 20
541.719116
 10
378.432098
 20
542.941528
 10
378.427887
 20
544.18158
 10
378.424316
 20
545.43512
 10
378.421387
 20
546.697998
 10
378.419067
 20
547.965942
 10
378.417419
 20
549.233337
 10
378.416412
 20
550.49408
 10
378.416046
 20
551.786804
  0
LINE
  5
1B9
330
171
100
AcDbEntity
  8
0
  6
Continuous
 62
     0
370
     0
100
AcDbLine
 10
378.416055
 20
551.786807
 30
0.0
 11
376.87737
 21
551.786807
 31
0.0
  0
LWPOLYLINE
  5
1BA
330
171
100
AcDbEntity
  8
0
  6
Continuous
 62
     0
370
     0
100
AcDbPolyline
 90
       27
 70
     0
 43
0.0
 10
376.87738
 20
551.786804
 10
376.877045
 20
550.53833
 10
376.876068
 20
549.277954
 10
376.87442
 20
548.010681
 10
376.872131
 20
546.742676
 10
376.869202
 20
545.479492
 10
376.865662
 20
544.225586
 10
376.861481
 20
542.984985
 10
376.85672
 20
541.761902
 10
376.851379
 20
540.560669
 10
376.845459
 20
539.385681
 10
376.83902
 20
538.241333
 10
376.832062
 20
537.132019
 10
376.824585
 20
536.061646
 10
376.816681
 20
535.034058
 10
376.808289
 20
534.052979
 10
376.79953
 20
533.122131
 10
376.790375
 20
532.24469
 10
376.780914
 20
531.423889
 10
376.771118
 20
530.662903
 10
376.761047
 20
529.964539
 10
376.750763
 20
529.330933
 10
376.740265
 20
528.764404
 10
376.729614
 20
528.26709
 10
376.718842
 20
527.840942
 10
376.707977
 20
527.487854
 10
376.696716
 20
527.200806
  0
LWPOLYLINE
  5
1BB
330
171
100
AcDbEntity
  8
0
  6
Continuous
 62
     0
370
     0
100
AcDbPolyline
 90
       24
 70
     0
 43
0.0
 10
376.730804
 20
568.823303
 10
376.741394
 20
568.785706
 10
376.751801
 20
568.672546
 10
376.762024
 20
568.484497
 10
376.771973
 20
568.22229
 10
376.781677
 20
567.886536
 10
376.791077
 20
567.478699
 10
376.80014
 20
567.000305
 10
376.808838
 20
566.453064
 10
376.817139
 20
565.838684
 10
376.824982
 20
565.159546
 10
376.832367
 20
564.418152
 10
376.839294
 20
563.617004
 10
376.845673
 20
562.758911
 10
376.851532
 20
561.847229
 10
376.856842
 20
560.885315
 10
376.861572
 20
559.876648
 10
376.865692
 20
558.824707
 10
376.869232
 20
557.73291
 10
376.872131
 20
556.60498
 10
376.87439
 20
555.444458
 10
376.876038
 20
554.256592
 10
376.877014
 20
553.047119
 10
376.87738
 20
551.786804
  0
LWPOLYLINE
  5
1BC
330
171
100
AcDbEntity
  8
0
  6
Continuous
 62
     0
370
     0
100
AcDbPolyline
 90
       24
 70
     0
 43
0.0
 10
378.416046
 20
551.786804
 10
378.416382
 20
553.013489
 10
378.417358
 20
554.22345
 10
378.418976
 20
555.411987
 10
378.421234
 20
556.573303
 10
378.424103
 20
557.702271
 10
378.427612
 20
558.795044
 10
378.431732
 20
559.848145
 10
378.436462
 20
560.858093
 10
378.441742
 20
561.821289
 10
378.447571
 20
562.734436
 10
378.453949
 20
563.594055
 10
378.460846
 20
564.39679
 10
378.468231
 20
565.139893
 10
378.476074
 20
565.820801
 10
378.484344
 20
566.437012
 10
378.493042
 20
566.986145
 10
378.502075
 20
567.466431
 10
378.511475
 20
567.876282
 10
378.521179
 20
568.213989
 10
378.531128
 20
568.478271
 10
378.541351
 20
568.668335
 10
378.551758
 20
568.783569
 10
378.562622
 20
568.823303
  0
LWPOLYLINE
  5
1BD
330
171
100
AcDbEntity
  8
0
  6
Continuous
 62
     0
370
     0
100
AcDbPolyline
 90
       25
 70
     0
 43
0.0
 10
376.571655
 20
551.606995
 10
376.57132
 20
552.808289
 10
376.570343
 20
553.990723
 10
376.568695
 20
555.149902
 10
376.566406
 20
556.281494
 10
376.563477
 20
557.381165
 10
376.559906
 20
558.444824
 10
376.555756
 20
559.468445
 10
376.550964
 20
560.448181
 10
376.545624
 20
561.380249
 10
376.539703
 20
562.261292
 10
376.533234
 20
563.08783
 10
376.526276
 20
563.856873
 10
376.518799
 20
564.56543
 10
376.510895
 20
565.210876
 10
376.502533
 20
565.790771
 10
376.493774
 20
566.302917
 10
376.48468
 20
566.745422
 10
376.47522
 20
567.116577
 10
376.465485
 20
567.414978
 10
376.455475
 20
567.639526
 10
376.445251
 20
567.789368
 10
376.434845
 20
567.863953
 10
376.424286
 20
567.862976
 10
376.41333
 20
567.783081
  0
LWPOLYLINE
  5
1BE
330
171
100
AcDbEntity
  8
0
  6
Continuous
 62
     0
370
     0
100
AcDbPolyline
 90
       26
 70
     0
 43
0.0
 10
376.396698
 20
528.133728
 10
376.407684
 20
528.410034
 10
376.41861
 20
528.762878
 10
376.429474
 20
529.190735
 10
376.440186
 20
529.692017
 10
376.450745
 20
530.264771
 10
376.46106
 20
530.906616
 10
376.471161
 20
531.615173
 10
376.480927
 20
532.387512
 10
376.490387
 20
533.220703
 10
376.499481
 20
534.111389
 10
376.508148
 20
535.056091
 10
376.516388
 20
536.051086
 10
376.52417
 20
537.092468
 10
376.531433
 20
538.176086
 10
376.538177
 20
539.297729
 10
376.544342
 20
540.452942
 10
376.549957
 20
541.637207
 10
376.554932
 20
542.845825
 10
376.559326
 20
544.074097
 10
376.563049
 20
545.317078
 10
376.566132
 20
546.569946
 10
376.568512
 20
547.827759
 10
376.570251
 20
549.085571
 10
376.571289
 20
550.338379
 10
376.571655
 20
551.606995
  0
LINE
  5
1BF
330
171
100
AcDbEntity
  8
0
  6
Continuous
 62
     0
370
     0
100
AcDbLine
 10
376.396713
 20
527.49541
 30
0.0
 11
376.396713
 21
528.133728
 31
0.0
  0
LWPOLYLINE
  5
1C0
330
171
100
AcDbEntity
  8
0
  6
Continuous
 62
     0
370
     0
100
AcDbPolyline
 90
       26
 70
     0
 43
0.0
 10
376.577393
 20
551.730652
 10
376.577026
 20
550.446655
 10
376.575958
 20
549.152283
 10
376.574188
 20
547.852661
 10
376.571716
 20
546.552917
 10
376.568542
 20
545.25824
 10
376.564697
 20
543.973633
 10
376.560181
 20
542.704224
 10
376.555054
 20
541.455078
 10
376.549255
 20
540.230957
 10
376.542877
 20
539.036865
 10
376.535919
 20
537.877441
 10
376.528442
 20
536.757263
 10
376.520416
 20
535.680786
 10
376.511902
 20
534.652161
 10
376.50293
 20
533.675537
 10
376.49353
 20
532.754761
 10
376.483765
 20
531.893433
 10
376.473663
 20
531.094971
 10
376.463257
 20
530.362549
 10
376.452576
 20
529.698975
 10
376.441681
 20
529.106934
 10
376.430603
 20
528.588745
 10
376.419403
 20
528.146484
 10
376.408112
 20
527.78186
 10
376.396698
 20
527.495422
  0
LWPOLYLINE
  5
1C1
330
171
100
AcDbEntity
  8
0
  6
Continuous
 62
     0
370
     0
100
AcDbPolyline
 90
       27
 70
     0
 43
0.0
 10
376.396729
 20
568.151367
 10
376.407623
 20
568.350159
 10
376.418457
 20
568.474182
 10
376.42923
 20
568.523071
 10
376.439911
 20
568.496521
 10
376.450409
 20
568.394775
 10
376.460693
 20
568.218079
 10
376.470764
 20
567.967163
 10
376.480591
 20
567.642883
 10
376.490082
 20
567.24646
 10
376.499237
 20
566.779297
 10
376.508026
 20
566.243103
 10
376.516418
 20
565.639893
 10
376.524353
 20
564.971741
 10
376.53183
 20
564.241211
 10
376.538818
 20
563.450867
 10
376.545288
 20
562.603699
 10
376.551208
 20
561.702637
 10
376.55658
 20
560.751099
 10
376.561371
 20
559.752441
 10
376.565552
 20
558.710388
 10
376.569122
 20
557.628662
 10
376.572052
 20
556.511292
 10
376.574371
 20
555.362244
 10
376.576019
 20
554.185791
 10
376.577026
 20
552.986145
 10
376.577393
 20
551.730652
  0
LINE
  5
1C2
330
171
100
AcDbEntity
  8
0
  6
Continuous
 62
     0
370
     0
100
AcDbLine
 10
376.396713
 20
567.739443
 30
0.0
 11
376.396713
 21
568.15138
 31
0.0
  0
LWPOLYLINE
  5
1C3
330
171
100
AcDbEntity
  8
0
  6
Continuous
 62
     0
370
     0
100
AcDbPolyline
 90
       23
 70
     0
 43
0.0
 10
376.271667
 20
551.550903
 10
376.271332
 20
552.758362
 10
376.270294
 20
553.947693
 10
376.268585
 20
555.113403
 10
376.266205
 20
556.25
 10
376.263153
 20
557.353149
 10
376.25943
 20
558.41864
 10
376.255066
 20
559.442505
 10
376.250092
 20
560.420776
 10
376.244537
 20
561.349609
 10
376.238373
 20
562.225159
 10
376.231659
 20
563.044006
 10
376.224396
 20
563.80304
 10
376.216644
 20
564.499207
 10
376.208435
 20
565.1297
 10
376.199768
 20
565.6922
 10
376.190704
 20
566.184448
 10
376.181274
 20
566.604309
 10
376.171509
 20
566.950439
 10
376.161438
 20
567.221375
 10
376.151123
 20
567.415894
 10
376.140594
 20
567.533447
 10
376.12973
 20
567.573364
  0
LWPOLYLINE
  5
1C4
330
171
100
AcDbEntity
  8
0
  6
Continuous
 62
     0
370
     0
100
AcDbPolyline
 90
        5
 70
     0
 43
0.0
 10
376.571655
 20
551.606995
 10
376.552704
 20
551.587708
 10
376.499878
 20
551.57074
 10
376.419647
 20
551.558228
 10
376.271667
 20
551.550903
  0
LWPOLYLINE
  5
1C5
330
171
100
AcDbEntity
  8
0
  6
Continuous
 62
     0
370
     0
100
AcDbPolyline
 90
       26
 70
     0
 43
0.0
 10
376.09671
 20
528.428345
 10
376.107666
 20
528.700195
 10
376.118591
 20
529.047546
 10
376.129456
 20
529.468811
 10
376.140167
 20
529.962463
 10
376.150726
 20
530.526306
 10
376.161041
 20
531.158203
 10
376.171112
 20
531.855774
 10
376.180908
 20
532.616272
 10
376.190369
 20
533.436584
 10
376.199463
 20
534.313599
 10
376.20813
 20
535.243835
 10
376.21637
 20
536.223572
 10
376.224152
 20
537.248962
 10
376.231415
 20
538.316101
 10
376.238159
 20
539.420593
 10
376.244324
 20
540.558228
 10
376.249939
 20
541.724487
 10
376.254944
 20
542.914734
 10
376.259308
 20
544.124207
 10
376.263031
 20
545.348206
 10
376.266113
 20
546.582031
 10
376.268524
 20
547.821106
 10
376.270264
 20
549.060608
 10
376.271301
 20
550.2948
 10
376.271667
 20
551.550903
  0
ARC
  5
1C6
330
171
100
AcDbEntity
  8
0
  6
Continuous
 62
     0
370
     0
100
AcDbCircle
 10
376.099394
 20
528.131017
 30
0.0
 40
0.2973315143394856
100
AcDbArc
 50
0.522422
 51
90.518809
  0
LWPOLYLINE
  5
1C7
330
171
100
AcDbEntity
  8
0
  6
Continuous
 62
     0
370
     0
100
AcDbPolyline
 90
        4
 70
     0
 43
0.0
 10
376.12973
 20
528.073364
 10
376.118805
 20
528.112732
 10
376.107819
 20
528.230774
 10
376.09671
 20
528.428345
  0
ARC
  5
1C8
330
171
100
AcDbEntity
  8
0
  6
Continuous
 62
     0
370
     0
100
AcDbCircle
 10
376.693685
 20
527.497766
 30
0.0
 40
0.2969808285654714
100
AcDbArc
 50
180.454661
 51
270.586498
  0
LINE
  5
1C9
330
171
100
AcDbEntity
  8
0
  6
Continuous
 62
     0
370
     0
100
AcDbLine
 10
376.396713
 20
568.15138
 30
0.0
 11
376.39702
 21
568.164509
 31
0.0
  0
LWPOLYLINE
  5
1CA
330
171
100
AcDbEntity
  8
0
  6
Continuous
 62
     0
370
     0
100
AcDbPolyline
 90
        5
 70
     0
 43
0.0
 10
376.577393
 20
551.730652
 10
376.596344
 20
551.75
 10
376.64917
 20
551.766968
 10
376.729401
 20
551.779419
 10
376.87738
 20
551.786804
  0
LWPOLYLINE
  5
1CB
330
171
100
AcDbEntity
  8
0
  6
Continuous
 62
     0
370
     0
100
AcDbPolyline
 90
        5
 70
     0
 43
0.0
 10
378.716034
 20
551.730652
 10
378.697083
 20
551.75
 10
378.644257
 20
551.766968
 10
378.564026
 20
551.779419
 10
378.416046
 20
551.786804
  0
ARC
  5
1CC
330
171
100
AcDbEntity
  8
0
  6
Continuous
 62
     0
370
     0
100
AcDbCircle
 10
378.599378
 20
527.498154
 30
0.0
 40
0.2973652920054994
100
AcDbArc
 50
269.484363
 51
359.100583
  0
LINE
  5
1CD
330
171
100
AcDbEntity
  8
0
  6
Continuous
 62
     0
370
     0
100
AcDbLine
 10
375.896712
 20
551.55089
 30
0.0
 11
376.271675
 21
551.55089
 31
0.0
  0
LINE
  5
1CE
330
171
100
AcDbEntity
  8
0
  6
Continuous
 62
     0
370
     0
100
AcDbLine
 10
375.896713
 20
528.428337
 30
0.0
 11
376.096702
 21
528.428337
 31
0.0
  0
LINE
  5
1CF
330
171
100
AcDbEntity
  8
0
  6
Continuous
 62
     0
370
    30
100
AcDbLine
 10
375.896713
 20
528.073395
 30
0.0
 11
376.129725
 21
528.073395
 31
0.0
  0
LINE
  5
1D0
330
171
100
AcDbEntity
  8
0
  6
Continuous
 62
     0
370
    30
100
AcDbLine
 10
375.896713
 20
567.573395
 30
0.0
 11
376.129725
 21
567.573395
 31
0.0
  0
LWPOLYLINE
  5
1D1
330
171
100
AcDbEntity
  8
0
  6
Continuous
 62
     0
370
    30
100
AcDbPolyline
 90
       24
 70
     0
 43
0.0
 10
378.562592
 20
526.823425
 10
378.70639
 20
526.859985
 10
378.799622
 20
526.938293
 10
378.838379
 20
527.001343
 10
378.853149
 20
527.039612
 10
378.860382
 20
527.065552
 10
378.864777
 20
527.085815
 10
378.867981
 20
527.103516
 10
378.870544
 20
527.1203
 10
378.872742
 20
527.136963
 10
378.874756
 20
527.154114
 10
378.876648
 20
527.171997
 10
378.878418
 20
527.190735
 10
378.880157
 20
527.210632
 10
378.881866
 20
527.231689
 10
378.883545
 20
527.254028
 10
378.885193
 20
527.27771
 10
378.88681
 20
527.302734
 10
378.888428
 20
527.329102
 10
378.890045
 20
527.356812
 10
378.891632
 20
527.385986
 10
378.893219
 20
527.416504
 10
378.894806
 20
527.448547
 10
378.896423
 20
527.4823
  0
LWPOLYLINE
  5
1D2
330
171
100
AcDbEntity
  8
0
  6
Continuous
 62
     0
370
    30
100
AcDbPolyline
 90
       24
 70
     0
 43
0.0
 10
378.896423
 20
568.16449
 10
378.894836
 20
568.197937
 10
378.89325
 20
568.229919
 10
378.891663
 20
568.260498
 10
378.890076
 20
568.289612
 10
378.888458
 20
568.317322
 10
378.886841
 20
568.343689
 10
378.885223
 20
568.368652
 10
378.883575
 20
568.392273
 10
378.881897
 20
568.414612
 10
378.880219
 20
568.435669
 10
378.878479
 20
568.455566
 10
378.876678
 20
568.474365
 10
378.874817
 20
568.492188
 10
378.872803
 20
568.509277
 10
378.870605
 20
568.526001
 10
378.868073
 20
568.542725
 10
378.864868
 20
568.560425
 10
378.860687
 20
568.580383
 10
378.853638
 20
568.606079
 10
378.839081
 20
568.643799
 10
378.80188
 20
568.705688
 10
378.71109
 20
568.784302
 10
378.562592
 20
568.823364
  0
LWPOLYLINE
  5
1D3
330
171
100
AcDbEntity
  8
0
  6
Continuous
 62
     0
370
    30
100
AcDbPolyline
 90
       24
 70
     0
 43
0.0
 10
376.730835
 20
568.823364
 10
376.587311
 20
568.787048
 10
376.493958
 20
568.70874
 10
376.455261
 20
568.645752
 10
376.440277
 20
568.6073
 10
376.433136
 20
568.581482
 10
376.428619
 20
568.561035
 10
376.425476
 20
568.543457
 10
376.422943
 20
568.526733
 10
376.420715
 20
568.51001
 10
376.418671
 20
568.492798
 10
376.416748
 20
568.474915
 10
376.414948
 20
568.456177
 10
376.413239
 20
568.436401
 10
376.411591
 20
568.415527
 10
376.409943
 20
568.393311
 10
376.408325
 20
568.369812
 10
376.406677
 20
568.34491
 10
376.40506
 20
568.318665
 10
376.403473
 20
568.290955
 10
376.401855
 20
568.261902
 10
376.400269
 20
568.231384
 10
376.398682
 20
568.199463
 10
376.397003
 20
568.16449
  0
LWPOLYLINE
  5
1D4
330
171
100
AcDbEntity
  8
0
  6
Continuous
 62
     0
370
    30
100
AcDbPolyline
 90
       24
 70
     0
 43
0.0
 10
376.397003
 20
527.4823
 10
376.39859
 20
527.448853
 10
376.400146
 20
527.41687
 10
376.401703
 20
527.386414
 10
376.403259
 20
527.357361
 10
376.404816
 20
527.329712
 10
376.406403
 20
527.303406
 10
376.40802
 20
527.278381
 10
376.409698
 20
527.2547
 10
376.411407
 20
527.232239
 10
376.413177
 20
527.210938
 10
376.415039
 20
527.190857
 10
376.416931
 20
527.171875
 10
376.418854
 20
527.153931
 10
376.420746
 20
527.137024
 10
376.422607
 20
527.120911
 10
376.424835
 20
527.104736
 10
376.42804
 20
527.086914
 10
376.432892
 20
527.065918
 10
376.440277
 20
527.039856
 10
376.454651
 20
527.001953
 10
376.493073
 20
526.939209
 10
376.58551
 20
526.860779
 10
376.730835
 20
526.823425
  0
LWPOLYLINE
  5
1D5
330
171
100
AcDbEntity
  8
0
  6
Continuous
 62
     0
370
    30
100
AcDbPolyline
 90
        4
 70
     0
 43
0.0
 10
376.1297
 20
528.073364
 10
376.262238
 20
528.042297
 10
376.35379
 20
527.971924
 10
376.396698
 20
527.907288
  0
LWPOLYLINE
  5
1D6
330
171
100
AcDbEntity
  8
0
  6
Continuous
 62
     0
370
    30
100
AcDbPolyline
 90
        8
 70
     0
 43
0.0
 10
376.416718
 20
567.797363
 10
376.416321
 20
567.795288
 10
376.414581
 20
567.787781
 10
376.40976
 20
567.771484
 10
376.397186
 20
567.740417
 10
376.360809
 20
567.683167
 10
376.275116
 20
567.611206
 10
376.12973
 20
567.573364
  0
LINE
  5
1D7
330
171
100
AcDbEntity
  8
0
  6
Continuous
 62
     0
370
    30
100
AcDbLine
 10
376.730819
 20
568.823395
 30
0.0
 11
378.562608
 21
568.823395
 31
0.0
  0
LINE
  5
1D8
330
171
100
AcDbEntity
  8
0
  6
Continuous
 62
     0
370
    30
100
AcDbLine
 10
376.730819
 20
526.823395
 30
0.0
 11
378.562608
 21
526.823395
 31
0.0
  0
LINE
  5
1D9
330
171
100
AcDbEntity
  8
0
  6
Continuous
 62
     0
370
    30
100
AcDbLine
 10
380.896705
 20
473.823251
 30
0.0
 11
378.896705
 21
473.823251
 31
0.0
  0
LINE
  5
1DA
330
171
100
AcDbEntity
  8
0
  6
Continuous
 62
     0
370
    30
100
AcDbLine
 10
380.896705
 20
473.823251
 30
0.0
 11
380.896705
 21
751.823251
 31
0.0
  0
LINE
  5
1DB
330
171
100
AcDbEntity
  8
0
  6
Continuous
 62
     0
370
    30
100
AcDbLine
 10
380.896705
 20
751.823251
 30
0.0
 11
378.896705
 21
751.823251
 31
0.0
  0
LINE
  5
1DC
330
171
100
AcDbEntity
  8
0
  6
Continuous
 62
     0
370
    30
100
AcDbLine
 10
378.896705
 20
751.823251
 30
0.0
 11
378.896705
 21
473.823251
 31
0.0
  0
ENDBLK
  5
1DE
330
171
100
AcDbEntity
  8
0
100
AcDbBlockEnd
  0
ENDSEC
  0
SECTION
  2
ENTITIES
  0
INSERT
  5
A6
330
1F
100
AcDbEntity
  8
0
  6
Continuous
 62
     7
420
 16250871
370
     0
100
AcDbBlockReference
  2
a
 10
446.735718
 20
146.428482
 30
0.0
  0
INSERT
  5
10B
330
1F
100
AcDbEntity
  8
0
  6
Continuous
 62
     7
420
 16250871
370
     0
100
AcDbBlockReference
  2
b
 10
446.735718
 20
313.032822
 30
0.0
  0
INSERT
  5
170
330
1F
100
AcDbEntity
  8
0
  6
Continuous
 62
     7
420
 16250871
370
     0
100
AcDbBlockReference
  2
c
 10
446.735718
 20
146.428482
 30
0.0
  0
INSERT
  5
1DF
330
1F
100
AcDbEntity
  8
0
  6
Continuous
 62
     7
420
 16250871
370
     0
100
AcDbBlockReference
  2
d
 10
425.647949
 20
0.0
 30
0.0
  0
ENDSEC
  0
SECTION
  2
OBJECTS
  0
DICTIONARY
  5
C
330
0
100
AcDbDictionary
281
     1
  3
ACAD_DETAILVIEWSTYLE
350
217
  3
ACAD_GROUP
350
D
  3
ACAD_LAYOUT
350
1A
  3
ACAD_MATERIAL
350
43
  3
ACAD_MLEADERSTYLE
350
6B
  3
ACAD_MLINESTYLE
350
17
  3
ACAD_PLOTSETTINGS
350
19
  3
ACAD_PLOTSTYLENAME
350
E
  3
ACAD_SCALELIST
350
47
  3
ACAD_SECTIONVIEWSTYLE
350
218
  3
ACAD_TABLESTYLE
350
69
  3
ACAD_VISUALSTYLE
350
2A
  3
ACDB_RECOMPOSE_DATA
350
214
  3
AcDbVariableDictionary
350
1E0
  0
SUN
  5
6D
330
29
100
AcDbSun
 90
        1
290
     0
 63
     7
421
 16777215
 40
1.0
291
     1
 91
  2455826
 92
 54000000
292
     0
 70
     2
 71
   256
280
     1
  0
DICTIONARY
  5
217
102
{ACAD_REACTORS
330
C
102
}
330
C
100
AcDbDictionary
281
     1
  0
DICTIONARY
  5
D
102
{ACAD_REACTORS
330
C
102
}
330
C
100
AcDbDictionary
281
     1
  0
DICTIONARY
  5
1A
102
{ACAD_REACTORS
330
C
102
}
330
C
100
AcDbDictionary
281
     1
  3
Layout1
350
1E
  3
Layout2
350
26
  3
Model
350
22
  0
DICTIONARY
  5
43
102
{ACAD_REACTORS
330
C
102
}
330
C
100
AcDbDictionary
281
     1
  3
ByBlock
350
45
  3
ByLayer
350
44
  3
Global
350
46
  0
DICTIONARY
  5
6B
102
{ACAD_REACTORS
330
C
102
}
330
C
100
AcDbDictionary
281
     1
  3
Standard
350
6C
  0
DICTIONARY
  5
17
102
{ACAD_REACTORS
330
C
102
}
330
C
100
AcDbDictionary
281
     1
  3
Standard
350
18
  0
DICTIONARY
  5
19
102
{ACAD_REACTORS
330
C
102
}
330
C
100
AcDbDictionary
281
     1
  0
ACDBDICTIONARYWDFLT
  5
E
102
{ACAD_REACTORS
330
C
102
}
330
C
100
AcDbDictionary
281
     1
  3
Normal
350
F
100
AcDbDictionaryWithDefault
340
F
  0
DICTIONARY
  5
47
102
{ACAD_REACTORS
330
C
102
}
330
C
100
AcDbDictionary
281
     1
  3
A0
350
48
  3
A1
350
49
  3
A2
350
4A
  3
A3
350
4B
  3
A4
350
4C
  3
A5
350
4D
  3
A6
350
4E
  3
A7
350
4F
  3
A8
350
50
  3
A9
350
51
  3
B0
350
52
  3
B1
350
53
  3
B2
350
54
  3
B3
350
55
  3
B4
350
56
  3
B5
350
57
  3
B6
350
58
  3
B7
350
59
  3
B8
350
5A
  3
B9
350
5B
  3
C0
350
5C
  3
C1
350
5D
  3
C2
350
5E
  3
C3
350
5F
  3
C4
350
60
  3
C5
350
61
  3
C6
350
62
  3
C7
350
63
  3
C8
350
64
  3
C9
350
65
  3
D0
350
66
  3
D1
350
67
  3
D2
350
68
  0
DICTIONARY
  5
218
102
{ACAD_REACTORS
330
C
102
}
330
C
100
AcDbDictionary
281
     1
  0
DICTIONARY
  5
69
102
{ACAD_REACTORS
330
C
102
}
330
C
100
AcDbDictionary
281
     1
  3
Standard
350
6A
  0
DICTIONARY
  5
2A
102
{ACAD_REACTORS
330
C
102
}
330
C
100
AcDbDictionary
281
     1
  3
2dWireframe
350
2F
  3
Basic
350
32
  3
Brighten
350
36
  3
ColorChange
350
3A
  3
Conceptual
350
34
  3
Dim
350
35
  3
EdgeColorOff
350
3D
  3
Facepattern
350
39
  3
Flat
350
2B
  3
FlatWithEdges
350
2C
  3
Gouraud
350
2D
  3
GouraudWithEdges
350
2E
  3
Hidden
350
31
  3
JitterOff
350
3B
  3
Linepattern
350
38
  3
OverhangOff
350
3C
  3
Realistic
350
33
  3
Shaded
350
42
  3
Shaded with edges
350
41
  3
Shades of Gray
350
3E
  3
Sketchy
350
3F
  3
Thicken
350
37
  3
Wireframe
350
30
  3
X-Ray
350
40
  0
XRECORD
  5
214
102
{ACAD_REACTORS
330
C
102
}
330
C
100
AcDbXrecord
280
     1
 90
        1
330
6A
  0
DICTIONARY
  5
1E0
102
{ACAD_REACTORS
330
C
102
}
330
C
100
AcDbDictionary
281
     1
  3
CANNOSCALE
350
1E1
  3
CMLEADERSTYLE
350
216
  3
CTABLESTYLE
350
215
  0
LAYOUT
  5
1E
102
{ACAD_REACTORS
330
1A
102
}
330
1A
100
AcDbPlotSettings
  1

  2
none_device
  4

  6

 40
0.0
 41
0.0
 42
0.0
 43
0.0
 44
0.0
 45
0.0
 46
0.0
 47
0.0
 48
0.0
 49
0.0
140
0.0
141
0.0
142
1.0
143
1.0
 70
   688
 72
     1
 73
     0
 74
     5
  7

 75
    16
 76
     0
 77
     2
 78
   300
147
1.0
148
0.0
149
0.0
100
AcDbLayout
  1
Layout1
 70
     1
 71
     1
 10
0.0
 20
0.0
 11
420.0
 21
297.0
 12
0.0
 22
0.0
 32
0.0
 14
1.000000E+20
 24
1.000000E+20
 34
1.000000E+20
 15
-1.000000E+20
 25
-1.000000E+20
 35
-1.000000E+20
146
0.0
 13
0.0
 23
0.0
 33
0.0
 16
1.0
 26
0.0
 36
0.0
 17
0.0
 27
1.0
 37
0.0
 76
     0
330
1B
  0
LAYOUT
  5
26
102
{ACAD_REACTORS
330
1A
102
}
330
1A
100
AcDbPlotSettings
  1

  2
none_device
  4

  6

 40
0.0
 41
0.0
 42
0.0
 43
0.0
 44
0.0
 45
0.0
 46
0.0
 47
0.0
 48
0.0
 49
0.0
140
0.0
141
0.0
142
1.0
143
1.0
 70
   688
 72
     1
 73
     0
 74
     5
  7

 75
    16
 76
     0
 77
     2
 78
   300
147
1.0
148
0.0
149
0.0
100
AcDbLayout
  1
Layout2
 70
     1
 71
     2
 10
0.0
 20
0.0
 11
0.0
 21
0.0
 12
0.0
 22
0.0
 32
0.0
 14
0.0
 24
0.0
 34
0.0
 15
0.0
 25
0.0
 35
0.0
146
0.0
 13
0.0
 23
0.0
 33
0.0
 16
1.0
 26
0.0
 36
0.0
 17
0.0
 27
1.0
 37
0.0
 76
     0
330
23
  0
LAYOUT
  5
22
102
{ACAD_REACTORS
330
1A
102
}
330
1A
100
AcDbPlotSettings
  1

  2
none_device
  4
Letter_(8.50_x_11.00_Inches)
  6

 40
6.35
 41
6.35
 42
6.350005
 43
6.350005
 44
215.9
 45
279.4
 46
0.0
 47
0.0
 48
0.0
 49
0.0
140
0.0
141
0.0
142
1.0
143
1.0
 70
  1712
 72
     1
 73
     0
 74
     0
  7

 75
     0
 76
     0
 77
     2
 78
   300
147
1.0
148
0.0
149
0.0
100
AcDbLayout
  1
Model
 70
     1
 71
     0
 10
0.0
 20
0.0
 11
420.0
 21
297.0
 12
0.0
 22
0.0
 32
0.0
 14
1.000000E+20
 24
1.000000E+20
 34
1.000000E+20
 15
-1.000000E+20
 25
-1.000000E+20
 35
-1.000000E+20
146
0.0
 13
0.0
 23
0.0
 33
0.0
 16
1.0
 26
0.0
 36
0.0
 17
0.0
 27
1.0
 37
0.0
 76
     0
330
1F
331
29
  0
MATERIAL
  5
45
102
{ACAD_REACTORS
330
43
102
}
330
43
100
AcDbMaterial
  1
ByBlock
 72
     1
 94
      127
  0
MATERIAL
  5
44
102
{ACAD_REACTORS
330
43
102
}
330
43
100
AcDbMaterial
  1
ByLayer
 72
     1
 94
      127
  0
MATERIAL
  5
46
102
{ACAD_REACTORS
330
43
102
}
330
43
100
AcDbMaterial
  1
Global
 72
     1
 94
      127
  0
MLEADERSTYLE
  5
6C
102
{ACAD_REACTORS
330
6B
102
}
330
6B
100
AcDbMLeaderStyle
179
     2
170
     2
171
     1
172
     0
 90
        2
 40
0.0
 41
0.0
173
     1
 91
-1056964608
340
14
 92
       -2
290
     1
 42
2.0
291
     1
 43
8.0
  3
Standard
341
0
 44
4.0
300

342
11
174
     1
178
     6
175
     1
176
     0
 93
-1056964608
 45
4.0
292
     0
297
     0
 46
4.0
343
0
 94
-1056964608
 47
1.0
 49
1.0
140
1.0
293
     1
141
0.0
294
     1
177
     0
142
1.0
295
     0
296
     0
143
3.75
271
     0
272
     9
273
     9
  0
MLINESTYLE
  5
18
102
{ACAD_REACTORS
330
17
102
}
330
17
100
AcDbMlineStyle
  2
Standard
 70
     0
  3

 62
   256
 51
90.0
 52
90.0
 71
     2
 49
0.5
 62
   256
  6
BYLAYER
 49
-0.5
 62
   256
  6
BYLAYER
  0
ACDBPLACEHOLDER
  5
F
102
{ACAD_REACTORS
330
E
102
}
330
E
  0
SCALE
  5
48
102
{ACAD_REACTORS
330
47
102
}
330
47
100
AcDbScale
 70
     0
300
1:1
140
1.0
141
1.0
290
     1
  0
SCALE
  5
49
102
{ACAD_REACTORS
330
47
102
}
330
47
100
AcDbScale
 70
     0
300
1:2
140
1.0
141
2.0
290
     0
  0
SCALE
  5
4A
102
{ACAD_REACTORS
330
47
102
}
330
47
100
AcDbScale
 70
     0
300
1:4
140
1.0
141
4.0
290
     0
  0
SCALE
  5
4B
102
{ACAD_REACTORS
330
47
102
}
330
47
100
AcDbScale
 70
     0
300
1:5
140
1.0
141
5.0
290
     0
  0
SCALE
  5
4C
102
{ACAD_REACTORS
330
47
102
}
330
47
100
AcDbScale
 70
     0
300
1:8
140
1.0
141
8.0
290
     0
  0
SCALE
  5
4D
102
{ACAD_REACTORS
330
47
102
}
330
47
100
AcDbScale
 70
     0
300
1:10
140
1.0
141
10.0
290
     0
  0
SCALE
  5
4E
102
{ACAD_REACTORS
330
47
102
}
330
47
100
AcDbScale
 70
     0
300
1:16
140
1.0
141
16.0
290
     0
  0
SCALE
  5
4F
102
{ACAD_REACTORS
330
47
102
}
330
47
100
AcDbScale
 70
     0
300
1:20
140
1.0
141
20.0
290
     0
  0
SCALE
  5
50
102
{ACAD_REACTORS
330
47
102
}
330
47
100
AcDbScale
 70
     0
300
1:30
140
1.0
141
30.0
290
     0
  0
SCALE
  5
51
102
{ACAD_REACTORS
330
47
102
}
330
47
100
AcDbScale
 70
     0
300
1:40
140
1.0
141
40.0
290
     0
  0
SCALE
  5
52
102
{ACAD_REACTORS
330
47
102
}
330
47
100
AcDbScale
 70
     0
300
1:50
140
1.0
141
50.0
290
     0
  0
SCALE
  5
53
102
{ACAD_REACTORS
330
47
102
}
330
47
100
AcDbScale
 70
     0
300
1:100
140
1.0
141
100.0
290
     0
  0
SCALE
  5
54
102
{ACAD_REACTORS
330
47
102
}
330
47
100
AcDbScale
 70
     0
300
2:1
140
2.0
141
1.0
290
     0
  0
SCALE
  5
55
102
{ACAD_REACTORS
330
47
102
}
330
47
100
AcDbScale
 70
     0
300
4:1
140
4.0
141
1.0
290
     0
  0
SCALE
  5
56
102
{ACAD_REACTORS
330
47
102
}
330
47
100
AcDbScale
 70
     0
300
8:1
140
8.0
141
1.0
290
     0
  0
SCALE
  5
57
102
{ACAD_REACTORS
330
47
102
}
330
47
100
AcDbScale
 70
     0
300
10:1
140
10.0
141
1.0
290
     0
  0
SCALE
  5
58
102
{ACAD_REACTORS
330
47
102
}
330
47
100
AcDbScale
 70
     0
300
100:1
140
100.0
141
1.0
290
     0
  0
SCALE
  5
59
102
{ACAD_REACTORS
330
47
102
}
330
47
100
AcDbScale
 70
     0
300
1/128" = 1'-0"
140
0.007812
141
12.0
290
     0
  0
SCALE
  5
5A
102
{ACAD_REACTORS
330
47
102
}
330
47
100
AcDbScale
 70
     0
300
1/64" = 1'-0"
140
0.015625
141
12.0
290
     0
  0
SCALE
  5
5B
102
{ACAD_REACTORS
330
47
102
}
330
47
100
AcDbScale
 70
     0
300
1/32" = 1'-0"
140
0.03125
141
12.0
290
     0
  0
SCALE
  5
5C
102
{ACAD_REACTORS
330
47
102
}
330
47
100
AcDbScale
 70
     0
300
1/16" = 1'-0"
140
0.0625
141
12.0
290
     0
  0
SCALE
  5
5D
102
{ACAD_REACTORS
330
47
102
}
330
47
100
AcDbScale
 70
     0
300
3/32" = 1'-0"
140
0.09375
141
12.0
290
     0
  0
SCALE
  5
5E
102
{ACAD_REACTORS
330
47
102
}
330
47
100
AcDbScale
 70
     0
300
1/8" = 1'-0"
140
0.125
141
12.0
290
     0
  0
SCALE
  5
5F
102
{ACAD_REACTORS
330
47
102
}
330
47
100
AcDbScale
 70
     0
300
3/16" = 1'-0"
140
0.1875
141
12.0
290
     0
  0
SCALE
  5
60
102
{ACAD_REACTORS
330
47
102
}
330
47
100
AcDbScale
 70
     0
300
1/4" = 1'-0"
140
0.25
141
12.0
290
     0
  0
SCALE
  5
61
102
{ACAD_REACTORS
330
47
102
}
330
47
100
AcDbScale
 70
     0
300
3/8" = 1'-0"
140
0.375
141
12.0
290
     0
  0
SCALE
  5
62
102
{ACAD_REACTORS
330
47
102
}
330
47
100
AcDbScale
 70
     0
300
1/2" = 1'-0"
140
0.5
141
12.0
290
     0
  0
SCALE
  5
63
102
{ACAD_REACTORS
330
47
102
}
330
47
100
AcDbScale
 70
     0
300
3/4" = 1'-0"
140
0.75
141
12.0
290
     0
  0
SCALE
  5
64
102
{ACAD_REACTORS
330
47
102
}
330
47
100
AcDbScale
 70
     0
300
1" = 1'-0"
140
1.0
141
12.0
290
     0
  0
SCALE
  5
65
102
{ACAD_REACTORS
330
47
102
}
330
47
100
AcDbScale
 70
     0
300
1-1/2" = 1'-0"
140
1.5
141
12.0
290
     0
  0
SCALE
  5
66
102
{ACAD_REACTORS
330
47
102
}
330
47
100
AcDbScale
 70
     0
300
3" = 1'-0"
140
3.0
141
12.0
290
     0
  0
SCALE
  5
67
102
{ACAD_REACTORS
330
47
102
}
330
47
100
AcDbScale
 70
     0
300
6" = 1'-0"
140
6.0
141
12.0
290
     0
  0
SCALE
  5
68
102
{ACAD_REACTORS
330
47
102
}
330
47
100
AcDbScale
 70
     0
300
1'-0" = 1'-0"
140
12.0
141
12.0
290
     0
  0
TABLESTYLE
  5
6A
102
{ACAD_REACTORS
330
69
102
}
102
{ACAD_XDICTIONARY
360
212
102
}
330
69
100
AcDbTableStyle
  3
Standard
 70
     0
 71
     0
 40
0.06
 41
0.06
280
     0
281
     0
  7
Standard
140
4.5
170
     2
 62
     0
 63
   257
283
     0
 90
        4
 91
        0
  1

274
    -2
284
     1
 64
     0
275
    -2
285
     1
 65
     0
276
    -2
286
     1
 66
     0
277
    -2
287
     1
 67
     0
278
    -2
288
     1
 68
     0
279
    -2
289
     1
 69
     0
  7
Standard
140
6.0
170
     5
 62
     0
 63
   257
283
     0
 90
        4
 91
        0
  1

274
    -2
284
     1
 64
     0
275
    -2
285
     1
 65
     0
276
    -2
286
     1
 66
     0
277
    -2
287
     1
 67
     0
278
    -2
288
     1
 68
     0
279
    -2
289
     1
 69
     0
  7
Standard
140
4.5
170
     5
 62
     0
 63
   257
283
     0
 90
        4
 91
        0
  1

274
    -2
284
     1
 64
     0
275
    -2
285
     1
 65
     0
276
    -2
286
     1
 66
     0
277
    -2
287
     1
 67
     0
278
    -2
288
     1
 68
     0
279
    -2
289
     1
 69
     0
  0
VISUALSTYLE
  5
2F
102
{ACAD_REACTORS
330
2A
102
}
102
{ACAD_XDICTIONARY
360
1EA
102
}
330
2A
100
AcDbVisualStyle
  2
2dWireframe
 70
     4
177
     2
291
     0
 71
     0
176
     1
 72
     2
176
     1
 73
     0
176
     1
 90
        0
176
     1
 40
0.6
176
     1
 41
30.0
176
     1
 62
     5
 63
     7
421
 16777215
176
     1
 74
     1
176
     1
 91
        4
176
     1
 64
     7
176
     1
 65
   257
176
     1
 75
     1
176
     1
175
     1
176
     1
 42
1.0
176
     1
 92
        0
176
     1
 66
   257
176
     1
 43
1.0
176
     1
 76
     1
176
     1
 77
     6
176
     1
 78
     2
176
     1
 67
     7
176
     1
 79
     5
176
     1
170
     0
176
     1
171
     0
176
     1
290
     0
176
     1
 93
        1
176
     1
 44
0.0
176
     1
173
     0
176
     1
  0
VISUALSTYLE
  5
32
102
{ACAD_REACTORS
330
2A
102
}
102
{ACAD_XDICTIONARY
360
1F0
102
}
330
2A
100
AcDbVisualStyle
  2
Basic
 70
     7
177
     2
291
     1
 71
     1
176
     1
 72
     0
176
     1
 73
     1
176
     1
 90
        0
176
     1
 40
0.6
176
     1
 41
30.0
176
     1
 62
     5
 63
     7
421
 16777215
176
     1
 74
     0
176
     1
 91
        4
176
     1
 64
     7
176
     1
 65
   257
176
     1
 75
     1
176
     1
175
     1
176
     1
 42
1.0
176
     1
 92
        8
176
     1
 66
     7
176
     1
 43
1.0
176
     1
 76
     1
176
     1
 77
     6
176
     1
 78
     2
176
     1
 67
     7
176
     1
 79
     5
176
     1
170
     0
176
     1
171
     0
176
     1
290
     0
176
     1
 93
        1
176
     1
 44
0.0
176
     1
173
     0
176
     1
  0
VISUALSTYLE
  5
36
102
{ACAD_REACTORS
330
2A
102
}
102
{ACAD_XDICTIONARY
360
1F8
102
}
330
2A
100
AcDbVisualStyle
  2
Brighten
 70
    12
177
     2
291
     1
 71
     2
176
     1
 72
     2
176
     1
 73
     0
176
     1
 90
        0
176
     1
 40
0.6
176
     1
 41
30.0
176
     1
 62
     5
 63
     7
421
 16777215
176
     1
 74
     1
176
     1
 91
        4
176
     1
 64
     7
176
     1
 65
   257
176
     1
 75
     1
176
     1
175
     1
176
     1
 42
1.0
176
     1
 92
        8
176
     1
 66
     7
176
     1
 43
1.0
176
     1
 76
     1
176
     1
 77
     6
176
     1
 78
     2
176
     1
 67
     7
176
     1
 79
     5
176
     1
170
     0
176
     1
171
     0
176
     1
290
     0
176
     1
 93
        1
176
     1
 44
50.0
176
     1
173
     0
176
     1
  0
VISUALSTYLE
  5
3A
102
{ACAD_REACTORS
330
2A
102
}
102
{ACAD_XDICTIONARY
360
200
102
}
330
2A
100
AcDbVisualStyle
  2
ColorChange
 70
    16
177
     2
291
     1
 71
     2
176
     1
 72
     2
176
     1
 73
     3
176
     1
 90
        0
176
     1
 40
0.6
176
     1
 41
30.0
176
     1
 62
     5
 63
     8
421
  8421504
176
     1
 74
     1
176
     1
 91
        4
176
     1
 64
     7
176
     1
 65
   257
176
     1
 75
     1
176
     1
175
     1
176
     1
 42
1.0
176
     1
 92
        8
176
     1
 66
     8
424
  8421504
176
     1
 43
1.0
176
     1
 76
     1
176
     1
 77
     6
176
     1
 78
     2
176
     1
 67
     7
176
     1
 79
     5
176
     1
170
     0
176
     1
171
     0
176
     1
290
     0
176
     1
 93
        1
176
     1
 44
0.0
176
     1
173
     0
176
     1
  0
VISUALSTYLE
  5
34
102
{ACAD_REACTORS
330
2A
102
}
102
{ACAD_XDICTIONARY
360
1F4
102
}
330
2A
100
AcDbVisualStyle
  2
Conceptual
 70
     9
177
     2
291
     0
 71
     3
176
     1
 72
     2
176
     1
 73
     0
176
     1
 90
        0
176
     1
 40
0.6
176
     1
 41
30.0
176
     1
 62
     5
 63
     7
421
 16777215
176
     1
 74
     2
176
     1
 91
        2
176
     1
 64
     7
176
     1
 65
   257
176
     1
 75
     1
176
     1
175
     1
176
     1
 42
179.0
176
     1
 92
        8
176
     1
 66
     7
176
     1
 43
1.0
176
     1
 76
     1
176
     1
 77
     6
176
     1
 78
     2
176
     1
 67
     7
176
     1
 79
     3
176
     1
170
     0
176
     1
171
     0
176
     1
290
     0
176
     1
 93
        1
176
     1
 44
0.0
176
     1
173
     0
176
     1
  0
VISUALSTYLE
  5
35
102
{ACAD_REACTORS
330
2A
102
}
102
{ACAD_XDICTIONARY
360
1F6
102
}
330
2A
100
AcDbVisualStyle
  2
Dim
 70
    11
177
     2
291
     1
 71
     2
176
     1
 72
     2
176
     1
 73
     0
176
     1
 90
        0
176
     1
 40
0.6
176
     1
 41
30.0
176
     1
 62
     5
 63
     7
421
 16777215
176
     1
 74
     1
176
     1
 91
        4
176
     1
 64
     7
176
     1
 65
   257
176
     1
 75
     1
176
     1
175
     1
176
     1
 42
1.0
176
     1
 92
        8
176
     1
 66
     7
176
     1
 43
1.0
176
     1
 76
     1
176
     1
 77
     6
176
     1
 78
     2
176
     1
 67
     7
176
     1
 79
     5
176
     1
170
     0
176
     1
171
     0
176
     1
290
     0
176
     1
 93
        1
176
     1
 44
-50.0
176
     1
173
     0
176
     1
  0
VISUALSTYLE
  5
3D
102
{ACAD_REACTORS
330
2A
102
}
102
{ACAD_XDICTIONARY
360
206
102
}
330
2A
100
AcDbVisualStyle
  2
EdgeColorOff
 70
    22
177
     2
291
     1
 71
     2
176
     0
 72
     2
176
     0
 73
     0
176
     0
 90
        0
176
     0
 40
0.6
176
     0
 41
30.0
176
     0
 62
     5
 63
     7
421
 16777215
176
     0
 74
     1
176
     0
 91
        4
176
     0
 64
     7
176
     0
 65
   257
176
     0
 75
     1
176
     0
175
     1
176
     0
 42
1.0
176
     0
 92
        8
176
     2
 66
     7
176
     0
 43
1.0
176
     0
 76
     1
176
     0
 77
     6
176
     0
 78
     2
176
     0
 67
     7
176
     0
 79
     5
176
     0
170
     0
176
     0
171
     0
176
     0
290
     0
176
     0
 93
        1
176
     0
 44
0.0
176
     0
173
     0
176
     0
  0
VISUALSTYLE
  5
39
102
{ACAD_REACTORS
330
2A
102
}
102
{ACAD_XDICTIONARY
360
1FE
102
}
330
2A
100
AcDbVisualStyle
  2
Facepattern
 70
    15
177
     2
291
     1
 71
     2
176
     1
 72
     2
176
     1
 73
     0
176
     1
 90
        0
176
     1
 40
0.6
176
     1
 41
30.0
176
     1
 62
     5
 63
     7
421
 16777215
176
     1
 74
     1
176
     1
 91
        4
176
     1
 64
     7
176
     1
 65
   257
176
     1
 75
     1
176
     1
175
     1
176
     1
 42
1.0
176
     1
 92
        8
176
     1
 66
     7
176
     1
 43
1.0
176
     1
 76
     1
176
     1
 77
     6
176
     1
 78
     2
176
     1
 67
     7
176
     1
 79
     5
176
     1
170
     0
176
     1
171
     0
176
     1
290
     0
176
     1
 93
        1
176
     1
 44
0.0
176
     1
173
     0
176
     1
  0
VISUALSTYLE
  5
2B
102
{ACAD_REACTORS
330
2A
102
}
102
{ACAD_XDICTIONARY
360
1E2
102
}
330
2A
100
AcDbVisualStyle
  2
Flat
 70
     0
177
     2
291
     1
 71
     2
176
     1
 72
     1
176
     1
 73
     1
176
     1
 90
        2
176
     1
 40
0.6
176
     1
 41
30.0
176
     1
 62
     5
 63
     7
421
 16777215
176
     1
 74
     0
176
     1
 91
        0
176
     1
 64
     7
176
     1
 65
   257
176
     1
 75
     1
176
     1
175
     1
176
     1
 42
1.0
176
     1
 92
        8
176
     1
 66
     7
176
     1
 43
1.0
176
     1
 76
     1
176
     1
 77
     6
176
     1
 78
     2
176
     1
 67
     7
176
     1
 79
     5
176
     1
170
     0
176
     1
171
     0
176
     1
290
     0
176
     1
 93
       13
176
     1
 44
0.0
176
     1
173
     0
176
     1
  0
VISUALSTYLE
  5
2C
102
{ACAD_REACTORS
330
2A
102
}
102
{ACAD_XDICTIONARY
360
1E4
102
}
330
2A
100
AcDbVisualStyle
  2
FlatWithEdges
 70
     1
177
     2
291
     1
 71
     2
176
     1
 72
     1
176
     1
 73
     1
176
     1
 90
        2
176
     1
 40
0.6
176
     1
 41
30.0
176
     1
 62
     5
 63
     7
421
 16777215
176
     1
 74
     1
176
     1
 91
        0
176
     1
 64
     7
176
     1
 65
   257
176
     1
 75
     1
176
     1
175
     1
176
     1
 42
1.0
176
     1
 92
        0
176
     1
 66
   257
176
     1
 43
1.0
176
     1
 76
     1
176
     1
 77
     6
176
     1
 78
     2
176
     1
 67
     7
176
     1
 79
     5
176
     1
170
     0
176
     1
171
     0
176
     1
290
     0
176
     1
 93
       13
176
     1
 44
0.0
176
     1
173
     0
176
     1
  0
VISUALSTYLE
  5
2D
102
{ACAD_REACTORS
330
2A
102
}
102
{ACAD_XDICTIONARY
360
1E6
102
}
330
2A
100
AcDbVisualStyle
  2
Gouraud
 70
     2
177
     2
291
     1
 71
     2
176
     1
 72
     2
176
     1
 73
     1
176
     1
 90
        2
176
     1
 40
0.6
176
     1
 41
30.0
176
     1
 62
     5
 63
     7
421
 16777215
176
     1
 74
     0
176
     1
 91
        0
176
     1
 64
     7
176
     1
 65
   257
176
     1
 75
     1
176
     1
175
     1
176
     1
 42
1.0
176
     1
 92
        0
176
     1
 66
     7
176
     1
 43
1.0
176
     1
 76
     1
176
     1
 77
     6
176
     1
 78
     2
176
     1
 67
     7
176
     1
 79
     5
176
     1
170
     0
176
     1
171
     0
176
     1
290
     0
176
     1
 93
       13
176
     1
 44
0.0
176
     1
173
     0
176
     1
  0
VISUALSTYLE
  5
2E
102
{ACAD_REACTORS
330
2A
102
}
102
{ACAD_XDICTIONARY
360
1E8
102
}
330
2A
100
AcDbVisualStyle
  2
GouraudWithEdges
 70
     3
177
     2
291
     1
 71
     2
176
     1
 72
     2
176
     1
 73
     1
176
     1
 90
        2
176
     1
 40
0.6
176
     1
 41
30.0
176
     1
 62
     5
 63
     7
421
 16777215
176
     1
 74
     1
176
     1
 91
        0
176
     1
 64
     7
176
     1
 65
   257
176
     1
 75
     1
176
     1
175
     1
176
     1
 42
1.0
176
     1
 92
        0
176
     1
 66
   257
176
     1
 43
1.0
176
     1
 76
     1
176
     1
 77
     6
176
     1
 78
     2
176
     1
 67
     7
176
     1
 79
     5
176
     1
170
     0
176
     1
171
     0
176
     1
290
     0
176
     1
 93
       13
176
     1
 44
0.0
176
     1
173
     0
176
     1
  0
VISUALSTYLE
  5
31
102
{ACAD_REACTORS
330
2A
102
}
102
{ACAD_XDICTIONARY
360
1EE
102
}
330
2A
100
AcDbVisualStyle
  2
Hidden
 70
     6
177
     2
291
     0
 71
     1
176
     1
 72
     2
176
     1
 73
     2
176
     1
 90
        0
176
     1
 40
0.6
176
     1
 41
30.0
176
     1
 62
     5
 63
     7
421
 16777215
176
     1
 74
     2
176
     1
 91
        2
176
     1
 64
     7
176
     1
 65
   257
176
     1
 75
     2
176
     1
175
     1
176
     1
 42
40.0
176
     1
 92
        0
176
     1
 66
   257
176
     1
 43
1.0
176
     1
 76
     1
176
     1
 77
     6
176
     1
 78
     2
176
     1
 67
     7
176
     1
 79
     3
176
     1
170
     0
176
     1
171
     0
176
     1
290
     0
176
     1
 93
        1
176
     1
 44
0.0
176
     1
173
     0
176
     1
  0
VISUALSTYLE
  5
3B
102
{ACAD_REACTORS
330
2A
102
}
102
{ACAD_XDICTIONARY
360
202
102
}
330
2A
100
AcDbVisualStyle
  2
JitterOff
 70
    20
177
     2
291
     1
 71
     2
176
     0
 72
     2
176
     0
 73
     0
176
     0
 90
        0
176
     0
 40
0.6
176
     0
 41
30.0
176
     0
 62
     5
 63
     7
421
 16777215
176
     0
 74
     1
176
     0
 91
        4
176
     0
 64
     7
176
     0
 65
   257
176
     0
 75
     1
176
     0
175
     1
176
     0
 42
1.0
176
     0
 92
       10
176
     2
 66
     7
176
     0
 43
1.0
176
     0
 76
     1
176
     0
 77
     6
176
     0
 78
     2
176
     0
 67
     7
176
     0
 79
     5
176
     0
170
     0
176
     0
171
     0
176
     0
290
     0
176
     0
 93
        1
176
     0
 44
0.0
176
     0
173
     0
176
     0
  0
VISUALSTYLE
  5
38
102
{ACAD_REACTORS
330
2A
102
}
102
{ACAD_XDICTIONARY
360
1FC
102
}
330
2A
100
AcDbVisualStyle
  2
Linepattern
 70
    14
177
     2
291
     1
 71
     2
176
     1
 72
     2
176
     1
 73
     0
176
     1
 90
        0
176
     1
 40
0.6
176
     1
 41
30.0
176
     1
 62
     5
 63
     7
421
 16777215
176
     1
 74
     1
176
     1
 91
        4
176
     1
 64
     7
176
     1
 65
   257
176
     1
 75
     7
176
     1
175
     7
176
     1
 42
1.0
176
     1
 92
        8
176
     1
 66
     7
176
     1
 43
1.0
176
     1
 76
     1
176
     1
 77
     6
176
     1
 78
     2
176
     1
 67
     7
176
     1
 79
     5
176
     1
170
     0
176
     1
171
     0
176
     1
290
     0
176
     1
 93
        1
176
     1
 44
0.0
176
     1
173
     0
176
     1
  0
VISUALSTYLE
  5
3C
102
{ACAD_REACTORS
330
2A
102
}
102
{ACAD_XDICTIONARY
360
204
102
}
330
2A
100
AcDbVisualStyle
  2
OverhangOff
 70
    21
177
     2
291
     1
 71
     2
176
     0
 72
     2
176
     0
 73
     0
176
     0
 90
        0
176
     0
 40
0.6
176
     0
 41
30.0
176
     0
 62
     5
 63
     7
421
 16777215
176
     0
 74
     1
176
     0
 91
        4
176
     0
 64
     7
176
     0
 65
   257
176
     0
 75
     1
176
     0
175
     1
176
     0
 42
1.0
176
     0
 92
        9
176
     2
 66
     7
176
     0
 43
1.0
176
     0
 76
     1
176
     0
 77
     6
176
     0
 78
     2
176
     0
 67
     7
176
     0
 79
     5
176
     0
170
     0
176
     0
171
     0
176
     0
290
     0
176
     0
 93
        1
176
     0
 44
0.0
176
     0
173
     0
176
     0
  0
VISUALSTYLE
  5
33
102
{ACAD_REACTORS
330
2A
102
}
102
{ACAD_XDICTIONARY
360
1F2
102
}
330
2A
100
AcDbVisualStyle
  2
Realistic
 70
     8
177
     2
291
     0
 71
     2
176
     1
 72
     3
176
     1
 73
     0
176
     1
 90
        2
176
     1
 40
0.6
176
     1
 41
30.0
176
     1
 62
     5
 63
     7
421
 16777215
176
     1
 74
     0
176
     1
 91
        0
176
     1
 64
     7
176
     1
 65
   257
176
     1
 75
     1
176
     1
175
     1
176
     1
 42
1.0
176
     1
 92
        8
176
     1
 66
   257
176
     1
 43
1.0
176
     1
 76
     1
176
     1
 77
     6
176
     1
 78
     2
176
     1
 67
     7
176
     1
 79
     3
176
     1
170
     0
176
     1
171
     0
176
     1
290
     0
176
     1
 93
       13
176
     1
 44
0.0
176
     1
173
     0
176
     1
  0
VISUALSTYLE
  5
42
102
{ACAD_REACTORS
330
2A
102
}
102
{ACAD_XDICTIONARY
360
210
102
}
330
2A
100
AcDbVisualStyle
  2
Shaded
 70
    27
177
     2
291
     0
 71
     2
176
     1
 72
     2
176
     1
 73
     1
176
     1
 90
        2
176
     1
 40
0.6
176
     1
 41
30.0
176
     1
 62
     5
 63
     7
421
 16777215
176
     1
 74
     0
176
     1
 91
        4
176
     1
 64
     7
176
     1
 65
   257
176
     1
 75
     1
176
     1
175
     1
176
     1
 42
1.0
176
     1
 92
        8
176
     1
 66
   257
176
     1
 43
1.0
176
     1
 76
     1
176
     1
 77
     6
176
     1
 78
     2
176
     1
 67
     8
425
  7895160
176
     1
 79
     3
176
     1
170
     0
176
     1
171
     0
176
     1
290
     0
176
     1
 93
        5
176
     1
 44
0.0
176
     1
173
     0
176
     1
  0
VISUALSTYLE
  5
41
102
{ACAD_REACTORS
330
2A
102
}
102
{ACAD_XDICTIONARY
360
20E
102
}
330
2A
100
AcDbVisualStyle
  2
Shaded with edges
 70
    26
177
     2
291
     0
 71
     2
176
     1
 72
     2
176
     1
 73
     1
176
     1
 90
        2
176
     1
 40
0.6
176
     1
 41
30.0
176
     1
 62
     5
 63
     7
421
 16777215
176
     1
 74
     1
176
     1
 91
       10
176
     1
 64
     7
176
     1
 65
   257
176
     1
 75
     2
176
     1
175
     1
176
     1
 42
1.0
176
     1
 92
        8
176
     1
 66
   257
176
     1
 43
1.0
176
     1
 76
     1
176
     1
 77
     6
176
     1
 78
     2
176
     1
 67
     7
176
     1
 79
     3
176
     1
170
     0
176
     1
171
     0
176
     1
290
     0
176
     1
 93
        5
176
     1
 44
0.0
176
     1
173
     0
176
     1
  0
VISUALSTYLE
  5
3E
102
{ACAD_REACTORS
330
2A
102
}
102
{ACAD_XDICTIONARY
360
208
102
}
330
2A
100
AcDbVisualStyle
  2
Shades of Gray
 70
    23
177
     2
291
     0
 71
     2
176
     1
 72
     2
176
     1
 73
     3
176
     1
 90
        0
176
     1
 40
0.6
176
     1
 41
30.0
176
     1
 62
     5
 63
     7
421
 16777215
176
     1
 74
     2
176
     1
 91
        2
176
     1
 64
     7
176
     1
 65
     7
176
     1
 75
     1
176
     1
175
     1
176
     1
 42
40.0
176
     1
 92
        8
176
     1
 66
     7
176
     1
 43
1.0
176
     1
 76
     1
176
     1
 77
     6
176
     1
 78
     2
176
     1
 67
     7
176
     1
 79
     3
176
     1
170
     0
176
     1
171
     0
176
     1
290
     0
176
     1
 93
        1
176
     1
 44
0.0
176
     1
173
     0
176
     1
  0
VISUALSTYLE
  5
3F
102
{ACAD_REACTORS
330
2A
102
}
102
{ACAD_XDICTIONARY
360
20A
102
}
330
2A
100
AcDbVisualStyle
  2
Sketchy
 70
    24
177
     2
291
     0
 71
     1
176
     1
 72
     2
176
     1
 73
     2
176
     1
 90
        0
176
     1
 40
0.6
176
     1
 41
30.0
176
     1
 62
     5
 63
     7
421
 16777215
176
     1
 74
     2
176
     1
 91
        2
176
     1
 64
     7
176
     1
 65
     7
176
     1
 75
     1
176
     1
175
     1
176
     1
 42
40.0
176
     1
 92
       11
176
     1
 66
     7
176
     1
 43
1.0
176
     1
 76
     1
176
     1
 77
     6
176
     1
 78
     2
176
     1
 67
     7
176
     1
 79
     6
176
     1
170
     0
176
     1
171
     0
176
     1
290
     0
176
     1
 93
        1
176
     1
 44
0.0
176
     1
173
     0
176
     1
  0
VISUALSTYLE
  5
37
102
{ACAD_REACTORS
330
2A
102
}
102
{ACAD_XDICTIONARY
360
1FA
102
}
330
2A
100
AcDbVisualStyle
  2
Thicken
 70
    13
177
     2
291
     1
 71
     2
176
     1
 72
     2
176
     1
 73
     0
176
     1
 90
        0
176
     1
 40
0.6
176
     1
 41
30.0
176
     1
 62
     5
 63
     7
421
 16777215
176
     1
 74
     1
176
     1
 91
        4
176
     1
 64
     7
176
     1
 65
   257
176
     1
 75
     1
176
     1
175
     1
176
     1
 42
1.0
176
     1
 92
       12
176
     1
 66
     7
176
     1
 43
1.0
176
     1
 76
     1
176
     1
 77
     6
176
     1
 78
     2
176
     1
 67
     7
176
     1
 79
     5
176
     1
170
     0
176
     1
171
     0
176
     1
290
     0
176
     1
 93
        1
176
     1
 44
0.0
176
     1
173
     0
176
     1
  0
VISUALSTYLE
  5
30
102
{ACAD_REACTORS
330
2A
102
}
102
{ACAD_XDICTIONARY
360
1EC
102
}
330
2A
100
AcDbVisualStyle
  2
Wireframe
 70
     5
177
     2
291
     0
 71
     0
176
     1
 72
     2
176
     1
 73
     0
176
     1
 90
        0
176
     1
 40
0.6
176
     1
 41
30.0
176
     1
 62
     5
 63
     7
421
 16777215
176
     1
 74
     1
176
     1
 91
        4
176
     1
 64
     7
176
     1
 65
   257
176
     1
 75
     1
176
     1
175
     1
176
     1
 42
1.0
176
     1
 92
        0
176
     1
 66
   257
176
     1
 43
1.0
176
     1
 76
     1
176
     1
 77
     6
176
     1
 78
     2
176
     1
 67
     7
176
     1
 79
     3
176
     1
170
     0
176
     1
171
     0
176
     1
290
     0
176
     1
 93
        1
176
     1
 44
0.0
176
     1
173
     0
176
     1
  0
VISUALSTYLE
  5
40
102
{ACAD_REACTORS
330
2A
102
}
102
{ACAD_XDICTIONARY
360
20C
102
}
330
2A
100
AcDbVisualStyle
  2
X-Ray
 70
    25
177
     2
291
     0
 71
     2
176
     1
 72
     2
176
     1
 73
     1
176
     1
 90
        1
176
     1
 40
0.5
176
     1
 41
30.0
176
     1
 62
     5
 63
     7
421
 16777215
176
     1
 74
     1
176
     1
 91
        0
176
     1
 64
     7
176
     1
 65
   257
176
     1
 75
     1
176
     1
175
     1
176
     1
 42
1.0
176
     1
 92
        8
176
     1
 66
     7
176
     1
 43
1.0
176
     1
 76
     1
176
     1
 77
     6
176
     1
 78
     2
176
     1
 67
     7
176
     1
 79
     3
176
     1
170
     0
176
     1
171
     0
176
     1
290
     0
176
     1
 93
       13
176
     1
 44
0.0
176
     1
173
     0
176
     1
  0
DICTIONARYVAR
  5
1E1
102
{ACAD_REACTORS
330
1E0
102
}
330
1E0
100
DictionaryVariables
280
     0
  1
1:1
  0
DICTIONARYVAR
  5
216
102
{ACAD_REACTORS
330
1E0
102
}
330
1E0
100
DictionaryVariables
280
     0
  1
Standard
  0
DICTIONARYVAR
  5
215
102
{ACAD_REACTORS
330
1E0
102
}
330
1E0
100
DictionaryVariables
280
     0
  1
Standard
  0
DICTIONARY
  5
212
330
6A
100
AcDbDictionary
280
     1
281
     1
  3
ACAD_ROUNDTRIP_2008_TABLESTYLE_CELLSTYLEMAP
360
213
  0
DICTIONARY
  5
1EA
330
2F
100
AcDbDictionary
280
     1
281
     1
  3
ACAD_XREC_ROUNDTRIP
360
1EB
  0
DICTIONARY
  5
1F0
330
32
100
AcDbDictionary
280
     1
281
     1
  3
ACAD_XREC_ROUNDTRIP
360
1F1
  0
DICTIONARY
  5
1F8
330
36
100
AcDbDictionary
280
     1
281
     1
  3
ACAD_XREC_ROUNDTRIP
360
1F9
  0
DICTIONARY
  5
200
330
3A
100
AcDbDictionary
280
     1
281
     1
  3
ACAD_XREC_ROUNDTRIP
360
201
  0
DICTIONARY
  5
1F4
330
34
100
AcDbDictionary
280
     1
281
     1
  3
ACAD_XREC_ROUNDTRIP
360
1F5
  0
DICTIONARY
  5
1F6
330
35
100
AcDbDictionary
280
     1
281
     1
  3
ACAD_XREC_ROUNDTRIP
360
1F7
  0
DICTIONARY
  5
206
330
3D
100
AcDbDictionary
280
     1
281
     1
  3
ACAD_XREC_ROUNDTRIP
360
207
  0
DICTIONARY
  5
1FE
330
39
100
AcDbDictionary
280
     1
281
     1
  3
ACAD_XREC_ROUNDTRIP
360
1FF
  0
DICTIONARY
  5
1E2
330
2B
100
AcDbDictionary
280
     1
281
     1
  3
ACAD_XREC_ROUNDTRIP
360
1E3
  0
DICTIONARY
  5
1E4
330
2C
100
AcDbDictionary
280
     1
281
     1
  3
ACAD_XREC_ROUNDTRIP
360
1E5
  0
DICTIONARY
  5
1E6
330
2D
100
AcDbDictionary
280
     1
281
     1
  3
ACAD_XREC_ROUNDTRIP
360
1E7
  0
DICTIONARY
  5
1E8
330
2E
100
AcDbDictionary
280
     1
281
     1
  3
ACAD_XREC_ROUNDTRIP
360
1E9
  0
DICTIONARY
  5
1EE
330
31
100
AcDbDictionary
280
     1
281
     1
  3
ACAD_XREC_ROUNDTRIP
360
1EF
  0
DICTIONARY
  5
202
330
3B
100
AcDbDictionary
280
     1
281
     1
  3
ACAD_XREC_ROUNDTRIP
360
203
  0
DICTIONARY
  5
1FC
330
38
100
AcDbDictionary
280
     1
281
     1
  3
ACAD_XREC_ROUNDTRIP
360
1FD
  0
DICTIONARY
  5
204
330
3C
100
AcDbDictionary
280
     1
281
     1
  3
ACAD_XREC_ROUNDTRIP
360
205
  0
DICTIONARY
  5
1F2
330
33
100
AcDbDictionary
280
     1
281
     1
  3
ACAD_XREC_ROUNDTRIP
360
1F3
  0
DICTIONARY
  5
210
330
42
100
AcDbDictionary
280
     1
281
     1
  3
ACAD_XREC_ROUNDTRIP
360
211
  0
DICTIONARY
  5
20E
330
41
100
AcDbDictionary
280
     1
281
     1
  3
ACAD_XREC_ROUNDTRIP
360
20F
  0
DICTIONARY
  5
208
330
3E
100
AcDbDictionary
280
     1
281
     1
  3
ACAD_XREC_ROUNDTRIP
360
209
  0
DICTIONARY
  5
20A
330
3F
100
AcDbDictionary
280
     1
281
     1
  3
ACAD_XREC_ROUNDTRIP
360
20B
  0
DICTIONARY
  5
1FA
330
37
100
AcDbDictionary
280
     1
281
     1
  3
ACAD_XREC_ROUNDTRIP
360
1FB
  0
DICTIONARY
  5
1EC
330
30
100
AcDbDictionary
280
     1
281
     1
  3
ACAD_XREC_ROUNDTRIP
360
1ED
  0
DICTIONARY
  5
20C
330
40
100
AcDbDictionary
280
     1
281
     1
  3
ACAD_XREC_ROUNDTRIP
360
20D
  0
CELLSTYLEMAP
  5
213
102
{ACAD_REACTORS
330
212
102
}
330
212
100
AcDbCellStyleMap
 90
        3
300
CELLSTYLE
  1
TABLEFORMAT_BEGIN
 90
        5
170
     1
 91
        0
 92
    32768
 62
   257
 93
        1
300
CONTENTFORMAT
  1
CONTENTFORMAT_BEGIN
 90
        0
 91
        0
 92
        4
 93
        0
300

 40
0.0
140
1.0
 94
        5
 62
     0
340
11
144
6.0
309
CONTENTFORMAT_END
171
     1
301
MARGIN
  1
CELLMARGIN_BEGIN
 40
1.5
 40
1.5
 40
1.5
 40
1.5
 40
1.5
 40
1.5
309
CELLMARGIN_END
 94
        6
 95
        1
302
GRIDFORMAT
  1
GRIDFORMAT_BEGIN
 90
        0
 91
        1
 62
     0
 92
       -2
340
14
 93
        0
 40
0.045
309
GRIDFORMAT_END
 95
        2
302
GRIDFORMAT
  1
GRIDFORMAT_BEGIN
 90
        0
 91
        1
 62
     0
 92
       -2
340
14
 93
        0
 40
0.045
309
GRIDFORMAT_END
 95
        4
302
GRIDFORMAT
  1
GRIDFORMAT_BEGIN
 90
        0
 91
        1
 62
     0
 92
       -2
340
14
 93
        0
 40
0.045
309
GRIDFORMAT_END
 95
        8
302
GRIDFORMAT
  1
GRIDFORMAT_BEGIN
 90
        0
 91
        1
 62
     0
 92
       -2
340
14
 93
        0
 40
0.045
309
GRIDFORMAT_END
 95
       16
302
GRIDFORMAT
  1
GRIDFORMAT_BEGIN
 90
        0
 91
        1
 62
     0
 92
       -2
340
14
 93
        0
 40
0.045
309
GRIDFORMAT_END
 95
       32
302
GRIDFORMAT
  1
GRIDFORMAT_BEGIN
 90
        0
 91
        1
 62
     0
 92
       -2
340
14
 93
        0
 40
0.045
309
GRIDFORMAT_END
309
TABLEFORMAT_END
  1
CELLSTYLE_BEGIN
 90
        1
 91
        1
300
_TITLE
309
CELLSTYLE_END
300
CELLSTYLE
  1
TABLEFORMAT_BEGIN
 90
        5
170
     1
 91
        0
 92
        0
 62
   257
 93
        1
300
CONTENTFORMAT
  1
CONTENTFORMAT_BEGIN
 90
        0
 91
        0
 92
        4
 93
        0
300

 40
0.0
140
1.0
 94
        5
 62
     0
340
11
144
4.5
309
CONTENTFORMAT_END
171
     1
301
MARGIN
  1
CELLMARGIN_BEGIN
 40
1.5
 40
1.5
 40
1.5
 40
1.5
 40
1.5
 40
1.5
309
CELLMARGIN_END
 94
        6
 95
        1
302
GRIDFORMAT
  1
GRIDFORMAT_BEGIN
 90
        0
 91
        1
 62
     0
 92
       -2
340
14
 93
        0
 40
0.045
309
GRIDFORMAT_END
 95
        2
302
GRIDFORMAT
  1
GRIDFORMAT_BEGIN
 90
        0
 91
        1
 62
     0
 92
       -2
340
14
 93
        0
 40
0.045
309
GRIDFORMAT_END
 95
        4
302
GRIDFORMAT
  1
GRIDFORMAT_BEGIN
 90
        0
 91
        1
 62
     0
 92
       -2
340
14
 93
        0
 40
0.045
309
GRIDFORMAT_END
 95
        8
302
GRIDFORMAT
  1
GRIDFORMAT_BEGIN
 90
        0
 91
        1
 62
     0
 92
       -2
340
14
 93
        0
 40
0.045
309
GRIDFORMAT_END
 95
       16
302
GRIDFORMAT
  1
GRIDFORMAT_BEGIN
 90
        0
 91
        1
 62
     0
 92
       -2
340
14
 93
        0
 40
0.045
309
GRIDFORMAT_END
 95
       32
302
GRIDFORMAT
  1
GRIDFORMAT_BEGIN
 90
        0
 91
        1
 62
     0
 92
       -2
340
14
 93
        0
 40
0.045
309
GRIDFORMAT_END
309
TABLEFORMAT_END
  1
CELLSTYLE_BEGIN
 90
        2
 91
        1
300
_HEADER
309
CELLSTYLE_END
300
CELLSTYLE
  1
TABLEFORMAT_BEGIN
 90
        5
170
     1
 91
        0
 92
        0
 62
   257
 93
        1
300
CONTENTFORMAT
  1
CONTENTFORMAT_BEGIN
 90
        0
 91
        0
 92
        4
 93
        0
300

 40
0.0
140
1.0
 94
        2
 62
     0
340
11
144
4.5
309
CONTENTFORMAT_END
171
     1
301
MARGIN
  1
CELLMARGIN_BEGIN
 40
1.5
 40
1.5
 40
1.5
 40
1.5
 40
1.5
 40
1.5
309
CELLMARGIN_END
 94
        6
 95
        1
302
GRIDFORMAT
  1
GRIDFORMAT_BEGIN
 90
        0
 91
        1
 62
     0
 92
       -2
340
14
 93
        0
 40
0.045
309
GRIDFORMAT_END
 95
        2
302
GRIDFORMAT
  1
GRIDFORMAT_BEGIN
 90
        0
 91
        1
 62
     0
 92
       -2
340
14
 93
        0
 40
0.045
309
GRIDFORMAT_END
 95
        4
302
GRIDFORMAT
  1
GRIDFORMAT_BEGIN
 90
        0
 91
        1
 62
     0
 92
       -2
340
14
 93
        0
 40
0.045
309
GRIDFORMAT_END
 95
        8
302
GRIDFORMAT
  1
GRIDFORMAT_BEGIN
 90
        0
 91
        1
 62
     0
 92
       -2
340
14
 93
        0
 40
0.045
309
GRIDFORMAT_END
 95
       16
302
GRIDFORMAT
  1
GRIDFORMAT_BEGIN
 90
        0
 91
        1
 62
     0
 92
       -2
340
14
 93
        0
 40
0.045
309
GRIDFORMAT_END
 95
       32
302
GRIDFORMAT
  1
GRIDFORMAT_BEGIN
 90
        0
 91
        1
 62
     0
 92
       -2
340
14
 93
        0
 40
0.045
309
GRIDFORMAT_END
309
TABLEFORMAT_END
  1
CELLSTYLE_BEGIN
 90
        3
 91
        2
300
_DATA
309
CELLSTYLE_END
  0
XRECORD
  5
1EB
102
{ACAD_REACTORS
330
1EA
102
}
330
1EA
100
AcDbXrecord
280
     1
102
RTVSPost2010Prop28
280
     1
102
RTVSPost2010PropOp28
 70
     1
102
RTVSPost2010Prop29
280
     1
102
RTVSPost2010PropOp29
 70
     1
102
RTVSPost2010Prop30
280
     0
102
RTVSPost2010PropOp30
 70
     1
102
RTVSPost2010Prop31
280
     0
102
RTVSPost2010PropOp31
 70
     1
102
RTVSPost2010Prop32
280
     0
102
RTVSPost2010PropOp32
 70
     1
102
RTVSPost2010Prop33
280
     0
102
RTVSPost2010PropOp33
 70
     1
102
RTVSPost2010Prop34
280
     0
102
RTVSPost2010PropOp34
 70
     1
102
RTVSPost2010Prop35
280
     0
102
RTVSPost2010PropOp35
 70
     1
102
RTVSPost2010Prop36
280
     0
102
RTVSPost2010PropOp36
 70
     1
102
RTVSPost2010Prop37
 90
       50
102
RTVSPost2010PropOp37
 70
     1
102
RTVSPost2010Prop38
140
0.0
102
RTVSPost2010PropOp38
 70
     1
102
RTVSPost2010Prop39
140
1.0
102
RTVSPost2010PropOp39
 70
     1
102
RTVSPost2010Prop40
 90
        0
102
RTVSPost2010PropOp40
 70
     1
102
RTVSPost2010Prop41ColorIndex
 90
       18
102
RTVSPost2010Prop41ColorRGB
 90
        0
102
RTVSPost2010PropOp41
 70
     1
102
RTVSPost2010Prop42
 90
       50
102
RTVSPost2010PropOp42
 70
     1
102
RTVSPost2010Prop43
 90
        3
102
RTVSPost2010PropOp43
 70
     1
102
RTVSPost2010Prop44ColorIndex
 90
        5
102
RTVSPost2010Prop44ColorRGB
 90
      255
102
RTVSPost2010PropOp44
 70
     1
102
RTVSPost2010Prop45
280
     0
102
RTVSPost2010PropOp45
 70
     1
102
RTVSPost2010Prop46
 90
       50
102
RTVSPost2010PropOp46
 70
     1
102
RTVSPost2010Prop47
 90
       50
102
RTVSPost2010PropOp47
 70
     1
102
RTVSPost2010Prop48
 90
       50
102
RTVSPost2010PropOp48
 70
     1
102
RTVSPost2010Prop49
280
     0
102
RTVSPost2010PropOp49
 70
     1
102
RTVSPost2010Prop50
 90
       50
102
RTVSPost2010PropOp50
 70
     1
102
RTVSPost2010Prop51ColorIndex
 90
      256
102
RTVSPost2010Prop51ColorRGB
 90
-16777216
102
RTVSPost2010PropOp51
 70
     0
102
RTVSPost2010Prop52
140
1.0
102
RTVSPost2010PropOp52
 70
     0
102
RTVSPost2010Prop53
 90
        2
102
RTVSPost2010PropOp53
 70
     1
102
RTVSPost2010Prop54
  1
strokes_ogs.tif
102
RTVSPost2010PropOp54
 70
     1
102
RTVSPost2010Prop55
280
     0
102
RTVSPost2010PropOp55
 70
     1
102
RTVSPost2010Prop56
140
1.0
102
RTVSPost2010PropOp56
 70
     1
102
RTVSPost2010Prop57
140
1.0
102
RTVSPost2010PropOp57
 70
     1
  0
XRECORD
  5
1F1
102
{ACAD_REACTORS
330
1F0
102
}
330
1F0
100
AcDbXrecord
280
     1
102
RTVSPost2010Prop28
280
     0
102
RTVSPost2010PropOp28
 70
     1
102
RTVSPost2010Prop29
280
     1
102
RTVSPost2010PropOp29
 70
     1
102
RTVSPost2010Prop30
280
     1
102
RTVSPost2010PropOp30
 70
     1
102
RTVSPost2010Prop31
280
     0
102
RTVSPost2010PropOp31
 70
     1
102
RTVSPost2010Prop32
280
     0
102
RTVSPost2010PropOp32
 70
     1
102
RTVSPost2010Prop33
280
     0
102
RTVSPost2010PropOp33
 70
     1
102
RTVSPost2010Prop34
280
     0
102
RTVSPost2010PropOp34
 70
     1
102
RTVSPost2010Prop35
280
     0
102
RTVSPost2010PropOp35
 70
     1
102
RTVSPost2010Prop36
280
     0
102
RTVSPost2010PropOp36
 70
     1
102
RTVSPost2010Prop37
 90
       50
102
RTVSPost2010PropOp37
 70
     1
102
RTVSPost2010Prop38
140
0.0
102
RTVSPost2010PropOp38
 70
     1
102
RTVSPost2010Prop39
140
1.0
102
RTVSPost2010PropOp39
 70
     1
102
RTVSPost2010Prop40
 90
        0
102
RTVSPost2010PropOp40
 70
     1
102
RTVSPost2010Prop41ColorIndex
 90
       18
102
RTVSPost2010Prop41ColorRGB
 90
        0
102
RTVSPost2010PropOp41
 70
     1
102
RTVSPost2010Prop42
 90
       50
102
RTVSPost2010PropOp42
 70
     1
102
RTVSPost2010Prop43
 90
        3
102
RTVSPost2010PropOp43
 70
     1
102
RTVSPost2010Prop44ColorIndex
 90
        5
102
RTVSPost2010Prop44ColorRGB
 90
      255
102
RTVSPost2010PropOp44
 70
     1
102
RTVSPost2010Prop45
280
     0
102
RTVSPost2010PropOp45
 70
     1
102
RTVSPost2010Prop46
 90
       50
102
RTVSPost2010PropOp46
 70
     1
102
RTVSPost2010Prop47
 90
       50
102
RTVSPost2010PropOp47
 70
     1
102
RTVSPost2010Prop48
 90
       50
102
RTVSPost2010PropOp48
 70
     1
102
RTVSPost2010Prop49
280
     0
102
RTVSPost2010PropOp49
 70
     1
102
RTVSPost2010Prop50
 90
       50
102
RTVSPost2010PropOp50
 70
     1
102
RTVSPost2010Prop51ColorIndex
 90
      256
102
RTVSPost2010Prop51ColorRGB
 90
-16777216
102
RTVSPost2010PropOp51
 70
     0
102
RTVSPost2010Prop52
140
1.0
102
RTVSPost2010PropOp52
 70
     0
102
RTVSPost2010Prop53
 90
        2
102
RTVSPost2010PropOp53
 70
     1
102
RTVSPost2010Prop54
  1
strokes_ogs.tif
102
RTVSPost2010PropOp54
 70
     1
102
RTVSPost2010Prop55
280
     0
102
RTVSPost2010PropOp55
 70
     1
102
RTVSPost2010Prop56
140
1.0
102
RTVSPost2010PropOp56
 70
     1
102
RTVSPost2010Prop57
140
1.0
102
RTVSPost2010PropOp57
 70
     1
  0
XRECORD
  5
1F9
102
{ACAD_REACTORS
330
1F8
102
}
330
1F8
100
AcDbXrecord
280
     1
102
RTVSPost2010Prop28
280
     0
102
RTVSPost2010PropOp28
 70
     1
102
RTVSPost2010Prop29
280
     1
102
RTVSPost2010PropOp29
 70
     1
102
RTVSPost2010Prop30
280
     1
102
RTVSPost2010PropOp30
 70
     1
102
RTVSPost2010Prop31
280
     0
102
RTVSPost2010PropOp31
 70
     1
102
RTVSPost2010Prop32
280
     0
102
RTVSPost2010PropOp32
 70
     1
102
RTVSPost2010Prop33
280
     0
102
RTVSPost2010PropOp33
 70
     1
102
RTVSPost2010Prop34
280
     0
102
RTVSPost2010PropOp34
 70
     1
102
RTVSPost2010Prop35
280
     0
102
RTVSPost2010PropOp35
 70
     1
102
RTVSPost2010Prop36
280
     0
102
RTVSPost2010PropOp36
 70
     1
102
RTVSPost2010Prop37
 90
       50
102
RTVSPost2010PropOp37
 70
     1
102
RTVSPost2010Prop38
140
0.0
102
RTVSPost2010PropOp38
 70
     1
102
RTVSPost2010Prop39
140
1.0
102
RTVSPost2010PropOp39
 70
     1
102
RTVSPost2010Prop40
 90
        0
102
RTVSPost2010PropOp40
 70
     1
102
RTVSPost2010Prop41ColorIndex
 90
       18
102
RTVSPost2010Prop41ColorRGB
 90
        0
102
RTVSPost2010PropOp41
 70
     1
102
RTVSPost2010Prop42
 90
       50
102
RTVSPost2010PropOp42
 70
     1
102
RTVSPost2010Prop43
 90
        3
102
RTVSPost2010PropOp43
 70
     1
102
RTVSPost2010Prop44ColorIndex
 90
        5
102
RTVSPost2010Prop44ColorRGB
 90
      255
102
RTVSPost2010PropOp44
 70
     1
102
RTVSPost2010Prop45
280
     0
102
RTVSPost2010PropOp45
 70
     1
102
RTVSPost2010Prop46
 90
       50
102
RTVSPost2010PropOp46
 70
     1
102
RTVSPost2010Prop47
 90
       50
102
RTVSPost2010PropOp47
 70
     1
102
RTVSPost2010Prop48
 90
       50
102
RTVSPost2010PropOp48
 70
     1
102
RTVSPost2010Prop49
280
     0
102
RTVSPost2010PropOp49
 70
     1
102
RTVSPost2010Prop50
 90
       50
102
RTVSPost2010PropOp50
 70
     1
102
RTVSPost2010Prop51ColorIndex
 90
      256
102
RTVSPost2010Prop51ColorRGB
 90
-16777216
102
RTVSPost2010PropOp51
 70
     0
102
RTVSPost2010Prop52
140
1.0
102
RTVSPost2010PropOp52
 70
     0
102
RTVSPost2010Prop53
 90
        2
102
RTVSPost2010PropOp53
 70
     1
102
RTVSPost2010Prop54
  1
strokes_ogs.tif
102
RTVSPost2010PropOp54
 70
     1
102
RTVSPost2010Prop55
280
     0
102
RTVSPost2010PropOp55
 70
     1
102
RTVSPost2010Prop56
140
1.0
102
RTVSPost2010PropOp56
 70
     1
102
RTVSPost2010Prop57
140
1.0
102
RTVSPost2010PropOp57
 70
     1
  0
XRECORD
  5
201
102
{ACAD_REACTORS
330
200
102
}
330
200
100
AcDbXrecord
280
     1
102
RTVSPost2010Prop28
280
     0
102
RTVSPost2010PropOp28
 70
     1
102
RTVSPost2010Prop29
280
     1
102
RTVSPost2010PropOp29
 70
     1
102
RTVSPost2010Prop30
280
     1
102
RTVSPost2010PropOp30
 70
     1
102
RTVSPost2010Prop31
280
     0
102
RTVSPost2010PropOp31
 70
     1
102
RTVSPost2010Prop32
280
     0
102
RTVSPost2010PropOp32
 70
     1
102
RTVSPost2010Prop33
280
     0
102
RTVSPost2010PropOp33
 70
     1
102
RTVSPost2010Prop34
280
     0
102
RTVSPost2010PropOp34
 70
     1
102
RTVSPost2010Prop35
280
     0
102
RTVSPost2010PropOp35
 70
     1
102
RTVSPost2010Prop36
280
     0
102
RTVSPost2010PropOp36
 70
     1
102
RTVSPost2010Prop37
 90
       50
102
RTVSPost2010PropOp37
 70
     1
102
RTVSPost2010Prop38
140
0.0
102
RTVSPost2010PropOp38
 70
     1
102
RTVSPost2010Prop39
140
1.0
102
RTVSPost2010PropOp39
 70
     1
102
RTVSPost2010Prop40
 90
        0
102
RTVSPost2010PropOp40
 70
     1
102
RTVSPost2010Prop41ColorIndex
 90
       18
102
RTVSPost2010Prop41ColorRGB
 90
        0
102
RTVSPost2010PropOp41
 70
     1
102
RTVSPost2010Prop42
 90
       50
102
RTVSPost2010PropOp42
 70
     1
102
RTVSPost2010Prop43
 90
        3
102
RTVSPost2010PropOp43
 70
     1
102
RTVSPost2010Prop44ColorIndex
 90
        5
102
RTVSPost2010Prop44ColorRGB
 90
      255
102
RTVSPost2010PropOp44
 70
     1
102
RTVSPost2010Prop45
280
     0
102
RTVSPost2010PropOp45
 70
     1
102
RTVSPost2010Prop46
 90
       50
102
RTVSPost2010PropOp46
 70
     1
102
RTVSPost2010Prop47
 90
       50
102
RTVSPost2010PropOp47
 70
     1
102
RTVSPost2010Prop48
 90
       50
102
RTVSPost2010PropOp48
 70
     1
102
RTVSPost2010Prop49
280
     0
102
RTVSPost2010PropOp49
 70
     1
102
RTVSPost2010Prop50
 90
       50
102
RTVSPost2010PropOp50
 70
     1
102
RTVSPost2010Prop51ColorIndex
 90
      256
102
RTVSPost2010Prop51ColorRGB
 90
-16777216
102
RTVSPost2010PropOp51
 70
     0
102
RTVSPost2010Prop52
140
1.0
102
RTVSPost2010PropOp52
 70
     0
102
RTVSPost2010Prop53
 90
        2
102
RTVSPost2010PropOp53
 70
     1
102
RTVSPost2010Prop54
  1
strokes_ogs.tif
102
RTVSPost2010PropOp54
 70
     1
102
RTVSPost2010Prop55
280
     0
102
RTVSPost2010PropOp55
 70
     1
102
RTVSPost2010Prop56
140
1.0
102
RTVSPost2010PropOp56
 70
     1
102
RTVSPost2010Prop57
140
1.0
102
RTVSPost2010PropOp57
 70
     1
  0
XRECORD
  5
1F5
102
{ACAD_REACTORS
330
1F4
102
}
330
1F4
100
AcDbXrecord
280
     1
102
RTVSPost2010Prop28
280
     0
102
RTVSPost2010PropOp28
 70
     1
102
RTVSPost2010Prop29
280
     1
102
RTVSPost2010PropOp29
 70
     1
102
RTVSPost2010Prop30
280
     1
102
RTVSPost2010PropOp30
 70
     1
102
RTVSPost2010Prop31
280
     0
102
RTVSPost2010PropOp31
 70
     1
102
RTVSPost2010Prop32
280
     0
102
RTVSPost2010PropOp32
 70
     1
102
RTVSPost2010Prop33
280
     0
102
RTVSPost2010PropOp33
 70
     1
102
RTVSPost2010Prop34
280
     0
102
RTVSPost2010PropOp34
 70
     1
102
RTVSPost2010Prop35
280
     0
102
RTVSPost2010PropOp35
 70
     1
102
RTVSPost2010Prop36
280
     0
102
RTVSPost2010PropOp36
 70
     1
102
RTVSPost2010Prop37
 90
       50
102
RTVSPost2010PropOp37
 70
     1
102
RTVSPost2010Prop38
140
0.0
102
RTVSPost2010PropOp38
 70
     1
102
RTVSPost2010Prop39
140
1.0
102
RTVSPost2010PropOp39
 70
     1
102
RTVSPost2010Prop40
 90
        0
102
RTVSPost2010PropOp40
 70
     1
102
RTVSPost2010Prop41ColorIndex
 90
       18
102
RTVSPost2010Prop41ColorRGB
 90
        0
102
RTVSPost2010PropOp41
 70
     1
102
RTVSPost2010Prop42
 90
       50
102
RTVSPost2010PropOp42
 70
     1
102
RTVSPost2010Prop43
 90
        3
102
RTVSPost2010PropOp43
 70
     1
102
RTVSPost2010Prop44ColorIndex
 90
        5
102
RTVSPost2010Prop44ColorRGB
 90
      255
102
RTVSPost2010PropOp44
 70
     1
102
RTVSPost2010Prop45
280
     0
102
RTVSPost2010PropOp45
 70
     1
102
RTVSPost2010Prop46
 90
       50
102
RTVSPost2010PropOp46
 70
     1
102
RTVSPost2010Prop47
 90
       50
102
RTVSPost2010PropOp47
 70
     1
102
RTVSPost2010Prop48
 90
       50
102
RTVSPost2010PropOp48
 70
     1
102
RTVSPost2010Prop49
280
     0
102
RTVSPost2010PropOp49
 70
     1
102
RTVSPost2010Prop50
 90
       50
102
RTVSPost2010PropOp50
 70
     1
102
RTVSPost2010Prop51ColorIndex
 90
      256
102
RTVSPost2010Prop51ColorRGB
 90
-16777216
102
RTVSPost2010PropOp51
 70
     0
102
RTVSPost2010Prop52
140
1.0
102
RTVSPost2010PropOp52
 70
     0
102
RTVSPost2010Prop53
 90
        2
102
RTVSPost2010PropOp53
 70
     1
102
RTVSPost2010Prop54
  1
strokes_ogs.tif
102
RTVSPost2010PropOp54
 70
     1
102
RTVSPost2010Prop55
280
     0
102
RTVSPost2010PropOp55
 70
     1
102
RTVSPost2010Prop56
140
1.0
102
RTVSPost2010PropOp56
 70
     1
102
RTVSPost2010Prop57
140
1.0
102
RTVSPost2010PropOp57
 70
     1
  0
XRECORD
  5
1F7
102
{ACAD_REACTORS
330
1F6
102
}
330
1F6
100
AcDbXrecord
280
     1
102
RTVSPost2010Prop28
280
     0
102
RTVSPost2010PropOp28
 70
     1
102
RTVSPost2010Prop29
280
     1
102
RTVSPost2010PropOp29
 70
     1
102
RTVSPost2010Prop30
280
     1
102
RTVSPost2010PropOp30
 70
     1
102
RTVSPost2010Prop31
280
     0
102
RTVSPost2010PropOp31
 70
     1
102
RTVSPost2010Prop32
280
     0
102
RTVSPost2010PropOp32
 70
     1
102
RTVSPost2010Prop33
280
     0
102
RTVSPost2010PropOp33
 70
     1
102
RTVSPost2010Prop34
280
     0
102
RTVSPost2010PropOp34
 70
     1
102
RTVSPost2010Prop35
280
     0
102
RTVSPost2010PropOp35
 70
     1
102
RTVSPost2010Prop36
280
     0
102
RTVSPost2010PropOp36
 70
     1
102
RTVSPost2010Prop37
 90
       50
102
RTVSPost2010PropOp37
 70
     1
102
RTVSPost2010Prop38
140
0.0
102
RTVSPost2010PropOp38
 70
     1
102
RTVSPost2010Prop39
140
1.0
102
RTVSPost2010PropOp39
 70
     1
102
RTVSPost2010Prop40
 90
        0
102
RTVSPost2010PropOp40
 70
     1
102
RTVSPost2010Prop41ColorIndex
 90
       18
102
RTVSPost2010Prop41ColorRGB
 90
        0
102
RTVSPost2010PropOp41
 70
     1
102
RTVSPost2010Prop42
 90
       50
102
RTVSPost2010PropOp42
 70
     1
102
RTVSPost2010Prop43
 90
        3
102
RTVSPost2010PropOp43
 70
     1
102
RTVSPost2010Prop44ColorIndex
 90
        5
102
RTVSPost2010Prop44ColorRGB
 90
      255
102
RTVSPost2010PropOp44
 70
     1
102
RTVSPost2010Prop45
280
     0
102
RTVSPost2010PropOp45
 70
     1
102
RTVSPost2010Prop46
 90
       50
102
RTVSPost2010PropOp46
 70
     1
102
RTVSPost2010Prop47
 90
       50
102
RTVSPost2010PropOp47
 70
     1
102
RTVSPost2010Prop48
 90
       50
102
RTVSPost2010PropOp48
 70
     1
102
RTVSPost2010Prop49
280
     0
102
RTVSPost2010PropOp49
 70
     1
102
RTVSPost2010Prop50
 90
       50
102
RTVSPost2010PropOp50
 70
     1
102
RTVSPost2010Prop51ColorIndex
 90
      256
102
RTVSPost2010Prop51ColorRGB
 90
-16777216
102
RTVSPost2010PropOp51
 70
     0
102
RTVSPost2010Prop52
140
1.0
102
RTVSPost2010PropOp52
 70
     0
102
RTVSPost2010Prop53
 90
        2
102
RTVSPost2010PropOp53
 70
     1
102
RTVSPost2010Prop54
  1
strokes_ogs.tif
102
RTVSPost2010PropOp54
 70
     1
102
RTVSPost2010Prop55
280
     0
102
RTVSPost2010PropOp55
 70
     1
102
RTVSPost2010Prop56
140
1.0
102
RTVSPost2010PropOp56
 70
     1
102
RTVSPost2010Prop57
140
1.0
102
RTVSPost2010PropOp57
 70
     1
  0
XRECORD
  5
207
102
{ACAD_REACTORS
330
206
102
}
330
206
100
AcDbXrecord
280
     1
102
RTVSPost2010Prop28
280
     0
102
RTVSPost2010PropOp28
 70
     0
102
RTVSPost2010Prop29
280
     1
102
RTVSPost2010PropOp29
 70
     0
102
RTVSPost2010Prop30
280
     1
102
RTVSPost2010PropOp30
 70
     0
102
RTVSPost2010Prop31
280
     0
102
RTVSPost2010PropOp31
 70
     0
102
RTVSPost2010Prop32
280
     0
102
RTVSPost2010PropOp32
 70
     0
102
RTVSPost2010Prop33
280
     0
102
RTVSPost2010PropOp33
 70
     0
102
RTVSPost2010Prop34
280
     0
102
RTVSPost2010PropOp34
 70
     0
102
RTVSPost2010Prop35
280
     0
102
RTVSPost2010PropOp35
 70
     0
102
RTVSPost2010Prop36
280
     0
102
RTVSPost2010PropOp36
 70
     0
102
RTVSPost2010Prop37
 90
       50
102
RTVSPost2010PropOp37
 70
     0
102
RTVSPost2010Prop38
140
0.0
102
RTVSPost2010PropOp38
 70
     0
102
RTVSPost2010Prop39
140
1.0
102
RTVSPost2010PropOp39
 70
     0
102
RTVSPost2010Prop40
 90
        0
102
RTVSPost2010PropOp40
 70
     0
102
RTVSPost2010Prop41ColorIndex
 90
       18
102
RTVSPost2010Prop41ColorRGB
 90
        0
102
RTVSPost2010PropOp41
 70
     0
102
RTVSPost2010Prop42
 90
       50
102
RTVSPost2010PropOp42
 70
     0
102
RTVSPost2010Prop43
 90
        3
102
RTVSPost2010PropOp43
 70
     0
102
RTVSPost2010Prop44ColorIndex
 90
        5
102
RTVSPost2010Prop44ColorRGB
 90
      255
102
RTVSPost2010PropOp44
 70
     0
102
RTVSPost2010Prop45
280
     0
102
RTVSPost2010PropOp45
 70
     0
102
RTVSPost2010Prop46
 90
       50
102
RTVSPost2010PropOp46
 70
     0
102
RTVSPost2010Prop47
 90
       50
102
RTVSPost2010PropOp47
 70
     0
102
RTVSPost2010Prop48
 90
       50
102
RTVSPost2010PropOp48
 70
     0
102
RTVSPost2010Prop49
280
     0
102
RTVSPost2010PropOp49
 70
     0
102
RTVSPost2010Prop50
 90
       50
102
RTVSPost2010PropOp50
 70
     0
102
RTVSPost2010Prop51ColorIndex
 90
      256
102
RTVSPost2010Prop51ColorRGB
 90
-16777216
102
RTVSPost2010PropOp51
 70
     0
102
RTVSPost2010Prop52
140
1.0
102
RTVSPost2010PropOp52
 70
     0
102
RTVSPost2010Prop53
 90
        2
102
RTVSPost2010PropOp53
 70
     0
102
RTVSPost2010Prop54
  1
strokes_ogs.tif
102
RTVSPost2010PropOp54
 70
     0
102
RTVSPost2010Prop55
280
     0
102
RTVSPost2010PropOp55
 70
     0
102
RTVSPost2010Prop56
140
1.0
102
RTVSPost2010PropOp56
 70
     0
102
RTVSPost2010Prop57
140
1.0
102
RTVSPost2010PropOp57
 70
     0
  0
XRECORD
  5
1FF
102
{ACAD_REACTORS
330
1FE
102
}
330
1FE
100
AcDbXrecord
280
     1
102
RTVSPost2010Prop28
280
     0
102
RTVSPost2010PropOp28
 70
     1
102
RTVSPost2010Prop29
280
     1
102
RTVSPost2010PropOp29
 70
     1
102
RTVSPost2010Prop30
280
     1
102
RTVSPost2010PropOp30
 70
     1
102
RTVSPost2010Prop31
280
     0
102
RTVSPost2010PropOp31
 70
     1
102
RTVSPost2010Prop32
280
     0
102
RTVSPost2010PropOp32
 70
     1
102
RTVSPost2010Prop33
280
     0
102
RTVSPost2010PropOp33
 70
     1
102
RTVSPost2010Prop34
280
     0
102
RTVSPost2010PropOp34
 70
     1
102
RTVSPost2010Prop35
280
     0
102
RTVSPost2010PropOp35
 70
     1
102
RTVSPost2010Prop36
280
     0
102
RTVSPost2010PropOp36
 70
     1
102
RTVSPost2010Prop37
 90
       50
102
RTVSPost2010PropOp37
 70
     1
102
RTVSPost2010Prop38
140
0.0
102
RTVSPost2010PropOp38
 70
     1
102
RTVSPost2010Prop39
140
1.0
102
RTVSPost2010PropOp39
 70
     1
102
RTVSPost2010Prop40
 90
        0
102
RTVSPost2010PropOp40
 70
     1
102
RTVSPost2010Prop41ColorIndex
 90
       18
102
RTVSPost2010Prop41ColorRGB
 90
        0
102
RTVSPost2010PropOp41
 70
     1
102
RTVSPost2010Prop42
 90
       50
102
RTVSPost2010PropOp42
 70
     1
102
RTVSPost2010Prop43
 90
        3
102
RTVSPost2010PropOp43
 70
     1
102
RTVSPost2010Prop44ColorIndex
 90
        5
102
RTVSPost2010Prop44ColorRGB
 90
      255
102
RTVSPost2010PropOp44
 70
     1
102
RTVSPost2010Prop45
280
     0
102
RTVSPost2010PropOp45
 70
     1
102
RTVSPost2010Prop46
 90
       50
102
RTVSPost2010PropOp46
 70
     1
102
RTVSPost2010Prop47
 90
       50
102
RTVSPost2010PropOp47
 70
     1
102
RTVSPost2010Prop48
 90
       50
102
RTVSPost2010PropOp48
 70
     1
102
RTVSPost2010Prop49
280
     0
102
RTVSPost2010PropOp49
 70
     1
102
RTVSPost2010Prop50
 90
       50
102
RTVSPost2010PropOp50
 70
     1
102
RTVSPost2010Prop51ColorIndex
 90
      256
102
RTVSPost2010Prop51ColorRGB
 90
-16777216
102
RTVSPost2010PropOp51
 70
     0
102
RTVSPost2010Prop52
140
1.0
102
RTVSPost2010PropOp52
 70
     0
102
RTVSPost2010Prop53
 90
        2
102
RTVSPost2010PropOp53
 70
     1
102
RTVSPost2010Prop54
  1
strokes_ogs.tif
102
RTVSPost2010PropOp54
 70
     1
102
RTVSPost2010Prop55
280
     0
102
RTVSPost2010PropOp55
 70
     1
102
RTVSPost2010Prop56
140
1.0
102
RTVSPost2010PropOp56
 70
     1
102
RTVSPost2010Prop57
140
1.0
102
RTVSPost2010PropOp57
 70
     1
  0
XRECORD
  5
1E3
102
{ACAD_REACTORS
330
1E2
102
}
330
1E2
100
AcDbXrecord
280
     1
102
RTVSPost2010Prop28
280
     0
102
RTVSPost2010PropOp28
 70
     1
102
RTVSPost2010Prop29
280
     1
102
RTVSPost2010PropOp29
 70
     1
102
RTVSPost2010Prop30
280
     1
102
RTVSPost2010PropOp30
 70
     1
102
RTVSPost2010Prop31
280
     0
102
RTVSPost2010PropOp31
 70
     1
102
RTVSPost2010Prop32
280
     0
102
RTVSPost2010PropOp32
 70
     1
102
RTVSPost2010Prop33
280
     0
102
RTVSPost2010PropOp33
 70
     1
102
RTVSPost2010Prop34
280
     0
102
RTVSPost2010PropOp34
 70
     1
102
RTVSPost2010Prop35
280
     0
102
RTVSPost2010PropOp35
 70
     1
102
RTVSPost2010Prop36
280
     0
102
RTVSPost2010PropOp36
 70
     1
102
RTVSPost2010Prop37
 90
       50
102
RTVSPost2010PropOp37
 70
     1
102
RTVSPost2010Prop38
140
0.0
102
RTVSPost2010PropOp38
 70
     1
102
RTVSPost2010Prop39
140
1.0
102
RTVSPost2010PropOp39
 70
     1
102
RTVSPost2010Prop40
 90
        0
102
RTVSPost2010PropOp40
 70
     1
102
RTVSPost2010Prop41ColorIndex
 90
       18
102
RTVSPost2010Prop41ColorRGB
 90
        0
102
RTVSPost2010PropOp41
 70
     1
102
RTVSPost2010Prop42
 90
       50
102
RTVSPost2010PropOp42
 70
     1
102
RTVSPost2010Prop43
 90
        3
102
RTVSPost2010PropOp43
 70
     1
102
RTVSPost2010Prop44ColorIndex
 90
        5
102
RTVSPost2010Prop44ColorRGB
 90
      255
102
RTVSPost2010PropOp44
 70
     1
102
RTVSPost2010Prop45
280
     0
102
RTVSPost2010PropOp45
 70
     1
102
RTVSPost2010Prop46
 90
       50
102
RTVSPost2010PropOp46
 70
     1
102
RTVSPost2010Prop47
 90
       50
102
RTVSPost2010PropOp47
 70
     1
102
RTVSPost2010Prop48
 90
       50
102
RTVSPost2010PropOp48
 70
     1
102
RTVSPost2010Prop49
280
     0
102
RTVSPost2010PropOp49
 70
     1
102
RTVSPost2010Prop50
 90
       50
102
RTVSPost2010PropOp50
 70
     1
102
RTVSPost2010Prop51ColorIndex
 90
      256
102
RTVSPost2010Prop51ColorRGB
 90
-16777216
102
RTVSPost2010PropOp51
 70
     0
102
RTVSPost2010Prop52
140
1.0
102
RTVSPost2010PropOp52
 70
     0
102
RTVSPost2010Prop53
 90
        2
102
RTVSPost2010PropOp53
 70
     1
102
RTVSPost2010Prop54
  1
strokes_ogs.tif
102
RTVSPost2010PropOp54
 70
     1
102
RTVSPost2010Prop55
280
     0
102
RTVSPost2010PropOp55
 70
     1
102
RTVSPost2010Prop56
140
1.0
102
RTVSPost2010PropOp56
 70
     1
102
RTVSPost2010Prop57
140
1.0
102
RTVSPost2010PropOp57
 70
     1
  0
XRECORD
  5
1E5
102
{ACAD_REACTORS
330
1E4
102
}
330
1E4
100
AcDbXrecord
280
     1
102
RTVSPost2010Prop28
280
     0
102
RTVSPost2010PropOp28
 70
     1
102
RTVSPost2010Prop29
280
     1
102
RTVSPost2010PropOp29
 70
     1
102
RTVSPost2010Prop30
280
     1
102
RTVSPost2010PropOp30
 70
     1
102
RTVSPost2010Prop31
280
     0
102
RTVSPost2010PropOp31
 70
     1
102
RTVSPost2010Prop32
280
     0
102
RTVSPost2010PropOp32
 70
     1
102
RTVSPost2010Prop33
280
     0
102
RTVSPost2010PropOp33
 70
     1
102
RTVSPost2010Prop34
280
     0
102
RTVSPost2010PropOp34
 70
     1
102
RTVSPost2010Prop35
280
     0
102
RTVSPost2010PropOp35
 70
     1
102
RTVSPost2010Prop36
280
     0
102
RTVSPost2010PropOp36
 70
     1
102
RTVSPost2010Prop37
 90
       50
102
RTVSPost2010PropOp37
 70
     1
102
RTVSPost2010Prop38
140
0.0
102
RTVSPost2010PropOp38
 70
     1
102
RTVSPost2010Prop39
140
1.0
102
RTVSPost2010PropOp39
 70
     1
102
RTVSPost2010Prop40
 90
        0
102
RTVSPost2010PropOp40
 70
     1
102
RTVSPost2010Prop41ColorIndex
 90
       18
102
RTVSPost2010Prop41ColorRGB
 90
        0
102
RTVSPost2010PropOp41
 70
     1
102
RTVSPost2010Prop42
 90
       50
102
RTVSPost2010PropOp42
 70
     1
102
RTVSPost2010Prop43
 90
        3
102
RTVSPost2010PropOp43
 70
     1
102
RTVSPost2010Prop44ColorIndex
 90
        5
102
RTVSPost2010Prop44ColorRGB
 90
      255
102
RTVSPost2010PropOp44
 70
     1
102
RTVSPost2010Prop45
280
     0
102
RTVSPost2010PropOp45
 70
     1
102
RTVSPost2010Prop46
 90
       50
102
RTVSPost2010PropOp46
 70
     1
102
RTVSPost2010Prop47
 90
       50
102
RTVSPost2010PropOp47
 70
     1
102
RTVSPost2010Prop48
 90
       50
102
RTVSPost2010PropOp48
 70
     1
102
RTVSPost2010Prop49
280
     0
102
RTVSPost2010PropOp49
 70
     1
102
RTVSPost2010Prop50
 90
       50
102
RTVSPost2010PropOp50
 70
     1
102
RTVSPost2010Prop51ColorIndex
 90
      256
102
RTVSPost2010Prop51ColorRGB
 90
-16777216
102
RTVSPost2010PropOp51
 70
     0
102
RTVSPost2010Prop52
140
1.0
102
RTVSPost2010PropOp52
 70
     0
102
RTVSPost2010Prop53
 90
        2
102
RTVSPost2010PropOp53
 70
     1
102
RTVSPost2010Prop54
  1
strokes_ogs.tif
102
RTVSPost2010PropOp54
 70
     1
102
RTVSPost2010Prop55
280
     0
102
RTVSPost2010PropOp55
 70
     1
102
RTVSPost2010Prop56
140
1.0
102
RTVSPost2010PropOp56
 70
     1
102
RTVSPost2010Prop57
140
1.0
102
RTVSPost2010PropOp57
 70
     1
  0
XRECORD
  5
1E7
102
{ACAD_REACTORS
330
1E6
102
}
330
1E6
100
AcDbXrecord
280
     1
102
RTVSPost2010Prop28
280
     0
102
RTVSPost2010PropOp28
 70
     1
102
RTVSPost2010Prop29
280
     1
102
RTVSPost2010PropOp29
 70
     1
102
RTVSPost2010Prop30
280
     1
102
RTVSPost2010PropOp30
 70
     1
102
RTVSPost2010Prop31
280
     0
102
RTVSPost2010PropOp31
 70
     1
102
RTVSPost2010Prop32
280
     0
102
RTVSPost2010PropOp32
 70
     1
102
RTVSPost2010Prop33
280
     0
102
RTVSPost2010PropOp33
 70
     1
102
RTVSPost2010Prop34
280
     0
102
RTVSPost2010PropOp34
 70
     1
102
RTVSPost2010Prop35
280
     0
102
RTVSPost2010PropOp35
 70
     1
102
RTVSPost2010Prop36
280
     0
102
RTVSPost2010PropOp36
 70
     1
102
RTVSPost2010Prop37
 90
       50
102
RTVSPost2010PropOp37
 70
     1
102
RTVSPost2010Prop38
140
0.0
102
RTVSPost2010PropOp38
 70
     1
102
RTVSPost2010Prop39
140
1.0
102
RTVSPost2010PropOp39
 70
     1
102
RTVSPost2010Prop40
 90
        0
102
RTVSPost2010PropOp40
 70
     1
102
RTVSPost2010Prop41ColorIndex
 90
       18
102
RTVSPost2010Prop41ColorRGB
 90
        0
102
RTVSPost2010PropOp41
 70
     1
102
RTVSPost2010Prop42
 90
       50
102
RTVSPost2010PropOp42
 70
     1
102
RTVSPost2010Prop43
 90
        3
102
RTVSPost2010PropOp43
 70
     1
102
RTVSPost2010Prop44ColorIndex
 90
        5
102
RTVSPost2010Prop44ColorRGB
 90
      255
102
RTVSPost2010PropOp44
 70
     1
102
RTVSPost2010Prop45
280
     0
102
RTVSPost2010PropOp45
 70
     1
102
RTVSPost2010Prop46
 90
       50
102
RTVSPost2010PropOp46
 70
     1
102
RTVSPost2010Prop47
 90
       50
102
RTVSPost2010PropOp47
 70
     1
102
RTVSPost2010Prop48
 90
       50
102
RTVSPost2010PropOp48
 70
     1
102
RTVSPost2010Prop49
280
     0
102
RTVSPost2010PropOp49
 70
     1
102
RTVSPost2010Prop50
 90
       50
102
RTVSPost2010PropOp50
 70
     1
102
RTVSPost2010Prop51ColorIndex
 90
      256
102
RTVSPost2010Prop51ColorRGB
 90
-16777216
102
RTVSPost2010PropOp51
 70
     0
102
RTVSPost2010Prop52
140
1.0
102
RTVSPost2010PropOp52
 70
     0
102
RTVSPost2010Prop53
 90
        2
102
RTVSPost2010PropOp53
 70
     1
102
RTVSPost2010Prop54
  1
strokes_ogs.tif
102
RTVSPost2010PropOp54
 70
     1
102
RTVSPost2010Prop55
280
     0
102
RTVSPost2010PropOp55
 70
     1
102
RTVSPost2010Prop56
140
1.0
102
RTVSPost2010PropOp56
 70
     1
102
RTVSPost2010Prop57
140
1.0
102
RTVSPost2010PropOp57
 70
     1
  0
XRECORD
  5
1E9
102
{ACAD_REACTORS
330
1E8
102
}
330
1E8
100
AcDbXrecord
280
     1
102
RTVSPost2010Prop28
280
     0
102
RTVSPost2010PropOp28
 70
     1
102
RTVSPost2010Prop29
280
     1
102
RTVSPost2010PropOp29
 70
     1
102
RTVSPost2010Prop30
280
     1
102
RTVSPost2010PropOp30
 70
     1
102
RTVSPost2010Prop31
280
     0
102
RTVSPost2010PropOp31
 70
     1
102
RTVSPost2010Prop32
280
     0
102
RTVSPost2010PropOp32
 70
     1
102
RTVSPost2010Prop33
280
     0
102
RTVSPost2010PropOp33
 70
     1
102
RTVSPost2010Prop34
280
     0
102
RTVSPost2010PropOp34
 70
     1
102
RTVSPost2010Prop35
280
     0
102
RTVSPost2010PropOp35
 70
     1
102
RTVSPost2010Prop36
280
     0
102
RTVSPost2010PropOp36
 70
     1
102
RTVSPost2010Prop37
 90
       50
102
RTVSPost2010PropOp37
 70
     1
102
RTVSPost2010Prop38
140
0.0
102
RTVSPost2010PropOp38
 70
     1
102
RTVSPost2010Prop39
140
1.0
102
RTVSPost2010PropOp39
 70
     1
102
RTVSPost2010Prop40
 90
        0
102
RTVSPost2010PropOp40
 70
     1
102
RTVSPost2010Prop41ColorIndex
 90
       18
102
RTVSPost2010Prop41ColorRGB
 90
        0
102
RTVSPost2010PropOp41
 70
     1
102
RTVSPost2010Prop42
 90
       50
102
RTVSPost2010PropOp42
 70
     1
102
RTVSPost2010Prop43
 90
        3
102
RTVSPost2010PropOp43
 70
     1
102
RTVSPost2010Prop44ColorIndex
 90
        5
102
RTVSPost2010Prop44ColorRGB
 90
      255
102
RTVSPost2010PropOp44
 70
     1
102
RTVSPost2010Prop45
280
     0
102
RTVSPost2010PropOp45
 70
     1
102
RTVSPost2010Prop46
 90
       50
102
RTVSPost2010PropOp46
 70
     1
102
RTVSPost2010Prop47
 90
       50
102
RTVSPost2010PropOp47
 70
     1
102
RTVSPost2010Prop48
 90
       50
102
RTVSPost2010PropOp48
 70
     1
102
RTVSPost2010Prop49
280
     0
102
RTVSPost2010PropOp49
 70
     1
102
RTVSPost2010Prop50
 90
       50
102
RTVSPost2010PropOp50
 70
     1
102
RTVSPost2010Prop51ColorIndex
 90
      256
102
RTVSPost2010Prop51ColorRGB
 90
-16777216
102
RTVSPost2010PropOp51
 70
     0
102
RTVSPost2010Prop52
140
1.0
102
RTVSPost2010PropOp52
 70
     0
102
RTVSPost2010Prop53
 90
        2
102
RTVSPost2010PropOp53
 70
     1
102
RTVSPost2010Prop54
  1
strokes_ogs.tif
102
RTVSPost2010PropOp54
 70
     1
102
RTVSPost2010Prop55
280
     0
102
RTVSPost2010PropOp55
 70
     1
102
RTVSPost2010Prop56
140
1.0
102
RTVSPost2010PropOp56
 70
     1
102
RTVSPost2010Prop57
140
1.0
102
RTVSPost2010PropOp57
 70
     1
  0
XRECORD
  5
1EF
102
{ACAD_REACTORS
330
1EE
102
}
330
1EE
100
AcDbXrecord
280
     1
102
RTVSPost2010Prop28
280
     0
102
RTVSPost2010PropOp28
 70
     1
102
RTVSPost2010Prop29
280
     1
102
RTVSPost2010PropOp29
 70
     1
102
RTVSPost2010Prop30
280
     1
102
RTVSPost2010PropOp30
 70
     1
102
RTVSPost2010Prop31
280
     0
102
RTVSPost2010PropOp31
 70
     1
102
RTVSPost2010Prop32
280
     0
102
RTVSPost2010PropOp32
 70
     1
102
RTVSPost2010Prop33
280
     0
102
RTVSPost2010PropOp33
 70
     1
102
RTVSPost2010Prop34
280
     0
102
RTVSPost2010PropOp34
 70
     1
102
RTVSPost2010Prop35
280
     0
102
RTVSPost2010PropOp35
 70
     1
102
RTVSPost2010Prop36
280
     0
102
RTVSPost2010PropOp36
 70
     1
102
RTVSPost2010Prop37
 90
       50
102
RTVSPost2010PropOp37
 70
     1
102
RTVSPost2010Prop38
140
0.0
102
RTVSPost2010PropOp38
 70
     1
102
RTVSPost2010Prop39
140
1.0
102
RTVSPost2010PropOp39
 70
     1
102
RTVSPost2010Prop40
 90
        0
102
RTVSPost2010PropOp40
 70
     1
102
RTVSPost2010Prop41ColorIndex
 90
       18
102
RTVSPost2010Prop41ColorRGB
 90
        0
102
RTVSPost2010PropOp41
 70
     1
102
RTVSPost2010Prop42
 90
       50
102
RTVSPost2010PropOp42
 70
     1
102
RTVSPost2010Prop43
 90
        3
102
RTVSPost2010PropOp43
 70
     1
102
RTVSPost2010Prop44ColorIndex
 90
        5
102
RTVSPost2010Prop44ColorRGB
 90
      255
102
RTVSPost2010PropOp44
 70
     1
102
RTVSPost2010Prop45
280
     0
102
RTVSPost2010PropOp45
 70
     1
102
RTVSPost2010Prop46
 90
       50
102
RTVSPost2010PropOp46
 70
     1
102
RTVSPost2010Prop47
 90
       50
102
RTVSPost2010PropOp47
 70
     1
102
RTVSPost2010Prop48
 90
       50
102
RTVSPost2010PropOp48
 70
     1
102
RTVSPost2010Prop49
280
     0
102
RTVSPost2010PropOp49
 70
     1
102
RTVSPost2010Prop50
 90
       50
102
RTVSPost2010PropOp50
 70
     1
102
RTVSPost2010Prop51ColorIndex
 90
      256
102
RTVSPost2010Prop51ColorRGB
 90
-16777216
102
RTVSPost2010PropOp51
 70
     0
102
RTVSPost2010Prop52
140
1.0
102
RTVSPost2010PropOp52
 70
     0
102
RTVSPost2010Prop53
 90
        2
102
RTVSPost2010PropOp53
 70
     1
102
RTVSPost2010Prop54
  1
strokes_ogs.tif
102
RTVSPost2010PropOp54
 70
     1
102
RTVSPost2010Prop55
280
     0
102
RTVSPost2010PropOp55
 70
     1
102
RTVSPost2010Prop56
140
1.0
102
RTVSPost2010PropOp56
 70
     1
102
RTVSPost2010Prop57
140
1.0
102
RTVSPost2010PropOp57
 70
     1
  0
XRECORD
  5
203
102
{ACAD_REACTORS
330
202
102
}
330
202
100
AcDbXrecord
280
     1
102
RTVSPost2010Prop28
280
     0
102
RTVSPost2010PropOp28
 70
     0
102
RTVSPost2010Prop29
280
     1
102
RTVSPost2010PropOp29
 70
     0
102
RTVSPost2010Prop30
280
     1
102
RTVSPost2010PropOp30
 70
     0
102
RTVSPost2010Prop31
280
     0
102
RTVSPost2010PropOp31
 70
     0
102
RTVSPost2010Prop32
280
     0
102
RTVSPost2010PropOp32
 70
     0
102
RTVSPost2010Prop33
280
     0
102
RTVSPost2010PropOp33
 70
     0
102
RTVSPost2010Prop34
280
     0
102
RTVSPost2010PropOp34
 70
     0
102
RTVSPost2010Prop35
280
     0
102
RTVSPost2010PropOp35
 70
     0
102
RTVSPost2010Prop36
280
     0
102
RTVSPost2010PropOp36
 70
     0
102
RTVSPost2010Prop37
 90
       50
102
RTVSPost2010PropOp37
 70
     0
102
RTVSPost2010Prop38
140
0.0
102
RTVSPost2010PropOp38
 70
     0
102
RTVSPost2010Prop39
140
1.0
102
RTVSPost2010PropOp39
 70
     0
102
RTVSPost2010Prop40
 90
        0
102
RTVSPost2010PropOp40
 70
     0
102
RTVSPost2010Prop41ColorIndex
 90
       18
102
RTVSPost2010Prop41ColorRGB
 90
        0
102
RTVSPost2010PropOp41
 70
     0
102
RTVSPost2010Prop42
 90
       50
102
RTVSPost2010PropOp42
 70
     0
102
RTVSPost2010Prop43
 90
        3
102
RTVSPost2010PropOp43
 70
     0
102
RTVSPost2010Prop44ColorIndex
 90
        5
102
RTVSPost2010Prop44ColorRGB
 90
      255
102
RTVSPost2010PropOp44
 70
     0
102
RTVSPost2010Prop45
280
     0
102
RTVSPost2010PropOp45
 70
     0
102
RTVSPost2010Prop46
 90
       50
102
RTVSPost2010PropOp46
 70
     0
102
RTVSPost2010Prop47
 90
       50
102
RTVSPost2010PropOp47
 70
     0
102
RTVSPost2010Prop48
 90
       50
102
RTVSPost2010PropOp48
 70
     0
102
RTVSPost2010Prop49
280
     0
102
RTVSPost2010PropOp49
 70
     0
102
RTVSPost2010Prop50
 90
       50
102
RTVSPost2010PropOp50
 70
     0
102
RTVSPost2010Prop51ColorIndex
 90
      256
102
RTVSPost2010Prop51ColorRGB
 90
-16777216
102
RTVSPost2010PropOp51
 70
     0
102
RTVSPost2010Prop52
140
1.0
102
RTVSPost2010PropOp52
 70
     0
102
RTVSPost2010Prop53
 90
        2
102
RTVSPost2010PropOp53
 70
     0
102
RTVSPost2010Prop54
  1
strokes_ogs.tif
102
RTVSPost2010PropOp54
 70
     0
102
RTVSPost2010Prop55
280
     0
102
RTVSPost2010PropOp55
 70
     0
102
RTVSPost2010Prop56
140
1.0
102
RTVSPost2010PropOp56
 70
     0
102
RTVSPost2010Prop57
140
1.0
102
RTVSPost2010PropOp57
 70
     0
  0
XRECORD
  5
1FD
102
{ACAD_REACTORS
330
1FC
102
}
330
1FC
100
AcDbXrecord
280
     1
102
RTVSPost2010Prop28
280
     0
102
RTVSPost2010PropOp28
 70
     1
102
RTVSPost2010Prop29
280
     1
102
RTVSPost2010PropOp29
 70
     1
102
RTVSPost2010Prop30
280
     1
102
RTVSPost2010PropOp30
 70
     1
102
RTVSPost2010Prop31
280
     0
102
RTVSPost2010PropOp31
 70
     1
102
RTVSPost2010Prop32
280
     0
102
RTVSPost2010PropOp32
 70
     1
102
RTVSPost2010Prop33
280
     0
102
RTVSPost2010PropOp33
 70
     1
102
RTVSPost2010Prop34
280
     0
102
RTVSPost2010PropOp34
 70
     1
102
RTVSPost2010Prop35
280
     0
102
RTVSPost2010PropOp35
 70
     1
102
RTVSPost2010Prop36
280
     0
102
RTVSPost2010PropOp36
 70
     1
102
RTVSPost2010Prop37
 90
       50
102
RTVSPost2010PropOp37
 70
     1
102
RTVSPost2010Prop38
140
0.0
102
RTVSPost2010PropOp38
 70
     1
102
RTVSPost2010Prop39
140
1.0
102
RTVSPost2010PropOp39
 70
     1
102
RTVSPost2010Prop40
 90
        0
102
RTVSPost2010PropOp40
 70
     1
102
RTVSPost2010Prop41ColorIndex
 90
       18
102
RTVSPost2010Prop41ColorRGB
 90
        0
102
RTVSPost2010PropOp41
 70
     1
102
RTVSPost2010Prop42
 90
       50
102
RTVSPost2010PropOp42
 70
     1
102
RTVSPost2010Prop43
 90
        3
102
RTVSPost2010PropOp43
 70
     1
102
RTVSPost2010Prop44ColorIndex
 90
        5
102
RTVSPost2010Prop44ColorRGB
 90
      255
102
RTVSPost2010PropOp44
 70
     1
102
RTVSPost2010Prop45
280
     0
102
RTVSPost2010PropOp45
 70
     1
102
RTVSPost2010Prop46
 90
       50
102
RTVSPost2010PropOp46
 70
     1
102
RTVSPost2010Prop47
 90
       50
102
RTVSPost2010PropOp47
 70
     1
102
RTVSPost2010Prop48
 90
       50
102
RTVSPost2010PropOp48
 70
     1
102
RTVSPost2010Prop49
280
     0
102
RTVSPost2010PropOp49
 70
     1
102
RTVSPost2010Prop50
 90
       50
102
RTVSPost2010PropOp50
 70
     1
102
RTVSPost2010Prop51ColorIndex
 90
      256
102
RTVSPost2010Prop51ColorRGB
 90
-16777216
102
RTVSPost2010PropOp51
 70
     0
102
RTVSPost2010Prop52
140
1.0
102
RTVSPost2010PropOp52
 70
     0
102
RTVSPost2010Prop53
 90
        2
102
RTVSPost2010PropOp53
 70
     1
102
RTVSPost2010Prop54
  1
strokes_ogs.tif
102
RTVSPost2010PropOp54
 70
     1
102
RTVSPost2010Prop55
280
     0
102
RTVSPost2010PropOp55
 70
     1
102
RTVSPost2010Prop56
140
1.0
102
RTVSPost2010PropOp56
 70
     1
102
RTVSPost2010Prop57
140
1.0
102
RTVSPost2010PropOp57
 70
     1
  0
XRECORD
  5
205
102
{ACAD_REACTORS
330
204
102
}
330
204
100
AcDbXrecord
280
     1
102
RTVSPost2010Prop28
280
     0
102
RTVSPost2010PropOp28
 70
     0
102
RTVSPost2010Prop29
280
     1
102
RTVSPost2010PropOp29
 70
     0
102
RTVSPost2010Prop30
280
     1
102
RTVSPost2010PropOp30
 70
     0
102
RTVSPost2010Prop31
280
     0
102
RTVSPost2010PropOp31
 70
     0
102
RTVSPost2010Prop32
280
     0
102
RTVSPost2010PropOp32
 70
     0
102
RTVSPost2010Prop33
280
     0
102
RTVSPost2010PropOp33
 70
     0
102
RTVSPost2010Prop34
280
     0
102
RTVSPost2010PropOp34
 70
     0
102
RTVSPost2010Prop35
280
     0
102
RTVSPost2010PropOp35
 70
     0
102
RTVSPost2010Prop36
280
     0
102
RTVSPost2010PropOp36
 70
     0
102
RTVSPost2010Prop37
 90
       50
102
RTVSPost2010PropOp37
 70
     0
102
RTVSPost2010Prop38
140
0.0
102
RTVSPost2010PropOp38
 70
     0
102
RTVSPost2010Prop39
140
1.0
102
RTVSPost2010PropOp39
 70
     0
102
RTVSPost2010Prop40
 90
        0
102
RTVSPost2010PropOp40
 70
     0
102
RTVSPost2010Prop41ColorIndex
 90
       18
102
RTVSPost2010Prop41ColorRGB
 90
        0
102
RTVSPost2010PropOp41
 70
     0
102
RTVSPost2010Prop42
 90
       50
102
RTVSPost2010PropOp42
 70
     0
102
RTVSPost2010Prop43
 90
        3
102
RTVSPost2010PropOp43
 70
     0
102
RTVSPost2010Prop44ColorIndex
 90
        5
102
RTVSPost2010Prop44ColorRGB
 90
      255
102
RTVSPost2010PropOp44
 70
     0
102
RTVSPost2010Prop45
280
     0
102
RTVSPost2010PropOp45
 70
     0
102
RTVSPost2010Prop46
 90
       50
102
RTVSPost2010PropOp46
 70
     0
102
RTVSPost2010Prop47
 90
       50
102
RTVSPost2010PropOp47
 70
     0
102
RTVSPost2010Prop48
 90
       50
102
RTVSPost2010PropOp48
 70
     0
102
RTVSPost2010Prop49
280
     0
102
RTVSPost2010PropOp49
 70
     0
102
RTVSPost2010Prop50
 90
       50
102
RTVSPost2010PropOp50
 70
     0
102
RTVSPost2010Prop51ColorIndex
 90
      256
102
RTVSPost2010Prop51ColorRGB
 90
-16777216
102
RTVSPost2010PropOp51
 70
     0
102
RTVSPost2010Prop52
140
1.0
102
RTVSPost2010PropOp52
 70
     0
102
RTVSPost2010Prop53
 90
        2
102
RTVSPost2010PropOp53
 70
     0
102
RTVSPost2010Prop54
  1
strokes_ogs.tif
102
RTVSPost2010PropOp54
 70
     0
102
RTVSPost2010Prop55
280
     0
102
RTVSPost2010PropOp55
 70
     0
102
RTVSPost2010Prop56
140
1.0
102
RTVSPost2010PropOp56
 70
     0
102
RTVSPost2010Prop57
140
1.0
102
RTVSPost2010PropOp57
 70
     0
  0
XRECORD
  5
1F3
102
{ACAD_REACTORS
330
1F2
102
}
330
1F2
100
AcDbXrecord
280
     1
102
RTVSPost2010Prop28
280
     0
102
RTVSPost2010PropOp28
 70
     1
102
RTVSPost2010Prop29
280
     1
102
RTVSPost2010PropOp29
 70
     1
102
RTVSPost2010Prop30
280
     1
102
RTVSPost2010PropOp30
 70
     1
102
RTVSPost2010Prop31
280
     0
102
RTVSPost2010PropOp31
 70
     1
102
RTVSPost2010Prop32
280
     0
102
RTVSPost2010PropOp32
 70
     1
102
RTVSPost2010Prop33
280
     0
102
RTVSPost2010PropOp33
 70
     1
102
RTVSPost2010Prop34
280
     0
102
RTVSPost2010PropOp34
 70
     1
102
RTVSPost2010Prop35
280
     0
102
RTVSPost2010PropOp35
 70
     1
102
RTVSPost2010Prop36
280
     0
102
RTVSPost2010PropOp36
 70
     1
102
RTVSPost2010Prop37
 90
       50
102
RTVSPost2010PropOp37
 70
     1
102
RTVSPost2010Prop38
140
0.0
102
RTVSPost2010PropOp38
 70
     1
102
RTVSPost2010Prop39
140
1.0
102
RTVSPost2010PropOp39
 70
     1
102
RTVSPost2010Prop40
 90
        0
102
RTVSPost2010PropOp40
 70
     1
102
RTVSPost2010Prop41ColorIndex
 90
       18
102
RTVSPost2010Prop41ColorRGB
 90
        0
102
RTVSPost2010PropOp41
 70
     1
102
RTVSPost2010Prop42
 90
       50
102
RTVSPost2010PropOp42
 70
     1
102
RTVSPost2010Prop43
 90
        3
102
RTVSPost2010PropOp43
 70
     1
102
RTVSPost2010Prop44ColorIndex
 90
        5
102
RTVSPost2010Prop44ColorRGB
 90
      255
102
RTVSPost2010PropOp44
 70
     1
102
RTVSPost2010Prop45
280
     0
102
RTVSPost2010PropOp45
 70
     1
102
RTVSPost2010Prop46
 90
       50
102
RTVSPost2010PropOp46
 70
     1
102
RTVSPost2010Prop47
 90
       50
102
RTVSPost2010PropOp47
 70
     1
102
RTVSPost2010Prop48
 90
       50
102
RTVSPost2010PropOp48
 70
     1
102
RTVSPost2010Prop49
280
     0
102
RTVSPost2010PropOp49
 70
     1
102
RTVSPost2010Prop50
 90
       50
102
RTVSPost2010PropOp50
 70
     1
102
RTVSPost2010Prop51ColorIndex
 90
      256
102
RTVSPost2010Prop51ColorRGB
 90
-16777216
102
RTVSPost2010PropOp51
 70
     0
102
RTVSPost2010Prop52
140
1.0
102
RTVSPost2010PropOp52
 70
     0
102
RTVSPost2010Prop53
 90
        2
102
RTVSPost2010PropOp53
 70
     1
102
RTVSPost2010Prop54
  1
strokes_ogs.tif
102
RTVSPost2010PropOp54
 70
     1
102
RTVSPost2010Prop55
280
     0
102
RTVSPost2010PropOp55
 70
     1
102
RTVSPost2010Prop56
140
1.0
102
RTVSPost2010PropOp56
 70
     1
102
RTVSPost2010Prop57
140
1.0
102
RTVSPost2010PropOp57
 70
     1
  0
XRECORD
  5
211
102
{ACAD_REACTORS
330
210
102
}
330
210
100
AcDbXrecord
280
     1
102
RTVSPost2010Prop28
280
     0
102
RTVSPost2010PropOp28
 70
     1
102
RTVSPost2010Prop29
280
     1
102
RTVSPost2010PropOp29
 70
     1
102
RTVSPost2010Prop30
280
     1
102
RTVSPost2010PropOp30
 70
     1
102
RTVSPost2010Prop31
280
     0
102
RTVSPost2010PropOp31
 70
     1
102
RTVSPost2010Prop32
280
     0
102
RTVSPost2010PropOp32
 70
     1
102
RTVSPost2010Prop33
280
     0
102
RTVSPost2010PropOp33
 70
     1
102
RTVSPost2010Prop34
280
     0
102
RTVSPost2010PropOp34
 70
     1
102
RTVSPost2010Prop35
280
     0
102
RTVSPost2010PropOp35
 70
     1
102
RTVSPost2010Prop36
280
     0
102
RTVSPost2010PropOp36
 70
     1
102
RTVSPost2010Prop37
 90
       50
102
RTVSPost2010PropOp37
 70
     1
102
RTVSPost2010Prop38
140
0.0
102
RTVSPost2010PropOp38
 70
     1
102
RTVSPost2010Prop39
140
1.0
102
RTVSPost2010PropOp39
 70
     1
102
RTVSPost2010Prop40
 90
        0
102
RTVSPost2010PropOp40
 70
     1
102
RTVSPost2010Prop41ColorIndex
 90
       18
102
RTVSPost2010Prop41ColorRGB
 90
        0
102
RTVSPost2010PropOp41
 70
     1
102
RTVSPost2010Prop42
 90
       50
102
RTVSPost2010PropOp42
 70
     1
102
RTVSPost2010Prop43
 90
        3
102
RTVSPost2010PropOp43
 70
     1
102
RTVSPost2010Prop44ColorIndex
 90
        5
102
RTVSPost2010Prop44ColorRGB
 90
      255
102
RTVSPost2010PropOp44
 70
     1
102
RTVSPost2010Prop45
280
     0
102
RTVSPost2010PropOp45
 70
     1
102
RTVSPost2010Prop46
 90
       50
102
RTVSPost2010PropOp46
 70
     1
102
RTVSPost2010Prop47
 90
       50
102
RTVSPost2010PropOp47
 70
     1
102
RTVSPost2010Prop48
 90
       50
102
RTVSPost2010PropOp48
 70
     1
102
RTVSPost2010Prop49
280
     0
102
RTVSPost2010PropOp49
 70
     1
102
RTVSPost2010Prop50
 90
       50
102
RTVSPost2010PropOp50
 70
     1
102
RTVSPost2010Prop51ColorIndex
 90
      256
102
RTVSPost2010Prop51ColorRGB
 90
-16777216
102
RTVSPost2010PropOp51
 70
     0
102
RTVSPost2010Prop52
140
1.0
102
RTVSPost2010PropOp52
 70
     0
102
RTVSPost2010Prop53
 90
        2
102
RTVSPost2010PropOp53
 70
     1
102
RTVSPost2010Prop54
  1
strokes_ogs.tif
102
RTVSPost2010PropOp54
 70
     1
102
RTVSPost2010Prop55
280
     0
102
RTVSPost2010PropOp55
 70
     1
102
RTVSPost2010Prop56
140
1.0
102
RTVSPost2010PropOp56
 70
     1
102
RTVSPost2010Prop57
140
1.0
102
RTVSPost2010PropOp57
 70
     1
  0
XRECORD
  5
20F
102
{ACAD_REACTORS
330
20E
102
}
330
20E
100
AcDbXrecord
280
     1
102
RTVSPost2010Prop28
280
     0
102
RTVSPost2010PropOp28
 70
     1
102
RTVSPost2010Prop29
280
     1
102
RTVSPost2010PropOp29
 70
     1
102
RTVSPost2010Prop30
280
     1
102
RTVSPost2010PropOp30
 70
     1
102
RTVSPost2010Prop31
280
     0
102
RTVSPost2010PropOp31
 70
     1
102
RTVSPost2010Prop32
280
     0
102
RTVSPost2010PropOp32
 70
     1
102
RTVSPost2010Prop33
280
     0
102
RTVSPost2010PropOp33
 70
     1
102
RTVSPost2010Prop34
280
     0
102
RTVSPost2010PropOp34
 70
     1
102
RTVSPost2010Prop35
280
     0
102
RTVSPost2010PropOp35
 70
     1
102
RTVSPost2010Prop36
280
     0
102
RTVSPost2010PropOp36
 70
     1
102
RTVSPost2010Prop37
 90
       50
102
RTVSPost2010PropOp37
 70
     1
102
RTVSPost2010Prop38
140
0.0
102
RTVSPost2010PropOp38
 70
     1
102
RTVSPost2010Prop39
140
1.0
102
RTVSPost2010PropOp39
 70
     1
102
RTVSPost2010Prop40
 90
        0
102
RTVSPost2010PropOp40
 70
     1
102
RTVSPost2010Prop41ColorIndex
 90
       18
102
RTVSPost2010Prop41ColorRGB
 90
        0
102
RTVSPost2010PropOp41
 70
     1
102
RTVSPost2010Prop42
 90
       50
102
RTVSPost2010PropOp42
 70
     1
102
RTVSPost2010Prop43
 90
        3
102
RTVSPost2010PropOp43
 70
     1
102
RTVSPost2010Prop44ColorIndex
 90
        5
102
RTVSPost2010Prop44ColorRGB
 90
      255
102
RTVSPost2010PropOp44
 70
     1
102
RTVSPost2010Prop45
280
     0
102
RTVSPost2010PropOp45
 70
     1
102
RTVSPost2010Prop46
 90
       50
102
RTVSPost2010PropOp46
 70
     1
102
RTVSPost2010Prop47
 90
       50
102
RTVSPost2010PropOp47
 70
     1
102
RTVSPost2010Prop48
 90
       50
102
RTVSPost2010PropOp48
 70
     1
102
RTVSPost2010Prop49
280
     0
102
RTVSPost2010PropOp49
 70
     1
102
RTVSPost2010Prop50
 90
       50
102
RTVSPost2010PropOp50
 70
     1
102
RTVSPost2010Prop51ColorIndex
 90
      256
102
RTVSPost2010Prop51ColorRGB
 90
-16777216
102
RTVSPost2010PropOp51
 70
     0
102
RTVSPost2010Prop52
140
1.0
102
RTVSPost2010PropOp52
 70
     0
102
RTVSPost2010Prop53
 90
        2
102
RTVSPost2010PropOp53
 70
     1
102
RTVSPost2010Prop54
  1
strokes_ogs.tif
102
RTVSPost2010PropOp54
 70
     1
102
RTVSPost2010Prop55
280
     0
102
RTVSPost2010PropOp55
 70
     1
102
RTVSPost2010Prop56
140
1.0
102
RTVSPost2010PropOp56
 70
     1
102
RTVSPost2010Prop57
140
1.0
102
RTVSPost2010PropOp57
 70
     1
  0
XRECORD
  5
209
102
{ACAD_REACTORS
330
208
102
}
330
208
100
AcDbXrecord
280
     1
102
RTVSPost2010Prop28
280
     0
102
RTVSPost2010PropOp28
 70
     1
102
RTVSPost2010Prop29
280
     1
102
RTVSPost2010PropOp29
 70
     1
102
RTVSPost2010Prop30
280
     1
102
RTVSPost2010PropOp30
 70
     1
102
RTVSPost2010Prop31
280
     0
102
RTVSPost2010PropOp31
 70
     1
102
RTVSPost2010Prop32
280
     0
102
RTVSPost2010PropOp32
 70
     1
102
RTVSPost2010Prop33
280
     0
102
RTVSPost2010PropOp33
 70
     1
102
RTVSPost2010Prop34
280
     0
102
RTVSPost2010PropOp34
 70
     1
102
RTVSPost2010Prop35
280
     0
102
RTVSPost2010PropOp35
 70
     1
102
RTVSPost2010Prop36
280
     0
102
RTVSPost2010PropOp36
 70
     1
102
RTVSPost2010Prop37
 90
       50
102
RTVSPost2010PropOp37
 70
     1
102
RTVSPost2010Prop38
140
0.0
102
RTVSPost2010PropOp38
 70
     1
102
RTVSPost2010Prop39
140
1.0
102
RTVSPost2010PropOp39
 70
     1
102
RTVSPost2010Prop40
 90
        0
102
RTVSPost2010PropOp40
 70
     1
102
RTVSPost2010Prop41ColorIndex
 90
       18
102
RTVSPost2010Prop41ColorRGB
 90
        0
102
RTVSPost2010PropOp41
 70
     1
102
RTVSPost2010Prop42
 90
       50
102
RTVSPost2010PropOp42
 70
     1
102
RTVSPost2010Prop43
 90
        3
102
RTVSPost2010PropOp43
 70
     1
102
RTVSPost2010Prop44ColorIndex
 90
        5
102
RTVSPost2010Prop44ColorRGB
 90
      255
102
RTVSPost2010PropOp44
 70
     1
102
RTVSPost2010Prop45
280
     0
102
RTVSPost2010PropOp45
 70
     1
102
RTVSPost2010Prop46
 90
       50
102
RTVSPost2010PropOp46
 70
     1
102
RTVSPost2010Prop47
 90
       50
102
RTVSPost2010PropOp47
 70
     1
102
RTVSPost2010Prop48
 90
       50
102
RTVSPost2010PropOp48
 70
     1
102
RTVSPost2010Prop49
280
     0
102
RTVSPost2010PropOp49
 70
     1
102
RTVSPost2010Prop50
 90
       50
102
RTVSPost2010PropOp50
 70
     1
102
RTVSPost2010Prop51ColorIndex
 90
      256
102
RTVSPost2010Prop51ColorRGB
 90
-16777216
102
RTVSPost2010PropOp51
 70
     0
102
RTVSPost2010Prop52
140
1.0
102
RTVSPost2010PropOp52
 70
     0
102
RTVSPost2010Prop53
 90
        2
102
RTVSPost2010PropOp53
 70
     1
102
RTVSPost2010Prop54
  1
strokes_ogs.tif
102
RTVSPost2010PropOp54
 70
     1
102
RTVSPost2010Prop55
280
     0
102
RTVSPost2010PropOp55
 70
     1
102
RTVSPost2010Prop56
140
1.0
102
RTVSPost2010PropOp56
 70
     1
102
RTVSPost2010Prop57
140
1.0
102
RTVSPost2010PropOp57
 70
     1
  0
XRECORD
  5
20B
102
{ACAD_REACTORS
330
20A
102
}
330
20A
100
AcDbXrecord
280
     1
102
RTVSPost2010Prop28
280
     0
102
RTVSPost2010PropOp28
 70
     1
102
RTVSPost2010Prop29
280
     1
102
RTVSPost2010PropOp29
 70
     1
102
RTVSPost2010Prop30
280
     1
102
RTVSPost2010PropOp30
 70
     1
102
RTVSPost2010Prop31
280
     0
102
RTVSPost2010PropOp31
 70
     1
102
RTVSPost2010Prop32
280
     0
102
RTVSPost2010PropOp32
 70
     1
102
RTVSPost2010Prop33
280
     0
102
RTVSPost2010PropOp33
 70
     1
102
RTVSPost2010Prop34
280
     0
102
RTVSPost2010PropOp34
 70
     1
102
RTVSPost2010Prop35
280
     0
102
RTVSPost2010PropOp35
 70
     1
102
RTVSPost2010Prop36
280
     0
102
RTVSPost2010PropOp36
 70
     1
102
RTVSPost2010Prop37
 90
       50
102
RTVSPost2010PropOp37
 70
     1
102
RTVSPost2010Prop38
140
0.0
102
RTVSPost2010PropOp38
 70
     1
102
RTVSPost2010Prop39
140
1.0
102
RTVSPost2010PropOp39
 70
     1
102
RTVSPost2010Prop40
 90
        0
102
RTVSPost2010PropOp40
 70
     1
102
RTVSPost2010Prop41ColorIndex
 90
       18
102
RTVSPost2010Prop41ColorRGB
 90
        0
102
RTVSPost2010PropOp41
 70
     1
102
RTVSPost2010Prop42
 90
       50
102
RTVSPost2010PropOp42
 70
     1
102
RTVSPost2010Prop43
 90
        3
102
RTVSPost2010PropOp43
 70
     1
102
RTVSPost2010Prop44ColorIndex
 90
        5
102
RTVSPost2010Prop44ColorRGB
 90
      255
102
RTVSPost2010PropOp44
 70
     1
102
RTVSPost2010Prop45
280
     0
102
RTVSPost2010PropOp45
 70
     1
102
RTVSPost2010Prop46
 90
       50
102
RTVSPost2010PropOp46
 70
     1
102
RTVSPost2010Prop47
 90
       50
102
RTVSPost2010PropOp47
 70
     1
102
RTVSPost2010Prop48
 90
       50
102
RTVSPost2010PropOp48
 70
     1
102
RTVSPost2010Prop49
280
     0
102
RTVSPost2010PropOp49
 70
     1
102
RTVSPost2010Prop50
 90
       50
102
RTVSPost2010PropOp50
 70
     1
102
RTVSPost2010Prop51ColorIndex
 90
      256
102
RTVSPost2010Prop51ColorRGB
 90
-16777216
102
RTVSPost2010PropOp51
 70
     0
102
RTVSPost2010Prop52
140
1.0
102
RTVSPost2010PropOp52
 70
     0
102
RTVSPost2010Prop53
 90
        2
102
RTVSPost2010PropOp53
 70
     1
102
RTVSPost2010Prop54
  1
strokes_ogs.tif
102
RTVSPost2010PropOp54
 70
     1
102
RTVSPost2010Prop55
280
     0
102
RTVSPost2010PropOp55
 70
     1
102
RTVSPost2010Prop56
140
1.0
102
RTVSPost2010PropOp56
 70
     1
102
RTVSPost2010Prop57
140
1.0
102
RTVSPost2010PropOp57
 70
     1
  0
XRECORD
  5
1FB
102
{ACAD_REACTORS
330
1FA
102
}
330
1FA
100
AcDbXrecord
280
     1
102
RTVSPost2010Prop28
280
     0
102
RTVSPost2010PropOp28
 70
     1
102
RTVSPost2010Prop29
280
     1
102
RTVSPost2010PropOp29
 70
     1
102
RTVSPost2010Prop30
280
     1
102
RTVSPost2010PropOp30
 70
     1
102
RTVSPost2010Prop31
280
     0
102
RTVSPost2010PropOp31
 70
     1
102
RTVSPost2010Prop32
280
     0
102
RTVSPost2010PropOp32
 70
     1
102
RTVSPost2010Prop33
280
     0
102
RTVSPost2010PropOp33
 70
     1
102
RTVSPost2010Prop34
280
     0
102
RTVSPost2010PropOp34
 70
     1
102
RTVSPost2010Prop35
280
     0
102
RTVSPost2010PropOp35
 70
     1
102
RTVSPost2010Prop36
280
     0
102
RTVSPost2010PropOp36
 70
     1
102
RTVSPost2010Prop37
 90
       50
102
RTVSPost2010PropOp37
 70
     1
102
RTVSPost2010Prop38
140
0.0
102
RTVSPost2010PropOp38
 70
     1
102
RTVSPost2010Prop39
140
1.0
102
RTVSPost2010PropOp39
 70
     1
102
RTVSPost2010Prop40
 90
        0
102
RTVSPost2010PropOp40
 70
     1
102
RTVSPost2010Prop41ColorIndex
 90
       18
102
RTVSPost2010Prop41ColorRGB
 90
        0
102
RTVSPost2010PropOp41
 70
     1
102
RTVSPost2010Prop42
 90
       50
102
RTVSPost2010PropOp42
 70
     1
102
RTVSPost2010Prop43
 90
        3
102
RTVSPost2010PropOp43
 70
     1
102
RTVSPost2010Prop44ColorIndex
 90
        5
102
RTVSPost2010Prop44ColorRGB
 90
      255
102
RTVSPost2010PropOp44
 70
     1
102
RTVSPost2010Prop45
280
     0
102
RTVSPost2010PropOp45
 70
     1
102
RTVSPost2010Prop46
 90
       50
102
RTVSPost2010PropOp46
 70
     1
102
RTVSPost2010Prop47
 90
       50
102
RTVSPost2010PropOp47
 70
     1
102
RTVSPost2010Prop48
 90
       50
102
RTVSPost2010PropOp48
 70
     1
102
RTVSPost2010Prop49
280
     0
102
RTVSPost2010PropOp49
 70
     1
102
RTVSPost2010Prop50
 90
       50
102
RTVSPost2010PropOp50
 70
     1
102
RTVSPost2010Prop51ColorIndex
 90
      256
102
RTVSPost2010Prop51ColorRGB
 90
-16777216
102
RTVSPost2010PropOp51
 70
     0
102
RTVSPost2010Prop52
140
1.0
102
RTVSPost2010PropOp52
 70
     0
102
RTVSPost2010Prop53
 90
        2
102
RTVSPost2010PropOp53
 70
     1
102
RTVSPost2010Prop54
  1
strokes_ogs.tif
102
RTVSPost2010PropOp54
 70
     1
102
RTVSPost2010Prop55
280
     0
102
RTVSPost2010PropOp55
 70
     1
102
RTVSPost2010Prop56
140
1.0
102
RTVSPost2010PropOp56
 70
     1
102
RTVSPost2010Prop57
140
1.0
102
RTVSPost2010PropOp57
 70
     1
  0
XRECORD
  5
1ED
102
{ACAD_REACTORS
330
1EC
102
}
330
1EC
100
AcDbXrecord
280
     1
102
RTVSPost2010Prop28
280
     0
102
RTVSPost2010PropOp28
 70
     1
102
RTVSPost2010Prop29
280
     1
102
RTVSPost2010PropOp29
 70
     1
102
RTVSPost2010Prop30
280
     1
102
RTVSPost2010PropOp30
 70
     1
102
RTVSPost2010Prop31
280
     0
102
RTVSPost2010PropOp31
 70
     1
102
RTVSPost2010Prop32
280
     0
102
RTVSPost2010PropOp32
 70
     1
102
RTVSPost2010Prop33
280
     0
102
RTVSPost2010PropOp33
 70
     1
102
RTVSPost2010Prop34
280
     0
102
RTVSPost2010PropOp34
 70
     1
102
RTVSPost2010Prop35
280
     0
102
RTVSPost2010PropOp35
 70
     1
102
RTVSPost2010Prop36
280
     0
102
RTVSPost2010PropOp36
 70
     1
102
RTVSPost2010Prop37
 90
       50
102
RTVSPost2010PropOp37
 70
     1
102
RTVSPost2010Prop38
140
0.0
102
RTVSPost2010PropOp38
 70
     1
102
RTVSPost2010Prop39
140
1.0
102
RTVSPost2010PropOp39
 70
     1
102
RTVSPost2010Prop40
 90
        0
102
RTVSPost2010PropOp40
 70
     1
102
RTVSPost2010Prop41ColorIndex
 90
       18
102
RTVSPost2010Prop41ColorRGB
 90
        0
102
RTVSPost2010PropOp41
 70
     1
102
RTVSPost2010Prop42
 90
       50
102
RTVSPost2010PropOp42
 70
     1
102
RTVSPost2010Prop43
 90
        3
102
RTVSPost2010PropOp43
 70
     1
102
RTVSPost2010Prop44ColorIndex
 90
        5
102
RTVSPost2010Prop44ColorRGB
 90
      255
102
RTVSPost2010PropOp44
 70
     1
102
RTVSPost2010Prop45
280
     0
102
RTVSPost2010PropOp45
 70
     1
102
RTVSPost2010Prop46
 90
       50
102
RTVSPost2010PropOp46
 70
     1
102
RTVSPost2010Prop47
 90
       50
102
RTVSPost2010PropOp47
 70
     1
102
RTVSPost2010Prop48
 90
       50
102
RTVSPost2010PropOp48
 70
     1
102
RTVSPost2010Prop49
280
     0
102
RTVSPost2010PropOp49
 70
     1
102
RTVSPost2010Prop50
 90
       50
102
RTVSPost2010PropOp50
 70
     1
102
RTVSPost2010Prop51ColorIndex
 90
      256
102
RTVSPost2010Prop51ColorRGB
 90
-16777216
102
RTVSPost2010PropOp51
 70
     0
102
RTVSPost2010Prop52
140
1.0
102
RTVSPost2010PropOp52
 70
     0
102
RTVSPost2010Prop53
 90
        2
102
RTVSPost2010PropOp53
 70
     1
102
RTVSPost2010Prop54
  1
strokes_ogs.tif
102
RTVSPost2010PropOp54
 70
     1
102
RTVSPost2010Prop55
280
     0
102
RTVSPost2010PropOp55
 70
     1
102
RTVSPost2010Prop56
140
1.0
102
RTVSPost2010PropOp56
 70
     1
102
RTVSPost2010Prop57
140
1.0
102
RTVSPost2010PropOp57
 70
     1
  0
XRECORD
  5
20D
102
{ACAD_REACTORS
330
20C
102
}
330
20C
100
AcDbXrecord
280
     1
102
RTVSPost2010Prop28
280
     0
102
RTVSPost2010PropOp28
 70
     1
102
RTVSPost2010Prop29
280
     1
102
RTVSPost2010PropOp29
 70
     1
102
RTVSPost2010Prop30
280
     1
102
RTVSPost2010PropOp30
 70
     1
102
RTVSPost2010Prop31
280
     0
102
RTVSPost2010PropOp31
 70
     1
102
RTVSPost2010Prop32
280
     0
102
RTVSPost2010PropOp32
 70
     1
102
RTVSPost2010Prop33
280
     0
102
RTVSPost2010PropOp33
 70
     1
102
RTVSPost2010Prop34
280
     0
102
RTVSPost2010PropOp34
 70
     1
102
RTVSPost2010Prop35
280
     0
102
RTVSPost2010PropOp35
 70
     1
102
RTVSPost2010Prop36
280
     0
102
RTVSPost2010PropOp36
 70
     1
102
RTVSPost2010Prop37
 90
       50
102
RTVSPost2010PropOp37
 70
     1
102
RTVSPost2010Prop38
140
0.0
102
RTVSPost2010PropOp38
 70
     1
102
RTVSPost2010Prop39
140
1.0
102
RTVSPost2010PropOp39
 70
     1
102
RTVSPost2010Prop40
 90
        0
102
RTVSPost2010PropOp40
 70
     1
102
RTVSPost2010Prop41ColorIndex
 90
       18
102
RTVSPost2010Prop41ColorRGB
 90
        0
102
RTVSPost2010PropOp41
 70
     1
102
RTVSPost2010Prop42
 90
       50
102
RTVSPost2010PropOp42
 70
     1
102
RTVSPost2010Prop43
 90
        3
102
RTVSPost2010PropOp43
 70
     1
102
RTVSPost2010Prop44ColorIndex
 90
        5
102
RTVSPost2010Prop44ColorRGB
 90
      255
102
RTVSPost2010PropOp44
 70
     1
102
RTVSPost2010Prop45
280
     0
102
RTVSPost2010PropOp45
 70
     1
102
RTVSPost2010Prop46
 90
       50
102
RTVSPost2010PropOp46
 70
     1
102
RTVSPost2010Prop47
 90
       50
102
RTVSPost2010PropOp47
 70
     1
102
RTVSPost2010Prop48
 90
       50
102
RTVSPost2010PropOp48
 70
     1
102
RTVSPost2010Prop49
280
     0
102
RTVSPost2010PropOp49
 70
     1
102
RTVSPost2010Prop50
 90
       50
102
RTVSPost2010PropOp50
 70
     1
102
RTVSPost2010Prop51ColorIndex
 90
      256
102
RTVSPost2010Prop51ColorRGB
 90
-16777216
102
RTVSPost2010PropOp51
 70
     0
102
RTVSPost2010Prop52
140
1.0
102
RTVSPost2010PropOp52
 70
     0
102
RTVSPost2010Prop53
 90
        2
102
RTVSPost2010PropOp53
 70
     1
102
RTVSPost2010Prop54
  1
strokes_ogs.tif
102
RTVSPost2010PropOp54
 70
     1
102
RTVSPost2010Prop55
280
     0
102
RTVSPost2010PropOp55
 70
     1
102
RTVSPost2010Prop56
140
1.0
102
RTVSPost2010PropOp56
 70
     1
102
RTVSPost2010Prop57
140
1.0
102
RTVSPost2010PropOp57
 70
     1
  0
ENDSEC
  0
EOF
