  0
SECTION
  2
HEADER
  9
$ACADVER
  1
AC1015
  9
$ACADMAINTVER
 70
    13
  9
$DWGCODEPAGE
  3
ANSI_1252
  9
$INSBASE
 10
0.0
 20
0.0
 30
0.0
  9
$EXTMIN
 10
-107.6191101074218
 20
137.0389943485503
 30
0.0
  9
$EXTMAX
 10
651.1369018554687
 20
520.8796194476628
 30
0.0
  9
$LIMMIN
 10
-107.6191101074218
 20
127.9550399780273
  9
$LIMMAX
 10
651.1369018554687
 20
536.8085327148437
  9
$ORTHOMODE
 70
     0
  9
$REGENMODE
 70
     1
  9
$FILLMODE
 70
     1
  9
$QTEXTMODE
 70
     0
  9
$MIRRTEXT
 70
     1
  9
$LTSCALE
 40
1.0
  9
$ATTMODE
 70
     1
  9
$TEXTSIZE
 40
2.5
  9
$TRACEWID
 40
1.0
  9
$TEXTSTYLE
  7
Standard
  9
$CLAYER
  8
0
  9
$CELTYPE
  6
ByLayer
  9
$CECOLOR
 62
   256
  9
$CELTSCALE
 40
1.0
  9
$DISPSILH
 70
     0
  9
$DIMSCALE
 40
1.0
  9
$DIMASZ
 40
2.5
  9
$DIMEXO
 40
0.625
  9
$DIMDLI
 40
3.75
  9
$DIMRND
 40
0.0
  9
$DIMDLE
 40
0.0
  9
$DIMEXE
 40
1.25
  9
$DIMTP
 40
0.0
  9
$DIMTM
 40
0.0
  9
$DIMTXT
 40
2.5
  9
$DIMCEN
 40
2.5
  9
$DIMTSZ
 40
0.0
  9
$DIMTOL
 70
     0
  9
$DIMLIM
 70
     0
  9
$DIMTIH
 70
     0
  9
$DIMTOH
 70
     0
  9
$DIMSE1
 70
     0
  9
$DIMSE2
 70
     0
  9
$DIMTAD
 70
     1
  9
$DIMZIN
 70
     8
  9
$DIMBLK
  1

  9
$DIMASO
 70
     1
  9
$DIMSHO
 70
     1
  9
$DIMPOST
  1

  9
$DIMAPOST
  1

  9
$DIMALT
 70
     0
  9
$DIMALTD
 70
     3
  9
$DIMALTF
 40
0.03937007874016
  9
$DIMLFAC
 40
1.0
  9
$DIMTOFL
 70
     1
  9
$DIMTVP
 40
0.0
  9
$DIMTIX
 70
     0
  9
$DIMSOXD
 70
     0
  9
$DIMSAH
 70
     0
  9
$DIMBLK1
  1

  9
$DIMBLK2
  1

  9
$DIMSTYLE
  2
ISO-25
  9
$DIMCLRD
 70
     0
  9
$DIMCLRE
 70
     0
  9
$DIMCLRT
 70
     0
  9
$DIMTFAC
 40
1.0
  9
$DIMGAP
 40
0.625
  9
$DIMJUST
 70
     0
  9
$DIMSD1
 70
     0
  9
$DIMSD2
 70
     0
  9
$DIMTOLJ
 70
     0
  9
$DIMTZIN
 70
     8
  9
$DIMALTZ
 70
     0
  9
$DIMALTTZ
 70
     0
  9
$DIMUPT
 70
     0
  9
$DIMDEC
 70
     2
  9
$DIMTDEC
 70
     2
  9
$DIMALTU
 70
     2
  9
$DIMALTTD
 70
     3
  9
$DIMTXSTY
  7
Standard
  9
$DIMAUNIT
 70
     0
  9
$DIMADEC
 70
     0
  9
$DIMALTRND
 40
0.0
  9
$DIMAZIN
 70
     0
  9
$DIMDSEP
 70
    44
  9
$DIMATFIT
 70
     3
  9
$DIMFRAC
 70
     0
  9
$DIMLDRBLK
  1

  9
$DIMLUNIT
 70
     2
  9
$DIMLWD
 70
    -2
  9
$DIMLWE
 70
    -2
  9
$DIMTMOVE
 70
     0
  9
$LUNITS
 70
     2
  9
$LUPREC
 70
     4
  9
$SKETCHINC
 40
1.0
  9
$FILLETRAD
 40
10.0
  9
$AUNITS
 70
     0
  9
$AUPREC
 70
     0
  9
$MENU
  1
.
  9
$ELEVATION
 40
0.0
  9
$PELEVATION
 40
0.0
  9
$THICKNESS
 40
0.0
  9
$LIMCHECK
 70
     0
  9
$CHAMFERA
 40
10.0
  9
$CHAMFERB
 40
10.0
  9
$CHAMFERC
 40
20.0
  9
$CHAMFERD
 40
0.0
  9
$SKPOLY
 70
     0
  9
$TDCREATE
 40
2455999.688420555
  9
$TDUCREATE
 40
2455999.605087221
  9
$TDUPDATE
 40
2456045.661250382
  9
$TDUUPDATE
 40
2456045.577917048
  9
$TDINDWG
 40
0.0002549537
  9
$TDUSRTIMER
 40
0.0002549537
  9
$USRTIMER
 70
     1
  9
$ANGBASE
 50
0.0
  9
$ANGDIR
 70
     0
  9
$PDMODE
 70
     0
  9
$PDSIZE
 40
0.0
  9
$PLINEWID
 40
0.0
  9
$SPLFRAME
 70
     0
  9
$SPLINETYPE
 70
     6
  9
$SPLINESEGS
 70
     8
  9
$HANDSEED
  5
20E
  9
$SURFTAB1
 70
     6
  9
$SURFTAB2
 70
     6
  9
$SURFTYPE
 70
     6
  9
$SURFU
 70
     6
  9
$SURFV
 70
     6
  9
$UCSBASE
  2

  9
$UCSNAME
  2

  9
$UCSORG
 10
0.0
 20
0.0
 30
0.0
  9
$UCSXDIR
 10
1.0
 20
0.0
 30
0.0
  9
$UCSYDIR
 10
0.0
 20
1.0
 30
0.0
  9
$UCSORTHOREF
  2

  9
$UCSORTHOVIEW
 70
     0
  9
$UCSORGTOP
 10
0.0
 20
0.0
 30
0.0
  9
$UCSORGBOTTOM
 10
0.0
 20
0.0
 30
0.0
  9
$UCSORGLEFT
 10
0.0
 20
0.0
 30
0.0
  9
$UCSORGRIGHT
 10
0.0
 20
0.0
 30
0.0
  9
$UCSORGFRONT
 10
0.0
 20
0.0
 30
0.0
  9
$UCSORGBACK
 10
0.0
 20
0.0
 30
0.0
  9
$PUCSBASE
  2

  9
$PUCSNAME
  2

  9
$PUCSORG
 10
0.0
 20
0.0
 30
0.0
  9
$PUCSXDIR
 10
1.0
 20
0.0
 30
0.0
  9
$PUCSYDIR
 10
0.0
 20
1.0
 30
0.0
  9
$PUCSORTHOREF
  2

  9
$PUCSORTHOVIEW
 70
     0
  9
$PUCSORGTOP
 10
0.0
 20
0.0
 30
0.0
  9
$PUCSORGBOTTOM
 10
0.0
 20
0.0
 30
0.0
  9
$PUCSORGLEFT
 10
0.0
 20
0.0
 30
0.0
  9
$PUCSORGRIGHT
 10
0.0
 20
0.0
 30
0.0
  9
$PUCSORGFRONT
 10
0.0
 20
0.0
 30
0.0
  9
$PUCSORGBACK
 10
0.0
 20
0.0
 30
0.0
  9
$USERI1
 70
     0
  9
$USERI2
 70
     0
  9
$USERI3
 70
     0
  9
$USERI4
 70
     0
  9
$USERI5
 70
     0
  9
$USERR1
 40
0.0
  9
$USERR2
 40
0.0
  9
$USERR3
 40
0.0
  9
$USERR4
 40
0.0
  9
$USERR5
 40
0.0
  9
$WORLDVIEW
 70
     1
  9
$SHADEDGE
 70
     3
  9
$SHADEDIF
 70
    70
  9
$TILEMODE
 70
     1
  9
$MAXACTVP
 70
    64
  9
$PINSBASE
 10
0.0
 20
0.0
 30
0.0
  9
$PLIMCHECK
 70
     0
  9
$PEXTMIN
 10
1.000000000000000E+20
 20
1.000000000000000E+20
 30
1.000000000000000E+20
  9
$PEXTMAX
 10
-1.000000000000000E+20
 20
-1.000000000000000E+20
 30
-1.000000000000000E+20
  9
$PLIMMIN
 10
0.0
 20
0.0
  9
$PLIMMAX
 10
420.0
 20
297.0
  9
$UNITMODE
 70
     0
  9
$VISRETAIN
 70
     1
  9
$PLINEGEN
 70
     0
  9
$PSLTSCALE
 70
     1
  9
$TREEDEPTH
 70
  3020
  9
$CMLSTYLE
  2
Standard
  9
$CMLJUST
 70
     0
  9
$CMLSCALE
 40
20.0
  9
$PROXYGRAPHICS
 70
     1
  9
$MEASUREMENT
 70
     1
  9
$CELWEIGHT
370
    -1
  9
$ENDCAPS
280
     0
  9
$JOINSTYLE
280
     0
  9
$LWDISPLAY
290
     0
  9
$INSUNITS
 70
     4
  9
$HYPERLINKBASE
  1

  9
$STYLESHEET
  1

  9
$XEDIT
290
     1
  9
$CEPSNTYPE
380
     0
  9
$PSTYLEMODE
290
     1
  9
$FINGERPRINTGUID
  2
{FD275AFA-C4FC-468C-90CD-AF76101ECC48}
  9
$VERSIONGUID
  2
{65277225-EB95-4A55-9DC6-B1B49D750181}
  9
$EXTNAMES
290
     1
  9
$PSVPSCALE
 40
0.0
  9
$OLESTARTUP
290
     0
  0
ENDSEC
  0
SECTION
  2
CLASSES
  0
CLASS
  1
ACDBDICTIONARYWDFLT
  2
AcDbDictionaryWithDefault
  3
AutoCAD 2000
 90
        0
280
     0
281
     0
  0
CLASS
  1
VISUALSTYLE
  2
AcDbVisualStyle
  3
ObjectDBX Classes
 90
     4095
280
     0
281
     0
  0
CLASS
  1
DICTIONARYVAR
  2
AcDbDictionaryVar
  3
AutoCAD 2000
 90
        0
280
     0
281
     0
  0
CLASS
  1
ACDBPLACEHOLDER
  2
AcDbPlaceHolder
  3
AutoCAD 2000
 90
        0
280
     0
281
     0
  0
CLASS
  1
LAYOUT
  2
AcDbLayout
  3
AutoCAD 2000
 90
        0
280
     0
281
     0
  0
ENDSEC
  0
SECTION
  2
TABLES
  0
TABLE
  2
VPORT
  5
8
330
0
100
AcDbSymbolTable
 70
     2
  0
VPORT
  5
20D
330
8
100
AcDbSymbolTableRecord
100
AcDbViewportTableRecord
  2
*Active
 70
     0
 10
0.0
 20
0.0
 11
1.0
 21
1.0
 12
271.7588976406398
 22
328.9505522326517
 13
0.0
 23
0.0
 14
10.0
 24
10.0
 15
10.0
 25
10.0
 16
0.0
 26
0.0
 36
1.0
 17
0.0
 27
0.0
 37
0.0
 40
399.2335541436904
 41
1.906832298136645
 42
50.0
 43
0.0
 44
0.0
 50
0.0
 51
0.0
 71
     0
 72
   100
 73
     1
 74
     3
 75
     0
 76
     0
 77
     0
 78
     0
281
     0
 65
     1
110
0.0
120
0.0
130
0.0
111
1.0
121
0.0
131
0.0
112
0.0
122
1.0
132
0.0
 79
     0
146
0.0
  0
ENDTAB
  0
TABLE
  2
LTYPE
  5
5
330
0
100
AcDbSymbolTable
 70
     1
  0
LTYPE
  5
14
330
5
100
AcDbSymbolTableRecord
100
AcDbLinetypeTableRecord
  2
ByBlock
 70
     0
  3

 72
    65
 73
     0
 40
0.0
  0
LTYPE
  5
15
330
5
100
AcDbSymbolTableRecord
100
AcDbLinetypeTableRecord
  2
ByLayer
 70
     0
  3

 72
    65
 73
     0
 40
0.0
  0
LTYPE
  5
16
330
5
100
AcDbSymbolTableRecord
100
AcDbLinetypeTableRecord
  2
Continuous
 70
     0
  3
Solid line
 72
    65
 73
     0
 40
0.0
  0
ENDTAB
  0
TABLE
  2
LAYER
  5
2
330
0
100
AcDbSymbolTable
 70
     1
  0
LAYER
  5
10
330
2
100
AcDbSymbolTableRecord
100
AcDbLayerTableRecord
  2
0
 70
     0
 62
   106
  6
Continuous
370
     0
390
F
  0
ENDTAB
  0
TABLE
  2
STYLE
  5
3
330
0
100
AcDbSymbolTable
 70
     4
  0
STYLE
  5
11
330
3
100
AcDbSymbolTableRecord
100
AcDbTextStyleTableRecord
  2
Standard
 70
     0
 40
0.0
 41
1.0
 50
0.0
 71
     0
 42
2.5
  3
txt
  4

  0
STYLE
  5
3B
330
3
100
AcDbSymbolTableRecord
100
AcDbTextStyleTableRecord
  2
Default
 70
     0
 40
0.0
 41
1.0
 50
0.0
 71
     0
 42
0.2
  3
txt_____.ttf
  4

1001
ACAD
1000
txt
1071
        0
  0
STYLE
  5
3C
330
3
100
AcDbSymbolTableRecord
100
AcDbTextStyleTableRecord
  2
ISO
 70
     0
 40
0.0
 41
1.0
 50
0.0
 71
     0
 42
0.2
  3
txt_____.ttf
  4

1001
ACAD
1000
txt
1071
        0
  0
STYLE
  5
3D
330
3
100
AcDbSymbolTableRecord
100
AcDbTextStyleTableRecord
  2
GIANLU
 70
     0
 40
0.0
 41
1.0
 50
0.0
 71
     0
 42
0.2
  3
ARIALBD.TTF
  4

1001
ACAD
1000
Arial
1071
 33554432
  0
ENDTAB
  0
TABLE
  2
VIEW
  5
6
330
0
100
AcDbSymbolTable
 70
     0
  0
ENDTAB
  0
TABLE
  2
UCS
  5
7
330
0
100
AcDbSymbolTable
 70
     0
  0
ENDTAB
  0
TABLE
  2
APPID
  5
9
330
0
100
AcDbSymbolTable
 70
     1
  0
APPID
  5
12
330
9
100
AcDbSymbolTableRecord
100
AcDbRegAppTableRecord
  2
ACAD
 70
     0
  0
ENDTAB
  0
TABLE
  2
DIMSTYLE
  5
A
330
0
100
AcDbSymbolTable
 70
     4
100
AcDbDimStyleTable
 71
     0
  0
DIMSTYLE
105
27
330
A
100
AcDbSymbolTableRecord
100
AcDbDimStyleTableRecord
  2
ISO-25
 70
     0
 41
2.5
 42
0.625
 43
3.75
 44
1.25
 73
     0
 74
     0
 77
     1
 78
     8
140
2.5
141
2.5
143
0.03937007874016
147
0.625
171
     3
172
     1
271
     2
272
     2
274
     3
278
    44
283
     0
284
     8
340
11
  0
DIMSTYLE
105
3E
330
A
100
AcDbSymbolTableRecord
100
AcDbDimStyleTableRecord
  2
Default
 70
     0
  3
<>
 41
4.375
 42
1.05
 44
2.1
 73
     0
 74
     0
 77
     1
 78
     8
140
3.5
146
0.4
147
1.75
178
     3
271
     2
272
     3
284
     8
340
3B
341
3F
342
3F
  0
DIMSTYLE
105
46
330
A
100
AcDbSymbolTableRecord
100
AcDbDimStyleTableRecord
  2
ISO
 70
     0
  3
<>
 41
4.375
 42
1.05
 44
2.1
 73
     0
 74
     0
 77
     1
 78
     8
140
3.5
146
0.4
147
1.75
178
     3
271
     2
272
     3
284
     8
340
3C
341
3F
342
3F
  0
DIMSTYLE
105
47
330
A
100
AcDbSymbolTableRecord
100
AcDbDimStyleTableRecord
  2
zucchetti_unico
 70
     0
  3
<>
 41
3.5
 42
1.05
 44
2.1
 73
     0
 74
     0
 77
     1
 78
     8
140
3.5
146
0.6
147
1.75
176
     3
177
     3
178
     3
271
     2
272
     2
284
     8
340
3B
  0
ENDTAB
  0
TABLE
  2
BLOCK_RECORD
  5
1
330
0
100
AcDbSymbolTable
 70
     6
  0
BLOCK_RECORD
  5
1F
330
1
100
AcDbSymbolTableRecord
100
AcDbBlockTableRecord
  2
*Model_Space
340
22
  0
BLOCK_RECORD
  5
1B
330
1
100
AcDbSymbolTableRecord
100
AcDbBlockTableRecord
  2
*Paper_Space
340
1E
  0
BLOCK_RECORD
  5
23
330
1
100
AcDbSymbolTableRecord
100
AcDbBlockTableRecord
  2
*Paper_Space0
340
26
  0
BLOCK_RECORD
  5
3F
330
1
100
AcDbSymbolTableRecord
100
AcDbBlockTableRecord
  2
_CLOSED
340
0
  0
BLOCK_RECORD
  5
48
330
1
100
AcDbSymbolTableRecord
100
AcDbBlockTableRecord
  2
a
340
0
102
{BLKREFS
331
D3
102
}
  0
BLOCK_RECORD
  5
D4
330
1
100
AcDbSymbolTableRecord
100
AcDbBlockTableRecord
  2
b
340
0
102
{BLKREFS
331
13F
102
}
  0
BLOCK_RECORD
  5
140
330
1
100
AcDbSymbolTableRecord
100
AcDbBlockTableRecord
  2
c
340
0
102
{BLKREFS
331
1A0
102
}
  0
BLOCK_RECORD
  5
1A1
330
1
100
AcDbSymbolTableRecord
100
AcDbBlockTableRecord
  2
d
340
0
102
{BLKREFS
331
1FB
102
}
  0
ENDTAB
  0
ENDSEC
  0
SECTION
  2
BLOCKS
  0
BLOCK
  5
20
330
1F
100
AcDbEntity
  8
0
100
AcDbBlockBegin
  2
*Model_Space
 70
     0
 10
0.0
 20
0.0
 30
0.0
  3
*Model_Space
  1

  0
ENDBLK
  5
21
330
1F
100
AcDbEntity
  8
0
100
AcDbBlockEnd
  0
BLOCK
  5
1C
330
1B
100
AcDbEntity
 67
     1
  8
0
100
AcDbBlockBegin
  2
*Paper_Space
 70
     0
 10
0.0
 20
0.0
 30
0.0
  3
*Paper_Space
  1

  0
ENDBLK
  5
1D
330
1B
100
AcDbEntity
 67
     1
  8
0
100
AcDbBlockEnd
  0
BLOCK
  5
24
330
23
100
AcDbEntity
  8
0
100
AcDbBlockBegin
  2
*Paper_Space0
 70
     0
 10
0.0
 20
0.0
 30
0.0
  3
*Paper_Space0
  1

  0
ENDBLK
  5
25
330
23
100
AcDbEntity
  8
0
100
AcDbBlockEnd
  0
BLOCK
  5
40
330
3F
100
AcDbEntity
  8
0
100
AcDbBlockBegin
  2
_CLOSED
 70
     0
 10
0.0
 20
0.0
 30
0.0
  3
_CLOSED
  1

  0
LINE
  5
42
330
3F
100
AcDbEntity
  8
0
  6
ByBlock
 62
     0
370
    -2
100
AcDbLine
 10
-1.0
 20
0.166667
 30
0.0
 11
0.0
 21
0.0
 31
0.0
  0
LINE
  5
43
330
3F
100
AcDbEntity
  8
0
  6
ByBlock
 62
     0
370
    -2
100
AcDbLine
 10
0.0
 20
0.0
 30
0.0
 11
-1.0
 21
-0.166667
 31
0.0
  0
LINE
  5
44
330
3F
100
AcDbEntity
  8
0
  6
ByBlock
 62
     0
370
    -2
100
AcDbLine
 10
-1.0
 20
0.166667
 30
0.0
 11
-1.0
 21
-0.166667
 31
0.0
  0
LINE
  5
45
330
3F
100
AcDbEntity
  8
0
  6
ByBlock
 62
     0
370
    -2
100
AcDbLine
 10
0.0
 20
0.0
 30
0.0
 11
-1.0
 21
0.0
 31
0.0
  0
ENDBLK
  5
41
330
3F
100
AcDbEntity
  8
0
100
AcDbBlockEnd
  0
BLOCK
  5
D1
330
48
100
AcDbEntity
  8
0
100
AcDbBlockBegin
  2
a
 70
     0
 10
169.4667053222656
 20
129.2505950927734
 30
0.0
  3
a
  1

  0
LWPOLYLINE
  5
49
330
48
100
AcDbEntity
  8
0
  6
Continuous
 62
     0
370
     0
100
AcDbPolyline
 90
       16
 70
     0
 43
0.0
 10
303.5979614257812
 20
404.4509887695312
 10
302.8662414550781
 20
404.4888610839843
 10
302.142578125
 20
404.6020202636718
 10
301.4348449707031
 20
404.7892456054687
 10
300.7507934570312
 20
405.0485229492187
 10
300.0979614257812
 20
405.376953125
 10
299.4834594726562
 20
405.7709350585937
 10
298.9140319824219
 20
406.2262268066406
 10
298.3959350585937
 20
406.7377624511719
 10
297.9348449707031
 20
407.2999877929687
 10
297.5357666015625
 20
407.9066772460937
 10
297.203125
 20
408.55126953125
 10
296.9405517578124
 20
409.2266540527344
 10
296.7509155273437
 20
409.9254455566406
 10
296.6362915039062
 20
410.6399536132812
 10
296.5979614257812
 20
411.3623962402344
  0
LINE
  5
4A
330
48
100
AcDbEntity
  8
0
  6
Continuous
 62
     0
370
     0
100
AcDbLine
 10
333.5979537963867
 20
404.4509859628553
 30
0.0
 11
303.5979537963867
 21
404.4509859628553
 31
0.0
  0
LWPOLYLINE
  5
4B
330
48
100
AcDbEntity
  8
0
  6
Continuous
 62
     0
370
     0
100
AcDbPolyline
 90
       16
 70
     0
 43
0.0
 10
340.5979614257812
 20
411.3623962402344
 10
340.5596008300781
 20
410.6399536132812
 10
340.4449768066406
 20
409.9254455566406
 10
340.2553405761718
 20
409.2266540527344
 10
339.9927673339843
 20
408.55126953125
 10
339.6601257324218
 20
407.9066772460937
 10
339.2610778808593
 20
407.2999877929687
 10
338.7999572753906
 20
406.7377624511719
 10
338.2818603515624
 20
406.2262268066406
 10
337.7124633789062
 20
405.7709350585937
 10
337.0979614257812
 20
405.376953125
 10
336.4450988769531
 20
405.0485229492187
 10
335.7610778808593
 20
404.7892456054687
 10
335.0533447265624
 20
404.6020202636718
 10
334.3296508789062
 20
404.4888610839843
 10
333.5979614257812
 20
404.4509887695312
  0
LINE
  5
4C
330
48
100
AcDbEntity
  8
0
  6
Continuous
 62
     0
370
     0
100
AcDbLine
 10
303.5979537963867
 20
404.4509859628552
 30
0.0
 11
303.5979537963867
 21
404.434202502233
 31
0.0
  0
LINE
  5
4D
330
48
100
AcDbEntity
  8
0
  6
Continuous
 62
     0
370
     0
100
AcDbLine
 10
333.5979537963867
 20
404.4509859628552
 30
0.0
 11
333.5979537963867
 21
404.434202502233
 31
0.0
  0
LINE
  5
4E
330
48
100
AcDbEntity
  8
0
  6
Continuous
 62
     0
370
    30
100
AcDbLine
 10
333.5979537963867
 20
504.5449440828855
 30
0.0
 11
303.5979537963867
 21
504.5449440828855
 31
0.0
  0
LINE
  5
4F
330
48
100
AcDbEntity
  8
0
  6
Continuous
 62
     0
370
     0
100
AcDbLine
 10
333.5979537963867
 20
503.7013785475987
 30
0.0
 11
303.5979537963867
 21
503.7013785475987
 31
0.0
  0
ARC
  5
50
330
48
100
AcDbEntity
  8
0
  6
Continuous
 62
     0
370
    30
100
AcDbCircle
 10
333.5979539128911
 20
497.54494419939
 30
0.0
 40
6.999999883495578
100
AcDbArc
 50
0.0000009536012339
 51
90.00000095337835
  0
ARC
  5
51
330
48
100
AcDbEntity
  8
0
  6
Continuous
 62
     0
370
     0
100
AcDbCircle
 10
333.5979539128911
 20
497.701378664103
 30
0.0
 40
5.999999883495605
100
AcDbArc
 50
0.0000011125349117
 51
90.00000111231186
  0
LINE
  5
52
330
48
100
AcDbEntity
  8
0
  6
Continuous
 62
     0
370
     0
100
AcDbLine
 10
339.5979537963867
 20
411.8838431795053
 30
0.0
 11
339.5979537963867
 21
497.7013787806074
 31
0.0
  0
LINE
  5
53
330
48
100
AcDbEntity
  8
0
  6
Continuous
 62
     0
370
    30
100
AcDbLine
 10
340.5979537963867
 20
411.727408714792
 30
0.0
 11
340.5979537963867
 21
497.5449443158943
 31
0.0
  0
LWPOLYLINE
  5
54
330
48
100
AcDbEntity
  8
0
  6
Continuous
 62
     0
370
     0
100
AcDbPolyline
 90
       15
 70
     0
 43
0.0
 10
339.5979614257812
 20
411.8838500976562
 10
339.5602416992187
 20
411.2200927734375
 10
339.447509765625
 20
410.5646972656249
 10
339.2612609863281
 20
409.9258728027344
 10
339.0037536621093
 20
409.3117065429687
 10
338.6783142089843
 20
408.7298583984375
 10
338.2889404296875
 20
408.1876831054687
 10
337.8406066894531
 20
407.6919860839844
 10
337.3388977050781
 20
407.2489929199218
 10
336.7901611328125
 20
406.8642883300781
 10
336.2012634277343
 20
406.542724609375
 10
335.5796203613281
 20
406.2883300781249
 10
334.9330749511718
 20
406.1042785644531
 10
334.2697448730469
 20
405.992919921875
 10
333.5979614257812
 20
405.9556579589843
  0
LWPOLYLINE
  5
55
330
48
100
AcDbEntity
  8
0
  6
Continuous
 62
     0
370
     0
100
AcDbPolyline
 90
       16
 70
     0
 43
0.0
 10
340.5979614257812
 20
411.7274169921874
 10
340.5596008300781
 20
411.0049743652344
 10
340.4449768066406
 20
410.2904357910156
 10
340.2553405761718
 20
409.5916748046875
 10
339.9927673339843
 20
408.9162902832031
 10
339.6601257324218
 20
408.2716979980468
 10
339.2610778808593
 20
407.6649780273437
 10
338.7999572753906
 20
407.102783203125
 10
338.2818603515624
 20
406.5912170410156
 10
337.7124633789062
 20
406.1359558105468
 10
337.0979614257812
 20
405.7419433593749
 10
336.4450988769531
 20
405.4135131835937
 10
335.7610778808593
 20
405.1542663574219
 10
335.0533447265624
 20
404.967041015625
 10
334.3296508789062
 20
404.8538513183594
 10
333.5979614257812
 20
404.8160095214844
  0
LINE
  5
56
330
48
100
AcDbEntity
  8
0
  6
Continuous
 62
     0
370
     0
100
AcDbLine
 10
333.5979537963867
 20
405.9556489064958
 30
0.0
 11
303.5979537963867
 21
405.9556489064958
 31
0.0
  0
LINE
  5
57
330
48
100
AcDbEntity
  8
0
  6
Continuous
 62
     0
370
     0
100
AcDbLine
 10
333.5979537963867
 20
404.815997902405
 30
0.0
 11
303.5979537963867
 21
404.815997902405
 31
0.0
  0
LWPOLYLINE
  5
58
330
48
100
AcDbEntity
  8
0
  6
Continuous
 62
     0
370
     0
100
AcDbPolyline
 90
       15
 70
     0
 43
0.0
 10
303.5979614257812
 20
405.9556579589843
 10
302.9261779785156
 20
405.992919921875
 10
302.2628173828124
 20
406.1042785644531
 10
301.6162719726562
 20
406.2883300781249
 10
300.9946594238281
 20
406.542724609375
 10
300.40576171875
 20
406.8642883300781
 10
299.8570251464844
 20
407.2489929199218
 10
299.3553161621093
 20
407.6919860839844
 10
298.9069519042968
 20
408.1876831054687
 10
298.5176086425781
 20
408.7298583984375
 10
298.192138671875
 20
409.3117065429687
 10
297.9346618652343
 20
409.9258728027344
 10
297.7483825683593
 20
410.5646972656249
 10
297.6356811523437
 20
411.2200927734375
 10
297.5979614257812
 20
411.8838500976562
  0
LWPOLYLINE
  5
59
330
48
100
AcDbEntity
  8
0
  6
Continuous
 62
     0
370
     0
100
AcDbPolyline
 90
       16
 70
     0
 43
0.0
 10
303.5979614257812
 20
404.8160095214844
 10
302.8662414550781
 20
404.8538513183594
 10
302.142578125
 20
404.967041015625
 10
301.4348449707031
 20
405.1542663574219
 10
300.7507934570312
 20
405.4135131835937
 10
300.0979614257812
 20
405.7419433593749
 10
299.4834594726562
 20
406.1359558105468
 10
298.9140319824219
 20
406.5912170410156
 10
298.3959350585937
 20
407.102783203125
 10
297.9348449707031
 20
407.6649780273437
 10
297.5357666015625
 20
408.2716979980468
 10
297.203125
 20
408.9162902832031
 10
296.9405517578124
 20
409.5916748046875
 10
296.7509155273437
 20
410.2904357910156
 10
296.6362915039062
 20
411.0049743652344
 10
296.5979614257812
 20
411.7274169921874
  0
LINE
  5
5A
330
48
100
AcDbEntity
  8
0
  6
Continuous
 62
     0
370
     0
100
AcDbLine
 10
297.5979537963867
 20
411.8838431795053
 30
0.0
 11
297.5979537963867
 21
497.7013787806074
 31
0.0
  0
LINE
  5
5B
330
48
100
AcDbEntity
  8
0
  6
Continuous
 62
     0
370
    30
100
AcDbLine
 10
296.5979537963867
 20
411.727408714792
 30
0.0
 11
296.5979537963867
 21
497.5449443158943
 31
0.0
  0
ARC
  5
5C
330
48
100
AcDbEntity
  8
0
  6
Continuous
 62
     0
370
    30
100
AcDbCircle
 10
303.5979536798823
 20
497.5449441993899
 30
0.0
 40
6.999999883495633
100
AcDbArc
 50
89.9999990463989
 51
179.9999990461749
  0
ARC
  5
5D
330
48
100
AcDbEntity
  8
0
  6
Continuous
 62
     0
370
     0
100
AcDbCircle
 10
303.5979536798822
 20
497.7013786641031
 30
0.0
 40
5.999999883495569
100
AcDbArc
 50
89.99999888746472
 51
179.9999988872422
  0
LINE
  5
5E
330
48
100
AcDbEntity
  8
0
  6
Continuous
 62
     0
370
     0
100
AcDbLine
 10
333.5979537963867
 20
504.5449440828855
 30
0.0
 11
333.5979537963867
 21
503.7013785475988
 31
0.0
  0
ELLIPSE
  5
5F
330
48
100
AcDbEntity
  8
0
  6
Continuous
 62
     0
370
     0
100
AcDbEllipse
 10
339.5979537963867
 20
497.5449443158943
 30
0.0
 11
1.0
 21
0.0
 31
0.0
210
0.0
220
0.0
230
1.0
 40
0.1564344647131579
 41
6.283185307179586
 42
7.853981633974482
  0
LINE
  5
60
330
48
100
AcDbEntity
  8
0
  6
Continuous
 62
     0
370
    30
100
AcDbLine
 10
340.5979537963867
 20
411.3623967752424
 30
0.0
 11
340.5979537963867
 21
411.727408714792
 31
0.0
  0
ELLIPSE
  5
61
330
48
100
AcDbEntity
  8
0
  6
Continuous
 62
     0
370
     0
100
AcDbEllipse
 10
339.5979537963867
 20
411.727408714792
 30
0.0
 11
-1.000000000000016
 21
0.0
 31
0.0
210
0.0
220
0.0
230
-1.0
 40
0.1564344647131765
 41
1.570796326794896
 42
3.141592653589793
  0
LINE
  5
62
330
48
100
AcDbEntity
  8
0
  6
Continuous
 62
     0
370
     0
100
AcDbLine
 10
333.5979537963867
 20
404.4509859628553
 30
0.0
 11
333.5979537963867
 21
404.815997902405
 31
0.0
  0
LINE
  5
63
330
48
100
AcDbEntity
  8
0
  6
Continuous
 62
     0
370
     0
100
AcDbLine
 10
303.5979537963867
 20
404.4509859628553
 30
0.0
 11
303.5979537963867
 21
404.815997902405
 31
0.0
  0
LINE
  5
64
330
48
100
AcDbEntity
  8
0
  6
Continuous
 62
     0
370
     0
100
AcDbLine
 10
333.5979537963867
 20
405.9556489064958
 30
0.0
 11
333.5979537963867
 21
404.815997902405
 31
0.0
  0
LINE
  5
65
330
48
100
AcDbEntity
  8
0
  6
Continuous
 62
     0
370
    30
100
AcDbLine
 10
296.5979537963867
 20
411.3623967752424
 30
0.0
 11
296.5979537963867
 21
411.727408714792
 31
0.0
  0
LINE
  5
66
330
48
100
AcDbEntity
  8
0
  6
Continuous
 62
     0
370
     0
100
AcDbLine
 10
303.5979537963867
 20
405.9556489064958
 30
0.0
 11
303.5979537963867
 21
404.815997902405
 31
0.0
  0
ELLIPSE
  5
67
330
48
100
AcDbEntity
  8
0
  6
Continuous
 62
     0
370
     0
100
AcDbEllipse
 10
297.5979537963867
 20
411.727408714792
 30
0.0
 11
1.000000000000015
 21
0.0
 31
0.0
210
0.0
220
0.0
230
1.0
 40
0.1564344647131696
 41
1.570796326794896
 42
3.141592653589793
  0
LINE
  5
68
330
48
100
AcDbEntity
  8
0
  6
Continuous
 62
     0
370
     0
100
AcDbLine
 10
303.5979537963867
 20
504.5449440828855
 30
0.0
 11
303.5979537963867
 21
503.7013785475987
 31
0.0
  0
ELLIPSE
  5
69
330
48
100
AcDbEntity
  8
0
  6
Continuous
 62
     0
370
     0
100
AcDbEllipse
 10
297.5979537963867
 20
497.5449443158943
 30
0.0
 11
0.9999999999999964
 21
0.0000000000000049
 31
0.0
210
0.0
220
0.0
230
1.0
 40
0.1564344647131601
 41
1.570796326794895
 42
3.141592653589807
  0
LWPOLYLINE
  5
6A
330
48
100
AcDbEntity
  8
0
  6
Continuous
 62
     0
370
    30
100
AcDbPolyline
 90
       16
 70
     0
 43
0.0
 10
340.5979614257812
 20
411.3623962402344
 10
340.5595703124999
 20
410.6377563476562
 10
340.4447937011718
 20
409.9210205078125
 10
340.2549438476562
 20
409.2202453613281
 10
339.9920349121093
 20
408.5429992675781
 10
339.6591796875
 20
407.8966674804687
 10
339.2598266601562
 20
407.2884521484374
 10
338.7984924316406
 20
406.7249450683593
 10
338.2802734375
 20
406.2123413085937
 10
337.7107849121093
 20
405.7561950683593
 10
337.0963439941406
 20
405.3614807128906
 10
336.4436035156249
 20
405.0325927734375
 10
335.7598876953125
 20
404.7729187011718
 10
335.0525207519531
 20
404.5854492187499
 10
334.3291931152343
 20
404.4721069335937
 10
333.5979614257812
 20
404.4342041015625
  0
LINE
  5
6B
330
48
100
AcDbEntity
  8
0
  6
Continuous
 62
     0
370
    30
100
AcDbLine
 10
333.5979537963867
 20
404.434202502233
 30
0.0
 11
303.5979537963867
 21
404.434202502233
 31
0.0
  0
LWPOLYLINE
  5
6C
330
48
100
AcDbEntity
  8
0
  6
Continuous
 62
     0
370
    30
100
AcDbPolyline
 90
       16
 70
     0
 43
0.0
 10
296.5979614257812
 20
411.3623962402344
 10
296.6363525390625
 20
410.6377563476562
 10
296.7511291503906
 20
409.9210205078125
 10
296.9409484863281
 20
409.2202453613281
 10
297.2038574218749
 20
408.5429992675781
 10
297.5367126464843
 20
407.8966674804687
 10
297.9360961914062
 20
407.2884521484374
 10
298.3973999023437
 20
406.7249450683593
 10
298.9156494140625
 20
406.2123413085937
 10
299.4851379394531
 20
405.7561950683593
 10
300.0995788574218
 20
405.3614807128906
 10
300.7522888183594
 20
405.0325927734375
 10
301.4360351562499
 20
404.7729187011718
 10
302.1433715820312
 20
404.5854492187499
 10
302.86669921875
 20
404.4721069335937
 10
303.5979614257812
 20
404.4342041015625
  0
ARC
  5
6D
330
48
100
AcDbEntity
  8
0
  6
Continuous
 62
     0
370
    30
100
AcDbCircle
 10
230.6267269218853
 20
478.5593737853344
 30
0.0
 40
12.50152088961832
100
AcDbArc
 50
180.0022516787762
 51
269.9850685936573
  0
LINE
  5
6E
330
48
100
AcDbEntity
  8
0
  6
Continuous
 62
     0
370
    30
100
AcDbLine
 10
230.6234689981276
 20
466.057853321227
 30
0.0
 11
246.6270219471208
 21
466.057866816527
 31
0.0
  0
ARC
  5
6F
330
48
100
AcDbEntity
  8
0
  6
Continuous
 62
     0
370
    30
100
AcDbCircle
 10
246.6237990066643
 20
478.5592419890819
 30
0.0
 40
12.50137558900298
100
AcDbArc
 50
270.0147712454936
 51
359.9977375449673
  0
ELLIPSE
  5
70
330
48
100
AcDbEntity
  8
0
  6
Continuous
 62
     0
370
    30
100
AcDbEllipse
 10
238.6252080793873
 20
480.5843313912609
 30
0.0
 11
-12.24999999999999
 21
0.0
 31
0.0
210
0.0
220
0.0
230
-1.0
 40
0.0836778433322322
 41
1.570796326794896
 42
4.712388980384689
  0
ELLIPSE
  5
71
330
48
100
AcDbEntity
  8
0
  6
Continuous
 62
     0
370
    30
100
AcDbEllipse
 10
238.6252080793873
 20
480.5843313912681
 30
0.0
 11
-12.24999999999999
 21
0.0
 31
0.0
210
0.0
220
0.0
230
-1.0
 40
0.0836778433322322
 41
4.712388980384689
 42
7.853981633974482
  0
LINE
  5
72
330
48
100
AcDbEntity
  8
0
  6
Continuous
 62
     0
370
     0
100
AcDbLine
 10
230.6234689980882
 20
466.057853320234
 30
0.0
 11
230.5932659138672
 21
466.1410878490604
 31
0.0
  0
ARC
  5
73
330
48
100
AcDbEntity
  8
0
  6
Continuous
 62
     0
370
     0
100
AcDbCircle
 10
230.593812064482
 20
478.6096919436072
 30
0.0
 40
12.46860410650808
100
AcDbArc
 50
180.0079958006397
 51
269.9974903265075
  0
LINE
  5
74
330
48
100
AcDbEntity
  8
0
  6
Continuous
 62
     0
370
     0
100
AcDbLine
 10
246.6270219471208
 20
466.057866816527
 30
0.0
 11
246.6571502449168
 21
466.1410878500586
 31
0.0
  0
LINE
  5
75
330
48
100
AcDbEntity
  8
0
  6
Continuous
 62
     0
370
     0
100
AcDbLine
 10
246.6571502449173
 20
466.1410878500604
 30
0.0
 11
230.5932659139073
 21
466.1410878500604
 31
0.0
  0
LINE
  5
76
330
48
100
AcDbEntity
  8
0
  6
Continuous
 62
     0
370
    30
100
AcDbLine
 10
259.1251745859207
 20
478.5587483436938
 30
0.0
 11
259.1252080793874
 21
478.6079519119605
 31
0.0
  0
ARC
  5
77
330
48
100
AcDbEntity
  8
0
  6
Continuous
 62
     0
370
     0
100
AcDbCircle
 10
246.6566679305802
 20
478.609628101207
 30
0.0
 40
12.4685402614751
100
AcDbArc
 50
270.0022163442997
 51
359.9922975289994
  0
LINE
  5
78
330
48
100
AcDbEntity
  8
0
  6
Continuous
 62
     0
370
     0
100
AcDbLine
 10
252.36014202462
 20
480.5063382264433
 30
0.0
 11
252.6779090771652
 21
481.3067608196043
 31
0.0
  0
LWPOLYLINE
  5
79
330
48
100
AcDbEntity
  8
0
  6
Continuous
 62
     0
370
     0
100
AcDbPolyline
 90
       17
 70
     0
 43
0.0
 10
252.6779022216796
 20
481.3067626953125
 10
253.3225555419921
 20
481.3260192871093
 10
253.9559936523437
 20
481.3872985839843
 10
254.5734405517578
 20
481.49560546875
 10
255.1692962646484
 20
481.6558532714843
 10
255.7371978759765
 20
481.8723449707031
 10
256.2700805664062
 20
482.1483764648437
 10
256.7602539062499
 20
482.4850769042968
 10
257.2003479003906
 20
482.8810424804687
 10
257.5845947265625
 20
483.3319396972656
 10
257.9095458984375
 20
483.8312377929687
 10
258.1748352050781
 20
484.3714599609374
 10
258.38232421875
 20
484.9449768066405
 10
258.5357055664062
 20
485.544921875
 10
258.6394958496093
 20
486.1651916503906
 10
258.6985473632812
 20
486.8004455566405
 10
258.7177429199218
 20
487.4460754394531
  0
LINE
  5
7A
330
48
100
AcDbEntity
  8
0
  6
Continuous
 62
     0
370
     0
100
AcDbLine
 10
258.7177437405873
 20
487.4460602029604
 30
0.0
 11
258.8600939661873
 21
486.9768906249604
 31
0.0
  0
ARC
  5
7B
330
48
100
AcDbEntity
  8
0
  6
Continuous
 62
     0
370
     0
100
AcDbCircle
 10
252.3716154086768
 20
486.9948314432554
 30
0.0
 40
6.488503360886498
100
AcDbArc
 50
269.8986859080384
 51
359.8415760273274
  0
LINE
  5
7C
330
48
100
AcDbEntity
  8
0
  6
Continuous
 62
     0
370
     0
100
AcDbLine
 10
246.6571502449166
 20
466.1410878501214
 30
0.0
 11
251.0297843944978
 21
477.1553040601604
 31
0.0
  0
LINE
  5
7D
330
48
100
AcDbEntity
  8
0
  6
Continuous
 62
     0
370
     0
100
AcDbLine
 10
251.0297844043868
 20
477.1553040601329
 30
0.0
 11
252.3601420245872
 21
480.5063382264738
 31
0.0
  0
LINE
  5
7E
330
48
100
AcDbEntity
  8
0
  6
Continuous
 62
     0
370
     0
100
AcDbLine
 10
252.6779090771984
 20
481.3067608196616
 30
0.0
 11
252.6945341260873
 21
481.3486376098364
 31
0.0
  0
LWPOLYLINE
  5
7F
330
48
100
AcDbEntity
  8
0
  6
Continuous
 62
     0
370
     0
100
AcDbPolyline
 90
       15
 70
     0
 43
0.0
 10
252.6945343017578
 20
481.3486328125
 10
252.6900634765624
 20
481.3790893554688
 10
252.6258392333984
 20
481.4223022460937
 10
252.5382080078125
 20
481.4529724121094
 10
252.4210510253906
 20
481.4818420410156
 10
252.183609008789
 20
481.5237731933593
 10
251.8331756591797
 20
481.5674743652343
 10
251.4948577880859
 20
481.5989379882812
 10
251.059585571289
 20
481.6298217773437
 10
250.7158508300781
 20
481.648681640625
 10
250.5221862792968
 20
481.6575927734374
 10
250.1261749267578
 20
481.6723327636719
 10
249.7362213134765
 20
481.6829528808593
 10
249.2845001220703
 20
481.6908569335937
 10
248.6967468261718
 20
481.6944580078125
  0
LINE
  5
80
330
48
100
AcDbEntity
  8
0
  6
Continuous
 62
     0
370
     0
100
AcDbLine
 10
248.6967394417873
 20
481.6944619747356
 30
0.0
 11
248.2186790321073
 21
481.6944619747356
 31
0.0
  0
LINE
  5
81
330
48
100
AcDbEntity
  8
0
  6
Continuous
 62
     0
370
     0
100
AcDbLine
 10
248.2186790321073
 20
481.6944619747356
 30
0.0
 11
238.6252080793874
 21
481.6944619747356
 31
0.0
  0
LINE
  5
82
330
48
100
AcDbEntity
  8
0
  6
Continuous
 62
     0
370
     0
100
AcDbLine
 10
238.6252080793873
 20
481.6944619747356
 30
0.0
 11
229.0317371266672
 21
481.6944619747356
 31
0.0
  0
LINE
  5
83
330
48
100
AcDbEntity
  8
0
  6
Continuous
 62
     0
370
     0
100
AcDbLine
 10
229.0317371266673
 20
481.6944619747356
 30
0.0
 11
228.5536767169874
 21
481.6944619747356
 31
0.0
  0
LWPOLYLINE
  5
84
330
48
100
AcDbEntity
  8
0
  6
Continuous
 62
     0
370
     0
100
AcDbPolyline
 90
       15
 70
     0
 43
0.0
 10
228.5536804199218
 20
481.6944580078125
 10
228.0320892333984
 20
481.691650390625
 10
227.5720062255859
 20
481.6842346191406
 10
227.1242370605468
 20
481.6723327636719
 10
226.8987426757812
 20
481.6644592285156
 10
226.5345611572265
 20
481.648681640625
 10
226.1908264160156
 20
481.6298217773437
 10
225.7555694580078
 20
481.5989379882812
 10
225.417236328125
 20
481.5674743652343
 10
225.0668182373046
 20
481.5237731933593
 10
224.9091339111328
 20
481.4976806640625
 10
224.7763061523437
 20
481.4698181152343
 10
224.6245727539062
 20
481.4223022460937
 10
224.574966430664
 20
481.3941650390624
 10
224.5558776855468
 20
481.3486328125
  0
LINE
  5
85
330
48
100
AcDbEntity
  8
0
  6
Continuous
 62
     0
370
     0
100
AcDbLine
 10
224.5558820326873
 20
481.3486376098365
 30
0.0
 11
224.5725070815873
 21
481.3067608196337
 31
0.0
  0
LINE
  5
86
330
48
100
AcDbEntity
  8
0
  6
Continuous
 62
     0
370
     0
100
AcDbLine
 10
224.5725070815873
 20
481.3067608196337
 30
0.0
 11
224.8902741341544
 21
480.5063382264736
 31
0.0
  0
LINE
  5
87
330
48
100
AcDbEntity
  8
0
  6
Continuous
 62
     0
370
     0
100
AcDbLine
 10
224.8902741341875
 20
480.5063382264737
 30
0.0
 11
226.2206317543878
 21
477.1553040601329
 31
0.0
  0
LINE
  5
88
330
48
100
AcDbEntity
  8
0
  6
Continuous
 62
     0
370
     0
100
AcDbLine
 10
226.2206317642768
 20
477.1553040601604
 30
0.0
 11
230.593265913858
 21
466.1410878501214
 31
0.0
  0
LWPOLYLINE
  5
89
330
48
100
AcDbEntity
  8
0
  6
Continuous
 62
     0
370
     0
100
AcDbPolyline
 90
       20
 70
     0
 43
0.0
 10
238.6252136230468
 20
466.3676147460937
 10
238.2318420410156
 20
466.3701782226562
 10
237.827896118164
 20
466.3782653808594
 10
237.4298553466796
 20
466.3923950195312
 10
237.0563964843749
 20
466.4125061035156
 10
236.7259826660156
 20
466.4380493164062
 10
236.4539489746093
 20
466.4678649902343
 10
236.2503662109375
 20
466.5005798339843
 10
236.1187591552734
 20
466.5345764160156
 10
236.0564575195312
 20
466.5683288574219
 10
236.0564575195312
 20
466.6011047363281
 10
236.1187591552734
 20
466.6348571777343
 10
236.2503662109375
 20
466.6688232421875
 10
236.4539489746093
 20
466.7015380859375
 10
236.7259826660156
 20
466.7313842773437
 10
237.0563964843749
 20
466.7568969726562
 10
237.4298553466796
 20
466.7770080566405
 10
237.827896118164
 20
466.7911376953124
 10
238.2318420410156
 20
466.7992553710937
 10
238.6252136230468
 20
466.8017883300781
  0
LWPOLYLINE
  5
8A
330
48
100
AcDbEntity
  8
0
  6
Continuous
 62
     0
370
     0
100
AcDbPolyline
 90
       20
 70
     0
 43
0.0
 10
238.6252136230468
 20
466.8017883300781
 10
239.018569946289
 20
466.7992553710937
 10
239.4225158691406
 20
466.7911376953124
 10
239.820556640625
 20
466.7770080566405
 10
240.1940155029297
 20
466.7568969726562
 10
240.5244445800781
 20
466.7313842773437
 10
240.7964630126953
 20
466.7015380859375
 10
241.0000457763671
 20
466.6688232421875
 10
241.1316528320312
 20
466.6348571777343
 10
241.1939544677734
 20
466.6011047363281
 10
241.1939544677734
 20
466.5683288574219
 10
241.1316528320312
 20
466.5345764160156
 10
241.0000457763671
 20
466.5005798339843
 10
240.7964630126953
 20
466.4678649902343
 10
240.5244445800781
 20
466.4380493164062
 10
240.1940155029297
 20
466.4125061035156
 10
239.820556640625
 20
466.3923950195312
 10
239.4225158691406
 20
466.3782653808594
 10
239.018569946289
 20
466.3701782226562
 10
238.6252136230468
 20
466.3676147460937
  0
LWPOLYLINE
  5
8B
330
48
100
AcDbEntity
  8
0
  6
Continuous
 62
     0
370
     0
100
AcDbPolyline
 90
       17
 70
     0
 43
0.0
 10
252.6945343017578
 20
481.3486328125
 10
253.3345642089843
 20
481.3703002929687
 10
253.96337890625
 20
481.4340515136718
 10
254.5762939453124
 20
481.5447692871093
 10
255.1675415039062
 20
481.7073364257812
 10
255.7305603027343
 20
481.9259338378905
 10
256.25830078125
 20
482.2035827636718
 10
256.7435302734375
 20
482.5413513183593
 10
257.1791687011718
 20
482.9379577636719
 10
257.5588989257812
 20
483.3890075683593
 10
257.8797302246093
 20
483.8874816894531
 10
258.1414489746093
 20
484.4261169433593
 10
258.3460998535156
 20
484.9976196289062
 10
258.4971923828125
 20
485.5951843261719
 10
258.5992736816406
 20
486.2124938964844
 10
258.6573181152343
 20
486.8440551757812
 10
258.6762084960937
 20
487.4853820800781
  0
LINE
  5
8C
330
48
100
AcDbEntity
  8
0
  6
Continuous
 62
     0
370
     0
100
AcDbLine
 10
258.6762203235475
 20
487.4853930796267
 30
0.0
 11
258.7177437406122
 21
487.4460602010617
 31
0.0
  0
LINE
  5
8D
330
48
100
AcDbEntity
  8
0
  6
Continuous
 62
     0
370
    30
100
AcDbLine
 10
259.1252080793889
 20
485.0197532020486
 30
0.0
 11
259.1252080793889
 21
498.8551671812604
 31
0.0
  0
LINE
  5
8E
330
48
100
AcDbEntity
  8
0
  6
Continuous
 62
     0
370
     0
100
AcDbLine
 10
259.1252080793888
 20
498.8551671812603
 30
0.0
 11
258.7334355630746
 21
498.8551671812603
 31
0.0
  0
LINE
  5
8F
330
48
100
AcDbEntity
  8
0
  6
Continuous
 62
     0
370
     0
100
AcDbLine
 10
258.7334355811372
 20
498.8551671815279
 30
0.0
 11
258.7177437450031
 21
487.4460601965482
 31
0.0
  0
ARC
  5
90
330
48
100
AcDbEntity
  8
0
  6
Continuous
 62
     0
370
     0
100
AcDbCircle
 10
251.6690358220553
 20
485.0062639592411
 30
0.0
 40
7.456184459272368
100
AcDbArc
 50
0.103655845559081
 51
15.32502114105052
  0
LWPOLYLINE
  5
91
330
48
100
AcDbEntity
  8
0
  6
Continuous
 62
     0
370
     0
100
AcDbPolyline
 90
       17
 70
     0
 43
0.0
 10
251.02978515625
 20
477.1553039550781
 10
251.8121032714843
 20
477.1920471191406
 10
252.5891571044922
 20
477.3026123046874
 10
253.3532104492187
 20
477.486328125
 10
254.0967407226562
 20
477.7418212890625
 10
254.8124237060546
 20
478.0668945312499
 10
255.4932098388671
 20
478.4588012695312
 10
256.1323852539062
 20
478.9140319824219
 10
256.7236022949218
 20
479.4284973144531
 10
257.2608947753906
 20
479.9975891113281
 10
257.7388000488281
 20
480.6161499023438
 10
258.1523742675781
 20
481.2785034179687
 10
258.4971923828125
 20
481.9785461425781
 10
258.76953125
 20
482.709716796875
 10
258.9663391113281
 20
483.4651794433593
 10
259.0853576660156
 20
484.2376708984375
 10
259.1252136230469
 20
485.0197448730468
  0
LINE
  5
92
330
48
100
AcDbEntity
  8
0
  6
Continuous
 62
     0
370
    30
100
AcDbLine
 10
259.1252080793873
 20
478.6079519119296
 30
0.0
 11
259.1252080793873
 21
485.0197532020237
 31
0.0
  0
ARC
  5
93
330
48
100
AcDbEntity
  8
0
  6
Continuous
 62
     0
370
     0
100
AcDbCircle
 10
116.0755829076983
 20
486.4836556777394
 30
0.0
 40
132.7076016538311
100
AcDbArc
 50
357.9318427907844
 51
0.6415301450452397
  0
LWPOLYLINE
  5
94
330
48
100
AcDbEntity
  8
0
  6
Continuous
 62
     0
370
     0
100
AcDbPolyline
 90
       18
 70
     0
 43
0.0
 10
248.7748718261718
 20
487.9695129394531
 10
249.577407836914
 20
487.9657592773437
 10
250.4155883789062
 20
487.9583740234375
 10
251.2689514160156
 20
487.9471435546874
 10
252.1186218261718
 20
487.9319763183594
 10
252.9474029541015
 20
487.9129638671875
 10
253.7405395507812
 20
487.8904113769531
 10
254.4898834228515
 20
487.8645324707031
 10
255.1903076171874
 20
487.8356018066406
 10
255.837173461914
 20
487.8038330078124
 10
256.4248962402343
 20
487.7695617675781
 10
256.9492492675781
 20
487.7331848144531
 10
257.4093017578125
 20
487.6948547363281
 10
257.8040466308593
 20
487.6546936035156
 10
258.1300354003906
 20
487.6131286621093
 10
258.3844604492187
 20
487.5706481933593
 10
258.5661926269531
 20
487.5278320312499
 10
258.6762084960937
 20
487.4853820800781
  0
LINE
  5
95
330
48
100
AcDbEntity
  8
0
  6
Continuous
 62
     0
370
     0
100
AcDbLine
 10
248.2186790321075
 20
481.6944619746603
 30
0.0
 11
248.2186789838173
 21
487.9703105769603
 31
0.0
  0
LINE
  5
96
330
48
100
AcDbEntity
  8
0
  6
Continuous
 62
     0
370
     0
100
AcDbLine
 10
248.2186789838173
 20
487.9703105769603
 30
0.0
 11
248.7748659647122
 21
487.9695268671631
 31
0.0
  0
LINE
  5
97
330
48
100
AcDbEntity
  8
0
  6
Continuous
 62
     0
370
     0
100
AcDbLine
 10
248.2186790087169
 20
487.9703105769603
 30
0.0
 11
238.6252080793873
 21
487.9703105769603
 31
0.0
  0
LINE
  5
98
330
48
100
AcDbEntity
  8
0
  6
Continuous
 62
     0
370
     0
100
AcDbLine
 10
238.625208079387
 20
487.9703105769603
 30
0.0
 11
238.6252080793873
 21
481.6944619746603
 31
0.0
  0
LINE
  5
99
330
48
100
AcDbEntity
  8
0
  6
Continuous
 62
     0
370
     0
100
AcDbLine
 10
229.0317371266675
 20
481.6944619746605
 30
0.0
 11
229.0317371266672
 21
487.9703105769603
 31
0.0
  0
LINE
  5
9A
330
48
100
AcDbEntity
  8
0
  6
Continuous
 62
     0
370
     0
100
AcDbLine
 10
229.0317371266672
 20
487.9703105769603
 30
0.0
 11
238.6252080793872
 21
487.9703105769603
 31
0.0
  0
LINE
  5
9B
330
48
100
AcDbEntity
  8
0
  6
Continuous
 62
     0
370
     0
100
AcDbLine
 10
229.0317371266673
 20
487.9703105769573
 30
0.0
 11
228.4755501930873
 21
487.9695268671603
 31
0.0
  0
ARC
  5
9C
330
48
100
AcDbEntity
  8
0
  6
Continuous
 62
     0
370
     0
100
AcDbCircle
 10
361.1737299991491
 20
486.4836419842129
 30
0.0
 40
132.706498626583
100
AcDbArc
 50
179.3584586099429
 51
182.0681684907389
  0
LWPOLYLINE
  5
9D
330
48
100
AcDbEntity
  8
0
  6
Continuous
 62
     0
370
     0
100
AcDbPolyline
 90
       18
 70
     0
 43
0.0
 10
228.4755554199218
 20
487.9695129394531
 10
227.6730194091796
 20
487.9657592773437
 10
226.8348236083984
 20
487.9583740234375
 10
225.981460571289
 20
487.9471435546874
 10
225.1317901611328
 20
487.9319763183594
 10
224.3030090332031
 20
487.9129638671875
 10
223.5098724365234
 20
487.8904113769531
 10
222.7605285644531
 20
487.8645324707031
 10
222.0601043701171
 20
487.8356018066406
 10
221.4132385253906
 20
487.8038330078124
 10
220.8255310058593
 20
487.7695617675781
 10
220.3011627197265
 20
487.7331848144531
 10
219.8411102294921
 20
487.6948547363281
 10
219.4463653564453
 20
487.6546936035156
 10
219.120376586914
 20
487.6131286621093
 10
218.8659515380859
 20
487.5706481933593
 10
218.6842193603515
 20
487.5278320312499
 10
218.5741882324218
 20
487.4853820800781
  0
LWPOLYLINE
  5
9E
330
48
100
AcDbEntity
  8
0
  6
Continuous
 62
     0
370
     0
100
AcDbPolyline
 90
       17
 70
     0
 43
0.0
 10
218.5741882324218
 20
487.4853820800781
 10
218.5929718017578
 20
486.8440246582031
 10
218.6509399414062
 20
486.2125549316406
 10
218.7529907226562
 20
485.5954895019531
 10
218.9039916992187
 20
484.9981689453125
 10
219.1085357666015
 20
484.4266052246093
 10
219.3703155517578
 20
483.8876953125
 10
219.6913452148437
 20
483.3889770507812
 10
220.0712585449218
 20
482.9379577636719
 10
220.5068206787109
 20
482.5412292480469
 10
220.9922637939452
 20
482.2032165527343
 10
221.5203552246093
 20
481.9254760742187
 10
222.0834045410156
 20
481.7069702148437
 10
222.6744079589843
 20
481.5444946289062
 10
223.2870483398437
 20
481.4338378906249
 10
223.915771484375
 20
481.3702087402344
 10
224.5558776855468
 20
481.3486328125
  0
LINE
  5
9F
330
48
100
AcDbEntity
  8
0
  6
Continuous
 62
     0
370
     0
100
AcDbLine
 10
218.5741958351973
 20
487.4853930796099
 30
0.0
 11
218.5326724171875
 21
487.4460601980604
 31
0.0
  0
LWPOLYLINE
  5
A0
330
48
100
AcDbEntity
  8
0
  6
Continuous
 62
     0
370
     0
100
AcDbPolyline
 90
       17
 70
     0
 43
0.0
 10
218.5326690673828
 20
487.4460754394531
 10
218.5519866943359
 20
486.8004760742187
 10
218.6111297607421
 20
486.1651611328125
 10
218.7149658203125
 20
485.5446166992187
 10
218.868423461914
 20
484.9444274902343
 10
219.0760192871093
 20
484.3709411621094
 10
219.3412475585937
 20
483.8310241699218
 10
219.6660003662109
 20
483.3319702148437
 10
220.050048828125
 20
482.8810424804687
 10
220.4902191162109
 20
482.4852294921875
 10
220.9801635742187
 20
482.1487426757812
 10
221.512710571289
 20
481.872802734375
 10
222.080581665039
 20
481.6562194824219
 10
222.6766815185547
 20
481.4958801269531
 10
223.2944030761718
 20
481.3875122070312
 10
223.9279174804687
 20
481.3261413574219
 10
224.5725097656249
 20
481.3067626953125
  0
LINE
  5
A1
330
48
100
AcDbEntity
  8
0
  6
Continuous
 62
     0
370
     0
100
AcDbLine
 10
218.5326724172124
 20
487.4460602000572
 30
0.0
 11
218.3903221925874
 21
486.9768906249604
 31
0.0
  0
ARC
  5
A2
330
48
100
AcDbEntity
  8
0
  6
Continuous
 62
     0
370
     0
100
AcDbCircle
 10
224.8788007500976
 20
486.9948314432552
 30
0.0
 40
6.488503360886223
100
AcDbArc
 50
180.1584239726709
 51
270.1013140919608
  0
LWPOLYLINE
  5
A3
330
48
100
AcDbEntity
  8
0
  6
Continuous
 62
     0
370
     0
100
AcDbPolyline
 90
       17
 70
     0
 43
0.0
 10
226.2206268310547
 20
477.1553039550781
 10
225.4383239746093
 20
477.1920471191406
 10
224.6612701416015
 20
477.3026123046874
 10
223.8972015380859
 20
477.486328125
 10
223.1536712646484
 20
477.7418212890625
 10
222.4379882812499
 20
478.0668945312499
 10
221.7572021484375
 20
478.4588012695312
 10
221.1180267333984
 20
478.9140319824219
 10
220.5268249511718
 20
479.4284973144531
 10
219.989517211914
 20
479.9975891113281
 10
219.5115966796874
 20
480.6161499023438
 10
219.0980377197265
 20
481.2785034179687
 10
218.7532196044922
 20
481.9785461425781
 10
218.4808807373046
 20
482.709716796875
 10
218.2840728759765
 20
483.4651794433593
 10
218.165054321289
 20
484.2376708984375
 10
218.1252136230468
 20
485.0197448730468
  0
ARC
  5
A4
330
48
100
AcDbEntity
  8
0
  6
Continuous
 62
     0
370
    30
100
AcDbCircle
 10
225.5812388208683
 20
485.0062831289961
 30
0.0
 40
7.45604290899508
100
AcDbArc
 50
164.6748335170553
 51
179.8964894963517
  0
LINE
  5
A5
330
48
100
AcDbEntity
  8
0
  6
Continuous
 62
     0
370
    30
100
AcDbLine
 10
218.1252080793873
 20
478.6079519119296
 30
0.0
 11
218.1252080793875
 21
485.0197532020237
 31
0.0
  0
LWPOLYLINE
  5
A6
330
48
100
AcDbEntity
  8
0
  6
Continuous
 62
     0
370
     0
100
AcDbPolyline
 90
       19
 70
     0
 43
0.0
 10
258.7334289550781
 20
498.8551635742187
 10
258.6797180175781
 20
498.9309692382812
 10
258.5481262207031
 20
499.0061950683593
 10
258.3396301269531
 20
499.080322265625
 10
258.0558166503906
 20
499.1527404785156
 10
257.6987609863281
 20
499.2229614257812
 10
257.2711791992187
 20
499.2904357910155
 10
256.7762145996093
 20
499.3546752929687
 10
256.2175598144531
 20
499.4151611328125
 10
255.5993957519531
 20
499.4714965820312
 10
254.9263305664062
 20
499.523223876953
 10
254.203384399414
 20
499.5699768066406
 10
253.4359283447265
 20
499.6114196777344
 10
252.6296844482422
 20
499.6471862792969
 10
251.7906799316406
 20
499.6770629882812
 10
250.9251708984375
 20
499.7008361816406
 10
250.0396118164062
 20
499.7182617187499
 10
249.1405792236327
 20
499.7292785644531
 10
248.2348022460937
 20
499.7337951660155
  0
LINE
  5
A7
330
48
100
AcDbEntity
  8
0
  6
Continuous
 62
     0
370
     0
100
AcDbLine
 10
248.2348065563675
 20
499.7337845362481
 30
0.0
 11
248.2186790323272
 21
487.9703105769975
 31
0.0
  0
LINE
  5
A8
330
48
100
AcDbEntity
  8
0
  6
Continuous
 62
     0
370
     0
100
AcDbLine
 10
258.7334216158034
 20
498.8551671812603
 30
0.0
 11
258.7341680588612
 21
499.4035226571903
 31
0.0
  0
LINE
  5
A9
330
48
100
AcDbEntity
  8
0
  6
Continuous
 62
     0
370
     0
100
AcDbLine
 10
258.7341680588612
 20
499.4035226571903
 30
0.0
 11
259.114345081936
 21
499.4035226585228
 31
0.0
  0
LINE
  5
AA
330
48
100
AcDbEntity
  8
0
  6
Continuous
 62
     0
370
    30
100
AcDbLine
 10
259.1252080793873
 20
499.4035514163634
 30
0.0
 11
259.1252080793873
 21
498.8551671812603
 31
0.0
  0
LINE
  5
AB
330
48
100
AcDbEntity
  8
0
  6
Continuous
 62
     0
370
     0
100
AcDbLine
 10
248.2347926241658
 20
499.7337845425648
 30
0.0
 11
248.2348390199778
 21
499.7679724502209
 31
0.0
  0
ARC
  5
AC
330
48
100
AcDbEntity
  8
0
  6
Continuous
 62
     0
370
     0
100
AcDbCircle
 10
238.6252080910874
 20
-84.51479104397618
 30
0.0
 40
584.3617823945816
100
AcDbArc
 50
89.05774790462441
 51
90.94225209695094
  0
LINE
  5
AD
330
48
100
AcDbEntity
  8
0
  6
Continuous
 62
     0
370
     0
100
AcDbLine
 10
229.0155771387978
 20
499.767972449702
 30
0.0
 11
229.0156235346088
 21
499.7337845425684
 31
0.0
  0
LINE
  5
AE
330
48
100
AcDbEntity
  8
0
  6
Continuous
 62
     0
370
     0
100
AcDbLine
 10
229.0156096025228
 20
499.733784517533
 30
0.0
 11
229.0317371265473
 21
487.9703105768754
 31
0.0
  0
LINE
  5
AF
330
48
100
AcDbEntity
  8
0
  6
Continuous
 62
     0
370
     0
100
AcDbLine
 10
218.5326724137482
 20
487.4460601877319
 30
0.0
 11
218.5169805777906
 21
498.8551671812768
 31
0.0
  0
LWPOLYLINE
  5
B0
330
48
100
AcDbEntity
  8
0
  6
Continuous
 62
     0
370
     0
100
AcDbPolyline
 90
       19
 70
     0
 43
0.0
 10
218.5169830322265
 20
498.8551635742187
 10
218.5706939697265
 20
498.9309692382812
 10
218.7022857666015
 20
499.0061950683593
 10
218.9107818603515
 20
499.080322265625
 10
219.1946105957031
 20
499.1527404785156
 10
219.5516510009765
 20
499.2229614257812
 10
219.9792327880859
 20
499.2904357910155
 10
220.4741973876953
 20
499.3546752929687
 10
221.0328521728515
 20
499.4151611328125
 10
221.6510162353515
 20
499.4714965820312
 10
222.3240814208984
 20
499.523223876953
 10
223.0470428466797
 20
499.5699768066406
 10
223.8144989013671
 20
499.6114196777344
 10
224.6207275390625
 20
499.6471862792969
 10
225.459732055664
 20
499.6770629882812
 10
226.3252410888672
 20
499.7008361816406
 10
227.2108001708984
 20
499.7182617187499
 10
228.1098327636718
 20
499.7292785644531
 10
229.0156097412109
 20
499.7337951660155
  0
LINE
  5
B1
330
48
100
AcDbEntity
  8
0
  6
Continuous
 62
     0
370
     0
100
AcDbLine
 10
218.5169805957002
 20
498.8551671812603
 30
0.0
 11
218.125208079386
 21
498.8551671812603
 31
0.0
  0
LINE
  5
B2
330
48
100
AcDbEntity
  8
0
  6
Continuous
 62
     0
370
    30
100
AcDbLine
 10
218.1252080793862
 20
498.8551671812605
 30
0.0
 11
218.1252080793862
 21
485.0197532020461
 31
0.0
  0
LWPOLYLINE
  5
B3
330
48
100
AcDbEntity
  8
0
  6
Continuous
 62
     0
370
     0
100
AcDbPolyline
 90
       19
 70
     0
 43
0.0
 10
258.7341613769531
 20
499.4035339355469
 10
258.6799621582031
 20
499.4188232421874
 10
258.5475769042968
 20
499.4360656738281
 10
258.3389282226562
 20
499.4549865722656
 10
258.0559387207031
 20
499.4754028320312
 10
257.7005310058593
 20
499.4970397949218
 10
257.2745971679687
 20
499.5196533203125
 10
256.7805175781249
 20
499.5430603027343
 10
256.222412109375
 20
499.5669250488281
 10
255.6047973632812
 20
499.5909423828124
 10
254.9321899414062
 20
499.6148376464843
 10
254.2091064453125
 20
499.6382751464843
 10
253.4400482177734
 20
499.6610107421875
 10
252.630142211914
 20
499.6826782226562
 10
251.7867126464843
 20
499.7030944824218
 10
250.9176177978515
 20
499.7220458984375
 10
250.0307006835937
 20
499.7393188476562
 10
249.1338195800781
 20
499.7546997070312
 10
248.2348327636718
 20
499.7679748535156
  0
ARC
  5
B4
330
48
100
AcDbEntity
  8
0
  6
Continuous
 62
     0
370
     0
100
AcDbCircle
 10
256.7342970667642
 20
499.4036472730913
 30
0.0
 40
1.999879510605595
100
AcDbArc
 50
359.9964298026652
 51
88.23335120396761
  0
LINE
  5
B5
330
48
100
AcDbEntity
  8
0
  6
Continuous
 62
     0
370
    30
100
AcDbLine
 10
256.7959512575873
 20
501.4025761907104
 30
0.0
 11
257.1762452464152
 21
501.4026042604209
 31
0.0
  0
LINE
  5
B6
330
48
100
AcDbEntity
  8
0
  6
Continuous
 62
     0
370
     0
100
AcDbLine
 10
248.2348390286976
 20
499.7679724503604
 30
0.0
 11
248.2677274651876
 21
501.6003461791504
 31
0.0
  0
ARC
  5
B7
330
48
100
AcDbEntity
  8
0
  6
Continuous
 62
     0
370
    30
100
AcDbCircle
 10
238.6252080979947
 20
-84.68174497118685
 30
0.0
 40
586.361380535382
100
AcDbArc
 50
89.0577473453694
 51
90.94225265918504
  0
LINE
  5
B8
330
48
100
AcDbEntity
  8
0
  6
Continuous
 62
     0
370
     0
100
AcDbLine
 10
228.9826886839875
 20
501.6003461783803
 30
0.0
 11
229.0155771423075
 21
499.7679724501774
 31
0.0
  0
LWPOLYLINE
  5
B9
330
48
100
AcDbEntity
  8
0
  6
Continuous
 62
     0
370
     0
100
AcDbPolyline
 90
       19
 70
     0
 43
0.0
 10
218.5162506103515
 20
499.4035339355469
 10
218.5704650878906
 20
499.4188232421874
 10
218.7028350830078
 20
499.43603515625
 10
218.9114837646484
 20
499.4549560546874
 10
219.1944580078124
 20
499.4753112792968
 10
219.5498809814453
 20
499.4968872070312
 10
219.9758148193359
 20
499.5194702148437
 10
220.4698944091796
 20
499.5428161621093
 10
221.0279998779296
 20
499.5666198730468
 10
221.6456146240234
 20
499.5906066894531
 10
222.3182220458984
 20
499.6144714355469
 10
223.0413055419921
 20
499.6379089355468
 10
223.8103637695312
 20
499.66064453125
 10
224.6202697753906
 20
499.682373046875
 10
225.4636993408203
 20
499.7028503417968
 10
226.3328094482421
 20
499.7218627929687
 10
227.2197265625
 20
499.7392272949219
 10
228.1165924072265
 20
499.7546691894531
 10
229.0155792236328
 20
499.7679748535156
  0
LINE
  5
BA
330
48
100
AcDbEntity
  8
0
  6
Continuous
 62
     0
370
     0
100
AcDbLine
 10
218.5169945427318
 20
498.8551673690121
 30
0.0
 11
218.5162480978306
 21
499.4035241480916
 31
0.0
  0
LINE
  5
BB
330
48
100
AcDbEntity
  8
0
  6
Continuous
 62
     0
370
     0
100
AcDbLine
 10
218.5162481000984
 20
499.4035225160888
 30
0.0
 11
218.1360710768438
 21
499.4035225174213
 31
0.0
  0
LINE
  5
BC
330
48
100
AcDbEntity
  8
0
  6
Continuous
 62
     0
370
    30
100
AcDbLine
 10
218.1252080793873
 20
499.4035528554877
 30
0.0
 11
218.1252080793875
 21
498.8551671812604
 31
0.0
  0
ARC
  5
BD
330
48
100
AcDbEntity
  8
0
  6
Continuous
 62
     0
370
    30
100
AcDbCircle
 10
236.5379270483781
 20
-188.1906629421292
 30
0.0
 40
689.8907337263182
100
AcDbArc
 50
88.31731950783773
 51
89.02578711326091
  0
LINE
  5
BE
330
48
100
AcDbEntity
  8
0
  6
Continuous
 62
     0
370
    30
100
AcDbLine
 10
220.4544627074463
 20
501.4025764083074
 30
0.0
 11
220.0744025874062
 21
501.4026030366543
 31
0.0
  0
ARC
  5
BF
330
48
100
AcDbEntity
  8
0
  6
Continuous
 62
     0
370
    30
100
AcDbCircle
 10
240.7146222967156
 20
-188.2799507231635
 30
0.0
 40
689.9800448637574
100
AcDbArc
 50
90.97426393770941
 51
91.68263989604701
  0
ARC
  5
C0
330
48
100
AcDbEntity
  8
0
  6
Continuous
 62
     0
370
     0
100
AcDbCircle
 10
220.5161270138209
 20
499.403649190715
 30
0.0
 40
1.999879036833016
100
AcDbArc
 50
91.76665875467163
 51
180.0035781788108
  0
ARC
  5
C1
330
48
100
AcDbEntity
  8
0
  6
Continuous
 62
     0
370
    30
100
AcDbCircle
 10
220.1251866043455
 20
499.4035528798702
 30
0.0
 40
1.99999997655812
100
AcDbArc
 50
91.7664035259837
 51
180.00000069867
  0
LINE
  5
C2
330
48
100
AcDbEntity
  8
0
  6
Continuous
 62
     0
370
    30
100
AcDbLine
 10
220.0635372862057
 20
501.4026024705631
 30
0.0
 11
220.0444738605523
 21
501.4019235737979
 31
0.0
  0
ARC
  5
C3
330
48
100
AcDbEntity
  8
0
  6
Continuous
 62
     0
370
    30
100
AcDbCircle
 10
257.1250255347972
 20
499.4033305641353
 30
0.0
 40
2.000227779107398
100
AcDbArc
 50
0.0063262120606602
 51
88.2282330726896
  0
ARC
  5
C4
330
48
100
AcDbEntity
  8
0
  6
Continuous
 62
     0
370
    30
100
AcDbCircle
 10
318.5979521756858
 20
483.7917681170514
 30
0.0
 40
22.2
100
AcDbArc
 50
90.0
 51
110.7996660373506
  0
ARC
  5
C5
330
48
100
AcDbEntity
  8
0
  6
Continuous
 62
     0
370
    30
100
AcDbCircle
 10
318.5979521756858
 20
483.7917681170514
 30
0.0
 40
22.2
100
AcDbArc
 50
172.3033012254661
 51
187.6966987740872
  0
ARC
  5
C6
330
48
100
AcDbEntity
  8
0
  6
Continuous
 62
     0
370
    30
100
AcDbCircle
 10
318.5979521756858
 20
483.7917681170514
 30
0.0
 40
22.2
100
AcDbArc
 50
352.3033636889601
 51
7.696636309700289
  0
ARC
  5
C7
330
48
100
AcDbEntity
  8
0
  6
Continuous
 62
     0
370
    30
100
AcDbCircle
 10
318.5979521756858
 20
483.7917681170514
 30
0.0
 40
22.2
100
AcDbArc
 50
69.20033396175637
 51
89.999999999107
  0
ARC
  5
C8
330
48
100
AcDbEntity
  8
0
  6
Continuous
 62
     0
370
    30
100
AcDbCircle
 10
208.6479516558506
 20
458.8085516360909
 30
0.0
 40
9.999999999960001
100
AcDbArc
 50
179.9999999997748
 51
269.9999999993301
  0
LINE
  5
C9
330
48
100
AcDbEntity
  8
0
  6
Continuous
 62
     0
370
    30
100
AcDbLine
 10
198.6479516558906
 20
458.8085516360522
 30
0.0
 11
198.6479516558906
 21
508.8085516358522
 31
0.0
  0
ARC
  5
CA
330
48
100
AcDbEntity
  8
0
  6
Continuous
 62
     0
370
    30
100
AcDbCircle
 10
208.6479516558506
 20
508.8085516358522
 30
0.0
 40
9.999999999960001
100
AcDbArc
 50
90.00000000020838
 51
179.9999999997766
  0
LINE
  5
CB
330
48
100
AcDbEntity
  8
0
  6
Continuous
 62
     0
370
    30
100
AcDbLine
 10
208.6479516558142
 20
518.8085516358122
 30
0.0
 11
348.6479516552543
 21
518.8085516358122
 31
0.0
  0
ARC
  5
CC
330
48
100
AcDbEntity
  8
0
  6
Continuous
 62
     0
370
    30
100
AcDbCircle
 10
348.6479516552904
 20
508.8085516358522
 30
0.0
 40
9.999999999959982
100
AcDbArc
 50
0.0000000002214684
 51
89.99999999998371
  0
LINE
  5
CD
330
48
100
AcDbEntity
  8
0
  6
Continuous
 62
     0
370
    30
100
AcDbLine
 10
358.6479516552504
 20
508.8085516358908
 30
0.0
 11
358.6479516552504
 21
458.8085516360909
 31
0.0
  0
ARC
  5
CE
330
48
100
AcDbEntity
  8
0
  6
Continuous
 62
     0
370
    30
100
AcDbCircle
 10
348.6479516552904
 20
458.8085516360909
 30
0.0
 40
9.999999999960001
100
AcDbArc
 50
270.0
 51
359.9999999997767
  0
LINE
  5
CF
330
48
100
AcDbEntity
  8
0
  6
Continuous
 62
     0
370
    30
100
AcDbLine
 10
296.5979537963867
 20
448.8085516361309
 30
0.0
 11
208.6479516558506
 21
448.8085516361309
 31
0.0
  0
LINE
  5
D0
330
48
100
AcDbEntity
  8
0
  6
Continuous
 62
     0
370
    30
100
AcDbLine
 10
348.6479516552904
 20
448.8085516361309
 30
0.0
 11
340.5979537963867
 21
448.8085516361309
 31
0.0
  0
ENDBLK
  5
D2
330
48
100
AcDbEntity
  8
0
100
AcDbBlockEnd
  0
BLOCK
  5
13D
330
D4
100
AcDbEntity
  8
0
100
AcDbBlockBegin
  2
b
 70
     0
 10
150.4846382141113
 20
139.9297981262207
 30
0.0
  3
b
  1

  0
LINE
  5
D5
330
D4
100
AcDbEntity
  8
0
  6
Continuous
 62
     0
370
    30
100
AcDbLine
 10
340.5979598050803
 20
320.9953733924187
 30
0.0
 11
340.5979598050803
 21
322.0418492144659
 31
0.0
  0
LINE
  5
D6
330
D4
100
AcDbEntity
  8
0
  6
Continuous
 62
     0
370
    30
100
AcDbLine
 10
296.5979598050803
 20
320.9953733924187
 30
0.0
 11
296.5979598050803
 21
322.0418492144659
 31
0.0
  0
LINE
  5
D7
330
D4
100
AcDbEntity
  8
0
  6
Continuous
 62
     0
370
     0
100
AcDbLine
 10
298.7860152419831
 20
320.9953733924187
 30
0.0
 11
296.5979598050802
 21
320.9953733924187
 31
0.0
  0
LINE
  5
D8
330
D4
100
AcDbEntity
  8
0
  6
Continuous
 62
     0
370
     0
100
AcDbLine
 10
340.5979598050803
 20
320.9953733924187
 30
0.0
 11
338.4099041791453
 21
320.9953733924187
 31
0.0
  0
LINE
  5
D9
330
D4
100
AcDbEntity
  8
0
  6
Continuous
 62
     0
370
    30
100
AcDbLine
 10
298.5826427106565
 20
322.0418492144677
 30
0.0
 11
296.5979598050802
 21
322.0418492144677
 31
0.0
  0
LINE
  5
DA
330
D4
100
AcDbEntity
  8
0
  6
Continuous
 62
     0
370
    30
100
AcDbLine
 10
340.5979598050803
 20
322.0418492144677
 30
0.0
 11
338.6132767089269
 21
322.0418492144677
 31
0.0
  0
LINE
  5
DB
330
D4
100
AcDbEntity
  8
0
  6
Continuous
 62
     0
370
    30
100
AcDbLine
 10
296.5979598050803
 20
314.6538792123099
 30
0.0
 11
296.5979598050803
 21
320.9953733924312
 31
0.0
  0
LWPOLYLINE
  5
DC
330
D4
100
AcDbEntity
  8
0
  6
Continuous
 62
     0
370
    30
100
AcDbPolyline
 90
       16
 70
     0
 43
0.0
 10
303.5979614257812
 20
311.8924865722656
 10
302.8662719726562
 20
311.9075927734375
 10
302.142578125
 20
311.9528198242187
 10
301.4348449707031
 20
312.0276184082031
 10
300.7507934570312
 20
312.1312255859375
 10
300.0979614257812
 20
312.2624206542969
 10
299.4834594726562
 20
312.4198608398437
 10
298.9140319824219
 20
312.6017456054687
 10
298.3959350585937
 20
312.80615234375
 10
297.9348449707031
 20
313.0307617187499
 10
297.5357971191406
 20
313.273193359375
 10
297.2031555175781
 20
313.5307312011718
 10
296.9405517578124
 20
313.8005676269531
 10
296.7509155273437
 20
314.0797424316406
 10
296.6363220214843
 20
314.3652343749999
 10
296.5979614257812
 20
314.6538696289062
  0
LINE
  5
DD
330
D4
100
AcDbEntity
  8
0
  6
Continuous
 62
     0
370
    30
100
AcDbLine
 10
340.5979598050803
 20
314.6538792123099
 30
0.0
 11
340.5979598050803
 21
320.9953733924312
 31
0.0
  0
LINE
  5
DE
330
D4
100
AcDbEntity
  8
0
  6
Continuous
 62
     0
370
    30
100
AcDbLine
 10
333.5979614257812
 20
311.892478190946
 30
0.0
 11
303.5979614257812
 21
311.892478190946
 31
0.0
  0
LWPOLYLINE
  5
DF
330
D4
100
AcDbEntity
  8
0
  6
Continuous
 62
     0
370
    30
100
AcDbPolyline
 90
       16
 70
     0
 43
0.0
 10
340.5979614257812
 20
314.6538696289062
 10
340.5596008300781
 20
314.3652343749999
 10
340.4450073242187
 20
314.0797424316406
 10
340.25537109375
 20
313.8005676269531
 10
339.9927673339843
 20
313.5307312011718
 10
339.6601257324218
 20
313.273193359375
 10
339.2610778808593
 20
313.0307617187499
 10
338.7999877929687
 20
312.80615234375
 10
338.2818908691406
 20
312.6017456054687
 10
337.7124633789062
 20
312.4198608398437
 10
337.0979614257812
 20
312.2624206542969
 10
336.4451293945312
 20
312.1312255859375
 10
335.7610778808593
 20
312.0276184082031
 10
335.0533447265624
 20
311.9528198242187
 10
334.3296508789062
 20
311.9075927734375
 10
333.5979614257812
 20
311.8924865722656
  0
LINE
  5
E0
330
D4
100
AcDbEntity
  8
0
  6
Continuous
 62
     0
370
     0
100
AcDbLine
 10
333.5979614257812
 20
300.8149836661251
 30
0.0
 11
303.5979614257812
 21
300.8149836661251
 31
0.0
  0
LINE
  5
E1
330
D4
100
AcDbEntity
  8
0
  6
Continuous
 62
     0
370
     0
100
AcDbLine
 10
333.5979614257812
 20
299.8272951171582
 30
0.0
 11
303.5979614257812
 21
299.8272951171582
 31
0.0
  0
LWPOLYLINE
  5
E2
330
D4
100
AcDbEntity
  8
0
  6
Continuous
 62
     0
370
     0
100
AcDbPolyline
 90
       16
 70
     0
 43
0.0
 10
340.5979614257812
 20
299.8646850585937
 10
340.5596008300781
 20
299.9640197753906
 10
340.4450073242187
 20
300.062255859375
 10
340.25537109375
 20
300.1583251953125
 10
339.9927673339843
 20
300.2511901855468
 10
339.6601257324218
 20
300.33984375
 10
339.2610778808593
 20
300.4232482910156
 10
338.7999877929687
 20
300.5005493164062
 10
338.2818603515624
 20
300.5708923339843
 10
337.7124633789062
 20
300.6334838867187
 10
337.0979614257812
 20
300.6876525878906
 10
336.4451293945312
 20
300.7328186035156
 10
335.7610778808593
 20
300.7684631347656
 10
335.0533447265624
 20
300.7942199707031
 10
334.3296508789062
 20
300.8097839355468
 10
333.5979614257812
 20
300.8149719238281
  0
LWPOLYLINE
  5
E3
330
D4
100
AcDbEntity
  8
0
  6
Continuous
 62
     0
370
     0
100
AcDbPolyline
 90
       15
 70
     0
 43
0.0
 10
339.5979614257812
 20
298.8769836425781
 10
339.5602416992187
 20
298.9833984375
 10
339.4475402832031
 20
299.0884399414062
 10
339.2612609863281
 20
299.1908569335937
 10
339.0037841796875
 20
299.2893066406249
 10
338.6783142089843
 20
299.382568359375
 10
338.2889404296875
 20
299.469482421875
 10
337.8406066894531
 20
299.5489501953125
 10
337.3388977050781
 20
299.6199645996093
 10
336.7901611328125
 20
299.681640625
 10
336.2012634277343
 20
299.7331848144531
 10
335.5796508789062
 20
299.7739562988281
 10
334.9330749511718
 20
299.803466796875
 10
334.2697448730469
 20
299.8213195800781
 10
333.5979614257812
 20
299.8273010253906
  0
LINE
  5
E4
330
D4
100
AcDbEntity
  8
0
  6
Continuous
 62
     0
370
     0
100
AcDbLine
 10
339.5979614257812
 20
285.2848302105432
 30
0.0
 11
339.5979614257812
 21
298.8769887764208
 31
0.0
  0
LINE
  5
E5
330
D4
100
AcDbEntity
  8
0
  6
Continuous
 62
     0
370
    30
100
AcDbLine
 10
340.5979614257812
 20
286.2725185580282
 30
0.0
 11
340.5979614257812
 21
299.8646771239058
 31
0.0
  0
LWPOLYLINE
  5
E6
330
D4
100
AcDbEntity
  8
0
  6
Continuous
 62
     0
370
     0
100
AcDbPolyline
 90
       15
 70
     0
 43
0.0
 10
339.5979614257812
 20
285.2848205566406
 10
339.5602416992187
 20
285.1797180175781
 10
339.4475402832031
 20
285.0758972167968
 10
339.2612609863281
 20
284.9747314453125
 10
339.0037841796875
 20
284.87744140625
 10
338.6783142089843
 20
284.7852783203125
 10
338.2889404296875
 20
284.6994018554687
 10
337.8406066894531
 20
284.6209106445312
 10
337.3388977050781
 20
284.5507507324218
 10
336.7901611328125
 20
284.4898071289062
 10
336.2012634277343
 20
284.4388732910156
 10
335.5796508789062
 20
284.3985900878906
 10
334.9330749511718
 20
284.3694458007812
 10
334.2697448730469
 20
284.351806640625
 10
333.5979614257812
 20
284.3458862304687
  0
LINE
  5
E7
330
D4
100
AcDbEntity
  8
0
  6
Continuous
 62
     0
370
     0
100
AcDbLine
 10
333.5979614257812
 20
284.3458967396195
 30
0.0
 11
303.5979614257812
 21
284.3458967396195
 31
0.0
  0
LWPOLYLINE
  5
E8
330
D4
100
AcDbEntity
  8
0
  6
Continuous
 62
     0
370
     0
100
AcDbPolyline
 90
       15
 70
     0
 43
0.0
 10
303.5979614257812
 20
284.3458862304687
 10
302.9261779785156
 20
284.351806640625
 10
302.2628479003906
 20
284.3694458007812
 10
301.6162719726562
 20
284.3985900878906
 10
300.9946594238281
 20
284.4388732910156
 10
300.40576171875
 20
284.4898071289062
 10
299.8570251464844
 20
284.5507507324218
 10
299.3553161621093
 20
284.6209106445312
 10
298.9069824218749
 20
284.6994018554687
 10
298.5176086425781
 20
284.7852783203125
 10
298.192138671875
 20
284.87744140625
 10
297.9346618652343
 20
284.9747314453125
 10
297.7483825683593
 20
285.0758972167968
 10
297.6356811523437
 20
285.1797180175781
 10
297.5979614257812
 20
285.2848205566406
  0
LINE
  5
E9
330
D4
100
AcDbEntity
  8
0
  6
Continuous
 62
     0
370
     0
100
AcDbLine
 10
297.5979614257812
 20
285.2848302105432
 30
0.0
 11
297.5979614257812
 21
298.8769887764208
 31
0.0
  0
LINE
  5
EA
330
D4
100
AcDbEntity
  8
0
  6
Continuous
 62
     0
370
    30
100
AcDbLine
 10
296.5979614257812
 20
286.2725185580282
 30
0.0
 11
296.5979614257812
 21
299.8646771239058
 31
0.0
  0
LWPOLYLINE
  5
EB
330
D4
100
AcDbEntity
  8
0
  6
Continuous
 62
     0
370
     0
100
AcDbPolyline
 90
       16
 70
     0
 43
0.0
 10
303.5979614257812
 20
300.8149719238281
 10
302.8662719726562
 20
300.8097839355468
 10
302.142578125
 20
300.7942199707031
 10
301.4348449707031
 20
300.7684631347656
 10
300.7507934570312
 20
300.7328186035156
 10
300.0979614257812
 20
300.6876525878906
 10
299.4834594726562
 20
300.6334838867187
 10
298.9140625
 20
300.5708923339843
 10
298.3959350585937
 20
300.5005493164062
 10
297.9348449707031
 20
300.4232482910156
 10
297.5357971191406
 20
300.33984375
 10
297.2031555175781
 20
300.2511901855468
 10
296.9405517578124
 20
300.1583251953125
 10
296.7509155273437
 20
300.062255859375
 10
296.6363220214843
 20
299.9640197753906
 10
296.5979614257812
 20
299.8646850585937
  0
LWPOLYLINE
  5
EC
330
D4
100
AcDbEntity
  8
0
  6
Continuous
 62
     0
370
     0
100
AcDbPolyline
 90
       15
 70
     0
 43
0.0
 10
303.5979614257812
 20
299.8273010253906
 10
302.9261779785156
 20
299.8213195800781
 10
302.2628479003906
 20
299.803466796875
 10
301.6162719726562
 20
299.7739562988281
 10
300.9946594238281
 20
299.7331848144531
 10
300.40576171875
 20
299.681640625
 10
299.8570251464844
 20
299.6199645996093
 10
299.3553161621093
 20
299.5489501953125
 10
298.9069824218749
 20
299.469482421875
 10
298.5176086425781
 20
299.382568359375
 10
298.192138671875
 20
299.2893066406249
 10
297.9346618652343
 20
299.1908569335937
 10
297.7483825683593
 20
299.0884399414062
 10
297.6356811523437
 20
298.9833984375
 10
297.5979614257812
 20
298.8769836425781
  0
LINE
  5
ED
330
D4
100
AcDbEntity
  8
0
  6
Continuous
 62
     0
370
     0
100
AcDbLine
 10
333.5979614257812
 20
300.8149836661251
 30
0.0
 11
333.5979614257812
 21
311.8924781909461
 31
0.0
  0
LINE
  5
EE
330
D4
100
AcDbEntity
  8
0
  6
Continuous
 62
     0
370
     0
100
AcDbLine
 10
303.5979614257812
 20
300.8149836661251
 30
0.0
 11
303.5979614257812
 21
311.8924781909461
 31
0.0
  0
LINE
  5
EF
330
D4
100
AcDbEntity
  8
0
  6
Continuous
 62
     0
370
     0
100
AcDbLine
 10
333.5979614257812
 20
300.8149836661251
 30
0.0
 11
333.5979614257812
 21
299.8272951171582
 31
0.0
  0
LINE
  5
F0
330
D4
100
AcDbEntity
  8
0
  6
Continuous
 62
     0
370
    30
100
AcDbLine
 10
340.5979614257812
 20
299.8646771239058
 30
0.0
 11
340.5979614257812
 21
314.6538792123099
 31
0.0
  0
ELLIPSE
  5
F1
330
D4
100
AcDbEntity
  8
0
  6
Continuous
 62
     0
370
     0
100
AcDbEllipse
 10
339.5979614257812
 20
299.8646771239058
 30
0.0
 11
1.0
 21
0.0
 31
0.0
210
0.0
220
0.0
230
-1.0
 40
0.9876883474849078
 41
0.0
 42
1.570796326794896
  0
ELLIPSE
  5
F2
330
D4
100
AcDbEntity
  8
0
  6
Continuous
 62
     0
370
     0
100
AcDbEllipse
 10
339.5979614257812
 20
286.2725185580282
 30
0.0
 11
-1.000000000000016
 21
0.0
 31
0.0
210
0.0
220
0.0
230
1.0
 40
0.9876883474849048
 41
1.570796326794896
 42
3.141592653589793
  0
LINE
  5
F3
330
D4
100
AcDbEntity
  8
0
  6
Continuous
 62
     0
370
     0
100
AcDbLine
 10
333.5979614257812
 20
284.3458967396195
 30
0.0
 11
333.5979614257812
 21
284.3335850871044
 31
0.0
  0
LINE
  5
F4
330
D4
100
AcDbEntity
  8
0
  6
Continuous
 62
     0
370
     0
100
AcDbLine
 10
303.5979614257812
 20
284.3458967396195
 30
0.0
 11
303.5979614257812
 21
284.3335850871044
 31
0.0
  0
LINE
  5
F5
330
D4
100
AcDbEntity
  8
0
  6
Continuous
 62
     0
370
    30
100
AcDbLine
 10
296.5979614257812
 20
299.8646771239058
 30
0.0
 11
296.5979614257812
 21
314.6538792123099
 31
0.0
  0
ELLIPSE
  5
F6
330
D4
100
AcDbEntity
  8
0
  6
Continuous
 62
     0
370
     0
100
AcDbEllipse
 10
297.5979614257812
 20
286.2725185580282
 30
0.0
 11
1.000000000000015
 21
0.0
 31
0.0
210
0.0
220
0.0
230
-1.0
 40
0.9876883474849059
 41
1.570796326794896
 42
3.141592653589793
  0
LINE
  5
F7
330
D4
100
AcDbEntity
  8
0
  6
Continuous
 62
     0
370
     0
100
AcDbLine
 10
303.5979614257812
 20
300.8149836661251
 30
0.0
 11
303.5979614257812
 21
299.8272951171582
 31
0.0
  0
ELLIPSE
  5
F8
330
D4
100
AcDbEntity
  8
0
  6
Continuous
 62
     0
370
     0
100
AcDbEllipse
 10
297.5979614257812
 20
299.8646771239058
 30
0.0
 11
0.9999999999999964
 21
0.0000000000000307
 31
0.0
210
0.0
220
0.0
230
-1.0
 40
0.9876883474849075
 41
1.570796326794926
 42
3.141592653589838
  0
LWPOLYLINE
  5
F9
330
D4
100
AcDbEntity
  8
0
  6
Continuous
 62
     0
370
    30
100
AcDbPolyline
 90
       28
 70
     0
 43
0.0
 10
303.5979614257812
 20
284.3335876464843
 10
303.2183227539062
 20
284.3354187011718
 10
302.8399658203125
 20
284.3409118652343
 10
302.4644165039062
 20
284.3500671386718
 10
302.0929565429687
 20
284.36279296875
 10
301.7269592285156
 20
284.3791198730468
 10
301.3676452636719
 20
284.3989868164062
 10
301.0162658691406
 20
284.4222717285156
 10
300.6740112304687
 20
284.448974609375
 10
300.342041015625
 20
284.4789733886718
 10
300.021484375
 20
284.51220703125
 10
299.7131958007812
 20
284.5486450195312
 10
299.4180603027343
 20
284.5881652832031
 10
299.1368408203125
 20
284.6307373046875
 10
298.8700561523437
 20
284.6764221191406
 10
298.6181030273437
 20
284.7251892089843
 10
298.3810119628906
 20
284.7772521972656
 10
298.1586608886718
 20
284.8328857421875
 10
297.9502258300781
 20
284.8927917480468
 10
297.7544860839843
 20
284.9580688476562
 10
297.5694580078124
 20
285.0307006835937
 10
297.3922729492187
 20
285.1141357421875
 10
297.2194213867187
 20
285.2143249511718
 10
297.0489501953125
 20
285.3410034179687
 10
296.8838500976562
 20
285.5065002441406
 10
296.7379150390625
 20
285.7210388183593
 10
296.63525390625
 20
285.9822692871093
 10
296.5979614257812
 20
286.2725219726562
  0
LINE
  5
FA
330
D4
100
AcDbEntity
  8
0
  6
Continuous
 62
     0
370
    30
100
AcDbLine
 10
333.5979614257812
 20
284.3335850871044
 30
0.0
 11
303.5979614257812
 21
284.3335850871044
 31
0.0
  0
LWPOLYLINE
  5
FB
330
D4
100
AcDbEntity
  8
0
  6
Continuous
 62
     0
370
    30
100
AcDbPolyline
 90
       28
 70
     0
 43
0.0
 10
340.5979614257812
 20
286.2725219726562
 10
340.5606689453124
 20
285.9822692871093
 10
340.4580078124999
 20
285.7210388183593
 10
340.3120727539062
 20
285.5065002441406
 10
340.1470031738281
 20
285.3410034179687
 10
339.9765625
 20
285.2142639160156
 10
339.8036804199218
 20
285.1141357421875
 10
339.6264343261718
 20
285.0307006835937
 10
339.4414367675781
 20
284.9580688476562
 10
339.2457275390625
 20
284.892822265625
 10
339.0372619628906
 20
284.8328857421875
 10
338.8148803710937
 20
284.7772216796875
 10
338.5778198242187
 20
284.7251892089843
 10
338.3258361816406
 20
284.6764221191406
 10
338.0590820312499
 20
284.6307373046875
 10
337.7778625488281
 20
284.5881652832031
 10
337.4827575683593
 20
284.5486450195312
 10
337.1744384765625
 20
284.51220703125
 10
336.8538818359374
 20
284.4789733886718
 10
336.5219421386719
 20
284.448974609375
 10
336.1796569824218
 20
284.4222717285156
 10
335.8282775878906
 20
284.3989868164062
 10
335.4689636230468
 20
284.3791198730468
 10
335.1029663085937
 20
284.36279296875
 10
334.7315063476562
 20
284.3500671386718
 10
334.35595703125
 20
284.3409118652343
 10
333.9776306152343
 20
284.3354187011718
 10
333.5979614257812
 20
284.3335876464843
  0
LINE
  5
FC
330
D4
100
AcDbEntity
  8
0
  6
Continuous
 62
     0
370
    30
100
AcDbLine
 10
218.125215558582
 20
330.3232285365277
 30
0.0
 11
218.125215708782
 21
329.323228536524
 31
0.0
  0
LINE
  5
FD
330
D4
100
AcDbEntity
  8
0
  6
Continuous
 62
     0
370
     0
100
AcDbLine
 10
218.1252157087821
 20
329.323228536524
 30
0.0
 11
220.063544851682
 21
329.3232284491427
 31
0.0
  0
LINE
  5
FE
330
D4
100
AcDbEntity
  8
0
  6
Continuous
 62
     0
370
     0
100
AcDbLine
 10
220.063544851682
 20
329.3232284491427
 30
0.0
 11
220.063514357782
 21
330.323228449143
 31
0.0
  0
LINE
  5
FF
330
D4
100
AcDbEntity
  8
0
  6
Continuous
 62
     0
370
    30
100
AcDbLine
 10
259.1252158405152
 20
330.3232285365286
 30
0.0
 11
259.1252157087819
 21
329.323228536524
 31
0.0
  0
LINE
  5
100
330
D4
100
AcDbEntity
  8
0
  6
Continuous
 62
     0
370
     0
100
AcDbLine
 10
257.186931545404
 20
330.3232284491429
 30
0.0
 11
257.186931545404
 21
329.3232284491429
 31
0.0
  0
LINE
  5
101
330
D4
100
AcDbEntity
  8
0
  6
Continuous
 62
     0
370
     0
100
AcDbLine
 10
257.1869315453818
 20
329.3232284491429
 30
0.0
 11
259.1252157087818
 21
329.323228536524
 31
0.0
  0
LINE
  5
102
330
D4
100
AcDbEntity
  8
0
  6
Continuous
 62
     0
370
     0
100
AcDbLine
 10
220.0635448516585
 20
329.3232284491427
 30
0.0
 11
257.1869315454819
 21
329.3232284491428
 31
0.0
  0
LINE
  5
103
330
D4
100
AcDbEntity
  8
0
  6
Continuous
 62
     0
370
    30
100
AcDbLine
 10
258.6762279529421
 20
148.4521097521465
 30
0.0
 11
258.7177513700067
 21
149.2273377290456
 31
0.0
  0
LINE
  5
104
330
D4
100
AcDbEntity
  8
0
  6
Continuous
 62
     0
370
    30
100
AcDbLine
 10
258.7334432105317
 20
150.1887513624913
 30
0.0
 11
258.7177513743977
 21
149.2273379925428
 31
0.0
  0
LWPOLYLINE
  5
105
330
D4
100
AcDbEntity
  8
0
  6
Continuous
 62
     0
370
     0
100
AcDbPolyline
 90
        4
 70
     0
 43
0.0
 10
248.7724914550781
 20
138.9221038818359
 10
248.7738647460937
 20
138.8886260986328
 10
248.7746582031249
 20
138.889892578125
 10
248.7748718261718
 20
138.9221649169921
  0
ARC
  5
106
330
D4
100
AcDbEntity
  8
0
  6
Continuous
 62
     0
370
     0
100
AcDbCircle
 10
248.2225199292588
 20
149.4046421070411
 30
0.0
 40
10.49701525814066
100
AcDbArc
 50
273.016300915876
 51
354.7936379199613
  0
LWPOLYLINE
  5
107
330
D4
100
AcDbEntity
  8
0
  6
Continuous
 62
     0
370
     0
100
AcDbPolyline
 90
        4
 70
     0
 43
0.0
 10
248.218765258789
 20
138.9074401855468
 10
248.21875
 20
138.8741607666015
 10
248.2187194824218
 20
138.8753662109375
 10
248.2186889648437
 20
138.9074401855468
  0
LINE
  5
108
330
D4
100
AcDbEntity
  8
0
  6
Continuous
 62
     0
370
     0
100
AcDbLine
 10
248.2186866132118
 20
138.9074423472871
 30
0.0
 11
248.7748735941067
 21
138.9221693662697
 31
0.0
  0
LINE
  5
109
330
D4
100
AcDbEntity
  8
0
  6
Continuous
 62
     0
370
     0
100
AcDbLine
 10
248.2186866381114
 20
138.9074423472871
 30
0.0
 11
238.6252157087818
 21
138.9074423472871
 31
0.0
  0
LINE
  5
10A
330
D4
100
AcDbEntity
  8
0
  6
Continuous
 62
     0
370
     0
100
AcDbLine
 10
238.6252157087816
 20
138.9074423472871
 30
0.0
 11
238.6252157087817
 21
138.8706595686363
 31
0.0
  0
LWPOLYLINE
  5
10B
330
D4
100
AcDbEntity
  8
0
  6
Continuous
 62
     0
370
     0
100
AcDbPolyline
 90
        2
 70
     0
 43
0.0
 10
229.0317382812499
 20
138.8706665039062
 10
229.0317382812499
 20
138.9074401855468
  0
LINE
  5
10C
330
D4
100
AcDbEntity
  8
0
  6
Continuous
 62
     0
370
     0
100
AcDbLine
 10
229.0317447560618
 20
138.9074423472871
 30
0.0
 11
238.6252157087817
 21
138.9074423472871
 31
0.0
  0
LINE
  5
10D
330
D4
100
AcDbEntity
  8
0
  6
Continuous
 62
     0
370
     0
100
AcDbLine
 10
229.0317447560619
 20
138.9074423472868
 30
0.0
 11
228.4755578224818
 21
138.9221693663214
 31
0.0
  0
LWPOLYLINE
  5
10E
330
D4
100
AcDbEntity
  8
0
  6
Continuous
 62
     0
370
     0
100
AcDbPolyline
 90
        4
 70
     0
 43
0.0
 10
228.4755554199218
 20
138.9221649169921
 10
228.4757843017578
 20
138.8900299072265
 10
228.4765624999999
 20
138.8887786865234
 10
228.4779510498046
 20
138.9221038818359
  0
ARC
  5
10F
330
D4
100
AcDbEntity
  8
0
  6
Continuous
 62
     0
370
     0
100
AcDbCircle
 10
229.0279114883043
 20
149.4046421070405
 30
0.0
 40
10.49701525813991
100
AcDbArc
 50
185.206362078219
 51
266.9836990841265
  0
LINE
  5
110
330
D4
100
AcDbEntity
  8
0
  6
Continuous
 62
     0
370
    30
100
AcDbLine
 10
218.5742034645918
 20
148.4521097524779
 30
0.0
 11
218.532680046582
 21
149.2273377882027
 31
0.0
  0
LINE
  5
111
330
D4
100
AcDbEntity
  8
0
  6
Continuous
 62
     0
370
     0
100
AcDbLine
 10
248.234814185762
 20
139.8952483410583
 30
0.0
 11
248.2186866617217
 21
138.9074423470498
 31
0.0
  0
ARC
  5
112
330
D4
100
AcDbEntity
  8
0
  6
Continuous
 62
     0
370
    30
100
AcDbCircle
 10
-2741.352423934753
 20
198.675238088306
 30
0.0
 40
3000.477639643612
100
AcDbArc
 50
359.0749658774406
 51
359.9999869796227
  0
ARC
  5
113
330
D4
100
AcDbEntity
  8
0
  6
Continuous
 62
     0
370
     0
100
AcDbCircle
 10
238.6252157204727
 20
-6818.61054672403
 30
0.0
 40
6958.515301301268
100
AcDbArc
 50
89.9208751513378
 51
90.07912484879431
  0
LINE
  5
114
330
D4
100
AcDbEntity
  8
0
  6
Continuous
 62
     0
370
     0
100
AcDbLine
 10
229.0156172319174
 20
139.8952483388096
 30
0.0
 11
229.0317447559418
 21
138.9074423471075
 31
0.0
  0
LINE
  5
115
330
D4
100
AcDbEntity
  8
0
  6
Continuous
 62
     0
370
    30
100
AcDbLine
 10
218.5326800431428
 20
149.2273379917729
 30
0.0
 11
218.5169882071851
 21
150.1887513623049
 31
0.0
  0
ARC
  5
116
330
D4
100
AcDbEntity
  8
0
  6
Continuous
 62
     0
370
     0
100
AcDbCircle
 10
248.2449473212614
 20
150.3884659074149
 30
0.0
 40
10.49035159123893
100
AcDbArc
 50
269.9448325696494
 51
359.1615457737381
  0
LINE
  5
117
330
D4
100
AcDbEntity
  8
0
  6
Continuous
 62
     0
370
    30
100
AcDbLine
 10
259.1252157087818
 20
198.6745562345241
 30
0.0
 11
259.1252157087818
 21
329.323228536524
 31
0.0
  0
LINE
  5
118
330
D4
100
AcDbEntity
  8
0
  6
Continuous
 62
     0
370
     0
100
AcDbLine
 10
258.7341842028819
 20
150.2349576305256
 30
0.0
 11
256.7959588869819
 21
150.2662497631441
 31
0.0
  0
ARC
  5
119
330
D4
100
AcDbEntity
  8
0
  6
Continuous
 62
     0
370
     0
100
AcDbCircle
 10
-2741.421498346983
 20
198.6838701977229
 30
0.0
 40
2998.608375035167
100
AcDbArc
 50
359.074822212441
 51
359.9998218015912
  0
LINE
  5
11A
330
D4
100
AcDbEntity
  8
0
  6
Continuous
 62
     0
370
     0
100
AcDbLine
 10
257.1868766736819
 20
198.674544079143
 30
0.0
 11
259.1252609155818
 21
198.6745524785242
 31
0.0
  0
ARC
  5
11B
330
D4
100
AcDbEntity
  8
0
  6
Continuous
 62
     0
370
     0
100
AcDbCircle
 10
211.5248302233285
 20
141.5005218784114
 30
0.0
 40
36.74497245954862
100
AcDbArc
 50
357.5006094603119
 51
0.6078168507325279
  0
LINE
  5
11C
330
D4
100
AcDbEntity
  8
0
  6
Continuous
 62
     0
370
     0
100
AcDbLine
 10
248.2677350945821
 20
141.8903201274993
 30
0.0
 11
228.982696313545
 21
141.8903201274995
 31
0.0
  0
ARC
  5
11D
330
D4
100
AcDbEntity
  8
0
  6
Continuous
 62
     0
370
     0
100
AcDbCircle
 10
265.725601150505
 20
141.5005222801025
 30
0.0
 40
36.74497242115865
100
AcDbArc
 50
179.3921837750097
 51
182.4993911692395
  0
ARC
  5
11E
330
D4
100
AcDbEntity
  8
0
  6
Continuous
 62
     0
370
     0
100
AcDbCircle
 10
229.005435857421
 20
150.3884169102008
 30
0.0
 40
10.49030264068284
100
AcDbArc
 50
180.838190429329
 51
270.0554311807407
  0
ARC
  5
11F
330
D4
100
AcDbEntity
  8
0
  6
Continuous
 62
     0
370
    30
100
AcDbCircle
 10
3218.602855351764
 20
198.6752380883127
 30
0.0
 40
3000.47763964306
100
AcDbArc
 50
180.0000130203773
 51
180.9250341227782
  0
LINE
  5
120
330
D4
100
AcDbEntity
  8
0
  6
Continuous
 62
     0
370
    30
100
AcDbLine
 10
218.1252157087821
 20
198.6745562345242
 30
0.0
 11
218.1252157087821
 21
329.323228536524
 31
0.0
  0
ARC
  5
121
330
D4
100
AcDbEntity
  8
0
  6
Continuous
 62
     0
370
     0
100
AcDbCircle
 10
248.2858916038999
 20
150.4014333734459
 30
0.0
 40
8.511132613293336
100
AcDbArc
 50
269.8777727935569
 51
359.089924895969
  0
LINE
  5
122
330
D4
100
AcDbEntity
  8
0
  6
Continuous
 62
     0
370
     0
100
AcDbLine
 10
257.186831029382
 20
329.3232284491427
 30
0.0
 11
257.1868310293819
 21
198.6745561461428
 31
0.0
  0
ARC
  5
123
330
D4
100
AcDbEntity
  8
0
  6
Continuous
 62
     0
370
     0
100
AcDbCircle
 10
3218.050007686623
 20
198.6793260895416
 30
0.0
 40
2997.986462838787
100
AcDbArc
 50
180.0000911603956
 51
180.9252828440193
  0
LINE
  5
124
330
D4
100
AcDbEntity
  8
0
  6
Continuous
 62
     0
370
     0
100
AcDbLine
 10
220.0635448516295
 20
198.6745561461429
 30
0.0
 11
257.1868767301973
 21
198.6745561461429
 31
0.0
  0
ARC
  5
125
330
D4
100
AcDbEntity
  8
0
  6
Continuous
 62
     0
370
     0
100
AcDbCircle
 10
228.9778196918526
 20
150.4149555246976
 30
0.0
 40
8.524636793074593
100
AcDbArc
 50
180.9995784250313
 51
270.0327767469214
  0
LWPOLYLINE
  5
126
330
D4
100
AcDbEntity
  8
0
  6
Continuous
 62
     0
370
     0
100
AcDbPolyline
 90
        9
 70
     0
 43
0.0
 10
218.5162506103515
 20
150.2349548339843
 10
218.5531921386718
 20
150.2355499267578
 10
218.6626434326171
 20
150.2373046875
 10
218.8405609130859
 20
150.2401885986328
 10
219.0803833007812
 20
150.2440490722656
 10
219.3732299804687
 20
150.248779296875
 10
219.7082977294921
 20
150.2541961669921
 10
220.0732116699218
 20
150.2600860595703
 10
220.4544830322265
 20
150.2662353515624
  0
LINE
  5
127
330
D4
100
AcDbEntity
  8
0
  6
Continuous
 62
     0
370
     0
100
AcDbLine
 10
220.0635448865409
 20
198.6745473989046
 30
0.0
 11
218.1251942571818
 21
198.6745343875241
 31
0.0
  0
LINE
  5
128
330
D4
100
AcDbEntity
  8
0
  6
Continuous
 62
     0
370
     0
100
AcDbLine
 10
220.0636003881818
 20
329.3232284491427
 30
0.0
 11
220.0636003881818
 21
198.6745561461428
 31
0.0
  0
ARC
  5
129
330
D4
100
AcDbEntity
  8
0
  6
Continuous
 62
     0
370
    30
100
AcDbCircle
 10
229.0445441430325
 20
149.3814704034871
 30
0.0
 40
10.51172728625154
100
AcDbArc
 50
185.1057145986536
 51
266.9002622712167
  0
LINE
  5
12A
330
D4
100
AcDbEntity
  8
0
  6
Continuous
 62
     0
370
    30
100
AcDbLine
 10
229.0316979150734
 20
138.8706595704936
 30
0.0
 11
228.4761343547708
 21
138.8852894797095
 31
0.0
  0
LINE
  5
12B
330
D4
100
AcDbEntity
  8
0
  6
Continuous
 62
     0
370
    30
100
AcDbLine
 10
229.0317447560619
 20
138.8706595686363
 30
0.0
 11
238.6252157087817
 21
138.8706595686363
 31
0.0
  0
LINE
  5
12C
330
D4
100
AcDbEntity
  8
0
  6
Continuous
 62
     0
370
    30
100
AcDbLine
 10
248.2186866174162
 20
138.8706595686363
 30
0.0
 11
238.6252157087816
 21
138.8706595686363
 31
0.0
  0
LINE
  5
12D
330
D4
100
AcDbEntity
  8
0
  6
Continuous
 62
     0
370
    30
100
AcDbLine
 10
248.2187334584273
 20
138.8706595704894
 30
0.0
 11
248.7742970607719
 21
138.8852894796032
 31
0.0
  0
ARC
  5
12E
330
D4
100
AcDbEntity
  8
0
  6
Continuous
 62
     0
370
    30
100
AcDbCircle
 10
248.2065038237097
 20
149.3808318822025
 30
0.0
 40
10.5110563758159
100
AcDbArc
 50
273.096570062548
 51
354.8974555451878
  0
LINE
  5
12F
330
D4
100
AcDbEntity
  8
0
  6
Continuous
 62
     0
370
    30
100
AcDbLine
 10
296.3979598050803
 20
324.041811157299
 30
0.0
 11
318.5979598050803
 21
324.041811157299
 31
0.0
  0
LINE
  5
130
330
D4
100
AcDbEntity
  8
0
  6
Continuous
 62
     0
370
    30
100
AcDbLine
 10
318.5979598050803
 20
324.041811157299
 30
0.0
 11
340.7979598050803
 21
324.041811157299
 31
0.0
  0
LINE
  5
131
330
D4
100
AcDbEntity
  8
0
  6
Continuous
 62
     0
370
    30
100
AcDbLine
 10
198.6479592852852
 20
335.3232281254185
 30
0.0
 11
208.6479592852088
 21
335.3232281254185
 31
0.0
  0
LINE
  5
132
330
D4
100
AcDbEntity
  8
0
  6
Continuous
 62
     0
370
    30
100
AcDbLine
 10
208.6479592852088
 20
335.3232276883046
 30
0.0
 11
348.6479592846488
 21
335.3232276883046
 31
0.0
  0
LINE
  5
133
330
D4
100
AcDbEntity
  8
0
  6
Continuous
 62
     0
370
    30
100
AcDbLine
 10
348.6479592846488
 20
335.3232281254185
 30
0.0
 11
358.6479592846449
 21
335.3232281254185
 31
0.0
  0
LINE
  5
134
330
D4
100
AcDbEntity
  8
0
  6
Continuous
 62
     0
370
    30
100
AcDbLine
 10
198.6479592852852
 20
330.3232281254185
 30
0.0
 11
208.6479592852088
 21
330.3232281254185
 31
0.0
  0
LINE
  5
135
330
D4
100
AcDbEntity
  8
0
  6
Continuous
 62
     0
370
    30
100
AcDbLine
 10
208.6479592852088
 20
330.3232276883046
 30
0.0
 11
348.6479592846488
 21
330.3232276883046
 31
0.0
  0
LINE
  5
136
330
D4
100
AcDbEntity
  8
0
  6
Continuous
 62
     0
370
    30
100
AcDbLine
 10
348.6479592846488
 20
330.3232281254185
 30
0.0
 11
358.6479592846449
 21
330.3232281254185
 31
0.0
  0
LINE
  5
137
330
D4
100
AcDbEntity
  8
0
  6
Continuous
 62
     0
370
    30
100
AcDbLine
 10
198.6479592852852
 20
335.3232281254185
 30
0.0
 11
198.6479592852852
 21
330.3232281254185
 31
0.0
  0
LINE
  5
138
330
D4
100
AcDbEntity
  8
0
  6
Continuous
 62
     0
370
     0
100
AcDbLine
 10
208.6479592852088
 20
335.3232276883046
 30
0.0
 11
208.6479592852088
 21
330.3232276883046
 31
0.0
  0
LINE
  5
139
330
D4
100
AcDbEntity
  8
0
  6
Continuous
 62
     0
370
     0
100
AcDbLine
 10
348.6479592846488
 20
335.3232276883046
 30
0.0
 11
348.6479592846488
 21
330.3232276883046
 31
0.0
  0
LINE
  5
13A
330
D4
100
AcDbEntity
  8
0
  6
Continuous
 62
     0
370
    30
100
AcDbLine
 10
358.6479592846449
 20
335.3232281254185
 30
0.0
 11
358.6479592846449
 21
330.3232281254185
 31
0.0
  0
LINE
  5
13B
330
D4
100
AcDbEntity
  8
0
  6
Continuous
 62
     0
370
    30
100
AcDbLine
 10
296.3979598050802
 20
330.3232292189369
 30
0.0
 11
296.3979598050802
 21
324.041811157299
 31
0.0
  0
LINE
  5
13C
330
D4
100
AcDbEntity
  8
0
  6
Continuous
 62
     0
370
    30
100
AcDbLine
 10
340.7979598050802
 20
330.3232292189369
 30
0.0
 11
340.7979598050802
 21
324.041811157299
 31
0.0
  0
ENDBLK
  5
13E
330
D4
100
AcDbEntity
  8
0
100
AcDbBlockEnd
  0
BLOCK
  5
19E
330
140
100
AcDbEntity
  8
0
100
AcDbBlockBegin
  2
c
 70
     0
 10
179.2515106201171
 20
98.36152648925782
 30
0.0
  3
c
  1

  0
LINE
  5
141
330
140
100
AcDbEntity
  8
0
  6
Continuous
 62
     0
370
    30
100
AcDbLine
 10
478.1328326917948
 20
504.5449108491784
 30
0.0
 11
477.0060441843923
 21
501.688562620875
 31
0.0
  0
LINE
  5
142
330
140
100
AcDbEntity
  8
0
  6
Continuous
 62
     0
370
    30
100
AcDbLine
 10
467.9834631746985
 20
460.5449082901143
 30
0.0
 11
487.0048968464803
 21
460.5449129540452
 31
0.0
  0
LINE
  5
143
330
140
100
AcDbEntity
  8
0
  6
Continuous
 62
     0
370
     0
100
AcDbLine
 10
467.9834629732164
 20
461.5449082901143
 30
0.0
 11
487.0048966449981
 21
461.5449129540452
 31
0.0
  0
ARC
  5
144
330
140
100
AcDbEntity
  8
0
  6
Continuous
 62
     0
370
    30
100
AcDbCircle
 10
487.0048985628279
 20
453.544912954076
 30
0.0
 40
6.999999999972001
100
AcDbArc
 50
8.999999981200403
 51
90.00001404832401
  0
ARC
  5
145
330
140
100
AcDbEntity
  8
0
  6
Continuous
 62
     0
370
     0
100
AcDbCircle
 10
487.0048986065393
 20
453.544912954076
 30
0.0
 40
7.999999999972001
100
AcDbArc
 50
8.999999981200403
 51
90.00001404832401
  0
LINE
  5
146
330
140
100
AcDbEntity
  8
0
  6
Continuous
 62
     0
370
     0
100
AcDbLine
 10
494.9064053316924
 20
454.7963886717747
 30
0.0
 11
501.7856786480513
 21
411.3623662576642
 31
0.0
  0
LINE
  5
147
330
140
100
AcDbEntity
  8
0
  6
Continuous
 62
     0
370
    30
100
AcDbLine
 10
493.918716947334
 20
454.6399542070615
 30
0.0
 11
500.7979902636931
 21
411.2059317929511
 31
0.0
  0
LWPOLYLINE
  5
148
330
140
100
AcDbEntity
  8
0
  6
Continuous
 62
     0
370
     0
100
AcDbPolyline
 90
       16
 70
     0
 43
0.0
 10
502.9070434570312
 20
404.450958251953
 10
502.9009094238281
 20
404.4888305664062
 10
502.8825378417969
 20
404.6019897460937
 10
502.8521728515625
 20
404.7892150878906
 10
502.8101196289062
 20
405.0484924316406
 10
502.7568054199218
 20
405.3769226074218
 10
502.6929016113281
 20
405.7709045410156
 10
502.6190185546875
 20
406.2261962890625
 10
502.5360107421875
 20
406.7377319335937
 10
502.4447937011719
 20
407.2999572753905
 10
502.3463745117187
 20
407.9066467285156
 10
502.2417907714843
 20
408.5512390136718
 10
502.1322021484374
 20
409.2266235351562
 10
502.0188293457031
 20
409.9254150390625
 10
501.9028930664062
 20
410.639923095703
 10
501.7856750488281
 20
411.3623657226562
  0
LWPOLYLINE
  5
149
330
140
100
AcDbEntity
  8
0
  6
Continuous
 62
     0
370
    30
100
AcDbPolyline
 90
       15
 70
     0
 43
0.0
 10
501.7369384765625
 20
405.2777404785156
 10
501.7310180664062
 20
405.3150024414062
 10
501.71337890625
 20
405.4263610839844
 10
501.6842346191406
 20
405.6104125976562
 10
501.6439514160156
 20
405.8648071289062
 10
501.593017578125
 20
406.1864013671875
 10
501.5320739746093
 20
406.5710754394531
 10
501.4619140625
 20
407.0140686035156
 10
501.3833923339843
 20
407.5097656249999
 10
501.2975463867187
 20
408.0519409179687
 10
501.2053833007812
 20
408.6337890624999
 10
501.1080932617187
 20
409.2479858398437
 10
501.0069274902344
 20
409.8867797851562
 10
500.9031066894531
 20
410.5421752929687
 10
500.7980041503905
 20
411.2059326171874
  0
LINE
  5
14A
330
140
100
AcDbEntity
  8
0
  6
Continuous
 62
     0
370
    30
100
AcDbLine
 10
467.9834632204655
 20
466.7524919233438
 30
0.0
 11
467.9834632187412
 21
461.5449082901143
 31
0.0
  0
LINE
  5
14B
330
140
100
AcDbEntity
  8
0
  6
Continuous
 62
     0
370
     0
100
AcDbLine
 10
487.0048968464741
 20
460.5449129540478
 30
0.0
 11
487.0048966012807
 21
461.5449129540477
 31
0.0
  0
LINE
  5
14C
330
140
100
AcDbEntity
  8
0
  6
Continuous
 62
     0
370
     0
100
AcDbLine
 10
494.9064053306132
 20
454.7963886785577
 30
0.0
 11
493.9187169473251
 21
454.6399542070873
 31
0.0
  0
LINE
  5
14D
330
140
100
AcDbEntity
  8
0
  6
Continuous
 62
     0
370
     0
100
AcDbLine
 10
500.7979902636931
 20
411.2059317929511
 30
0.0
 11
501.7856786469817
 21
411.362366264418
 31
0.0
  0
ARC
  5
14E
330
140
100
AcDbEntity
  8
0
  6
Continuous
 62
     0
370
    30
100
AcDbCircle
 10
502.7246120721251
 20
405.4341719846548
 30
0.0
 40
0.9999999999999927
100
AcDbArc
 50
188.9999999812541
 51
280.5120563097326
  0
LINE
  5
14F
330
140
100
AcDbEntity
  8
0
  6
Continuous
 62
     0
370
    30
100
AcDbLine
 10
467.9834631746985
 20
460.5449082901143
 30
0.0
 11
467.983463218741
 21
461.5449082901143
 31
0.0
  0
LWPOLYLINE
  5
150
330
140
100
AcDbEntity
  8
0
  6
Continuous
 62
     0
370
    30
100
AcDbPolyline
 90
       15
 70
     0
 43
0.0
 10
505.6794128417968
 20
405.9556274414062
 10
505.6735229492187
 20
405.9928894042968
 10
505.6558837890625
 20
406.1042480468749
 10
505.626739501953
 20
406.2882995605468
 10
505.5864257812499
 20
406.5426940917968
 10
505.5354919433593
 20
406.8642578124999
 10
505.4745788574218
 20
407.2489624023437
 10
505.4044189453125
 20
407.6919555664062
 10
505.3258972167968
 20
408.1876525878906
 10
505.2400207519531
 20
408.7298278808593
 10
505.1478881835937
 20
409.3116760253906
 10
505.0505981445312
 20
409.9258422851562
 10
504.9494323730469
 20
410.5646667480469
 10
504.8456115722656
 20
411.2200622558593
 10
504.740478515625
 20
411.8838195800781
  0
LWPOLYLINE
  5
151
330
140
100
AcDbEntity
  8
0
  6
Continuous
 62
     0
370
     0
100
AcDbPolyline
 90
       16
 70
     0
 43
0.0
 10
504.8741760253906
 20
404.8159790039062
 10
504.8680419921875
 20
404.8538208007812
 10
504.8496704101562
 20
404.9670104980468
 10
504.8192749023437
 20
405.1542358398437
 10
504.7772216796874
 20
405.4134826660156
 10
504.7239379882812
 20
405.7419128417969
 10
504.6600036621093
 20
406.1359252929687
 10
504.5861511230468
 20
406.5911865234374
 10
504.5031433105468
 20
407.1027526855468
 10
504.4119262695312
 20
407.6649475097656
 10
504.3134765625
 20
408.2716674804687
 10
504.2088928222656
 20
408.9162597656249
 10
504.0993347167968
 20
409.5916442871093
 10
503.9859313964844
 20
410.2904052734374
 10
503.8700256347656
 20
411.0049438476562
 10
503.7528076171875
 20
411.7273864746094
  0
LINE
  5
152
330
140
100
AcDbEntity
  8
0
  6
Continuous
 62
     0
370
    30
100
AcDbLine
 10
504.7404849848111
 20
411.8838126619271
 30
0.0
 11
495.6817550741687
 21
469.0783824788552
 31
0.0
  0
LINE
  5
153
330
140
100
AcDbEntity
  8
0
  6
Continuous
 62
     0
370
     0
100
AcDbLine
 10
503.7527966878755
 20
411.7273781972139
 30
0.0
 11
494.6825789482946
 21
468.9944793116586
 31
0.0
  0
LINE
  5
154
330
140
100
AcDbEntity
  8
0
  6
Continuous
 62
     0
370
     0
100
AcDbLine
 10
489.2103272166155
 20
504.5449135653074
 30
0.0
 11
489.5981003137571
 21
501.6885626208749
 31
0.0
  0
LINE
  5
155
330
140
100
AcDbEntity
  8
0
  6
Continuous
 62
     0
370
    30
100
AcDbLine
 10
490.1980158024559
 20
503.7013480300205
 30
0.0
 11
490.5168098882752
 21
501.6885626208749
 31
0.0
  0
LINE
  5
156
330
140
100
AcDbEntity
  8
0
  6
Continuous
 62
     0
370
    30
100
AcDbLine
 10
489.2103272166155
 20
504.5449135653074
 30
0.0
 11
478.1328326917948
 21
504.5449108491783
 31
0.0
  0
LINE
  5
157
330
140
100
AcDbEntity
  8
0
  6
Continuous
 62
     0
370
    30
100
AcDbLine
 10
502.9070544923408
 20
404.4509554452772
 30
0.0
 11
504.874172532165
 21
404.8159673848269
 31
0.0
  0
LINE
  5
158
330
140
100
AcDbEntity
  8
0
  6
Continuous
 62
     0
370
     0
100
AcDbLine
 10
501.7856786480513
 20
411.3623662576642
 30
0.0
 11
503.7527966878755
 21
411.727378197214
 31
0.0
  0
ARC
  5
159
330
140
100
AcDbEntity
  8
0
  6
Continuous
 62
     0
370
    30
100
AcDbCircle
 10
504.6917301119492
 20
405.7991839242045
 30
0.0
 40
1.000000000000015
100
AcDbArc
 50
280.512056309952
 51
8.999999981027176
  0
LINE
  5
15A
330
140
100
AcDbEntity
  8
0
  6
Continuous
 62
     0
370
     0
100
AcDbLine
 10
504.7404849848111
 20
411.8838126619271
 30
0.0
 11
503.7527966868059
 21
411.7273782039677
 31
0.0
  0
ARC
  5
15B
330
140
100
AcDbEntity
  8
0
  6
Continuous
 62
     0
370
    30
100
AcDbCircle
 10
489.210327461809
 20
503.5449135653074
 30
0.0
 40
0.9999999999999944
100
AcDbArc
 50
8.999999981227425
 51
90.00001404854971
  0
LINE
  5
15C
330
140
100
AcDbEntity
  8
0
  6
Continuous
 62
     0
370
     0
100
AcDbLine
 10
459.7020863070863
 20
499.4034395090143
 30
0.0
 11
460.7020863070864
 21
499.4035241340482
 31
0.0
  0
LINE
  5
15D
330
140
100
AcDbEntity
  8
0
  6
Continuous
 62
     0
370
     0
100
AcDbLine
 10
460.7020863070864
 20
499.4035241340482
 30
0.0
 11
460.7020862223593
 21
501.4025730842722
 31
0.0
  0
LINE
  5
15E
330
140
100
AcDbEntity
  8
0
  6
Continuous
 62
     0
370
     0
100
AcDbLine
 10
460.7020862223593
 20
501.4025730842722
 30
0.0
 11
459.7020862223605
 21
501.4025674537589
 31
0.0
  0
LINE
  5
15F
330
140
100
AcDbEntity
  8
0
  6
Continuous
 62
     0
370
     0
100
AcDbLine
 10
459.7020863070865
 20
498.8544413737108
 30
0.0
 11
460.7020863070864
 21
498.8551366636822
 31
0.0
  0
LINE
  5
160
330
140
100
AcDbEntity
  8
0
  6
Continuous
 62
     0
370
     0
100
AcDbLine
 10
460.7020863070864
 20
498.8551366636823
 30
0.0
 11
460.7020863070864
 21
499.4035241340482
 31
0.0
  0
LINE
  5
161
330
140
100
AcDbEntity
  8
0
  6
Continuous
 62
     0
370
     0
100
AcDbLine
 10
459.7020863070865
 20
478.5588519678823
 30
0.0
 11
460.7020863070864
 21
478.6079213943823
 31
0.0
  0
LINE
  5
162
330
140
100
AcDbEntity
  8
0
  6
Continuous
 62
     0
370
     0
100
AcDbLine
 10
460.7020863070864
 20
478.6079213943822
 30
0.0
 11
460.7020863070864
 21
498.8551366636805
 31
0.0
  0
LINE
  5
163
330
140
100
AcDbEntity
  8
0
  6
Continuous
 62
     0
370
    30
100
AcDbLine
 10
459.7020857608526
 20
466.0578228026558
 30
0.0
 11
460.7020857620902
 21
466.1410573314823
 31
0.0
  0
LWPOLYLINE
  5
164
330
140
100
AcDbEntity
  8
0
  6
Continuous
 62
     0
370
     0
100
AcDbPolyline
 90
       21
 70
     0
 43
0.0
 10
460.7020874023437
 20
466.1410522460937
 10
460.7020874023437
 20
466.1797790527343
 10
460.7020874023437
 20
466.295654296875
 10
460.7020874023437
 20
466.4877319335937
 10
460.7020874023437
 20
466.7544555664062
 10
460.7020874023437
 20
467.0939636230468
 10
460.7020874023437
 20
467.5041198730468
 10
460.7020874023437
 20
467.9826354980469
 10
460.7020874023437
 20
468.5267028808594
 10
460.7020874023437
 20
469.1330261230469
 10
460.7020874023437
 20
469.7979431152344
 10
460.7020874023437
 20
470.5172119140625
 10
460.7020874023437
 20
471.2862854003906
 10
460.7020874023437
 20
472.1001586914062
 10
460.7020874023437
 20
472.9538574218749
 10
460.7020874023437
 20
473.8421936035156
 10
460.7020874023437
 20
474.7597351074218
 10
460.7020874023437
 20
475.7008056640625
 10
460.7020874023437
 20
476.6596984863281
 10
460.7020874023437
 20
477.6306762695312
 10
460.7020874023437
 20
478.6079101562499
  0
LINE
  5
165
330
140
100
AcDbEntity
  8
0
  6
Continuous
 62
     0
370
     0
100
AcDbLine
 10
460.7020862223593
 20
501.4025730850346
 30
0.0
 11
460.7020854687982
 21
501.6870650906747
 31
0.0
  0
LINE
  5
166
330
140
100
AcDbEntity
  8
0
  6
Continuous
 62
     0
370
    30
100
AcDbLine
 10
645.9222783802371
 20
481.6944314571575
 30
0.0
 11
641.8039660309862
 21
481.3486070922583
 31
0.0
  0
LINE
  5
167
330
140
100
AcDbEntity
  8
0
  6
Continuous
 62
     0
370
    30
100
AcDbLine
 10
641.8039660309862
 20
481.3486070922583
 30
0.0
 11
641.3052686362597
 21
481.3067303020556
 31
0.0
  0
LINE
  5
168
330
140
100
AcDbEntity
  8
0
  6
Continuous
 62
     0
370
    30
100
AcDbLine
 10
641.3052686362597
 20
481.3067303020556
 30
0.0
 11
631.7732901833596
 21
480.5063077088956
 31
0.0
  0
LINE
  5
169
330
140
100
AcDbEntity
  8
0
  6
Continuous
 62
     0
370
    30
100
AcDbLine
 10
631.7732901833608
 20
480.5063077088956
 30
0.0
 11
591.8668885632025
 21
477.1552735425547
 31
0.0
  0
LINE
  5
16A
330
140
100
AcDbEntity
  8
0
  6
Continuous
 62
     0
370
    30
100
AcDbLine
 10
591.8668885635299
 20
477.1552735425823
 30
0.0
 11
460.7020857620637
 21
466.1410573325433
 31
0.0
  0
LINE
  5
16B
330
140
100
AcDbEntity
  8
0
  6
Continuous
 62
     0
370
     0
100
AcDbLine
 10
651.1178725193469
 20
487.9702800593792
 30
0.0
 11
651.1031455246583
 21
487.9694963495823
 31
0.0
  0
LWPOLYLINE
  5
16C
330
140
100
AcDbEntity
  8
0
  6
Continuous
 62
     0
370
    30
100
AcDbPolyline
 90
       17
 70
     0
 43
0.0
 10
651.1031494140625
 20
487.9694824218749
 10
651.1369018554687
 20
487.3605651855468
 10
651.1326293945312
 20
486.7576904296875
 10
651.0854492187499
 20
486.1647338867187
 10
650.9899902343749
 20
485.5864562988281
 10
650.8414916992187
 20
485.028564453125
 10
650.6359863281249
 20
484.4972839355468
 10
650.3710327148437
 20
483.9994506835937
 10
650.0461425781249
 20
483.5421752929687
 10
649.6637573242187
 20
483.1324462890624
 10
649.2297973632812
 20
482.7749938964843
 10
648.7509155273437
 20
482.4716186523438
 10
648.2343139648437
 20
482.2217102050781
 10
647.6869506835937
 20
482.0229187011718
 10
647.1154174804687
 20
481.8716430664062
 10
646.5255737304687
 20
481.7636108398438
 10
645.9223022460937
 20
481.6944274902343
  0
LINE
  5
16D
330
140
100
AcDbEntity
  8
0
  6
Continuous
 62
     0
370
     0
100
AcDbLine
 10
651.1031455245421
 20
487.9694963495762
 30
0.0
 11
641.5732055924603
 21
487.4853625619823
 31
0.0
  0
LWPOLYLINE
  5
16E
330
140
100
AcDbEntity
  8
0
  6
Continuous
 62
     0
370
     0
100
AcDbPolyline
 90
       15
 70
     0
 43
0.0
 10
641.5731811523437
 20
487.4853515625
 10
641.6322631835937
 20
486.7530822753906
 10
641.6873779296874
 20
486.0345458984375
 10
641.7377319335937
 20
485.3367004394531
 10
641.7822875976562
 20
484.66796875
 10
641.820068359375
 20
484.0378723144531
 10
641.85009765625
 20
483.4574279785156
 10
641.87158203125
 20
482.9379272460937
 10
641.88427734375
 20
482.4892272949218
 10
641.8882446289062
 20
482.11767578125
 10
641.8840332031249
 20
481.82470703125
 10
641.87255859375
 20
481.6074829101562
 10
641.8547363281249
 20
481.4604187011719
 10
641.8314819335937
 20
481.3765563964843
 10
641.803955078125
 20
481.3486022949218
  0
LINE
  5
16F
330
140
100
AcDbEntity
  8
0
  6
Continuous
 62
     0
370
     0
100
AcDbLine
 10
641.5732055924658
 20
487.4853625620318
 30
0.0
 11
640.7979775602754
 21
487.4460296804823
 31
0.0
  0
LINE
  5
170
330
140
100
AcDbEntity
  8
0
  6
Continuous
 62
     0
370
     0
100
AcDbLine
 10
640.7979775602754
 20
487.4460296804823
 30
0.0
 11
641.3052686362658
 21
481.3067303019822
 31
0.0
  0
LINE
  5
171
330
140
100
AcDbEntity
  8
0
  6
Continuous
 62
     0
370
     0
100
AcDbLine
 10
640.7979775601102
 20
487.4460296824791
 30
0.0
 11
631.2365895154977
 21
486.9768601073823
 31
0.0
  0
LINE
  5
172
330
140
100
AcDbEntity
  8
0
  6
Continuous
 62
     0
370
     0
100
AcDbLine
 10
631.2365895154977
 20
486.9768601073823
 30
0.0
 11
631.7732901823758
 21
480.5063077087822
 31
0.0
  0
ARC
  5
173
330
140
100
AcDbEntity
  8
0
  6
Continuous
 62
     0
370
     0
100
AcDbCircle
 10
1460.859503439081
 20
538.1348903936434
 30
0.0
 40
871.1295416756883
100
AcDbArc
 50
183.4956497350847
 51
184.014023411221
  0
LINE
  5
174
330
140
100
AcDbEntity
  8
0
  6
Continuous
 62
     0
370
     0
100
AcDbLine
 10
591.3507586093348
 20
485.0197226844926
 30
0.0
 11
631.236589517305
 21
486.9768601082405
 31
0.0
  0
LINE
  5
175
330
140
100
AcDbEntity
  8
0
  6
Continuous
 62
     0
370
     0
100
AcDbLine
 10
460.7020863070878
 20
478.6079213943516
 30
0.0
 11
591.3507586093366
 21
485.0197226844455
 31
0.0
  0
LINE
  5
176
330
140
100
AcDbEntity
  8
0
  6
Continuous
 62
     0
370
    30
100
AcDbLine
 10
650.1271951734578
 20
499.7679419321238
 30
0.0
 11
650.1300660122284
 21
499.7337540249903
 31
0.0
  0
LINE
  5
177
330
140
100
AcDbEntity
  8
0
  6
Continuous
 62
     0
370
    30
100
AcDbLine
 10
650.1300660143312
 20
499.7337539999549
 30
0.0
 11
651.1178725195263
 21
487.9702800592973
 31
0.0
  0
LINE
  5
178
330
140
100
AcDbEntity
  8
0
  6
Continuous
 62
     0
370
     0
100
AcDbLine
 10
640.7979773567054
 20
487.4460296701538
 30
0.0
 11
639.8365634881513
 21
498.8551366636986
 31
0.0
  0
LINE
  5
179
330
140
100
AcDbEntity
  8
0
  6
Continuous
 62
     0
370
     0
100
AcDbLine
 10
639.8365634879626
 20
498.8551366636827
 30
0.0
 11
650.1300660120584
 21
499.7337540186718
 31
0.0
  0
LINE
  5
17A
330
140
100
AcDbEntity
  8
0
  6
Continuous
 62
     0
370
     0
100
AcDbLine
 10
639.8365646056019
 20
498.8551366636823
 30
0.0
 11
591.3507586100879
 21
498.8551366636823
 31
0.0
  0
LINE
  5
17B
330
140
100
AcDbEntity
  8
0
  6
Continuous
 62
     0
370
     0
100
AcDbLine
 10
591.3507586100865
 20
498.8551366636824
 30
0.0
 11
591.3507586100865
 21
485.0197226844681
 31
0.0
  0
LINE
  5
17C
330
140
100
AcDbEntity
  8
0
  6
Continuous
 62
     0
370
     0
100
AcDbLine
 10
460.7020863077925
 20
498.8551366636823
 30
0.0
 11
591.3507586098361
 21
498.8551366636823
 31
0.0
  0
LINE
  5
17D
330
140
100
AcDbEntity
  8
0
  6
Continuous
 62
     0
370
     0
100
AcDbLine
 10
648.1283934126203
 20
501.6774024643203
 30
0.0
 11
648.1349941454904
 21
501.6003156608049
 31
0.0
  0
ARC
  5
17E
330
140
100
AcDbEntity
  8
0
  6
Continuous
 62
     0
370
    30
100
AcDbCircle
 10
648.1332152832625
 20
499.5992102084944
 30
0.0
 40
2.001106242958607
100
AcDbArc
 50
4.836878698679062
 51
89.94906751613505
  0
LWPOLYLINE
  5
17F
330
140
100
AcDbEntity
  8
0
  6
Continuous
 62
     0
370
     0
100
AcDbPolyline
 90
       19
 70
     0
 43
0.0
 10
639.7903442382812
 20
499.4035034179687
 10
640.6884765625
 20
499.4187927246094
 10
641.5831298828124
 20
499.4360046386718
 10
642.466552734375
 20
499.4549255371094
 10
643.3310546875
 20
499.4752807617187
 10
644.1687622070312
 20
499.4968566894531
 10
644.9720458984375
 20
499.5194396972656
 10
645.7335815429687
 20
499.5427856445312
 10
646.4484863281249
 20
499.5665893554687
 10
647.1121826171875
 20
499.5905761718749
 10
647.7200317382812
 20
499.6144409179687
 10
648.267578125
 20
499.6378784179687
 10
648.7503051757812
 20
499.6606140136718
 10
649.1640625
 20
499.6823425292968
 10
649.506591796875
 20
499.7028198242187
 10
649.7760620117187
 20
499.7218322753906
 10
649.9705810546875
 20
499.7391967773437
 10
650.0882568359375
 20
499.754638671875
 10
650.1271972656249
 20
499.7679443359374
  0
LINE
  5
180
330
140
100
AcDbEntity
  8
0
  6
Continuous
 62
     0
370
     0
100
AcDbLine
 10
639.8365654981396
 20
498.8551368514341
 30
0.0
 11
639.7903569969177
 21
499.4034936305134
 31
0.0
  0
LINE
  5
181
330
140
100
AcDbEntity
  8
0
  6
Continuous
 62
     0
370
     0
100
AcDbLine
 10
639.7903571344373
 20
499.4034919985107
 30
0.0
 11
591.3507586090863
 21
499.4034919997838
 31
0.0
  0
LINE
  5
182
330
140
100
AcDbEntity
  8
0
  6
Continuous
 62
     0
370
     0
100
AcDbLine
 10
591.3507586090863
 20
499.4035223379096
 30
0.0
 11
591.3507586090863
 21
498.8551366636823
 31
0.0
  0
LINE
  5
183
330
140
100
AcDbEntity
  8
0
  6
Continuous
 62
     0
370
     0
100
AcDbLine
 10
591.3507586090861
 20
499.4035241340482
 30
0.0
 11
460.7020863070864
 21
499.4035241340482
 31
0.0
  0
LINE
  5
184
330
140
100
AcDbEntity
  8
0
  6
Continuous
 62
     0
370
     0
100
AcDbLine
 10
639.7590635064495
 20
501.4025458907292
 30
0.0
 11
591.3507585253592
 21
501.4025730850367
 31
0.0
  0
LINE
  5
185
330
140
100
AcDbEntity
  8
0
  6
Continuous
 62
     0
370
     0
100
AcDbLine
 10
591.3507585253592
 20
501.4025730850367
 30
0.0
 11
591.3507577816319
 21
501.686576106945
 31
0.0
  0
LWPOLYLINE
  5
186
330
140
100
AcDbEntity
  8
0
  6
Continuous
 62
     0
370
     0
100
AcDbPolyline
 90
       18
 70
     0
 43
0.0
 10
648.135009765625
 20
501.6003112792969
 10
648.099365234375
 20
501.5870971679687
 10
647.9918212890624
 20
501.5729064941406
 10
647.8145141601562
 20
501.5579833984374
 10
647.5694580078124
 20
501.5425720214843
 10
647.2587280273437
 20
501.5268249511718
 10
646.8843994140625
 20
501.5109863281249
 10
646.4494628906249
 20
501.4953308105468
 10
645.957763671875
 20
501.4801025390625
 10
645.4134521484375
 20
501.4655761718749
 10
644.8204956054687
 20
501.4519958496093
 10
644.1829223632812
 20
501.439697265625
 10
643.5050659179687
 20
501.4288635253906
 10
642.7932739257812
 20
501.4197387695312
 10
642.0551147460937
 20
501.4124145507812
 10
641.2982788085937
 20
501.4070129394531
 10
640.5303955078125
 20
501.4036865234374
 10
639.7590942382812
 20
501.4025573730468
  0
ARC
  5
187
330
140
100
AcDbEntity
  8
0
  6
Continuous
 62
     0
370
     0
100
AcDbCircle
 10
606.4772994804197
 20
499.8817610717808
 30
0.0
 40
33.3164998420945
100
AcDbArc
 50
359.1774754625133
 51
2.616268495186633
  0
LINE
  5
188
330
140
100
AcDbEntity
  8
0
  6
Continuous
 62
     0
370
     0
100
AcDbLine
 10
591.3507672725975
 20
501.4025719525279
 30
0.0
 11
591.3507804560872
 21
499.4035223378963
 31
0.0
  0
LINE
  5
189
330
140
100
AcDbEntity
  8
0
  6
Continuous
 62
     0
370
     0
100
AcDbLine
 10
460.7020862223568
 20
501.4025747968023
 30
0.0
 11
591.3507585253567
 21
501.4025747968024
 31
0.0
  0
LINE
  5
18A
330
140
100
AcDbEntity
  8
0
  6
Continuous
 62
     0
370
    30
100
AcDbLine
 10
460.7020854010028
 20
501.6885626208749
 30
0.0
 11
591.3507577140027
 21
501.6885626208749
 31
0.0
  0
LINE
  5
18B
330
140
100
AcDbEntity
  8
0
  6
Continuous
 62
     0
370
    30
100
AcDbLine
 10
591.3507577140028
 20
501.6885626249748
 30
0.0
 11
648.1282047517811
 21
501.6796050298626
 31
0.0
  0
ARC
  5
18C
330
140
100
AcDbEntity
  8
0
  6
Continuous
 62
     0
370
    30
100
AcDbCircle
 10
648.1263958572501
 20
499.6783247312879
 30
0.0
 40
2.001281132830033
100
AcDbArc
 50
4.833707598902269
 51
89.94821215441545
  0
LINE
  5
18D
330
140
100
AcDbEntity
  8
0
  6
Continuous
 62
     0
370
    30
100
AcDbLine
 10
459.7020854110033
 20
501.6885626235897
 30
0.0
 11
460.7020854110046
 21
501.6885626410842
 31
0.0
  0
LINE
  5
18E
330
140
100
AcDbEntity
  8
0
  6
Continuous
 62
     0
370
    30
100
AcDbLine
 10
465.983499976921
 20
501.6885626208749
 30
0.0
 11
465.983499976921
 21
505.9917375994733
 31
0.0
  0
LINE
  5
18F
330
140
100
AcDbEntity
  8
0
  6
Continuous
 62
     0
370
    30
100
AcDbLine
 10
465.983499976921
 20
461.5917375994733
 30
0.0
 11
465.983499976921
 21
466.5845503982828
 31
0.0
  0
ARC
  5
190
330
140
100
AcDbEntity
  8
0
  6
Continuous
 62
     0
370
    30
100
AcDbCircle
 10
464.5972108549639
 20
483.5886644202131
 30
0.0
 40
20.49999999991806
100
AcDbArc
 50
61.99686006408516
 51
86.122479103329
  0
LINE
  5
191
330
140
100
AcDbEntity
  8
0
  6
Continuous
 62
     0
370
    30
100
AcDbLine
 10
454.7020867213503
 20
448.8085211185527
 30
0.0
 11
454.7020867213503
 21
458.8085211184741
 31
0.0
  0
LINE
  5
192
330
140
100
AcDbEntity
  8
0
  6
Continuous
 62
     0
370
    30
100
AcDbLine
 10
454.7020871584642
 20
458.8085211184741
 30
0.0
 11
454.7020871584642
 21
508.8085211182741
 31
0.0
  0
LINE
  5
193
330
140
100
AcDbEntity
  8
0
  6
Continuous
 62
     0
370
    30
100
AcDbLine
 10
454.7020867213503
 20
508.8085211182741
 30
0.0
 11
454.7020867213503
 21
518.8085211182341
 31
0.0
  0
LINE
  5
194
330
140
100
AcDbEntity
  8
0
  6
Continuous
 62
     0
370
    30
100
AcDbLine
 10
459.7020867213504
 20
448.8085211185527
 30
0.0
 11
459.7020867213504
 21
458.8085211184741
 31
0.0
  0
LINE
  5
195
330
140
100
AcDbEntity
  8
0
  6
Continuous
 62
     0
370
    30
100
AcDbLine
 10
459.7020871584643
 20
458.8085211184741
 30
0.0
 11
459.7020871584643
 21
508.8085211182741
 31
0.0
  0
LINE
  5
196
330
140
100
AcDbEntity
  8
0
  6
Continuous
 62
     0
370
    30
100
AcDbLine
 10
459.7020867213504
 20
508.8085211182741
 30
0.0
 11
459.7020867213504
 21
518.8085211182341
 31
0.0
  0
LINE
  5
197
330
140
100
AcDbEntity
  8
0
  6
Continuous
 62
     0
370
    30
100
AcDbLine
 10
454.7020867213503
 20
448.8085211185527
 30
0.0
 11
459.7020867213504
 21
448.8085211185527
 31
0.0
  0
LINE
  5
198
330
140
100
AcDbEntity
  8
0
  6
Continuous
 62
     0
370
     0
100
AcDbLine
 10
454.7020871584642
 20
458.8085211184741
 30
0.0
 11
459.7020871584643
 21
458.8085211184741
 31
0.0
  0
LINE
  5
199
330
140
100
AcDbEntity
  8
0
  6
Continuous
 62
     0
370
     0
100
AcDbLine
 10
454.7020871584642
 20
508.8085211182741
 30
0.0
 11
459.7020871584643
 21
508.8085211182741
 31
0.0
  0
LINE
  5
19A
330
140
100
AcDbEntity
  8
0
  6
Continuous
 62
     0
370
    30
100
AcDbLine
 10
454.7020867213503
 20
518.8085211182341
 30
0.0
 11
459.7020867213504
 21
518.8085211182341
 31
0.0
  0
LINE
  5
19B
330
140
100
AcDbEntity
  8
0
  6
Continuous
 62
     0
370
    30
100
AcDbLine
 10
459.7020819152832
 20
505.9917375994733
 30
0.0
 11
465.983499976921
 21
505.9917375994733
 31
0.0
  0
LINE
  5
19C
330
140
100
AcDbEntity
  8
0
  6
Continuous
 62
     0
370
    30
100
AcDbLine
 10
459.7020819152832
 20
461.5917375994732
 30
0.0
 11
465.983499976921
 21
461.5917375994732
 31
0.0
  0
ARC
  5
19D
330
140
100
AcDbEntity
  8
0
  6
Continuous
 62
     0
370
    30
100
AcDbCircle
 10
464.5972108549643
 20
483.9948107787351
 30
0.0
 40
20.49999999991806
100
AcDbArc
 50
273.8775208966625
 51
279.5078651970746
  0
ENDBLK
  5
19F
330
140
100
AcDbEntity
  8
0
100
AcDbBlockEnd
  0
BLOCK
  5
1F9
330
1A1
100
AcDbEntity
  8
0
100
AcDbBlockBegin
  2
d
 70
     0
 10
123.6120986938476
 20
0.0
 30
0.0
  3
d
  1

  0
ARC
  5
1A2
330
1A1
100
AcDbEntity
  8
0
  6
Continuous
 62
     0
370
    30
100
AcDbCircle
 10
60.53443152141534
 20
475.9651173097848
 30
0.0
 40
14.99999999994
100
AcDbArc
 50
0.0000000194668012
 51
21.52852920286111
  0
LINE
  5
1A3
330
1A1
100
AcDbEntity
  8
0
  6
Continuous
 62
     0
370
    30
100
AcDbLine
 10
68.14646246248267
 20
497.5449254308898
 30
0.0
 11
74.48795593992854
 21
481.4695842504157
 31
0.0
  0
LINE
  5
1A4
330
1A1
100
AcDbEntity
  8
0
  6
Continuous
 62
     0
370
    30
100
AcDbLine
 10
68.14646246248262
 20
497.5449254308898
 30
0.0
 11
65.38506205307829
 21
504.5449261079674
 31
0.0
  0
LINE
  5
1A5
330
1A1
100
AcDbEntity
  8
0
  6
Continuous
 62
     0
370
     0
100
AcDbLine
 10
41.73221609682163
 20
411.3623815164533
 30
0.0
 11
40.61084025253217
 21
404.4509707040663
 31
0.0
  0
LINE
  5
1A6
330
1A1
100
AcDbEntity
  8
0
  6
Continuous
 62
     0
370
    30
100
AcDbLine
 10
42.71990448117995
 20
411.2059470517401
 30
0.0
 11
41.78097101339484
 21
405.2777527787307
 31
0.0
  0
LINE
  5
1A7
330
1A1
100
AcDbEntity
  8
0
  6
Continuous
 62
     0
370
     0
100
AcDbLine
 10
48.61148941318065
 20
454.7964039305638
 30
0.0
 11
41.73221609682165
 21
411.3623815164533
 31
0.0
  0
LINE
  5
1A8
330
1A1
100
AcDbEntity
  8
0
  6
Continuous
 62
     0
370
    30
100
AcDbLine
 10
49.59917779753896
 20
454.6399694658505
 30
0.0
 11
42.71990448117995
 21
411.2059470517401
 31
0.0
  0
ARC
  5
1A9
330
1A1
100
AcDbEntity
  8
0
  6
Continuous
 62
     0
370
    30
100
AcDbCircle
 10
56.51299618204511
 20
453.544928212865
 30
0.0
 40
6.999999999972001
100
AcDbArc
 50
89.999985951676
 51
171.0000000187996
  0
ARC
  5
1AA
330
1A1
100
AcDbEntity
  8
0
  6
Continuous
 62
     0
370
     0
100
AcDbCircle
 10
56.51299613833373
 20
453.544928212865
 30
0.0
 40
7.999999999972001
100
AcDbArc
 50
89.99998595167598
 51
171.0000000187996
  0
LINE
  5
1AB
330
1A1
100
AcDbEntity
  8
0
  6
Continuous
 62
     0
370
    30
100
AcDbLine
 10
75.53443157017449
 20
460.5449235489034
 30
0.0
 11
56.51299789839274
 21
460.5449282128342
 31
0.0
  0
LINE
  5
1AC
330
1A1
100
AcDbEntity
  8
0
  6
Continuous
 62
     0
370
     0
100
AcDbLine
 10
75.53443177165656
 20
461.5449235489034
 30
0.0
 11
56.51299809987481
 21
461.5449282128342
 31
0.0
  0
ARC
  5
1AD
330
1A1
100
AcDbEntity
  8
0
  6
Continuous
 62
     0
370
    30
100
AcDbCircle
 10
40.79328267274791
 20
405.4341872434439
 30
0.0
 40
0.9999999999999996
100
AcDbArc
 50
259.4879436902675
 51
351.0000000187456
  0
LINE
  5
1AE
330
1A1
100
AcDbEntity
  8
0
  6
Continuous
 62
     0
370
     0
100
AcDbLine
 10
42.71990448117995
 20
411.2059470517401
 30
0.0
 11
41.73221609789134
 21
411.3623815232071
 31
0.0
  0
LINE
  5
1AF
330
1A1
100
AcDbEntity
  8
0
  6
Continuous
 62
     0
370
     0
100
AcDbLine
 10
56.51299789839895
 20
460.5449282128368
 30
0.0
 11
56.51299814359235
 21
461.5449282128367
 31
0.0
  0
LINE
  5
1B0
330
1A1
100
AcDbEntity
  8
0
  6
Continuous
 62
     0
370
     0
100
AcDbLine
 10
48.61148941425983
 20
454.7964039373467
 30
0.0
 11
49.59917779754793
 21
454.6399694658764
 31
0.0
  0
LINE
  5
1B1
330
1A1
100
AcDbEntity
  8
0
  6
Continuous
 62
     0
370
    30
100
AcDbLine
 10
75.53443152135713
 20
475.9651173147506
 30
0.0
 11
75.53443152613205
 21
461.5449235489034
 31
0.0
  0
LINE
  5
1B2
330
1A1
100
AcDbEntity
  8
0
  6
Continuous
 62
     0
370
    30
100
AcDbLine
 10
75.53443157017449
 20
460.5449235489034
 30
0.0
 11
75.53443152613198
 21
461.5449235489034
 31
0.0
  0
LINE
  5
1B3
330
1A1
100
AcDbEntity
  8
0
  6
Continuous
 62
     0
370
     0
100
AcDbLine
 10
53.35726037407869
 20
497.5449290571052
 30
0.0
 11
54.30756752825743
 21
504.5449288240964
 31
0.0
  0
LINE
  5
1B4
330
1A1
100
AcDbEntity
  8
0
  6
Continuous
 62
     0
370
    30
100
AcDbLine
 10
52.36957207714315
 20
497.7013635218184
 30
0.0
 11
53.31987894241708
 21
503.7013632888096
 31
0.0
  0
LINE
  5
1B5
330
1A1
100
AcDbEntity
  8
0
  6
Continuous
 62
     0
370
    30
100
AcDbLine
 10
38.77740976006194
 20
411.8838279207162
 30
0.0
 11
52.36957207714316
 21
497.7013635218184
 31
0.0
  0
LINE
  5
1B6
330
1A1
100
AcDbEntity
  8
0
  6
Continuous
 62
     0
370
     0
100
AcDbLine
 10
39.7650980569975
 20
411.727393456003
 30
0.0
 11
53.3572603740787
 21
497.5449290571052
 31
0.0
  0
LINE
  5
1B7
330
1A1
100
AcDbEntity
  8
0
  6
Continuous
 62
     0
370
    30
100
AcDbLine
 10
38.77740976006194
 20
411.8838279207162
 30
0.0
 11
37.83847629227683
 21
405.9556336477069
 31
0.0
  0
LINE
  5
1B8
330
1A1
100
AcDbEntity
  8
0
  6
Continuous
 62
     0
370
     0
100
AcDbLine
 10
39.7650980569975
 20
411.727393456003
 30
0.0
 11
38.64372221270805
 21
404.815982643616
 31
0.0
  0
LINE
  5
1B9
330
1A1
100
AcDbEntity
  8
0
  6
Continuous
 62
     0
370
    30
100
AcDbLine
 10
54.30756752825743
 20
504.5449288240964
 30
0.0
 11
65.38506205307825
 21
504.5449261079673
 31
0.0
  0
ARC
  5
1BA
330
1A1
100
AcDbEntity
  8
0
  6
Continuous
 62
     0
370
    30
100
AcDbCircle
 10
54.30756728306398
 20
503.5449288240965
 30
0.0
 40
1.000000000000001
100
AcDbArc
 50
89.99998595145028
 51
171.0000000187717
  0
LINE
  5
1BB
330
1A1
100
AcDbEntity
  8
0
  6
Continuous
 62
     0
370
     0
100
AcDbLine
 10
53.35726037407869
 20
497.5449290571052
 30
0.0
 11
68.14646246248258
 21
497.5449254308897
 31
0.0
  0
LINE
  5
1BC
330
1A1
100
AcDbEntity
  8
0
  6
Continuous
 62
     0
370
     0
100
AcDbLine
 10
53.35726037514838
 20
497.544929063859
 30
0.0
 11
52.36957207714315
 21
497.7013635218184
 31
0.0
  0
LINE
  5
1BD
330
1A1
100
AcDbEntity
  8
0
  6
Continuous
 62
     0
370
     0
100
AcDbLine
 10
41.73221609682163
 20
411.3623815164533
 30
0.0
 11
39.7650980569975
 21
411.727393456003
 31
0.0
  0
LINE
  5
1BE
330
1A1
100
AcDbEntity
  8
0
  6
Continuous
 62
     0
370
     0
100
AcDbLine
 10
38.77740976006194
 20
411.8838279207162
 30
0.0
 11
39.7650980580672
 21
411.7273934627568
 31
0.0
  0
LINE
  5
1BF
330
1A1
100
AcDbEntity
  8
0
  6
Continuous
 62
     0
370
    30
100
AcDbLine
 10
40.61084025253217
 20
404.4509707040663
 30
0.0
 11
38.64372221270805
 21
404.815982643616
 31
0.0
  0
ARC
  5
1C0
330
1A1
100
AcDbEntity
  8
0
  6
Continuous
 62
     0
370
    30
100
AcDbCircle
 10
38.82616463292379
 20
405.7991991829936
 30
0.0
 40
1.0
100
AcDbArc
 50
171.0000000189731
 51
259.4879436900479
  0
LINE
  5
1C1
330
1A1
100
AcDbEntity
  8
0
  6
Continuous
 62
     0
370
    30
100
AcDbLine
 10
-88.25538844704956
 20
480.5063229676542
 30
0.0
 11
-97.78736690028638
 21
481.3067455608153
 31
0.0
  0
ARC
  5
1C2
330
1A1
100
AcDbEntity
  8
0
  6
Continuous
 62
     0
370
     0
100
AcDbCircle
 10
-1255.388985890197
 20
580.0501096523523
 30
0.0
 40
1161.805388280938
100
AcDbArc
 50
355.1244747312729
 51
355.4282736001821
  0
LINE
  5
1C3
330
1A1
100
AcDbEntity
  8
0
  6
Continuous
 62
     0
370
     0
100
AcDbLine
 10
-97.28007588296282
 20
487.4460449441714
 30
0.0
 11
-87.71868777918518
 21
486.9768753661714
 31
0.0
  0
LINE
  5
1C4
330
1A1
100
AcDbEntity
  8
0
  6
Continuous
 62
     0
370
     0
100
AcDbLine
 10
-87.71868777918516
 20
486.9768753661714
 30
0.0
 11
-88.25538844606318
 21
480.5063229675713
 31
0.0
  0
LINE
  5
1C5
330
1A1
100
AcDbEntity
  8
0
  6
Continuous
 62
     0
370
    30
100
AcDbLine
 10
47.8361436823033
 20
469.0783977376443
 30
0.0
 11
-48.34898682721744
 21
477.1552888013713
 31
0.0
  0
LINE
  5
1C6
330
1A1
100
AcDbEntity
  8
0
  6
Continuous
 62
     0
370
    30
100
AcDbLine
 10
-48.34898682689004
 20
477.1552888013438
 30
0.0
 11
-88.25538844704823
 21
480.5063229676847
 31
0.0
  0
LINE
  5
1C7
330
1A1
100
AcDbEntity
  8
0
  6
Continuous
 62
     0
370
    30
100
AcDbLine
 10
-97.78736690028054
 20
481.3067455608726
 30
0.0
 11
-98.28606429467363
 21
481.3486223510473
 31
0.0
  0
LINE
  5
1C8
330
1A1
100
AcDbEntity
  8
0
  6
Continuous
 62
     0
370
    30
100
AcDbLine
 10
-98.28606429467363
 20
481.3486223510474
 30
0.0
 11
-102.4043766439245
 21
481.6944467159466
 31
0.0
  0
LWPOLYLINE
  5
1C9
330
1A1
100
AcDbEntity
  8
0
  6
Continuous
 62
     0
370
     0
100
AcDbPolyline
 90
       15
 70
     0
 43
0.0
 10
-98.28606414794922
 20
481.3486328125
 10
-98.31359100341797
 20
481.3767089843749
 10
-98.33679962158203
 20
481.4606628417968
 10
-98.35466766357422
 20
481.6078186035156
 10
-98.36615753173829
 20
481.8251342773437
 10
-98.37031555175782
 20
482.1181030273437
 10
-98.36634063720703
 20
482.4894409179687
 10
-98.35368347167969
 20
482.9379577636719
 10
-98.33216857910157
 20
483.4574584960937
 10
-98.3021697998047
 20
484.03759765625
 10
-98.26441955566407
 20
484.6674194335937
 10
-98.21984863281251
 20
485.3363037109375
 10
-98.16947937011718
 20
486.034423828125
 10
-98.11432647705078
 20
486.7531433105468
 10
-98.05530548095703
 20
487.4853820800781
  0
LINE
  5
1CA
330
1A1
100
AcDbEntity
  8
0
  6
Continuous
 62
     0
370
     0
100
AcDbLine
 10
-98.05530385648484
 20
487.4853778208376
 30
0.0
 11
-97.2800758831201
 21
487.4460449422726
 31
0.0
  0
LINE
  5
1CB
330
1A1
100
AcDbEntity
  8
0
  6
Continuous
 62
     0
370
     0
100
AcDbLine
 10
-47.832856873774
 20
485.0197379432596
 30
0.0
 11
-47.832856873774
 21
498.8551519224714
 31
0.0
  0
LINE
  5
1CC
330
1A1
100
AcDbEntity
  8
0
  6
Continuous
 62
     0
370
     0
100
AcDbLine
 10
-47.83285687377667
 20
498.8551519224713
 30
0.0
 11
-96.31866286930275
 21
498.8551519224713
 31
0.0
  0
LINE
  5
1CD
330
1A1
100
AcDbEntity
  8
0
  6
Continuous
 62
     0
370
     0
100
AcDbLine
 10
-96.31866175165241
 20
498.8551519227388
 30
0.0
 11
-97.28007561962284
 21
487.4460449377592
 31
0.0
  0
LINE
  5
1CE
330
1A1
100
AcDbEntity
  8
0
  6
Continuous
 62
     0
370
     0
100
AcDbLine
 10
-87.71868778099392
 20
486.9768753670284
 30
0.0
 11
-47.83285687302247
 21
485.0197379432803
 31
0.0
  0
ARC
  5
1CF
330
1A1
100
AcDbEntity
  8
0
  6
Continuous
 62
     0
370
     0
100
AcDbCircle
 10
-917.3416016993952
 20
538.134905652211
 30
0.0
 40
871.1295416723073
100
AcDbArc
 50
355.9859765887779
 51
356.5043502649162
  0
LINE
  5
1D0
330
1A1
100
AcDbEntity
  8
0
  6
Continuous
 62
     0
370
     0
100
AcDbLine
 10
49.60363151821256
 20
480.2378797991375
 30
0.0
 11
-47.83285687302428
 21
485.0197379432346
 31
0.0
  0
LWPOLYLINE
  5
1D1
330
1A1
100
AcDbEntity
  8
0
  6
Continuous
 62
     0
370
    30
100
AcDbPolyline
 90
       17
 70
     0
 43
0.0
 10
-102.4043731689453
 20
481.6944580078125
 10
-103.0077667236328
 20
481.7635192871093
 10
-103.5975189208984
 20
481.8714599609375
 10
-104.1687774658203
 20
482.0226440429687
 10
-104.7159118652343
 20
482.2213134765624
 10
-105.2325744628906
 20
482.4711303710937
 10
-105.7117538452148
 20
482.7746276855468
 10
-106.1459503173828
 20
483.13232421875
 10
-106.5282211303711
 20
483.5422058105469
 10
-106.8532943725585
 20
483.9994812011719
 10
-107.1184768676757
 20
484.49755859375
 10
-107.3239974975585
 20
485.0291137695312
 10
-107.4723815917968
 20
485.5870361328125
 10
-107.5677490234375
 20
486.1650695800781
 10
-107.6149597167968
 20
486.7577819824218
 10
-107.6191101074218
 20
487.3605651855468
 10
-107.5852432250976
 20
487.9695129394531
  0
LINE
  5
1D2
330
1A1
100
AcDbEntity
  8
0
  6
Continuous
 62
     0
370
     0
100
AcDbLine
 10
-107.5852437882296
 20
487.9695116083653
 30
0.0
 11
-98.05530385647925
 21
487.4853778207881
 31
0.0
  0
LINE
  5
1D3
330
1A1
100
AcDbEntity
  8
0
  6
Continuous
 62
     0
370
     0
100
AcDbLine
 10
-107.5999707830341
 20
487.9702953181713
 30
0.0
 11
-107.5852437883974
 21
487.969511608374
 31
0.0
  0
LINE
  5
1D4
330
1A1
100
AcDbEntity
  8
0
  6
Continuous
 62
     0
370
     0
100
AcDbLine
 10
-96.31866175167429
 20
498.855151922474
 30
0.0
 11
-106.6121642757699
 21
499.73376927746
 31
0.0
  0
LINE
  5
1D5
330
1A1
100
AcDbEntity
  8
0
  6
Continuous
 62
     0
370
    30
100
AcDbLine
 10
-106.61216427577
 20
499.733769277459
 30
0.0
 11
-107.5999707832714
 21
487.9702953182084
 31
0.0
  0
LINE
  5
1D6
330
1A1
100
AcDbEntity
  8
0
  6
Continuous
 62
     0
370
     0
100
AcDbLine
 10
52.55231772441726
 20
498.8551519224713
 30
0.0
 11
-47.83285687352363
 21
498.8551519224713
 31
0.0
  0
LINE
  5
1D7
330
1A1
100
AcDbEntity
  8
0
  6
Continuous
 62
     0
370
     0
100
AcDbLine
 10
-96.31866377765659
 20
498.8551519224713
 30
0.0
 11
-96.27245538668034
 21
499.4035073984012
 31
0.0
  0
LINE
  5
1D8
330
1A1
100
AcDbEntity
  8
0
  6
Continuous
 62
     0
370
     0
100
AcDbLine
 10
-96.27245538668034
 20
499.4035073984012
 30
0.0
 11
-47.83285687277367
 21
499.4035073996744
 31
0.0
  0
LINE
  5
1D9
330
1A1
100
AcDbEntity
  8
0
  6
Continuous
 62
     0
370
     0
100
AcDbLine
 10
-47.83285687277367
 20
499.4035361575743
 30
0.0
 11
-47.83285687277367
 21
498.8551519224713
 31
0.0
  0
LINE
  5
1DA
330
1A1
100
AcDbEntity
  8
0
  6
Continuous
 62
     0
370
    30
100
AcDbLine
 10
-106.6121642759161
 20
499.7337692837758
 30
0.0
 11
-106.6092934371017
 21
499.7679571914319
 31
0.0
  0
LWPOLYLINE
  5
1DB
330
1A1
100
AcDbEntity
  8
0
  6
Continuous
 62
     0
370
     0
100
AcDbPolyline
 90
       19
 70
     0
 43
0.0
 10
-96.27245330810547
 20
499.4035034179687
 10
-97.17057037353516
 20
499.4188232421874
 10
-98.06522369384765
 20
499.4360656738281
 10
-98.94866180419922
 20
499.4549865722656
 10
-99.81312561035156
 20
499.4753723144531
 10
-100.6508560180664
 20
499.4970092773437
 10
-101.4541091918945
 20
499.5196533203125
 10
-102.2156982421875
 20
499.5430603027343
 10
-102.9305877685546
 20
499.56689453125
 10
-103.59423828125
 20
499.5909423828124
 10
-104.2021102905273
 20
499.6148376464843
 10
-104.7496643066406
 20
499.6382751464843
 10
-105.2323608398437
 20
499.6609802246093
 10
-105.6461410522461
 20
499.6826477050781
 10
-105.9886932373046
 20
499.7030944824218
 10
-106.2581634521484
 20
499.7220458984375
 10
-106.4526672363281
 20
499.7393188476562
 10
-106.5703353881835
 20
499.7546997070312
 10
-106.6092910766601
 20
499.7679443359374
  0
LINE
  5
1DC
330
1A1
100
AcDbEntity
  8
0
  6
Continuous
 62
     0
370
     0
100
AcDbLine
 10
-47.83285687277373
 20
499.4035393928373
 30
0.0
 11
52.63917376680605
 21
499.4035393928373
 31
0.0
  0
ARC
  5
1DD
330
1A1
100
AcDbEntity
  8
0
  6
Continuous
 62
     0
370
     0
100
AcDbCircle
 10
-62.95714671644873
 20
499.8817758939475
 30
0.0
 40
33.31874153401837
100
AcDbArc
 50
177.3839093661408
 51
180.8224712620249
  0
LINE
  5
1DE
330
1A1
100
AcDbEntity
  8
0
  6
Continuous
 62
     0
370
     0
100
AcDbLine
 10
-96.24116315495866
 20
501.4025609319213
 30
0.0
 11
-47.83286885604618
 21
501.4025868097613
 31
0.0
  0
LINE
  5
1DF
330
1A1
100
AcDbEntity
  8
0
  6
Continuous
 62
     0
370
     0
100
AcDbLine
 10
-47.83286885604622
 20
501.4025868097613
 30
0.0
 11
-47.83286062877571
 21
499.4035361575773
 31
0.0
  0
ARC
  5
1E0
330
1A1
100
AcDbEntity
  8
0
  6
Continuous
 62
     0
370
    30
100
AcDbCircle
 10
-104.6153135470993
 20
499.5992254682701
 30
0.0
 40
2.001106242741877
100
AcDbArc
 50
90.0509324798052
 51
175.1631213241033
  0
LINE
  5
1E1
330
1A1
100
AcDbEntity
  8
0
  6
Continuous
 62
     0
370
     0
100
AcDbLine
 10
-104.6170924091781
 20
501.6003309203613
 30
0.0
 11
-104.6104916763077
 21
501.677417723482
 31
0.0
  0
LWPOLYLINE
  5
1E2
330
1A1
100
AcDbEntity
  8
0
  6
Continuous
 62
     0
370
     0
100
AcDbPolyline
 90
       17
 70
     0
 43
0.0
 10
-96.24116516113282
 20
501.4025573730468
 10
-97.06903839111328
 20
501.40380859375
 10
-97.88858795166015
 20
501.407470703125
 10
-98.69180297851563
 20
501.4135437011718
 10
-99.47074890136718
 20
501.4218444824218
 10
-100.2176971435546
 20
501.4322204589843
 10
-100.9252548217773
 20
501.4443969726563
 10
-101.5864334106445
 20
501.4581298828125
 10
-102.1948013305663
 20
501.4730834960937
 10
-102.744514465332
 20
501.4889831542968
 10
-103.2304916381835
 20
501.5054931640625
 10
-103.6484146118163
 20
501.5222473144531
 10
-103.9946975708007
 20
501.5390014648438
 10
-104.266487121582
 20
501.5554199218749
 10
-104.4616546630859
 20
501.5712585449218
 10
-104.5787734985351
 20
501.5862731933593
 10
-104.6170959472656
 20
501.6003417968749
  0
LINE
  5
1E3
330
1A1
100
AcDbEntity
  8
0
  6
Continuous
 62
     0
370
     0
100
AcDbLine
 10
52.95579237125766
 20
501.4025900555914
 30
0.0
 11
-47.83285678904422
 21
501.4025900555914
 31
0.0
  0
LINE
  5
1E4
330
1A1
100
AcDbEntity
  8
0
  6
Continuous
 62
     0
370
     0
100
AcDbLine
 10
68.77600338102094
 20
501.4025900555914
 30
0.0
 11
66.6246722765003
 21
501.4025900555914
 31
0.0
  0
LINE
  5
1E5
330
1A1
100
AcDbEntity
  8
0
  6
Continuous
 62
     0
370
     0
100
AcDbLine
 10
-47.832856045319
 20
501.6865913910093
 30
0.0
 11
-47.83285678904621
 21
501.4025886469937
 31
0.0
  0
LINE
  5
1E6
330
1A1
100
AcDbEntity
  8
0
  6
Continuous
 62
     0
370
    30
100
AcDbLine
 10
53.00108920396986
 20
501.6885778796639
 30
0.0
 11
-47.83285597769029
 21
501.6885778796639
 31
0.0
  0
LINE
  5
1E7
330
1A1
100
AcDbEntity
  8
0
  6
Continuous
 62
     0
370
    30
100
AcDbLine
 10
69.29552841954818
 20
501.6885778796639
 30
0.0
 11
66.51185495848302
 21
501.6885778796639
 31
0.0
  0
LINE
  5
1E8
330
1A1
100
AcDbEntity
  8
0
  6
Continuous
 62
     0
370
    30
100
AcDbLine
 10
-47.83285597769025
 20
501.6885778837639
 30
0.0
 11
-104.6103030154685
 21
501.6796202886517
 31
0.0
  0
ARC
  5
1E9
330
1A1
100
AcDbEntity
  8
0
  6
Continuous
 62
     0
370
    30
100
AcDbCircle
 10
-104.6084941209355
 20
499.6783399900776
 30
0.0
 40
2.001281132830737
100
AcDbArc
 50
90.05178784564153
 51
175.1662924011177
  0
LINE
  5
1EA
330
1A1
100
AcDbEntity
  8
0
  6
Continuous
 62
     0
370
    30
100
AcDbLine
 10
77.53439476795212
 20
505.9917528582623
 30
0.0
 11
77.53439476795212
 21
461.5917528582624
 31
0.0
  0
ARC
  5
1EB
330
1A1
100
AcDbEntity
  8
0
  6
Continuous
 62
     0
370
    30
100
AcDbCircle
 10
78.92068388990913
 20
483.5886796790021
 30
0.0
 40
20.49999999991806
100
AcDbArc
 50
93.87752089667101
 51
125.360691401371
  0
LINE
  5
1EC
330
1A1
100
AcDbEntity
  8
0
  6
Continuous
 62
     0
370
    30
100
AcDbLine
 10
88.81581151606278
 20
518.8085363770231
 30
0.0
 11
88.81581151606278
 21
508.8085363771019
 31
0.0
  0
LINE
  5
1ED
330
1A1
100
AcDbEntity
  8
0
  6
Continuous
 62
     0
370
    30
100
AcDbLine
 10
88.81581107894888
 20
508.8085363771019
 30
0.0
 11
88.81581107894888
 21
458.8085363773018
 31
0.0
  0
LINE
  5
1EE
330
1A1
100
AcDbEntity
  8
0
  6
Continuous
 62
     0
370
    30
100
AcDbLine
 10
88.81581151606274
 20
458.8085363773018
 30
0.0
 11
88.81581151606274
 21
448.8085363773418
 31
0.0
  0
LINE
  5
1EF
330
1A1
100
AcDbEntity
  8
0
  6
Continuous
 62
     0
370
    30
100
AcDbLine
 10
83.81581151606278
 20
518.8085363770231
 30
0.0
 11
83.81581151606278
 21
508.8085363771019
 31
0.0
  0
LINE
  5
1F0
330
1A1
100
AcDbEntity
  8
0
  6
Continuous
 62
     0
370
    30
100
AcDbLine
 10
83.8158110789489
 20
508.8085363771019
 30
0.0
 11
83.8158110789489
 21
458.8085363773018
 31
0.0
  0
LINE
  5
1F1
330
1A1
100
AcDbEntity
  8
0
  6
Continuous
 62
     0
370
    30
100
AcDbLine
 10
83.81581151606276
 20
458.8085363773018
 30
0.0
 11
83.81581151606276
 21
448.8085363773418
 31
0.0
  0
LINE
  5
1F2
330
1A1
100
AcDbEntity
  8
0
  6
Continuous
 62
     0
370
    30
100
AcDbLine
 10
88.81581151606278
 20
518.8085363770231
 30
0.0
 11
83.81581151606278
 21
518.8085363770231
 31
0.0
  0
LINE
  5
1F3
330
1A1
100
AcDbEntity
  8
0
  6
Continuous
 62
     0
370
     0
100
AcDbLine
 10
88.81581107894888
 20
508.8085363771019
 30
0.0
 11
83.81581107894888
 21
508.8085363771019
 31
0.0
  0
LINE
  5
1F4
330
1A1
100
AcDbEntity
  8
0
  6
Continuous
 62
     0
370
     0
100
AcDbLine
 10
88.81581107894888
 20
458.8085363773018
 30
0.0
 11
83.81581107894888
 21
458.8085363773018
 31
0.0
  0
LINE
  5
1F5
330
1A1
100
AcDbEntity
  8
0
  6
Continuous
 62
     0
370
    30
100
AcDbLine
 10
88.81581151606274
 20
448.8085363773418
 30
0.0
 11
83.81581151606274
 21
448.8085363773418
 31
0.0
  0
LINE
  5
1F6
330
1A1
100
AcDbEntity
  8
0
  6
Continuous
 62
     0
370
    30
100
AcDbLine
 10
83.81581282958997
 20
505.9917528582623
 30
0.0
 11
77.53439476795214
 21
505.9917528582623
 31
0.0
  0
LINE
  5
1F7
330
1A1
100
AcDbEntity
  8
0
  6
Continuous
 62
     0
370
    30
100
AcDbLine
 10
83.81581282958995
 20
461.5917528582623
 30
0.0
 11
77.53439476795212
 21
461.5917528582623
 31
0.0
  0
ARC
  5
1F8
330
1A1
100
AcDbEntity
  8
0
  6
Continuous
 62
     0
370
    30
100
AcDbCircle
 10
78.92068388990904
 20
483.9948260375241
 30
0.0
 40
20.49999999991806
100
AcDbArc
 50
260.4921348029253
 51
266.1224791033374
  0
ENDBLK
  5
1FA
330
1A1
100
AcDbEntity
  8
0
100
AcDbBlockEnd
  0
ENDSEC
  0
SECTION
  2
ENTITIES
  0
INSERT
  5
D3
330
1F
100
AcDbEntity
  8
0
  6
Continuous
 62
     7
370
     0
100
AcDbBlockReference
  2
a
 10
169.4667053222656
 20
129.2505950927734
 30
0.0
  0
INSERT
  5
13F
330
1F
100
AcDbEntity
  8
0
  6
Continuous
 62
     7
370
     0
100
AcDbBlockReference
  2
b
 10
150.4846382141113
 20
139.9297981262207
 30
0.0
  0
INSERT
  5
1A0
330
1F
100
AcDbEntity
  8
0
  6
Continuous
 62
     7
370
     0
100
AcDbBlockReference
  2
c
 10
179.2515106201171
 20
98.36152648925782
 30
0.0
  0
INSERT
  5
1FB
330
1F
100
AcDbEntity
  8
0
  6
Continuous
 62
     7
370
     0
100
AcDbBlockReference
  2
d
 10
123.6120986938476
 20
0.0
 30
0.0
  0
ENDSEC
  0
SECTION
  2
OBJECTS
  0
DICTIONARY
  5
C
330
0
100
AcDbDictionary
281
     1
  3
ACAD_GROUP
350
D
  3
ACAD_LAYOUT
350
1A
  3
ACAD_MLEADERSTYLE
350
1FE
  3
ACAD_MLINESTYLE
350
17
  3
ACAD_PLOTSETTINGS
350
19
  3
ACAD_PLOTSTYLENAME
350
E
  3
ACAD_VISUALSTYLE
350
2A
  3
AcDbVariableDictionary
350
1FC
  0
DICTIONARY
  5
D
102
{ACAD_REACTORS
330
C
102
}
330
C
100
AcDbDictionary
281
     1
  0
DICTIONARY
  5
1A
102
{ACAD_REACTORS
330
C
102
}
330
C
100
AcDbDictionary
281
     1
  3
Layout1
350
1E
  3
Layout2
350
26
  3
Model
350
22
  0
DICTIONARY
  5
1FE
102
{ACAD_REACTORS
330
C
102
}
330
C
100
AcDbDictionary
281
     1
  0
DICTIONARY
  5
17
102
{ACAD_REACTORS
330
C
102
}
330
C
100
AcDbDictionary
281
     1
  3
Standard
350
18
  0
DICTIONARY
  5
19
102
{ACAD_REACTORS
330
C
102
}
330
C
100
AcDbDictionary
281
     1
  0
ACDBDICTIONARYWDFLT
  5
E
102
{ACAD_REACTORS
330
C
102
}
330
C
100
AcDbDictionary
281
     1
  3
Normal
350
F
100
AcDbDictionaryWithDefault
340
F
  0
DICTIONARY
  5
2A
102
{ACAD_REACTORS
330
C
102
}
330
C
100
AcDbDictionary
281
     1
  3
2dWireframe
350
2F
  3
3D Hidden
350
31
  3
3dWireframe
350
30
  3
Basic
350
32
  3
Brighten
350
36
  3
ColorChange
350
3A
  3
Conceptual
350
34
  3
Dim
350
35
  3
Facepattern
350
39
  3
Flat
350
2B
  3
FlatWithEdges
350
2C
  3
Gouraud
350
2D
  3
GouraudWithEdges
350
2E
  3
Linepattern
350
38
  3
Realistic
350
33
  3
Thicken
350
37
  0
DICTIONARY
  5
1FC
102
{ACAD_REACTORS
330
C
102
}
330
C
100
AcDbDictionary
281
     1
  3
DIMASSOC
350
207
  3
PSOLHEIGHT
350
200
  3
PSOLWIDTH
350
1FF
  0
LAYOUT
  5
1E
102
{ACAD_REACTORS
330
1A
102
}
330
1A
100
AcDbPlotSettings
  1

  2
none_device
  4

  6

 40
0.0
 41
0.0
 42
0.0
 43
0.0
 44
0.0
 45
0.0
 46
0.0
 47
0.0
 48
0.0
 49
0.0
140
0.0
141
0.0
142
1.0
143
1.0
 70
   688
 72
     0
 73
     0
 74
     5
  7

 75
    16
147
1.0
148
0.0
149
0.0
100
AcDbLayout
  1
Layout1
 70
     1
 71
     1
 10
0.0
 20
0.0
 11
420.0
 21
297.0
 12
0.0
 22
0.0
 32
0.0
 14
1.000000000000000E+20
 24
1.000000000000000E+20
 34
1.000000000000000E+20
 15
-1.000000000000000E+20
 25
-1.000000000000000E+20
 35
-1.000000000000000E+20
146
0.0
 13
0.0
 23
0.0
 33
0.0
 16
1.0
 26
0.0
 36
0.0
 17
0.0
 27
1.0
 37
0.0
 76
     0
330
1B
  0
LAYOUT
  5
26
102
{ACAD_REACTORS
330
1A
102
}
330
1A
100
AcDbPlotSettings
  1

  2
none_device
  4

  6

 40
0.0
 41
0.0
 42
0.0
 43
0.0
 44
0.0
 45
0.0
 46
0.0
 47
0.0
 48
0.0
 49
0.0
140
0.0
141
0.0
142
1.0
143
1.0
 70
   688
 72
     0
 73
     0
 74
     5
  7

 75
    16
147
1.0
148
0.0
149
0.0
100
AcDbLayout
  1
Layout2
 70
     1
 71
     2
 10
0.0
 20
0.0
 11
0.0
 21
0.0
 12
0.0
 22
0.0
 32
0.0
 14
0.0
 24
0.0
 34
0.0
 15
0.0
 25
0.0
 35
0.0
146
0.0
 13
0.0
 23
0.0
 33
0.0
 16
1.0
 26
0.0
 36
0.0
 17
0.0
 27
1.0
 37
0.0
 76
     0
330
23
  0
LAYOUT
  5
22
102
{ACAD_REACTORS
330
1A
102
}
330
1A
100
AcDbPlotSettings
  1

  2
none_device
  4

  6

 40
0.0
 41
0.0
 42
0.0
 43
0.0
 44
0.0
 45
0.0
 46
0.0
 47
0.0
 48
0.0
 49
0.0
140
0.0
141
0.0
142
1.0
143
1.0
 70
  1712
 72
     0
 73
     0
 74
     0
  7

 75
     0
147
1.0
148
0.0
149
0.0
100
AcDbLayout
  1
Model
 70
     1
 71
     0
 10
-107.6191101074218
 20
127.9550399780273
 11
651.1369018554687
 21
536.8085327148437
 12
0.0
 22
0.0
 32
0.0
 14
-107.6191101074218
 24
127.9550399780273
 34
0.0
 15
651.1369018554687
 25
536.8085327148437
 35
0.0
146
0.0
 13
0.0
 23
0.0
 33
0.0
 16
1.0
 26
0.0
 36
0.0
 17
0.0
 27
1.0
 37
0.0
 76
     0
330
1F
  0
MLINESTYLE
  5
18
102
{ACAD_REACTORS
330
17
102
}
330
17
100
AcDbMlineStyle
  2
STANDARD
 70
     0
  3

 62
   256
 51
90.0
 52
90.0
 71
     2
 49
0.5
 62
   256
  6
BYLAYER
 49
-0.5
 62
   256
  6
BYLAYER
  0
ACDBPLACEHOLDER
  5
F
102
{ACAD_REACTORS
330
E
102
}
330
E
  0
ACAD_PROXY_OBJECT
  5
2F
102
{ACAD_REACTORS
330
2A
102
}
330
2A
100
AcDbProxyObject
 90
      499
 91
      501
 95
   851991
 70
     0
 93
      436
310
42CC9915DA5C99599C985B595049028333333333333E3BF0000000000000FB0107901411070040501600405405064090741402480A0340
 94
        0
1001
ACAD
1000
AcDbSavedByObjectVersion
1070
     0
  0
ACAD_PROXY_OBJECT
  5
31
102
{ACAD_REACTORS
330
2A
102
}
330
2A
100
AcDbProxyObject
 90
      499
 91
      501
 95
   851991
 70
     0
 93
      500
310
424CD108121A5919195B90640502408333333333333E3BF0000000000000FB01079024090700405020000000000001110200405405064090740C02480A0340
 94
        0
1001
ACAD
1000
AcDbSavedByObjectVersion
1070
     0
  0
ACAD_PROXY_OBJECT
  5
30
102
{ACAD_REACTORS
330
2A
102
}
330
2A
100
AcDbProxyObject
 90
      499
 91
      501
 95
   851991
 70
     0
 93
      436
310
42CCD915DA5C99599C985B595059028333333333333E3BF0000000000000FB0107901411070040501600405405064090741402480A0340
 94
        0
1001
ACAD
1000
AcDbSavedByObjectVersion
1070
     0
  0
ACAD_PROXY_OBJECT
  5
32
102
{ACAD_REACTORS
330
2A
102
}
330
2A
100
AcDbProxyObject
 90
      499
 91
      501
 95
   851991
 70
     0
 93
      388
310
4150985CDA58D07406404333333333333E3BF0000000000000FB0107A41107004050150841D405064090741402480A0352
 94
        0
1001
ACAD
1000
AcDbSavedByObjectVersion
1070
     0
  0
ACAD_PROXY_OBJECT
  5
36
102
{ACAD_REACTORS
330
2A
102
}
330
2A
100
AcDbProxyObject
 90
      499
 91
      501
 95
   851991
 70
     0
 93
      428
310
42109C9A59DA1D195B90C409028333333333333E3BF0000000000000FB010790141107004050150841D405064090741402480A029956
 94
        0
1001
ACAD
1000
AcDbSavedByObjectVersion
1070
     0
  0
ACAD_PROXY_OBJECT
  5
3A
102
{ACAD_REACTORS
330
2A
102
}
330
2A
100
AcDbProxyObject
 90
      499
 91
      501
 95
   851991
 70
     0
 93
      452
310
42D0DBDB1BDC90DA185B99D95104090240C333333333333E3BF0000000000000FB0108901411070040501508421405064090741402480A0354
 94
        0
1001
ACAD
1000
AcDbSavedByObjectVersion
1070
     0
  0
ACAD_PROXY_OBJECT
  5
34
102
{ACAD_REACTORS
330
2A
102
}
330
2A
100
AcDbProxyObject
 90
      499
 91
      501
 95
   851991
 70
     0
 93
      500
310
4290DBDB98D95C1D1D585B10940D028333333333333E3BF0000000000000FB0107902409070040501000000000000111010841D405064090740C02480A0340
 94
        0
1001
ACAD
1000
AcDbSavedByObjectVersion
1070
     0
  0
ACAD_PROXY_OBJECT
  5
35
102
{ACAD_REACTORS
330
2A
102
}
330
2A
100
AcDbProxyObject
 90
      499
 91
      501
 95
   851991
 70
     0
 93
      412
310
40D11A5B50B409028333333333333E3BF0000000000000FB010790141107004050150841D405064090741402480A02677FFFFFD4
 94
        0
1001
ACAD
1000
AcDbSavedByObjectVersion
1070
     0
  0
ACAD_PROXY_OBJECT
  5
39
102
{ACAD_REACTORS
330
2A
102
}
330
2A
100
AcDbProxyObject
 90
      499
 91
      501
 95
   851991
 70
     0
 93
      444
310
42D19858D95C185D1D195C9B90F409028333333333333E3BF0000000000000FB010790141107004050150841D405064090741402480A0350
 94
        0
1001
ACAD
1000
AcDbSavedByObjectVersion
1070
     0
  0
ACAD_PROXY_OBJECT
  5
2B
102
{ACAD_REACTORS
330
2A
102
}
330
2A
100
AcDbProxyObject
 90
      499
 91
      501
 95
   851991
 70
     0
 93
      388
310
41119B185D240901404333333333333E3BF0000000000000F9010740A41107004050150841D405064090741402480A1B50
 94
        0
1001
ACAD
1000
AcDbSavedByObjectVersion
1070
     0
  0
ACAD_PROXY_OBJECT
  5
2C
102
{ACAD_REACTORS
330
2A
102
}
330
2A
100
AcDbProxyObject
 90
      499
 91
      501
 95
   851991
 70
     0
 93
      476
310
43519B185D15DA5D1A115919D95CD0140901404333333333333E3BF0000000000000F9010740901411070040501600405405064090741402480A1B50
 94
        0
1001
ACAD
1000
AcDbSavedByObjectVersion
1070
     0
  0
ACAD_PROXY_OBJECT
  5
2D
102
{ACAD_REACTORS
330
2A
102
}
330
2A
100
AcDbProxyObject
 90
      499
 91
      501
 95
   851991
 70
     0
 93
      412
310
41D1DBDD5C985D5910240902404333333333333E3BF0000000000000F9010740A411070040501641D405064090741402480A1B50
 94
        0
1001
ACAD
1000
AcDbSavedByObjectVersion
1070
     0
  0
ACAD_PROXY_OBJECT
  5
2E
102
{ACAD_REACTORS
330
2A
102
}
330
2A
100
AcDbProxyObject
 90
      499
 91
      501
 95
   851991
 70
     0
 93
      500
310
4411DBDD5C985D5915DA5D1A115919D95CD0340902404333333333333E3BF0000000000000F9010740901411070040501600405405064090741402480A1B50
 94
        0
1001
ACAD
1000
AcDbSavedByObjectVersion
1070
     0
  0
ACAD_PROXY_OBJECT
  5
38
102
{ACAD_REACTORS
330
2A
102
}
330
2A
100
AcDbProxyObject
 90
      499
 91
      501
 95
   851991
 70
     0
 93
      444
310
42D31A5B995C185D1D195C9B90E409028333333333333E3BF0000000000000FB010790141107004050750841D405064090741402483A0350
 94
        0
1001
ACAD
1000
AcDbSavedByObjectVersion
1070
     0
  0
ACAD_PROXY_OBJECT
  5
33
102
{ACAD_REACTORS
330
2A
102
}
330
2A
100
AcDbProxyObject
 90
      499
 91
      501
 95
   851991
 70
     0
 93
      420
310
425499585B1A5CDD1A58D08409028333333333333E3BF0000000000000FB01079019070040501508421405064090741402480A1B45
 94
        0
1001
ACAD
1000
AcDbSavedByObjectVersion
1070
     0
  0
ACAD_PROXY_OBJECT
  5
37
102
{ACAD_REACTORS
330
2A
102
}
330
2A
100
AcDbProxyObject
 90
      499
 91
      501
 95
   851991
 70
     0
 93
      412
310
41D51A1A58DAD95B90D409028333333333333E3BF0000000000000FB010790141107004050150C41D405064090741402480A0352
 94
        0
1001
ACAD
1000
AcDbSavedByObjectVersion
1070
     0
  0
DICTIONARYVAR
  5
207
102
{ACAD_REACTORS
330
1FC
102
}
330
1FC
100
DictionaryVariables
280
     0
  1
1
  0
DICTIONARYVAR
  5
200
102
{ACAD_REACTORS
330
1FC
102
}
330
1FC
100
DictionaryVariables
280
     0
  1
80.000000
  0
DICTIONARYVAR
  5
1FF
102
{ACAD_REACTORS
330
1FC
102
}
330
1FC
100
DictionaryVariables
280
     0
  1
5.000000
  0
ENDSEC
  0
EOF
