  0
SECTION
  2
HEADER
  9
$ACADVER
  1
AC1024
  9
$ACADMAINTVER
 70
     6
  9
$DWGCODEPAGE
  3
ANSI_1252
  9
$INSBASE
 10
0.0
 20
0.0
 30
0.0
  9
$EXTMIN
 10
1.000000E+20
 20
1.000000E+20
 30
1.000000E+20
  9
$EXTMAX
 10
-1.000000E+20
 20
-1.000000E+20
 30
-1.000000E+20
  9
$LIMMIN
 10
0.0
 20
0.0
  9
$LIMMAX
 10
420.0
 20
297.0
  9
$ORTHOMODE
 70
     0
  9
$REGENMODE
 70
     1
  9
$FILLMODE
 70
     1
  9
$QTEXTMODE
 70
     0
  9
$MIRRTEXT
 70
     1
  9
$LTSCALE
 40
1.0
  9
$ATTMODE
 70
     1
  9
$TEXTSIZE
 40
2.5
  9
$TRACEWID
 40
1.0
  9
$TEXTSTYLE
  7
Standard
  9
$CLAYER
  8
0
  9
$CELTYPE
  6
ByLayer
  9
$CECOLOR
 62
   256
  9
$CELTSCALE
 40
1.0
  9
$DISPSILH
 70
     0
  9
$DIMSCALE
 40
1.0
  9
$DIMASZ
 40
2.5
  9
$DIMEXO
 40
0.625
  9
$DIMDLI
 40
3.75
  9
$DIMRND
 40
0.0
  9
$DIMDLE
 40
0.0
  9
$DIMEXE
 40
1.25
  9
$DIMTP
 40
0.0
  9
$DIMTM
 40
0.0
  9
$DIMTXT
 40
2.5
  9
$DIMCEN
 40
2.5
  9
$DIMTSZ
 40
0.0
  9
$DIMTOL
 70
     0
  9
$DIMLIM
 70
     0
  9
$DIMTIH
 70
     0
  9
$DIMTOH
 70
     0
  9
$DIMSE1
 70
     0
  9
$DIMSE2
 70
     0
  9
$DIMTAD
 70
     1
  9
$DIMZIN
 70
     8
  9
$DIMBLK
  1

  9
$DIMASO
 70
     1
  9
$DIMSHO
 70
     1
  9
$DIMPOST
  1

  9
$DIMAPOST
  1

  9
$DIMALT
 70
     0
  9
$DIMALTD
 70
     3
  9
$DIMALTF
 40
0.03937
  9
$DIMLFAC
 40
1.0
  9
$DIMTOFL
 70
     1
  9
$DIMTVP
 40
0.0
  9
$DIMTIX
 70
     0
  9
$DIMSOXD
 70
     0
  9
$DIMSAH
 70
     0
  9
$DIMBLK1
  1

  9
$DIMBLK2
  1

  9
$DIMSTYLE
  2
ISO-25
  9
$DIMCLRD
 70
     0
  9
$DIMCLRE
 70
     0
  9
$DIMCLRT
 70
     0
  9
$DIMTFAC
 40
1.0
  9
$DIMGAP
 40
0.625
  9
$DIMJUST
 70
     0
  9
$DIMSD1
 70
     0
  9
$DIMSD2
 70
     0
  9
$DIMTOLJ
 70
     0
  9
$DIMTZIN
 70
     8
  9
$DIMALTZ
 70
     0
  9
$DIMALTTZ
 70
     0
  9
$DIMUPT
 70
     0
  9
$DIMDEC
 70
     2
  9
$DIMTDEC
 70
     2
  9
$DIMALTU
 70
     2
  9
$DIMALTTD
 70
     3
  9
$DIMTXSTY
  7
Standard
  9
$DIMAUNIT
 70
     0
  9
$DIMADEC
 70
     0
  9
$DIMALTRND
 40
0.0
  9
$DIMAZIN
 70
     0
  9
$DIMDSEP
 70
    44
  9
$DIMATFIT
 70
     3
  9
$DIMFRAC
 70
     0
  9
$DIMLDRBLK
  1

  9
$DIMLUNIT
 70
     2
  9
$DIMLWD
 70
    -2
  9
$DIMLWE
 70
    -2
  9
$DIMTMOVE
 70
     0
  9
$DIMFXL
 40
1.0
  9
$DIMFXLON
 70
     0
  9
$DIMJOGANG
 40
0.785398
  9
$DIMTFILL
 70
     0
  9
$DIMTFILLCLR
 70
     0
  9
$DIMARCSYM
 70
     0
  9
$DIMLTYPE
  6

  9
$DIMLTEX1
  6

  9
$DIMLTEX2
  6

  9
$DIMTXTDIRECTION
 70
     0
  9
$LUNITS
 70
     2
  9
$LUPREC
 70
     4
  9
$SKETCHINC
 40
1.0
  9
$FILLETRAD
 40
10.0
  9
$AUNITS
 70
     0
  9
$AUPREC
 70
     0
  9
$MENU
  1
.
  9
$ELEVATION
 40
0.0
  9
$PELEVATION
 40
0.0
  9
$THICKNESS
 40
0.0
  9
$LIMCHECK
 70
     0
  9
$CHAMFERA
 40
0.0
  9
$CHAMFERB
 40
0.0
  9
$CHAMFERC
 40
0.0
  9
$CHAMFERD
 40
0.0
  9
$SKPOLY
 70
     0
  9
$TDCREATE
 40
2457829.712766354
  9
$TDUCREATE
 40
2457829.671099687
  9
$TDUPDATE
 40
2457829.712767616
  9
$TDUUPDATE
 40
2457829.671100949
  9
$TDINDWG
 40
0.0000000116
  9
$TDUSRTIMER
 40
0.0000000116
  9
$USRTIMER
 70
     1
  9
$ANGBASE
 50
0.0
  9
$ANGDIR
 70
     0
  9
$PDMODE
 70
     0
  9
$PDSIZE
 40
0.0
  9
$PLINEWID
 40
0.0
  9
$SPLFRAME
 70
     0
  9
$SPLINETYPE
 70
     6
  9
$SPLINESEGS
 70
     8
  9
$HANDSEED
  5
398
  9
$SURFTAB1
 70
     6
  9
$SURFTAB2
 70
     6
  9
$SURFTYPE
 70
     6
  9
$SURFU
 70
     6
  9
$SURFV
 70
     6
  9
$UCSBASE
  2

  9
$UCSNAME
  2

  9
$UCSORG
 10
0.0
 20
0.0
 30
0.0
  9
$UCSXDIR
 10
1.0
 20
0.0
 30
0.0
  9
$UCSYDIR
 10
0.0
 20
1.0
 30
0.0
  9
$UCSORTHOREF
  2

  9
$UCSORTHOVIEW
 70
     0
  9
$UCSORGTOP
 10
0.0
 20
0.0
 30
0.0
  9
$UCSORGBOTTOM
 10
0.0
 20
0.0
 30
0.0
  9
$UCSORGLEFT
 10
0.0
 20
0.0
 30
0.0
  9
$UCSORGRIGHT
 10
0.0
 20
0.0
 30
0.0
  9
$UCSORGFRONT
 10
0.0
 20
0.0
 30
0.0
  9
$UCSORGBACK
 10
0.0
 20
0.0
 30
0.0
  9
$PUCSBASE
  2

  9
$PUCSNAME
  2

  9
$PUCSORG
 10
0.0
 20
0.0
 30
0.0
  9
$PUCSXDIR
 10
1.0
 20
0.0
 30
0.0
  9
$PUCSYDIR
 10
0.0
 20
1.0
 30
0.0
  9
$PUCSORTHOREF
  2

  9
$PUCSORTHOVIEW
 70
     0
  9
$PUCSORGTOP
 10
0.0
 20
0.0
 30
0.0
  9
$PUCSORGBOTTOM
 10
0.0
 20
0.0
 30
0.0
  9
$PUCSORGLEFT
 10
0.0
 20
0.0
 30
0.0
  9
$PUCSORGRIGHT
 10
0.0
 20
0.0
 30
0.0
  9
$PUCSORGFRONT
 10
0.0
 20
0.0
 30
0.0
  9
$PUCSORGBACK
 10
0.0
 20
0.0
 30
0.0
  9
$USERI1
 70
     0
  9
$USERI2
 70
     0
  9
$USERI3
 70
     0
  9
$USERI4
 70
     0
  9
$USERI5
 70
     0
  9
$USERR1
 40
0.0
  9
$USERR2
 40
0.0
  9
$USERR3
 40
0.0
  9
$USERR4
 40
0.0
  9
$USERR5
 40
0.0
  9
$WORLDVIEW
 70
     1
  9
$SHADEDGE
 70
     3
  9
$SHADEDIF
 70
    70
  9
$TILEMODE
 70
     1
  9
$MAXACTVP
 70
    64
  9
$PINSBASE
 10
0.0
 20
0.0
 30
0.0
  9
$PLIMCHECK
 70
     0
  9
$PEXTMIN
 10
1.000000E+20
 20
1.000000E+20
 30
1.000000E+20
  9
$PEXTMAX
 10
-1.000000E+20
 20
-1.000000E+20
 30
-1.000000E+20
  9
$PLIMMIN
 10
0.0
 20
0.0
  9
$PLIMMAX
 10
420.0
 20
297.0
  9
$UNITMODE
 70
     0
  9
$VISRETAIN
 70
     1
  9
$PLINEGEN
 70
     0
  9
$PSLTSCALE
 70
     1
  9
$TREEDEPTH
 70
  3020
  9
$CMLSTYLE
  2
Standard
  9
$CMLJUST
 70
     0
  9
$CMLSCALE
 40
20.0
  9
$PROXYGRAPHICS
 70
     1
  9
$MEASUREMENT
 70
     1
  9
$CELWEIGHT
370
    -1
  9
$ENDCAPS
280
     0
  9
$JOINSTYLE
280
     0
  9
$LWDISPLAY
290
     0
  9
$INSUNITS
 70
     4
  9
$HYPERLINKBASE
  1

  9
$STYLESHEET
  1

  9
$XEDIT
290
     1
  9
$CEPSNTYPE
380
     0
  9
$PSTYLEMODE
290
     1
  9
$FINGERPRINTGUID
  2
{07493EB8-3AB4-4494-98BF-D289673AB026}
  9
$VERSIONGUID
  2
{FAEB1C32-E019-11D5-929B-00C0DF256EC4}
  9
$EXTNAMES
290
     1
  9
$PSVPSCALE
 40
0.0
  9
$OLESTARTUP
290
     0
  9
$SORTENTS
280
   127
  9
$INDEXCTL
280
     0
  9
$HIDETEXT
280
     1
  9
$XCLIPFRAME
280
     2
  9
$HALOGAP
280
     0
  9
$OBSCOLOR
 70
   257
  9
$OBSLTYPE
280
     0
  9
$INTERSECTIONDISPLAY
280
     0
  9
$INTERSECTIONCOLOR
 70
   257
  9
$DIMASSOC
280
     2
  9
$PROJECTNAME
  1

  9
$CAMERADISPLAY
290
     0
  9
$LENSLENGTH
 40
50.0
  9
$CAMERAHEIGHT
 40
0.0
  9
$STEPSPERSEC
 40
2.0
  9
$STEPSIZE
 40
6.0
  9
$3DDWFPREC
 40
2.0
  9
$PSOLWIDTH
 40
5.0
  9
$PSOLHEIGHT
 40
80.0
  9
$LOFTANG1
 40
1.570796
  9
$LOFTANG2
 40
1.570796
  9
$LOFTMAG1
 40
0.0
  9
$LOFTMAG2
 40
0.0
  9
$LOFTPARAM
 70
     7
  9
$LOFTNORMALS
280
     1
  9
$LATITUDE
 40
37.795
  9
$LONGITUDE
 40
-122.394
  9
$NORTHDIRECTION
 40
0.0
  9
$TIMEZONE
 70
 -8000
  9
$LIGHTGLYPHDISPLAY
280
     1
  9
$TILEMODELIGHTSYNCH
280
     1
  9
$CMATERIAL
347
44
  9
$SOLIDHIST
280
     0
  9
$SHOWHIST
280
     1
  9
$DWFFRAME
280
     2
  9
$DGNFRAME
280
     2
  9
$REALWORLDSCALE
290
     1
  9
$INTERFERECOLOR
 62
   256
  9
$CSHADOW
280
     0
  9
$SHADOWPLANELOCATION
 40
0.0
  0
ENDSEC
  0
SECTION
  2
CLASSES
  0
CLASS
  1
ACDBDICTIONARYWDFLT
  2
AcDbDictionaryWithDefault
  3
ObjectDBX Classes
 90
        0
 91
        4
280
     0
281
     0
  0
CLASS
  1
VISUALSTYLE
  2
AcDbVisualStyle
  3
ObjectDBX Classes
 90
     4095
 91
        4
280
     0
281
     0
  0
CLASS
  1
MATERIAL
  2
AcDbMaterial
  3
ObjectDBX Classes
 90
     1153
 91
        4
280
     0
281
     0
  0
CLASS
  1
SCALE
  2
AcDbScale
  3
ObjectDBX Classes
 90
     1153
 91
        4
280
     0
281
     0
  0
CLASS
  1
TABLESTYLE
  2
AcDbTableStyle
  3
ObjectDBX Classes
 90
     4095
 91
        4
280
     0
281
     0
  0
CLASS
  1
MLEADERSTYLE
  2
AcDbMLeaderStyle
  3
ACDB_MLEADERSTYLE_CLASS
 90
     4095
 91
        4
280
     0
281
     0
  0
CLASS
  1
SUN
  2
AcDbSun
  3
SCENEOE
 90
     1153
 91
        4
280
     0
281
     0
  0
CLASS
  1
DICTIONARYVAR
  2
AcDbDictionaryVar
  3
ObjectDBX Classes
 90
        0
 91
        4
280
     0
281
     0
  0
CLASS
  1
CELLSTYLEMAP
  2
AcDbCellStyleMap
  3
ObjectDBX Classes
 90
     1152
 91
        4
280
     0
281
     0
  0
ENDSEC
  0
SECTION
  2
TABLES
  0
TABLE
  2
VPORT
  5
8
330
0
100
AcDbSymbolTable
 70
     1
  0
VPORT
  5
29
330
8
100
AcDbSymbolTableRecord
100
AcDbViewportTableRecord
  2
*Active
 70
     0
 10
0.0
 20
0.0
 11
1.0
 21
1.0
 12
344.186916
 22
148.5
 13
0.0
 23
0.0
 14
10.0
 24
10.0
 15
10.0
 25
10.0
 16
0.0
 26
0.0
 36
1.0
 17
0.0
 27
0.0
 37
0.0
 40
297.0
 41
1.972973
 42
50.0
 43
0.0
 44
0.0
 50
0.0
 51
0.0
 71
     0
 72
   100
 73
     1
 74
     3
 75
     0
 76
     0
 77
     0
 78
     0
281
     0
 65
     1
110
0.0
120
0.0
130
0.0
111
1.0
121
0.0
131
0.0
112
0.0
122
1.0
132
0.0
 79
     0
146
0.0
348
2F
 60
     3
 61
     5
292
     1
282
     1
141
0.0
142
0.0
 63
   250
361
6D
  0
ENDTAB
  0
TABLE
  2
LTYPE
  5
5
330
0
100
AcDbSymbolTable
 70
     1
  0
LTYPE
  5
14
330
5
100
AcDbSymbolTableRecord
100
AcDbLinetypeTableRecord
  2
ByBlock
 70
     0
  3

 72
    65
 73
     0
 40
0.0
  0
LTYPE
  5
15
330
5
100
AcDbSymbolTableRecord
100
AcDbLinetypeTableRecord
  2
ByLayer
 70
     0
  3

 72
    65
 73
     0
 40
0.0
  0
LTYPE
  5
16
330
5
100
AcDbSymbolTableRecord
100
AcDbLinetypeTableRecord
  2
Continuous
 70
     0
  3
Solid line
 72
    65
 73
     0
 40
0.0
  0
ENDTAB
  0
TABLE
  2
LAYER
  5
2
330
0
100
AcDbSymbolTable
 70
     1
  0
LAYER
  5
10
330
2
100
AcDbSymbolTableRecord
100
AcDbLayerTableRecord
  2
0
 70
     0
 62
   106
  6
Continuous
370
     0
390
F
347
46
  0
ENDTAB
  0
TABLE
  2
STYLE
  5
3
330
0
100
AcDbSymbolTable
 70
     4
  0
STYLE
  5
11
330
3
100
AcDbSymbolTableRecord
100
AcDbTextStyleTableRecord
  2
Standard
 70
     0
 40
0.0
 41
1.0
 50
0.0
 71
     0
 42
2.5
  3
txt
  4

  0
STYLE
  5
6E
330
3
100
AcDbSymbolTableRecord
100
AcDbTextStyleTableRecord
  2
Default
 70
     0
 40
0.0
 41
1.0
 50
0.0
 71
     0
 42
2.5
  3

  4

1001
ACAD
1000
txt
1071
        0
  0
STYLE
  5
6F
330
3
100
AcDbSymbolTableRecord
100
AcDbTextStyleTableRecord
  2
ISO
 70
     0
 40
0.0
 41
1.0
 50
0.0
 71
     0
 42
2.5
  3

  4

1001
ACAD
1000
txt
1071
        0
  0
STYLE
  5
70
330
3
100
AcDbSymbolTableRecord
100
AcDbTextStyleTableRecord
  2
zucchetti
 70
     0
 40
0.0
 41
1.0
 50
0.0
 71
     0
 42
2.5
  3

  4

1001
ACAD
1000
Arial
1071
        0
  0
ENDTAB
  0
TABLE
  2
VIEW
  5
6
330
0
100
AcDbSymbolTable
 70
     0
  0
ENDTAB
  0
TABLE
  2
UCS
  5
7
330
0
100
AcDbSymbolTable
 70
     0
  0
ENDTAB
  0
TABLE
  2
APPID
  5
9
330
0
100
AcDbSymbolTable
 70
     1
  0
APPID
  5
12
330
9
100
AcDbSymbolTableRecord
100
AcDbRegAppTableRecord
  2
ACAD
 70
     0
  0
ENDTAB
  0
TABLE
  2
DIMSTYLE
  5
A
330
0
100
AcDbSymbolTable
 70
     4
100
AcDbDimStyleTable
  0
DIMSTYLE
105
27
330
A
100
AcDbSymbolTableRecord
100
AcDbDimStyleTableRecord
  2
ISO-25
 70
     0
 41
2.5
 42
0.625
 43
3.75
 44
1.25
 73
     0
 74
     0
 77
     1
 78
     8
140
2.5
141
2.5
143
0.03937
147
0.625
171
     3
172
     1
178
     0
271
     2
272
     2
274
     3
278
    44
283
     0
284
     8
340
11
  0
DIMSTYLE
105
71
330
A
100
AcDbSymbolTableRecord
100
AcDbDimStyleTableRecord
  2
Default
 70
     0
  3
<>
 41
4.375
 42
1.05
 44
2.1
 49
10.01
 73
     0
 74
     0
 77
     1
 78
     8
140
3.5
146
0.4
147
1.75
172
     1
271
     2
178
     3
271
     2
272
     3
284
     8
340
6E
341
72
342
72
  0
DIMSTYLE
105
79
330
A
100
AcDbSymbolTableRecord
100
AcDbDimStyleTableRecord
  2
ISO
 70
     0
  3
<>
 41
4.375
 42
1.05
 44
2.1
 49
10.01
 73
     0
 74
     0
 77
     1
 78
     8
140
3.5
146
0.4
147
1.75
172
     1
271
     2
178
     3
271
     2
272
     3
284
     8
340
6F
341
72
342
72
  0
DIMSTYLE
105
7A
330
A
100
AcDbSymbolTableRecord
100
AcDbDimStyleTableRecord
  2
zucchetti
 70
     0
  3
<>
 41
3.0
 42
0.9
 44
1.8
 49
8.58
 73
     0
 74
     0
 77
     1
 78
     8
140
3.0
146
0.6
147
1.5
172
     1
176
     3
177
     3
271
     2
178
     3
271
     2
272
     2
284
     8
340
70
  0
ENDTAB
  0
TABLE
  2
BLOCK_RECORD
  5
1
330
0
100
AcDbSymbolTable
 70
     7
  0
BLOCK_RECORD
  5
1F
330
1
100
AcDbSymbolTableRecord
100
AcDbBlockTableRecord
  2
*Model_Space
340
22
 70
     0
280
     1
281
     0
  0
BLOCK_RECORD
  5
1B
330
1
100
AcDbSymbolTableRecord
100
AcDbBlockTableRecord
  2
*Paper_Space
340
1E
 70
     0
280
     1
281
     0
  0
BLOCK_RECORD
  5
23
330
1
100
AcDbSymbolTableRecord
100
AcDbBlockTableRecord
  2
*Paper_Space0
340
26
 70
     0
280
     1
281
     0
  0
BLOCK_RECORD
  5
72
330
1
100
AcDbSymbolTableRecord
100
AcDbBlockTableRecord
  2
_CLOSED
340
0
 70
     0
280
     1
281
     0
  0
BLOCK_RECORD
  5
7B
330
1
100
AcDbSymbolTableRecord
100
AcDbBlockTableRecord
  2
a
340
0
102
{BLKREFS
331
125
102
}
 70
     0
280
     1
281
     0
  0
BLOCK_RECORD
  5
126
330
1
100
AcDbSymbolTableRecord
100
AcDbBlockTableRecord
  2
b
340
0
102
{BLKREFS
331
18D
102
}
 70
     0
280
     1
281
     0
  0
BLOCK_RECORD
  5
18E
330
1
100
AcDbSymbolTableRecord
100
AcDbBlockTableRecord
  2
c
340
0
102
{BLKREFS
331
1E8
102
}
 70
     0
280
     1
281
     0
  0
BLOCK_RECORD
  5
1E9
330
1
100
AcDbSymbolTableRecord
100
AcDbBlockTableRecord
  2
d
340
0
102
{BLKREFS
331
2C8
102
}
 70
     0
280
     1
281
     0
  0
BLOCK_RECORD
  5
2C9
330
1
100
AcDbSymbolTableRecord
100
AcDbBlockTableRecord
  2
e
340
0
102
{BLKREFS
331
35E
102
}
 70
     0
280
     1
281
     0
  0
ENDTAB
  0
ENDSEC
  0
SECTION
  2
BLOCKS
  0
BLOCK
  5
20
330
1F
100
AcDbEntity
  8
0
100
AcDbBlockBegin
  2
*Model_Space
 70
     0
 10
0.0
 20
0.0
 30
0.0
  3
*Model_Space
  1

  0
ENDBLK
  5
21
330
1F
100
AcDbEntity
  8
0
100
AcDbBlockEnd
  0
BLOCK
  5
1C
330
1B
100
AcDbEntity
 67
     1
  8
0
100
AcDbBlockBegin
  2
*Paper_Space
 70
     0
 10
0.0
 20
0.0
 30
0.0
  3
*Paper_Space
  1

  0
ENDBLK
  5
1D
330
1B
100
AcDbEntity
 67
     1
  8
0
100
AcDbBlockEnd
  0
BLOCK
  5
24
330
23
100
AcDbEntity
  8
0
100
AcDbBlockBegin
  2
*Paper_Space0
 70
     0
 10
0.0
 20
0.0
 30
0.0
  3
*Paper_Space0
  1

  0
ENDBLK
  5
25
330
23
100
AcDbEntity
  8
0
100
AcDbBlockEnd
  0
BLOCK
  5
73
330
72
100
AcDbEntity
  8
0
100
AcDbBlockBegin
  2
_CLOSED
 70
     0
 10
0.0
 20
0.0
 30
0.0
  3
_CLOSED
  1

  0
LINE
  5
75
330
72
100
AcDbEntity
  8
0
  6
ByBlock
 62
     0
370
    -2
100
AcDbLine
 10
-1.0
 20
0.166667
 30
0.0
 11
0.0
 21
0.0
 31
0.0
  0
LINE
  5
76
330
72
100
AcDbEntity
  8
0
  6
ByBlock
 62
     0
370
    -2
100
AcDbLine
 10
0.0
 20
0.0
 30
0.0
 11
-1.0
 21
-0.166667
 31
0.0
  0
LINE
  5
77
330
72
100
AcDbEntity
  8
0
  6
ByBlock
 62
     0
370
    -2
100
AcDbLine
 10
-1.0
 20
0.166667
 30
0.0
 11
-1.0
 21
-0.166667
 31
0.0
  0
LINE
  5
78
330
72
100
AcDbEntity
  8
0
  6
ByBlock
 62
     0
370
    -2
100
AcDbLine
 10
0.0
 20
0.0
 30
0.0
 11
-1.0
 21
0.0
 31
0.0
  0
ENDBLK
  5
74
330
72
100
AcDbEntity
  8
0
100
AcDbBlockEnd
  0
BLOCK
  5
123
330
7B
100
AcDbEntity
  8
0
100
AcDbBlockBegin
  2
a
 70
     0
 10
18.046059
 20
105.780983
 30
0.0
  3
a
  1

  0
LINE
  5
7C
330
7B
100
AcDbEntity
  8
0
  6
Continuous
 62
     0
370
     0
100
AcDbLine
 10
70.627063
 20
760.39779
 30
0.0
 11
87.696876
 21
760.566039
 31
0.0
  0
LINE
  5
7D
330
7B
100
AcDbEntity
  8
0
  6
Continuous
 62
     0
370
     0
100
AcDbLine
 10
87.696876
 20
760.566039
 30
0.0
 11
87.696875
 21
761.423498
 31
0.0
  0
LINE
  5
7E
330
7B
100
AcDbEntity
  8
0
  6
Continuous
 62
     0
370
     0
100
AcDbLine
 10
70.625934
 20
761.258574
 30
0.0
 11
70.634417
 21
760.397863
 31
0.0
  0
ARC
  5
7F
330
7B
100
AcDbEntity
  8
0
  6
Continuous
 62
     0
370
     0
100
AcDbCircle
 10
63.691929
 20
759.219653
 30
0.0
 40
0.9950671048619002
100
AcDbArc
 50
90.217765
 51
179.721914
  0
LWPOLYLINE
  5
80
330
7B
100
AcDbEntity
  8
0
  6
Continuous
 62
     0
370
     0
100
AcDbPolyline
 90
       17
 70
     0
 43
0.0
 10
62.696873
 20
759.224487
 10
62.734879
 20
759.333069
 10
62.848415
 20
759.441284
 10
63.036522
 20
759.548035
 10
63.297291
 20
759.652222
 10
63.628365
 20
759.75293
 10
64.026482
 20
759.849182
 10
64.487968
 20
759.940125
 10
65.008339
 20
760.02478
 10
65.582733
 20
760.102478
 10
66.205635
 20
760.172363
 10
66.871216
 20
760.233887
 10
67.573006
 20
760.286377
 10
68.304375
 20
760.329285
 10
69.058624
 20
760.362366
 10
69.828705
 20
760.385193
 10
70.62706
 20
760.397766
  0
LINE
  5
81
330
7B
100
AcDbEntity
  8
0
  6
Continuous
 62
     0
370
     0
100
AcDbLine
 10
70.627064
 20
740.811293
 30
0.0
 11
87.696876
 21
740.684509
 31
0.0
  0
LINE
  5
82
330
7B
100
AcDbEntity
  8
0
  6
Continuous
 62
     0
370
     0
100
AcDbLine
 10
87.696876
 20
740.684509
 30
0.0
 11
87.696876
 21
741.813907
 31
0.0
  0
LINE
  5
83
330
7B
100
AcDbEntity
  8
0
  6
Continuous
 62
     0
370
     0
100
AcDbLine
 10
87.696876
 20
741.813907
 30
0.0
 11
70.627064
 21
741.940691
 31
0.0
  0
LINE
  5
84
330
7B
100
AcDbEntity
  8
0
  6
Continuous
 62
     0
370
     0
100
AcDbLine
 10
70.636824
 20
741.940619
 30
0.0
 11
70.628435
 21
740.811283
 31
0.0
  0
LINE
  5
85
330
7B
100
AcDbEntity
  8
0
  6
Continuous
 62
     0
370
     0
100
AcDbLine
 10
63.688089
 20
704.955139
 30
0.0
 11
62.696815
 21
704.955139
 31
0.0
  0
LINE
  5
86
330
7B
100
AcDbEntity
  8
0
  6
Continuous
 62
     0
370
    30
100
AcDbLine
 10
62.696815
 20
704.955139
 30
0.0
 11
62.696815
 21
690.316582
 31
0.0
  0
LINE
  5
87
330
7B
100
AcDbEntity
  8
0
  6
Continuous
 62
     0
370
     0
100
AcDbLine
 10
63.688089
 20
690.316582
 30
0.0
 11
63.688089
 21
704.955139
 31
0.0
  0
LINE
  5
88
330
7B
100
AcDbEntity
  8
0
  6
Continuous
 62
     0
370
     0
100
AcDbLine
 10
70.627064
 20
741.940691
 30
0.0
 11
70.627063
 21
760.39779
 31
0.0
  0
LINE
  5
89
330
7B
100
AcDbEntity
  8
0
  6
Continuous
 62
     0
370
     0
100
AcDbLine
 10
87.696876
 20
760.566039
 30
0.0
 11
87.696876
 21
741.813907
 31
0.0
  0
LINE
  5
8A
330
7B
100
AcDbEntity
  8
0
  6
Continuous
 62
     0
370
     0
100
AcDbLine
 10
63.688091
 20
713.867212
 30
0.0
 11
63.688148
 21
739.897084
 31
0.0
  0
LWPOLYLINE
  5
8B
330
7B
100
AcDbEntity
  8
0
  6
Continuous
 62
     0
370
     0
100
AcDbPolyline
 90
       16
 70
     0
 43
0.0
 10
63.688148
 20
739.897095
 10
63.725925
 20
739.997803
 10
63.838844
 20
740.096863
 10
64.025688
 20
740.193054
 10
64.284439
 20
740.2854
 10
64.612312
 20
740.372925
 10
65.00576
 20
740.45459
 10
65.460533
 20
740.529663
 10
65.971733
 20
740.597229
 10
66.533836
 20
740.656616
 10
67.140785
 20
740.707092
 10
67.786011
 20
740.74823
 10
68.462563
 20
740.77948
 10
69.163139
 20
740.800598
 10
69.880165
 20
740.811279
 10
70.627068
 20
740.811279
  0
LINE
  5
8C
330
7B
100
AcDbEntity
  8
0
  6
Continuous
 62
     0
370
     0
100
AcDbLine
 10
87.696876
 20
740.684509
 30
0.0
 11
87.696875
 21
740.023431
 31
0.0
  0
LWPOLYLINE
  5
8D
330
7B
100
AcDbEntity
  8
0
  6
Continuous
 62
     0
370
    30
100
AcDbPolyline
 90
       24
 70
     0
 43
0.0
 10
87.696877
 20
740.023438
 10
86.829338
 20
740.026672
 10
85.942802
 20
740.020996
 10
85.043983
 20
740.00592
 10
84.140488
 20
739.980713
 10
83.24073
 20
739.945129
 10
82.353699
 20
739.898865
 10
81.488762
 20
739.841919
 10
80.65535
 20
739.774475
 10
79.86264
 20
739.696899
 10
79.119278
 20
739.609863
 10
78.433029
 20
739.514099
 10
77.810539
 20
739.410706
 10
77.257103
 20
739.30072
 10
76.776535
 20
739.185425
 10
76.371101
 20
739.066101
 10
76.041527
 20
738.944031
 10
75.787079
 20
738.820496
 10
75.605713
 20
738.696716
 10
75.49424
 20
738.573792
 10
75.448563
 20
738.452759
 10
75.464661
 20
738.332397
 10
75.54438
 20
738.208923
 10
75.696915
 20
738.079529
  0
LINE
  5
8E
330
7B
100
AcDbEntity
  8
0
  6
Continuous
 62
     0
370
     0
100
AcDbLine
 10
87.696851
 20
728.791072
 30
0.0
 11
87.696818
 21
713.685079
 31
0.0
  0
LINE
  5
8F
330
7B
100
AcDbEntity
  8
0
  6
Continuous
 62
     0
370
     0
100
AcDbLine
 10
87.696818
 20
713.685079
 30
0.0
 11
63.688091
 21
713.867212
 31
0.0
  0
LINE
  5
90
330
7B
100
AcDbEntity
  8
0
  6
Continuous
 62
     0
370
    30
100
AcDbLine
 10
62.696873
 20
759.224482
 30
0.0
 11
62.696874
 21
740.887315
 31
0.0
  0
LWPOLYLINE
  5
91
330
7B
100
AcDbEntity
  8
0
  6
Continuous
 62
     0
370
     0
100
AcDbPolyline
 90
       17
 70
     0
 43
0.0
 10
62.696873
 20
740.887329
 10
62.735542
 20
740.994568
 10
62.850182
 20
741.100769
 10
63.038742
 20
741.204834
 10
63.299164
 20
741.305542
 10
63.629398
 20
741.401733
 10
64.02726
 20
741.492249
 10
64.488922
 20
741.576233
 10
65.009476
 20
741.653015
 10
65.583992
 20
741.721985
 10
66.207542
 20
741.782471
 10
66.875168
 20
741.83374
 10
67.580643
 20
741.875427
 10
68.315613
 20
741.907166
 10
69.071541
 20
741.928833
 10
69.839905
 20
741.940125
 10
70.627068
 20
741.940674
  0
LINE
  5
92
330
7B
100
AcDbEntity
  8
0
  6
Continuous
 62
     0
370
    30
100
AcDbLine
 10
62.696815
 20
704.955139
 30
0.0
 11
62.696818
 21
714.857443
 31
0.0
  0
LINE
  5
93
330
7B
100
AcDbEntity
  8
0
  6
Continuous
 62
     0
370
    30
100
AcDbLine
 10
62.696818
 20
714.857443
 30
0.0
 11
62.696874
 21
740.887315
 31
0.0
  0
LINE
  5
94
330
7B
100
AcDbEntity
  8
0
  6
Continuous
 62
     0
370
     0
100
AcDbLine
 10
63.688089
 20
704.955139
 30
0.0
 11
63.688091
 21
713.867212
 31
0.0
  0
LINE
  5
95
330
7B
100
AcDbEntity
  8
0
  6
Continuous
 62
     0
370
     0
100
AcDbLine
 10
87.696818
 20
713.685079
 30
0.0
 11
87.696816
 21
705.616582
 31
0.0
  0
LINE
  5
96
330
7B
100
AcDbEntity
  8
0
  6
Continuous
 62
     0
370
     0
100
AcDbLine
 10
84.949012
 20
704.793851
 30
0.0
 11
63.688089
 21
704.955139
 31
0.0
  0
LINE
  5
97
330
7B
100
AcDbEntity
  8
0
  6
Continuous
 62
     0
370
     0
100
AcDbLine
 10
87.696816
 20
690.316582
 30
0.0
 11
87.696816
 21
695.616582
 31
0.0
  0
ARC
  5
98
330
7B
100
AcDbEntity
  8
0
  6
Continuous
 62
     0
370
     0
100
AcDbCircle
 10
63.691873
 20
714.862272
 30
0.0
 40
0.9950672076960632
100
AcDbArc
 50
180.278092
 51
269.782234
  0
ARC
  5
99
330
7B
100
AcDbEntity
  8
0
  6
Continuous
 62
     0
370
     0
100
AcDbCircle
 10
63.69193
 20
740.892144
 30
0.0
 40
0.9950672077008522
100
AcDbArc
 50
180.278092
 51
269.782234
  0
LINE
  5
9A
330
7B
100
AcDbEntity
  8
0
  6
Continuous
 62
     0
370
     0
100
AcDbLine
 10
104.759334
 20
760.397863
 30
0.0
 11
104.767817
 21
761.258574
 31
0.0
  0
LINE
  5
9B
330
7B
100
AcDbEntity
  8
0
  6
Continuous
 62
     0
370
     0
100
AcDbLine
 10
87.696876
 20
760.566039
 30
0.0
 11
104.766688
 21
760.39779
 31
0.0
  0
ARC
  5
9C
330
7B
100
AcDbEntity
  8
0
  6
Continuous
 62
     0
370
     0
100
AcDbCircle
 10
111.701818
 20
759.219653
 30
0.0
 40
0.9950672077069845
100
AcDbArc
 50
0.278092
 51
89.782234
  0
LWPOLYLINE
  5
9D
330
7B
100
AcDbEntity
  8
0
  6
Continuous
 62
     0
370
     0
100
AcDbPolyline
 90
       17
 70
     0
 43
0.0
 10
112.696877
 20
759.224487
 10
112.658867
 20
759.333069
 10
112.545334
 20
759.441284
 10
112.357224
 20
759.548035
 10
112.096458
 20
759.652222
 10
111.765388
 20
759.75293
 10
111.367271
 20
759.849182
 10
110.905785
 20
759.940125
 10
110.385414
 20
760.02478
 10
109.81102
 20
760.102478
 10
109.188118
 20
760.172363
 10
108.522537
 20
760.233887
 10
107.820747
 20
760.286377
 10
107.089371
 20
760.329285
 10
106.335129
 20
760.362366
 10
105.565048
 20
760.385193
 10
104.766685
 20
760.397766
  0
LINE
  5
9E
330
7B
100
AcDbEntity
  8
0
  6
Continuous
 62
     0
370
     0
100
AcDbLine
 10
104.765317
 20
740.811283
 30
0.0
 11
104.756929
 21
741.940619
 31
0.0
  0
LINE
  5
9F
330
7B
100
AcDbEntity
  8
0
  6
Continuous
 62
     0
370
     0
100
AcDbLine
 10
104.766689
 20
741.940691
 30
0.0
 11
87.696876
 21
741.813907
 31
0.0
  0
LINE
  5
A0
330
7B
100
AcDbEntity
  8
0
  6
Continuous
 62
     0
370
     0
100
AcDbLine
 10
87.696876
 20
740.684509
 30
0.0
 11
104.766688
 21
740.811293
 31
0.0
  0
LINE
  5
A1
330
7B
100
AcDbEntity
  8
0
  6
Continuous
 62
     0
370
     0
100
AcDbLine
 10
111.705542
 20
704.955139
 30
0.0
 11
111.705542
 21
690.316582
 31
0.0
  0
LINE
  5
A2
330
7B
100
AcDbEntity
  8
0
  6
Continuous
 62
     0
370
    30
100
AcDbLine
 10
112.696815
 20
690.316582
 30
0.0
 11
112.696815
 21
704.955139
 31
0.0
  0
LINE
  5
A3
330
7B
100
AcDbEntity
  8
0
  6
Continuous
 62
     0
370
     0
100
AcDbLine
 10
112.696815
 20
704.955139
 30
0.0
 11
111.705542
 21
704.955139
 31
0.0
  0
LINE
  5
A4
330
7B
100
AcDbEntity
  8
0
  6
Continuous
 62
     0
370
     0
100
AcDbLine
 10
104.766689
 20
741.940691
 30
0.0
 11
104.766688
 21
760.39779
 31
0.0
  0
LINE
  5
A5
330
7B
100
AcDbEntity
  8
0
  6
Continuous
 62
     0
370
     0
100
AcDbLine
 10
111.705544
 20
713.867212
 30
0.0
 11
111.705601
 21
739.897084
 31
0.0
  0
LWPOLYLINE
  5
A6
330
7B
100
AcDbEntity
  8
0
  6
Continuous
 62
     0
370
     0
100
AcDbPolyline
 90
       16
 70
     0
 43
0.0
 10
111.705597
 20
739.897095
 10
111.667824
 20
739.997803
 10
111.554909
 20
740.096863
 10
111.368057
 20
740.193054
 10
111.109306
 20
740.2854
 10
110.781441
 20
740.372925
 10
110.387993
 20
740.45459
 10
109.933212
 20
740.529663
 10
109.422012
 20
740.597229
 10
108.859909
 20
740.656616
 10
108.252968
 20
740.707092
 10
107.607742
 20
740.74823
 10
106.93119
 20
740.77948
 10
106.230614
 20
740.800598
 10
105.51358
 20
740.811279
 10
104.766685
 20
740.811279
  0
LWPOLYLINE
  5
A7
330
7B
100
AcDbEntity
  8
0
  6
Continuous
 62
     0
370
    30
100
AcDbPolyline
 90
       24
 70
     0
 43
0.0
 10
87.696877
 20
740.023438
 10
88.603279
 20
740.026611
 10
89.520157
 20
740.020203
 10
90.439705
 20
740.003845
 10
91.3536
 20
739.977295
 10
92.253235
 20
739.940491
 10
93.129967
 20
739.893555
 10
93.97538
 20
739.836731
 10
94.78157
 20
739.77063
 10
95.541367
 20
739.695801
 10
96.248528
 20
739.613159
 10
96.897957
 20
739.523621
 10
97.485756
 20
739.428162
 10
98.009315
 20
739.327881
 10
98.468414
 20
739.223572
 10
98.873032
 20
739.113159
 10
99.220589
 20
738.99646
 10
99.505356
 20
738.874207
 10
99.722443
 20
738.747314
 10
99.867981
 20
738.616943
 10
99.939354
 20
738.48407
 10
99.935234
 20
738.350037
 10
99.855705
 20
738.216003
 10
99.696869
 20
738.07959
  0
LINE
  5
A8
330
7B
100
AcDbEntity
  8
0
  6
Continuous
 62
     0
370
     0
100
AcDbLine
 10
87.696818
 20
713.685079
 30
0.0
 11
111.705544
 21
713.867212
 31
0.0
  0
LWPOLYLINE
  5
A9
330
7B
100
AcDbEntity
  8
0
  6
Continuous
 62
     0
370
     0
100
AcDbPolyline
 90
       17
 70
     0
 43
0.0
 10
104.766685
 20
741.940674
 10
105.53894
 20
741.940186
 10
106.307457
 20
741.929138
 10
107.063705
 20
741.907715
 10
107.799164
 20
741.876099
 10
108.505287
 20
741.834656
 10
109.173714
 20
741.783508
 10
109.798157
 20
741.723267
 10
110.373672
 20
741.654419
 10
110.895309
 20
741.57782
 10
111.358162
 20
741.493958
 10
111.757294
 20
741.403564
 10
112.08886
 20
741.307495
 10
112.350655
 20
741.206848
 10
112.540619
 20
741.102844
 10
112.6567
 20
740.996643
 10
112.696877
 20
740.887329
  0
LINE
  5
AA
330
7B
100
AcDbEntity
  8
0
  6
Continuous
 62
     0
370
    30
100
AcDbLine
 10
112.696874
 20
740.887315
 30
0.0
 11
112.696873
 21
759.224482
 31
0.0
  0
LINE
  5
AB
330
7B
100
AcDbEntity
  8
0
  6
Continuous
 62
     0
370
    30
100
AcDbLine
 10
112.696815
 20
704.955139
 30
0.0
 11
112.696818
 21
714.857443
 31
0.0
  0
LINE
  5
AC
330
7B
100
AcDbEntity
  8
0
  6
Continuous
 62
     0
370
    30
100
AcDbLine
 10
112.696818
 20
714.857443
 30
0.0
 11
112.696874
 21
740.887315
 31
0.0
  0
LINE
  5
AD
330
7B
100
AcDbEntity
  8
0
  6
Continuous
 62
     0
370
     0
100
AcDbLine
 10
111.705542
 20
704.955139
 30
0.0
 11
90.444619
 21
704.793851
 31
0.0
  0
LINE
  5
AE
330
7B
100
AcDbEntity
  8
0
  6
Continuous
 62
     0
370
     0
100
AcDbLine
 10
111.705544
 20
713.867212
 30
0.0
 11
111.705542
 21
704.955139
 31
0.0
  0
ARC
  5
AF
330
7B
100
AcDbEntity
  8
0
  6
Continuous
 62
     0
370
     0
100
AcDbCircle
 10
111.701762
 20
714.862272
 30
0.0
 40
0.9950671048525046
100
AcDbArc
 50
270.217765
 51
359.721914
  0
ARC
  5
B0
330
7B
100
AcDbEntity
  8
0
  6
Continuous
 62
     0
370
     0
100
AcDbCircle
 10
111.701819
 20
740.892144
 30
0.0
 40
0.9950671048565909
100
AcDbArc
 50
270.217765
 51
359.721914
  0
ARC
  5
B1
330
7B
100
AcDbEntity
  8
0
  6
Continuous
 62
     0
370
     0
100
AcDbCircle
 10
87.666252
 20
700.514503
 30
0.0
 40
5.102169868429023
100
AcDbArc
 50
57.006341
 51
89.656777
  0
ARC
  5
B2
330
7B
100
AcDbEntity
  8
0
  6
Continuous
 62
     0
370
     0
100
AcDbCircle
 10
87.696816
 20
700.616582
 30
0.0
 40
5.000000002086296
100
AcDbArc
 50
270.0
 51
56.663119
  0
ARC
  5
B3
330
7B
100
AcDbEntity
  8
0
  6
Continuous
 62
     0
370
     0
100
AcDbCircle
 10
87.727379
 20
700.514503
 30
0.0
 40
5.102169970779541
100
AcDbArc
 50
90.343223
 51
122.993658
  0
ARC
  5
B4
330
7B
100
AcDbEntity
  8
0
  6
Continuous
 62
     0
370
     0
100
AcDbCircle
 10
87.696816
 20
700.616582
 30
0.0
 40
4.999999997913683
100
AcDbArc
 50
123.336881
 51
270.0
  0
ELLIPSE
  5
B5
330
7B
100
AcDbEntity
  8
0
  6
Continuous
 62
     0
370
     0
100
AcDbEllipse
 10
87.696871
 20
730.396416
 30
0.0
 11
11.49999999999999
 21
4.911035181796977E-7
 31
0.0
210
0.0
220
0.0
230
1.0
 40
0.139173
 41
0.0
 42
6.283185307179586
  0
ELLIPSE
  5
B6
330
7B
100
AcDbEntity
  8
0
  6
Continuous
 62
     0
370
     0
100
AcDbEllipse
 10
87.696871
 20
730.89155
 30
0.0
 11
11.99999999999999
 21
5.124558450570758E-7
 31
0.0
210
0.0
220
0.0
230
1.0
 40
0.139173
 41
6.28318500033399
 42
9.424777960769386
  0
LINE
  5
B7
330
7B
100
AcDbEntity
  8
0
  6
Continuous
 62
     0
370
    30
100
AcDbLine
 10
52.700776
 20
682.316582
 30
0.0
 11
52.700776
 21
690.316582
 31
0.0
  0
LINE
  5
B8
330
7B
100
AcDbEntity
  8
0
  6
Continuous
 62
     0
370
    30
100
AcDbLine
 10
52.700775
 20
682.316582
 30
0.0
 11
122.700775
 21
682.316582
 31
0.0
  0
LINE
  5
B9
330
7B
100
AcDbEntity
  8
0
  6
Continuous
 62
     0
370
    30
100
AcDbLine
 10
62.963844
 20
690.316582
 30
0.0
 11
52.700775
 21
690.316582
 31
0.0
  0
LINE
  5
BA
330
7B
100
AcDbEntity
  8
0
  6
Continuous
 62
     0
370
    30
100
AcDbLine
 10
122.700775
 20
690.316582
 30
0.0
 11
112.433628
 21
690.316582
 31
0.0
  0
LINE
  5
BB
330
7B
100
AcDbEntity
  8
0
  6
Continuous
 62
     0
370
    30
100
AcDbLine
 10
112.433628
 20
690.316582
 30
0.0
 11
62.963844
 21
690.316582
 31
0.0
  0
LINE
  5
BC
330
7B
100
AcDbEntity
  8
0
  6
Continuous
 62
     0
370
    30
100
AcDbLine
 10
211.535237
 20
682.316582
 30
0.0
 11
222.700775
 21
682.316582
 31
0.0
  0
LINE
  5
BD
330
7B
100
AcDbEntity
  8
0
  6
Continuous
 62
     0
370
    30
100
AcDbLine
 10
152.700775
 20
682.316582
 30
0.0
 11
211.535237
 21
682.316582
 31
0.0
  0
LINE
  5
BE
330
7B
100
AcDbEntity
  8
0
  6
Continuous
 62
     0
370
    30
100
AcDbLine
 10
211.535237
 20
690.316582
 30
0.0
 11
152.700775
 21
690.316582
 31
0.0
  0
LINE
  5
BF
330
7B
100
AcDbEntity
  8
0
  6
Continuous
 62
     0
370
    30
100
AcDbLine
 10
222.700775
 20
690.316582
 30
0.0
 11
211.535237
 21
690.316582
 31
0.0
  0
LINE
  5
C0
330
7B
100
AcDbEntity
  8
0
  6
Continuous
 62
     0
370
    30
100
AcDbLine
 10
203.034298
 20
727.166582
 30
0.0
 11
171.700772
 21
727.166582
 31
0.0
  0
LINE
  5
C1
330
7B
100
AcDbEntity
  8
0
  6
Continuous
 62
     0
370
    30
100
AcDbLine
 10
203.700772
 20
727.166582
 30
0.0
 11
203.034298
 21
727.166582
 31
0.0
  0
LINE
  5
C2
330
7B
100
AcDbEntity
  8
0
  6
Continuous
 62
     0
370
    30
100
AcDbLine
 10
203.034298
 20
704.166582
 30
0.0
 11
203.700772
 21
704.166582
 31
0.0
  0
LINE
  5
C3
330
7B
100
AcDbEntity
  8
0
  6
Continuous
 62
     0
370
    30
100
AcDbLine
 10
171.700772
 20
704.166582
 30
0.0
 11
203.034298
 21
704.166582
 31
0.0
  0
LINE
  5
C4
330
7B
100
AcDbEntity
  8
0
  6
Continuous
 62
     0
370
     0
100
AcDbLine
 10
310.950775
 20
710.638016
 30
0.0
 11
309.950775
 21
710.638015
 31
0.0
  0
LINE
  5
C5
330
7B
100
AcDbEntity
  8
0
  6
Continuous
 62
     0
370
     0
100
AcDbLine
 10
309.950775
 20
710.638015
 30
0.0
 11
309.95078
 21
691.616582
 31
0.0
  0
LINE
  5
C6
330
7B
100
AcDbEntity
  8
0
  6
Continuous
 62
     0
370
    30
100
AcDbLine
 10
310.95078
 20
691.616582
 30
0.0
 11
310.950775
 21
710.638016
 31
0.0
  0
ARC
  5
C7
330
7B
100
AcDbEntity
  8
0
  6
Continuous
 62
     0
370
    30
100
AcDbCircle
 10
317.950775
 20
710.638017
 30
0.0
 40
7.0
100
AcDbArc
 50
99.0
 51
180.000014
  0
LWPOLYLINE
  5
C8
330
7B
100
AcDbEntity
  8
0
  6
Continuous
 62
     0
370
    30
100
AcDbPolyline
 90
       15
 70
     0
 43
0.0
 10
366.217957
 20
725.370056
 10
366.180817
 20
725.364136
 10
366.069977
 20
725.346619
 10
365.886749
 20
725.317566
 10
365.633514
 20
725.277466
 10
365.313293
 20
725.226746
 10
364.930267
 20
725.166077
 10
364.489105
 20
725.096191
 10
363.995392
 20
725.018005
 10
363.455261
 20
724.932495
 10
362.875549
 20
724.840637
 10
362.263428
 20
724.743713
 10
361.626648
 20
724.642822
 10
360.973083
 20
724.539368
 10
360.289764
 20
724.431091
  0
LINE
  5
C9
330
7B
100
AcDbEntity
  8
0
  6
Continuous
 62
     0
370
    30
100
AcDbLine
 10
360.289756
 20
724.431109
 30
0.0
 11
316.855734
 21
717.551836
 31
0.0
  0
LINE
  5
CA
330
7B
100
AcDbEntity
  8
0
  6
Continuous
 62
     0
370
     0
100
AcDbLine
 10
360.289756
 20
724.431109
 30
0.0
 11
360.133322
 21
725.418797
 31
0.0
  0
LINE
  5
CB
330
7B
100
AcDbEntity
  8
0
  6
Continuous
 62
     0
370
     0
100
AcDbLine
 10
360.133322
 20
725.418797
 30
0.0
 11
316.6993
 21
718.539524
 31
0.0
  0
LINE
  5
CC
330
7B
100
AcDbEntity
  8
0
  6
Continuous
 62
     0
370
     0
100
AcDbLine
 10
316.699299
 20
718.539524
 30
0.0
 11
316.855734
 21
717.551836
 31
0.0
  0
ARC
  5
CD
330
7B
100
AcDbEntity
  8
0
  6
Continuous
 62
     0
370
     0
100
AcDbCircle
 10
317.950775
 20
710.638017
 30
0.0
 40
7.999999999999881
100
AcDbArc
 50
99.0
 51
180.000014
  0
LINE
  5
CE
330
7B
100
AcDbEntity
  8
0
  6
Continuous
 62
     0
370
     0
100
AcDbLine
 10
360.133322
 20
725.418797
 30
0.0
 11
367.044731
 21
726.540174
 31
0.0
  0
ARC
  5
CF
330
7B
100
AcDbEntity
  8
0
  6
Continuous
 62
     0
370
    30
100
AcDbCircle
 10
366.061514
 20
726.357731
 30
0.0
 40
0.9999999999997872
100
AcDbArc
 50
279.0
 51
10.512056
  0
LINE
  5
D0
330
7B
100
AcDbEntity
  8
0
  6
Continuous
 62
     0
370
    30
100
AcDbLine
 10
267.794338
 20
713.831135
 30
0.0
 11
273.79434
 21
714.781441
 31
0.0
  0
LINE
  5
D1
330
7B
100
AcDbEntity
  8
0
  6
Continuous
 62
     0
370
    30
100
AcDbLine
 10
273.79434
 20
714.781441
 30
0.0
 11
359.611875
 21
728.373604
 31
0.0
  0
LINE
  5
D2
330
7B
100
AcDbEntity
  8
0
  6
Continuous
 62
     0
370
    30
100
AcDbLine
 10
359.611875
 20
728.373604
 30
0.0
 11
365.540068
 21
729.312538
 31
0.0
  0
LINE
  5
D3
330
7B
100
AcDbEntity
  8
0
  6
Continuous
 62
     0
370
    30
100
AcDbLine
 10
266.950775
 20
701.765952
 30
0.0
 11
266.950773
 21
712.843446
 31
0.0
  0
LINE
  5
D4
330
7B
100
AcDbEntity
  8
0
  6
Continuous
 62
     0
370
     0
100
AcDbLine
 10
273.950778
 20
699.004551
 30
0.0
 11
273.950775
 21
713.793753
 31
0.0
  0
LINE
  5
D5
330
7B
100
AcDbEntity
  8
0
  6
Continuous
 62
     0
370
     0
100
AcDbLine
 10
273.950775
 20
713.793753
 30
0.0
 11
266.950773
 21
712.843446
 31
0.0
  0
LINE
  5
D6
330
7B
100
AcDbEntity
  8
0
  6
Continuous
 62
     0
370
     0
100
AcDbLine
 10
360.133322
 20
725.418797
 30
0.0
 11
359.76831
 21
727.385915
 31
0.0
  0
LINE
  5
D7
330
7B
100
AcDbEntity
  8
0
  6
Continuous
 62
     0
370
     0
100
AcDbLine
 10
359.76831
 20
727.385915
 30
0.0
 11
273.950775
 21
713.793753
 31
0.0
  0
LINE
  5
D8
330
7B
100
AcDbEntity
  8
0
  6
Continuous
 62
     0
370
    30
100
AcDbLine
 10
367.044731
 20
726.540174
 30
0.0
 11
366.679719
 21
728.507292
 31
0.0
  0
LWPOLYLINE
  5
D9
330
7B
100
AcDbEntity
  8
0
  6
Continuous
 62
     0
370
     0
100
AcDbPolyline
 90
       16
 70
     0
 43
0.0
 10
366.679718
 20
728.507263
 10
366.641266
 20
728.501038
 10
366.527344
 20
728.482544
 10
366.34021
 20
728.452209
 10
366.082092
 20
728.410339
 10
365.755157
 20
728.3573
 10
365.362152
 20
728.293518
 10
364.907776
 20
728.219788
 10
364.397369
 20
728.136963
 10
363.836243
 20
728.045959
 10
363.229706
 20
727.94751
 10
362.583618
 20
727.842712
 10
361.906433
 20
727.732849
 10
361.207214
 20
727.619385
 10
360.495087
 20
727.503845
 10
359.768311
 20
727.385925
  0
ARC
  5
DA
330
7B
100
AcDbEntity
  8
0
  6
Continuous
 62
     0
370
    30
100
AcDbCircle
 10
365.696502
 20
728.324849
 30
0.0
 40
0.9999999999999952
100
AcDbArc
 50
10.512056
 51
99.0
  0
LINE
  5
DB
330
7B
100
AcDbEntity
  8
0
  6
Continuous
 62
     0
370
     0
100
AcDbLine
 10
359.76831
 20
727.385915
 30
0.0
 11
359.611875
 21
728.373604
 31
0.0
  0
LINE
  5
DC
330
7B
100
AcDbEntity
  8
0
  6
Continuous
 62
     0
370
     0
100
AcDbLine
 10
273.79434
 20
714.781441
 30
0.0
 11
273.950774
 21
713.793753
 31
0.0
  0
ARC
  5
DD
330
7B
100
AcDbEntity
  8
0
  6
Continuous
 62
     0
370
    30
100
AcDbCircle
 10
267.950773
 20
712.843447
 30
0.0
 40
1.00000000000001
100
AcDbArc
 50
99.0
 51
180.000014
  0
ARC
  5
DE
330
7B
100
AcDbEntity
  8
0
  6
Continuous
 62
     0
370
    30
100
AcDbCircle
 10
295.530586
 20
706.616582
 30
0.0
 40
14.99999999999888
100
AcDbArc
 50
248.471471
 51
270.0
  0
LINE
  5
DF
330
7B
100
AcDbEntity
  8
0
  6
Continuous
 62
     0
370
    30
100
AcDbLine
 10
295.530586
 20
691.616582
 30
0.0
 11
309.95078
 21
691.616582
 31
0.0
  0
LINE
  5
E0
330
7B
100
AcDbEntity
  8
0
  6
Continuous
 62
     0
370
    30
100
AcDbLine
 10
273.950778
 20
699.004551
 30
0.0
 11
290.026119
 21
692.663057
 31
0.0
  0
LINE
  5
E1
330
7B
100
AcDbEntity
  8
0
  6
Continuous
 62
     0
370
    30
100
AcDbLine
 10
309.95078
 20
691.616582
 30
0.0
 11
310.95078
 21
691.616582
 31
0.0
  0
LWPOLYLINE
  5
E2
330
7B
100
AcDbEntity
  8
0
  6
Continuous
 62
     0
370
    30
100
AcDbPolyline
 90
       18
 70
     0
 43
0.0
 10
266.950775
 20
701.76593
 10
266.985718
 20
701.752563
 10
267.08786
 20
701.712524
 10
267.253296
 20
701.647339
 10
267.478058
 20
701.558655
 10
267.75824
 20
701.448059
 10
268.089813
 20
701.317078
 10
268.468903
 20
701.167358
 10
268.891541
 20
701.000549
 10
269.353607
 20
700.818176
 10
269.850677
 20
700.622009
 10
270.378235
 20
700.413879
 10
270.931763
 20
700.195496
 10
271.506744
 20
699.968689
 10
272.098602
 20
699.735168
 10
272.702576
 20
699.496887
 10
273.313873
 20
699.255737
 10
273.950775
 20
699.004578
  0
LINE
  5
E3
330
7B
100
AcDbEntity
  8
0
  6
Continuous
 62
     0
370
    30
100
AcDbLine
 10
252.700775
 20
682.316582
 30
0.0
 11
322.696015
 21
682.316582
 31
0.0
  0
LINE
  5
E4
330
7B
100
AcDbEntity
  8
0
  6
Continuous
 62
     0
370
    30
100
AcDbLine
 10
322.696015
 20
690.316582
 30
0.0
 11
252.700775
 21
690.316582
 31
0.0
  0
LINE
  5
E5
330
7B
100
AcDbEntity
  8
0
  6
Continuous
 62
     0
370
    30
100
AcDbLine
 10
462.700775
 20
690.116582
 30
0.0
 11
461.523516
 21
690.116582
 31
0.0
  0
LINE
  5
E6
330
7B
100
AcDbEntity
  8
0
  6
Continuous
 62
     0
370
    30
100
AcDbLine
 10
461.523516
 20
690.116582
 30
0.0
 11
392.700775
 21
690.116582
 31
0.0
  0
LINE
  5
E7
330
7B
100
AcDbEntity
  8
0
  6
Continuous
 62
     0
370
    30
100
AcDbLine
 10
392.700775
 20
682.516582
 30
0.0
 11
461.523516
 21
682.516582
 31
0.0
  0
LINE
  5
E8
330
7B
100
AcDbEntity
  8
0
  6
Continuous
 62
     0
370
    30
100
AcDbLine
 10
461.523516
 20
682.516582
 30
0.0
 11
462.700775
 21
682.516582
 31
0.0
  0
LINE
  5
E9
330
7B
100
AcDbEntity
  8
0
  6
Continuous
 62
     0
370
    30
100
AcDbLine
 10
417.874509
 20
617.536583
 30
0.0
 11
442.700768
 21
617.536583
 31
0.0
  0
LINE
  5
EA
330
7B
100
AcDbEntity
  8
0
  6
Continuous
 62
     0
370
    30
100
AcDbLine
 10
412.700783
 20
617.536583
 30
0.0
 11
417.874509
 21
617.536583
 31
0.0
  0
LINE
  5
EB
330
7B
100
AcDbEntity
  8
0
  6
Continuous
 62
     0
370
    30
100
AcDbLine
 10
417.874509
 20
681.816583
 30
0.0
 11
412.700783
 21
681.816583
 31
0.0
  0
LINE
  5
EC
330
7B
100
AcDbEntity
  8
0
  6
Continuous
 62
     0
370
    30
100
AcDbLine
 10
442.700768
 20
681.816583
 30
0.0
 11
417.874509
 21
681.816583
 31
0.0
  0
ARC
  5
ED
330
7B
100
AcDbEntity
  8
0
  6
Continuous
 62
     0
370
    30
100
AcDbCircle
 10
433.696489
 20
829.28096
 30
0.0
 40
6.000000000000002
100
AcDbArc
 50
269.999999
 51
359.999999
  0
LINE
  5
EE
330
7B
100
AcDbEntity
  8
0
  6
Continuous
 62
     0
370
     0
100
AcDbLine
 10
433.698201
 20
817.28096
 30
0.0
 11
439.699486
 21
817.28096
 31
0.0
  0
LINE
  5
EF
330
7B
100
AcDbEntity
  8
0
  6
Continuous
 62
     0
370
    30
100
AcDbLine
 10
439.699486
 20
817.28096
 30
0.0
 11
439.696917
 21
829.28096
 31
0.0
  0
LINE
  5
F0
330
7B
100
AcDbEntity
  8
0
  6
Continuous
 62
     0
370
     0
100
AcDbLine
 10
433.696917
 20
823.28096
 30
0.0
 11
433.698201
 21
817.28096
 31
0.0
  0
LINE
  5
F1
330
7B
100
AcDbEntity
  8
0
  6
Continuous
 62
     0
370
    30
100
AcDbLine
 10
439.699486
 20
705.28096
 30
0.0
 11
439.699486
 21
817.28096
 31
0.0
  0
LINE
  5
F2
330
7B
100
AcDbEntity
  8
0
  6
Continuous
 62
     0
370
     0
100
AcDbLine
 10
433.698201
 20
817.28096
 30
0.0
 11
433.698201
 21
705.28096
 31
0.0
  0
LINE
  5
F3
330
7B
100
AcDbEntity
  8
0
  6
Continuous
 62
     0
370
     0
100
AcDbLine
 10
433.698201
 20
817.28096
 30
0.0
 11
421.698202
 21
817.28096
 31
0.0
  0
LINE
  5
F4
330
7B
100
AcDbEntity
  8
0
  6
Continuous
 62
     0
370
     0
100
AcDbLine
 10
421.698202
 20
817.28096
 30
0.0
 11
421.698202
 21
705.28096
 31
0.0
  0
LINE
  5
F5
330
7B
100
AcDbEntity
  8
0
  6
Continuous
 62
     0
370
     0
100
AcDbLine
 10
421.696917
 20
817.28096
 30
0.0
 11
421.696917
 21
823.28096
 31
0.0
  0
LINE
  5
F6
330
7B
100
AcDbEntity
  8
0
  6
Continuous
 62
     0
370
    30
100
AcDbLine
 10
433.696489
 20
823.28096
 30
0.0
 11
421.696489
 21
823.28096
 31
0.0
  0
ARC
  5
F7
330
7B
100
AcDbEntity
  8
0
  6
Continuous
 62
     0
370
    30
100
AcDbCircle
 10
421.696489
 20
829.28096
 30
0.0
 40
6.000000000000002
100
AcDbArc
 50
180.000001
 51
270.000001
  0
LWPOLYLINE
  5
F8
330
7B
100
AcDbEntity
  8
0
  6
Continuous
 62
     0
370
     0
100
AcDbPolyline
 90
       15
 70
     0
 43
0.0
 10
415.699493
 20
817.280945
 10
415.73114
 20
817.280945
 10
415.830841
 20
817.280945
 10
416.004028
 20
817.280945
 10
416.253967
 20
817.280945
 10
416.580994
 20
817.280945
 10
416.982391
 20
817.280945
 10
417.452026
 20
817.280945
 10
417.980835
 20
817.280945
 10
418.557312
 20
817.280945
 10
419.168243
 20
817.280945
 10
419.799835
 20
817.280945
 10
420.438477
 20
817.280945
 10
421.071716
 20
817.280945
 10
421.698212
 20
817.280945
  0
LINE
  5
F9
330
7B
100
AcDbEntity
  8
0
  6
Continuous
 62
     0
370
    30
100
AcDbLine
 10
415.69724
 20
829.186046
 30
0.0
 11
415.699486
 21
817.28096
 31
0.0
  0
LINE
  5
FA
330
7B
100
AcDbEntity
  8
0
  6
Continuous
 62
     0
370
    30
100
AcDbLine
 10
415.699486
 20
817.28096
 30
0.0
 11
415.699486
 21
705.28096
 31
0.0
  0
LINE
  5
FB
330
7B
100
AcDbEntity
  8
0
  6
Continuous
 62
     0
370
    30
100
AcDbLine
 10
415.696489
 20
829.28096
 30
0.0
 11
415.696489
 21
877.28096
 31
0.0
  0
ARC
  5
FC
330
7B
100
AcDbEntity
  8
0
  6
Continuous
 62
     0
370
    30
100
AcDbCircle
 10
421.696489
 20
877.28096
 30
0.0
 40
6.000000000000002
100
AcDbArc
 50
89.999999
 51
179.999999
  0
LINE
  5
FD
330
7B
100
AcDbEntity
  8
0
  6
Continuous
 62
     0
370
    30
100
AcDbLine
 10
421.696489
 20
883.28096
 30
0.0
 11
433.696489
 21
883.28096
 31
0.0
  0
ARC
  5
FE
330
7B
100
AcDbEntity
  8
0
  6
Continuous
 62
     0
370
    30
100
AcDbCircle
 10
433.696489
 20
877.28096
 30
0.0
 40
6.000000000000002
100
AcDbArc
 50
0.000001
 51
90.000001
  0
LINE
  5
FF
330
7B
100
AcDbEntity
  8
0
  6
Continuous
 62
     0
370
    30
100
AcDbLine
 10
439.696489
 20
829.28096
 30
0.0
 11
439.696489
 21
877.28096
 31
0.0
  0
LINE
  5
100
330
7B
100
AcDbEntity
  8
0
  6
Continuous
 62
     0
370
    30
100
AcDbLine
 10
267.432673
 20
690.816582
 30
0.0
 11
267.569089
 21
690.816582
 31
0.0
  0
LINE
  5
101
330
7B
100
AcDbEntity
  8
0
  6
Continuous
 62
     0
370
    30
100
AcDbLine
 10
267.569089
 20
690.816582
 30
0.0
 11
267.529282
 21
690.316582
 31
0.0
  0
LINE
  5
102
330
7B
100
AcDbEntity
  8
0
  6
Continuous
 62
     0
370
    30
100
AcDbLine
 10
99.696871
 20
730.89155
 30
0.0
 11
99.696871
 21
738.764939
 31
0.0
  0
LINE
  5
103
330
7B
100
AcDbEntity
  8
0
  6
Continuous
 62
     0
370
    30
100
AcDbLine
 10
281.566844
 20
695.899396
 30
0.0
 11
270.576886
 21
700.057202
 31
0.0
  0
LWPOLYLINE
  5
104
330
7B
100
AcDbEntity
  8
0
  6
Continuous
 62
     0
370
    30
100
AcDbPolyline
 90
       18
 70
     0
 43
0.0
 10
307.924103
 20
691.508728
 10
307.928986
 20
691.50885
 10
307.86087
 20
691.507507
 10
307.720001
 20
691.504761
 10
307.506744
 20
691.501038
 10
307.221924
 20
691.496765
 10
306.866608
 20
691.492554
 10
306.441742
 20
691.489197
 10
305.948853
 20
691.487183
 10
305.389832
 20
691.487183
 10
304.766632
 20
691.489746
 10
304.081299
 20
691.4953
 10
303.336456
 20
691.503662
 10
302.534912
 20
691.514404
 10
301.679565
 20
691.52655
 10
300.773651
 20
691.539368
 10
299.820526
 20
691.55249
 10
298.776276
 20
691.566467
  0
LINE
  5
105
330
7B
100
AcDbEntity
  8
0
  6
Continuous
 62
     0
370
    30
100
AcDbLine
 10
433.695161
 20
705.236583
 30
0.0
 11
421.701195
 21
705.236583
 31
0.0
  0
LINE
  5
106
330
7B
100
AcDbEntity
  8
0
  6
Continuous
 62
     0
370
    30
100
AcDbLine
 10
415.729916
 20
705.28096
 30
0.0
 11
421.698202
 21
705.28096
 31
0.0
  0
LINE
  5
107
330
7B
100
AcDbEntity
  8
0
  6
Continuous
 62
     0
370
    30
100
AcDbLine
 10
415.729821
 20
705.236583
 30
0.0
 11
413.700783
 21
705.236583
 31
0.0
  0
LINE
  5
108
330
7B
100
AcDbEntity
  8
0
  6
Continuous
 62
     0
370
    30
100
AcDbLine
 10
433.698201
 20
705.28096
 30
0.0
 11
439.668852
 21
705.28096
 31
0.0
  0
LINE
  5
109
330
7B
100
AcDbEntity
  8
0
  6
Continuous
 62
     0
370
    30
100
AcDbLine
 10
441.700768
 20
705.236583
 30
0.0
 11
439.668946
 21
705.236583
 31
0.0
  0
LINE
  5
10A
330
7B
100
AcDbEntity
  8
0
  6
Continuous
 62
     0
370
    30
100
AcDbLine
 10
442.700768
 20
617.536583
 30
0.0
 11
442.700768
 21
681.816583
 31
0.0
  0
LINE
  5
10B
330
7B
100
AcDbEntity
  8
0
  6
Continuous
 62
     0
370
    30
100
AcDbLine
 10
412.700783
 20
617.536583
 30
0.0
 11
412.700783
 21
681.816583
 31
0.0
  0
LINE
  5
10C
330
7B
100
AcDbEntity
  8
0
  6
Continuous
 62
     0
370
    30
100
AcDbLine
 10
441.700768
 20
690.116582
 30
0.0
 11
441.700768
 21
705.236583
 31
0.0
  0
LINE
  5
10D
330
7B
100
AcDbEntity
  8
0
  6
Continuous
 62
     0
370
    30
100
AcDbLine
 10
413.700783
 20
690.116582
 30
0.0
 11
413.700783
 21
705.236583
 31
0.0
  0
LINE
  5
10E
330
7B
100
AcDbEntity
  8
0
  6
Continuous
 62
     0
370
    30
100
AcDbLine
 10
392.700775
 20
682.516582
 30
0.0
 11
392.700775
 21
690.116582
 31
0.0
  0
LINE
  5
10F
330
7B
100
AcDbEntity
  8
0
  6
Continuous
 62
     0
370
    30
100
AcDbLine
 10
462.700775
 20
682.516582
 30
0.0
 11
462.700775
 21
690.116582
 31
0.0
  0
LINE
  5
110
330
7B
100
AcDbEntity
  8
0
  6
Continuous
 62
     0
370
    30
100
AcDbLine
 10
267.405399
 20
690.490538
 30
0.0
 11
267.390413
 21
690.816581
 31
0.0
  0
ARC
  5
111
330
7B
100
AcDbEntity
  8
0
  6
Continuous
 62
     0
370
    30
100
AcDbCircle
 10
287.764518
 20
688.960618
 30
0.0
 40
20.45846495271738
100
AcDbArc
 50
147.15313
 51
174.795051
  0
LINE
  5
112
330
7B
100
AcDbEntity
  8
0
  6
Continuous
 62
     0
370
    30
100
AcDbLine
 10
308.050775
 20
690.316582
 30
0.0
 11
307.935836
 21
691.508977
 31
0.0
  0
LINE
  5
113
330
7B
100
AcDbEntity
  8
0
  6
Continuous
 62
     0
370
    30
100
AcDbLine
 10
322.700775
 20
682.316582
 30
0.0
 11
322.700775
 21
690.316582
 31
0.0
  0
LINE
  5
114
330
7B
100
AcDbEntity
  8
0
  6
Continuous
 62
     0
370
    30
100
AcDbLine
 10
252.700775
 20
682.316582
 30
0.0
 11
252.700775
 21
690.316582
 31
0.0
  0
LINE
  5
115
330
7B
100
AcDbEntity
  8
0
  6
Continuous
 62
     0
370
    30
100
AcDbLine
 10
266.950914
 20
701.766138
 30
0.0
 11
270.576885
 21
700.057201
 31
0.0
  0
LINE
  5
116
330
7B
100
AcDbEntity
  8
0
  6
Continuous
 62
     0
370
    30
100
AcDbLine
 10
75.696917
 20
730.891549
 30
0.0
 11
75.696916
 21
738.764968
 31
0.0
  0
LINE
  5
117
330
7B
100
AcDbEntity
  8
0
  6
Continuous
 62
     0
370
    30
100
AcDbLine
 10
202.000777
 20
704.166582
 30
0.0
 11
202.000777
 21
690.316582
 31
0.0
  0
LINE
  5
118
330
7B
100
AcDbEntity
  8
0
  6
Continuous
 62
     0
370
    30
100
AcDbLine
 10
173.400777
 20
704.166582
 30
0.0
 11
173.400777
 21
690.316582
 31
0.0
  0
LINE
  5
119
330
7B
100
AcDbEntity
  8
0
  6
Continuous
 62
     0
370
    30
100
AcDbLine
 10
203.700772
 20
704.166582
 30
0.0
 11
203.700772
 21
727.166582
 31
0.0
  0
LINE
  5
11A
330
7B
100
AcDbEntity
  8
0
  6
Continuous
 62
     0
370
    30
100
AcDbLine
 10
171.700772
 20
704.166582
 30
0.0
 11
171.700772
 21
727.166582
 31
0.0
  0
LINE
  5
11B
330
7B
100
AcDbEntity
  8
0
  6
Continuous
 62
     0
370
    30
100
AcDbLine
 10
222.700775
 20
682.316582
 30
0.0
 11
222.700775
 21
690.316582
 31
0.0
  0
LINE
  5
11C
330
7B
100
AcDbEntity
  8
0
  6
Continuous
 62
     0
370
    30
100
AcDbLine
 10
152.700775
 20
682.316582
 30
0.0
 11
152.700775
 21
690.316582
 31
0.0
  0
LINE
  5
11D
330
7B
100
AcDbEntity
  8
0
  6
Continuous
 62
     0
370
    30
100
AcDbLine
 10
122.700775
 20
690.316582
 30
0.0
 11
122.700775
 21
682.316582
 31
0.0
  0
LWPOLYLINE
  5
11E
330
7B
100
AcDbEntity
  8
0
  6
Continuous
 62
     0
370
    30
100
AcDbPolyline
 90
       55
 70
     0
 43
0.0
 10
75.696869
 20
730.891541
 10
75.749046
 20
730.626587
 10
75.875175
 20
730.404785
 10
76.036324
 20
730.236633
 10
76.223183
 20
730.107544
 10
76.434853
 20
729.996643
 10
76.67244
 20
729.893555
 10
76.938744
 20
729.796814
 10
77.236481
 20
729.705139
 10
77.566513
 20
729.61792
 10
77.928429
 20
729.53479
 10
78.321815
 20
729.455444
 10
78.745888
 20
729.379761
 10
79.199249
 20
729.3078
 10
79.680443
 20
729.239807
 10
80.187996
 20
729.175964
 10
80.720444
 20
729.116455
 10
81.276329
 20
729.061584
 10
81.854172
 20
729.011353
 10
82.452171
 20
728.966064
 10
83.068123
 20
728.925781
 10
83.699783
 20
728.890564
 10
84.344917
 20
728.860535
 10
85.001289
 20
728.835693
 10
85.666664
 20
728.816284
 10
86.338791
 20
728.802307
 10
87.01545
 20
728.793884
 10
87.694397
 20
728.791077
 10
88.373375
 20
728.793945
 10
89.05014
 20
728.802368
 10
89.72242
 20
728.816345
 10
90.387962
 20
728.835693
 10
91.044502
 20
728.860413
 10
91.689781
 20
728.890381
 10
92.321533
 20
728.925476
 10
92.937508
 20
728.965759
 10
93.535439
 20
729.010986
 10
94.113327
 20
729.061096
 10
94.669525
 20
729.115967
 10
95.202446
 20
729.175415
 10
95.710472
 20
729.239136
 10
96.192017
 20
729.307129
 10
96.645462
 20
729.379089
 10
97.069313
 20
729.454895
 10
97.462639
 20
729.534485
 10
97.824692
 20
729.617798
 10
98.154755
 20
729.704712
 10
98.452835
 20
729.795715
 10
98.720207
 20
729.89209
 10
98.958275
 20
729.995117
 10
99.168724
 20
730.107605
 10
99.35466
 20
730.239258
 10
99.518158
 20
730.403198
 10
99.644119
 20
730.621277
 10
99.696869
 20
730.891541
  0
LWPOLYLINE
  5
11F
330
7B
100
AcDbEntity
  8
0
  6
Continuous
 62
     0
370
    30
100
AcDbPolyline
 90
       30
 70
     0
 43
0.0
 10
112.696877
 20
759.224487
 10
112.655144
 20
759.523987
 10
112.546165
 20
759.792847
 10
112.394569
 20
760.005676
 10
112.22583
 20
760.167053
 10
112.055252
 20
760.288635
 10
111.883858
 20
760.384277
 10
111.709145
 20
760.464294
 10
111.526131
 20
760.53479
 10
111.331902
 20
760.598999
 10
111.125038
 20
760.658203
 10
110.904167
 20
760.713501
 10
110.66803
 20
760.765991
 10
110.416435
 20
760.81604
 10
110.149666
 20
760.863708
 10
109.868027
 20
760.908875
 10
109.571808
 20
760.951599
 10
109.261398
 20
760.991821
 10
108.93763
 20
761.029541
 10
108.601456
 20
761.064697
 10
108.25386
 20
761.097107
 10
107.895805
 20
761.126831
 10
107.528259
 20
761.153748
 10
107.152184
 20
761.177734
 10
106.768555
 20
761.198853
 10
106.378349
 20
761.216919
 10
105.982803
 20
761.231934
 10
105.583405
 20
761.243896
 10
105.181656
 20
761.252686
 10
104.767807
 20
761.258484
  0
LINE
  5
120
330
7B
100
AcDbEntity
  8
0
  6
Continuous
 62
     0
370
    30
100
AcDbLine
 10
104.767817
 20
761.258574
 30
0.0
 11
87.696875
 21
761.426833
 31
0.0
  0
LWPOLYLINE
  5
121
330
7B
100
AcDbEntity
  8
0
  6
Continuous
 62
     0
370
    30
100
AcDbPolyline
 90
       30
 70
     0
 43
0.0
 10
62.696873
 20
759.224487
 10
62.738602
 20
759.523987
 10
62.84758
 20
759.792847
 10
62.999176
 20
760.005676
 10
63.167919
 20
760.167053
 10
63.338497
 20
760.288635
 10
63.509892
 20
760.384277
 10
63.684605
 20
760.464294
 10
63.867615
 20
760.53479
 10
64.061844
 20
760.598999
 10
64.268707
 20
760.658203
 10
64.489586
 20
760.713501
 10
64.725716
 20
760.765991
 10
64.977318
 20
760.81604
 10
65.24408
 20
760.863708
 10
65.525719
 20
760.908875
 10
65.821938
 20
760.951599
 10
66.132347
 20
760.991821
 10
66.456123
 20
761.029541
 10
66.79229
 20
761.064697
 10
67.139893
 20
761.097107
 10
67.497948
 20
761.126831
 10
67.865494
 20
761.153748
 10
68.24157
 20
761.177734
 10
68.625198
 20
761.198853
 10
69.015404
 20
761.216919
 10
69.41095
 20
761.231934
 10
69.810349
 20
761.243896
 10
70.212097
 20
761.252686
 10
70.625938
 20
761.258484
  0
LINE
  5
122
330
7B
100
AcDbEntity
  8
0
  6
Continuous
 62
     0
370
    30
100
AcDbLine
 10
87.69936
 20
761.426858
 30
0.0
 11
70.625934
 21
761.258574
 31
0.0
  0
ENDBLK
  5
124
330
7B
100
AcDbEntity
  8
0
100
AcDbBlockEnd
  0
BLOCK
  5
18B
330
126
100
AcDbEntity
  8
0
100
AcDbBlockBegin
  2
b
 70
     0
 10
18.046059
 20
105.780983
 30
0.0
  3
b
  1

  0
LINE
  5
127
330
126
100
AcDbEntity
  8
0
  6
Continuous
 62
     0
370
     0
100
AcDbLine
 10
70.627063
 20
91.135632
 30
0.0
 11
87.696876
 21
91.008853
 31
0.0
  0
LINE
  5
128
330
126
100
AcDbEntity
  8
0
  6
Continuous
 62
     0
370
     0
100
AcDbLine
 10
87.696876
 20
91.008853
 30
0.0
 11
87.696875
 21
92.138251
 31
0.0
  0
LINE
  5
129
330
126
100
AcDbEntity
  8
0
  6
Continuous
 62
     0
370
     0
100
AcDbLine
 10
87.696875
 20
92.138251
 30
0.0
 11
70.627063
 21
92.26503
 31
0.0
  0
LINE
  5
12A
330
126
100
AcDbEntity
  8
0
  6
Continuous
 62
     0
370
     0
100
AcDbLine
 10
70.636823
 20
92.264957
 30
0.0
 11
70.628435
 21
91.135622
 31
0.0
  0
LINE
  5
12B
330
126
100
AcDbEntity
  8
0
  6
Continuous
 62
     0
370
     0
100
AcDbLine
 10
70.626988
 20
338.969925
 30
0.0
 11
70.6345
 21
338.109196
 31
0.0
  0
LINE
  5
12C
330
126
100
AcDbEntity
  8
0
  6
Continuous
 62
     0
370
     0
100
AcDbLine
 10
70.626988
 20
338.10913
 30
0.0
 11
87.696801
 21
338.258102
 31
0.0
  0
LINE
  5
12D
330
126
100
AcDbEntity
  8
0
  6
Continuous
 62
     0
370
     0
100
AcDbLine
 10
87.696801
 20
338.258102
 30
0.0
 11
87.6968
 21
339.118896
 31
0.0
  0
LINE
  5
12E
330
126
100
AcDbEntity
  8
0
  6
Continuous
 62
     0
370
    30
100
AcDbLine
 10
87.6968
 20
339.118896
 30
0.0
 11
70.626988
 21
338.969925
 31
0.0
  0
ARC
  5
12F
330
126
100
AcDbEntity
  8
0
  6
Continuous
 62
     0
370
     0
100
AcDbCircle
 10
70.688076
 20
331.109397
 30
0.0
 40
7.000000018691925
100
AcDbArc
 50
90.500018
 51
180.000018
  0
LINE
  5
130
330
126
100
AcDbEntity
  8
0
  6
Continuous
 62
     0
370
     0
100
AcDbLine
 10
87.696801
 20
338.258102
 30
0.0
 11
87.696875
 21
92.138251
 31
0.0
  0
ARC
  5
131
330
126
100
AcDbEntity
  8
0
  6
Continuous
 62
     0
370
     0
100
AcDbCircle
 10
70.643315
 20
99.220253
 30
0.0
 40
6.955242387425342
100
AcDbArc
 50
180.263944
 51
269.866118
  0
LINE
  5
132
330
126
100
AcDbEntity
  8
0
  6
Continuous
 62
     0
370
     0
100
AcDbLine
 10
63.688147
 20
99.188213
 30
0.0
 11
63.688076
 21
331.109395
 31
0.0
  0
ARC
  5
133
330
126
100
AcDbEntity
  8
0
  6
Continuous
 62
     0
370
    30
100
AcDbCircle
 10
70.692016
 20
330.974974
 30
0.0
 40
7.995215033098675
100
AcDbArc
 50
90.466015
 51
180.03402
  0
ELLIPSE
  5
134
330
126
100
AcDbEntity
  8
0
  6
Continuous
 62
     0
370
     0
100
AcDbEllipse
 10
63.696803
 20
330.970227
 30
0.0
 11
0.9999999999999278
 21
3.038593938989738E-7
 31
0.0
210
0.0
220
0.0
230
1.0
 40
0.139173
 41
1.579522973054844
 42
3.141592653589822
  0
LINE
  5
135
330
126
100
AcDbEntity
  8
0
  6
Continuous
 62
     0
370
    30
100
AcDbLine
 10
62.696803
 20
330.970227
 30
0.0
 11
62.696873
 21
99.049045
 31
0.0
  0
ELLIPSE
  5
136
330
126
100
AcDbEntity
  8
0
  6
Continuous
 62
     0
370
     0
100
AcDbEllipse
 10
63.696873
 20
99.049045
 30
0.0
 11
-0.9999999999999278
 21
-3.038593938989738E-7
 31
0.0
210
0.0
220
0.0
230
-1.0
 40
0.139173
 41
0.0000000000263396
 42
1.562069680534862
  0
ARC
  5
137
330
126
100
AcDbEntity
  8
0
  6
Continuous
 62
     0
370
     0
100
AcDbCircle
 10
70.647099
 20
99.085918
 30
0.0
 40
7.950310961309703
100
AcDbArc
 50
180.265733
 51
269.855611
  0
LINE
  5
138
330
126
100
AcDbEntity
  8
0
  6
Continuous
 62
     0
370
     0
100
AcDbLine
 10
87.696876
 20
88.373413
 30
0.0
 11
70.627064
 21
88.541657
 31
0.0
  0
LINE
  5
139
330
126
100
AcDbEntity
  8
0
  6
Continuous
 62
     0
370
     0
100
AcDbLine
 10
70.627064
 20
88.541657
 30
0.0
 11
70.627063
 21
91.135632
 31
0.0
  0
LINE
  5
13A
330
126
100
AcDbEntity
  8
0
  6
Continuous
 62
     0
370
     0
100
AcDbLine
 10
87.696876
 20
91.008853
 30
0.0
 11
87.696876
 21
88.373413
 31
0.0
  0
LINE
  5
13B
330
126
100
AcDbEntity
  8
0
  6
Continuous
 62
     0
370
    30
100
AcDbLine
 10
62.696873
 20
99.049045
 30
0.0
 11
62.696874
 21
96.471925
 31
0.0
  0
ARC
  5
13C
330
126
100
AcDbEntity
  8
0
  6
Continuous
 62
     0
370
     0
100
AcDbCircle
 10
70.6651
 20
96.509882
 30
0.0
 40
7.968316602949763
100
AcDbArc
 50
180.272934
 51
269.726503
  0
LINE
  5
13D
330
126
100
AcDbEntity
  8
0
  6
Continuous
 62
     0
370
     0
100
AcDbLine
 10
104.765316
 20
91.135632
 30
0.0
 11
104.756928
 21
92.264968
 31
0.0
  0
LINE
  5
13E
330
126
100
AcDbEntity
  8
0
  6
Continuous
 62
     0
370
     0
100
AcDbLine
 10
104.766688
 20
92.26504
 30
0.0
 11
87.696875
 21
92.138251
 31
0.0
  0
LINE
  5
13F
330
126
100
AcDbEntity
  8
0
  6
Continuous
 62
     0
370
     0
100
AcDbLine
 10
87.696876
 20
91.008853
 30
0.0
 11
104.766688
 21
91.135642
 31
0.0
  0
LINE
  5
140
330
126
100
AcDbEntity
  8
0
  6
Continuous
 62
     0
370
    30
100
AcDbLine
 10
104.766613
 20
338.969935
 30
0.0
 11
87.6968
 21
339.118896
 31
0.0
  0
LINE
  5
141
330
126
100
AcDbEntity
  8
0
  6
Continuous
 62
     0
370
     0
100
AcDbLine
 10
87.696801
 20
338.258102
 30
0.0
 11
104.766613
 21
338.109141
 31
0.0
  0
LINE
  5
142
330
126
100
AcDbEntity
  8
0
  6
Continuous
 62
     0
370
     0
100
AcDbLine
 10
104.759101
 20
338.109206
 30
0.0
 11
104.766613
 21
338.969935
 31
0.0
  0
ARC
  5
143
330
126
100
AcDbEntity
  8
0
  6
Continuous
 62
     0
370
     0
100
AcDbCircle
 10
104.705529
 20
331.109407
 30
0.0
 40
7.000000018692886
100
AcDbArc
 50
0.000017
 51
89.500017
  0
ARC
  5
144
330
126
100
AcDbEntity
  8
0
  6
Continuous
 62
     0
370
     0
100
AcDbCircle
 10
104.750431
 20
99.220264
 30
0.0
 40
6.955242387426815
100
AcDbArc
 50
270.133917
 51
359.736091
  0
LINE
  5
145
330
126
100
AcDbEntity
  8
0
  6
Continuous
 62
     0
370
     0
100
AcDbLine
 10
111.7056
 20
99.188227
 30
0.0
 11
111.705529
 21
331.109409
 31
0.0
  0
ARC
  5
146
330
126
100
AcDbEntity
  8
0
  6
Continuous
 62
     0
370
    30
100
AcDbCircle
 10
104.701589
 20
330.974984
 30
0.0
 40
7.995215033099009
100
AcDbArc
 50
359.966015
 51
89.53402
  0
ELLIPSE
  5
147
330
126
100
AcDbEntity
  8
0
  6
Continuous
 62
     0
370
     0
100
AcDbEllipse
 10
111.696873
 20
99.04906
 30
0.0
 11
-0.9999999999999278
 21
-3.038593918388905E-7
 31
0.0
210
0.0
220
0.0
230
-1.0
 40
0.139173
 41
1.579522973054941
 42
3.14159265356343
  0
LINE
  5
148
330
126
100
AcDbEntity
  8
0
  6
Continuous
 62
     0
370
    30
100
AcDbLine
 10
112.696873
 20
99.04906
 30
0.0
 11
112.696803
 21
330.970242
 31
0.0
  0
ELLIPSE
  5
149
330
126
100
AcDbEntity
  8
0
  6
Continuous
 62
     0
370
     0
100
AcDbEllipse
 10
111.696803
 20
330.970242
 30
0.0
 11
0.9999999999999278
 21
3.038593918388905E-7
 31
0.0
210
0.0
220
0.0
230
1.0
 40
0.139173
 41
0.0000000000000195
 42
1.56206968053491
  0
ARC
  5
14A
330
126
100
AcDbEntity
  8
0
  6
Continuous
 62
     0
370
     0
100
AcDbCircle
 10
104.746648
 20
99.085928
 30
0.0
 40
7.950310961310919
100
AcDbArc
 50
270.144424
 51
359.734301
  0
LINE
  5
14B
330
126
100
AcDbEntity
  8
0
  6
Continuous
 62
     0
370
     0
100
AcDbLine
 10
104.766689
 20
88.541667
 30
0.0
 11
87.696876
 21
88.373413
 31
0.0
  0
LINE
  5
14C
330
126
100
AcDbEntity
  8
0
  6
Continuous
 62
     0
370
     0
100
AcDbLine
 10
104.766689
 20
88.541667
 30
0.0
 11
104.766688
 21
91.135642
 31
0.0
  0
ARC
  5
14D
330
126
100
AcDbEntity
  8
0
  6
Continuous
 62
     0
370
     0
100
AcDbCircle
 10
104.728648
 20
96.509893
 30
0.0
 40
7.968316602949579
100
AcDbArc
 50
270.273532
 51
359.727101
  0
LINE
  5
14E
330
126
100
AcDbEntity
  8
0
  6
Continuous
 62
     0
370
    30
100
AcDbLine
 10
112.696874
 20
96.47194
 30
0.0
 11
112.696873
 21
99.04906
 31
0.0
  0
ARC
  5
14F
330
126
100
AcDbEntity
  8
0
  6
Continuous
 62
     0
370
    30
100
AcDbCircle
 10
87.700775
 20
314.318897
 30
0.0
 40
35.0
100
AcDbArc
 50
359.987734
 51
179.987734
  0
ARC
  5
150
330
126
100
AcDbEntity
  8
0
  6
Continuous
 62
     0
370
    30
100
AcDbCircle
 10
87.700775
 20
314.318897
 30
0.0
 40
35.0
100
AcDbArc
 50
179.987734
 51
224.406045
  0
ARC
  5
151
330
126
100
AcDbEntity
  8
0
  6
Continuous
 62
     0
370
    30
100
AcDbCircle
 10
87.700775
 20
314.318897
 30
0.0
 40
35.0
100
AcDbArc
 50
315.57543
 51
359.987734
  0
ARC
  5
152
330
126
100
AcDbEntity
  8
0
  6
Continuous
 62
     0
370
    30
100
AcDbCircle
 10
187.700775
 20
314.318897
 30
0.0
 40
35.0
100
AcDbArc
 50
132.920633
 51
312.920633
  0
ARC
  5
153
330
126
100
AcDbEntity
  8
0
  6
Continuous
 62
     0
370
    30
100
AcDbCircle
 10
187.700775
 20
314.318897
 30
0.0
 40
35.0
100
AcDbArc
 50
312.920633
 51
132.920633
  0
ARC
  5
154
330
126
100
AcDbEntity
  8
0
  6
Continuous
 62
     0
370
    30
100
AcDbCircle
 10
187.700772
 20
314.318895
 30
0.0
 40
16.0
100
AcDbArc
 50
163.404579
 51
343.404579
  0
ARC
  5
155
330
126
100
AcDbEntity
  8
0
  6
Continuous
 62
     0
370
    30
100
AcDbCircle
 10
187.700772
 20
314.318895
 30
0.0
 40
16.0
100
AcDbArc
 50
343.404579
 51
163.404579
  0
ARC
  5
156
330
126
100
AcDbEntity
  8
0
  6
Continuous
 62
     0
370
     0
100
AcDbCircle
 10
360.088624
 20
299.27502
 30
0.0
 40
6.956245675018666
100
AcDbArc
 50
270.368166
 51
0.361589
  0
LINE
  5
157
330
126
100
AcDbEntity
  8
0
  6
Continuous
 62
     0
370
     0
100
AcDbLine
 10
367.044722
 20
329.31892
 30
0.0
 11
367.044731
 21
299.31892
 31
0.0
  0
ARC
  5
158
330
126
100
AcDbEntity
  8
0
  6
Continuous
 62
     0
370
     0
100
AcDbCircle
 10
360.088614
 20
329.362816
 30
0.0
 40
6.956245794120672
100
AcDbArc
 50
359.638446
 51
89.631868
  0
LINE
  5
159
330
126
100
AcDbEntity
  8
0
  6
Continuous
 62
     0
370
     0
100
AcDbLine
 10
359.611863
 20
335.318918
 30
0.0
 11
273.794327
 21
335.318892
 31
0.0
  0
ARC
  5
15A
330
126
100
AcDbEntity
  8
0
  6
Continuous
 62
     0
370
     0
100
AcDbCircle
 10
273.794426
 20
329.318795
 30
0.0
 40
6.000096893215881
100
AcDbArc
 50
90.000945
 51
179.999092
  0
LINE
  5
15B
330
126
100
AcDbEntity
  8
0
  6
Continuous
 62
     0
370
     0
100
AcDbLine
 10
267.794329
 20
329.31889
 30
0.0
 11
267.794338
 21
299.31889
 31
0.0
  0
ARC
  5
15C
330
126
100
AcDbEntity
  8
0
  6
Continuous
 62
     0
370
     0
100
AcDbCircle
 10
273.794435
 20
299.318989
 30
0.0
 40
6.00009699350303
100
AcDbArc
 50
180.000943
 51
269.999089
  0
LINE
  5
15D
330
126
100
AcDbEntity
  8
0
  6
Continuous
 62
     0
370
     0
100
AcDbLine
 10
273.79434
 20
293.318892
 30
0.0
 11
359.611875
 21
293.318918
 31
0.0
  0
ARC
  5
15E
330
126
100
AcDbEntity
  8
0
  6
Continuous
 62
     0
370
     0
100
AcDbCircle
 10
359.575656
 20
299.283325
 30
0.0
 40
5.964517786481059
100
AcDbArc
 50
270.347927
 51
0.341921
  0
LINE
  5
15F
330
126
100
AcDbEntity
  8
0
  6
Continuous
 62
     0
370
     0
100
AcDbLine
 10
365.540068
 20
299.318919
 30
0.0
 11
365.540059
 21
329.318919
 31
0.0
  0
ARC
  5
160
330
126
100
AcDbEntity
  8
0
  6
Continuous
 62
     0
370
     0
100
AcDbCircle
 10
359.575647
 20
329.35451
 30
0.0
 40
5.964517886170601
100
AcDbArc
 50
359.658114
 51
89.652107
  0
ARC
  5
161
330
126
100
AcDbEntity
  8
0
  6
Continuous
 62
     0
370
    30
100
AcDbCircle
 10
273.946447
 20
329.323209
 30
0.0
 40
6.9956844382312
100
AcDbArc
 50
89.964663
 51
180.035373
  0
LINE
  5
162
330
126
100
AcDbEntity
  8
0
  6
Continuous
 62
     0
370
    30
100
AcDbLine
 10
266.950773
 20
299.31889
 30
0.0
 11
266.950764
 21
329.31889
 31
0.0
  0
ARC
  5
163
330
126
100
AcDbEntity
  8
0
  6
Continuous
 62
     0
370
    30
100
AcDbCircle
 10
273.946456
 20
299.314575
 30
0.0
 40
6.995684538416184
100
AcDbArc
 50
179.964662
 51
270.035371
  0
LINE
  5
164
330
126
100
AcDbEntity
  8
0
  6
Continuous
 62
     0
370
    30
100
AcDbLine
 10
359.76831
 20
292.318918
 30
0.0
 11
273.950775
 21
292.318892
 31
0.0
  0
LINE
  5
165
330
126
100
AcDbEntity
  8
0
  6
Continuous
 62
     0
370
     0
100
AcDbLine
 10
367.044731
 20
299.31892
 30
0.0
 11
366.679719
 21
299.31892
 31
0.0
  0
ARC
  5
166
330
126
100
AcDbEntity
  8
0
  6
Continuous
 62
     0
370
     0
100
AcDbCircle
 10
359.725912
 20
299.272748
 30
0.0
 40
6.953959659459509
100
AcDbArc
 50
270.34933
 51
0.380425
  0
LINE
  5
167
330
126
100
AcDbEntity
  8
0
  6
Continuous
 62
     0
370
     0
100
AcDbLine
 10
367.044722
 20
329.31892
 30
0.0
 11
366.67971
 21
329.31892
 31
0.0
  0
LINE
  5
168
330
126
100
AcDbEntity
  8
0
  6
Continuous
 62
     0
370
     0
100
AcDbLine
 10
366.67971
 20
329.31892
 30
0.0
 11
366.679719
 21
299.31892
 31
0.0
  0
ARC
  5
169
330
126
100
AcDbEntity
  8
0
  6
Continuous
 62
     0
370
     0
100
AcDbCircle
 10
359.725903
 20
329.365087
 30
0.0
 40
6.953959778499636
100
AcDbArc
 50
359.61961
 51
89.650704
  0
LINE
  5
16A
330
126
100
AcDbEntity
  8
0
  6
Continuous
 62
     0
370
    30
100
AcDbLine
 10
359.768297
 20
336.318918
 30
0.0
 11
273.950761
 21
336.318892
 31
0.0
  0
ELLIPSE
  5
16B
330
126
100
AcDbEntity
  8
0
  6
Continuous
 62
     0
370
     0
100
AcDbEllipse
 10
359.768297
 20
335.318918
 30
0.0
 11
2.969361906230808E-7
 21
-0.9999999999999608
 31
0.0
210
0.0
220
0.0
230
-1.0
 40
0.156434
 41
1.570796282538651
 42
3.141592609333536
  0
ELLIPSE
  5
16C
330
126
100
AcDbEntity
  8
0
  6
Continuous
 62
     0
370
     0
100
AcDbEllipse
 10
273.950761
 20
335.318892
 30
0.0
 11
-2.969361906230808E-7
 21
0.9999999999999608
 31
0.0
210
0.0
220
0.0
230
1.0
 40
0.156434
 41
0.0000000442565522
 42
1.57079637105117
  0
LINE
  5
16D
330
126
100
AcDbEntity
  8
0
  6
Continuous
 62
     0
370
     0
100
AcDbLine
 10
365.540059
 20
329.318919
 30
0.0
 11
366.67971
 21
329.31892
 31
0.0
  0
LINE
  5
16E
330
126
100
AcDbEntity
  8
0
  6
Continuous
 62
     0
370
     0
100
AcDbLine
 10
365.540068
 20
299.318919
 30
0.0
 11
366.679719
 21
299.31892
 31
0.0
  0
LINE
  5
16F
330
126
100
AcDbEntity
  8
0
  6
Continuous
 62
     0
370
     0
100
AcDbLine
 10
359.76831
 20
292.318918
 30
0.0
 11
359.611875
 21
293.318918
 31
0.0
  0
ELLIPSE
  5
170
330
126
100
AcDbEntity
  8
0
  6
Continuous
 62
     0
370
     0
100
AcDbEllipse
 10
273.950774
 20
293.318892
 30
0.0
 11
-2.969361905949763E-7
 21
0.999999999999951
 31
0.0
210
0.0
220
0.0
230
1.0
 40
0.156434
 41
1.570796371051202
 42
3.141592697846891
  0
LWPOLYLINE
  5
171
330
126
100
AcDbEntity
  8
0
  6
Continuous
 62
     0
370
     0
100
AcDbPolyline
 90
        7
 70
     0
 43
0.0
 10
266.950775
 20
299.318878
 10
266.976288
 20
299.318878
 10
267.051453
 20
299.318878
 10
267.172424
 20
299.318878
 10
267.333008
 20
299.318878
 10
267.52533
 20
299.318878
 10
267.794342
 20
299.318878
  0
LINE
  5
172
330
126
100
AcDbEntity
  8
0
  6
Continuous
 62
     0
370
     0
100
AcDbLine
 10
267.794329
 20
329.31889
 30
0.0
 11
266.950764
 21
329.31889
 31
0.0
  0
ARC
  5
173
330
126
100
AcDbEntity
  8
0
  6
Continuous
 62
     0
370
    30
100
AcDbCircle
 10
287.700775
 20
314.318897
 30
0.0
 40
35.0
100
AcDbArc
 50
179.05502
 51
321.055215
  0
ARC
  5
174
330
126
100
AcDbEntity
  8
0
  6
Continuous
 62
     0
370
    30
100
AcDbCircle
 10
287.700775
 20
314.318897
 30
0.0
 40
35.0
100
AcDbArc
 50
38.944822
 51
179.05502
  0
ARC
  5
175
330
126
100
AcDbEntity
  8
0
  6
Continuous
 62
     0
370
    30
100
AcDbCircle
 10
427.700775
 20
314.318897
 30
0.0
 40
35.0
100
AcDbArc
 50
345.097316
 51
165.097316
  0
ARC
  5
176
330
126
100
AcDbEntity
  8
0
  6
Continuous
 62
     0
370
    30
100
AcDbCircle
 10
427.700775
 20
314.318897
 30
0.0
 40
35.0
100
AcDbArc
 50
165.097316
 51
345.097316
  0
LINE
  5
177
330
126
100
AcDbEntity
  8
0
  6
Continuous
 62
     0
370
    30
100
AcDbLine
 10
415.696489
 20
293.664561
 30
0.0
 11
415.702055
 21
319.664561
 31
0.0
  0
ARC
  5
178
330
126
100
AcDbEntity
  8
0
  6
Continuous
 62
     0
370
    30
100
AcDbCircle
 10
421.702055
 20
319.663276
 30
0.0
 40
6.000000000000002
100
AcDbArc
 50
89.987734
 51
179.987734
  0
LINE
  5
179
330
126
100
AcDbEntity
  8
0
  6
Continuous
 62
     0
370
    30
100
AcDbLine
 10
415.696489
 20
293.664561
 30
0.0
 11
421.696489
 21
293.663277
 31
0.0
  0
LINE
  5
17A
330
126
100
AcDbEntity
  8
0
  6
Continuous
 62
     0
370
     0
100
AcDbLine
 10
421.696489
 20
293.663276
 30
0.0
 11
421.702055
 21
319.663276
 31
0.0
  0
LINE
  5
17B
330
126
100
AcDbEntity
  8
0
  6
Continuous
 62
     0
370
     0
100
AcDbLine
 10
421.702055
 20
319.663276
 30
0.0
 11
415.702055
 21
319.664561
 31
0.0
  0
LINE
  5
17C
330
126
100
AcDbEntity
  8
0
  6
Continuous
 62
     0
370
     0
100
AcDbLine
 10
421.702055
 20
319.663275
 30
0.0
 11
421.70334
 21
325.663276
 31
0.0
  0
LINE
  5
17D
330
126
100
AcDbEntity
  8
0
  6
Continuous
 62
     0
370
    30
100
AcDbLine
 10
421.70334
 20
325.663276
 30
0.0
 11
433.703339
 21
325.660707
 31
0.0
  0
LINE
  5
17E
330
126
100
AcDbEntity
  8
0
  6
Continuous
 62
     0
370
     0
100
AcDbLine
 10
421.702055
 20
319.663276
 30
0.0
 11
433.702055
 21
319.660707
 31
0.0
  0
LINE
  5
17F
330
126
100
AcDbEntity
  8
0
  6
Continuous
 62
     0
370
     0
100
AcDbLine
 10
433.702055
 20
319.660707
 30
0.0
 11
433.703339
 21
325.660707
 31
0.0
  0
LINE
  5
180
330
126
100
AcDbEntity
  8
0
  6
Continuous
 62
     0
370
    30
100
AcDbLine
 10
421.696489
 20
293.663276
 30
0.0
 11
433.696489
 21
293.660707
 31
0.0
  0
LINE
  5
181
330
126
100
AcDbEntity
  8
0
  6
Continuous
 62
     0
370
     0
100
AcDbLine
 10
433.696489
 20
293.660707
 30
0.0
 11
433.702055
 21
319.660707
 31
0.0
  0
LINE
  5
182
330
126
100
AcDbEntity
  8
0
  6
Continuous
 62
     0
370
    30
100
AcDbLine
 10
433.696489
 20
293.660708
 30
0.0
 11
439.696489
 21
293.659423
 31
0.0
  0
LINE
  5
183
330
126
100
AcDbEntity
  8
0
  6
Continuous
 62
     0
370
    30
100
AcDbLine
 10
439.696489
 20
293.659423
 30
0.0
 11
439.702055
 21
319.659423
 31
0.0
  0
LINE
  5
184
330
126
100
AcDbEntity
  8
0
  6
Continuous
 62
     0
370
     0
100
AcDbLine
 10
439.702055
 20
319.659423
 30
0.0
 11
433.702055
 21
319.660707
 31
0.0
  0
ARC
  5
185
330
126
100
AcDbEntity
  8
0
  6
Continuous
 62
     0
370
    30
100
AcDbCircle
 10
433.702055
 20
319.660707
 30
0.0
 40
6.000000000000002
100
AcDbArc
 50
359.987734
 51
89.987734
  0
ARC
  5
186
330
126
100
AcDbEntity
  8
0
  6
Continuous
 62
     0
370
    30
100
AcDbCircle
 10
427.700775
 20
314.318896
 30
0.0
 40
13.9999923706053
100
AcDbArc
 50
138.301476
 51
211.232687
  0
ARC
  5
187
330
126
100
AcDbEntity
  8
0
  6
Continuous
 62
     0
370
    30
100
AcDbCircle
 10
427.700775
 20
314.318896
 30
0.0
 40
13.9999923706053
100
AcDbArc
 50
49.073926
 51
138.301476
  0
ARC
  5
188
330
126
100
AcDbEntity
  8
0
  6
Continuous
 62
     0
370
    30
100
AcDbCircle
 10
427.700775
 20
314.318896
 30
0.0
 40
13.9999923706053
100
AcDbArc
 50
328.745357
 51
41.672702
  0
LINE
  5
189
330
126
100
AcDbEntity
  8
0
  6
Continuous
 62
     0
370
    30
100
AcDbLine
 10
112.696874
 20
96.471935
 30
0.0
 11
112.687258
 21
96.083869
 31
0.0
  0
LINE
  5
18A
330
126
100
AcDbEntity
  8
0
  6
Continuous
 62
     0
370
    30
100
AcDbLine
 10
62.696874
 20
96.47192
 30
0.0
 11
62.706491
 21
96.083854
 31
0.0
  0
ENDBLK
  5
18C
330
126
100
AcDbEntity
  8
0
100
AcDbBlockEnd
  0
BLOCK
  5
1E6
330
18E
100
AcDbEntity
  8
0
100
AcDbBlockBegin
  2
c
 70
     0
 10
18.046059
 20
105.780983
 30
0.0
  3
c
  1

  0
ARC
  5
18F
330
18E
100
AcDbEntity
  8
0
  6
Continuous
 62
     0
370
     0
100
AcDbCircle
 10
834.093745
 20
760.292791
 30
0.0
 40
1.124957161179476
100
AcDbArc
 50
14.057559
 51
91.942441
  0
LINE
  5
190
330
18E
100
AcDbEntity
  8
0
  6
Continuous
 62
     0
370
     0
100
AcDbLine
 10
834.055614
 20
761.417101
 30
0.0
 11
833.928835
 21
761.248853
 31
0.0
  0
ARC
  5
191
330
18E
100
AcDbEntity
  8
0
  6
Continuous
 62
     0
370
     0
100
AcDbCircle
 10
834.068003
 20
760.258623
 30
0.0
 40
0.999999999999949
100
AcDbArc
 50
8.002181
 51
97.997818
  0
ARC
  5
192
330
18E
100
AcDbEntity
  8
0
  6
Continuous
 62
     0
370
     0
100
AcDbCircle
 10
588.223904
 20
725.707488
 30
0.0
 40
1.000000000000062
100
AcDbArc
 50
98.001896
 51
179.998103
  0
ARC
  5
193
330
18E
100
AcDbEntity
  8
0
  6
Continuous
 62
     0
370
     0
100
AcDbCircle
 10
588.178842
 20
725.746654
 30
0.0
 40
1.107561186208837
100
AcDbArc
 50
102.677965
 51
175.322035
  0
LINE
  5
194
330
18E
100
AcDbEntity
  8
0
  6
Continuous
 62
     0
370
     0
100
AcDbLine
 10
595.084472
 20
727.620316
 30
0.0
 11
588.084736
 21
726.697718
 31
0.0
  0
LINE
  5
195
330
18E
100
AcDbEntity
  8
0
  6
Continuous
 62
     0
370
     0
100
AcDbLine
 10
587.935764
 20
726.827212
 30
0.0
 11
834.055614
 21
761.417101
 31
0.0
  0
LINE
  5
196
330
18E
100
AcDbEntity
  8
0
  6
Continuous
 62
     0
370
     0
100
AcDbLine
 10
833.928835
 20
761.248853
 30
0.0
 11
827.005653
 21
760.214713
 31
0.0
  0
LINE
  5
197
330
18E
100
AcDbEntity
  8
0
  6
Continuous
 62
     0
370
     0
100
AcDbLine
 10
827.005653
 20
760.214713
 30
0.0
 11
595.084472
 21
727.620316
 31
0.0
  0
LINE
  5
198
330
18E
100
AcDbEntity
  8
0
  6
Continuous
 62
     0
370
     0
100
AcDbLine
 10
587.07497
 20
725.836982
 30
0.0
 11
587.07497
 21
690.316582
 31
0.0
  0
LINE
  5
199
330
18E
100
AcDbEntity
  8
0
  6
Continuous
 62
     0
370
     0
100
AcDbLine
 10
587.223942
 20
690.316582
 30
0.0
 11
587.223942
 21
725.707488
 31
0.0
  0
LINE
  5
19A
330
18E
100
AcDbEntity
  8
0
  6
Continuous
 62
     0
370
     0
100
AcDbLine
 10
595.22364
 20
726.630086
 30
0.0
 11
587.223942
 21
725.707488
 31
0.0
  0
LINE
  5
19B
330
18E
100
AcDbEntity
  8
0
  6
Continuous
 62
     0
370
     0
100
AcDbLine
 10
595.22364
 20
690.316582
 30
0.0
 11
595.22364
 21
726.630086
 31
0.0
  0
LINE
  5
19C
330
18E
100
AcDbEntity
  8
0
  6
Continuous
 62
     0
370
     0
100
AcDbLine
 10
595.084467
 20
727.620354
 30
0.0
 11
595.22364
 21
726.630086
 31
0.0
  0
LINE
  5
19D
330
18E
100
AcDbEntity
  8
0
  6
Continuous
 62
     0
370
     0
100
AcDbLine
 10
595.22364
 20
726.630086
 30
0.0
 11
827.144821
 21
759.224482
 31
0.0
  0
LINE
  5
19E
330
18E
100
AcDbEntity
  8
0
  6
Continuous
 62
     0
370
     0
100
AcDbLine
 10
827.144821
 20
759.224482
 30
0.0
 11
827.005647
 21
760.21475
 31
0.0
  0
LINE
  5
19F
330
18E
100
AcDbEntity
  8
0
  6
Continuous
 62
     0
370
     0
100
AcDbLine
 10
827.144821
 20
759.224482
 30
0.0
 11
835.058233
 21
760.39779
 31
0.0
  0
LINE
  5
1A0
330
18E
100
AcDbEntity
  8
0
  6
Continuous
 62
     0
370
     0
100
AcDbLine
 10
836.801147
 20
740.811293
 30
0.0
 11
836.969389
 21
740.684509
 31
0.0
  0
ARC
  5
1A1
330
18E
100
AcDbEntity
  8
0
  6
Continuous
 62
     0
370
     0
100
AcDbCircle
 10
836.696141
 20
741.775776
 30
0.0
 40
1.124957161177513
100
AcDbArc
 50
284.057559
 51
1.942441
  0
ARC
  5
1A2
330
18E
100
AcDbEntity
  8
0
  6
Continuous
 62
     0
370
     0
100
AcDbCircle
 10
836.661979
 20
741.801523
 30
0.0
 40
1.000000000000036
100
AcDbArc
 50
278.002182
 51
7.997819
  0
LINE
  5
1A3
330
18E
100
AcDbEntity
  8
0
  6
Continuous
 62
     0
370
     0
100
AcDbLine
 10
636.901839
 20
704.955139
 30
0.0
 11
635.901839
 21
704.955139
 31
0.0
  0
LINE
  5
1A4
330
18E
100
AcDbEntity
  8
0
  6
Continuous
 62
     0
370
     0
100
AcDbLine
 10
635.901839
 20
704.955139
 30
0.0
 11
635.901839
 21
690.316582
 31
0.0
  0
LINE
  5
1A5
330
18E
100
AcDbEntity
  8
0
  6
Continuous
 62
     0
370
     0
100
AcDbLine
 10
636.901801
 20
690.316582
 30
0.0
 11
636.901801
 21
704.955139
 31
0.0
  0
LINE
  5
1A6
330
18E
100
AcDbEntity
  8
0
  6
Continuous
 62
     0
370
     0
100
AcDbLine
 10
837.65221
 20
741.940691
 30
0.0
 11
835.058233
 21
760.39779
 31
0.0
  0
LINE
  5
1A7
330
18E
100
AcDbEntity
  8
0
  6
Continuous
 62
     0
370
     0
100
AcDbLine
 10
835.185012
 20
760.566039
 30
0.0
 11
837.820452
 21
741.813907
 31
0.0
  0
LINE
  5
1A8
330
18E
100
AcDbEntity
  8
0
  6
Continuous
 62
     0
370
     0
100
AcDbLine
 10
644.648948
 20
713.867212
 30
0.0
 11
829.861109
 21
739.897084
 31
0.0
  0
LINE
  5
1A9
330
18E
100
AcDbEntity
  8
0
  6
Continuous
 62
     0
370
     0
100
AcDbLine
 10
829.861109
 20
739.897084
 30
0.0
 11
836.801147
 21
740.811293
 31
0.0
  0
LINE
  5
1AA
330
18E
100
AcDbEntity
  8
0
  6
Continuous
 62
     0
370
     0
100
AcDbLine
 10
836.969389
 20
740.684509
 30
0.0
 11
832.265578
 21
740.023431
 31
0.0
  0
ARC
  5
1AB
330
18E
100
AcDbEntity
  8
0
  6
Continuous
 62
     0
370
    30
100
AcDbCircle
 10
917.807301
 20
43.342566
 30
0.0
 40
701.9128256006887
100
AcDbArc
 50
97.000006
 51
98.999994
  0
LINE
  5
1AC
330
18E
100
AcDbEntity
  8
0
  6
Continuous
 62
     0
370
     0
100
AcDbLine
 10
808.004011
 20
736.61369
 30
0.0
 11
644.858461
 21
713.685079
 31
0.0
  0
LINE
  5
1AD
330
18E
100
AcDbEntity
  8
0
  6
Continuous
 62
     0
370
     0
100
AcDbLine
 10
644.858461
 20
713.685079
 30
0.0
 11
644.648948
 21
713.867212
 31
0.0
  0
LINE
  5
1AE
330
18E
100
AcDbEntity
  8
0
  6
Continuous
 62
     0
370
     0
100
AcDbLine
 10
827.144821
 20
759.224482
 30
0.0
 11
829.721942
 21
740.887315
 31
0.0
  0
LINE
  5
1AF
330
18E
100
AcDbEntity
  8
0
  6
Continuous
 62
     0
370
     0
100
AcDbLine
 10
829.721942
 20
740.887315
 30
0.0
 11
837.65221
 21
741.940691
 31
0.0
  0
ARC
  5
1B0
330
18E
100
AcDbEntity
  8
0
  6
Continuous
 62
     0
370
     0
100
AcDbCircle
 10
645.901335
 20
704.955247
 30
0.0
 40
9.999495488391421
100
AcDbArc
 50
97.999384
 51
180.000616
  0
LINE
  5
1B1
330
18E
100
AcDbEntity
  8
0
  6
Continuous
 62
     0
370
     0
100
AcDbLine
 10
644.509781
 20
714.857443
 30
0.0
 11
829.721942
 21
740.887315
 31
0.0
  0
ARC
  5
1B2
330
18E
100
AcDbEntity
  8
0
  6
Continuous
 62
     0
370
     0
100
AcDbCircle
 10
645.898639
 20
704.95759
 30
0.0
 40
8.99683887646469
100
AcDbArc
 50
97.984395
 51
180.015605
  0
ARC
  5
1B3
330
18E
100
AcDbEntity
  8
0
  6
Continuous
 62
     0
370
     0
100
AcDbCircle
 10
646.10856
 20
704.775306
 30
0.0
 40
8.99704387619828
100
AcDbArc
 50
97.986836
 51
174.634674
  0
LINE
  5
1B4
330
18E
100
AcDbEntity
  8
0
  6
Continuous
 62
     0
370
     0
100
AcDbLine
 10
637.111314
 20
690.316582
 30
0.0
 11
637.111314
 21
695.616582
 31
0.0
  0
LINE
  5
1B5
330
18E
100
AcDbEntity
  8
0
  6
Continuous
 62
     0
370
     0
100
AcDbLine
 10
644.509781
 20
714.857443
 30
0.0
 11
644.648948
 21
713.867212
 31
0.0
  0
LINE
  5
1B6
330
18E
100
AcDbEntity
  8
0
  6
Continuous
 62
     0
370
     0
100
AcDbLine
 10
829.861115
 20
739.897046
 30
0.0
 11
829.721941
 21
740.887315
 31
0.0
  0
LINE
  5
1B7
330
18E
100
AcDbEntity
  8
0
  6
Continuous
 62
     0
370
     0
100
AcDbLine
 10
637.150935
 20
705.616582
 30
0.0
 11
637.087335
 21
704.793851
 31
0.0
  0
LINE
  5
1B8
330
18E
100
AcDbEntity
  8
0
  6
Continuous
 62
     0
370
     0
100
AcDbLine
 10
637.111314
 20
695.616582
 30
0.0
 11
637.087335
 21
704.793851
 31
0.0
  0
LINE
  5
1B9
330
18E
100
AcDbEntity
  8
0
  6
Continuous
 62
     0
370
    30
100
AcDbLine
 10
832.636262
 20
731.996907
 30
0.0
 11
809.860096
 21
728.795926
 31
0.0
  0
LINE
  5
1BA
330
18E
100
AcDbEntity
  8
0
  6
Continuous
 62
     0
370
     0
100
AcDbLine
 10
833.06181
 20
732.561628
 30
0.0
 11
809.295376
 21
729.221473
 31
0.0
  0
LINE
  5
1BB
330
18E
100
AcDbEntity
  8
0
  6
Continuous
 62
     0
370
    30
100
AcDbLine
 10
611.867479
 20
690.316582
 30
0.0
 11
576.874971
 21
690.316582
 31
0.0
  0
LINE
  5
1BC
330
18E
100
AcDbEntity
  8
0
  6
Continuous
 62
     0
370
    30
100
AcDbLine
 10
611.867479
 20
682.316582
 30
0.0
 11
646.874971
 21
682.316582
 31
0.0
  0
LINE
  5
1BD
330
18E
100
AcDbEntity
  8
0
  6
Continuous
 62
     0
370
    30
100
AcDbLine
 10
576.874971
 20
682.316582
 30
0.0
 11
611.867479
 21
682.316582
 31
0.0
  0
LINE
  5
1BE
330
18E
100
AcDbEntity
  8
0
  6
Continuous
 62
     0
370
    30
100
AcDbLine
 10
636.63551
 20
690.316582
 30
0.0
 11
611.867479
 21
690.316582
 31
0.0
  0
LINE
  5
1BF
330
18E
100
AcDbEntity
  8
0
  6
Continuous
 62
     0
370
    30
100
AcDbLine
 10
646.874971
 20
690.316582
 30
0.0
 11
636.63551
 21
690.316582
 31
0.0
  0
LINE
  5
1C0
330
18E
100
AcDbEntity
  8
0
  6
Continuous
 62
     0
370
     0
100
AcDbLine
 10
590.874936
 20
728.373604
 30
0.0
 11
590.874939
 21
727.240288
 31
0.0
  0
LINE
  5
1C1
330
18E
100
AcDbEntity
  8
0
  6
Continuous
 62
     0
370
     0
100
AcDbLine
 10
605.619761
 20
729.312538
 30
0.0
 11
596.874934
 21
729.312538
 31
0.0
  0
LWPOLYLINE
  5
1C2
330
18E
100
AcDbEntity
  8
0
  6
Continuous
 62
     0
370
     0
100
AcDbPolyline
 90
       15
 70
     0
 43
0.0
 10
596.874939
 20
729.312561
 10
596.204712
 20
729.306641
 10
595.542847
 20
729.289124
 10
594.897644
 20
729.260071
 10
594.277222
 20
729.219971
 10
593.68927
 20
729.16925
 10
593.141235
 20
729.108582
 10
592.639954
 20
729.038696
 10
592.19165
 20
728.96051
 10
591.802002
 20
728.875
 10
591.47583
 20
728.783142
 10
591.217285
 20
728.686218
 10
591.029541
 20
728.585388
 10
590.914978
 20
728.481873
 10
590.874939
 20
728.373596
  0
LINE
  5
1C3
330
18E
100
AcDbEntity
  8
0
  6
Continuous
 62
     0
370
    30
100
AcDbLine
 10
589.874936
 20
727.385915
 30
0.0
 11
589.874937
 21
727.099747
 31
0.0
  0
ARC
  5
1C4
330
18E
100
AcDbEntity
  8
0
  6
Continuous
 62
     0
370
     0
100
AcDbCircle
 10
590.868818
 20
727.379721
 30
0.0
 40
0.9939014325161278
100
AcDbArc
 50
89.647316
 51
179.642915
  0
LINE
  5
1C5
330
18E
100
AcDbEntity
  8
0
  6
Continuous
 62
     0
370
    30
100
AcDbLine
 10
623.208282
 20
617.536583
 30
0.0
 11
626.874948
 21
617.536583
 31
0.0
  0
LINE
  5
1C6
330
18E
100
AcDbEntity
  8
0
  6
Continuous
 62
     0
370
    30
100
AcDbLine
 10
596.874963
 20
617.536583
 30
0.0
 11
623.208282
 21
617.536583
 31
0.0
  0
LINE
  5
1C7
330
18E
100
AcDbEntity
  8
0
  6
Continuous
 62
     0
370
    30
100
AcDbLine
 10
623.208282
 20
681.816583
 30
0.0
 11
596.874963
 21
681.816583
 31
0.0
  0
LINE
  5
1C8
330
18E
100
AcDbEntity
  8
0
  6
Continuous
 62
     0
370
    30
100
AcDbLine
 10
626.874948
 20
681.816583
 30
0.0
 11
623.208282
 21
681.816583
 31
0.0
  0
LINE
  5
1C9
330
18E
100
AcDbEntity
  8
0
  6
Continuous
 62
     0
370
    30
100
AcDbLine
 10
624.530568
 20
817.28096
 30
0.0
 11
624.530568
 21
731.970279
 31
0.0
  0
ARC
  5
1CA
330
18E
100
AcDbEntity
  8
0
  6
Continuous
 62
     0
370
    30
100
AcDbCircle
 10
630.530568
 20
817.28096
 30
0.0
 40
6.000000000000002
100
AcDbArc
 50
89.999999
 51
179.999999
  0
LINE
  5
1CB
330
18E
100
AcDbEntity
  8
0
  6
Continuous
 62
     0
370
    30
100
AcDbLine
 10
632.530568
 20
823.28096
 30
0.0
 11
630.530568
 21
823.28096
 31
0.0
  0
LINE
  5
1CC
330
18E
100
AcDbEntity
  8
0
  6
Continuous
 62
     0
370
    30
100
AcDbLine
 10
632.530568
 20
823.28096
 30
0.0
 11
632.530568
 21
829.28096
 31
0.0
  0
LINE
  5
1CD
330
18E
100
AcDbEntity
  8
0
  6
Continuous
 62
     0
370
     0
100
AcDbLine
 10
632.529284
 20
829.28096
 30
0.0
 11
630.529284
 21
829.28096
 31
0.0
  0
LINE
  5
1CE
330
18E
100
AcDbEntity
  8
0
  6
Continuous
 62
     0
370
     0
100
AcDbLine
 10
630.530568
 20
829.28096
 30
0.0
 11
630.530568
 21
823.28096
 31
0.0
  0
LINE
  5
1CF
330
18E
100
AcDbEntity
  8
0
  6
Continuous
 62
     0
370
     0
100
AcDbLine
 10
618.529284
 20
817.28096
 30
0.0
 11
624.530568
 21
817.28096
 31
0.0
  0
ARC
  5
1D0
330
18E
100
AcDbEntity
  8
0
  6
Continuous
 62
     0
370
     0
100
AcDbCircle
 10
630.529284
 20
817.28096
 30
0.0
 40
11.99999986256689
100
AcDbArc
 50
90.000001
 51
180.000001
  0
LINE
  5
1D1
330
18E
100
AcDbEntity
  8
0
  6
Continuous
 62
     0
370
     0
100
AcDbLine
 10
618.529284
 20
817.28096
 30
0.0
 11
618.529284
 21
731.126853
 31
0.0
  0
LINE
  5
1D2
330
18E
100
AcDbEntity
  8
0
  6
Continuous
 62
     0
370
    30
100
AcDbLine
 10
632.529284
 20
829.28096
 30
0.0
 11
632.529284
 21
877.28096
 31
0.0
  0
LINE
  5
1D3
330
18E
100
AcDbEntity
  8
0
  6
Continuous
 62
     0
370
     0
100
AcDbLine
 10
632.529284
 20
877.28096
 30
0.0
 11
606.529284
 21
877.28096
 31
0.0
  0
LINE
  5
1D4
330
18E
100
AcDbEntity
  8
0
  6
Continuous
 62
     0
370
     0
100
AcDbLine
 10
606.529284
 20
877.28096
 30
0.0
 11
606.529284
 21
729.440363
 31
0.0
  0
LINE
  5
1D5
330
18E
100
AcDbEntity
  8
0
  6
Continuous
 62
     0
370
     0
100
AcDbLine
 10
606.529284
 20
877.28096
 30
0.0
 11
600.530569
 21
877.28096
 31
0.0
  0
LINE
  5
1D6
330
18E
100
AcDbEntity
  8
0
  6
Continuous
 62
     0
370
    30
100
AcDbLine
 10
600.530569
 20
877.28096
 30
0.0
 11
600.530569
 21
729.312538
 31
0.0
  0
LINE
  5
1D7
330
18E
100
AcDbEntity
  8
0
  6
Continuous
 62
     0
370
    30
100
AcDbLine
 10
632.530568
 20
877.28096
 30
0.0
 11
632.530568
 21
883.28096
 31
0.0
  0
LINE
  5
1D8
330
18E
100
AcDbEntity
  8
0
  6
Continuous
 62
     0
370
    30
100
AcDbLine
 10
632.530568
 20
883.28096
 30
0.0
 11
606.530569
 21
883.28096
 31
0.0
  0
LINE
  5
1D9
330
18E
100
AcDbEntity
  8
0
  6
Continuous
 62
     0
370
     0
100
AcDbLine
 10
606.530569
 20
883.28096
 30
0.0
 11
606.530569
 21
877.28096
 31
0.0
  0
ARC
  5
1DA
330
18E
100
AcDbEntity
  8
0
  6
Continuous
 62
     0
370
    30
100
AcDbCircle
 10
606.530569
 20
877.28096
 30
0.0
 40
6.000000212462835
100
AcDbArc
 50
90.0
 51
180.000001
  0
LINE
  5
1DB
330
18E
100
AcDbEntity
  8
0
  6
Continuous
 62
     0
370
    30
100
AcDbLine
 10
626.874948
 20
617.536583
 30
0.0
 11
626.874948
 21
681.816583
 31
0.0
  0
LINE
  5
1DC
330
18E
100
AcDbEntity
  8
0
  6
Continuous
 62
     0
370
    30
100
AcDbLine
 10
596.874963
 20
617.536583
 30
0.0
 11
596.874963
 21
681.816583
 31
0.0
  0
LWPOLYLINE
  5
1DD
330
18E
100
AcDbEntity
  8
0
  6
Continuous
 62
     0
370
    30
100
AcDbPolyline
 90
       28
 70
     0
 43
0.0
 10
596.874939
 20
729.324707
 10
596.496643
 20
729.322876
 10
596.118958
 20
729.317444
 10
595.743469
 20
729.308289
 10
595.371826
 20
729.295593
 10
595.005493
 20
729.279297
 10
594.646118
 20
729.25946
 10
594.294922
 20
729.236084
 10
593.953003
 20
729.209412
 10
593.62146
 20
729.179443
 10
593.301392
 20
729.146301
 10
592.993835
 20
729.110046
 10
592.69928
 20
729.070679
 10
592.418213
 20
729.028198
 10
592.151123
 20
728.982544
 10
591.898499
 20
728.933655
 10
591.660828
 20
728.881531
 10
591.438232
 20
728.825989
 10
591.229858
 20
728.766235
 10
591.034424
 20
728.701355
 10
590.849976
 20
728.629517
 10
590.672729
 20
728.546204
 10
590.498596
 20
728.445862
 10
590.327515
 20
728.319702
 10
590.164001
 20
728.155579
 10
590.017029
 20
727.943054
 10
589.916809
 20
727.682617
 10
589.874939
 20
727.385925
  0
LINE
  5
1DE
330
18E
100
AcDbEntity
  8
0
  6
Continuous
 62
     0
370
    30
100
AcDbLine
 10
809.295419
 20
729.221479
 30
0.0
 11
808.24863
 21
736.66977
 31
0.0
  0
LINE
  5
1DF
330
18E
100
AcDbEntity
  8
0
  6
Continuous
 62
     0
370
    30
100
AcDbLine
 10
833.061758
 20
732.56162
 30
0.0
 11
832.014969
 21
740.009911
 31
0.0
  0
LINE
  5
1E0
330
18E
100
AcDbEntity
  8
0
  6
Continuous
 62
     0
370
    30
100
AcDbLine
 10
576.874971
 20
690.316582
 30
0.0
 11
576.874971
 21
682.316582
 31
0.0
  0
LINE
  5
1E1
330
18E
100
AcDbEntity
  8
0
  6
Continuous
 62
     0
370
    30
100
AcDbLine
 10
646.874971
 20
690.316582
 30
0.0
 11
646.874971
 21
682.316582
 31
0.0
  0
ARC
  5
1E2
330
18E
100
AcDbEntity
  8
0
  6
Continuous
 62
     0
370
    30
100
AcDbCircle
 10
832.566676
 20
732.492041
 30
0.0
 40
0.4999999999999947
100
AcDbArc
 50
278.0
 51
8.0
  0
ARC
  5
1E3
330
18E
100
AcDbEntity
  8
0
  6
Continuous
 62
     0
370
    30
100
AcDbCircle
 10
809.79051
 20
729.29106
 30
0.0
 40
0.4999999999999947
100
AcDbArc
 50
188.0
 51
278.0
  0
LINE
  5
1E4
330
18E
100
AcDbEntity
  8
0
  6
Continuous
 62
     0
370
    30
100
AcDbLine
 10
637.085494
 20
704.795451
 30
0.0
 11
637.151507
 21
705.613825
 31
0.0
  0
LINE
  5
1E5
330
18E
100
AcDbEntity
  8
0
  6
Continuous
 62
     0
370
    30
100
AcDbLine
 10
637.111865
 20
695.617934
 30
0.0
 11
637.085404
 21
704.793968
 31
0.0
  0
ENDBLK
  5
1E7
330
18E
100
AcDbEntity
  8
0
100
AcDbBlockEnd
  0
BLOCK
  5
2C6
330
1E9
100
AcDbEntity
  8
0
100
AcDbBlockBegin
  2
d
 70
     0
 10
18.046059
 20
105.780983
 30
0.0
  3
d
  1

  0
LINE
  5
1EA
330
1E9
100
AcDbEntity
  8
0
  6
Continuous
 62
     0
370
     0
100
AcDbLine
 10
759.250868
 20
179.651552
 30
0.0
 11
771.410694
 21
186.70589
 31
0.0
  0
ARC
  5
1EB
330
1E9
100
AcDbEntity
  8
0
  6
Continuous
 62
     0
370
     0
100
AcDbCircle
 10
769.675188
 20
186.360748
 30
0.0
 40
1.769492958163954
100
AcDbArc
 50
11.247741
 51
58.030063
  0
LINE
  5
1EC
330
1E9
100
AcDbEntity
  8
0
  6
Continuous
 62
     0
370
     0
100
AcDbLine
 10
770.612089
 20
187.861855
 30
0.0
 11
758.452262
 21
180.807516
 31
0.0
  0
ELLIPSE
  5
1ED
330
1E9
100
AcDbEntity
  8
0
  6
Continuous
 62
     0
370
     0
100
AcDbEllipse
 10
758.556839
 20
179.945744
 30
0.0
 11
-0.5018053432813292
 21
0.8649805763450447
 31
0.0
210
0.0
220
0.0
230
-1.0
 40
0.567328
 41
0.6470037817743843
 42
2.217723956147308
  0
ELLIPSE
  5
1EE
330
1E9
100
AcDbEntity
  8
0
  6
Continuous
 62
     0
370
     0
100
AcDbEllipse
 10
584.718757
 20
252.100263
 30
0.0
 11
-0.5121908050133501
 21
0.8588716896369916
 31
0.0
210
0.0
220
0.0
230
-1.0
 40
0.57797
 41
5.505985492363129
 42
6.937089280399996
  0
LINE
  5
1EF
330
1E9
100
AcDbEntity
  8
0
  6
Continuous
 62
     0
370
     0
100
AcDbLine
 10
584.61418
 20
252.962035
 30
0.0
 11
596.579021
 21
260.097306
 31
0.0
  0
LINE
  5
1F0
330
1E9
100
AcDbEntity
  8
0
  6
Continuous
 62
     0
370
     0
100
AcDbLine
 10
596.579021
 20
260.097306
 30
0.0
 11
596.189156
 21
260.070481
 31
0.0
  0
LWPOLYLINE
  5
1F1
330
1E9
100
AcDbEntity
  8
0
  6
Continuous
 62
     0
370
     0
100
AcDbPolyline
 90
       16
 70
     0
 43
0.0
 10
584.657166
 20
248.024902
 10
584.170288
 20
248.253799
 10
583.742065
 20
248.511627
 10
583.377136
 20
248.795609
 10
583.079529
 20
249.102661
 10
582.852417
 20
249.429474
 10
582.698181
 20
249.772522
 10
582.618591
 20
250.128113
 10
582.614441
 20
250.492386
 10
582.685791
 20
250.86142
 10
582.831848
 20
251.231216
 10
583.051147
 20
251.597809
 10
583.341125
 20
251.957214
 10
583.698853
 20
252.305557
 10
584.120361
 20
252.639084
 10
584.614197
 20
252.962036
  0
LINE
  5
1F2
330
1E9
100
AcDbEntity
  8
0
  6
Continuous
 62
     0
370
     0
100
AcDbLine
 10
596.579021
 20
260.097306
 30
0.0
 11
770.612089
 21
187.861855
 31
0.0
  0
LWPOLYLINE
  5
1F3
330
1E9
100
AcDbEntity
  8
0
  6
Continuous
 62
     0
370
     0
100
AcDbPolyline
 90
       15
 70
     0
 43
0.0
 10
758.452271
 20
180.80751
 10
757.8703
 20
180.499893
 10
757.235779
 20
180.22139
 10
756.556458
 20
179.975418
 10
755.840698
 20
179.764999
 10
755.09729
 20
179.592743
 10
754.335449
 20
179.460754
 10
753.564453
 20
179.370636
 10
752.793884
 20
179.323532
 10
752.033081
 20
179.320007
 10
751.291504
 20
179.360092
 10
750.578247
 20
179.443314
 10
749.902039
 20
179.568634
 10
749.27124
 20
179.734512
 10
748.650269
 20
179.956726
  0
LINE
  5
1F4
330
1E9
100
AcDbEntity
  8
0
  6
Continuous
 62
     0
370
     0
100
AcDbLine
 10
748.650278
 20
179.956721
 30
0.0
 11
584.657189
 21
248.024905
 31
0.0
  0
ARC
  5
1F5
330
1E9
100
AcDbEntity
  8
0
  6
Continuous
 62
     0
370
     0
100
AcDbCircle
 10
584.794093
 20
249.724219
 30
0.0
 40
3.060018846184205
100
AcDbArc
 50
178.721041
 51
256.016433
  0
ELLIPSE
  5
1F6
330
1E9
100
AcDbEntity
  8
0
  6
Continuous
 62
     0
370
    30
100
AcDbEllipse
 10
589.711512
 20
220.371019
 30
0.0
 11
-7.999999999999933
 21
0.0
 31
0.0
210
0.0
220
0.0
230
1.0
 40
0.57735
 41
-0.000000008639689
 42
0.7853984672568437
  0
LINE
  5
1F7
330
1E9
100
AcDbEntity
  8
0
  6
Continuous
 62
     0
370
     0
100
AcDbLine
 10
584.054659
 20
217.105032
 30
0.0
 11
584.054659
 21
246.754884
 31
0.0
  0
ELLIPSE
  5
1F8
330
1E9
100
AcDbEntity
  8
0
  6
Continuous
 62
     0
370
     0
100
AcDbEllipse
 10
584.761766
 20
247.163132
 30
0.0
 11
0.3833564393594847
 21
0.9236004766139775
 31
0.0
210
0.0
220
0.0
230
1.0
 40
0.652083
 41
0.7138559268835021
 42
2.275925607418484
  0
LINE
  5
1F9
330
1E9
100
AcDbEntity
  8
0
  6
Continuous
 62
     0
370
     0
100
AcDbLine
 10
584.054659
 20
246.754884
 30
0.0
 11
748.047749
 21
178.6867
 31
0.0
  0
ELLIPSE
  5
1FA
330
1E9
100
AcDbEntity
  8
0
  6
Continuous
 62
     0
370
     0
100
AcDbEllipse
 10
748.754855
 20
179.094949
 30
0.0
 11
-0.3833564393594847
 21
-0.9236004766139775
 31
0.0
210
0.0
220
0.0
230
-1.0
 40
0.652083
 41
0.8656670461976119
 42
2.427736726706204
  0
LWPOLYLINE
  5
1FB
330
1E9
100
AcDbEntity
  8
0
  6
Continuous
 62
     0
370
     0
100
AcDbPolyline
 90
       16
 70
     0
 43
0.0
 10
748.047729
 20
178.686707
 10
748.657227
 20
178.464127
 10
749.32135
 20
178.279282
 10
750.032166
 20
178.134552
 10
750.782227
 20
178.031357
 10
751.563599
 20
177.97081
 10
752.36792
 20
177.953506
 10
753.186462
 20
177.979691
 10
754.010437
 20
178.049057
 10
754.831116
 20
178.160843
 10
755.639648
 20
178.313904
 10
756.427307
 20
178.506531
 10
757.185608
 20
178.736633
 10
757.906616
 20
179.001846
 10
758.582703
 20
179.299423
 10
759.250854
 20
179.65155
  0
ARC
  5
1FC
330
1E9
100
AcDbEntity
  8
0
  6
Continuous
 62
     0
370
     0
100
AcDbCircle
 10
772.718237
 20
170.230451
 30
0.0
 40
0.5629903702188532
100
AcDbArc
 50
306.803798
 51
9.041586
  0
LINE
  5
1FD
330
1E9
100
AcDbEntity
  8
0
  6
Continuous
 62
     0
370
     0
100
AcDbLine
 10
773.274232
 20
170.318925
 30
0.0
 11
761.085086
 21
163.522407
 31
0.0
  0
ELLIPSE
  5
1FE
330
1E9
100
AcDbEntity
  8
0
  6
Continuous
 62
     0
370
     0
100
AcDbEllipse
 10
760.391058
 20
163.8166
 30
0.0
 11
-0.4869986242281844
 21
0.8734027364280056
 31
0.0
210
0.0
220
0.0
230
-1.0
 40
0.575904
 41
2.207986258215231
 42
3.778706432587926
  0
ELLIPSE
  5
1FF
330
1E9
100
AcDbEntity
  8
0
  6
Continuous
 62
     0
370
     0
100
AcDbEllipse
 10
613.525605
 20
212.858812
 30
0.0
 11
0.9999999999999492
 21
0.0
 31
0.0
210
0.0
220
0.0
230
-1.0
 40
0.57735
 41
0.794124505798047
 42
2.356194186333064
  0
LINE
  5
200
330
1E9
100
AcDbEntity
  8
0
  6
Continuous
 62
     0
370
     0
100
AcDbLine
 10
612.818498
 20
212.450564
 30
0.0
 11
612.818498
 21
200.498232
 31
0.0
  0
LINE
  5
201
330
1E9
100
AcDbEntity
  8
0
  6
Continuous
 62
     0
370
     0
100
AcDbLine
 10
614.226514
 20
200.494685
 30
0.0
 11
614.226514
 21
212.447017
 31
0.0
  0
LINE
  5
202
330
1E9
100
AcDbEntity
  8
0
  6
Continuous
 62
     0
370
     0
100
AcDbLine
 10
761.085086
 20
163.522407
 30
0.0
 11
759.250868
 21
179.651552
 31
0.0
  0
LINE
  5
203
330
1E9
100
AcDbEntity
  8
0
  6
Continuous
 62
     0
370
     0
100
AcDbLine
 10
771.410694
 20
186.70589
 30
0.0
 11
773.274232
 21
170.318925
 31
0.0
  0
LINE
  5
204
330
1E9
100
AcDbEntity
  8
0
  6
Continuous
 62
     0
370
     0
100
AcDbLine
 10
748.047749
 20
178.6867
 30
0.0
 11
749.870049
 21
162.662361
 31
0.0
  0
ARC
  5
205
330
1E9
100
AcDbEntity
  8
0
  6
Continuous
 62
     0
370
     0
100
AcDbCircle
 10
754.452223
 20
176.462911
 30
0.0
 40
14.54137258658733
100
AcDbArc
 50
251.63237
 51
297.138138
  0
LWPOLYLINE
  5
206
330
1E9
100
AcDbEntity
  8
0
  6
Continuous
 62
     0
370
     0
100
AcDbPolyline
 90
       17
 70
     0
 43
0.0
 10
612.818481
 20
212.450562
 10
612.846741
 20
213.163589
 10
612.931335
 20
213.838287
 10
613.071533
 20
214.469223
 10
613.266296
 20
215.051392
 10
613.513916
 20
215.580124
 10
613.812561
 20
216.051178
 10
614.159851
 20
216.460815
 10
614.552856
 20
216.80574
 10
614.988586
 20
217.083191
 10
615.463501
 20
217.29097
 10
615.973755
 20
217.427414
 10
616.515381
 20
217.491409
 10
617.083923
 20
217.482468
 10
617.674927
 20
217.40065
 10
618.283691
 20
217.246613
 10
618.905212
 20
217.021591
  0
LINE
  5
207
330
1E9
100
AcDbEntity
  8
0
  6
Continuous
 62
     0
370
     0
100
AcDbLine
 10
618.905234
 20
217.021585
 30
0.0
 11
749.870049
 21
162.662361
 31
0.0
  0
LINE
  5
208
330
1E9
100
AcDbEntity
  8
0
  6
Continuous
 62
     0
370
    30
100
AcDbLine
 10
584.054659
 20
217.105032
 30
0.0
 11
612.818498
 21
200.498232
 31
0.0
  0
LWPOLYLINE
  5
209
330
1E9
100
AcDbEntity
  8
0
  6
Continuous
 62
     0
370
     0
100
AcDbPolyline
 90
       15
 70
     0
 43
0.0
 10
614.226501
 20
212.447021
 10
614.254272
 20
213.112442
 10
614.337646
 20
213.743134
 10
614.475403
 20
214.33287
 10
614.666077
 20
214.875443
 10
614.908508
 20
215.364624
 10
615.200989
 20
215.794678
 10
615.540894
 20
216.162354
 10
615.924866
 20
216.465256
 10
616.349792
 20
216.700958
 10
616.812439
 20
216.867065
 10
617.309387
 20
216.961456
 10
617.835571
 20
216.984055
 10
618.385193
 20
216.93573
 10
618.952759
 20
216.817245
  0
LINE
  5
20A
330
1E9
100
AcDbEntity
  8
0
  6
Continuous
 62
     0
370
     0
100
AcDbLine
 10
620.527529
 20
215.967249
 30
0.0
 11
614.226514
 21
212.447017
 31
0.0
  0
LINE
  5
20B
330
1E9
100
AcDbEntity
  8
0
  6
Continuous
 62
     0
370
    30
100
AcDbLine
 10
614.226514
 20
200.494685
 30
0.0
 11
631.351396
 21
210.210673
 31
0.0
  0
LINE
  5
20C
330
1E9
100
AcDbEntity
  8
0
  6
Continuous
 62
     0
370
     0
100
AcDbLine
 10
631.351396
 20
210.210673
 30
0.0
 11
631.351396
 21
211.474614
 31
0.0
  0
ARC
  5
20D
330
1E9
100
AcDbEntity
  8
0
  6
Continuous
 62
     0
370
     0
100
AcDbCircle
 10
619.500921
 20
217.036455
 30
0.0
 40
0.5958724844368173
100
AcDbArc
 50
181.429947
 51
242.847773
  0
ELLIPSE
  5
20E
330
1E9
100
AcDbEntity
  8
0
  6
Continuous
 62
     0
370
     0
100
AcDbEllipse
 10
750.577155
 20
163.070609
 30
0.0
 11
-0.3833564393593938
 21
-0.9236004766140473
 31
0.0
210
0.0
220
0.0
230
-1.0
 40
0.652083
 41
5.586782672816134
 42
7.148852353351187
  0
ELLIPSE
  5
20F
330
1E9
100
AcDbEntity
  8
0
  6
Continuous
 62
     0
370
     0
100
AcDbEllipse
 10
782.684851
 20
193.876066
 30
0.0
 11
0.4981614091422454
 21
-0.8670843156471639
 31
0.0
210
0.0
220
0.0
230
1.0
 40
0.587285
 41
0.9262981444916933
 42
2.497018318864685
  0
LINE
  5
210
330
1E9
100
AcDbEntity
  8
0
  6
Continuous
 62
     0
370
     0
100
AcDbLine
 10
782.592615
 20
194.744964
 30
0.0
 11
770.612089
 21
187.861855
 31
0.0
  0
LINE
  5
211
330
1E9
100
AcDbEntity
  8
0
  6
Continuous
 62
     0
370
     0
100
AcDbLine
 10
771.410694
 20
186.70589
 30
0.0
 11
783.39122
 21
193.588999
 31
0.0
  0
LINE
  5
212
330
1E9
100
AcDbEntity
  8
0
  6
Continuous
 62
     0
370
     0
100
AcDbLine
 10
596.579021
 20
260.097306
 30
0.0
 11
608.754533
 21
266.899483
 31
0.0
  0
ELLIPSE
  5
213
330
1E9
100
AcDbEntity
  8
0
  6
Continuous
 62
     0
370
     0
100
AcDbEllipse
 10
608.846769
 20
266.030586
 30
0.0
 11
0.4877238247855134
 21
-0.8729979786555719
 31
0.0
210
0.0
220
0.0
230
1.0
 40
0.576653
 41
2.504000269961564
 42
3.141592685173305
  0
LWPOLYLINE
  5
214
330
1E9
100
AcDbEntity
  8
0
  6
Continuous
 62
     0
370
     0
100
AcDbPolyline
 90
       14
 70
     0
 43
0.0
 10
618.610657
 20
267.62796
 10
617.981689
 20
267.853973
 10
617.290466
 20
268.036224
 10
616.546875
 20
268.17215
 10
615.761658
 20
268.259735
 10
614.946228
 20
268.297729
 10
614.112183
 20
268.285614
 10
613.271667
 20
268.223511
 10
612.436768
 20
268.112366
 10
611.619507
 20
267.953735
 10
610.831726
 20
267.749969
 10
610.084656
 20
267.503937
 10
609.389221
 20
267.219208
 10
608.754517
 20
266.899475
  0
LWPOLYLINE
  5
215
330
1E9
100
AcDbEntity
  8
0
  6
Continuous
 62
     0
370
     0
100
AcDbPolyline
 90
       16
 70
     0
 43
0.0
 10
782.59259
 20
194.744965
 10
783.075623
 20
195.04866
 10
783.500122
 20
195.370773
 10
783.861389
 20
195.707825
 10
784.155579
 20
196.056183
 10
784.379578
 20
196.412079
 10
784.530884
 20
196.771667
 10
784.60791
 20
197.131088
 10
784.609802
 20
197.486435
 10
784.536499
 20
197.833893
 10
784.388916
 20
198.169708
 10
784.168579
 20
198.49025
 10
783.877808
 20
198.792053
 10
783.519775
 20
199.071884
 10
783.09845
 20
199.326691
 10
782.60376
 20
199.559769
  0
LINE
  5
216
330
1E9
100
AcDbEntity
  8
0
  6
Continuous
 62
     0
370
     0
100
AcDbLine
 10
782.603734
 20
199.55977
 30
0.0
 11
618.610645
 21
267.627954
 31
0.0
  0
ELLIPSE
  5
217
330
1E9
100
AcDbEntity
  8
0
  6
Continuous
 62
     0
370
     0
100
AcDbEllipse
 10
782.69597
 20
198.690873
 30
0.0
 11
-0.3833564393594861
 21
-0.9236004766139766
 31
0.0
210
0.0
220
0.0
230
-1.0
 40
0.652083
 41
2.445190019226267
 42
3.147671706143012
  0
ELLIPSE
  5
218
330
1E9
100
AcDbEntity
  8
0
  6
Continuous
 62
     0
370
     0
100
AcDbEllipse
 10
618.702881
 20
266.759056
 30
0.0
 11
0.3833564393594861
 21
0.9236004766139766
 31
0.0
210
0.0
220
0.0
230
1.0
 40
0.652083
 41
-0.0000000276394045
 42
0.6964026343635821
  0
LWPOLYLINE
  5
219
330
1E9
100
AcDbEntity
  8
0
  6
Continuous
 62
     0
370
     0
100
AcDbPolyline
 90
       10
 70
     0
 43
0.0
 10
785.651245
 20
196.987076
 10
785.704468
 20
196.601608
 10
785.678284
 20
196.209
 10
785.572998
 20
195.813187
 10
785.389526
 20
195.418091
 10
785.129883
 20
195.027679
 10
784.796631
 20
194.645889
 10
784.392944
 20
194.276367
 10
783.922668
 20
193.922791
 10
783.391235
 20
193.589005
  0
ELLIPSE
  5
21A
330
1E9
100
AcDbEntity
  8
0
  6
Continuous
 62
     0
370
     0
100
AcDbEllipse
 10
784.51907
 20
177.746922
 30
0.0
 11
0.5129213026687085
 21
-0.8584356337365704
 31
0.0
210
0.0
220
0.0
230
1.0
 40
0.578709
 41
0.0000000314003517
 42
0.9163241799562467
  0
LINE
  5
21B
330
1E9
100
AcDbEntity
  8
0
  6
Continuous
 62
     0
370
     0
100
AcDbLine
 10
785.225439
 20
177.459855
 30
0.0
 11
773.274232
 21
170.318925
 31
0.0
  0
LINE
  5
21C
330
1E9
100
AcDbEntity
  8
0
  6
Continuous
 62
     0
370
     0
100
AcDbLine
 10
785.225439
 20
177.459855
 30
0.0
 11
783.39122
 21
193.588999
 31
0.0
  0
ARC
  5
21D
330
1E9
100
AcDbEntity
  8
0
  6
Continuous
 62
     0
370
     0
100
AcDbCircle
 10
783.84543
 20
180.857781
 30
0.0
 40
3.667468528934461
100
AcDbArc
 50
292.103678
 51
358.508041
  0
LINE
  5
21E
330
1E9
100
AcDbEntity
  8
0
  6
Continuous
 62
     0
370
    30
100
AcDbLine
 10
632.61208
 20
210.951345
 30
0.0
 11
631.351396
 21
210.210673
 31
0.0
  0
ELLIPSE
  5
21F
330
1E9
100
AcDbEntity
  8
0
  6
Continuous
 62
     0
370
     0
100
AcDbEllipse
 10
761.506657
 20
168.194867
 30
0.0
 11
11.92315011586855
 21
1.355909773717954
 31
0.0
210
0.0
220
0.0
230
-1.0
 40
0.49138
 41
0.0000000022041642
 42
1.825063688318529
  0
ELLIPSE
  5
220
330
1E9
100
AcDbEntity
  8
0
  6
Continuous
 62
     0
370
    30
100
AcDbEllipse
 10
613.509407
 20
220.514983
 30
0.0
 11
35.0
 21
-1.942890293094024E-15
 31
0.0
210
0.0
220
0.0
230
-1.0
 40
0.57735
 41
2.356408569001934
 42
3.572681530793852
  0
ELLIPSE
  5
221
330
1E9
100
AcDbEntity
  8
0
  6
Continuous
 62
     0
370
    30
100
AcDbEllipse
 10
613.509407
 20
213.983011
 30
0.0
 11
-35.0
 21
1.942890293094024E-15
 31
0.0
210
0.0
220
0.0
230
1.0
 40
0.57735
 41
0.7851840845878595
 42
2.716351547225733
  0
ELLIPSE
  5
222
330
1E9
100
AcDbEntity
  8
0
  6
Continuous
 62
     0
370
    30
100
AcDbEllipse
 10
613.509407
 20
213.983011
 30
0.0
 11
-35.0
 21
1.942890293094024E-15
 31
0.0
210
0.0
220
0.0
230
1.0
 40
0.57735
 41
-0.0000000086396863
 42
0.7851840845878595
  0
ELLIPSE
  5
223
330
1E9
100
AcDbEntity
  8
0
  6
Continuous
 62
     0
370
    30
100
AcDbEllipse
 10
613.525605
 20
200.90648
 30
0.0
 11
-0.9999999999999492
 21
0.0
 31
0.0
210
0.0
220
0.0
230
1.0
 40
0.57735
 41
0.7853984672568499
 42
1.571273256782264
  0
ELLIPSE
  5
224
330
1E9
100
AcDbEntity
  8
0
  6
Continuous
 62
     0
370
    30
100
AcDbEllipse
 10
613.525605
 20
200.90648
 30
0.0
 11
-0.9999999999999492
 21
0.0
 31
0.0
210
0.0
220
0.0
230
1.0
 40
0.57735
 41
1.571273256782264
 42
2.347468147791761
  0
ELLIPSE
  5
225
330
1E9
100
AcDbEntity
  8
0
  6
Continuous
 62
     0
370
    30
100
AcDbEllipse
 10
613.509407
 20
220.514983
 30
0.0
 11
35.0
 21
-1.942890293094024E-15
 31
0.0
210
0.0
220
0.0
230
-1.0
 40
0.57735
 41
1.570319396807534
 42
2.356408569001934
  0
ELLIPSE
  5
226
330
1E9
100
AcDbEntity
  8
0
  6
Continuous
 62
     0
370
    30
100
AcDbEllipse
 10
613.509407
 20
220.514983
 30
0.0
 11
35.0
 21
-1.942890293094024E-15
 31
0.0
210
0.0
220
0.0
230
-1.0
 40
0.57735
 41
0.6890430946327183
 42
1.570319396807534
  0
ELLIPSE
  5
227
330
1E9
100
AcDbEntity
  8
0
  6
Continuous
 62
     0
370
    30
100
AcDbEllipse
 10
684.220085
 20
254.80784
 30
0.0
 11
-35.0
 21
0.0
 31
0.0
210
0.0
220
0.0
230
1.0
 40
0.57735
 41
3.105300844854531
 42
3.141592644950107
  0
ELLIPSE
  5
228
330
1E9
100
AcDbEntity
  8
0
  6
Continuous
 62
     0
370
    30
100
AcDbEllipse
 10
684.220085
 20
254.80784
 30
0.0
 11
-35.0
 21
0.0
 31
0.0
210
0.0
220
0.0
230
1.0
 40
0.57735
 41
1.913030020683767
 42
3.105300844854531
  0
ELLIPSE
  5
229
330
1E9
100
AcDbEntity
  8
0
  6
Continuous
 62
     0
370
    30
100
AcDbEllipse
 10
684.220085
 20
261.339812
 30
0.0
 11
35.0
 21
0.0
 31
0.0
210
0.0
220
0.0
230
-1.0
 40
0.57735
 41
2.783222651708421
 42
3.177884462325055
  0
ELLIPSE
  5
22A
330
1E9
100
AcDbEntity
  8
0
  6
Continuous
 62
     0
370
    30
100
AcDbEllipse
 10
684.220085
 20
261.339812
 30
0.0
 11
35.0
 21
0.0
 31
0.0
210
0.0
220
0.0
230
-1.0
 40
0.57735
 41
0.0362918087352627
 42
1.604989957139339
  0
ELLIPSE
  5
22B
330
1E9
100
AcDbEntity
  8
0
  6
Continuous
 62
     0
370
    30
100
AcDbEllipse
 10
684.220085
 20
261.339812
 30
0.0
 11
35.0
 21
0.0
 31
0.0
210
0.0
220
0.0
230
-1.0
 40
0.57735
 41
5.187168980008572
 42
6.319477115914848
  0
ELLIPSE
  5
22C
330
1E9
100
AcDbEntity
  8
0
  6
Continuous
 62
     0
370
    30
100
AcDbEllipse
 10
684.220085
 20
261.339812
 30
0.0
 11
35.0
 21
0.0
 31
0.0
210
0.0
220
0.0
230
-1.0
 40
0.57735
 41
3.177884462325055
 42
4.23760883287755
  0
ELLIPSE
  5
22D
330
1E9
100
AcDbEntity
  8
0
  6
Continuous
 62
     0
370
    30
100
AcDbEllipse
 10
684.220083
 20
291.42771
 30
0.0
 11
16.0
 21
0.0
 31
0.0
210
0.0
220
0.0
230
-1.0
 40
0.57735
 41
5.787431877971909
 42
8.929024531561703
  0
ELLIPSE
  5
22E
330
1E9
100
AcDbEntity
  8
0
  6
Continuous
 62
     0
370
    30
100
AcDbEllipse
 10
684.220083
 20
291.42771
 30
0.0
 11
16.0
 21
0.0
 31
0.0
210
0.0
220
0.0
230
-1.0
 40
0.57735
 41
2.645839224382116
 42
5.787431877971909
  0
ELLIPSE
  5
22F
330
1E9
100
AcDbEntity
  8
0
  6
Continuous
 62
     0
370
    30
100
AcDbEllipse
 10
684.220083
 20
272.648289
 30
0.0
 11
-16.0
 21
0.0
 31
0.0
210
0.0
220
0.0
230
1.0
 40
0.57735
 41
-0.0000000086396863
 42
0.4957534292076788
  0
ELLIPSE
  5
230
330
1E9
100
AcDbEntity
  8
0
  6
Continuous
 62
     0
370
    30
100
AcDbEllipse
 10
684.220083
 20
272.648289
 30
0.0
 11
-16.0
 21
0.0
 31
0.0
210
0.0
220
0.0
230
1.0
 40
0.57735
 41
0.4957534292076788
 42
3.141592644950106
  0
ELLIPSE
  5
231
330
1E9
100
AcDbEntity
  8
0
  6
Continuous
 62
     0
370
    30
100
AcDbEllipse
 10
684.220087
 20
261.339813
 30
0.0
 11
-14.29999999999999
 21
0.0
 31
0.0
210
0.0
220
0.0
230
1.0
 40
0.57735
 41
-0.0000000086396872
 42
2.205376361346481
  0
ELLIPSE
  5
232
330
1E9
100
AcDbEntity
  8
0
  6
Continuous
 62
     0
370
    30
100
AcDbEllipse
 10
684.220087
 20
261.339813
 30
0.0
 11
-14.29999999999999
 21
0.0
 31
0.0
210
0.0
220
0.0
230
1.0
 40
0.57735
 41
2.205376361346481
 42
3.141592644950107
  0
ELLIPSE
  5
233
330
1E9
100
AcDbEntity
  8
0
  6
Continuous
 62
     0
370
     0
100
AcDbEllipse
 10
785.513126
 20
319.267336
 30
0.0
 11
0.9999999999999792
 21
2.126305582161873E-7
 31
0.0
210
0.0
220
0.0
230
-1.0
 40
0.57735
 41
5.497786962685028
 42
7.068583289479999
  0
LINE
  5
234
330
1E9
100
AcDbEntity
  8
0
  6
Continuous
 62
     0
370
     0
100
AcDbLine
 10
786.220233
 20
318.859088
 30
0.0
 11
786.220237
 21
303.328154
 31
0.0
  0
ELLIPSE
  5
235
330
1E9
100
AcDbEntity
  8
0
  6
Continuous
 62
     0
370
     0
100
AcDbEllipse
 10
820.997535
 20
351.822739
 30
0.0
 11
0.6052029913635563
 21
-0.7960711898094364
 31
0.0
210
0.0
220
0.0
230
1.0
 40
0.479925
 41
0.0000000281104127
 42
0.7182813453307659
  0
LINE
  5
236
330
1E9
100
AcDbEntity
  8
0
  6
Continuous
 62
     0
370
     0
100
AcDbLine
 10
821.704642
 20
351.414491
 30
0.0
 11
790.992159
 21
328.065717
 31
0.0
  0
ELLIPSE
  5
237
330
1E9
100
AcDbEntity
  8
0
  6
Continuous
 62
     0
370
     0
100
AcDbEllipse
 10
790.285052
 20
328.473965
 30
0.0
 11
-0.6052029913635563
 21
0.7960711898094364
 31
0.0
210
0.0
220
0.0
230
-1.0
 40
0.479925
 41
2.423311308259172
 42
3.828752577646641
  0
ARC
  5
238
330
1E9
100
AcDbEntity
  8
0
  6
Continuous
 62
     0
370
     0
100
AcDbCircle
 10
798.871689
 20
318.141652
 30
0.0
 40
12.67178185061138
100
AcDbArc
 50
128.448948
 51
176.754362
  0
ARC
  5
239
330
1E9
100
AcDbEntity
  8
0
  6
Continuous
 62
     0
370
     0
100
AcDbCircle
 10
819.43907
 20
355.001959
 30
0.0
 40
4.242963854675786
100
AcDbArc
 50
302.273386
 51
5.423756
  0
LINE
  5
23A
330
1E9
100
AcDbEntity
  8
0
  6
Continuous
 62
     0
370
     0
100
AcDbLine
 10
790.930323
 20
371.168872
 30
0.0
 11
730.24818
 21
325.036045
 31
0.0
  0
ARC
  5
23B
330
1E9
100
AcDbEntity
  8
0
  6
Continuous
 62
     0
370
     0
100
AcDbCircle
 10
731.652915
 20
322.198595
 30
0.0
 40
3.166134155248059
100
AcDbArc
 50
116.338621
 51
243.661434
  0
LINE
  5
23C
330
1E9
100
AcDbEntity
  8
0
  6
Continuous
 62
     0
370
     0
100
AcDbLine
 10
730.248182
 20
319.361143
 30
0.0
 11
751.461392
 21
307.113698
 31
0.0
  0
ARC
  5
23D
330
1E9
100
AcDbEntity
  8
0
  6
Continuous
 62
     0
370
     0
100
AcDbCircle
 10
755.051665
 20
314.635776
 30
0.0
 40
8.33496931464224
100
AcDbArc
 50
244.484953
 51
305.964634
  0
LINE
  5
23E
330
1E9
100
AcDbEntity
  8
0
  6
Continuous
 62
     0
370
     0
100
AcDbLine
 10
759.946674
 20
307.889622
 30
0.0
 11
820.628816
 21
354.022449
 31
0.0
  0
ARC
  5
23F
330
1E9
100
AcDbEntity
  8
0
  6
Continuous
 62
     0
370
     0
100
AcDbCircle
 10
819.211129
 20
356.828056
 30
0.0
 40
3.143448865446481
100
AcDbArc
 50
296.807697
 51
64.224619
  0
LINE
  5
240
330
1E9
100
AcDbEntity
  8
0
  6
Continuous
 62
     0
370
     0
100
AcDbLine
 10
820.57804
 20
359.65875
 30
0.0
 11
799.36483
 21
371.906195
 31
0.0
  0
ARC
  5
241
330
1E9
100
AcDbEntity
  8
0
  6
Continuous
 62
     0
370
     0
100
AcDbCircle
 10
795.767114
 20
364.450416
 30
0.0
 40
8.278417001528567
100
AcDbArc
 50
64.240803
 51
125.751099
  0
LINE
  5
242
330
1E9
100
AcDbEntity
  8
0
  6
Continuous
 62
     0
370
     0
100
AcDbLine
 10
729.651694
 20
309.165579
 30
0.0
 11
729.651692
 21
318.210315
 31
0.0
  0
ARC
  5
243
330
1E9
100
AcDbEntity
  8
0
  6
Continuous
 62
     0
370
     0
100
AcDbCircle
 10
731.138629
 20
321.399567
 30
0.0
 40
3.518851591759228
100
AcDbArc
 50
173.228008
 51
245.00348
  0
LINE
  5
244
330
1E9
100
AcDbEntity
  8
0
  6
Continuous
 62
     0
370
     0
100
AcDbLine
 10
750.864904
 20
296.918134
 30
0.0
 11
750.864902
 21
305.96287
 31
0.0
  0
LINE
  5
245
330
1E9
100
AcDbEntity
  8
0
  6
Continuous
 62
     0
370
     0
100
AcDbLine
 10
750.864902
 20
305.96287
 30
0.0
 11
729.651692
 21
318.210315
 31
0.0
  0
LINE
  5
246
330
1E9
100
AcDbEntity
  8
0
  6
Continuous
 62
     0
370
     0
100
AcDbLine
 10
760.764399
 20
294.663462
 30
0.0
 11
760.764396
 21
306.738793
 31
0.0
  0
ARC
  5
247
330
1E9
100
AcDbEntity
  8
0
  6
Continuous
 62
     0
370
     0
100
AcDbCircle
 10
755.149252
 20
314.840182
 30
0.0
 40
9.857096230814953
100
AcDbArc
 50
244.237208
 51
304.72617
  0
LINE
  5
248
330
1E9
100
AcDbEntity
  8
0
  6
Continuous
 62
     0
370
     0
100
AcDbLine
 10
821.704642
 20
351.414491
 30
0.0
 11
821.446539
 21
352.87162
 31
0.0
  0
LINE
  5
249
330
1E9
100
AcDbEntity
  8
0
  6
Continuous
 62
     0
370
     0
100
AcDbLine
 10
821.446539
 20
352.87162
 30
0.0
 11
760.764396
 21
306.738793
 31
0.0
  0
LWPOLYLINE
  5
24A
330
1E9
100
AcDbEntity
  8
0
  6
Continuous
 62
     0
370
     0
100
AcDbPolyline
 90
       16
 70
     0
 43
0.0
 10
821.383911
 20
359.466522
 10
821.86969
 20
359.149536
 10
822.2995
 20
358.793213
 10
822.668396
 20
358.402557
 10
822.971375
 20
357.982544
 10
823.203491
 20
357.538147
 10
823.360474
 20
357.074371
 10
823.441406
 20
356.596222
 10
823.44635
 20
356.108795
 10
823.375244
 20
355.617065
 10
823.228149
 20
355.12616
 10
823.005798
 20
354.641174
 10
822.712097
 20
354.167816
 10
822.35199
 20
353.711945
 10
821.93042
 20
353.279358
 10
821.446533
 20
352.871613
  0
ELLIPSE
  5
24B
330
1E9
100
AcDbEntity
  8
0
  6
Continuous
 62
     0
370
     0
100
AcDbEllipse
 10
791.040938
 20
370.426292
 30
0.0
 11
0.6052029913635613
 21
-0.7960711898094335
 31
0.0
210
0.0
220
0.0
230
1.0
 40
0.479925
 41
2.289077672125555
 42
3.14159268170019
  0
ELLIPSE
  5
24C
330
1E9
100
AcDbEntity
  8
0
  6
Continuous
 62
     0
370
     0
100
AcDbEllipse
 10
730.358796
 20
324.293465
 30
0.0
 11
-0.6052029913635613
 21
0.7960711898094335
 31
0.0
210
0.0
220
0.0
230
-1.0
 40
0.479925
 41
5.564903961849248
 42
7.135700288643866
  0
ARC
  5
24D
330
1E9
100
AcDbEntity
  8
0
  6
Continuous
 62
     0
370
     0
100
AcDbCircle
 10
799.76382
 20
371.504387
 30
0.0
 40
0.5662532822016118
100
AcDbArc
 50
68.055352
 51
134.798437
  0
ELLIPSE
  5
24E
330
1E9
100
AcDbEntity
  8
0
  6
Continuous
 62
     0
370
     0
100
AcDbEllipse
 10
820.688655
 20
358.91617
 30
0.0
 11
-0.4999997721054699
 21
-0.8660255353593614
 31
0.0
210
0.0
220
0.0
230
-1.0
 40
0.57735
 41
2.199115009442502
 42
3.7435209748259
  0
ARC
  5
24F
330
1E9
100
AcDbEntity
  8
0
  6
Continuous
 62
     0
370
     0
100
AcDbCircle
 10
819.65346
 20
352.463476
 30
0.0
 40
1.838943843481593
100
AcDbArc
 50
12.823287
 51
57.968231
  0
ELLIPSE
  5
250
330
1E9
100
AcDbEntity
  8
0
  6
Continuous
 62
     0
370
     0
100
AcDbEllipse
 10
760.057289
 20
307.147042
 30
0.0
 11
-0.6052029913635472
 21
0.7960711898094318
 31
0.0
210
0.0
220
0.0
230
-1.0
 40
0.479925
 41
0.8525149814643045
 42
2.423311308259999
  0
ARC
  5
251
330
1E9
100
AcDbEntity
  8
0
  6
Continuous
 62
     0
370
     0
100
AcDbCircle
 10
752.446334
 20
305.87319
 30
0.0
 40
1.583972772454504
100
AcDbArc
 50
128.448949
 51
176.754362
  0
ELLIPSE
  5
252
330
1E9
100
AcDbEntity
  8
0
  6
Continuous
 62
     0
370
     0
100
AcDbEllipse
 10
730.358798
 20
318.618563
 30
0.0
 11
0.4999997721054712
 21
0.8660255353593684
 31
0.0
210
0.0
220
0.0
230
1.0
 40
0.57735
 41
0.9424776441472824
 42
2.356194583787292
  0
ARC
  5
253
330
1E9
100
AcDbEntity
  8
0
  6
Continuous
 62
     0
370
    30
100
AcDbCircle
 10
770.637872
 20
306.357335
 30
0.0
 40
10.41657216184549
100
AcDbArc
 50
278.24336
 51
301.133695
  0
LINE
  5
254
330
1E9
100
AcDbEntity
  8
0
  6
Continuous
 62
     0
370
    30
100
AcDbLine
 10
776.023623
 20
297.441133
 30
0.0
 11
786.220237
 21
303.328154
 31
0.0
  0
LINE
  5
255
330
1E9
100
AcDbEntity
  8
0
  6
Continuous
 62
     0
370
    30
100
AcDbLine
 10
760.764399
 20
294.663462
 30
0.0
 11
772.131378
 21
296.048387
 31
0.0
  0
ELLIPSE
  5
256
330
1E9
100
AcDbEntity
  8
0
  6
Continuous
 62
     0
370
    30
100
AcDbEllipse
 10
785.51313
 20
303.736402
 30
0.0
 11
-0.9999999999999792
 21
-2.126305582161873E-7
 31
0.0
210
0.0
220
0.0
230
1.0
 40
0.57735
 41
2.356194671288664
 42
3.14159264495011
  0
LWPOLYLINE
  5
257
330
1E9
100
AcDbEntity
  8
0
  6
Continuous
 62
     0
370
    30
100
AcDbPolyline
 90
       17
 70
     0
 43
0.0
 10
729.651672
 20
312.626373
 10
729.212341
 20
312.557434
 10
728.818604
 20
312.463684
 10
728.473694
 20
312.34613
 10
728.180786
 20
312.205688
 10
727.943176
 20
312.043335
 10
727.764587
 20
311.859558
 10
727.648926
 20
311.654816
 10
727.600098
 20
311.429565
 10
727.621948
 20
311.184265
 10
727.715759
 20
310.920715
 10
727.879028
 20
310.64267
 10
728.108887
 20
310.354126
 10
728.402466
 20
310.059052
 10
728.756897
 20
309.761383
 10
729.16925
 20
309.465118
 10
729.651672
 20
309.165588
  0
LINE
  5
258
330
1E9
100
AcDbEntity
  8
0
  6
Continuous
 62
     0
370
    30
100
AcDbLine
 10
729.651694
 20
309.165579
 30
0.0
 11
750.864904
 21
296.918134
 31
0.0
  0
ARC
  5
259
330
1E9
100
AcDbEntity
  8
0
  6
Continuous
 62
     0
370
    30
100
AcDbCircle
 10
759.810387
 20
313.33471
 30
0.0
 40
18.69560493115936
100
AcDbArc
 50
241.413787
 51
272.924997
  0
ELLIPSE
  5
25A
330
1E9
100
AcDbEntity
  8
0
  6
Continuous
 62
     0
370
    30
100
AcDbEllipse
 10
754.930763
 20
295.632669
 30
0.0
 11
-35.0
 21
1.942890293094024E-15
 31
0.0
210
0.0
220
0.0
230
1.0
 40
0.57735
 41
-0.0000000086396863
 42
0.7689051548664079
  0
ELLIPSE
  5
25B
330
1E9
100
AcDbEntity
  8
0
  6
Continuous
 62
     0
370
    30
100
AcDbEllipse
 10
754.930763
 20
295.632669
 30
0.0
 11
-35.0
 21
1.942890293094024E-15
 31
0.0
210
0.0
220
0.0
230
1.0
 40
0.57735
 41
0.7689051548664079
 42
3.141592644950105
  0
ELLIPSE
  5
25C
330
1E9
100
AcDbEntity
  8
0
  6
Continuous
 62
     0
370
    30
100
AcDbEllipse
 10
754.930763
 20
302.164641
 30
0.0
 11
35.0
 21
-1.942890293094024E-15
 31
0.0
210
0.0
220
0.0
230
-1.0
 40
0.57735
 41
5.837587757903052
 42
8.655872805902971
  0
ELLIPSE
  5
25D
330
1E9
100
AcDbEntity
  8
0
  6
Continuous
 62
     0
370
    30
100
AcDbEllipse
 10
754.930763
 20
302.164641
 30
0.0
 11
35.0
 21
-1.942890293094024E-15
 31
0.0
210
0.0
220
0.0
230
-1.0
 40
0.57735
 41
2.372687498723386
 42
3.816383184997369
  0
ELLIPSE
  5
25E
330
1E9
100
AcDbEntity
  8
0
  6
Continuous
 62
     0
370
    30
100
AcDbEllipse
 10
853.925713
 20
359.156103
 30
0.0
 11
35.0
 21
0.0
 31
0.0
210
0.0
220
0.0
230
-1.0
 40
0.57735
 41
5.153712352104632
 42
5.75788805429892
  0
ELLIPSE
  5
25F
330
1E9
100
AcDbEntity
  8
0
  6
Continuous
 62
     0
370
    30
100
AcDbEllipse
 10
853.925713
 20
359.156103
 30
0.0
 11
35.0
 21
0.0
 31
0.0
210
0.0
220
0.0
230
-1.0
 40
0.57735
 41
3.233169320152191
 42
4.300224002546486
  0
ELLIPSE
  5
260
330
1E9
100
AcDbEntity
  8
0
  6
Continuous
 62
     0
370
    30
100
AcDbEllipse
 10
853.925713
 20
359.156103
 30
0.0
 11
35.0
 21
0.0
 31
0.0
210
0.0
220
0.0
230
-1.0
 40
0.57735
 41
2.616295400709127
 42
2.735029221098477
  0
ELLIPSE
  5
261
330
1E9
100
AcDbEntity
  8
0
  6
Continuous
 62
     0
370
    30
100
AcDbEllipse
 10
853.925713
 20
359.156103
 30
0.0
 11
35.0
 21
0.0
 31
0.0
210
0.0
220
0.0
230
-1.0
 40
0.57735
 41
5.75788805429892
 42
8.899480707888713
  0
ELLIPSE
  5
262
330
1E9
100
AcDbEntity
  8
0
  6
Continuous
 62
     0
370
    30
100
AcDbEllipse
 10
853.925713
 20
352.950729
 30
0.0
 11
-35.0
 21
0.0
 31
0.0
210
0.0
220
0.0
230
1.0
 40
0.57735
 41
0.5252972528806668
 42
3.141592644950107
  0
ELLIPSE
  5
263
330
1E9
100
AcDbEntity
  8
0
  6
Continuous
 62
     0
370
    30
100
AcDbEllipse
 10
853.925713
 20
352.950729
 30
0.0
 11
-35.0
 21
0.0
 31
0.0
210
0.0
220
0.0
230
1.0
 40
0.57735
 41
0.1764090421248543
 42
0.5252972528806659
  0
ELLIPSE
  5
264
330
1E9
100
AcDbEntity
  8
0
  6
Continuous
 62
     0
370
    30
100
AcDbEllipse
 10
853.925713
 20
299.894782
 30
0.0
 11
-14.9999923706053
 21
0.0
 31
0.0
210
0.0
220
0.0
230
1.0
 40
0.57735
 41
1.641899751701467
 42
3.141592644950106
  0
ELLIPSE
  5
265
330
1E9
100
AcDbEntity
  8
0
  6
Continuous
 62
     0
370
    30
100
AcDbEllipse
 10
853.925713
 20
299.894782
 30
0.0
 11
-14.9999923706053
 21
0.0
 31
0.0
210
0.0
220
0.0
230
1.0
 40
0.57735
 41
-0.0000000086396854
 42
1.641899751701467
  0
ELLIPSE
  5
266
330
1E9
100
AcDbEntity
  8
0
  6
Continuous
 62
     0
370
    30
100
AcDbEllipse
 10
853.925713
 20
359.156103
 30
0.0
 11
13.9999923706053
 21
-7.771556937211267E-16
 31
0.0
210
0.0
220
0.0
230
-1.0
 40
0.57735
 41
0.0000000086396859
 42
1.499692901888328
  0
ELLIPSE
  5
267
330
1E9
100
AcDbEntity
  8
0
  6
Continuous
 62
     0
370
    30
100
AcDbEllipse
 10
853.925713
 20
359.156103
 30
0.0
 11
13.9999923706053
 21
-7.771556937211267E-16
 31
0.0
210
0.0
220
0.0
230
-1.0
 40
0.57735
 41
1.499692901888328
 42
3.141592662229479
  0
ELLIPSE
  5
268
330
1E9
100
AcDbEntity
  8
0
  6
Continuous
 62
     0
370
    30
100
AcDbEllipse
 10
872.772862
 20
466.797414
 30
0.0
 11
-3.000963406147356
 21
-5.195596080813488
 31
0.0
210
0.0
220
0.0
230
-1.0
 40
0.577474
 41
3.926883754670974
 42
5.497680081465837
  0
LINE
  5
269
330
1E9
100
AcDbEntity
  8
0
  6
Continuous
 62
     0
370
     0
100
AcDbLine
 10
867.117219
 20
458.634545
 30
0.0
 11
867.117219
 21
368.818524
 31
0.0
  0
LINE
  5
26A
330
1E9
100
AcDbEntity
  8
0
  6
Continuous
 62
     0
370
     0
100
AcDbLine
 10
861.11476
 20
456.802103
 30
0.0
 11
858.630121
 21
455.36821
 31
0.0
  0
LINE
  5
26B
330
1E9
100
AcDbEntity
  8
0
  6
Continuous
 62
     0
370
     0
100
AcDbLine
 10
858.630121
 20
455.36821
 30
0.0
 11
858.630121
 21
363.920593
 31
0.0
  0
LINE
  5
26C
330
1E9
100
AcDbEntity
  8
0
  6
Continuous
 62
     0
370
    30
100
AcDbLine
 10
858.630121
 20
363.920593
 30
0.0
 11
867.117219
 21
368.818524
 31
0.0
  0
ELLIPSE
  5
26D
330
1E9
100
AcDbEntity
  8
0
  6
Continuous
 62
     0
370
     0
100
AcDbEllipse
 10
862.871854
 20
452.918196
 30
0.0
 11
-2.999036696969537
 21
5.196708466926932
 31
0.0
210
0.0
220
0.0
230
-1.0
 40
0.577227
 41
5.497680127295577
 42
6.114758920058702
  0
LINE
  5
26E
330
1E9
100
AcDbEntity
  8
0
  6
Continuous
 62
     0
370
    30
100
AcDbLine
 10
872.772862
 20
461.898435
 30
0.0
 11
864.285765
 21
457.000504
 31
0.0
  0
ELLIPSE
  5
26F
330
1E9
100
AcDbEntity
  8
0
  6
Continuous
 62
     0
370
    30
100
AcDbEllipse
 10
864.285765
 20
461.899484
 30
0.0
 11
-3.000963406147357
 21
-5.195596080813488
 31
0.0
210
0.0
220
0.0
230
-1.0
 40
0.577474
 41
5.497680081465854
 42
7.06847640826072
  0
LINE
  5
270
330
1E9
100
AcDbEntity
  8
0
  6
Continuous
 62
     0
370
     0
100
AcDbLine
 10
860.042216
 20
459.450518
 30
0.0
 11
858.628305
 21
460.26719
 31
0.0
  0
ELLIPSE
  5
271
330
1E9
100
AcDbEntity
  8
0
  6
Continuous
 62
     0
370
     0
100
AcDbEllipse
 10
862.871854
 20
462.716155
 30
0.0
 11
3.000963406147357
 21
5.195596080813488
 31
0.0
210
0.0
220
0.0
230
1.0
 40
0.577474
 41
2.356301552508661
 42
3.141592630741487
  0
ARC
  5
272
330
1E9
100
AcDbEntity
  8
0
  6
Continuous
 62
     0
370
     0
100
AcDbCircle
 10
854.388515
 20
463.731815
 30
0.0
 40
9.377692546635082
100
AcDbArc
 50
243.093966
 51
296.89187
  0
LWPOLYLINE
  5
273
330
1E9
100
AcDbEntity
  8
0
  6
Continuous
 62
     0
370
     0
100
AcDbPolyline
 90
       22
 70
     0
 43
0.0
 10
858.628296
 20
460.267181
 10
858.050598
 20
460.578125
 10
857.460571
 20
460.848389
 10
856.862366
 20
461.072571
 10
856.260498
 20
461.245453
 10
855.660217
 20
461.362305
 10
855.067017
 20
461.419037
 10
854.486511
 20
461.412415
 10
853.924683
 20
461.340088
 10
853.387146
 20
461.200928
 10
852.879395
 20
460.994965
 10
852.406433
 20
460.72345
 10
851.972656
 20
460.388977
 10
851.581726
 20
459.995117
 10
851.236389
 20
459.546539
 10
850.938538
 20
459.048828
 10
850.689209
 20
458.508118
 10
850.488403
 20
457.930969
 10
850.335388
 20
457.324249
 10
850.228638
 20
456.694702
 10
850.166016
 20
456.049011
 10
850.144836
 20
455.369263
  0
LINE
  5
274
330
1E9
100
AcDbEntity
  8
0
  6
Continuous
 62
     0
370
     0
100
AcDbLine
 10
850.14484
 20
455.369259
 30
0.0
 11
850.14484
 21
363.921642
 31
0.0
  0
LINE
  5
275
330
1E9
100
AcDbEntity
  8
0
  6
Continuous
 62
     0
370
    30
100
AcDbLine
 10
860.042216
 20
459.450518
 30
0.0
 11
860.042216
 21
498.642354
 31
0.0
  0
LINE
  5
276
330
1E9
100
AcDbEntity
  8
0
  6
Continuous
 62
     0
370
     0
100
AcDbLine
 10
860.042216
 20
498.642354
 30
0.0
 11
841.661376
 21
509.259082
 31
0.0
  0
LINE
  5
277
330
1E9
100
AcDbEntity
  8
0
  6
Continuous
 62
     0
370
     0
100
AcDbLine
 10
841.661376
 20
509.259082
 30
0.0
 11
841.661376
 21
368.82167
 31
0.0
  0
LINE
  5
278
330
1E9
100
AcDbEntity
  8
0
  6
Continuous
 62
     0
370
    30
100
AcDbLine
 10
841.661376
 20
368.82167
 30
0.0
 11
850.14484
 21
363.921642
 31
0.0
  0
ELLIPSE
  5
279
330
1E9
100
AcDbEntity
  8
0
  6
Continuous
 62
     0
370
     0
100
AcDbEllipse
 10
845.904924
 20
511.708047
 30
0.0
 11
6.000000000000002
 21
0.0
 31
0.0
210
0.0
220
0.0
230
-1.0
 40
0.57735
 41
2.356408568990291
 42
3.141714048963745
  0
ELLIPSE
  5
27A
330
1E9
100
AcDbEntity
  8
0
  6
Continuous
 62
     0
370
    30
100
AcDbEllipse
 10
864.285765
 20
501.09132
 30
0.0
 11
-3.000963406147356
 21
-5.195596080813488
 31
0.0
210
0.0
220
0.0
230
-1.0
 40
0.577474
 41
0.7852911010811549
 42
2.356087427876053
  0
LINE
  5
27B
330
1E9
100
AcDbEntity
  8
0
  6
Continuous
 62
     0
370
     0
100
AcDbLine
 10
864.285765
 20
505.990299
 30
0.0
 11
845.904924
 21
516.607027
 31
0.0
  0
ELLIPSE
  5
27C
330
1E9
100
AcDbEntity
  8
0
  6
Continuous
 62
     0
370
     0
100
AcDbEllipse
 10
845.904924
 20
511.708047
 30
0.0
 11
3.000963406147356
 21
5.195596080813488
 31
0.0
210
0.0
220
0.0
230
1.0
 40
0.577474
 41
0.7855052257137327
 42
2.356301552508635
  0
ARC
  5
27D
330
1E9
100
AcDbEntity
  8
0
  6
Continuous
 62
     0
370
     0
100
AcDbCircle
 10
844.146705
 20
514.149984
 30
0.0
 40
3.021323173716852
100
AcDbArc
 50
54.413109
 51
114.247985
  0
LINE
  5
27E
330
1E9
100
AcDbEntity
  8
0
  6
Continuous
 62
     0
370
     0
100
AcDbLine
 10
845.904924
 20
516.607027
 30
0.0
 11
854.392022
 21
521.504957
 31
0.0
  0
ELLIPSE
  5
27F
330
1E9
100
AcDbEntity
  8
0
  6
Continuous
 62
     0
370
     0
100
AcDbEllipse
 10
854.392022
 20
516.605978
 30
0.0
 11
2.999036696969537
 21
-5.196708466926931
 31
0.0
210
0.0
220
0.0
230
1.0
 40
0.577227
 41
2.356301506678905
 42
3.141592685077792
  0
LINE
  5
280
330
1E9
100
AcDbEntity
  8
0
  6
Continuous
 62
     0
370
    30
100
AcDbLine
 10
864.285765
 20
505.990299
 30
0.0
 11
872.772862
 21
510.88823
 31
0.0
  0
LINE
  5
281
330
1E9
100
AcDbEntity
  8
0
  6
Continuous
 62
     0
370
     0
100
AcDbLine
 10
872.772862
 20
510.88823
 30
0.0
 11
854.392022
 21
521.504957
 31
0.0
  0
ELLIPSE
  5
282
330
1E9
100
AcDbEntity
  8
0
  6
Continuous
 62
     0
370
    30
100
AcDbEllipse
 10
872.772862
 20
505.98925
 30
0.0
 11
-3.000963406147356
 21
-5.195596080813488
 31
0.0
210
0.0
220
0.0
230
-1.0
 40
0.577474
 41
2.356087427876053
 42
3.926883754670959
  0
ELLIPSE
  5
283
330
1E9
100
AcDbEntity
  8
0
  6
Continuous
 62
     0
370
     0
100
AcDbEllipse
 10
854.392022
 20
516.605978
 30
0.0
 11
3.000963406147356
 21
5.195596080813488
 31
0.0
210
0.0
220
0.0
230
1.0
 40
0.577474
 41
-0.0000000228483055
 42
0.7855052257137398
  0
LINE
  5
284
330
1E9
100
AcDbEntity
  8
0
  6
Continuous
 62
     0
370
    30
100
AcDbLine
 10
877.016411
 20
469.24638
 30
0.0
 11
877.016411
 21
508.438216
 31
0.0
  0
LWPOLYLINE
  5
285
330
1E9
100
AcDbEntity
  8
0
  6
Continuous
 62
     0
370
    30
100
AcDbPolyline
 90
       18
 70
     0
 43
0.0
 10
735.555359
 20
305.75708
 10
735.211975
 20
305.068237
 10
734.939941
 20
304.362396
 10
734.742554
 20
303.64325
 10
734.622314
 20
302.914795
 10
734.580811
 20
302.181183
 10
734.618774
 20
301.446716
 10
734.736145
 20
300.715637
 10
734.931641
 20
299.992249
 10
735.203369
 20
299.28067
 10
735.548401
 20
298.584747
 10
735.963196
 20
297.908112
 10
736.44342
 20
297.254089
 10
736.984253
 20
296.625549
 10
737.580383
 20
296.024933
 10
738.226318
 20
295.454346
 10
738.916199
 20
294.915375
 10
739.645874
 20
294.40802
  0
LWPOLYLINE
  5
286
330
1E9
100
AcDbEntity
  8
0
  6
Continuous
 62
     0
370
    30
100
AcDbPolyline
 90
       26
 70
     0
 43
0.0
 10
742.569092
 20
292.831696
 10
743.622864
 20
292.396423
 10
744.745911
 20
291.99292
 10
745.934448
 20
291.626007
 10
747.183594
 20
291.300262
 10
748.487
 20
291.020111
 10
749.837341
 20
290.78952
 10
751.226013
 20
290.611908
 10
752.643616
 20
290.48999
 10
754.080017
 20
290.425842
 10
755.524597
 20
290.420563
 10
756.966431
 20
290.474487
 10
758.394653
 20
290.587006
 10
759.798706
 20
290.756683
 10
761.168701
 20
290.981171
 10
762.4953
 20
291.257446
 10
763.770325
 20
291.581879
 10
764.986755
 20
291.950287
 10
766.13855
 20
292.358063
 10
767.221252
 20
292.800415
 10
768.231384
 20
293.2724
 10
769.16687
 20
293.769073
 10
770.028137
 20
294.28656
 10
770.841858
 20
294.839813
 10
771.611755
 20
295.434906
 10
772.334961
 20
296.075989
  0
LINE
  5
287
330
1E9
100
AcDbEntity
  8
0
  6
Continuous
 62
     0
370
    30
100
AcDbLine
 10
739.64588
 20
294.408035
 30
0.0
 11
742.569122
 21
292.831683
 31
0.0
  0
LINE
  5
288
330
1E9
100
AcDbEntity
  8
0
  6
Continuous
 62
     0
370
    30
100
AcDbLine
 10
739.64588
 20
294.408035
 30
0.0
 11
739.673067
 21
294.833089
 31
0.0
  0
LINE
  5
289
330
1E9
100
AcDbEntity
  8
0
  6
Continuous
 62
     0
370
    30
100
AcDbLine
 10
739.673067
 20
294.833089
 30
0.0
 11
742.596309
 21
293.256737
 31
0.0
  0
LINE
  5
28A
330
1E9
100
AcDbEntity
  8
0
  6
Continuous
 62
     0
370
    30
100
AcDbLine
 10
742.596309
 20
293.256737
 30
0.0
 11
742.569122
 21
292.831683
 31
0.0
  0
ELLIPSE
  5
28B
330
1E9
100
AcDbEntity
  8
0
  6
Continuous
 62
     0
370
    30
100
AcDbEllipse
 10
853.925713
 20
371.501532
 30
0.0
 11
13.9999923706053
 21
-7.771556937211267E-16
 31
0.0
210
0.0
220
0.0
230
-1.0
 40
0.57735
 41
0.34293066465079
 42
1.228276275750356
  0
ELLIPSE
  5
28C
330
1E9
100
AcDbEntity
  8
0
  6
Continuous
 62
     0
370
    30
100
AcDbEllipse
 10
853.925713
 20
371.501532
 30
0.0
 11
13.9999923706053
 21
-7.771556937211267E-16
 31
0.0
210
0.0
220
0.0
230
-1.0
 40
0.57735
 41
1.80276923174346
 42
1.811081271734931
  0
ELLIPSE
  5
28D
330
1E9
100
AcDbEntity
  8
0
  6
Continuous
 62
     0
370
    30
100
AcDbEllipse
 10
854.388389
 20
366.370607
 30
0.0
 11
-6.000000000000002
 21
0.0
 31
0.0
210
0.0
220
0.0
230
1.0
 40
0.57735
 41
0.7851840845995071
 42
0.8861543388915756
  0
ELLIPSE
  5
28E
330
1E9
100
AcDbEntity
  8
0
  6
Continuous
 62
     0
370
    30
100
AcDbEllipse
 10
854.388389
 20
366.370607
 30
0.0
 11
-6.000000000000002
 21
0.0
 31
0.0
210
0.0
220
0.0
230
1.0
 40
0.57735
 41
0.8861543388915756
 42
2.355980411394389
  0
ELLIPSE
  5
28F
330
1E9
100
AcDbEntity
  8
0
  6
Continuous
 62
     0
370
    30
100
AcDbEllipse
 10
853.925713
 20
371.501532
 30
0.0
 11
13.9999923706053
 21
-7.771556937211267E-16
 31
0.0
210
0.0
220
0.0
230
-1.0
 40
0.57735
 41
1.811081271734931
 42
3.083971019188046
  0
ELLIPSE
  5
290
330
1E9
100
AcDbEntity
  8
0
  6
Continuous
 62
     0
370
    30
100
AcDbEllipse
 10
845.904924
 20
371.270635
 30
0.0
 11
-6.000000000000002
 21
0.0
 31
0.0
210
0.0
220
0.0
230
1.0
 40
0.57735
 41
-0.000000008639689
 42
0.0576216344017491
  0
ELLIPSE
  5
291
330
1E9
100
AcDbEntity
  8
0
  6
Continuous
 62
     0
370
    30
100
AcDbEllipse
 10
845.904924
 20
371.270635
 30
0.0
 11
-6.000000000000002
 21
0.0
 31
0.0
210
0.0
220
0.0
230
1.0
 40
0.57735
 41
0.0576216344017491
 42
0.7851840845995035
  0
ELLIPSE
  5
292
330
1E9
100
AcDbEntity
  8
0
  6
Continuous
 62
     0
370
    30
100
AcDbEllipse
 10
862.875487
 20
371.268538
 30
0.0
 11
-6.000000000000002
 21
0.0
 31
0.0
210
0.0
220
0.0
230
1.0
 40
0.57735
 41
2.355980411394401
 42
3.141592644950109
  0
ARC
  5
293
330
1E9
100
AcDbEntity
  8
0
  6
Continuous
 62
     0
370
    30
100
AcDbCircle
 10
854.392021
 20
516.600866
 30
0.0
 40
6.004427488452877
100
AcDbArc
 50
60.013764
 51
119.964992
  0
LINE
  5
294
330
1E9
100
AcDbEntity
  8
0
  6
Continuous
 62
     0
370
    30
100
AcDbLine
 10
875.773826
 20
511.184846
 30
0.0
 11
857.392986
 21
521.801574
 31
0.0
  0
LINE
  5
295
330
1E9
100
AcDbEntity
  8
0
  6
Continuous
 62
     0
370
    30
100
AcDbLine
 10
851.392985
 20
521.802686
 30
0.0
 11
842.905888
 21
516.904756
 31
0.0
  0
ARC
  5
296
330
1E9
100
AcDbEntity
  8
0
  6
Continuous
 62
     0
370
    30
100
AcDbCircle
 10
845.909338
 20
511.705499
 30
0.0
 40
6.00441380409624
100
AcDbArc
 50
120.013697
 51
179.975682
  0
LINE
  5
297
330
1E9
100
AcDbEntity
  8
0
  6
Continuous
 62
     0
370
    30
100
AcDbLine
 10
839.904924
 20
371.270635
 30
0.0
 11
839.904924
 21
511.708047
 31
0.0
  0
ARC
  5
298
330
1E9
100
AcDbEntity
  8
0
  6
Continuous
 62
     0
370
    30
100
AcDbCircle
 10
858.439729
 20
455.302675
 30
0.0
 40
2.639551522254762
100
AcDbArc
 50
57.166565
 51
77.03242
  0
LINE
  5
299
330
1E9
100
AcDbEntity
  8
0
  6
Continuous
 62
     0
370
    30
100
AcDbLine
 10
861.284801
 20
456.703888
 30
0.0
 11
859.87089
 21
457.520559
 31
0.0
  0
LINE
  5
29A
330
1E9
100
AcDbEntity
  8
0
  6
Continuous
 62
     0
370
    30
100
AcDbLine
 10
868.875487
 20
371.268538
 30
0.0
 11
868.875487
 21
459.649247
 31
0.0
  0
LINE
  5
29B
330
1E9
100
AcDbEntity
  8
0
  6
Continuous
 62
     0
370
    30
100
AcDbLine
 10
868.925705
 20
299.894782
 30
0.0
 11
868.925705
 21
334.693307
 31
0.0
  0
LINE
  5
29C
330
1E9
100
AcDbEntity
  8
0
  6
Continuous
 62
     0
370
    30
100
AcDbLine
 10
838.92572
 20
299.894782
 30
0.0
 11
838.92572
 21
334.693307
 31
0.0
  0
LINE
  5
29D
330
1E9
100
AcDbEntity
  8
0
  6
Continuous
 62
     0
370
    30
100
AcDbLine
 10
867.925705
 20
359.156103
 30
0.0
 11
867.925705
 21
369.398128
 31
0.0
  0
LINE
  5
29E
330
1E9
100
AcDbEntity
  8
0
  6
Continuous
 62
     0
370
    30
100
AcDbLine
 10
839.92572
 20
359.156103
 30
0.0
 11
839.92572
 21
371.270635
 31
0.0
  0
LINE
  5
29F
330
1E9
100
AcDbEntity
  8
0
  6
Continuous
 62
     0
370
    30
100
AcDbLine
 10
888.925713
 20
352.950729
 30
0.0
 11
888.925713
 21
359.156103
 31
0.0
  0
LINE
  5
2A0
330
1E9
100
AcDbEntity
  8
0
  6
Continuous
 62
     0
370
    30
100
AcDbLine
 10
735.14263
 20
305.995387
 30
0.0
 11
734.603592
 21
302.721006
 31
0.0
  0
LINE
  5
2A1
330
1E9
100
AcDbEntity
  8
0
  6
Continuous
 62
     0
370
    30
100
AcDbLine
 10
719.930763
 20
295.632669
 30
0.0
 11
719.930763
 21
302.164642
 31
0.0
  0
LINE
  5
2A2
330
1E9
100
AcDbEntity
  8
0
  6
Continuous
 62
     0
370
    30
100
AcDbLine
 10
789.930763
 20
295.632669
 30
0.0
 11
789.930763
 21
302.164641
 31
0.0
  0
ARC
  5
2A3
330
1E9
100
AcDbEntity
  8
0
  6
Continuous
 62
     0
370
    30
100
AcDbCircle
 10
732.482485
 20
321.034398
 30
0.0
 40
4.887846231672818
100
AcDbArc
 50
123.93491
 51
176.967531
  0
ARC
  5
2A4
330
1E9
100
AcDbEntity
  8
0
  6
Continuous
 62
     0
370
    30
100
AcDbCircle
 10
819.182626
 20
355.959332
 30
0.0
 40
4.317195822410868
100
AcDbArc
 50
11.99178
 51
62.311721
  0
LINE
  5
2A5
330
1E9
100
AcDbEntity
  8
0
  6
Continuous
 62
     0
370
    30
100
AcDbLine
 10
821.188655
 20
359.782195
 30
0.0
 11
799.975445
 21
372.02964
 31
0.0
  0
ARC
  5
2A6
330
1E9
100
AcDbEntity
  8
0
  6
Continuous
 62
     0
370
    30
100
AcDbCircle
 10
795.87534
 20
363.711247
 30
0.0
 40
9.273940469508746
100
AcDbArc
 50
63.761392
 51
125.911474
  0
LINE
  5
2A7
330
1E9
100
AcDbEntity
  8
0
  6
Continuous
 62
     0
370
    30
100
AcDbLine
 10
790.435735
 20
371.222363
 30
0.0
 11
729.753593
 21
325.089536
 31
0.0
  0
LINE
  5
2A8
330
1E9
100
AcDbEntity
  8
0
  6
Continuous
 62
     0
370
    30
100
AcDbLine
 10
727.601438
 20
321.295316
 30
0.0
 11
727.60144
 21
311.363027
 31
0.0
  0
ARC
  5
2A9
330
1E9
100
AcDbEntity
  8
0
  6
Continuous
 62
     0
370
    30
100
AcDbCircle
 10
818.947369
 20
354.985026
 30
0.0
 40
4.766501626884123
100
AcDbArc
 50
303.85306
 51
357.582423
  0
ARC
  5
2AA
330
1E9
100
AcDbEntity
  8
0
  6
Continuous
 62
     0
370
    30
100
AcDbCircle
 10
798.182332
 20
318.538602
 30
0.0
 40
11.69193789398443
100
AcDbArc
 50
128.586408
 51
176.426558
  0
LINE
  5
2AB
330
1E9
100
AcDbEntity
  8
0
  6
Continuous
 62
     0
370
    30
100
AcDbLine
 10
821.602738
 20
351.026668
 30
0.0
 11
790.890255
 21
327.677894
 31
0.0
  0
LINE
  5
2AC
330
1E9
100
AcDbEntity
  8
0
  6
Continuous
 62
     0
370
    30
100
AcDbLine
 10
786.513126
 20
319.267336
 30
0.0
 11
786.51313
 21
303.736403
 31
0.0
  0
LINE
  5
2AD
330
1E9
100
AcDbEntity
  8
0
  6
Continuous
 62
     0
370
    30
100
AcDbLine
 10
773.429755
 20
169.550772
 30
0.0
 11
773.386597
 21
169.930281
 31
0.0
  0
LINE
  5
2AE
330
1E9
100
AcDbEntity
  8
0
  6
Continuous
 62
     0
370
    30
100
AcDbLine
 10
698.520087
 20
268.504624
 30
0.0
 11
698.520087
 21
261.339813
 31
0.0
  0
LINE
  5
2AF
330
1E9
100
AcDbEntity
  8
0
  6
Continuous
 62
     0
370
    30
100
AcDbLine
 10
669.920087
 20
268.504614
 30
0.0
 11
669.920087
 21
261.339813
 31
0.0
  0
LINE
  5
2B0
330
1E9
100
AcDbEntity
  8
0
  6
Continuous
 62
     0
370
    30
100
AcDbLine
 10
668.220083
 20
272.648289
 30
0.0
 11
668.220083
 21
291.42771
 31
0.0
  0
LINE
  5
2B1
330
1E9
100
AcDbEntity
  8
0
  6
Continuous
 62
     0
370
    30
100
AcDbLine
 10
700.220083
 20
272.648289
 30
0.0
 11
700.220083
 21
291.42771
 31
0.0
  0
LINE
  5
2B2
330
1E9
100
AcDbEntity
  8
0
  6
Continuous
 62
     0
370
    30
100
AcDbLine
 10
719.220085
 20
254.80784
 30
0.0
 11
719.220085
 21
261.339812
 31
0.0
  0
LINE
  5
2B3
330
1E9
100
AcDbEntity
  8
0
  6
Continuous
 62
     0
370
    30
100
AcDbLine
 10
649.220085
 20
255.175077
 30
0.0
 11
649.220085
 21
261.339813
 31
0.0
  0
LINE
  5
2B4
330
1E9
100
AcDbEntity
  8
0
  6
Continuous
 62
     0
370
    30
100
AcDbLine
 10
578.509407
 20
220.514984
 30
0.0
 11
578.509407
 21
213.983011
 31
0.0
  0
LWPOLYLINE
  5
2B5
330
1E9
100
AcDbEntity
  8
0
  6
Continuous
 62
     0
370
    30
100
AcDbPolyline
 90
       26
 70
     0
 43
0.0
 10
773.42981
 20
169.550781
 10
773.447815
 20
169.05603
 10
773.391602
 20
168.557617
 10
773.263794
 20
168.060562
 10
773.06665
 20
167.56987
 10
772.802734
 20
167.089874
 10
772.47467
 20
166.622299
 10
772.085205
 20
166.168381
 10
771.637024
 20
165.729355
 10
771.132935
 20
165.306412
 10
770.575928
 20
164.901093
 10
769.969482
 20
164.51503
 10
769.317078
 20
164.149902
 10
768.622009
 20
163.807404
 10
767.887695
 20
163.489182
 10
767.117676
 20
163.19693
 10
766.315735
 20
162.932098
 10
765.486755
 20
162.695938
 10
764.635498
 20
162.489609
 10
763.766785
 20
162.314285
 10
762.885559
 20
162.171188
 10
761.996582
 20
162.061264
 10
761.104919
 20
161.984833
 10
760.215637
 20
161.942108
 10
759.333801
 20
161.933304
 10
758.435181
 20
161.960083
  0
ARC
  5
2B6
330
1E9
100
AcDbEntity
  8
0
  6
Continuous
 62
     0
370
    30
100
AcDbCircle
 10
783.330094
 20
180.715947
 30
0.0
 40
4.188745031239803
100
AcDbArc
 50
293.973711
 51
359.771627
  0
LINE
  5
2B7
330
1E9
100
AcDbEntity
  8
0
  6
Continuous
 62
     0
370
    30
100
AcDbLine
 10
787.523251
 20
180.660332
 30
0.0
 11
785.69348
 21
196.750358
 31
0.0
  0
LINE
  5
2B8
330
1E9
100
AcDbEntity
  8
0
  6
Continuous
 62
     0
370
    30
100
AcDbLine
 10
785.031991
 20
176.888487
 30
0.0
 11
773.078328
 21
169.746089
 31
0.0
  0
LINE
  5
2B9
330
1E9
100
AcDbEntity
  8
0
  6
Continuous
 62
     0
370
    30
100
AcDbLine
 10
785.693483
 20
196.750165
 30
0.0
 11
785.67516
 21
196.881749
 31
0.0
  0
ARC
  5
2BA
330
1E9
100
AcDbEntity
  8
0
  6
Continuous
 62
     0
370
    30
100
AcDbCircle
 10
781.971551
 20
195.978318
 30
0.0
 40
3.801121279529402
100
AcDbArc
 50
11.715813
 51
73.053672
  0
ARC
  5
2BB
330
1E9
100
AcDbEntity
  8
0
  6
Continuous
 62
     0
370
    30
100
AcDbCircle
 10
614.640414
 20
254.655581
 30
0.0
 40
13.76476362130315
100
AcDbArc
 50
71.154495
 51
117.151385
  0
LINE
  5
2BC
330
1E9
100
AcDbEntity
  8
0
  6
Continuous
 62
     0
370
    30
100
AcDbLine
 10
783.079327
 20
199.614473
 30
0.0
 11
619.086237
 21
267.682657
 31
0.0
  0
LINE
  5
2BD
330
1E9
100
AcDbEntity
  8
0
  6
Continuous
 62
     0
370
    30
100
AcDbLine
 10
596.181511
 20
260.100276
 30
0.0
 11
608.359045
 21
266.903584
 31
0.0
  0
ARC
  5
2BE
330
1E9
100
AcDbEntity
  8
0
  6
Continuous
 62
     0
370
    30
100
AcDbCircle
 10
754.596566
 20
175.150605
 30
0.0
 40
13.72869452092022
100
AcDbArc
 50
251.294149
 51
297.22891
  0
LINE
  5
2BF
330
1E9
100
AcDbEntity
  8
0
  6
Continuous
 62
     0
370
    30
100
AcDbLine
 10
750.193799
 20
162.147009
 30
0.0
 11
619.228984
 21
216.506233
 31
0.0
  0
ARC
  5
2C0
330
1E9
100
AcDbEntity
  8
0
  6
Continuous
 62
     0
370
    30
100
AcDbCircle
 10
617.595247
 20
213.37995
 30
0.0
 40
3.52742787890703
100
AcDbArc
 50
62.41225
 51
114.645366
  0
LINE
  5
2C1
330
1E9
100
AcDbEntity
  8
0
  6
Continuous
 62
     0
370
    30
100
AcDbLine
 10
773.069783
 20
169.741154
 30
0.0
 11
760.878057
 21
162.943197
 31
0.0
  0
LINE
  5
2C2
330
1E9
100
AcDbEntity
  8
0
  6
Continuous
 62
     0
370
    30
100
AcDbLine
 10
581.711492
 20
249.469844
 30
0.0
 11
581.714863
 21
249.60545
 31
0.0
  0
ARC
  5
2C3
330
1E9
100
AcDbEntity
  8
0
  6
Continuous
 62
     0
370
    30
100
AcDbCircle
 10
586.04521
 20
249.007637
 30
0.0
 40
4.358295899346486
100
AcDbArc
 50
114.954506
 51
173.912214
  0
LINE
  5
2C4
330
1E9
100
AcDbEntity
  8
0
  6
Continuous
 62
     0
370
    30
100
AcDbLine
 10
581.711512
 20
220.371019
 30
0.0
 11
581.711512
 21
249.467633
 31
0.0
  0
LINE
  5
2C5
330
1E9
100
AcDbEntity
  8
0
  6
Continuous
 62
     0
370
    30
100
AcDbLine
 10
584.206566
 20
252.959135
 30
0.0
 11
596.17338
 21
260.095582
 31
0.0
  0
ENDBLK
  5
2C7
330
1E9
100
AcDbEntity
  8
0
100
AcDbBlockEnd
  0
BLOCK
  5
35C
330
2C9
100
AcDbEntity
  8
0
100
AcDbBlockBegin
  2
e
 70
     0
 10
-46.80719
 20
0.0
 30
0.0
  3
e
  1

  0
ARC
  5
2CA
330
2C9
100
AcDbEntity
  8
0
  6
Continuous
 62
     0
370
     0
100
AcDbCircle
 10
-363.816727
 20
760.292813
 30
0.0
 40
1.124957161170028
100
AcDbArc
 50
88.057559
 51
165.942441
  0
ARC
  5
2CB
330
2C9
100
AcDbEntity
  8
0
  6
Continuous
 62
     0
370
     0
100
AcDbCircle
 10
-117.901824
 20
725.746677
 30
0.0
 40
1.10756118620852
100
AcDbArc
 50
4.677965
 51
77.322035
  0
LINE
  5
2CC
330
2C9
100
AcDbEntity
  8
0
  6
Continuous
 62
     0
370
     0
100
AcDbLine
 10
-154.256134
 20
731.970662
 30
0.0
 11
-363.778596
 21
761.417124
 31
0.0
  0
LINE
  5
2CD
330
2C9
100
AcDbEntity
  8
0
  6
Continuous
 62
     0
370
     0
100
AcDbLine
 10
-117.658746
 20
726.827235
 30
0.0
 11
-119.59793
 21
727.09977
 31
0.0
  0
LINE
  5
2CE
330
2C9
100
AcDbEntity
  8
0
  6
Continuous
 62
     0
370
     0
100
AcDbLine
 10
-116.797952
 20
725.837005
 30
0.0
 11
-116.797952
 21
690.316605
 31
0.0
  0
ARC
  5
2CF
330
2C9
100
AcDbEntity
  8
0
  6
Continuous
 62
     0
370
     0
100
AcDbCircle
 10
-366.419123
 20
741.775799
 30
0.0
 40
1.124957161179898
100
AcDbArc
 50
178.057559
 51
255.942441
  0
LINE
  5
2D0
330
2C9
100
AcDbEntity
  8
0
  6
Continuous
 62
     0
370
     0
100
AcDbLine
 10
-364.907994
 20
760.566062
 30
0.0
 11
-367.543434
 21
741.81393
 31
0.0
  0
LINE
  5
2D1
330
2C9
100
AcDbEntity
  8
0
  6
Continuous
 62
     0
370
     0
100
AcDbLine
 10
-366.692371
 20
740.684532
 30
0.0
 11
-361.98856
 21
740.023454
 31
0.0
  0
LINE
  5
2D2
330
2C9
100
AcDbEntity
  8
0
  6
Continuous
 62
     0
370
     0
100
AcDbLine
 10
-337.726993
 20
736.613713
 30
0.0
 11
-174.581443
 21
713.685102
 31
0.0
  0
ARC
  5
2D3
330
2C9
100
AcDbEntity
  8
0
  6
Continuous
 62
     0
370
     0
100
AcDbCircle
 10
-175.831542
 20
704.775329
 30
0.0
 40
8.99704387619844
100
AcDbArc
 50
5.365326
 51
82.013164
  0
LINE
  5
2D4
330
2C9
100
AcDbEntity
  8
0
  6
Continuous
 62
     0
370
     0
100
AcDbLine
 10
-166.834296
 20
690.316605
 30
0.0
 11
-166.834296
 21
695.616605
 31
0.0
  0
ARC
  5
2D5
330
2C9
100
AcDbEntity
  8
0
  6
Continuous
 62
     0
370
     0
100
AcDbCircle
 10
-363.790975
 20
760.258645
 30
0.0
 40
0.999999999999949
100
AcDbArc
 50
82.002181
 51
171.997818
  0
LINE
  5
2D6
330
2C9
100
AcDbEntity
  8
0
  6
Continuous
 62
     0
370
     0
100
AcDbLine
 10
-363.651807
 20
761.248876
 30
0.0
 11
-363.778596
 21
761.417124
 31
0.0
  0
ARC
  5
2D7
330
2C9
100
AcDbEntity
  8
0
  6
Continuous
 62
     0
370
     0
100
AcDbCircle
 10
-117.946876
 20
725.707511
 30
0.0
 40
1.000000000000062
100
AcDbArc
 50
0.001896
 51
81.998103
  0
LINE
  5
2D8
330
2C9
100
AcDbEntity
  8
0
  6
Continuous
 62
     0
370
     0
100
AcDbLine
 10
-119.597931
 20
726.908675
 30
0.0
 11
-117.807708
 21
726.697741
 31
0.0
  0
LINE
  5
2D9
330
2C9
100
AcDbEntity
  8
0
  6
Continuous
 62
     0
370
     0
100
AcDbLine
 10
-363.651807
 20
761.248876
 30
0.0
 11
-356.72862
 21
760.214736
 31
0.0
  0
LINE
  5
2DA
330
2C9
100
AcDbEntity
  8
0
  6
Continuous
 62
     0
370
     0
100
AcDbLine
 10
-356.72862
 20
760.214736
 30
0.0
 11
-154.256135
 21
731.759083
 31
0.0
  0
LINE
  5
2DB
330
2C9
100
AcDbEntity
  8
0
  6
Continuous
 62
     0
370
     0
100
AcDbLine
 10
-116.946914
 20
690.316605
 30
0.0
 11
-116.946914
 21
725.707511
 31
0.0
  0
LINE
  5
2DC
330
2C9
100
AcDbEntity
  8
0
  6
Continuous
 62
     0
370
     0
100
AcDbLine
 10
-116.946914
 20
725.707511
 30
0.0
 11
-119.597931
 21
725.988167
 31
0.0
  0
LINE
  5
2DD
330
2C9
100
AcDbEntity
  8
0
  6
Continuous
 62
     0
370
     0
100
AcDbLine
 10
-356.728615
 20
760.214773
 30
0.0
 11
-356.867788
 21
759.224505
 31
0.0
  0
LINE
  5
2DE
330
2C9
100
AcDbEntity
  8
0
  6
Continuous
 62
     0
370
     0
100
AcDbLine
 10
-356.867788
 20
759.224505
 30
0.0
 11
-154.256135
 21
730.749294
 31
0.0
  0
LINE
  5
2DF
330
2C9
100
AcDbEntity
  8
0
  6
Continuous
 62
     0
370
     0
100
AcDbLine
 10
-356.867788
 20
759.224505
 30
0.0
 11
-364.781205
 21
760.397813
 31
0.0
  0
ARC
  5
2E0
330
2C9
100
AcDbEntity
  8
0
  6
Continuous
 62
     0
370
     0
100
AcDbCircle
 10
-366.384951
 20
741.801546
 30
0.0
 40
1.000000000000036
100
AcDbArc
 50
172.002182
 51
261.997819
  0
LINE
  5
2E1
330
2C9
100
AcDbEntity
  8
0
  6
Continuous
 62
     0
370
     0
100
AcDbLine
 10
-366.692371
 20
740.684532
 30
0.0
 11
-366.524119
 21
740.811316
 31
0.0
  0
LINE
  5
2E2
330
2C9
100
AcDbEntity
  8
0
  6
Continuous
 62
     0
370
     0
100
AcDbLine
 10
-166.624768
 20
704.955162
 30
0.0
 11
-166.624768
 21
690.316605
 31
0.0
  0
LINE
  5
2E3
330
2C9
100
AcDbEntity
  8
0
  6
Continuous
 62
     0
370
     0
100
AcDbLine
 10
-165.624806
 20
690.316605
 30
0.0
 11
-165.624806
 21
704.955162
 31
0.0
  0
LINE
  5
2E4
330
2C9
100
AcDbEntity
  8
0
  6
Continuous
 62
     0
370
     0
100
AcDbLine
 10
-165.624806
 20
704.955162
 30
0.0
 11
-166.624807
 21
704.955162
 31
0.0
  0
LINE
  5
2E5
330
2C9
100
AcDbEntity
  8
0
  6
Continuous
 62
     0
370
     0
100
AcDbLine
 10
-367.375181
 20
741.940714
 30
0.0
 11
-364.781205
 21
760.397813
 31
0.0
  0
LINE
  5
2E6
330
2C9
100
AcDbEntity
  8
0
  6
Continuous
 62
     0
370
     0
100
AcDbLine
 10
-174.371916
 20
713.867235
 30
0.0
 11
-359.584077
 21
739.897107
 31
0.0
  0
LINE
  5
2E7
330
2C9
100
AcDbEntity
  8
0
  6
Continuous
 62
     0
370
     0
100
AcDbLine
 10
-359.584077
 20
739.897107
 30
0.0
 11
-366.524119
 21
740.811316
 31
0.0
  0
LINE
  5
2E8
330
2C9
100
AcDbEntity
  8
0
  6
Continuous
 62
     0
370
    30
100
AcDbLine
 10
-361.98856
 20
740.023454
 30
0.0
 11
-337.726993
 21
736.613713
 31
0.0
  0
LINE
  5
2E9
330
2C9
100
AcDbEntity
  8
0
  6
Continuous
 62
     0
370
     0
100
AcDbLine
 10
-174.581443
 20
713.685102
 30
0.0
 11
-174.371916
 21
713.867235
 31
0.0
  0
LINE
  5
2EA
330
2C9
100
AcDbEntity
  8
0
  6
Continuous
 62
     0
370
     0
100
AcDbLine
 10
-367.375181
 20
741.940714
 30
0.0
 11
-359.444909
 21
740.887337
 31
0.0
  0
LINE
  5
2EB
330
2C9
100
AcDbEntity
  8
0
  6
Continuous
 62
     0
370
     0
100
AcDbLine
 10
-359.444909
 20
740.887337
 30
0.0
 11
-356.867788
 21
759.224505
 31
0.0
  0
ARC
  5
2EC
330
2C9
100
AcDbEntity
  8
0
  6
Continuous
 62
     0
370
     0
100
AcDbCircle
 10
-175.624302
 20
704.95527
 30
0.0
 40
9.99949548839156
100
AcDbArc
 50
359.999384
 51
82.000616
  0
LINE
  5
2ED
330
2C9
100
AcDbEntity
  8
0
  6
Continuous
 62
     0
370
     0
100
AcDbLine
 10
-174.232747
 20
714.857466
 30
0.0
 11
-359.444909
 21
740.887337
 31
0.0
  0
ARC
  5
2EE
330
2C9
100
AcDbEntity
  8
0
  6
Continuous
 62
     0
370
     0
100
AcDbCircle
 10
-175.621607
 20
704.957612
 30
0.0
 40
8.996838872465304
100
AcDbArc
 50
359.984395
 51
82.015605
  0
LINE
  5
2EF
330
2C9
100
AcDbEntity
  8
0
  6
Continuous
 62
     0
370
     0
100
AcDbLine
 10
-174.232747
 20
714.857466
 30
0.0
 11
-174.371916
 21
713.867235
 31
0.0
  0
LINE
  5
2F0
330
2C9
100
AcDbEntity
  8
0
  6
Continuous
 62
     0
370
     0
100
AcDbLine
 10
-359.444909
 20
740.887337
 30
0.0
 11
-359.584082
 21
739.897069
 31
0.0
  0
LINE
  5
2F1
330
2C9
100
AcDbEntity
  8
0
  6
Continuous
 62
     0
370
     0
100
AcDbLine
 10
-166.810315
 20
704.793874
 30
0.0
 11
-166.873917
 21
705.616605
 31
0.0
  0
LINE
  5
2F2
330
2C9
100
AcDbEntity
  8
0
  6
Continuous
 62
     0
370
     0
100
AcDbLine
 10
-166.834296
 20
695.616605
 30
0.0
 11
-166.810315
 21
704.793874
 31
0.0
  0
LINE
  5
2F3
330
2C9
100
AcDbEntity
  8
0
  6
Continuous
 62
     0
370
    30
100
AcDbLine
 10
-339.583079
 20
728.795949
 30
0.0
 11
-350.971158
 21
730.396439
 31
0.0
  0
LINE
  5
2F4
330
2C9
100
AcDbEntity
  8
0
  6
Continuous
 62
     0
370
    30
100
AcDbLine
 10
-350.971158
 20
730.396439
 30
0.0
 11
-362.359244
 21
731.99693
 31
0.0
  0
LINE
  5
2F5
330
2C9
100
AcDbEntity
  8
0
  6
Continuous
 62
     0
370
     0
100
AcDbLine
 10
-339.018358
 20
729.221496
 30
0.0
 11
-350.901572
 21
730.891573
 31
0.0
  0
LINE
  5
2F6
330
2C9
100
AcDbEntity
  8
0
  6
Continuous
 62
     0
370
     0
100
AcDbLine
 10
-350.901572
 20
730.891573
 30
0.0
 11
-362.784792
 21
732.56165
 31
0.0
  0
LINE
  5
2F7
330
2C9
100
AcDbEntity
  8
0
  6
Continuous
 62
     0
370
     0
100
AcDbLine
 10
-120.597955
 20
710.638039
 30
0.0
 11
-120.597955
 21
691.616605
 31
0.0
  0
LINE
  5
2F8
330
2C9
100
AcDbEntity
  8
0
  6
Continuous
 62
     0
370
    30
100
AcDbLine
 10
-119.597955
 20
691.616605
 30
0.0
 11
-119.597955
 21
710.638038
 31
0.0
  0
LINE
  5
2F9
330
2C9
100
AcDbEntity
  8
0
  6
Continuous
 62
     0
370
     0
100
AcDbLine
 10
-119.597955
 20
710.638038
 30
0.0
 11
-120.597955
 21
710.638038
 31
0.0
  0
LINE
  5
2FA
330
2C9
100
AcDbEntity
  8
0
  6
Continuous
 62
     0
370
     0
100
AcDbLine
 10
-162.597955
 20
710.638038
 30
0.0
 11
-163.597955
 21
710.638038
 31
0.0
  0
LINE
  5
2FB
330
2C9
100
AcDbEntity
  8
0
  6
Continuous
 62
     0
370
    30
100
AcDbLine
 10
-163.597955
 20
710.638038
 30
0.0
 11
-163.597955
 21
691.616605
 31
0.0
  0
LINE
  5
2FC
330
2C9
100
AcDbEntity
  8
0
  6
Continuous
 62
     0
370
     0
100
AcDbLine
 10
-162.597955
 20
691.616605
 30
0.0
 11
-162.597955
 21
710.638039
 31
0.0
  0
LINE
  5
2FD
330
2C9
100
AcDbEntity
  8
0
  6
Continuous
 62
     0
370
     0
100
AcDbLine
 10
-154.256144
 20
710.638039
 30
0.0
 11
-162.597955
 21
710.638039
 31
0.0
  0
LINE
  5
2FE
330
2C9
100
AcDbEntity
  8
0
  6
Continuous
 62
     0
370
     0
100
AcDbLine
 10
-120.597955
 20
710.638039
 30
0.0
 11
-130.256144
 21
710.638039
 31
0.0
  0
LINE
  5
2FF
330
2C9
100
AcDbEntity
  8
0
  6
Continuous
 62
     0
370
     0
100
AcDbLine
 10
-130.256144
 20
717.551859
 30
0.0
 11
-120.597953
 21
717.551859
 31
0.0
  0
LINE
  5
300
330
2C9
100
AcDbEntity
  8
0
  6
Continuous
 62
     0
370
     0
100
AcDbLine
 10
-162.597953
 20
717.551859
 30
0.0
 11
-154.256144
 21
717.551859
 31
0.0
  0
LINE
  5
301
330
2C9
100
AcDbEntity
  8
0
  6
Continuous
 62
     0
370
     0
100
AcDbLine
 10
-120.597953
 20
717.551859
 30
0.0
 11
-120.597953
 21
710.638039
 31
0.0
  0
LINE
  5
302
330
2C9
100
AcDbEntity
  8
0
  6
Continuous
 62
     0
370
     0
100
AcDbLine
 10
-162.597953
 20
710.638039
 30
0.0
 11
-162.597953
 21
717.551859
 31
0.0
  0
LINE
  5
303
330
2C9
100
AcDbEntity
  8
0
  6
Continuous
 62
     0
370
     0
100
AcDbLine
 10
-120.597953
 20
717.551859
 30
0.0
 11
-120.597942
 21
724.431132
 31
0.0
  0
LWPOLYLINE
  5
304
330
2C9
100
AcDbEntity
  8
0
  6
Continuous
 62
     0
370
     0
100
AcDbPolyline
 90
       15
 70
     0
 43
0.0
 10
-120.597939
 20
724.431152
 10
-120.635536
 20
724.536011
 10
-120.747688
 20
724.639587
 10
-120.933151
 20
724.74054
 10
-121.189453
 20
724.837646
 10
-121.513527
 20
724.929626
 10
-121.901184
 20
725.015442
 10
-122.347694
 20
725.093872
 10
-122.847359
 20
725.164001
 10
-123.39402
 20
725.224976
 10
-123.980743
 20
725.276001
 10
-124.600266
 20
725.316467
 10
-125.244766
 20
725.345886
 10
-125.906219
 20
725.36377
 10
-126.597939
 20
725.370056
  0
LINE
  5
305
330
2C9
100
AcDbEntity
  8
0
  6
Continuous
 62
     0
370
     0
100
AcDbLine
 10
-154.256146
 20
725.370066
 30
0.0
 11
-156.59794
 21
725.370066
 31
0.0
  0
LINE
  5
306
330
2C9
100
AcDbEntity
  8
0
  6
Continuous
 62
     0
370
     0
100
AcDbLine
 10
-126.59794
 20
725.370066
 30
0.0
 11
-130.256147
 21
725.370066
 31
0.0
  0
LWPOLYLINE
  5
307
330
2C9
100
AcDbEntity
  8
0
  6
Continuous
 62
     0
370
     0
100
AcDbPolyline
 90
       15
 70
     0
 43
0.0
 10
-156.597946
 20
725.370056
 10
-157.268188
 20
725.364197
 10
-157.930054
 20
725.346619
 10
-158.575226
 20
725.317627
 10
-159.195679
 20
725.277527
 10
-159.783569
 20
725.226807
 10
-160.331635
 20
725.166138
 10
-160.832901
 20
725.096252
 10
-161.281219
 20
725.018066
 10
-161.670853
 20
724.932495
 10
-161.99704
 20
724.840698
 10
-162.255569
 20
724.743774
 10
-162.443359
 20
724.642883
 10
-162.557892
 20
724.539368
 10
-162.597946
 20
724.431152
  0
LINE
  5
308
330
2C9
100
AcDbEntity
  8
0
  6
Continuous
 62
     0
370
     0
100
AcDbLine
 10
-162.597942
 20
724.431132
 30
0.0
 11
-162.597953
 21
717.551859
 31
0.0
  0
ARC
  5
309
330
2C9
100
AcDbEntity
  8
0
  6
Continuous
 62
     0
370
     0
100
AcDbCircle
 10
-162.60406
 20
725.425015
 30
0.0
 40
0.9939014159045212
100
AcDbArc
 50
180.357084
 51
270.352684
  0
LINE
  5
30A
330
2C9
100
AcDbEntity
  8
0
  6
Continuous
 62
     0
370
    30
100
AcDbLine
 10
-163.597942
 20
725.41882
 30
0.0
 11
-163.597953
 21
718.539547
 31
0.0
  0
ARC
  5
30B
330
2C9
100
AcDbEntity
  8
0
  6
Continuous
 62
     0
370
     0
100
AcDbCircle
 10
-162.604071
 20
718.545741
 30
0.0
 40
0.9939014159045
100
AcDbArc
 50
180.357084
 51
270.352684
  0
LINE
  5
30C
330
2C9
100
AcDbEntity
  8
0
  6
Continuous
 62
     0
370
    30
100
AcDbLine
 10
-163.597955
 20
710.638038
 30
0.0
 11
-163.597953
 21
718.539547
 31
0.0
  0
LWPOLYLINE
  5
30D
330
2C9
100
AcDbEntity
  8
0
  6
Continuous
 62
     0
370
     0
100
AcDbPolyline
 90
       16
 70
     0
 43
0.0
 10
-163.597946
 20
725.418823
 10
-163.559799
 20
725.535522
 10
-163.446167
 20
725.651062
 10
-163.258179
 20
725.764038
 10
-162.997147
 20
725.873291
 10
-162.665314
 20
725.977844
 10
-162.26683
 20
726.076477
 10
-161.806137
 20
726.16803
 10
-161.287674
 20
726.251282
 10
-160.717361
 20
726.325317
 10
-160.102615
 20
726.389404
 10
-159.450897
 20
726.44281
 10
-158.769577
 20
726.484863
 10
-158.065292
 20
726.515259
 10
-157.344589
 20
726.533752
 10
-156.597946
 20
726.540222
  0
LINE
  5
30E
330
2C9
100
AcDbEntity
  8
0
  6
Continuous
 62
     0
370
     0
100
AcDbLine
 10
-156.59794
 20
726.540196
 30
0.0
 11
-156.59794
 21
725.370066
 31
0.0
  0
LINE
  5
30F
330
2C9
100
AcDbEntity
  8
0
  6
Continuous
 62
     0
370
     0
100
AcDbLine
 10
-126.597941
 20
725.370066
 30
0.0
 11
-126.597941
 21
726.540196
 31
0.0
  0
LINE
  5
310
330
2C9
100
AcDbEntity
  8
0
  6
Continuous
 62
     0
370
     0
100
AcDbLine
 10
-154.256146
 20
726.540196
 30
0.0
 11
-156.59794
 21
726.540196
 31
0.0
  0
LINE
  5
311
330
2C9
100
AcDbEntity
  8
0
  6
Continuous
 62
     0
370
     0
100
AcDbLine
 10
-126.59794
 20
726.540196
 30
0.0
 11
-130.256147
 21
726.540196
 31
0.0
  0
ARC
  5
312
330
2C9
100
AcDbEntity
  8
0
  6
Continuous
 62
     0
370
     0
100
AcDbCircle
 10
-120.591824
 20
725.425014
 30
0.0
 40
0.993901321922124
100
AcDbArc
 50
269.647315
 51
359.642921
  0
LWPOLYLINE
  5
313
330
2C9
100
AcDbEntity
  8
0
  6
Continuous
 62
     0
370
     0
100
AcDbPolyline
 90
       16
 70
     0
 43
0.0
 10
-119.597939
 20
725.418823
 10
-119.636078
 20
725.535522
 10
-119.749718
 20
725.651062
 10
-119.937698
 20
725.764038
 10
-120.19873
 20
725.873291
 10
-120.530571
 20
725.977844
 10
-120.929047
 20
726.076477
 10
-121.389748
 20
726.16803
 10
-121.908203
 20
726.251282
 10
-122.478516
 20
726.325317
 10
-123.093262
 20
726.389404
 10
-123.744987
 20
726.44281
 10
-124.4263
 20
726.484863
 10
-125.130585
 20
726.515259
 10
-125.851288
 20
726.533752
 10
-126.597939
 20
726.540222
  0
ARC
  5
314
330
2C9
100
AcDbEntity
  8
0
  6
Continuous
 62
     0
370
     0
100
AcDbCircle
 10
-120.591835
 20
718.545741
 30
0.0
 40
0.9939013170403345
100
AcDbArc
 50
269.647315
 51
359.642922
  0
LINE
  5
315
330
2C9
100
AcDbEntity
  8
0
  6
Continuous
 62
     0
370
    30
100
AcDbLine
 10
-119.597953
 20
718.539547
 30
0.0
 11
-119.597942
 21
725.41882
 31
0.0
  0
LINE
  5
316
330
2C9
100
AcDbEntity
  8
0
  6
Continuous
 62
     0
370
    30
100
AcDbLine
 10
-119.597955
 20
710.638038
 30
0.0
 11
-119.597953
 21
718.539547
 31
0.0
  0
LINE
  5
317
330
2C9
100
AcDbEntity
  8
0
  6
Continuous
 62
     0
370
    30
100
AcDbLine
 10
-163.597942
 20
725.41882
 30
0.0
 11
-163.597942
 21
727.385938
 31
0.0
  0
LINE
  5
318
330
2C9
100
AcDbEntity
  8
0
  6
Continuous
 62
     0
370
     0
100
AcDbLine
 10
-156.59794
 20
726.540196
 30
0.0
 11
-156.59794
 21
728.507315
 31
0.0
  0
LWPOLYLINE
  5
319
330
2C9
100
AcDbEntity
  8
0
  6
Continuous
 62
     0
370
     0
100
AcDbPolyline
 90
       16
 70
     0
 43
0.0
 10
-156.597946
 20
728.507324
 10
-157.323196
 20
728.501099
 10
-158.0448
 20
728.482605
 10
-158.75351
 20
728.452209
 10
-159.440048
 20
728.410339
 10
-160.095184
 20
728.3573
 10
-160.710266
 20
728.293579
 10
-161.279266
 20
728.219849
 10
-161.796875
 20
728.137024
 10
-162.257751
 20
728.046021
 10
-162.656616
 20
727.947632
 10
-162.988586
 20
727.842773
 10
-163.250916
 20
727.73291
 10
-163.441391
 20
727.619507
 10
-163.5578
 20
727.503967
 10
-163.597946
 20
727.385925
  0
LINE
  5
31A
330
2C9
100
AcDbEntity
  8
0
  6
Continuous
 62
     0
370
     0
100
AcDbLine
 10
-126.59794
 20
726.540196
 30
0.0
 11
-126.59794
 21
728.507315
 31
0.0
  0
LINE
  5
31B
330
2C9
100
AcDbEntity
  8
0
  6
Continuous
 62
     0
370
     0
100
AcDbLine
 10
-154.256146
 20
728.507315
 30
0.0
 11
-156.59794
 21
728.507315
 31
0.0
  0
LINE
  5
31C
330
2C9
100
AcDbEntity
  8
0
  6
Continuous
 62
     0
370
     0
100
AcDbLine
 10
-126.59794
 20
728.507315
 30
0.0
 11
-130.256147
 21
728.507315
 31
0.0
  0
LINE
  5
31D
330
2C9
100
AcDbEntity
  8
0
  6
Continuous
 62
     0
370
    30
100
AcDbLine
 10
-119.597942
 20
725.41882
 30
0.0
 11
-119.597942
 21
727.385938
 31
0.0
  0
LWPOLYLINE
  5
31E
330
2C9
100
AcDbEntity
  8
0
  6
Continuous
 62
     0
370
     0
100
AcDbPolyline
 90
       16
 70
     0
 43
0.0
 10
-119.597939
 20
727.385925
 10
-119.636826
 20
727.502075
 10
-119.752014
 20
727.617615
 10
-119.941307
 20
727.73114
 10
-120.202492
 20
727.841064
 10
-120.533363
 20
727.945984
 10
-120.931168
 20
728.044495
 10
-121.39109
 20
728.13562
 10
-121.907814
 20
728.218567
 10
-122.476021
 20
728.292419
 10
-123.090401
 20
728.356384
 10
-123.744957
 20
728.409607
 10
-124.431068
 20
728.45166
 10
-125.139481
 20
728.482178
 10
-125.860954
 20
728.500854
 10
-126.597939
 20
728.507324
  0
LINE
  5
31F
330
2C9
100
AcDbEntity
  8
0
  6
Continuous
 62
     0
370
     0
100
AcDbLine
 10
-126.597941
 20
729.324758
 30
0.0
 11
-126.59794
 21
728.507315
 31
0.0
  0
LINE
  5
320
330
2C9
100
AcDbEntity
  8
0
  6
Continuous
 62
     0
370
     0
100
AcDbLine
 10
-156.597941
 20
729.324872
 30
0.0
 11
-156.597941
 21
728.507315
 31
0.0
  0
ARC
  5
321
330
2C9
100
AcDbEntity
  8
0
  6
Continuous
 62
     0
370
     0
100
AcDbCircle
 10
-162.60406
 20
727.379744
 30
0.0
 40
0.9939013219101951
100
AcDbArc
 50
89.647315
 51
179.642921
  0
LINE
  5
322
330
2C9
100
AcDbEntity
  8
0
  6
Continuous
 62
     0
370
    30
100
AcDbLine
 10
-120.597955
 20
691.616605
 30
0.0
 11
-119.597955
 21
691.616605
 31
0.0
  0
LINE
  5
323
330
2C9
100
AcDbEntity
  8
0
  6
Continuous
 62
     0
370
    30
100
AcDbLine
 10
-163.597955
 20
691.616605
 30
0.0
 11
-162.597955
 21
691.616605
 31
0.0
  0
LINE
  5
324
330
2C9
100
AcDbEntity
  8
0
  6
Continuous
 62
     0
370
    30
100
AcDbLine
 10
-127.59797
 20
691.616605
 30
0.0
 11
-120.597955
 21
691.616605
 31
0.0
  0
LINE
  5
325
330
2C9
100
AcDbEntity
  8
0
  6
Continuous
 62
     0
370
    30
100
AcDbLine
 10
-162.597955
 20
691.616605
 30
0.0
 11
-155.597955
 21
691.616605
 31
0.0
  0
LINE
  5
326
330
2C9
100
AcDbEntity
  8
0
  6
Continuous
 62
     0
370
    30
100
AcDbLine
 10
-142.175192
 20
682.316605
 30
0.0
 11
-106.597961
 21
682.316605
 31
0.0
  0
LINE
  5
327
330
2C9
100
AcDbEntity
  8
0
  6
Continuous
 62
     0
370
    30
100
AcDbLine
 10
-176.597961
 20
682.316605
 30
0.0
 11
-142.175192
 21
682.316605
 31
0.0
  0
LINE
  5
328
330
2C9
100
AcDbEntity
  8
0
  6
Continuous
 62
     0
370
    30
100
AcDbLine
 10
-155.597955
 20
690.316605
 30
0.0
 11
-176.597961
 21
690.316605
 31
0.0
  0
LINE
  5
329
330
2C9
100
AcDbEntity
  8
0
  6
Continuous
 62
     0
370
    30
100
AcDbLine
 10
-106.597961
 20
690.316605
 30
0.0
 11
-127.59797
 21
690.316605
 31
0.0
  0
LINE
  5
32A
330
2C9
100
AcDbEntity
  8
0
  6
Continuous
 62
     0
370
    30
100
AcDbLine
 10
-106.597968
 20
690.116605
 30
0.0
 11
-150.599201
 21
690.116605
 31
0.0
  0
LINE
  5
32B
330
2C9
100
AcDbEntity
  8
0
  6
Continuous
 62
     0
370
    30
100
AcDbLine
 10
-150.599201
 20
690.116605
 30
0.0
 11
-176.597968
 21
690.116605
 31
0.0
  0
LINE
  5
32C
330
2C9
100
AcDbEntity
  8
0
  6
Continuous
 62
     0
370
    30
100
AcDbLine
 10
-176.597968
 20
682.516605
 30
0.0
 11
-150.599201
 21
682.516605
 31
0.0
  0
LINE
  5
32D
330
2C9
100
AcDbEntity
  8
0
  6
Continuous
 62
     0
370
    30
100
AcDbLine
 10
-150.599201
 20
682.516605
 30
0.0
 11
-106.597968
 21
682.516605
 31
0.0
  0
LINE
  5
32E
330
2C9
100
AcDbEntity
  8
0
  6
Continuous
 62
     0
370
    30
100
AcDbLine
 10
-156.59796
 20
617.536606
 30
0.0
 11
-130.264642
 21
617.536606
 31
0.0
  0
LINE
  5
32F
330
2C9
100
AcDbEntity
  8
0
  6
Continuous
 62
     0
370
    30
100
AcDbLine
 10
-130.264642
 20
617.536606
 30
0.0
 11
-126.597975
 21
617.536606
 31
0.0
  0
LINE
  5
330
330
2C9
100
AcDbEntity
  8
0
  6
Continuous
 62
     0
370
    30
100
AcDbLine
 10
-126.597975
 20
681.816606
 30
0.0
 11
-130.264642
 21
681.816606
 31
0.0
  0
LINE
  5
331
330
2C9
100
AcDbEntity
  8
0
  6
Continuous
 62
     0
370
    30
100
AcDbLine
 10
-130.264642
 20
681.816606
 30
0.0
 11
-156.59796
 21
681.816606
 31
0.0
  0
LINE
  5
332
330
2C9
100
AcDbEntity
  8
0
  6
Continuous
 62
     0
370
    30
100
AcDbLine
 10
-162.256149
 20
829.280983
 30
0.0
 11
-162.256149
 21
823.280983
 31
0.0
  0
LINE
  5
333
330
2C9
100
AcDbEntity
  8
0
  6
Continuous
 62
     0
370
    30
100
AcDbLine
 10
-162.256149
 20
823.280983
 30
0.0
 11
-160.256149
 21
823.280983
 31
0.0
  0
LINE
  5
334
330
2C9
100
AcDbEntity
  8
0
  6
Continuous
 62
     0
370
     0
100
AcDbLine
 10
-160.256149
 20
823.280983
 30
0.0
 11
-160.256149
 21
829.280983
 31
0.0
  0
LINE
  5
335
330
2C9
100
AcDbEntity
  8
0
  6
Continuous
 62
     0
370
     0
100
AcDbLine
 10
-160.257434
 20
829.280983
 30
0.0
 11
-162.257434
 21
829.280983
 31
0.0
  0
LWPOLYLINE
  5
336
330
2C9
100
AcDbEntity
  8
0
  6
Continuous
 62
     0
370
     0
100
AcDbPolyline
 90
       15
 70
     0
 43
0.0
 10
-154.256149
 20
817.281006
 10
-154.224503
 20
817.281006
 10
-154.124802
 20
817.281006
 10
-153.951599
 20
817.281006
 10
-153.701675
 20
817.281006
 10
-153.374634
 20
817.281006
 10
-152.973251
 20
817.281006
 10
-152.503616
 20
817.281006
 10
-151.974792
 20
817.281006
 10
-151.398331
 20
817.281006
 10
-150.787384
 20
817.281006
 10
-150.155807
 20
817.281006
 10
-149.517151
 20
817.281006
 10
-148.883911
 20
817.281006
 10
-148.257431
 20
817.281006
  0
ARC
  5
337
330
2C9
100
AcDbEntity
  8
0
  6
Continuous
 62
     0
370
     0
100
AcDbCircle
 10
-160.257434
 20
817.280983
 30
0.0
 40
11.99999986245463
100
AcDbArc
 50
359.999999
 51
89.999999
  0
ARC
  5
338
330
2C9
100
AcDbEntity
  8
0
  6
Continuous
 62
     0
370
    30
100
AcDbCircle
 10
-160.256149
 20
817.280983
 30
0.0
 40
5.999999931227713
100
AcDbArc
 50
359.999999
 51
89.999999
  0
LINE
  5
339
330
2C9
100
AcDbEntity
  8
0
  6
Continuous
 62
     0
370
     0
100
AcDbLine
 10
-148.257434
 20
705.280983
 30
0.0
 11
-148.257434
 21
817.280983
 31
0.0
  0
LINE
  5
33A
330
2C9
100
AcDbEntity
  8
0
  6
Continuous
 62
     0
370
    30
100
AcDbLine
 10
-154.256149
 20
817.280983
 30
0.0
 11
-154.256149
 21
705.280983
 31
0.0
  0
LINE
  5
33B
330
2C9
100
AcDbEntity
  8
0
  6
Continuous
 62
     0
370
    30
100
AcDbLine
 10
-130.25615
 20
877.280983
 30
0.0
 11
-130.25615
 21
705.280983
 31
0.0
  0
ARC
  5
33C
330
2C9
100
AcDbEntity
  8
0
  6
Continuous
 62
     0
370
    30
100
AcDbCircle
 10
-136.256149
 20
877.280983
 30
0.0
 40
6.0
100
AcDbArc
 50
0.0
 51
90.0
  0
LINE
  5
33D
330
2C9
100
AcDbEntity
  8
0
  6
Continuous
 62
     0
370
    30
100
AcDbLine
 10
-162.256149
 20
883.280983
 30
0.0
 11
-136.256149
 21
883.280983
 31
0.0
  0
LINE
  5
33E
330
2C9
100
AcDbEntity
  8
0
  6
Continuous
 62
     0
370
    30
100
AcDbLine
 10
-162.256149
 20
883.280983
 30
0.0
 11
-162.256149
 21
877.280983
 31
0.0
  0
LINE
  5
33F
330
2C9
100
AcDbEntity
  8
0
  6
Continuous
 62
     0
370
     0
100
AcDbLine
 10
-162.257434
 20
877.280983
 30
0.0
 11
-136.257434
 21
877.280983
 31
0.0
  0
LINE
  5
340
330
2C9
100
AcDbEntity
  8
0
  6
Continuous
 62
     0
370
     0
100
AcDbLine
 10
-136.256149
 20
877.280983
 30
0.0
 11
-136.256149
 21
883.280983
 31
0.0
  0
LINE
  5
341
330
2C9
100
AcDbEntity
  8
0
  6
Continuous
 62
     0
370
     0
100
AcDbLine
 10
-130.256149
 20
877.280983
 30
0.0
 11
-136.257434
 21
877.280983
 31
0.0
  0
LINE
  5
342
330
2C9
100
AcDbEntity
  8
0
  6
Continuous
 62
     0
370
     0
100
AcDbLine
 10
-136.257434
 20
877.280983
 30
0.0
 11
-136.257434
 21
705.280983
 31
0.0
  0
LINE
  5
343
330
2C9
100
AcDbEntity
  8
0
  6
Continuous
 62
     0
370
    30
100
AcDbLine
 10
-162.257434
 20
829.280983
 30
0.0
 11
-162.257434
 21
877.280983
 31
0.0
  0
LINE
  5
344
330
2C9
100
AcDbEntity
  8
0
  6
Continuous
 62
     0
370
    30
100
AcDbLine
 10
-154.249732
 20
705.236606
 30
0.0
 11
-155.59796
 21
705.236606
 31
0.0
  0
LINE
  5
345
330
2C9
100
AcDbEntity
  8
0
  6
Continuous
 62
     0
370
    30
100
AcDbLine
 10
-127.597975
 20
705.236606
 30
0.0
 11
-131.020198
 21
705.236606
 31
0.0
  0
LINE
  5
346
330
2C9
100
AcDbEntity
  8
0
  6
Continuous
 62
     0
370
    30
100
AcDbLine
 10
-154.256149
 20
705.280983
 30
0.0
 11
-148.861682
 21
705.280983
 31
0.0
  0
LINE
  5
347
330
2C9
100
AcDbEntity
  8
0
  6
Continuous
 62
     0
370
    30
100
AcDbLine
 10
-131.020198
 20
705.236606
 30
0.0
 11
-132.289729
 21
705.236606
 31
0.0
  0
LINE
  5
348
330
2C9
100
AcDbEntity
  8
0
  6
Continuous
 62
     0
370
    30
100
AcDbLine
 10
-132.289729
 20
705.236606
 30
0.0
 11
-148.86176
 21
705.236606
 31
0.0
  0
LINE
  5
349
330
2C9
100
AcDbEntity
  8
0
  6
Continuous
 62
     0
370
    30
100
AcDbLine
 10
-132.266902
 20
705.280983
 30
0.0
 11
-131.020198
 21
705.280983
 31
0.0
  0
LINE
  5
34A
330
2C9
100
AcDbEntity
  8
0
  6
Continuous
 62
     0
370
    30
100
AcDbLine
 10
-156.59796
 20
617.536606
 30
0.0
 11
-156.59796
 21
681.816606
 31
0.0
  0
LINE
  5
34B
330
2C9
100
AcDbEntity
  8
0
  6
Continuous
 62
     0
370
    30
100
AcDbLine
 10
-126.597975
 20
617.536606
 30
0.0
 11
-126.597975
 21
681.816606
 31
0.0
  0
LINE
  5
34C
330
2C9
100
AcDbEntity
  8
0
  6
Continuous
 62
     0
370
    30
100
AcDbLine
 10
-155.59796
 20
690.116605
 30
0.0
 11
-155.59796
 21
705.236606
 31
0.0
  0
LINE
  5
34D
330
2C9
100
AcDbEntity
  8
0
  6
Continuous
 62
     0
370
    30
100
AcDbLine
 10
-127.597975
 20
690.116605
 30
0.0
 11
-127.597975
 21
705.236606
 31
0.0
  0
LINE
  5
34E
330
2C9
100
AcDbEntity
  8
0
  6
Continuous
 62
     0
370
    30
100
AcDbLine
 10
-176.597968
 20
682.516605
 30
0.0
 11
-176.597968
 21
690.116605
 31
0.0
  0
LINE
  5
34F
330
2C9
100
AcDbEntity
  8
0
  6
Continuous
 62
     0
370
    30
100
AcDbLine
 10
-106.597968
 20
682.516605
 30
0.0
 11
-106.597968
 21
690.116605
 31
0.0
  0
LINE
  5
350
330
2C9
100
AcDbEntity
  8
0
  6
Continuous
 62
     0
370
    30
100
AcDbLine
 10
-161.947961
 20
690.316605
 30
0.0
 11
-161.819335
 21
691.587854
 31
0.0
  0
LINE
  5
351
330
2C9
100
AcDbEntity
  8
0
  6
Continuous
 62
     0
370
    30
100
AcDbLine
 10
-121.373044
 20
691.588272
 30
0.0
 11
-121.247961
 21
690.316605
 31
0.0
  0
LINE
  5
352
330
2C9
100
AcDbEntity
  8
0
  6
Continuous
 62
     0
370
    30
100
AcDbLine
 10
-106.597961
 20
690.116605
 30
0.0
 11
-106.597961
 21
690.316605
 31
0.0
  0
LINE
  5
353
330
2C9
100
AcDbEntity
  8
0
  6
Continuous
 62
     0
370
    30
100
AcDbLine
 10
-176.597961
 20
690.116605
 30
0.0
 11
-176.597961
 21
690.316605
 31
0.0
  0
LWPOLYLINE
  5
354
330
2C9
100
AcDbEntity
  8
0
  6
Continuous
 62
     0
370
    30
100
AcDbPolyline
 90
       28
 70
     0
 43
0.0
 10
-156.597946
 20
729.324768
 10
-156.976242
 20
729.322937
 10
-157.353912
 20
729.317444
 10
-157.729385
 20
729.30835
 10
-158.101059
 20
729.295593
 10
-158.467361
 20
729.279297
 10
-158.826736
 20
729.25946
 10
-159.177948
 20
729.236145
 10
-159.519897
 20
729.209412
 10
-159.85144
 20
729.179443
 10
-160.171463
 20
729.146301
 10
-160.479019
 20
729.110107
 10
-160.773575
 20
729.07074
 10
-161.054642
 20
729.028259
 10
-161.321732
 20
728.982544
 10
-161.574371
 20
728.933655
 10
-161.812073
 20
728.881531
 10
-162.034622
 20
728.82605
 10
-162.242996
 20
728.766296
 10
-162.438477
 20
728.701355
 10
-162.622894
 20
728.629578
 10
-162.800125
 20
728.546204
 10
-162.974304
 20
728.445862
 10
-163.145386
 20
728.319763
 10
-163.308899
 20
728.155579
 10
-163.455872
 20
727.943054
 10
-163.556091
 20
727.682617
 10
-163.597946
 20
727.385925
  0
LINE
  5
355
330
2C9
100
AcDbEntity
  8
0
  6
Continuous
 62
     0
370
    30
100
AcDbLine
 10
-130.256147
 20
729.324872
 30
0.0
 11
-126.597941
 21
729.324872
 31
0.0
  0
LINE
  5
356
330
2C9
100
AcDbEntity
  8
0
  6
Continuous
 62
     0
370
    30
100
AcDbLine
 10
-156.597941
 20
729.324872
 30
0.0
 11
-154.256146
 21
729.324872
 31
0.0
  0
LWPOLYLINE
  5
357
330
2C9
100
AcDbEntity
  8
0
  6
Continuous
 62
     0
370
    30
100
AcDbPolyline
 90
       28
 70
     0
 43
0.0
 10
-126.597939
 20
729.324768
 10
-126.219643
 20
729.322937
 10
-125.841965
 20
729.317444
 10
-125.466492
 20
729.30835
 10
-125.094818
 20
729.295593
 10
-124.728523
 20
729.279297
 10
-124.369148
 20
729.25946
 10
-124.017929
 20
729.236145
 10
-123.67598
 20
729.209412
 10
-123.344437
 20
729.179443
 10
-123.024414
 20
729.146301
 10
-122.716858
 20
729.110107
 10
-122.422302
 20
729.07074
 10
-122.141243
 20
729.028259
 10
-121.874153
 20
728.982544
 10
-121.621513
 20
728.933655
 10
-121.383812
 20
728.881531
 10
-121.161263
 20
728.82605
 10
-120.952888
 20
728.766296
 10
-120.757408
 20
728.701355
 10
-120.572983
 20
728.629578
 10
-120.39576
 20
728.546204
 10
-120.221573
 20
728.445862
 10
-120.050499
 20
728.319763
 10
-119.886986
 20
728.155579
 10
-119.740005
 20
727.943054
 10
-119.639786
 20
727.682617
 10
-119.597939
 20
727.385925
  0
LINE
  5
358
330
2C9
100
AcDbEntity
  8
0
  6
Continuous
 62
     0
370
    30
100
AcDbLine
 10
-339.018401
 20
729.221502
 30
0.0
 11
-337.971612
 21
736.669793
 31
0.0
  0
LINE
  5
359
330
2C9
100
AcDbEntity
  8
0
  6
Continuous
 62
     0
370
    30
100
AcDbLine
 10
-362.78474
 20
732.561643
 30
0.0
 11
-361.737951
 21
740.009934
 31
0.0
  0
ARC
  5
35A
330
2C9
100
AcDbEntity
  8
0
  6
Continuous
 62
     0
370
    30
100
AcDbCircle
 10
-362.289658
 20
732.492064
 30
0.0
 40
0.4999999999999947
100
AcDbArc
 50
172.0
 51
262.0
  0
ARC
  5
35B
330
2C9
100
AcDbEntity
  8
0
  6
Continuous
 62
     0
370
    30
100
AcDbCircle
 10
-339.513492
 20
729.291083
 30
0.0
 40
0.4999999999999947
100
AcDbArc
 50
262.0
 51
352.0
  0
ENDBLK
  5
35D
330
2C9
100
AcDbEntity
  8
0
100
AcDbBlockEnd
  0
ENDSEC
  0
SECTION
  2
ENTITIES
  0
INSERT
  5
125
330
1F
100
AcDbEntity
  8
0
  6
Continuous
 62
     7
420
 16250871
370
     0
100
AcDbBlockReference
  2
a
 10
18.046059
 20
105.780983
 30
0.0
  0
INSERT
  5
18D
330
1F
100
AcDbEntity
  8
0
  6
Continuous
 62
     7
420
 16250871
370
     0
100
AcDbBlockReference
  2
b
 10
18.046059
 20
105.780983
 30
0.0
  0
INSERT
  5
1E8
330
1F
100
AcDbEntity
  8
0
  6
Continuous
 62
     7
420
 16250871
370
     0
100
AcDbBlockReference
  2
c
 10
18.046059
 20
105.780983
 30
0.0
  0
INSERT
  5
2C8
330
1F
100
AcDbEntity
  8
0
  6
Continuous
 62
     7
420
 16250871
370
     0
100
AcDbBlockReference
  2
d
 10
18.046059
 20
105.780983
 30
0.0
  0
INSERT
  5
35E
330
1F
100
AcDbEntity
  8
0
  6
Continuous
 62
     7
420
 16250871
370
     0
100
AcDbBlockReference
  2
e
 10
-46.80719
 20
0.0
 30
0.0
  0
ENDSEC
  0
SECTION
  2
OBJECTS
  0
DICTIONARY
  5
C
330
0
100
AcDbDictionary
281
     1
  3
ACAD_DETAILVIEWSTYLE
350
396
  3
ACAD_GROUP
350
D
  3
ACAD_LAYOUT
350
1A
  3
ACAD_MATERIAL
350
43
  3
ACAD_MLEADERSTYLE
350
6B
  3
ACAD_MLINESTYLE
350
17
  3
ACAD_PLOTSETTINGS
350
19
  3
ACAD_PLOTSTYLENAME
350
E
  3
ACAD_SCALELIST
350
47
  3
ACAD_SECTIONVIEWSTYLE
350
397
  3
ACAD_TABLESTYLE
350
69
  3
ACAD_VISUALSTYLE
350
2A
  3
ACDB_RECOMPOSE_DATA
350
393
  3
AcDbVariableDictionary
350
35F
  0
SUN
  5
6D
330
29
100
AcDbSun
 90
        1
290
     0
 63
     7
421
 16777215
 40
1.0
291
     1
 91
  2455826
 92
 54000000
292
     0
 70
     2
 71
   256
280
     1
  0
DICTIONARY
  5
396
102
{ACAD_REACTORS
330
C
102
}
330
C
100
AcDbDictionary
281
     1
  0
DICTIONARY
  5
D
102
{ACAD_REACTORS
330
C
102
}
330
C
100
AcDbDictionary
281
     1
  0
DICTIONARY
  5
1A
102
{ACAD_REACTORS
330
C
102
}
330
C
100
AcDbDictionary
281
     1
  3
Layout1
350
1E
  3
Layout2
350
26
  3
Model
350
22
  0
DICTIONARY
  5
43
102
{ACAD_REACTORS
330
C
102
}
330
C
100
AcDbDictionary
281
     1
  3
ByBlock
350
45
  3
ByLayer
350
44
  3
Global
350
46
  0
DICTIONARY
  5
6B
102
{ACAD_REACTORS
330
C
102
}
330
C
100
AcDbDictionary
281
     1
  3
Standard
350
6C
  0
DICTIONARY
  5
17
102
{ACAD_REACTORS
330
C
102
}
330
C
100
AcDbDictionary
281
     1
  3
Standard
350
18
  0
DICTIONARY
  5
19
102
{ACAD_REACTORS
330
C
102
}
330
C
100
AcDbDictionary
281
     1
  0
ACDBDICTIONARYWDFLT
  5
E
102
{ACAD_REACTORS
330
C
102
}
330
C
100
AcDbDictionary
281
     1
  3
Normal
350
F
100
AcDbDictionaryWithDefault
340
F
  0
DICTIONARY
  5
47
102
{ACAD_REACTORS
330
C
102
}
330
C
100
AcDbDictionary
281
     1
  3
A0
350
48
  3
A1
350
49
  3
A2
350
4A
  3
A3
350
4B
  3
A4
350
4C
  3
A5
350
4D
  3
A6
350
4E
  3
A7
350
4F
  3
A8
350
50
  3
A9
350
51
  3
B0
350
52
  3
B1
350
53
  3
B2
350
54
  3
B3
350
55
  3
B4
350
56
  3
B5
350
57
  3
B6
350
58
  3
B7
350
59
  3
B8
350
5A
  3
B9
350
5B
  3
C0
350
5C
  3
C1
350
5D
  3
C2
350
5E
  3
C3
350
5F
  3
C4
350
60
  3
C5
350
61
  3
C6
350
62
  3
C7
350
63
  3
C8
350
64
  3
C9
350
65
  3
D0
350
66
  3
D1
350
67
  3
D2
350
68
  0
DICTIONARY
  5
397
102
{ACAD_REACTORS
330
C
102
}
330
C
100
AcDbDictionary
281
     1
  0
DICTIONARY
  5
69
102
{ACAD_REACTORS
330
C
102
}
330
C
100
AcDbDictionary
281
     1
  3
Standard
350
6A
  0
DICTIONARY
  5
2A
102
{ACAD_REACTORS
330
C
102
}
330
C
100
AcDbDictionary
281
     1
  3
2dWireframe
350
2F
  3
Basic
350
32
  3
Brighten
350
36
  3
ColorChange
350
3A
  3
Conceptual
350
34
  3
Dim
350
35
  3
EdgeColorOff
350
3D
  3
Facepattern
350
39
  3
Flat
350
2B
  3
FlatWithEdges
350
2C
  3
Gouraud
350
2D
  3
GouraudWithEdges
350
2E
  3
Hidden
350
31
  3
JitterOff
350
3B
  3
Linepattern
350
38
  3
OverhangOff
350
3C
  3
Realistic
350
33
  3
Shaded
350
42
  3
Shaded with edges
350
41
  3
Shades of Gray
350
3E
  3
Sketchy
350
3F
  3
Thicken
350
37
  3
Wireframe
350
30
  3
X-Ray
350
40
  0
XRECORD
  5
393
102
{ACAD_REACTORS
330
C
102
}
330
C
100
AcDbXrecord
280
     1
 90
        1
330
6A
  0
DICTIONARY
  5
35F
102
{ACAD_REACTORS
330
C
102
}
330
C
100
AcDbDictionary
281
     1
  3
CANNOSCALE
350
360
  3
CMLEADERSTYLE
350
395
  3
CTABLESTYLE
350
394
  0
LAYOUT
  5
1E
102
{ACAD_REACTORS
330
1A
102
}
330
1A
100
AcDbPlotSettings
  1

  2
none_device
  4

  6

 40
0.0
 41
0.0
 42
0.0
 43
0.0
 44
0.0
 45
0.0
 46
0.0
 47
0.0
 48
0.0
 49
0.0
140
0.0
141
0.0
142
1.0
143
1.0
 70
   688
 72
     1
 73
     0
 74
     5
  7

 75
    16
 76
     0
 77
     2
 78
   300
147
1.0
148
0.0
149
0.0
100
AcDbLayout
  1
Layout1
 70
     1
 71
     1
 10
0.0
 20
0.0
 11
420.0
 21
297.0
 12
0.0
 22
0.0
 32
0.0
 14
1.000000E+20
 24
1.000000E+20
 34
1.000000E+20
 15
-1.000000E+20
 25
-1.000000E+20
 35
-1.000000E+20
146
0.0
 13
0.0
 23
0.0
 33
0.0
 16
1.0
 26
0.0
 36
0.0
 17
0.0
 27
1.0
 37
0.0
 76
     0
330
1B
  0
LAYOUT
  5
26
102
{ACAD_REACTORS
330
1A
102
}
330
1A
100
AcDbPlotSettings
  1

  2
none_device
  4

  6

 40
0.0
 41
0.0
 42
0.0
 43
0.0
 44
0.0
 45
0.0
 46
0.0
 47
0.0
 48
0.0
 49
0.0
140
0.0
141
0.0
142
1.0
143
1.0
 70
   688
 72
     1
 73
     0
 74
     5
  7

 75
    16
 76
     0
 77
     2
 78
   300
147
1.0
148
0.0
149
0.0
100
AcDbLayout
  1
Layout2
 70
     1
 71
     2
 10
0.0
 20
0.0
 11
0.0
 21
0.0
 12
0.0
 22
0.0
 32
0.0
 14
0.0
 24
0.0
 34
0.0
 15
0.0
 25
0.0
 35
0.0
146
0.0
 13
0.0
 23
0.0
 33
0.0
 16
1.0
 26
0.0
 36
0.0
 17
0.0
 27
1.0
 37
0.0
 76
     0
330
23
  0
LAYOUT
  5
22
102
{ACAD_REACTORS
330
1A
102
}
330
1A
100
AcDbPlotSettings
  1

  2
none_device
  4
Letter_(8.50_x_11.00_Inches)
  6

 40
6.35
 41
6.35
 42
6.350005
 43
6.350005
 44
215.9
 45
279.4
 46
0.0
 47
0.0
 48
0.0
 49
0.0
140
0.0
141
0.0
142
1.0
143
1.0
 70
  1712
 72
     1
 73
     0
 74
     0
  7

 75
     0
 76
     0
 77
     2
 78
   300
147
1.0
148
0.0
149
0.0
100
AcDbLayout
  1
Model
 70
     1
 71
     0
 10
0.0
 20
0.0
 11
420.0
 21
297.0
 12
0.0
 22
0.0
 32
0.0
 14
1.000000E+20
 24
1.000000E+20
 34
1.000000E+20
 15
-1.000000E+20
 25
-1.000000E+20
 35
-1.000000E+20
146
0.0
 13
0.0
 23
0.0
 33
0.0
 16
1.0
 26
0.0
 36
0.0
 17
0.0
 27
1.0
 37
0.0
 76
     0
330
1F
331
29
  0
MATERIAL
  5
45
102
{ACAD_REACTORS
330
43
102
}
330
43
100
AcDbMaterial
  1
ByBlock
 72
     1
 94
      127
  0
MATERIAL
  5
44
102
{ACAD_REACTORS
330
43
102
}
330
43
100
AcDbMaterial
  1
ByLayer
 72
     1
 94
      127
  0
MATERIAL
  5
46
102
{ACAD_REACTORS
330
43
102
}
330
43
100
AcDbMaterial
  1
Global
 72
     1
 94
      127
  0
MLEADERSTYLE
  5
6C
102
{ACAD_REACTORS
330
6B
102
}
330
6B
100
AcDbMLeaderStyle
179
     2
170
     2
171
     1
172
     0
 90
        2
 40
0.0
 41
0.0
173
     1
 91
-1056964608
340
14
 92
       -2
290
     1
 42
2.0
291
     1
 43
8.0
  3
Standard
341
0
 44
4.0
300

342
11
174
     1
178
     6
175
     1
176
     0
 93
-1056964608
 45
4.0
292
     0
297
     0
 46
4.0
343
0
 94
-1056964608
 47
1.0
 49
1.0
140
1.0
293
     1
141
0.0
294
     1
177
     0
142
1.0
295
     0
296
     0
143
3.75
271
     0
272
     9
273
     9
  0
MLINESTYLE
  5
18
102
{ACAD_REACTORS
330
17
102
}
330
17
100
AcDbMlineStyle
  2
Standard
 70
     0
  3

 62
   256
 51
90.0
 52
90.0
 71
     2
 49
0.5
 62
   256
  6
BYLAYER
 49
-0.5
 62
   256
  6
BYLAYER
  0
ACDBPLACEHOLDER
  5
F
102
{ACAD_REACTORS
330
E
102
}
330
E
  0
SCALE
  5
48
102
{ACAD_REACTORS
330
47
102
}
330
47
100
AcDbScale
 70
     0
300
1:1
140
1.0
141
1.0
290
     1
  0
SCALE
  5
49
102
{ACAD_REACTORS
330
47
102
}
330
47
100
AcDbScale
 70
     0
300
1:2
140
1.0
141
2.0
290
     0
  0
SCALE
  5
4A
102
{ACAD_REACTORS
330
47
102
}
330
47
100
AcDbScale
 70
     0
300
1:4
140
1.0
141
4.0
290
     0
  0
SCALE
  5
4B
102
{ACAD_REACTORS
330
47
102
}
330
47
100
AcDbScale
 70
     0
300
1:5
140
1.0
141
5.0
290
     0
  0
SCALE
  5
4C
102
{ACAD_REACTORS
330
47
102
}
330
47
100
AcDbScale
 70
     0
300
1:8
140
1.0
141
8.0
290
     0
  0
SCALE
  5
4D
102
{ACAD_REACTORS
330
47
102
}
330
47
100
AcDbScale
 70
     0
300
1:10
140
1.0
141
10.0
290
     0
  0
SCALE
  5
4E
102
{ACAD_REACTORS
330
47
102
}
330
47
100
AcDbScale
 70
     0
300
1:16
140
1.0
141
16.0
290
     0
  0
SCALE
  5
4F
102
{ACAD_REACTORS
330
47
102
}
330
47
100
AcDbScale
 70
     0
300
1:20
140
1.0
141
20.0
290
     0
  0
SCALE
  5
50
102
{ACAD_REACTORS
330
47
102
}
330
47
100
AcDbScale
 70
     0
300
1:30
140
1.0
141
30.0
290
     0
  0
SCALE
  5
51
102
{ACAD_REACTORS
330
47
102
}
330
47
100
AcDbScale
 70
     0
300
1:40
140
1.0
141
40.0
290
     0
  0
SCALE
  5
52
102
{ACAD_REACTORS
330
47
102
}
330
47
100
AcDbScale
 70
     0
300
1:50
140
1.0
141
50.0
290
     0
  0
SCALE
  5
53
102
{ACAD_REACTORS
330
47
102
}
330
47
100
AcDbScale
 70
     0
300
1:100
140
1.0
141
100.0
290
     0
  0
SCALE
  5
54
102
{ACAD_REACTORS
330
47
102
}
330
47
100
AcDbScale
 70
     0
300
2:1
140
2.0
141
1.0
290
     0
  0
SCALE
  5
55
102
{ACAD_REACTORS
330
47
102
}
330
47
100
AcDbScale
 70
     0
300
4:1
140
4.0
141
1.0
290
     0
  0
SCALE
  5
56
102
{ACAD_REACTORS
330
47
102
}
330
47
100
AcDbScale
 70
     0
300
8:1
140
8.0
141
1.0
290
     0
  0
SCALE
  5
57
102
{ACAD_REACTORS
330
47
102
}
330
47
100
AcDbScale
 70
     0
300
10:1
140
10.0
141
1.0
290
     0
  0
SCALE
  5
58
102
{ACAD_REACTORS
330
47
102
}
330
47
100
AcDbScale
 70
     0
300
100:1
140
100.0
141
1.0
290
     0
  0
SCALE
  5
59
102
{ACAD_REACTORS
330
47
102
}
330
47
100
AcDbScale
 70
     0
300
1/128" = 1'-0"
140
0.007812
141
12.0
290
     0
  0
SCALE
  5
5A
102
{ACAD_REACTORS
330
47
102
}
330
47
100
AcDbScale
 70
     0
300
1/64" = 1'-0"
140
0.015625
141
12.0
290
     0
  0
SCALE
  5
5B
102
{ACAD_REACTORS
330
47
102
}
330
47
100
AcDbScale
 70
     0
300
1/32" = 1'-0"
140
0.03125
141
12.0
290
     0
  0
SCALE
  5
5C
102
{ACAD_REACTORS
330
47
102
}
330
47
100
AcDbScale
 70
     0
300
1/16" = 1'-0"
140
0.0625
141
12.0
290
     0
  0
SCALE
  5
5D
102
{ACAD_REACTORS
330
47
102
}
330
47
100
AcDbScale
 70
     0
300
3/32" = 1'-0"
140
0.09375
141
12.0
290
     0
  0
SCALE
  5
5E
102
{ACAD_REACTORS
330
47
102
}
330
47
100
AcDbScale
 70
     0
300
1/8" = 1'-0"
140
0.125
141
12.0
290
     0
  0
SCALE
  5
5F
102
{ACAD_REACTORS
330
47
102
}
330
47
100
AcDbScale
 70
     0
300
3/16" = 1'-0"
140
0.1875
141
12.0
290
     0
  0
SCALE
  5
60
102
{ACAD_REACTORS
330
47
102
}
330
47
100
AcDbScale
 70
     0
300
1/4" = 1'-0"
140
0.25
141
12.0
290
     0
  0
SCALE
  5
61
102
{ACAD_REACTORS
330
47
102
}
330
47
100
AcDbScale
 70
     0
300
3/8" = 1'-0"
140
0.375
141
12.0
290
     0
  0
SCALE
  5
62
102
{ACAD_REACTORS
330
47
102
}
330
47
100
AcDbScale
 70
     0
300
1/2" = 1'-0"
140
0.5
141
12.0
290
     0
  0
SCALE
  5
63
102
{ACAD_REACTORS
330
47
102
}
330
47
100
AcDbScale
 70
     0
300
3/4" = 1'-0"
140
0.75
141
12.0
290
     0
  0
SCALE
  5
64
102
{ACAD_REACTORS
330
47
102
}
330
47
100
AcDbScale
 70
     0
300
1" = 1'-0"
140
1.0
141
12.0
290
     0
  0
SCALE
  5
65
102
{ACAD_REACTORS
330
47
102
}
330
47
100
AcDbScale
 70
     0
300
1-1/2" = 1'-0"
140
1.5
141
12.0
290
     0
  0
SCALE
  5
66
102
{ACAD_REACTORS
330
47
102
}
330
47
100
AcDbScale
 70
     0
300
3" = 1'-0"
140
3.0
141
12.0
290
     0
  0
SCALE
  5
67
102
{ACAD_REACTORS
330
47
102
}
330
47
100
AcDbScale
 70
     0
300
6" = 1'-0"
140
6.0
141
12.0
290
     0
  0
SCALE
  5
68
102
{ACAD_REACTORS
330
47
102
}
330
47
100
AcDbScale
 70
     0
300
1'-0" = 1'-0"
140
12.0
141
12.0
290
     0
  0
TABLESTYLE
  5
6A
102
{ACAD_REACTORS
330
69
102
}
102
{ACAD_XDICTIONARY
360
391
102
}
330
69
100
AcDbTableStyle
  3
Standard
 70
     0
 71
     0
 40
0.06
 41
0.06
280
     0
281
     0
  7
Standard
140
4.5
170
     2
 62
     0
 63
   257
283
     0
 90
        4
 91
        0
  1

274
    -2
284
     1
 64
     0
275
    -2
285
     1
 65
     0
276
    -2
286
     1
 66
     0
277
    -2
287
     1
 67
     0
278
    -2
288
     1
 68
     0
279
    -2
289
     1
 69
     0
  7
Standard
140
6.0
170
     5
 62
     0
 63
   257
283
     0
 90
        4
 91
        0
  1

274
    -2
284
     1
 64
     0
275
    -2
285
     1
 65
     0
276
    -2
286
     1
 66
     0
277
    -2
287
     1
 67
     0
278
    -2
288
     1
 68
     0
279
    -2
289
     1
 69
     0
  7
Standard
140
4.5
170
     5
 62
     0
 63
   257
283
     0
 90
        4
 91
        0
  1

274
    -2
284
     1
 64
     0
275
    -2
285
     1
 65
     0
276
    -2
286
     1
 66
     0
277
    -2
287
     1
 67
     0
278
    -2
288
     1
 68
     0
279
    -2
289
     1
 69
     0
  0
VISUALSTYLE
  5
2F
102
{ACAD_REACTORS
330
2A
102
}
102
{ACAD_XDICTIONARY
360
369
102
}
330
2A
100
AcDbVisualStyle
  2
2dWireframe
 70
     4
177
     2
291
     0
 71
     0
176
     1
 72
     2
176
     1
 73
     0
176
     1
 90
        0
176
     1
 40
0.6
176
     1
 41
30.0
176
     1
 62
     5
 63
     7
421
 16777215
176
     1
 74
     1
176
     1
 91
        4
176
     1
 64
     7
176
     1
 65
   257
176
     1
 75
     1
176
     1
175
     1
176
     1
 42
1.0
176
     1
 92
        0
176
     1
 66
   257
176
     1
 43
1.0
176
     1
 76
     1
176
     1
 77
     6
176
     1
 78
     2
176
     1
 67
     7
176
     1
 79
     5
176
     1
170
     0
176
     1
171
     0
176
     1
290
     0
176
     1
 93
        1
176
     1
 44
0.0
176
     1
173
     0
176
     1
  0
VISUALSTYLE
  5
32
102
{ACAD_REACTORS
330
2A
102
}
102
{ACAD_XDICTIONARY
360
36F
102
}
330
2A
100
AcDbVisualStyle
  2
Basic
 70
     7
177
     2
291
     1
 71
     1
176
     1
 72
     0
176
     1
 73
     1
176
     1
 90
        0
176
     1
 40
0.6
176
     1
 41
30.0
176
     1
 62
     5
 63
     7
421
 16777215
176
     1
 74
     0
176
     1
 91
        4
176
     1
 64
     7
176
     1
 65
   257
176
     1
 75
     1
176
     1
175
     1
176
     1
 42
1.0
176
     1
 92
        8
176
     1
 66
     7
176
     1
 43
1.0
176
     1
 76
     1
176
     1
 77
     6
176
     1
 78
     2
176
     1
 67
     7
176
     1
 79
     5
176
     1
170
     0
176
     1
171
     0
176
     1
290
     0
176
     1
 93
        1
176
     1
 44
0.0
176
     1
173
     0
176
     1
  0
VISUALSTYLE
  5
36
102
{ACAD_REACTORS
330
2A
102
}
102
{ACAD_XDICTIONARY
360
377
102
}
330
2A
100
AcDbVisualStyle
  2
Brighten
 70
    12
177
     2
291
     1
 71
     2
176
     1
 72
     2
176
     1
 73
     0
176
     1
 90
        0
176
     1
 40
0.6
176
     1
 41
30.0
176
     1
 62
     5
 63
     7
421
 16777215
176
     1
 74
     1
176
     1
 91
        4
176
     1
 64
     7
176
     1
 65
   257
176
     1
 75
     1
176
     1
175
     1
176
     1
 42
1.0
176
     1
 92
        8
176
     1
 66
     7
176
     1
 43
1.0
176
     1
 76
     1
176
     1
 77
     6
176
     1
 78
     2
176
     1
 67
     7
176
     1
 79
     5
176
     1
170
     0
176
     1
171
     0
176
     1
290
     0
176
     1
 93
        1
176
     1
 44
50.0
176
     1
173
     0
176
     1
  0
VISUALSTYLE
  5
3A
102
{ACAD_REACTORS
330
2A
102
}
102
{ACAD_XDICTIONARY
360
37F
102
}
330
2A
100
AcDbVisualStyle
  2
ColorChange
 70
    16
177
     2
291
     1
 71
     2
176
     1
 72
     2
176
     1
 73
     3
176
     1
 90
        0
176
     1
 40
0.6
176
     1
 41
30.0
176
     1
 62
     5
 63
     8
421
  8421504
176
     1
 74
     1
176
     1
 91
        4
176
     1
 64
     7
176
     1
 65
   257
176
     1
 75
     1
176
     1
175
     1
176
     1
 42
1.0
176
     1
 92
        8
176
     1
 66
     8
424
  8421504
176
     1
 43
1.0
176
     1
 76
     1
176
     1
 77
     6
176
     1
 78
     2
176
     1
 67
     7
176
     1
 79
     5
176
     1
170
     0
176
     1
171
     0
176
     1
290
     0
176
     1
 93
        1
176
     1
 44
0.0
176
     1
173
     0
176
     1
  0
VISUALSTYLE
  5
34
102
{ACAD_REACTORS
330
2A
102
}
102
{ACAD_XDICTIONARY
360
373
102
}
330
2A
100
AcDbVisualStyle
  2
Conceptual
 70
     9
177
     2
291
     0
 71
     3
176
     1
 72
     2
176
     1
 73
     0
176
     1
 90
        0
176
     1
 40
0.6
176
     1
 41
30.0
176
     1
 62
     5
 63
     7
421
 16777215
176
     1
 74
     2
176
     1
 91
        2
176
     1
 64
     7
176
     1
 65
   257
176
     1
 75
     1
176
     1
175
     1
176
     1
 42
179.0
176
     1
 92
        8
176
     1
 66
     7
176
     1
 43
1.0
176
     1
 76
     1
176
     1
 77
     6
176
     1
 78
     2
176
     1
 67
     7
176
     1
 79
     3
176
     1
170
     0
176
     1
171
     0
176
     1
290
     0
176
     1
 93
        1
176
     1
 44
0.0
176
     1
173
     0
176
     1
  0
VISUALSTYLE
  5
35
102
{ACAD_REACTORS
330
2A
102
}
102
{ACAD_XDICTIONARY
360
375
102
}
330
2A
100
AcDbVisualStyle
  2
Dim
 70
    11
177
     2
291
     1
 71
     2
176
     1
 72
     2
176
     1
 73
     0
176
     1
 90
        0
176
     1
 40
0.6
176
     1
 41
30.0
176
     1
 62
     5
 63
     7
421
 16777215
176
     1
 74
     1
176
     1
 91
        4
176
     1
 64
     7
176
     1
 65
   257
176
     1
 75
     1
176
     1
175
     1
176
     1
 42
1.0
176
     1
 92
        8
176
     1
 66
     7
176
     1
 43
1.0
176
     1
 76
     1
176
     1
 77
     6
176
     1
 78
     2
176
     1
 67
     7
176
     1
 79
     5
176
     1
170
     0
176
     1
171
     0
176
     1
290
     0
176
     1
 93
        1
176
     1
 44
-50.0
176
     1
173
     0
176
     1
  0
VISUALSTYLE
  5
3D
102
{ACAD_REACTORS
330
2A
102
}
102
{ACAD_XDICTIONARY
360
385
102
}
330
2A
100
AcDbVisualStyle
  2
EdgeColorOff
 70
    22
177
     2
291
     1
 71
     2
176
     0
 72
     2
176
     0
 73
     0
176
     0
 90
        0
176
     0
 40
0.6
176
     0
 41
30.0
176
     0
 62
     5
 63
     7
421
 16777215
176
     0
 74
     1
176
     0
 91
        4
176
     0
 64
     7
176
     0
 65
   257
176
     0
 75
     1
176
     0
175
     1
176
     0
 42
1.0
176
     0
 92
        8
176
     2
 66
     7
176
     0
 43
1.0
176
     0
 76
     1
176
     0
 77
     6
176
     0
 78
     2
176
     0
 67
     7
176
     0
 79
     5
176
     0
170
     0
176
     0
171
     0
176
     0
290
     0
176
     0
 93
        1
176
     0
 44
0.0
176
     0
173
     0
176
     0
  0
VISUALSTYLE
  5
39
102
{ACAD_REACTORS
330
2A
102
}
102
{ACAD_XDICTIONARY
360
37D
102
}
330
2A
100
AcDbVisualStyle
  2
Facepattern
 70
    15
177
     2
291
     1
 71
     2
176
     1
 72
     2
176
     1
 73
     0
176
     1
 90
        0
176
     1
 40
0.6
176
     1
 41
30.0
176
     1
 62
     5
 63
     7
421
 16777215
176
     1
 74
     1
176
     1
 91
        4
176
     1
 64
     7
176
     1
 65
   257
176
     1
 75
     1
176
     1
175
     1
176
     1
 42
1.0
176
     1
 92
        8
176
     1
 66
     7
176
     1
 43
1.0
176
     1
 76
     1
176
     1
 77
     6
176
     1
 78
     2
176
     1
 67
     7
176
     1
 79
     5
176
     1
170
     0
176
     1
171
     0
176
     1
290
     0
176
     1
 93
        1
176
     1
 44
0.0
176
     1
173
     0
176
     1
  0
VISUALSTYLE
  5
2B
102
{ACAD_REACTORS
330
2A
102
}
102
{ACAD_XDICTIONARY
360
361
102
}
330
2A
100
AcDbVisualStyle
  2
Flat
 70
     0
177
     2
291
     1
 71
     2
176
     1
 72
     1
176
     1
 73
     1
176
     1
 90
        2
176
     1
 40
0.6
176
     1
 41
30.0
176
     1
 62
     5
 63
     7
421
 16777215
176
     1
 74
     0
176
     1
 91
        0
176
     1
 64
     7
176
     1
 65
   257
176
     1
 75
     1
176
     1
175
     1
176
     1
 42
1.0
176
     1
 92
        8
176
     1
 66
     7
176
     1
 43
1.0
176
     1
 76
     1
176
     1
 77
     6
176
     1
 78
     2
176
     1
 67
     7
176
     1
 79
     5
176
     1
170
     0
176
     1
171
     0
176
     1
290
     0
176
     1
 93
       13
176
     1
 44
0.0
176
     1
173
     0
176
     1
  0
VISUALSTYLE
  5
2C
102
{ACAD_REACTORS
330
2A
102
}
102
{ACAD_XDICTIONARY
360
363
102
}
330
2A
100
AcDbVisualStyle
  2
FlatWithEdges
 70
     1
177
     2
291
     1
 71
     2
176
     1
 72
     1
176
     1
 73
     1
176
     1
 90
        2
176
     1
 40
0.6
176
     1
 41
30.0
176
     1
 62
     5
 63
     7
421
 16777215
176
     1
 74
     1
176
     1
 91
        0
176
     1
 64
     7
176
     1
 65
   257
176
     1
 75
     1
176
     1
175
     1
176
     1
 42
1.0
176
     1
 92
        0
176
     1
 66
   257
176
     1
 43
1.0
176
     1
 76
     1
176
     1
 77
     6
176
     1
 78
     2
176
     1
 67
     7
176
     1
 79
     5
176
     1
170
     0
176
     1
171
     0
176
     1
290
     0
176
     1
 93
       13
176
     1
 44
0.0
176
     1
173
     0
176
     1
  0
VISUALSTYLE
  5
2D
102
{ACAD_REACTORS
330
2A
102
}
102
{ACAD_XDICTIONARY
360
365
102
}
330
2A
100
AcDbVisualStyle
  2
Gouraud
 70
     2
177
     2
291
     1
 71
     2
176
     1
 72
     2
176
     1
 73
     1
176
     1
 90
        2
176
     1
 40
0.6
176
     1
 41
30.0
176
     1
 62
     5
 63
     7
421
 16777215
176
     1
 74
     0
176
     1
 91
        0
176
     1
 64
     7
176
     1
 65
   257
176
     1
 75
     1
176
     1
175
     1
176
     1
 42
1.0
176
     1
 92
        0
176
     1
 66
     7
176
     1
 43
1.0
176
     1
 76
     1
176
     1
 77
     6
176
     1
 78
     2
176
     1
 67
     7
176
     1
 79
     5
176
     1
170
     0
176
     1
171
     0
176
     1
290
     0
176
     1
 93
       13
176
     1
 44
0.0
176
     1
173
     0
176
     1
  0
VISUALSTYLE
  5
2E
102
{ACAD_REACTORS
330
2A
102
}
102
{ACAD_XDICTIONARY
360
367
102
}
330
2A
100
AcDbVisualStyle
  2
GouraudWithEdges
 70
     3
177
     2
291
     1
 71
     2
176
     1
 72
     2
176
     1
 73
     1
176
     1
 90
        2
176
     1
 40
0.6
176
     1
 41
30.0
176
     1
 62
     5
 63
     7
421
 16777215
176
     1
 74
     1
176
     1
 91
        0
176
     1
 64
     7
176
     1
 65
   257
176
     1
 75
     1
176
     1
175
     1
176
     1
 42
1.0
176
     1
 92
        0
176
     1
 66
   257
176
     1
 43
1.0
176
     1
 76
     1
176
     1
 77
     6
176
     1
 78
     2
176
     1
 67
     7
176
     1
 79
     5
176
     1
170
     0
176
     1
171
     0
176
     1
290
     0
176
     1
 93
       13
176
     1
 44
0.0
176
     1
173
     0
176
     1
  0
VISUALSTYLE
  5
31
102
{ACAD_REACTORS
330
2A
102
}
102
{ACAD_XDICTIONARY
360
36D
102
}
330
2A
100
AcDbVisualStyle
  2
Hidden
 70
     6
177
     2
291
     0
 71
     1
176
     1
 72
     2
176
     1
 73
     2
176
     1
 90
        0
176
     1
 40
0.6
176
     1
 41
30.0
176
     1
 62
     5
 63
     7
421
 16777215
176
     1
 74
     2
176
     1
 91
        2
176
     1
 64
     7
176
     1
 65
   257
176
     1
 75
     2
176
     1
175
     1
176
     1
 42
40.0
176
     1
 92
        0
176
     1
 66
   257
176
     1
 43
1.0
176
     1
 76
     1
176
     1
 77
     6
176
     1
 78
     2
176
     1
 67
     7
176
     1
 79
     3
176
     1
170
     0
176
     1
171
     0
176
     1
290
     0
176
     1
 93
        1
176
     1
 44
0.0
176
     1
173
     0
176
     1
  0
VISUALSTYLE
  5
3B
102
{ACAD_REACTORS
330
2A
102
}
102
{ACAD_XDICTIONARY
360
381
102
}
330
2A
100
AcDbVisualStyle
  2
JitterOff
 70
    20
177
     2
291
     1
 71
     2
176
     0
 72
     2
176
     0
 73
     0
176
     0
 90
        0
176
     0
 40
0.6
176
     0
 41
30.0
176
     0
 62
     5
 63
     7
421
 16777215
176
     0
 74
     1
176
     0
 91
        4
176
     0
 64
     7
176
     0
 65
   257
176
     0
 75
     1
176
     0
175
     1
176
     0
 42
1.0
176
     0
 92
       10
176
     2
 66
     7
176
     0
 43
1.0
176
     0
 76
     1
176
     0
 77
     6
176
     0
 78
     2
176
     0
 67
     7
176
     0
 79
     5
176
     0
170
     0
176
     0
171
     0
176
     0
290
     0
176
     0
 93
        1
176
     0
 44
0.0
176
     0
173
     0
176
     0
  0
VISUALSTYLE
  5
38
102
{ACAD_REACTORS
330
2A
102
}
102
{ACAD_XDICTIONARY
360
37B
102
}
330
2A
100
AcDbVisualStyle
  2
Linepattern
 70
    14
177
     2
291
     1
 71
     2
176
     1
 72
     2
176
     1
 73
     0
176
     1
 90
        0
176
     1
 40
0.6
176
     1
 41
30.0
176
     1
 62
     5
 63
     7
421
 16777215
176
     1
 74
     1
176
     1
 91
        4
176
     1
 64
     7
176
     1
 65
   257
176
     1
 75
     7
176
     1
175
     7
176
     1
 42
1.0
176
     1
 92
        8
176
     1
 66
     7
176
     1
 43
1.0
176
     1
 76
     1
176
     1
 77
     6
176
     1
 78
     2
176
     1
 67
     7
176
     1
 79
     5
176
     1
170
     0
176
     1
171
     0
176
     1
290
     0
176
     1
 93
        1
176
     1
 44
0.0
176
     1
173
     0
176
     1
  0
VISUALSTYLE
  5
3C
102
{ACAD_REACTORS
330
2A
102
}
102
{ACAD_XDICTIONARY
360
383
102
}
330
2A
100
AcDbVisualStyle
  2
OverhangOff
 70
    21
177
     2
291
     1
 71
     2
176
     0
 72
     2
176
     0
 73
     0
176
     0
 90
        0
176
     0
 40
0.6
176
     0
 41
30.0
176
     0
 62
     5
 63
     7
421
 16777215
176
     0
 74
     1
176
     0
 91
        4
176
     0
 64
     7
176
     0
 65
   257
176
     0
 75
     1
176
     0
175
     1
176
     0
 42
1.0
176
     0
 92
        9
176
     2
 66
     7
176
     0
 43
1.0
176
     0
 76
     1
176
     0
 77
     6
176
     0
 78
     2
176
     0
 67
     7
176
     0
 79
     5
176
     0
170
     0
176
     0
171
     0
176
     0
290
     0
176
     0
 93
        1
176
     0
 44
0.0
176
     0
173
     0
176
     0
  0
VISUALSTYLE
  5
33
102
{ACAD_REACTORS
330
2A
102
}
102
{ACAD_XDICTIONARY
360
371
102
}
330
2A
100
AcDbVisualStyle
  2
Realistic
 70
     8
177
     2
291
     0
 71
     2
176
     1
 72
     3
176
     1
 73
     0
176
     1
 90
        2
176
     1
 40
0.6
176
     1
 41
30.0
176
     1
 62
     5
 63
     7
421
 16777215
176
     1
 74
     0
176
     1
 91
        0
176
     1
 64
     7
176
     1
 65
   257
176
     1
 75
     1
176
     1
175
     1
176
     1
 42
1.0
176
     1
 92
        8
176
     1
 66
   257
176
     1
 43
1.0
176
     1
 76
     1
176
     1
 77
     6
176
     1
 78
     2
176
     1
 67
     7
176
     1
 79
     3
176
     1
170
     0
176
     1
171
     0
176
     1
290
     0
176
     1
 93
       13
176
     1
 44
0.0
176
     1
173
     0
176
     1
  0
VISUALSTYLE
  5
42
102
{ACAD_REACTORS
330
2A
102
}
102
{ACAD_XDICTIONARY
360
38F
102
}
330
2A
100
AcDbVisualStyle
  2
Shaded
 70
    27
177
     2
291
     0
 71
     2
176
     1
 72
     2
176
     1
 73
     1
176
     1
 90
        2
176
     1
 40
0.6
176
     1
 41
30.0
176
     1
 62
     5
 63
     7
421
 16777215
176
     1
 74
     0
176
     1
 91
        4
176
     1
 64
     7
176
     1
 65
   257
176
     1
 75
     1
176
     1
175
     1
176
     1
 42
1.0
176
     1
 92
        8
176
     1
 66
   257
176
     1
 43
1.0
176
     1
 76
     1
176
     1
 77
     6
176
     1
 78
     2
176
     1
 67
     8
425
  7895160
176
     1
 79
     3
176
     1
170
     0
176
     1
171
     0
176
     1
290
     0
176
     1
 93
        5
176
     1
 44
0.0
176
     1
173
     0
176
     1
  0
VISUALSTYLE
  5
41
102
{ACAD_REACTORS
330
2A
102
}
102
{ACAD_XDICTIONARY
360
38D
102
}
330
2A
100
AcDbVisualStyle
  2
Shaded with edges
 70
    26
177
     2
291
     0
 71
     2
176
     1
 72
     2
176
     1
 73
     1
176
     1
 90
        2
176
     1
 40
0.6
176
     1
 41
30.0
176
     1
 62
     5
 63
     7
421
 16777215
176
     1
 74
     1
176
     1
 91
       10
176
     1
 64
     7
176
     1
 65
   257
176
     1
 75
     2
176
     1
175
     1
176
     1
 42
1.0
176
     1
 92
        8
176
     1
 66
   257
176
     1
 43
1.0
176
     1
 76
     1
176
     1
 77
     6
176
     1
 78
     2
176
     1
 67
     7
176
     1
 79
     3
176
     1
170
     0
176
     1
171
     0
176
     1
290
     0
176
     1
 93
        5
176
     1
 44
0.0
176
     1
173
     0
176
     1
  0
VISUALSTYLE
  5
3E
102
{ACAD_REACTORS
330
2A
102
}
102
{ACAD_XDICTIONARY
360
387
102
}
330
2A
100
AcDbVisualStyle
  2
Shades of Gray
 70
    23
177
     2
291
     0
 71
     2
176
     1
 72
     2
176
     1
 73
     3
176
     1
 90
        0
176
     1
 40
0.6
176
     1
 41
30.0
176
     1
 62
     5
 63
     7
421
 16777215
176
     1
 74
     2
176
     1
 91
        2
176
     1
 64
     7
176
     1
 65
     7
176
     1
 75
     1
176
     1
175
     1
176
     1
 42
40.0
176
     1
 92
        8
176
     1
 66
     7
176
     1
 43
1.0
176
     1
 76
     1
176
     1
 77
     6
176
     1
 78
     2
176
     1
 67
     7
176
     1
 79
     3
176
     1
170
     0
176
     1
171
     0
176
     1
290
     0
176
     1
 93
        1
176
     1
 44
0.0
176
     1
173
     0
176
     1
  0
VISUALSTYLE
  5
3F
102
{ACAD_REACTORS
330
2A
102
}
102
{ACAD_XDICTIONARY
360
389
102
}
330
2A
100
AcDbVisualStyle
  2
Sketchy
 70
    24
177
     2
291
     0
 71
     1
176
     1
 72
     2
176
     1
 73
     2
176
     1
 90
        0
176
     1
 40
0.6
176
     1
 41
30.0
176
     1
 62
     5
 63
     7
421
 16777215
176
     1
 74
     2
176
     1
 91
        2
176
     1
 64
     7
176
     1
 65
     7
176
     1
 75
     1
176
     1
175
     1
176
     1
 42
40.0
176
     1
 92
       11
176
     1
 66
     7
176
     1
 43
1.0
176
     1
 76
     1
176
     1
 77
     6
176
     1
 78
     2
176
     1
 67
     7
176
     1
 79
     6
176
     1
170
     0
176
     1
171
     0
176
     1
290
     0
176
     1
 93
        1
176
     1
 44
0.0
176
     1
173
     0
176
     1
  0
VISUALSTYLE
  5
37
102
{ACAD_REACTORS
330
2A
102
}
102
{ACAD_XDICTIONARY
360
379
102
}
330
2A
100
AcDbVisualStyle
  2
Thicken
 70
    13
177
     2
291
     1
 71
     2
176
     1
 72
     2
176
     1
 73
     0
176
     1
 90
        0
176
     1
 40
0.6
176
     1
 41
30.0
176
     1
 62
     5
 63
     7
421
 16777215
176
     1
 74
     1
176
     1
 91
        4
176
     1
 64
     7
176
     1
 65
   257
176
     1
 75
     1
176
     1
175
     1
176
     1
 42
1.0
176
     1
 92
       12
176
     1
 66
     7
176
     1
 43
1.0
176
     1
 76
     1
176
     1
 77
     6
176
     1
 78
     2
176
     1
 67
     7
176
     1
 79
     5
176
     1
170
     0
176
     1
171
     0
176
     1
290
     0
176
     1
 93
        1
176
     1
 44
0.0
176
     1
173
     0
176
     1
  0
VISUALSTYLE
  5
30
102
{ACAD_REACTORS
330
2A
102
}
102
{ACAD_XDICTIONARY
360
36B
102
}
330
2A
100
AcDbVisualStyle
  2
Wireframe
 70
     5
177
     2
291
     0
 71
     0
176
     1
 72
     2
176
     1
 73
     0
176
     1
 90
        0
176
     1
 40
0.6
176
     1
 41
30.0
176
     1
 62
     5
 63
     7
421
 16777215
176
     1
 74
     1
176
     1
 91
        4
176
     1
 64
     7
176
     1
 65
   257
176
     1
 75
     1
176
     1
175
     1
176
     1
 42
1.0
176
     1
 92
        0
176
     1
 66
   257
176
     1
 43
1.0
176
     1
 76
     1
176
     1
 77
     6
176
     1
 78
     2
176
     1
 67
     7
176
     1
 79
     3
176
     1
170
     0
176
     1
171
     0
176
     1
290
     0
176
     1
 93
        1
176
     1
 44
0.0
176
     1
173
     0
176
     1
  0
VISUALSTYLE
  5
40
102
{ACAD_REACTORS
330
2A
102
}
102
{ACAD_XDICTIONARY
360
38B
102
}
330
2A
100
AcDbVisualStyle
  2
X-Ray
 70
    25
177
     2
291
     0
 71
     2
176
     1
 72
     2
176
     1
 73
     1
176
     1
 90
        1
176
     1
 40
0.5
176
     1
 41
30.0
176
     1
 62
     5
 63
     7
421
 16777215
176
     1
 74
     1
176
     1
 91
        0
176
     1
 64
     7
176
     1
 65
   257
176
     1
 75
     1
176
     1
175
     1
176
     1
 42
1.0
176
     1
 92
        8
176
     1
 66
     7
176
     1
 43
1.0
176
     1
 76
     1
176
     1
 77
     6
176
     1
 78
     2
176
     1
 67
     7
176
     1
 79
     3
176
     1
170
     0
176
     1
171
     0
176
     1
290
     0
176
     1
 93
       13
176
     1
 44
0.0
176
     1
173
     0
176
     1
  0
DICTIONARYVAR
  5
360
102
{ACAD_REACTORS
330
35F
102
}
330
35F
100
DictionaryVariables
280
     0
  1
1:1
  0
DICTIONARYVAR
  5
395
102
{ACAD_REACTORS
330
35F
102
}
330
35F
100
DictionaryVariables
280
     0
  1
Standard
  0
DICTIONARYVAR
  5
394
102
{ACAD_REACTORS
330
35F
102
}
330
35F
100
DictionaryVariables
280
     0
  1
Standard
  0
DICTIONARY
  5
391
330
6A
100
AcDbDictionary
280
     1
281
     1
  3
ACAD_ROUNDTRIP_2008_TABLESTYLE_CELLSTYLEMAP
360
392
  0
DICTIONARY
  5
369
330
2F
100
AcDbDictionary
280
     1
281
     1
  3
ACAD_XREC_ROUNDTRIP
360
36A
  0
DICTIONARY
  5
36F
330
32
100
AcDbDictionary
280
     1
281
     1
  3
ACAD_XREC_ROUNDTRIP
360
370
  0
DICTIONARY
  5
377
330
36
100
AcDbDictionary
280
     1
281
     1
  3
ACAD_XREC_ROUNDTRIP
360
378
  0
DICTIONARY
  5
37F
330
3A
100
AcDbDictionary
280
     1
281
     1
  3
ACAD_XREC_ROUNDTRIP
360
380
  0
DICTIONARY
  5
373
330
34
100
AcDbDictionary
280
     1
281
     1
  3
ACAD_XREC_ROUNDTRIP
360
374
  0
DICTIONARY
  5
375
330
35
100
AcDbDictionary
280
     1
281
     1
  3
ACAD_XREC_ROUNDTRIP
360
376
  0
DICTIONARY
  5
385
330
3D
100
AcDbDictionary
280
     1
281
     1
  3
ACAD_XREC_ROUNDTRIP
360
386
  0
DICTIONARY
  5
37D
330
39
100
AcDbDictionary
280
     1
281
     1
  3
ACAD_XREC_ROUNDTRIP
360
37E
  0
DICTIONARY
  5
361
330
2B
100
AcDbDictionary
280
     1
281
     1
  3
ACAD_XREC_ROUNDTRIP
360
362
  0
DICTIONARY
  5
363
330
2C
100
AcDbDictionary
280
     1
281
     1
  3
ACAD_XREC_ROUNDTRIP
360
364
  0
DICTIONARY
  5
365
330
2D
100
AcDbDictionary
280
     1
281
     1
  3
ACAD_XREC_ROUNDTRIP
360
366
  0
DICTIONARY
  5
367
330
2E
100
AcDbDictionary
280
     1
281
     1
  3
ACAD_XREC_ROUNDTRIP
360
368
  0
DICTIONARY
  5
36D
330
31
100
AcDbDictionary
280
     1
281
     1
  3
ACAD_XREC_ROUNDTRIP
360
36E
  0
DICTIONARY
  5
381
330
3B
100
AcDbDictionary
280
     1
281
     1
  3
ACAD_XREC_ROUNDTRIP
360
382
  0
DICTIONARY
  5
37B
330
38
100
AcDbDictionary
280
     1
281
     1
  3
ACAD_XREC_ROUNDTRIP
360
37C
  0
DICTIONARY
  5
383
330
3C
100
AcDbDictionary
280
     1
281
     1
  3
ACAD_XREC_ROUNDTRIP
360
384
  0
DICTIONARY
  5
371
330
33
100
AcDbDictionary
280
     1
281
     1
  3
ACAD_XREC_ROUNDTRIP
360
372
  0
DICTIONARY
  5
38F
330
42
100
AcDbDictionary
280
     1
281
     1
  3
ACAD_XREC_ROUNDTRIP
360
390
  0
DICTIONARY
  5
38D
330
41
100
AcDbDictionary
280
     1
281
     1
  3
ACAD_XREC_ROUNDTRIP
360
38E
  0
DICTIONARY
  5
387
330
3E
100
AcDbDictionary
280
     1
281
     1
  3
ACAD_XREC_ROUNDTRIP
360
388
  0
DICTIONARY
  5
389
330
3F
100
AcDbDictionary
280
     1
281
     1
  3
ACAD_XREC_ROUNDTRIP
360
38A
  0
DICTIONARY
  5
379
330
37
100
AcDbDictionary
280
     1
281
     1
  3
ACAD_XREC_ROUNDTRIP
360
37A
  0
DICTIONARY
  5
36B
330
30
100
AcDbDictionary
280
     1
281
     1
  3
ACAD_XREC_ROUNDTRIP
360
36C
  0
DICTIONARY
  5
38B
330
40
100
AcDbDictionary
280
     1
281
     1
  3
ACAD_XREC_ROUNDTRIP
360
38C
  0
CELLSTYLEMAP
  5
392
102
{ACAD_REACTORS
330
391
102
}
330
391
100
AcDbCellStyleMap
 90
        3
300
CELLSTYLE
  1
TABLEFORMAT_BEGIN
 90
        5
170
     1
 91
        0
 92
    32768
 62
   257
 93
        1
300
CONTENTFORMAT
  1
CONTENTFORMAT_BEGIN
 90
        0
 91
        0
 92
        4
 93
        0
300

 40
0.0
140
1.0
 94
        5
 62
     0
340
11
144
6.0
309
CONTENTFORMAT_END
171
     1
301
MARGIN
  1
CELLMARGIN_BEGIN
 40
1.5
 40
1.5
 40
1.5
 40
1.5
 40
1.5
 40
1.5
309
CELLMARGIN_END
 94
        6
 95
        1
302
GRIDFORMAT
  1
GRIDFORMAT_BEGIN
 90
        0
 91
        1
 62
     0
 92
       -2
340
14
 93
        0
 40
0.045
309
GRIDFORMAT_END
 95
        2
302
GRIDFORMAT
  1
GRIDFORMAT_BEGIN
 90
        0
 91
        1
 62
     0
 92
       -2
340
14
 93
        0
 40
0.045
309
GRIDFORMAT_END
 95
        4
302
GRIDFORMAT
  1
GRIDFORMAT_BEGIN
 90
        0
 91
        1
 62
     0
 92
       -2
340
14
 93
        0
 40
0.045
309
GRIDFORMAT_END
 95
        8
302
GRIDFORMAT
  1
GRIDFORMAT_BEGIN
 90
        0
 91
        1
 62
     0
 92
       -2
340
14
 93
        0
 40
0.045
309
GRIDFORMAT_END
 95
       16
302
GRIDFORMAT
  1
GRIDFORMAT_BEGIN
 90
        0
 91
        1
 62
     0
 92
       -2
340
14
 93
        0
 40
0.045
309
GRIDFORMAT_END
 95
       32
302
GRIDFORMAT
  1
GRIDFORMAT_BEGIN
 90
        0
 91
        1
 62
     0
 92
       -2
340
14
 93
        0
 40
0.045
309
GRIDFORMAT_END
309
TABLEFORMAT_END
  1
CELLSTYLE_BEGIN
 90
        1
 91
        1
300
_TITLE
309
CELLSTYLE_END
300
CELLSTYLE
  1
TABLEFORMAT_BEGIN
 90
        5
170
     1
 91
        0
 92
        0
 62
   257
 93
        1
300
CONTENTFORMAT
  1
CONTENTFORMAT_BEGIN
 90
        0
 91
        0
 92
        4
 93
        0
300

 40
0.0
140
1.0
 94
        5
 62
     0
340
11
144
4.5
309
CONTENTFORMAT_END
171
     1
301
MARGIN
  1
CELLMARGIN_BEGIN
 40
1.5
 40
1.5
 40
1.5
 40
1.5
 40
1.5
 40
1.5
309
CELLMARGIN_END
 94
        6
 95
        1
302
GRIDFORMAT
  1
GRIDFORMAT_BEGIN
 90
        0
 91
        1
 62
     0
 92
       -2
340
14
 93
        0
 40
0.045
309
GRIDFORMAT_END
 95
        2
302
GRIDFORMAT
  1
GRIDFORMAT_BEGIN
 90
        0
 91
        1
 62
     0
 92
       -2
340
14
 93
        0
 40
0.045
309
GRIDFORMAT_END
 95
        4
302
GRIDFORMAT
  1
GRIDFORMAT_BEGIN
 90
        0
 91
        1
 62
     0
 92
       -2
340
14
 93
        0
 40
0.045
309
GRIDFORMAT_END
 95
        8
302
GRIDFORMAT
  1
GRIDFORMAT_BEGIN
 90
        0
 91
        1
 62
     0
 92
       -2
340
14
 93
        0
 40
0.045
309
GRIDFORMAT_END
 95
       16
302
GRIDFORMAT
  1
GRIDFORMAT_BEGIN
 90
        0
 91
        1
 62
     0
 92
       -2
340
14
 93
        0
 40
0.045
309
GRIDFORMAT_END
 95
       32
302
GRIDFORMAT
  1
GRIDFORMAT_BEGIN
 90
        0
 91
        1
 62
     0
 92
       -2
340
14
 93
        0
 40
0.045
309
GRIDFORMAT_END
309
TABLEFORMAT_END
  1
CELLSTYLE_BEGIN
 90
        2
 91
        1
300
_HEADER
309
CELLSTYLE_END
300
CELLSTYLE
  1
TABLEFORMAT_BEGIN
 90
        5
170
     1
 91
        0
 92
        0
 62
   257
 93
        1
300
CONTENTFORMAT
  1
CONTENTFORMAT_BEGIN
 90
        0
 91
        0
 92
        4
 93
        0
300

 40
0.0
140
1.0
 94
        2
 62
     0
340
11
144
4.5
309
CONTENTFORMAT_END
171
     1
301
MARGIN
  1
CELLMARGIN_BEGIN
 40
1.5
 40
1.5
 40
1.5
 40
1.5
 40
1.5
 40
1.5
309
CELLMARGIN_END
 94
        6
 95
        1
302
GRIDFORMAT
  1
GRIDFORMAT_BEGIN
 90
        0
 91
        1
 62
     0
 92
       -2
340
14
 93
        0
 40
0.045
309
GRIDFORMAT_END
 95
        2
302
GRIDFORMAT
  1
GRIDFORMAT_BEGIN
 90
        0
 91
        1
 62
     0
 92
       -2
340
14
 93
        0
 40
0.045
309
GRIDFORMAT_END
 95
        4
302
GRIDFORMAT
  1
GRIDFORMAT_BEGIN
 90
        0
 91
        1
 62
     0
 92
       -2
340
14
 93
        0
 40
0.045
309
GRIDFORMAT_END
 95
        8
302
GRIDFORMAT
  1
GRIDFORMAT_BEGIN
 90
        0
 91
        1
 62
     0
 92
       -2
340
14
 93
        0
 40
0.045
309
GRIDFORMAT_END
 95
       16
302
GRIDFORMAT
  1
GRIDFORMAT_BEGIN
 90
        0
 91
        1
 62
     0
 92
       -2
340
14
 93
        0
 40
0.045
309
GRIDFORMAT_END
 95
       32
302
GRIDFORMAT
  1
GRIDFORMAT_BEGIN
 90
        0
 91
        1
 62
     0
 92
       -2
340
14
 93
        0
 40
0.045
309
GRIDFORMAT_END
309
TABLEFORMAT_END
  1
CELLSTYLE_BEGIN
 90
        3
 91
        2
300
_DATA
309
CELLSTYLE_END
  0
XRECORD
  5
36A
102
{ACAD_REACTORS
330
369
102
}
330
369
100
AcDbXrecord
280
     1
102
RTVSPost2010Prop28
280
     1
102
RTVSPost2010PropOp28
 70
     1
102
RTVSPost2010Prop29
280
     1
102
RTVSPost2010PropOp29
 70
     1
102
RTVSPost2010Prop30
280
     0
102
RTVSPost2010PropOp30
 70
     1
102
RTVSPost2010Prop31
280
     0
102
RTVSPost2010PropOp31
 70
     1
102
RTVSPost2010Prop32
280
     0
102
RTVSPost2010PropOp32
 70
     1
102
RTVSPost2010Prop33
280
     0
102
RTVSPost2010PropOp33
 70
     1
102
RTVSPost2010Prop34
280
     0
102
RTVSPost2010PropOp34
 70
     1
102
RTVSPost2010Prop35
280
     0
102
RTVSPost2010PropOp35
 70
     1
102
RTVSPost2010Prop36
280
     0
102
RTVSPost2010PropOp36
 70
     1
102
RTVSPost2010Prop37
 90
       50
102
RTVSPost2010PropOp37
 70
     1
102
RTVSPost2010Prop38
140
0.0
102
RTVSPost2010PropOp38
 70
     1
102
RTVSPost2010Prop39
140
1.0
102
RTVSPost2010PropOp39
 70
     1
102
RTVSPost2010Prop40
 90
        0
102
RTVSPost2010PropOp40
 70
     1
102
RTVSPost2010Prop41ColorIndex
 90
       18
102
RTVSPost2010Prop41ColorRGB
 90
        0
102
RTVSPost2010PropOp41
 70
     1
102
RTVSPost2010Prop42
 90
       50
102
RTVSPost2010PropOp42
 70
     1
102
RTVSPost2010Prop43
 90
        3
102
RTVSPost2010PropOp43
 70
     1
102
RTVSPost2010Prop44ColorIndex
 90
        5
102
RTVSPost2010Prop44ColorRGB
 90
      255
102
RTVSPost2010PropOp44
 70
     1
102
RTVSPost2010Prop45
280
     0
102
RTVSPost2010PropOp45
 70
     1
102
RTVSPost2010Prop46
 90
       50
102
RTVSPost2010PropOp46
 70
     1
102
RTVSPost2010Prop47
 90
       50
102
RTVSPost2010PropOp47
 70
     1
102
RTVSPost2010Prop48
 90
       50
102
RTVSPost2010PropOp48
 70
     1
102
RTVSPost2010Prop49
280
     0
102
RTVSPost2010PropOp49
 70
     1
102
RTVSPost2010Prop50
 90
       50
102
RTVSPost2010PropOp50
 70
     1
102
RTVSPost2010Prop51ColorIndex
 90
      256
102
RTVSPost2010Prop51ColorRGB
 90
-16777216
102
RTVSPost2010PropOp51
 70
     0
102
RTVSPost2010Prop52
140
1.0
102
RTVSPost2010PropOp52
 70
     0
102
RTVSPost2010Prop53
 90
        2
102
RTVSPost2010PropOp53
 70
     1
102
RTVSPost2010Prop54
  1
strokes_ogs.tif
102
RTVSPost2010PropOp54
 70
     1
102
RTVSPost2010Prop55
280
     0
102
RTVSPost2010PropOp55
 70
     1
102
RTVSPost2010Prop56
140
1.0
102
RTVSPost2010PropOp56
 70
     1
102
RTVSPost2010Prop57
140
1.0
102
RTVSPost2010PropOp57
 70
     1
  0
XRECORD
  5
370
102
{ACAD_REACTORS
330
36F
102
}
330
36F
100
AcDbXrecord
280
     1
102
RTVSPost2010Prop28
280
     0
102
RTVSPost2010PropOp28
 70
     1
102
RTVSPost2010Prop29
280
     1
102
RTVSPost2010PropOp29
 70
     1
102
RTVSPost2010Prop30
280
     1
102
RTVSPost2010PropOp30
 70
     1
102
RTVSPost2010Prop31
280
     0
102
RTVSPost2010PropOp31
 70
     1
102
RTVSPost2010Prop32
280
     0
102
RTVSPost2010PropOp32
 70
     1
102
RTVSPost2010Prop33
280
     0
102
RTVSPost2010PropOp33
 70
     1
102
RTVSPost2010Prop34
280
     0
102
RTVSPost2010PropOp34
 70
     1
102
RTVSPost2010Prop35
280
     0
102
RTVSPost2010PropOp35
 70
     1
102
RTVSPost2010Prop36
280
     0
102
RTVSPost2010PropOp36
 70
     1
102
RTVSPost2010Prop37
 90
       50
102
RTVSPost2010PropOp37
 70
     1
102
RTVSPost2010Prop38
140
0.0
102
RTVSPost2010PropOp38
 70
     1
102
RTVSPost2010Prop39
140
1.0
102
RTVSPost2010PropOp39
 70
     1
102
RTVSPost2010Prop40
 90
        0
102
RTVSPost2010PropOp40
 70
     1
102
RTVSPost2010Prop41ColorIndex
 90
       18
102
RTVSPost2010Prop41ColorRGB
 90
        0
102
RTVSPost2010PropOp41
 70
     1
102
RTVSPost2010Prop42
 90
       50
102
RTVSPost2010PropOp42
 70
     1
102
RTVSPost2010Prop43
 90
        3
102
RTVSPost2010PropOp43
 70
     1
102
RTVSPost2010Prop44ColorIndex
 90
        5
102
RTVSPost2010Prop44ColorRGB
 90
      255
102
RTVSPost2010PropOp44
 70
     1
102
RTVSPost2010Prop45
280
     0
102
RTVSPost2010PropOp45
 70
     1
102
RTVSPost2010Prop46
 90
       50
102
RTVSPost2010PropOp46
 70
     1
102
RTVSPost2010Prop47
 90
       50
102
RTVSPost2010PropOp47
 70
     1
102
RTVSPost2010Prop48
 90
       50
102
RTVSPost2010PropOp48
 70
     1
102
RTVSPost2010Prop49
280
     0
102
RTVSPost2010PropOp49
 70
     1
102
RTVSPost2010Prop50
 90
       50
102
RTVSPost2010PropOp50
 70
     1
102
RTVSPost2010Prop51ColorIndex
 90
      256
102
RTVSPost2010Prop51ColorRGB
 90
-16777216
102
RTVSPost2010PropOp51
 70
     0
102
RTVSPost2010Prop52
140
1.0
102
RTVSPost2010PropOp52
 70
     0
102
RTVSPost2010Prop53
 90
        2
102
RTVSPost2010PropOp53
 70
     1
102
RTVSPost2010Prop54
  1
strokes_ogs.tif
102
RTVSPost2010PropOp54
 70
     1
102
RTVSPost2010Prop55
280
     0
102
RTVSPost2010PropOp55
 70
     1
102
RTVSPost2010Prop56
140
1.0
102
RTVSPost2010PropOp56
 70
     1
102
RTVSPost2010Prop57
140
1.0
102
RTVSPost2010PropOp57
 70
     1
  0
XRECORD
  5
378
102
{ACAD_REACTORS
330
377
102
}
330
377
100
AcDbXrecord
280
     1
102
RTVSPost2010Prop28
280
     0
102
RTVSPost2010PropOp28
 70
     1
102
RTVSPost2010Prop29
280
     1
102
RTVSPost2010PropOp29
 70
     1
102
RTVSPost2010Prop30
280
     1
102
RTVSPost2010PropOp30
 70
     1
102
RTVSPost2010Prop31
280
     0
102
RTVSPost2010PropOp31
 70
     1
102
RTVSPost2010Prop32
280
     0
102
RTVSPost2010PropOp32
 70
     1
102
RTVSPost2010Prop33
280
     0
102
RTVSPost2010PropOp33
 70
     1
102
RTVSPost2010Prop34
280
     0
102
RTVSPost2010PropOp34
 70
     1
102
RTVSPost2010Prop35
280
     0
102
RTVSPost2010PropOp35
 70
     1
102
RTVSPost2010Prop36
280
     0
102
RTVSPost2010PropOp36
 70
     1
102
RTVSPost2010Prop37
 90
       50
102
RTVSPost2010PropOp37
 70
     1
102
RTVSPost2010Prop38
140
0.0
102
RTVSPost2010PropOp38
 70
     1
102
RTVSPost2010Prop39
140
1.0
102
RTVSPost2010PropOp39
 70
     1
102
RTVSPost2010Prop40
 90
        0
102
RTVSPost2010PropOp40
 70
     1
102
RTVSPost2010Prop41ColorIndex
 90
       18
102
RTVSPost2010Prop41ColorRGB
 90
        0
102
RTVSPost2010PropOp41
 70
     1
102
RTVSPost2010Prop42
 90
       50
102
RTVSPost2010PropOp42
 70
     1
102
RTVSPost2010Prop43
 90
        3
102
RTVSPost2010PropOp43
 70
     1
102
RTVSPost2010Prop44ColorIndex
 90
        5
102
RTVSPost2010Prop44ColorRGB
 90
      255
102
RTVSPost2010PropOp44
 70
     1
102
RTVSPost2010Prop45
280
     0
102
RTVSPost2010PropOp45
 70
     1
102
RTVSPost2010Prop46
 90
       50
102
RTVSPost2010PropOp46
 70
     1
102
RTVSPost2010Prop47
 90
       50
102
RTVSPost2010PropOp47
 70
     1
102
RTVSPost2010Prop48
 90
       50
102
RTVSPost2010PropOp48
 70
     1
102
RTVSPost2010Prop49
280
     0
102
RTVSPost2010PropOp49
 70
     1
102
RTVSPost2010Prop50
 90
       50
102
RTVSPost2010PropOp50
 70
     1
102
RTVSPost2010Prop51ColorIndex
 90
      256
102
RTVSPost2010Prop51ColorRGB
 90
-16777216
102
RTVSPost2010PropOp51
 70
     0
102
RTVSPost2010Prop52
140
1.0
102
RTVSPost2010PropOp52
 70
     0
102
RTVSPost2010Prop53
 90
        2
102
RTVSPost2010PropOp53
 70
     1
102
RTVSPost2010Prop54
  1
strokes_ogs.tif
102
RTVSPost2010PropOp54
 70
     1
102
RTVSPost2010Prop55
280
     0
102
RTVSPost2010PropOp55
 70
     1
102
RTVSPost2010Prop56
140
1.0
102
RTVSPost2010PropOp56
 70
     1
102
RTVSPost2010Prop57
140
1.0
102
RTVSPost2010PropOp57
 70
     1
  0
XRECORD
  5
380
102
{ACAD_REACTORS
330
37F
102
}
330
37F
100
AcDbXrecord
280
     1
102
RTVSPost2010Prop28
280
     0
102
RTVSPost2010PropOp28
 70
     1
102
RTVSPost2010Prop29
280
     1
102
RTVSPost2010PropOp29
 70
     1
102
RTVSPost2010Prop30
280
     1
102
RTVSPost2010PropOp30
 70
     1
102
RTVSPost2010Prop31
280
     0
102
RTVSPost2010PropOp31
 70
     1
102
RTVSPost2010Prop32
280
     0
102
RTVSPost2010PropOp32
 70
     1
102
RTVSPost2010Prop33
280
     0
102
RTVSPost2010PropOp33
 70
     1
102
RTVSPost2010Prop34
280
     0
102
RTVSPost2010PropOp34
 70
     1
102
RTVSPost2010Prop35
280
     0
102
RTVSPost2010PropOp35
 70
     1
102
RTVSPost2010Prop36
280
     0
102
RTVSPost2010PropOp36
 70
     1
102
RTVSPost2010Prop37
 90
       50
102
RTVSPost2010PropOp37
 70
     1
102
RTVSPost2010Prop38
140
0.0
102
RTVSPost2010PropOp38
 70
     1
102
RTVSPost2010Prop39
140
1.0
102
RTVSPost2010PropOp39
 70
     1
102
RTVSPost2010Prop40
 90
        0
102
RTVSPost2010PropOp40
 70
     1
102
RTVSPost2010Prop41ColorIndex
 90
       18
102
RTVSPost2010Prop41ColorRGB
 90
        0
102
RTVSPost2010PropOp41
 70
     1
102
RTVSPost2010Prop42
 90
       50
102
RTVSPost2010PropOp42
 70
     1
102
RTVSPost2010Prop43
 90
        3
102
RTVSPost2010PropOp43
 70
     1
102
RTVSPost2010Prop44ColorIndex
 90
        5
102
RTVSPost2010Prop44ColorRGB
 90
      255
102
RTVSPost2010PropOp44
 70
     1
102
RTVSPost2010Prop45
280
     0
102
RTVSPost2010PropOp45
 70
     1
102
RTVSPost2010Prop46
 90
       50
102
RTVSPost2010PropOp46
 70
     1
102
RTVSPost2010Prop47
 90
       50
102
RTVSPost2010PropOp47
 70
     1
102
RTVSPost2010Prop48
 90
       50
102
RTVSPost2010PropOp48
 70
     1
102
RTVSPost2010Prop49
280
     0
102
RTVSPost2010PropOp49
 70
     1
102
RTVSPost2010Prop50
 90
       50
102
RTVSPost2010PropOp50
 70
     1
102
RTVSPost2010Prop51ColorIndex
 90
      256
102
RTVSPost2010Prop51ColorRGB
 90
-16777216
102
RTVSPost2010PropOp51
 70
     0
102
RTVSPost2010Prop52
140
1.0
102
RTVSPost2010PropOp52
 70
     0
102
RTVSPost2010Prop53
 90
        2
102
RTVSPost2010PropOp53
 70
     1
102
RTVSPost2010Prop54
  1
strokes_ogs.tif
102
RTVSPost2010PropOp54
 70
     1
102
RTVSPost2010Prop55
280
     0
102
RTVSPost2010PropOp55
 70
     1
102
RTVSPost2010Prop56
140
1.0
102
RTVSPost2010PropOp56
 70
     1
102
RTVSPost2010Prop57
140
1.0
102
RTVSPost2010PropOp57
 70
     1
  0
XRECORD
  5
374
102
{ACAD_REACTORS
330
373
102
}
330
373
100
AcDbXrecord
280
     1
102
RTVSPost2010Prop28
280
     0
102
RTVSPost2010PropOp28
 70
     1
102
RTVSPost2010Prop29
280
     1
102
RTVSPost2010PropOp29
 70
     1
102
RTVSPost2010Prop30
280
     1
102
RTVSPost2010PropOp30
 70
     1
102
RTVSPost2010Prop31
280
     0
102
RTVSPost2010PropOp31
 70
     1
102
RTVSPost2010Prop32
280
     0
102
RTVSPost2010PropOp32
 70
     1
102
RTVSPost2010Prop33
280
     0
102
RTVSPost2010PropOp33
 70
     1
102
RTVSPost2010Prop34
280
     0
102
RTVSPost2010PropOp34
 70
     1
102
RTVSPost2010Prop35
280
     0
102
RTVSPost2010PropOp35
 70
     1
102
RTVSPost2010Prop36
280
     0
102
RTVSPost2010PropOp36
 70
     1
102
RTVSPost2010Prop37
 90
       50
102
RTVSPost2010PropOp37
 70
     1
102
RTVSPost2010Prop38
140
0.0
102
RTVSPost2010PropOp38
 70
     1
102
RTVSPost2010Prop39
140
1.0
102
RTVSPost2010PropOp39
 70
     1
102
RTVSPost2010Prop40
 90
        0
102
RTVSPost2010PropOp40
 70
     1
102
RTVSPost2010Prop41ColorIndex
 90
       18
102
RTVSPost2010Prop41ColorRGB
 90
        0
102
RTVSPost2010PropOp41
 70
     1
102
RTVSPost2010Prop42
 90
       50
102
RTVSPost2010PropOp42
 70
     1
102
RTVSPost2010Prop43
 90
        3
102
RTVSPost2010PropOp43
 70
     1
102
RTVSPost2010Prop44ColorIndex
 90
        5
102
RTVSPost2010Prop44ColorRGB
 90
      255
102
RTVSPost2010PropOp44
 70
     1
102
RTVSPost2010Prop45
280
     0
102
RTVSPost2010PropOp45
 70
     1
102
RTVSPost2010Prop46
 90
       50
102
RTVSPost2010PropOp46
 70
     1
102
RTVSPost2010Prop47
 90
       50
102
RTVSPost2010PropOp47
 70
     1
102
RTVSPost2010Prop48
 90
       50
102
RTVSPost2010PropOp48
 70
     1
102
RTVSPost2010Prop49
280
     0
102
RTVSPost2010PropOp49
 70
     1
102
RTVSPost2010Prop50
 90
       50
102
RTVSPost2010PropOp50
 70
     1
102
RTVSPost2010Prop51ColorIndex
 90
      256
102
RTVSPost2010Prop51ColorRGB
 90
-16777216
102
RTVSPost2010PropOp51
 70
     0
102
RTVSPost2010Prop52
140
1.0
102
RTVSPost2010PropOp52
 70
     0
102
RTVSPost2010Prop53
 90
        2
102
RTVSPost2010PropOp53
 70
     1
102
RTVSPost2010Prop54
  1
strokes_ogs.tif
102
RTVSPost2010PropOp54
 70
     1
102
RTVSPost2010Prop55
280
     0
102
RTVSPost2010PropOp55
 70
     1
102
RTVSPost2010Prop56
140
1.0
102
RTVSPost2010PropOp56
 70
     1
102
RTVSPost2010Prop57
140
1.0
102
RTVSPost2010PropOp57
 70
     1
  0
XRECORD
  5
376
102
{ACAD_REACTORS
330
375
102
}
330
375
100
AcDbXrecord
280
     1
102
RTVSPost2010Prop28
280
     0
102
RTVSPost2010PropOp28
 70
     1
102
RTVSPost2010Prop29
280
     1
102
RTVSPost2010PropOp29
 70
     1
102
RTVSPost2010Prop30
280
     1
102
RTVSPost2010PropOp30
 70
     1
102
RTVSPost2010Prop31
280
     0
102
RTVSPost2010PropOp31
 70
     1
102
RTVSPost2010Prop32
280
     0
102
RTVSPost2010PropOp32
 70
     1
102
RTVSPost2010Prop33
280
     0
102
RTVSPost2010PropOp33
 70
     1
102
RTVSPost2010Prop34
280
     0
102
RTVSPost2010PropOp34
 70
     1
102
RTVSPost2010Prop35
280
     0
102
RTVSPost2010PropOp35
 70
     1
102
RTVSPost2010Prop36
280
     0
102
RTVSPost2010PropOp36
 70
     1
102
RTVSPost2010Prop37
 90
       50
102
RTVSPost2010PropOp37
 70
     1
102
RTVSPost2010Prop38
140
0.0
102
RTVSPost2010PropOp38
 70
     1
102
RTVSPost2010Prop39
140
1.0
102
RTVSPost2010PropOp39
 70
     1
102
RTVSPost2010Prop40
 90
        0
102
RTVSPost2010PropOp40
 70
     1
102
RTVSPost2010Prop41ColorIndex
 90
       18
102
RTVSPost2010Prop41ColorRGB
 90
        0
102
RTVSPost2010PropOp41
 70
     1
102
RTVSPost2010Prop42
 90
       50
102
RTVSPost2010PropOp42
 70
     1
102
RTVSPost2010Prop43
 90
        3
102
RTVSPost2010PropOp43
 70
     1
102
RTVSPost2010Prop44ColorIndex
 90
        5
102
RTVSPost2010Prop44ColorRGB
 90
      255
102
RTVSPost2010PropOp44
 70
     1
102
RTVSPost2010Prop45
280
     0
102
RTVSPost2010PropOp45
 70
     1
102
RTVSPost2010Prop46
 90
       50
102
RTVSPost2010PropOp46
 70
     1
102
RTVSPost2010Prop47
 90
       50
102
RTVSPost2010PropOp47
 70
     1
102
RTVSPost2010Prop48
 90
       50
102
RTVSPost2010PropOp48
 70
     1
102
RTVSPost2010Prop49
280
     0
102
RTVSPost2010PropOp49
 70
     1
102
RTVSPost2010Prop50
 90
       50
102
RTVSPost2010PropOp50
 70
     1
102
RTVSPost2010Prop51ColorIndex
 90
      256
102
RTVSPost2010Prop51ColorRGB
 90
-16777216
102
RTVSPost2010PropOp51
 70
     0
102
RTVSPost2010Prop52
140
1.0
102
RTVSPost2010PropOp52
 70
     0
102
RTVSPost2010Prop53
 90
        2
102
RTVSPost2010PropOp53
 70
     1
102
RTVSPost2010Prop54
  1
strokes_ogs.tif
102
RTVSPost2010PropOp54
 70
     1
102
RTVSPost2010Prop55
280
     0
102
RTVSPost2010PropOp55
 70
     1
102
RTVSPost2010Prop56
140
1.0
102
RTVSPost2010PropOp56
 70
     1
102
RTVSPost2010Prop57
140
1.0
102
RTVSPost2010PropOp57
 70
     1
  0
XRECORD
  5
386
102
{ACAD_REACTORS
330
385
102
}
330
385
100
AcDbXrecord
280
     1
102
RTVSPost2010Prop28
280
     0
102
RTVSPost2010PropOp28
 70
     0
102
RTVSPost2010Prop29
280
     1
102
RTVSPost2010PropOp29
 70
     0
102
RTVSPost2010Prop30
280
     1
102
RTVSPost2010PropOp30
 70
     0
102
RTVSPost2010Prop31
280
     0
102
RTVSPost2010PropOp31
 70
     0
102
RTVSPost2010Prop32
280
     0
102
RTVSPost2010PropOp32
 70
     0
102
RTVSPost2010Prop33
280
     0
102
RTVSPost2010PropOp33
 70
     0
102
RTVSPost2010Prop34
280
     0
102
RTVSPost2010PropOp34
 70
     0
102
RTVSPost2010Prop35
280
     0
102
RTVSPost2010PropOp35
 70
     0
102
RTVSPost2010Prop36
280
     0
102
RTVSPost2010PropOp36
 70
     0
102
RTVSPost2010Prop37
 90
       50
102
RTVSPost2010PropOp37
 70
     0
102
RTVSPost2010Prop38
140
0.0
102
RTVSPost2010PropOp38
 70
     0
102
RTVSPost2010Prop39
140
1.0
102
RTVSPost2010PropOp39
 70
     0
102
RTVSPost2010Prop40
 90
        0
102
RTVSPost2010PropOp40
 70
     0
102
RTVSPost2010Prop41ColorIndex
 90
       18
102
RTVSPost2010Prop41ColorRGB
 90
        0
102
RTVSPost2010PropOp41
 70
     0
102
RTVSPost2010Prop42
 90
       50
102
RTVSPost2010PropOp42
 70
     0
102
RTVSPost2010Prop43
 90
        3
102
RTVSPost2010PropOp43
 70
     0
102
RTVSPost2010Prop44ColorIndex
 90
        5
102
RTVSPost2010Prop44ColorRGB
 90
      255
102
RTVSPost2010PropOp44
 70
     0
102
RTVSPost2010Prop45
280
     0
102
RTVSPost2010PropOp45
 70
     0
102
RTVSPost2010Prop46
 90
       50
102
RTVSPost2010PropOp46
 70
     0
102
RTVSPost2010Prop47
 90
       50
102
RTVSPost2010PropOp47
 70
     0
102
RTVSPost2010Prop48
 90
       50
102
RTVSPost2010PropOp48
 70
     0
102
RTVSPost2010Prop49
280
     0
102
RTVSPost2010PropOp49
 70
     0
102
RTVSPost2010Prop50
 90
       50
102
RTVSPost2010PropOp50
 70
     0
102
RTVSPost2010Prop51ColorIndex
 90
      256
102
RTVSPost2010Prop51ColorRGB
 90
-16777216
102
RTVSPost2010PropOp51
 70
     0
102
RTVSPost2010Prop52
140
1.0
102
RTVSPost2010PropOp52
 70
     0
102
RTVSPost2010Prop53
 90
        2
102
RTVSPost2010PropOp53
 70
     0
102
RTVSPost2010Prop54
  1
strokes_ogs.tif
102
RTVSPost2010PropOp54
 70
     0
102
RTVSPost2010Prop55
280
     0
102
RTVSPost2010PropOp55
 70
     0
102
RTVSPost2010Prop56
140
1.0
102
RTVSPost2010PropOp56
 70
     0
102
RTVSPost2010Prop57
140
1.0
102
RTVSPost2010PropOp57
 70
     0
  0
XRECORD
  5
37E
102
{ACAD_REACTORS
330
37D
102
}
330
37D
100
AcDbXrecord
280
     1
102
RTVSPost2010Prop28
280
     0
102
RTVSPost2010PropOp28
 70
     1
102
RTVSPost2010Prop29
280
     1
102
RTVSPost2010PropOp29
 70
     1
102
RTVSPost2010Prop30
280
     1
102
RTVSPost2010PropOp30
 70
     1
102
RTVSPost2010Prop31
280
     0
102
RTVSPost2010PropOp31
 70
     1
102
RTVSPost2010Prop32
280
     0
102
RTVSPost2010PropOp32
 70
     1
102
RTVSPost2010Prop33
280
     0
102
RTVSPost2010PropOp33
 70
     1
102
RTVSPost2010Prop34
280
     0
102
RTVSPost2010PropOp34
 70
     1
102
RTVSPost2010Prop35
280
     0
102
RTVSPost2010PropOp35
 70
     1
102
RTVSPost2010Prop36
280
     0
102
RTVSPost2010PropOp36
 70
     1
102
RTVSPost2010Prop37
 90
       50
102
RTVSPost2010PropOp37
 70
     1
102
RTVSPost2010Prop38
140
0.0
102
RTVSPost2010PropOp38
 70
     1
102
RTVSPost2010Prop39
140
1.0
102
RTVSPost2010PropOp39
 70
     1
102
RTVSPost2010Prop40
 90
        0
102
RTVSPost2010PropOp40
 70
     1
102
RTVSPost2010Prop41ColorIndex
 90
       18
102
RTVSPost2010Prop41ColorRGB
 90
        0
102
RTVSPost2010PropOp41
 70
     1
102
RTVSPost2010Prop42
 90
       50
102
RTVSPost2010PropOp42
 70
     1
102
RTVSPost2010Prop43
 90
        3
102
RTVSPost2010PropOp43
 70
     1
102
RTVSPost2010Prop44ColorIndex
 90
        5
102
RTVSPost2010Prop44ColorRGB
 90
      255
102
RTVSPost2010PropOp44
 70
     1
102
RTVSPost2010Prop45
280
     0
102
RTVSPost2010PropOp45
 70
     1
102
RTVSPost2010Prop46
 90
       50
102
RTVSPost2010PropOp46
 70
     1
102
RTVSPost2010Prop47
 90
       50
102
RTVSPost2010PropOp47
 70
     1
102
RTVSPost2010Prop48
 90
       50
102
RTVSPost2010PropOp48
 70
     1
102
RTVSPost2010Prop49
280
     0
102
RTVSPost2010PropOp49
 70
     1
102
RTVSPost2010Prop50
 90
       50
102
RTVSPost2010PropOp50
 70
     1
102
RTVSPost2010Prop51ColorIndex
 90
      256
102
RTVSPost2010Prop51ColorRGB
 90
-16777216
102
RTVSPost2010PropOp51
 70
     0
102
RTVSPost2010Prop52
140
1.0
102
RTVSPost2010PropOp52
 70
     0
102
RTVSPost2010Prop53
 90
        2
102
RTVSPost2010PropOp53
 70
     1
102
RTVSPost2010Prop54
  1
strokes_ogs.tif
102
RTVSPost2010PropOp54
 70
     1
102
RTVSPost2010Prop55
280
     0
102
RTVSPost2010PropOp55
 70
     1
102
RTVSPost2010Prop56
140
1.0
102
RTVSPost2010PropOp56
 70
     1
102
RTVSPost2010Prop57
140
1.0
102
RTVSPost2010PropOp57
 70
     1
  0
XRECORD
  5
362
102
{ACAD_REACTORS
330
361
102
}
330
361
100
AcDbXrecord
280
     1
102
RTVSPost2010Prop28
280
     0
102
RTVSPost2010PropOp28
 70
     1
102
RTVSPost2010Prop29
280
     1
102
RTVSPost2010PropOp29
 70
     1
102
RTVSPost2010Prop30
280
     1
102
RTVSPost2010PropOp30
 70
     1
102
RTVSPost2010Prop31
280
     0
102
RTVSPost2010PropOp31
 70
     1
102
RTVSPost2010Prop32
280
     0
102
RTVSPost2010PropOp32
 70
     1
102
RTVSPost2010Prop33
280
     0
102
RTVSPost2010PropOp33
 70
     1
102
RTVSPost2010Prop34
280
     0
102
RTVSPost2010PropOp34
 70
     1
102
RTVSPost2010Prop35
280
     0
102
RTVSPost2010PropOp35
 70
     1
102
RTVSPost2010Prop36
280
     0
102
RTVSPost2010PropOp36
 70
     1
102
RTVSPost2010Prop37
 90
       50
102
RTVSPost2010PropOp37
 70
     1
102
RTVSPost2010Prop38
140
0.0
102
RTVSPost2010PropOp38
 70
     1
102
RTVSPost2010Prop39
140
1.0
102
RTVSPost2010PropOp39
 70
     1
102
RTVSPost2010Prop40
 90
        0
102
RTVSPost2010PropOp40
 70
     1
102
RTVSPost2010Prop41ColorIndex
 90
       18
102
RTVSPost2010Prop41ColorRGB
 90
        0
102
RTVSPost2010PropOp41
 70
     1
102
RTVSPost2010Prop42
 90
       50
102
RTVSPost2010PropOp42
 70
     1
102
RTVSPost2010Prop43
 90
        3
102
RTVSPost2010PropOp43
 70
     1
102
RTVSPost2010Prop44ColorIndex
 90
        5
102
RTVSPost2010Prop44ColorRGB
 90
      255
102
RTVSPost2010PropOp44
 70
     1
102
RTVSPost2010Prop45
280
     0
102
RTVSPost2010PropOp45
 70
     1
102
RTVSPost2010Prop46
 90
       50
102
RTVSPost2010PropOp46
 70
     1
102
RTVSPost2010Prop47
 90
       50
102
RTVSPost2010PropOp47
 70
     1
102
RTVSPost2010Prop48
 90
       50
102
RTVSPost2010PropOp48
 70
     1
102
RTVSPost2010Prop49
280
     0
102
RTVSPost2010PropOp49
 70
     1
102
RTVSPost2010Prop50
 90
       50
102
RTVSPost2010PropOp50
 70
     1
102
RTVSPost2010Prop51ColorIndex
 90
      256
102
RTVSPost2010Prop51ColorRGB
 90
-16777216
102
RTVSPost2010PropOp51
 70
     0
102
RTVSPost2010Prop52
140
1.0
102
RTVSPost2010PropOp52
 70
     0
102
RTVSPost2010Prop53
 90
        2
102
RTVSPost2010PropOp53
 70
     1
102
RTVSPost2010Prop54
  1
strokes_ogs.tif
102
RTVSPost2010PropOp54
 70
     1
102
RTVSPost2010Prop55
280
     0
102
RTVSPost2010PropOp55
 70
     1
102
RTVSPost2010Prop56
140
1.0
102
RTVSPost2010PropOp56
 70
     1
102
RTVSPost2010Prop57
140
1.0
102
RTVSPost2010PropOp57
 70
     1
  0
XRECORD
  5
364
102
{ACAD_REACTORS
330
363
102
}
330
363
100
AcDbXrecord
280
     1
102
RTVSPost2010Prop28
280
     0
102
RTVSPost2010PropOp28
 70
     1
102
RTVSPost2010Prop29
280
     1
102
RTVSPost2010PropOp29
 70
     1
102
RTVSPost2010Prop30
280
     1
102
RTVSPost2010PropOp30
 70
     1
102
RTVSPost2010Prop31
280
     0
102
RTVSPost2010PropOp31
 70
     1
102
RTVSPost2010Prop32
280
     0
102
RTVSPost2010PropOp32
 70
     1
102
RTVSPost2010Prop33
280
     0
102
RTVSPost2010PropOp33
 70
     1
102
RTVSPost2010Prop34
280
     0
102
RTVSPost2010PropOp34
 70
     1
102
RTVSPost2010Prop35
280
     0
102
RTVSPost2010PropOp35
 70
     1
102
RTVSPost2010Prop36
280
     0
102
RTVSPost2010PropOp36
 70
     1
102
RTVSPost2010Prop37
 90
       50
102
RTVSPost2010PropOp37
 70
     1
102
RTVSPost2010Prop38
140
0.0
102
RTVSPost2010PropOp38
 70
     1
102
RTVSPost2010Prop39
140
1.0
102
RTVSPost2010PropOp39
 70
     1
102
RTVSPost2010Prop40
 90
        0
102
RTVSPost2010PropOp40
 70
     1
102
RTVSPost2010Prop41ColorIndex
 90
       18
102
RTVSPost2010Prop41ColorRGB
 90
        0
102
RTVSPost2010PropOp41
 70
     1
102
RTVSPost2010Prop42
 90
       50
102
RTVSPost2010PropOp42
 70
     1
102
RTVSPost2010Prop43
 90
        3
102
RTVSPost2010PropOp43
 70
     1
102
RTVSPost2010Prop44ColorIndex
 90
        5
102
RTVSPost2010Prop44ColorRGB
 90
      255
102
RTVSPost2010PropOp44
 70
     1
102
RTVSPost2010Prop45
280
     0
102
RTVSPost2010PropOp45
 70
     1
102
RTVSPost2010Prop46
 90
       50
102
RTVSPost2010PropOp46
 70
     1
102
RTVSPost2010Prop47
 90
       50
102
RTVSPost2010PropOp47
 70
     1
102
RTVSPost2010Prop48
 90
       50
102
RTVSPost2010PropOp48
 70
     1
102
RTVSPost2010Prop49
280
     0
102
RTVSPost2010PropOp49
 70
     1
102
RTVSPost2010Prop50
 90
       50
102
RTVSPost2010PropOp50
 70
     1
102
RTVSPost2010Prop51ColorIndex
 90
      256
102
RTVSPost2010Prop51ColorRGB
 90
-16777216
102
RTVSPost2010PropOp51
 70
     0
102
RTVSPost2010Prop52
140
1.0
102
RTVSPost2010PropOp52
 70
     0
102
RTVSPost2010Prop53
 90
        2
102
RTVSPost2010PropOp53
 70
     1
102
RTVSPost2010Prop54
  1
strokes_ogs.tif
102
RTVSPost2010PropOp54
 70
     1
102
RTVSPost2010Prop55
280
     0
102
RTVSPost2010PropOp55
 70
     1
102
RTVSPost2010Prop56
140
1.0
102
RTVSPost2010PropOp56
 70
     1
102
RTVSPost2010Prop57
140
1.0
102
RTVSPost2010PropOp57
 70
     1
  0
XRECORD
  5
366
102
{ACAD_REACTORS
330
365
102
}
330
365
100
AcDbXrecord
280
     1
102
RTVSPost2010Prop28
280
     0
102
RTVSPost2010PropOp28
 70
     1
102
RTVSPost2010Prop29
280
     1
102
RTVSPost2010PropOp29
 70
     1
102
RTVSPost2010Prop30
280
     1
102
RTVSPost2010PropOp30
 70
     1
102
RTVSPost2010Prop31
280
     0
102
RTVSPost2010PropOp31
 70
     1
102
RTVSPost2010Prop32
280
     0
102
RTVSPost2010PropOp32
 70
     1
102
RTVSPost2010Prop33
280
     0
102
RTVSPost2010PropOp33
 70
     1
102
RTVSPost2010Prop34
280
     0
102
RTVSPost2010PropOp34
 70
     1
102
RTVSPost2010Prop35
280
     0
102
RTVSPost2010PropOp35
 70
     1
102
RTVSPost2010Prop36
280
     0
102
RTVSPost2010PropOp36
 70
     1
102
RTVSPost2010Prop37
 90
       50
102
RTVSPost2010PropOp37
 70
     1
102
RTVSPost2010Prop38
140
0.0
102
RTVSPost2010PropOp38
 70
     1
102
RTVSPost2010Prop39
140
1.0
102
RTVSPost2010PropOp39
 70
     1
102
RTVSPost2010Prop40
 90
        0
102
RTVSPost2010PropOp40
 70
     1
102
RTVSPost2010Prop41ColorIndex
 90
       18
102
RTVSPost2010Prop41ColorRGB
 90
        0
102
RTVSPost2010PropOp41
 70
     1
102
RTVSPost2010Prop42
 90
       50
102
RTVSPost2010PropOp42
 70
     1
102
RTVSPost2010Prop43
 90
        3
102
RTVSPost2010PropOp43
 70
     1
102
RTVSPost2010Prop44ColorIndex
 90
        5
102
RTVSPost2010Prop44ColorRGB
 90
      255
102
RTVSPost2010PropOp44
 70
     1
102
RTVSPost2010Prop45
280
     0
102
RTVSPost2010PropOp45
 70
     1
102
RTVSPost2010Prop46
 90
       50
102
RTVSPost2010PropOp46
 70
     1
102
RTVSPost2010Prop47
 90
       50
102
RTVSPost2010PropOp47
 70
     1
102
RTVSPost2010Prop48
 90
       50
102
RTVSPost2010PropOp48
 70
     1
102
RTVSPost2010Prop49
280
     0
102
RTVSPost2010PropOp49
 70
     1
102
RTVSPost2010Prop50
 90
       50
102
RTVSPost2010PropOp50
 70
     1
102
RTVSPost2010Prop51ColorIndex
 90
      256
102
RTVSPost2010Prop51ColorRGB
 90
-16777216
102
RTVSPost2010PropOp51
 70
     0
102
RTVSPost2010Prop52
140
1.0
102
RTVSPost2010PropOp52
 70
     0
102
RTVSPost2010Prop53
 90
        2
102
RTVSPost2010PropOp53
 70
     1
102
RTVSPost2010Prop54
  1
strokes_ogs.tif
102
RTVSPost2010PropOp54
 70
     1
102
RTVSPost2010Prop55
280
     0
102
RTVSPost2010PropOp55
 70
     1
102
RTVSPost2010Prop56
140
1.0
102
RTVSPost2010PropOp56
 70
     1
102
RTVSPost2010Prop57
140
1.0
102
RTVSPost2010PropOp57
 70
     1
  0
XRECORD
  5
368
102
{ACAD_REACTORS
330
367
102
}
330
367
100
AcDbXrecord
280
     1
102
RTVSPost2010Prop28
280
     0
102
RTVSPost2010PropOp28
 70
     1
102
RTVSPost2010Prop29
280
     1
102
RTVSPost2010PropOp29
 70
     1
102
RTVSPost2010Prop30
280
     1
102
RTVSPost2010PropOp30
 70
     1
102
RTVSPost2010Prop31
280
     0
102
RTVSPost2010PropOp31
 70
     1
102
RTVSPost2010Prop32
280
     0
102
RTVSPost2010PropOp32
 70
     1
102
RTVSPost2010Prop33
280
     0
102
RTVSPost2010PropOp33
 70
     1
102
RTVSPost2010Prop34
280
     0
102
RTVSPost2010PropOp34
 70
     1
102
RTVSPost2010Prop35
280
     0
102
RTVSPost2010PropOp35
 70
     1
102
RTVSPost2010Prop36
280
     0
102
RTVSPost2010PropOp36
 70
     1
102
RTVSPost2010Prop37
 90
       50
102
RTVSPost2010PropOp37
 70
     1
102
RTVSPost2010Prop38
140
0.0
102
RTVSPost2010PropOp38
 70
     1
102
RTVSPost2010Prop39
140
1.0
102
RTVSPost2010PropOp39
 70
     1
102
RTVSPost2010Prop40
 90
        0
102
RTVSPost2010PropOp40
 70
     1
102
RTVSPost2010Prop41ColorIndex
 90
       18
102
RTVSPost2010Prop41ColorRGB
 90
        0
102
RTVSPost2010PropOp41
 70
     1
102
RTVSPost2010Prop42
 90
       50
102
RTVSPost2010PropOp42
 70
     1
102
RTVSPost2010Prop43
 90
        3
102
RTVSPost2010PropOp43
 70
     1
102
RTVSPost2010Prop44ColorIndex
 90
        5
102
RTVSPost2010Prop44ColorRGB
 90
      255
102
RTVSPost2010PropOp44
 70
     1
102
RTVSPost2010Prop45
280
     0
102
RTVSPost2010PropOp45
 70
     1
102
RTVSPost2010Prop46
 90
       50
102
RTVSPost2010PropOp46
 70
     1
102
RTVSPost2010Prop47
 90
       50
102
RTVSPost2010PropOp47
 70
     1
102
RTVSPost2010Prop48
 90
       50
102
RTVSPost2010PropOp48
 70
     1
102
RTVSPost2010Prop49
280
     0
102
RTVSPost2010PropOp49
 70
     1
102
RTVSPost2010Prop50
 90
       50
102
RTVSPost2010PropOp50
 70
     1
102
RTVSPost2010Prop51ColorIndex
 90
      256
102
RTVSPost2010Prop51ColorRGB
 90
-16777216
102
RTVSPost2010PropOp51
 70
     0
102
RTVSPost2010Prop52
140
1.0
102
RTVSPost2010PropOp52
 70
     0
102
RTVSPost2010Prop53
 90
        2
102
RTVSPost2010PropOp53
 70
     1
102
RTVSPost2010Prop54
  1
strokes_ogs.tif
102
RTVSPost2010PropOp54
 70
     1
102
RTVSPost2010Prop55
280
     0
102
RTVSPost2010PropOp55
 70
     1
102
RTVSPost2010Prop56
140
1.0
102
RTVSPost2010PropOp56
 70
     1
102
RTVSPost2010Prop57
140
1.0
102
RTVSPost2010PropOp57
 70
     1
  0
XRECORD
  5
36E
102
{ACAD_REACTORS
330
36D
102
}
330
36D
100
AcDbXrecord
280
     1
102
RTVSPost2010Prop28
280
     0
102
RTVSPost2010PropOp28
 70
     1
102
RTVSPost2010Prop29
280
     1
102
RTVSPost2010PropOp29
 70
     1
102
RTVSPost2010Prop30
280
     1
102
RTVSPost2010PropOp30
 70
     1
102
RTVSPost2010Prop31
280
     0
102
RTVSPost2010PropOp31
 70
     1
102
RTVSPost2010Prop32
280
     0
102
RTVSPost2010PropOp32
 70
     1
102
RTVSPost2010Prop33
280
     0
102
RTVSPost2010PropOp33
 70
     1
102
RTVSPost2010Prop34
280
     0
102
RTVSPost2010PropOp34
 70
     1
102
RTVSPost2010Prop35
280
     0
102
RTVSPost2010PropOp35
 70
     1
102
RTVSPost2010Prop36
280
     0
102
RTVSPost2010PropOp36
 70
     1
102
RTVSPost2010Prop37
 90
       50
102
RTVSPost2010PropOp37
 70
     1
102
RTVSPost2010Prop38
140
0.0
102
RTVSPost2010PropOp38
 70
     1
102
RTVSPost2010Prop39
140
1.0
102
RTVSPost2010PropOp39
 70
     1
102
RTVSPost2010Prop40
 90
        0
102
RTVSPost2010PropOp40
 70
     1
102
RTVSPost2010Prop41ColorIndex
 90
       18
102
RTVSPost2010Prop41ColorRGB
 90
        0
102
RTVSPost2010PropOp41
 70
     1
102
RTVSPost2010Prop42
 90
       50
102
RTVSPost2010PropOp42
 70
     1
102
RTVSPost2010Prop43
 90
        3
102
RTVSPost2010PropOp43
 70
     1
102
RTVSPost2010Prop44ColorIndex
 90
        5
102
RTVSPost2010Prop44ColorRGB
 90
      255
102
RTVSPost2010PropOp44
 70
     1
102
RTVSPost2010Prop45
280
     0
102
RTVSPost2010PropOp45
 70
     1
102
RTVSPost2010Prop46
 90
       50
102
RTVSPost2010PropOp46
 70
     1
102
RTVSPost2010Prop47
 90
       50
102
RTVSPost2010PropOp47
 70
     1
102
RTVSPost2010Prop48
 90
       50
102
RTVSPost2010PropOp48
 70
     1
102
RTVSPost2010Prop49
280
     0
102
RTVSPost2010PropOp49
 70
     1
102
RTVSPost2010Prop50
 90
       50
102
RTVSPost2010PropOp50
 70
     1
102
RTVSPost2010Prop51ColorIndex
 90
      256
102
RTVSPost2010Prop51ColorRGB
 90
-16777216
102
RTVSPost2010PropOp51
 70
     0
102
RTVSPost2010Prop52
140
1.0
102
RTVSPost2010PropOp52
 70
     0
102
RTVSPost2010Prop53
 90
        2
102
RTVSPost2010PropOp53
 70
     1
102
RTVSPost2010Prop54
  1
strokes_ogs.tif
102
RTVSPost2010PropOp54
 70
     1
102
RTVSPost2010Prop55
280
     0
102
RTVSPost2010PropOp55
 70
     1
102
RTVSPost2010Prop56
140
1.0
102
RTVSPost2010PropOp56
 70
     1
102
RTVSPost2010Prop57
140
1.0
102
RTVSPost2010PropOp57
 70
     1
  0
XRECORD
  5
382
102
{ACAD_REACTORS
330
381
102
}
330
381
100
AcDbXrecord
280
     1
102
RTVSPost2010Prop28
280
     0
102
RTVSPost2010PropOp28
 70
     0
102
RTVSPost2010Prop29
280
     1
102
RTVSPost2010PropOp29
 70
     0
102
RTVSPost2010Prop30
280
     1
102
RTVSPost2010PropOp30
 70
     0
102
RTVSPost2010Prop31
280
     0
102
RTVSPost2010PropOp31
 70
     0
102
RTVSPost2010Prop32
280
     0
102
RTVSPost2010PropOp32
 70
     0
102
RTVSPost2010Prop33
280
     0
102
RTVSPost2010PropOp33
 70
     0
102
RTVSPost2010Prop34
280
     0
102
RTVSPost2010PropOp34
 70
     0
102
RTVSPost2010Prop35
280
     0
102
RTVSPost2010PropOp35
 70
     0
102
RTVSPost2010Prop36
280
     0
102
RTVSPost2010PropOp36
 70
     0
102
RTVSPost2010Prop37
 90
       50
102
RTVSPost2010PropOp37
 70
     0
102
RTVSPost2010Prop38
140
0.0
102
RTVSPost2010PropOp38
 70
     0
102
RTVSPost2010Prop39
140
1.0
102
RTVSPost2010PropOp39
 70
     0
102
RTVSPost2010Prop40
 90
        0
102
RTVSPost2010PropOp40
 70
     0
102
RTVSPost2010Prop41ColorIndex
 90
       18
102
RTVSPost2010Prop41ColorRGB
 90
        0
102
RTVSPost2010PropOp41
 70
     0
102
RTVSPost2010Prop42
 90
       50
102
RTVSPost2010PropOp42
 70
     0
102
RTVSPost2010Prop43
 90
        3
102
RTVSPost2010PropOp43
 70
     0
102
RTVSPost2010Prop44ColorIndex
 90
        5
102
RTVSPost2010Prop44ColorRGB
 90
      255
102
RTVSPost2010PropOp44
 70
     0
102
RTVSPost2010Prop45
280
     0
102
RTVSPost2010PropOp45
 70
     0
102
RTVSPost2010Prop46
 90
       50
102
RTVSPost2010PropOp46
 70
     0
102
RTVSPost2010Prop47
 90
       50
102
RTVSPost2010PropOp47
 70
     0
102
RTVSPost2010Prop48
 90
       50
102
RTVSPost2010PropOp48
 70
     0
102
RTVSPost2010Prop49
280
     0
102
RTVSPost2010PropOp49
 70
     0
102
RTVSPost2010Prop50
 90
       50
102
RTVSPost2010PropOp50
 70
     0
102
RTVSPost2010Prop51ColorIndex
 90
      256
102
RTVSPost2010Prop51ColorRGB
 90
-16777216
102
RTVSPost2010PropOp51
 70
     0
102
RTVSPost2010Prop52
140
1.0
102
RTVSPost2010PropOp52
 70
     0
102
RTVSPost2010Prop53
 90
        2
102
RTVSPost2010PropOp53
 70
     0
102
RTVSPost2010Prop54
  1
strokes_ogs.tif
102
RTVSPost2010PropOp54
 70
     0
102
RTVSPost2010Prop55
280
     0
102
RTVSPost2010PropOp55
 70
     0
102
RTVSPost2010Prop56
140
1.0
102
RTVSPost2010PropOp56
 70
     0
102
RTVSPost2010Prop57
140
1.0
102
RTVSPost2010PropOp57
 70
     0
  0
XRECORD
  5
37C
102
{ACAD_REACTORS
330
37B
102
}
330
37B
100
AcDbXrecord
280
     1
102
RTVSPost2010Prop28
280
     0
102
RTVSPost2010PropOp28
 70
     1
102
RTVSPost2010Prop29
280
     1
102
RTVSPost2010PropOp29
 70
     1
102
RTVSPost2010Prop30
280
     1
102
RTVSPost2010PropOp30
 70
     1
102
RTVSPost2010Prop31
280
     0
102
RTVSPost2010PropOp31
 70
     1
102
RTVSPost2010Prop32
280
     0
102
RTVSPost2010PropOp32
 70
     1
102
RTVSPost2010Prop33
280
     0
102
RTVSPost2010PropOp33
 70
     1
102
RTVSPost2010Prop34
280
     0
102
RTVSPost2010PropOp34
 70
     1
102
RTVSPost2010Prop35
280
     0
102
RTVSPost2010PropOp35
 70
     1
102
RTVSPost2010Prop36
280
     0
102
RTVSPost2010PropOp36
 70
     1
102
RTVSPost2010Prop37
 90
       50
102
RTVSPost2010PropOp37
 70
     1
102
RTVSPost2010Prop38
140
0.0
102
RTVSPost2010PropOp38
 70
     1
102
RTVSPost2010Prop39
140
1.0
102
RTVSPost2010PropOp39
 70
     1
102
RTVSPost2010Prop40
 90
        0
102
RTVSPost2010PropOp40
 70
     1
102
RTVSPost2010Prop41ColorIndex
 90
       18
102
RTVSPost2010Prop41ColorRGB
 90
        0
102
RTVSPost2010PropOp41
 70
     1
102
RTVSPost2010Prop42
 90
       50
102
RTVSPost2010PropOp42
 70
     1
102
RTVSPost2010Prop43
 90
        3
102
RTVSPost2010PropOp43
 70
     1
102
RTVSPost2010Prop44ColorIndex
 90
        5
102
RTVSPost2010Prop44ColorRGB
 90
      255
102
RTVSPost2010PropOp44
 70
     1
102
RTVSPost2010Prop45
280
     0
102
RTVSPost2010PropOp45
 70
     1
102
RTVSPost2010Prop46
 90
       50
102
RTVSPost2010PropOp46
 70
     1
102
RTVSPost2010Prop47
 90
       50
102
RTVSPost2010PropOp47
 70
     1
102
RTVSPost2010Prop48
 90
       50
102
RTVSPost2010PropOp48
 70
     1
102
RTVSPost2010Prop49
280
     0
102
RTVSPost2010PropOp49
 70
     1
102
RTVSPost2010Prop50
 90
       50
102
RTVSPost2010PropOp50
 70
     1
102
RTVSPost2010Prop51ColorIndex
 90
      256
102
RTVSPost2010Prop51ColorRGB
 90
-16777216
102
RTVSPost2010PropOp51
 70
     0
102
RTVSPost2010Prop52
140
1.0
102
RTVSPost2010PropOp52
 70
     0
102
RTVSPost2010Prop53
 90
        2
102
RTVSPost2010PropOp53
 70
     1
102
RTVSPost2010Prop54
  1
strokes_ogs.tif
102
RTVSPost2010PropOp54
 70
     1
102
RTVSPost2010Prop55
280
     0
102
RTVSPost2010PropOp55
 70
     1
102
RTVSPost2010Prop56
140
1.0
102
RTVSPost2010PropOp56
 70
     1
102
RTVSPost2010Prop57
140
1.0
102
RTVSPost2010PropOp57
 70
     1
  0
XRECORD
  5
384
102
{ACAD_REACTORS
330
383
102
}
330
383
100
AcDbXrecord
280
     1
102
RTVSPost2010Prop28
280
     0
102
RTVSPost2010PropOp28
 70
     0
102
RTVSPost2010Prop29
280
     1
102
RTVSPost2010PropOp29
 70
     0
102
RTVSPost2010Prop30
280
     1
102
RTVSPost2010PropOp30
 70
     0
102
RTVSPost2010Prop31
280
     0
102
RTVSPost2010PropOp31
 70
     0
102
RTVSPost2010Prop32
280
     0
102
RTVSPost2010PropOp32
 70
     0
102
RTVSPost2010Prop33
280
     0
102
RTVSPost2010PropOp33
 70
     0
102
RTVSPost2010Prop34
280
     0
102
RTVSPost2010PropOp34
 70
     0
102
RTVSPost2010Prop35
280
     0
102
RTVSPost2010PropOp35
 70
     0
102
RTVSPost2010Prop36
280
     0
102
RTVSPost2010PropOp36
 70
     0
102
RTVSPost2010Prop37
 90
       50
102
RTVSPost2010PropOp37
 70
     0
102
RTVSPost2010Prop38
140
0.0
102
RTVSPost2010PropOp38
 70
     0
102
RTVSPost2010Prop39
140
1.0
102
RTVSPost2010PropOp39
 70
     0
102
RTVSPost2010Prop40
 90
        0
102
RTVSPost2010PropOp40
 70
     0
102
RTVSPost2010Prop41ColorIndex
 90
       18
102
RTVSPost2010Prop41ColorRGB
 90
        0
102
RTVSPost2010PropOp41
 70
     0
102
RTVSPost2010Prop42
 90
       50
102
RTVSPost2010PropOp42
 70
     0
102
RTVSPost2010Prop43
 90
        3
102
RTVSPost2010PropOp43
 70
     0
102
RTVSPost2010Prop44ColorIndex
 90
        5
102
RTVSPost2010Prop44ColorRGB
 90
      255
102
RTVSPost2010PropOp44
 70
     0
102
RTVSPost2010Prop45
280
     0
102
RTVSPost2010PropOp45
 70
     0
102
RTVSPost2010Prop46
 90
       50
102
RTVSPost2010PropOp46
 70
     0
102
RTVSPost2010Prop47
 90
       50
102
RTVSPost2010PropOp47
 70
     0
102
RTVSPost2010Prop48
 90
       50
102
RTVSPost2010PropOp48
 70
     0
102
RTVSPost2010Prop49
280
     0
102
RTVSPost2010PropOp49
 70
     0
102
RTVSPost2010Prop50
 90
       50
102
RTVSPost2010PropOp50
 70
     0
102
RTVSPost2010Prop51ColorIndex
 90
      256
102
RTVSPost2010Prop51ColorRGB
 90
-16777216
102
RTVSPost2010PropOp51
 70
     0
102
RTVSPost2010Prop52
140
1.0
102
RTVSPost2010PropOp52
 70
     0
102
RTVSPost2010Prop53
 90
        2
102
RTVSPost2010PropOp53
 70
     0
102
RTVSPost2010Prop54
  1
strokes_ogs.tif
102
RTVSPost2010PropOp54
 70
     0
102
RTVSPost2010Prop55
280
     0
102
RTVSPost2010PropOp55
 70
     0
102
RTVSPost2010Prop56
140
1.0
102
RTVSPost2010PropOp56
 70
     0
102
RTVSPost2010Prop57
140
1.0
102
RTVSPost2010PropOp57
 70
     0
  0
XRECORD
  5
372
102
{ACAD_REACTORS
330
371
102
}
330
371
100
AcDbXrecord
280
     1
102
RTVSPost2010Prop28
280
     0
102
RTVSPost2010PropOp28
 70
     1
102
RTVSPost2010Prop29
280
     1
102
RTVSPost2010PropOp29
 70
     1
102
RTVSPost2010Prop30
280
     1
102
RTVSPost2010PropOp30
 70
     1
102
RTVSPost2010Prop31
280
     0
102
RTVSPost2010PropOp31
 70
     1
102
RTVSPost2010Prop32
280
     0
102
RTVSPost2010PropOp32
 70
     1
102
RTVSPost2010Prop33
280
     0
102
RTVSPost2010PropOp33
 70
     1
102
RTVSPost2010Prop34
280
     0
102
RTVSPost2010PropOp34
 70
     1
102
RTVSPost2010Prop35
280
     0
102
RTVSPost2010PropOp35
 70
     1
102
RTVSPost2010Prop36
280
     0
102
RTVSPost2010PropOp36
 70
     1
102
RTVSPost2010Prop37
 90
       50
102
RTVSPost2010PropOp37
 70
     1
102
RTVSPost2010Prop38
140
0.0
102
RTVSPost2010PropOp38
 70
     1
102
RTVSPost2010Prop39
140
1.0
102
RTVSPost2010PropOp39
 70
     1
102
RTVSPost2010Prop40
 90
        0
102
RTVSPost2010PropOp40
 70
     1
102
RTVSPost2010Prop41ColorIndex
 90
       18
102
RTVSPost2010Prop41ColorRGB
 90
        0
102
RTVSPost2010PropOp41
 70
     1
102
RTVSPost2010Prop42
 90
       50
102
RTVSPost2010PropOp42
 70
     1
102
RTVSPost2010Prop43
 90
        3
102
RTVSPost2010PropOp43
 70
     1
102
RTVSPost2010Prop44ColorIndex
 90
        5
102
RTVSPost2010Prop44ColorRGB
 90
      255
102
RTVSPost2010PropOp44
 70
     1
102
RTVSPost2010Prop45
280
     0
102
RTVSPost2010PropOp45
 70
     1
102
RTVSPost2010Prop46
 90
       50
102
RTVSPost2010PropOp46
 70
     1
102
RTVSPost2010Prop47
 90
       50
102
RTVSPost2010PropOp47
 70
     1
102
RTVSPost2010Prop48
 90
       50
102
RTVSPost2010PropOp48
 70
     1
102
RTVSPost2010Prop49
280
     0
102
RTVSPost2010PropOp49
 70
     1
102
RTVSPost2010Prop50
 90
       50
102
RTVSPost2010PropOp50
 70
     1
102
RTVSPost2010Prop51ColorIndex
 90
      256
102
RTVSPost2010Prop51ColorRGB
 90
-16777216
102
RTVSPost2010PropOp51
 70
     0
102
RTVSPost2010Prop52
140
1.0
102
RTVSPost2010PropOp52
 70
     0
102
RTVSPost2010Prop53
 90
        2
102
RTVSPost2010PropOp53
 70
     1
102
RTVSPost2010Prop54
  1
strokes_ogs.tif
102
RTVSPost2010PropOp54
 70
     1
102
RTVSPost2010Prop55
280
     0
102
RTVSPost2010PropOp55
 70
     1
102
RTVSPost2010Prop56
140
1.0
102
RTVSPost2010PropOp56
 70
     1
102
RTVSPost2010Prop57
140
1.0
102
RTVSPost2010PropOp57
 70
     1
  0
XRECORD
  5
390
102
{ACAD_REACTORS
330
38F
102
}
330
38F
100
AcDbXrecord
280
     1
102
RTVSPost2010Prop28
280
     0
102
RTVSPost2010PropOp28
 70
     1
102
RTVSPost2010Prop29
280
     1
102
RTVSPost2010PropOp29
 70
     1
102
RTVSPost2010Prop30
280
     1
102
RTVSPost2010PropOp30
 70
     1
102
RTVSPost2010Prop31
280
     0
102
RTVSPost2010PropOp31
 70
     1
102
RTVSPost2010Prop32
280
     0
102
RTVSPost2010PropOp32
 70
     1
102
RTVSPost2010Prop33
280
     0
102
RTVSPost2010PropOp33
 70
     1
102
RTVSPost2010Prop34
280
     0
102
RTVSPost2010PropOp34
 70
     1
102
RTVSPost2010Prop35
280
     0
102
RTVSPost2010PropOp35
 70
     1
102
RTVSPost2010Prop36
280
     0
102
RTVSPost2010PropOp36
 70
     1
102
RTVSPost2010Prop37
 90
       50
102
RTVSPost2010PropOp37
 70
     1
102
RTVSPost2010Prop38
140
0.0
102
RTVSPost2010PropOp38
 70
     1
102
RTVSPost2010Prop39
140
1.0
102
RTVSPost2010PropOp39
 70
     1
102
RTVSPost2010Prop40
 90
        0
102
RTVSPost2010PropOp40
 70
     1
102
RTVSPost2010Prop41ColorIndex
 90
       18
102
RTVSPost2010Prop41ColorRGB
 90
        0
102
RTVSPost2010PropOp41
 70
     1
102
RTVSPost2010Prop42
 90
       50
102
RTVSPost2010PropOp42
 70
     1
102
RTVSPost2010Prop43
 90
        3
102
RTVSPost2010PropOp43
 70
     1
102
RTVSPost2010Prop44ColorIndex
 90
        5
102
RTVSPost2010Prop44ColorRGB
 90
      255
102
RTVSPost2010PropOp44
 70
     1
102
RTVSPost2010Prop45
280
     0
102
RTVSPost2010PropOp45
 70
     1
102
RTVSPost2010Prop46
 90
       50
102
RTVSPost2010PropOp46
 70
     1
102
RTVSPost2010Prop47
 90
       50
102
RTVSPost2010PropOp47
 70
     1
102
RTVSPost2010Prop48
 90
       50
102
RTVSPost2010PropOp48
 70
     1
102
RTVSPost2010Prop49
280
     0
102
RTVSPost2010PropOp49
 70
     1
102
RTVSPost2010Prop50
 90
       50
102
RTVSPost2010PropOp50
 70
     1
102
RTVSPost2010Prop51ColorIndex
 90
      256
102
RTVSPost2010Prop51ColorRGB
 90
-16777216
102
RTVSPost2010PropOp51
 70
     0
102
RTVSPost2010Prop52
140
1.0
102
RTVSPost2010PropOp52
 70
     0
102
RTVSPost2010Prop53
 90
        2
102
RTVSPost2010PropOp53
 70
     1
102
RTVSPost2010Prop54
  1
strokes_ogs.tif
102
RTVSPost2010PropOp54
 70
     1
102
RTVSPost2010Prop55
280
     0
102
RTVSPost2010PropOp55
 70
     1
102
RTVSPost2010Prop56
140
1.0
102
RTVSPost2010PropOp56
 70
     1
102
RTVSPost2010Prop57
140
1.0
102
RTVSPost2010PropOp57
 70
     1
  0
XRECORD
  5
38E
102
{ACAD_REACTORS
330
38D
102
}
330
38D
100
AcDbXrecord
280
     1
102
RTVSPost2010Prop28
280
     0
102
RTVSPost2010PropOp28
 70
     1
102
RTVSPost2010Prop29
280
     1
102
RTVSPost2010PropOp29
 70
     1
102
RTVSPost2010Prop30
280
     1
102
RTVSPost2010PropOp30
 70
     1
102
RTVSPost2010Prop31
280
     0
102
RTVSPost2010PropOp31
 70
     1
102
RTVSPost2010Prop32
280
     0
102
RTVSPost2010PropOp32
 70
     1
102
RTVSPost2010Prop33
280
     0
102
RTVSPost2010PropOp33
 70
     1
102
RTVSPost2010Prop34
280
     0
102
RTVSPost2010PropOp34
 70
     1
102
RTVSPost2010Prop35
280
     0
102
RTVSPost2010PropOp35
 70
     1
102
RTVSPost2010Prop36
280
     0
102
RTVSPost2010PropOp36
 70
     1
102
RTVSPost2010Prop37
 90
       50
102
RTVSPost2010PropOp37
 70
     1
102
RTVSPost2010Prop38
140
0.0
102
RTVSPost2010PropOp38
 70
     1
102
RTVSPost2010Prop39
140
1.0
102
RTVSPost2010PropOp39
 70
     1
102
RTVSPost2010Prop40
 90
        0
102
RTVSPost2010PropOp40
 70
     1
102
RTVSPost2010Prop41ColorIndex
 90
       18
102
RTVSPost2010Prop41ColorRGB
 90
        0
102
RTVSPost2010PropOp41
 70
     1
102
RTVSPost2010Prop42
 90
       50
102
RTVSPost2010PropOp42
 70
     1
102
RTVSPost2010Prop43
 90
        3
102
RTVSPost2010PropOp43
 70
     1
102
RTVSPost2010Prop44ColorIndex
 90
        5
102
RTVSPost2010Prop44ColorRGB
 90
      255
102
RTVSPost2010PropOp44
 70
     1
102
RTVSPost2010Prop45
280
     0
102
RTVSPost2010PropOp45
 70
     1
102
RTVSPost2010Prop46
 90
       50
102
RTVSPost2010PropOp46
 70
     1
102
RTVSPost2010Prop47
 90
       50
102
RTVSPost2010PropOp47
 70
     1
102
RTVSPost2010Prop48
 90
       50
102
RTVSPost2010PropOp48
 70
     1
102
RTVSPost2010Prop49
280
     0
102
RTVSPost2010PropOp49
 70
     1
102
RTVSPost2010Prop50
 90
       50
102
RTVSPost2010PropOp50
 70
     1
102
RTVSPost2010Prop51ColorIndex
 90
      256
102
RTVSPost2010Prop51ColorRGB
 90
-16777216
102
RTVSPost2010PropOp51
 70
     0
102
RTVSPost2010Prop52
140
1.0
102
RTVSPost2010PropOp52
 70
     0
102
RTVSPost2010Prop53
 90
        2
102
RTVSPost2010PropOp53
 70
     1
102
RTVSPost2010Prop54
  1
strokes_ogs.tif
102
RTVSPost2010PropOp54
 70
     1
102
RTVSPost2010Prop55
280
     0
102
RTVSPost2010PropOp55
 70
     1
102
RTVSPost2010Prop56
140
1.0
102
RTVSPost2010PropOp56
 70
     1
102
RTVSPost2010Prop57
140
1.0
102
RTVSPost2010PropOp57
 70
     1
  0
XRECORD
  5
388
102
{ACAD_REACTORS
330
387
102
}
330
387
100
AcDbXrecord
280
     1
102
RTVSPost2010Prop28
280
     0
102
RTVSPost2010PropOp28
 70
     1
102
RTVSPost2010Prop29
280
     1
102
RTVSPost2010PropOp29
 70
     1
102
RTVSPost2010Prop30
280
     1
102
RTVSPost2010PropOp30
 70
     1
102
RTVSPost2010Prop31
280
     0
102
RTVSPost2010PropOp31
 70
     1
102
RTVSPost2010Prop32
280
     0
102
RTVSPost2010PropOp32
 70
     1
102
RTVSPost2010Prop33
280
     0
102
RTVSPost2010PropOp33
 70
     1
102
RTVSPost2010Prop34
280
     0
102
RTVSPost2010PropOp34
 70
     1
102
RTVSPost2010Prop35
280
     0
102
RTVSPost2010PropOp35
 70
     1
102
RTVSPost2010Prop36
280
     0
102
RTVSPost2010PropOp36
 70
     1
102
RTVSPost2010Prop37
 90
       50
102
RTVSPost2010PropOp37
 70
     1
102
RTVSPost2010Prop38
140
0.0
102
RTVSPost2010PropOp38
 70
     1
102
RTVSPost2010Prop39
140
1.0
102
RTVSPost2010PropOp39
 70
     1
102
RTVSPost2010Prop40
 90
        0
102
RTVSPost2010PropOp40
 70
     1
102
RTVSPost2010Prop41ColorIndex
 90
       18
102
RTVSPost2010Prop41ColorRGB
 90
        0
102
RTVSPost2010PropOp41
 70
     1
102
RTVSPost2010Prop42
 90
       50
102
RTVSPost2010PropOp42
 70
     1
102
RTVSPost2010Prop43
 90
        3
102
RTVSPost2010PropOp43
 70
     1
102
RTVSPost2010Prop44ColorIndex
 90
        5
102
RTVSPost2010Prop44ColorRGB
 90
      255
102
RTVSPost2010PropOp44
 70
     1
102
RTVSPost2010Prop45
280
     0
102
RTVSPost2010PropOp45
 70
     1
102
RTVSPost2010Prop46
 90
       50
102
RTVSPost2010PropOp46
 70
     1
102
RTVSPost2010Prop47
 90
       50
102
RTVSPost2010PropOp47
 70
     1
102
RTVSPost2010Prop48
 90
       50
102
RTVSPost2010PropOp48
 70
     1
102
RTVSPost2010Prop49
280
     0
102
RTVSPost2010PropOp49
 70
     1
102
RTVSPost2010Prop50
 90
       50
102
RTVSPost2010PropOp50
 70
     1
102
RTVSPost2010Prop51ColorIndex
 90
      256
102
RTVSPost2010Prop51ColorRGB
 90
-16777216
102
RTVSPost2010PropOp51
 70
     0
102
RTVSPost2010Prop52
140
1.0
102
RTVSPost2010PropOp52
 70
     0
102
RTVSPost2010Prop53
 90
        2
102
RTVSPost2010PropOp53
 70
     1
102
RTVSPost2010Prop54
  1
strokes_ogs.tif
102
RTVSPost2010PropOp54
 70
     1
102
RTVSPost2010Prop55
280
     0
102
RTVSPost2010PropOp55
 70
     1
102
RTVSPost2010Prop56
140
1.0
102
RTVSPost2010PropOp56
 70
     1
102
RTVSPost2010Prop57
140
1.0
102
RTVSPost2010PropOp57
 70
     1
  0
XRECORD
  5
38A
102
{ACAD_REACTORS
330
389
102
}
330
389
100
AcDbXrecord
280
     1
102
RTVSPost2010Prop28
280
     0
102
RTVSPost2010PropOp28
 70
     1
102
RTVSPost2010Prop29
280
     1
102
RTVSPost2010PropOp29
 70
     1
102
RTVSPost2010Prop30
280
     1
102
RTVSPost2010PropOp30
 70
     1
102
RTVSPost2010Prop31
280
     0
102
RTVSPost2010PropOp31
 70
     1
102
RTVSPost2010Prop32
280
     0
102
RTVSPost2010PropOp32
 70
     1
102
RTVSPost2010Prop33
280
     0
102
RTVSPost2010PropOp33
 70
     1
102
RTVSPost2010Prop34
280
     0
102
RTVSPost2010PropOp34
 70
     1
102
RTVSPost2010Prop35
280
     0
102
RTVSPost2010PropOp35
 70
     1
102
RTVSPost2010Prop36
280
     0
102
RTVSPost2010PropOp36
 70
     1
102
RTVSPost2010Prop37
 90
       50
102
RTVSPost2010PropOp37
 70
     1
102
RTVSPost2010Prop38
140
0.0
102
RTVSPost2010PropOp38
 70
     1
102
RTVSPost2010Prop39
140
1.0
102
RTVSPost2010PropOp39
 70
     1
102
RTVSPost2010Prop40
 90
        0
102
RTVSPost2010PropOp40
 70
     1
102
RTVSPost2010Prop41ColorIndex
 90
       18
102
RTVSPost2010Prop41ColorRGB
 90
        0
102
RTVSPost2010PropOp41
 70
     1
102
RTVSPost2010Prop42
 90
       50
102
RTVSPost2010PropOp42
 70
     1
102
RTVSPost2010Prop43
 90
        3
102
RTVSPost2010PropOp43
 70
     1
102
RTVSPost2010Prop44ColorIndex
 90
        5
102
RTVSPost2010Prop44ColorRGB
 90
      255
102
RTVSPost2010PropOp44
 70
     1
102
RTVSPost2010Prop45
280
     0
102
RTVSPost2010PropOp45
 70
     1
102
RTVSPost2010Prop46
 90
       50
102
RTVSPost2010PropOp46
 70
     1
102
RTVSPost2010Prop47
 90
       50
102
RTVSPost2010PropOp47
 70
     1
102
RTVSPost2010Prop48
 90
       50
102
RTVSPost2010PropOp48
 70
     1
102
RTVSPost2010Prop49
280
     0
102
RTVSPost2010PropOp49
 70
     1
102
RTVSPost2010Prop50
 90
       50
102
RTVSPost2010PropOp50
 70
     1
102
RTVSPost2010Prop51ColorIndex
 90
      256
102
RTVSPost2010Prop51ColorRGB
 90
-16777216
102
RTVSPost2010PropOp51
 70
     0
102
RTVSPost2010Prop52
140
1.0
102
RTVSPost2010PropOp52
 70
     0
102
RTVSPost2010Prop53
 90
        2
102
RTVSPost2010PropOp53
 70
     1
102
RTVSPost2010Prop54
  1
strokes_ogs.tif
102
RTVSPost2010PropOp54
 70
     1
102
RTVSPost2010Prop55
280
     0
102
RTVSPost2010PropOp55
 70
     1
102
RTVSPost2010Prop56
140
1.0
102
RTVSPost2010PropOp56
 70
     1
102
RTVSPost2010Prop57
140
1.0
102
RTVSPost2010PropOp57
 70
     1
  0
XRECORD
  5
37A
102
{ACAD_REACTORS
330
379
102
}
330
379
100
AcDbXrecord
280
     1
102
RTVSPost2010Prop28
280
     0
102
RTVSPost2010PropOp28
 70
     1
102
RTVSPost2010Prop29
280
     1
102
RTVSPost2010PropOp29
 70
     1
102
RTVSPost2010Prop30
280
     1
102
RTVSPost2010PropOp30
 70
     1
102
RTVSPost2010Prop31
280
     0
102
RTVSPost2010PropOp31
 70
     1
102
RTVSPost2010Prop32
280
     0
102
RTVSPost2010PropOp32
 70
     1
102
RTVSPost2010Prop33
280
     0
102
RTVSPost2010PropOp33
 70
     1
102
RTVSPost2010Prop34
280
     0
102
RTVSPost2010PropOp34
 70
     1
102
RTVSPost2010Prop35
280
     0
102
RTVSPost2010PropOp35
 70
     1
102
RTVSPost2010Prop36
280
     0
102
RTVSPost2010PropOp36
 70
     1
102
RTVSPost2010Prop37
 90
       50
102
RTVSPost2010PropOp37
 70
     1
102
RTVSPost2010Prop38
140
0.0
102
RTVSPost2010PropOp38
 70
     1
102
RTVSPost2010Prop39
140
1.0
102
RTVSPost2010PropOp39
 70
     1
102
RTVSPost2010Prop40
 90
        0
102
RTVSPost2010PropOp40
 70
     1
102
RTVSPost2010Prop41ColorIndex
 90
       18
102
RTVSPost2010Prop41ColorRGB
 90
        0
102
RTVSPost2010PropOp41
 70
     1
102
RTVSPost2010Prop42
 90
       50
102
RTVSPost2010PropOp42
 70
     1
102
RTVSPost2010Prop43
 90
        3
102
RTVSPost2010PropOp43
 70
     1
102
RTVSPost2010Prop44ColorIndex
 90
        5
102
RTVSPost2010Prop44ColorRGB
 90
      255
102
RTVSPost2010PropOp44
 70
     1
102
RTVSPost2010Prop45
280
     0
102
RTVSPost2010PropOp45
 70
     1
102
RTVSPost2010Prop46
 90
       50
102
RTVSPost2010PropOp46
 70
     1
102
RTVSPost2010Prop47
 90
       50
102
RTVSPost2010PropOp47
 70
     1
102
RTVSPost2010Prop48
 90
       50
102
RTVSPost2010PropOp48
 70
     1
102
RTVSPost2010Prop49
280
     0
102
RTVSPost2010PropOp49
 70
     1
102
RTVSPost2010Prop50
 90
       50
102
RTVSPost2010PropOp50
 70
     1
102
RTVSPost2010Prop51ColorIndex
 90
      256
102
RTVSPost2010Prop51ColorRGB
 90
-16777216
102
RTVSPost2010PropOp51
 70
     0
102
RTVSPost2010Prop52
140
1.0
102
RTVSPost2010PropOp52
 70
     0
102
RTVSPost2010Prop53
 90
        2
102
RTVSPost2010PropOp53
 70
     1
102
RTVSPost2010Prop54
  1
strokes_ogs.tif
102
RTVSPost2010PropOp54
 70
     1
102
RTVSPost2010Prop55
280
     0
102
RTVSPost2010PropOp55
 70
     1
102
RTVSPost2010Prop56
140
1.0
102
RTVSPost2010PropOp56
 70
     1
102
RTVSPost2010Prop57
140
1.0
102
RTVSPost2010PropOp57
 70
     1
  0
XRECORD
  5
36C
102
{ACAD_REACTORS
330
36B
102
}
330
36B
100
AcDbXrecord
280
     1
102
RTVSPost2010Prop28
280
     0
102
RTVSPost2010PropOp28
 70
     1
102
RTVSPost2010Prop29
280
     1
102
RTVSPost2010PropOp29
 70
     1
102
RTVSPost2010Prop30
280
     1
102
RTVSPost2010PropOp30
 70
     1
102
RTVSPost2010Prop31
280
     0
102
RTVSPost2010PropOp31
 70
     1
102
RTVSPost2010Prop32
280
     0
102
RTVSPost2010PropOp32
 70
     1
102
RTVSPost2010Prop33
280
     0
102
RTVSPost2010PropOp33
 70
     1
102
RTVSPost2010Prop34
280
     0
102
RTVSPost2010PropOp34
 70
     1
102
RTVSPost2010Prop35
280
     0
102
RTVSPost2010PropOp35
 70
     1
102
RTVSPost2010Prop36
280
     0
102
RTVSPost2010PropOp36
 70
     1
102
RTVSPost2010Prop37
 90
       50
102
RTVSPost2010PropOp37
 70
     1
102
RTVSPost2010Prop38
140
0.0
102
RTVSPost2010PropOp38
 70
     1
102
RTVSPost2010Prop39
140
1.0
102
RTVSPost2010PropOp39
 70
     1
102
RTVSPost2010Prop40
 90
        0
102
RTVSPost2010PropOp40
 70
     1
102
RTVSPost2010Prop41ColorIndex
 90
       18
102
RTVSPost2010Prop41ColorRGB
 90
        0
102
RTVSPost2010PropOp41
 70
     1
102
RTVSPost2010Prop42
 90
       50
102
RTVSPost2010PropOp42
 70
     1
102
RTVSPost2010Prop43
 90
        3
102
RTVSPost2010PropOp43
 70
     1
102
RTVSPost2010Prop44ColorIndex
 90
        5
102
RTVSPost2010Prop44ColorRGB
 90
      255
102
RTVSPost2010PropOp44
 70
     1
102
RTVSPost2010Prop45
280
     0
102
RTVSPost2010PropOp45
 70
     1
102
RTVSPost2010Prop46
 90
       50
102
RTVSPost2010PropOp46
 70
     1
102
RTVSPost2010Prop47
 90
       50
102
RTVSPost2010PropOp47
 70
     1
102
RTVSPost2010Prop48
 90
       50
102
RTVSPost2010PropOp48
 70
     1
102
RTVSPost2010Prop49
280
     0
102
RTVSPost2010PropOp49
 70
     1
102
RTVSPost2010Prop50
 90
       50
102
RTVSPost2010PropOp50
 70
     1
102
RTVSPost2010Prop51ColorIndex
 90
      256
102
RTVSPost2010Prop51ColorRGB
 90
-16777216
102
RTVSPost2010PropOp51
 70
     0
102
RTVSPost2010Prop52
140
1.0
102
RTVSPost2010PropOp52
 70
     0
102
RTVSPost2010Prop53
 90
        2
102
RTVSPost2010PropOp53
 70
     1
102
RTVSPost2010Prop54
  1
strokes_ogs.tif
102
RTVSPost2010PropOp54
 70
     1
102
RTVSPost2010Prop55
280
     0
102
RTVSPost2010PropOp55
 70
     1
102
RTVSPost2010Prop56
140
1.0
102
RTVSPost2010PropOp56
 70
     1
102
RTVSPost2010Prop57
140
1.0
102
RTVSPost2010PropOp57
 70
     1
  0
XRECORD
  5
38C
102
{ACAD_REACTORS
330
38B
102
}
330
38B
100
AcDbXrecord
280
     1
102
RTVSPost2010Prop28
280
     0
102
RTVSPost2010PropOp28
 70
     1
102
RTVSPost2010Prop29
280
     1
102
RTVSPost2010PropOp29
 70
     1
102
RTVSPost2010Prop30
280
     1
102
RTVSPost2010PropOp30
 70
     1
102
RTVSPost2010Prop31
280
     0
102
RTVSPost2010PropOp31
 70
     1
102
RTVSPost2010Prop32
280
     0
102
RTVSPost2010PropOp32
 70
     1
102
RTVSPost2010Prop33
280
     0
102
RTVSPost2010PropOp33
 70
     1
102
RTVSPost2010Prop34
280
     0
102
RTVSPost2010PropOp34
 70
     1
102
RTVSPost2010Prop35
280
     0
102
RTVSPost2010PropOp35
 70
     1
102
RTVSPost2010Prop36
280
     0
102
RTVSPost2010PropOp36
 70
     1
102
RTVSPost2010Prop37
 90
       50
102
RTVSPost2010PropOp37
 70
     1
102
RTVSPost2010Prop38
140
0.0
102
RTVSPost2010PropOp38
 70
     1
102
RTVSPost2010Prop39
140
1.0
102
RTVSPost2010PropOp39
 70
     1
102
RTVSPost2010Prop40
 90
        0
102
RTVSPost2010PropOp40
 70
     1
102
RTVSPost2010Prop41ColorIndex
 90
       18
102
RTVSPost2010Prop41ColorRGB
 90
        0
102
RTVSPost2010PropOp41
 70
     1
102
RTVSPost2010Prop42
 90
       50
102
RTVSPost2010PropOp42
 70
     1
102
RTVSPost2010Prop43
 90
        3
102
RTVSPost2010PropOp43
 70
     1
102
RTVSPost2010Prop44ColorIndex
 90
        5
102
RTVSPost2010Prop44ColorRGB
 90
      255
102
RTVSPost2010PropOp44
 70
     1
102
RTVSPost2010Prop45
280
     0
102
RTVSPost2010PropOp45
 70
     1
102
RTVSPost2010Prop46
 90
       50
102
RTVSPost2010PropOp46
 70
     1
102
RTVSPost2010Prop47
 90
       50
102
RTVSPost2010PropOp47
 70
     1
102
RTVSPost2010Prop48
 90
       50
102
RTVSPost2010PropOp48
 70
     1
102
RTVSPost2010Prop49
280
     0
102
RTVSPost2010PropOp49
 70
     1
102
RTVSPost2010Prop50
 90
       50
102
RTVSPost2010PropOp50
 70
     1
102
RTVSPost2010Prop51ColorIndex
 90
      256
102
RTVSPost2010Prop51ColorRGB
 90
-16777216
102
RTVSPost2010PropOp51
 70
     0
102
RTVSPost2010Prop52
140
1.0
102
RTVSPost2010PropOp52
 70
     0
102
RTVSPost2010Prop53
 90
        2
102
RTVSPost2010PropOp53
 70
     1
102
RTVSPost2010Prop54
  1
strokes_ogs.tif
102
RTVSPost2010PropOp54
 70
     1
102
RTVSPost2010Prop55
280
     0
102
RTVSPost2010PropOp55
 70
     1
102
RTVSPost2010Prop56
140
1.0
102
RTVSPost2010PropOp56
 70
     1
102
RTVSPost2010Prop57
140
1.0
102
RTVSPost2010PropOp57
 70
     1
  0
ENDSEC
  0
EOF
