  0
SECTION
  2
HEADER
  9
$ACADVER
  1
AC1015
  9
$ACADMAINTVER
 70
     6
  9
$DWGCODEPAGE
  3
ANSI_1252
  9
$INSBASE
 10
0.0
 20
0.0
 30
0.0
  9
$EXTMIN
 10
1.000000E+20
 20
1.000000E+20
 30
1.000000E+20
  9
$EXTMAX
 10
-1.000000E+20
 20
-1.000000E+20
 30
-1.000000E+20
  9
$LIMMIN
 10
0.0
 20
0.0
  9
$LIMMAX
 10
420.0
 20
297.0
  9
$ORTHOMODE
 70
     0
  9
$REGENMODE
 70
     1
  9
$FILLMODE
 70
     1
  9
$QTEXTMODE
 70
     0
  9
$MIRRTEXT
 70
     1
  9
$LTSCALE
 40
1.0
  9
$ATTMODE
 70
     1
  9
$TEXTSIZE
 40
2.5
  9
$TRACEWID
 40
1.0
  9
$TEXTSTYLE
  7
Standard
  9
$CLAYER
  8
0
  9
$CELTYPE
  6
ByLayer
  9
$CECOLOR
 62
   256
  9
$CELTSCALE
 40
1.0
  9
$DISPSILH
 70
     0
  9
$DIMSCALE
 40
1.0
  9
$DIMASZ
 40
2.5
  9
$DIMEXO
 40
0.625
  9
$DIMDLI
 40
3.75
  9
$DIMRND
 40
0.0
  9
$DIMDLE
 40
0.0
  9
$DIMEXE
 40
1.25
  9
$DIMTP
 40
0.0
  9
$DIMTM
 40
0.0
  9
$DIMTXT
 40
2.5
  9
$DIMCEN
 40
2.5
  9
$DIMTSZ
 40
0.0
  9
$DIMTOL
 70
     0
  9
$DIMLIM
 70
     0
  9
$DIMTIH
 70
     0
  9
$DIMTOH
 70
     0
  9
$DIMSE1
 70
     0
  9
$DIMSE2
 70
     0
  9
$DIMTAD
 70
     1
  9
$DIMZIN
 70
     8
  9
$DIMBLK
  1

  9
$DIMASO
 70
     1
  9
$DIMSHO
 70
     1
  9
$DIMPOST
  1

  9
$DIMAPOST
  1

  9
$DIMALT
 70
     0
  9
$DIMALTD
 70
     3
  9
$DIMALTF
 40
0.03937
  9
$DIMLFAC
 40
1.0
  9
$DIMTOFL
 70
     1
  9
$DIMTVP
 40
0.0
  9
$DIMTIX
 70
     0
  9
$DIMSOXD
 70
     0
  9
$DIMSAH
 70
     0
  9
$DIMBLK1
  1

  9
$DIMBLK2
  1

  9
$DIMSTYLE
  2
ISO-25
  9
$DIMCLRD
 70
     0
  9
$DIMCLRE
 70
     0
  9
$DIMCLRT
 70
     0
  9
$DIMTFAC
 40
1.0
  9
$DIMGAP
 40
0.625
  9
$DIMJUST
 70
     0
  9
$DIMSD1
 70
     0
  9
$DIMSD2
 70
     0
  9
$DIMTOLJ
 70
     0
  9
$DIMTZIN
 70
     8
  9
$DIMALTZ
 70
     0
  9
$DIMALTTZ
 70
     0
  9
$DIMUPT
 70
     0
  9
$DIMDEC
 70
     2
  9
$DIMTDEC
 70
     2
  9
$DIMALTU
 70
     2
  9
$DIMALTTD
 70
     3
  9
$DIMTXSTY
  7
Standard
  9
$DIMAUNIT
 70
     0
  9
$DIMADEC
 70
     0
  9
$DIMALTRND
 40
0.0
  9
$DIMAZIN
 70
     0
  9
$DIMDSEP
 70
    44
  9
$DIMATFIT
 70
     3
  9
$DIMFRAC
 70
     0
  9
$DIMLDRBLK
  1

  9
$DIMLUNIT
 70
     2
  9
$DIMLWD
 70
    -2
  9
$DIMLWE
 70
    -2
  9
$DIMTMOVE
 70
     0
  9
$LUNITS
 70
     2
  9
$LUPREC
 70
     4
  9
$SKETCHINC
 40
1.0
  9
$FILLETRAD
 40
10.0
  9
$AUNITS
 70
     0
  9
$AUPREC
 70
     0
  9
$MENU
  1
.
  9
$ELEVATION
 40
0.0
  9
$PELEVATION
 40
0.0
  9
$THICKNESS
 40
0.0
  9
$LIMCHECK
 70
     0
  9
$CHAMFERA
 40
10.0
  9
$CHAMFERB
 40
10.0
  9
$CHAMFERC
 40
20.0
  9
$CHAMFERD
 40
0.0
  9
$SKPOLY
 70
     0
  9
$TDCREATE
 40
2456121.619967766
  9
$TDUCREATE
 40
2456121.536634433
  9
$TDUPDATE
 40
2456121.619967778
  9
$TDUUPDATE
 40
2456121.536634444
  9
$TDINDWG
 40
0.0000000116
  9
$TDUSRTIMER
 40
0.0000000116
  9
$USRTIMER
 70
     1
  9
$ANGBASE
 50
0.0
  9
$ANGDIR
 70
     0
  9
$PDMODE
 70
     0
  9
$PDSIZE
 40
0.0
  9
$PLINEWID
 40
0.0
  9
$SPLFRAME
 70
     0
  9
$SPLINETYPE
 70
     6
  9
$SPLINESEGS
 70
     8
  9
$HANDSEED
  5
1F1
  9
$SURFTAB1
 70
     6
  9
$SURFTAB2
 70
     6
  9
$SURFTYPE
 70
     6
  9
$SURFU
 70
     6
  9
$SURFV
 70
     6
  9
$UCSBASE
  2

  9
$UCSNAME
  2

  9
$UCSORG
 10
0.0
 20
0.0
 30
0.0
  9
$UCSXDIR
 10
1.0
 20
0.0
 30
0.0
  9
$UCSYDIR
 10
0.0
 20
1.0
 30
0.0
  9
$UCSORTHOREF
  2

  9
$UCSORTHOVIEW
 70
     0
  9
$UCSORGTOP
 10
0.0
 20
0.0
 30
0.0
  9
$UCSORGBOTTOM
 10
0.0
 20
0.0
 30
0.0
  9
$UCSORGLEFT
 10
0.0
 20
0.0
 30
0.0
  9
$UCSORGRIGHT
 10
0.0
 20
0.0
 30
0.0
  9
$UCSORGFRONT
 10
0.0
 20
0.0
 30
0.0
  9
$UCSORGBACK
 10
0.0
 20
0.0
 30
0.0
  9
$PUCSBASE
  2

  9
$PUCSNAME
  2

  9
$PUCSORG
 10
0.0
 20
0.0
 30
0.0
  9
$PUCSXDIR
 10
1.0
 20
0.0
 30
0.0
  9
$PUCSYDIR
 10
0.0
 20
1.0
 30
0.0
  9
$PUCSORTHOREF
  2

  9
$PUCSORTHOVIEW
 70
     0
  9
$PUCSORGTOP
 10
0.0
 20
0.0
 30
0.0
  9
$PUCSORGBOTTOM
 10
0.0
 20
0.0
 30
0.0
  9
$PUCSORGLEFT
 10
0.0
 20
0.0
 30
0.0
  9
$PUCSORGRIGHT
 10
0.0
 20
0.0
 30
0.0
  9
$PUCSORGFRONT
 10
0.0
 20
0.0
 30
0.0
  9
$PUCSORGBACK
 10
0.0
 20
0.0
 30
0.0
  9
$USERI1
 70
     0
  9
$USERI2
 70
     0
  9
$USERI3
 70
     0
  9
$USERI4
 70
     0
  9
$USERI5
 70
     0
  9
$USERR1
 40
0.0
  9
$USERR2
 40
0.0
  9
$USERR3
 40
0.0
  9
$USERR4
 40
0.0
  9
$USERR5
 40
0.0
  9
$WORLDVIEW
 70
     1
  9
$SHADEDGE
 70
     3
  9
$SHADEDIF
 70
    70
  9
$TILEMODE
 70
     1
  9
$MAXACTVP
 70
    64
  9
$PINSBASE
 10
0.0
 20
0.0
 30
0.0
  9
$PLIMCHECK
 70
     0
  9
$PEXTMIN
 10
1.000000E+20
 20
1.000000E+20
 30
1.000000E+20
  9
$PEXTMAX
 10
-1.000000E+20
 20
-1.000000E+20
 30
-1.000000E+20
  9
$PLIMMIN
 10
0.0
 20
0.0
  9
$PLIMMAX
 10
420.0
 20
297.0
  9
$UNITMODE
 70
     0
  9
$VISRETAIN
 70
     1
  9
$PLINEGEN
 70
     0
  9
$PSLTSCALE
 70
     1
  9
$TREEDEPTH
 70
  3020
  9
$CMLSTYLE
  2
Standard
  9
$CMLJUST
 70
     0
  9
$CMLSCALE
 40
20.0
  9
$PROXYGRAPHICS
 70
     1
  9
$MEASUREMENT
 70
     1
  9
$CELWEIGHT
370
    -1
  9
$ENDCAPS
280
     0
  9
$JOINSTYLE
280
     0
  9
$LWDISPLAY
290
     0
  9
$INSUNITS
 70
     4
  9
$HYPERLINKBASE
  1

  9
$STYLESHEET
  1

  9
$XEDIT
290
     1
  9
$CEPSNTYPE
380
     0
  9
$PSTYLEMODE
290
     1
  9
$FINGERPRINTGUID
  2
{1C1457BF-8767-4E6D-9ECA-F1C2CBDF5E9D}
  9
$VERSIONGUID
  2
{FAEB1C32-E019-11D5-929B-00C0DF256EC4}
  9
$EXTNAMES
290
     1
  9
$PSVPSCALE
 40
0.0
  9
$OLESTARTUP
290
     0
  0
ENDSEC
  0
SECTION
  2
CLASSES
  0
CLASS
  1
ACDBDICTIONARYWDFLT
  2
AcDbDictionaryWithDefault
  3
ObjectDBX Classes
 90
        0
280
     0
281
     0
  0
CLASS
  1
VISUALSTYLE
  2
AcDbVisualStyle
  3
ObjectDBX Classes
 90
     4095
280
     0
281
     0
  0
CLASS
  1
MATERIAL
  2
AcDbMaterial
  3
ObjectDBX Classes
 90
     1153
280
     0
281
     0
  0
CLASS
  1
DICTIONARYVAR
  2
AcDbDictionaryVar
  3
ObjectDBX Classes
 90
        0
280
     0
281
     0
  0
CLASS
  1
ACDBPLACEHOLDER
  2
AcDbPlaceHolder
  3
ObjectDBX Classes
 90
        0
280
     0
281
     0
  0
CLASS
  1
LAYOUT
  2
AcDbLayout
  3
ObjectDBX Classes
 90
        0
280
     0
281
     0
  0
ENDSEC
  0
SECTION
  2
TABLES
  0
TABLE
  2
VPORT
  5
8
330
0
100
AcDbSymbolTable
 70
     1
  0
VPORT
  5
29
330
8
100
AcDbSymbolTableRecord
100
AcDbViewportTableRecord
  2
*Active
 70
     0
 10
0.0
 20
0.0
 11
1.0
 21
1.0
 12
344.186916
 22
148.5
 13
0.0
 23
0.0
 14
10.0
 24
10.0
 15
10.0
 25
10.0
 16
0.0
 26
0.0
 36
1.0
 17
0.0
 27
0.0
 37
0.0
 40
297.0
 41
1.972973
 42
50.0
 43
0.0
 44
0.0
 50
0.0
 51
0.0
 71
     0
 72
   100
 73
     1
 74
     3
 75
     0
 76
     0
 77
     0
 78
     0
281
     0
 65
     1
110
0.0
120
0.0
130
0.0
111
1.0
121
0.0
131
0.0
112
0.0
122
1.0
132
0.0
 79
     0
146
0.0
  0
ENDTAB
  0
TABLE
  2
LTYPE
  5
5
330
0
100
AcDbSymbolTable
 70
     1
  0
LTYPE
  5
14
330
5
100
AcDbSymbolTableRecord
100
AcDbLinetypeTableRecord
  2
ByBlock
 70
     0
  3

 72
    65
 73
     0
 40
0.0
  0
LTYPE
  5
15
330
5
100
AcDbSymbolTableRecord
100
AcDbLinetypeTableRecord
  2
ByLayer
 70
     0
  3

 72
    65
 73
     0
 40
0.0
  0
LTYPE
  5
16
330
5
100
AcDbSymbolTableRecord
100
AcDbLinetypeTableRecord
  2
Continuous
 70
     0
  3
Solid line
 72
    65
 73
     0
 40
0.0
  0
ENDTAB
  0
TABLE
  2
LAYER
  5
2
330
0
100
AcDbSymbolTable
 70
     1
  0
LAYER
  5
10
330
2
100
AcDbSymbolTableRecord
100
AcDbLayerTableRecord
  2
0
 70
     0
 62
   106
  6
Continuous
370
     0
390
F
  0
ENDTAB
  0
TABLE
  2
STYLE
  5
3
330
0
100
AcDbSymbolTable
 70
     4
  0
STYLE
  5
11
330
3
100
AcDbSymbolTableRecord
100
AcDbTextStyleTableRecord
  2
Standard
 70
     0
 40
0.0
 41
1.0
 50
0.0
 71
     0
 42
2.5
  3
txt
  4

  0
STYLE
  5
3F
330
3
100
AcDbSymbolTableRecord
100
AcDbTextStyleTableRecord
  2
Default
 70
     0
 40
0.0
 41
1.0
 50
0.0
 71
     0
 42
0.2
  3

  4

1001
ACAD
1000
txt
1071
        0
  0
STYLE
  5
40
330
3
100
AcDbSymbolTableRecord
100
AcDbTextStyleTableRecord
  2
ISO
 70
     0
 40
0.0
 41
1.0
 50
0.0
 71
     0
 42
0.2
  3

  4

1001
ACAD
1000
txt
1071
        0
  0
STYLE
  5
41
330
3
100
AcDbSymbolTableRecord
100
AcDbTextStyleTableRecord
  2
GIANLU
 70
     0
 40
0.0
 41
1.0
 50
0.0
 71
     0
 42
0.2
  3

  4

1001
ACAD
1000
Arial
1071
 33554432
  0
ENDTAB
  0
TABLE
  2
VIEW
  5
6
330
0
100
AcDbSymbolTable
 70
     0
  0
ENDTAB
  0
TABLE
  2
UCS
  5
7
330
0
100
AcDbSymbolTable
 70
     0
  0
ENDTAB
  0
TABLE
  2
APPID
  5
9
330
0
100
AcDbSymbolTable
 70
     1
  0
APPID
  5
12
330
9
100
AcDbSymbolTableRecord
100
AcDbRegAppTableRecord
  2
ACAD
 70
     0
  0
ENDTAB
  0
TABLE
  2
DIMSTYLE
  5
A
330
0
100
AcDbSymbolTable
 70
     4
100
AcDbDimStyleTable
  0
DIMSTYLE
105
27
330
A
100
AcDbSymbolTableRecord
100
AcDbDimStyleTableRecord
  2
ISO-25
 70
     0
 41
2.5
 42
0.625
 43
3.75
 44
1.25
 73
     0
 74
     0
 77
     1
 78
     8
140
2.5
141
2.5
143
0.03937
147
0.625
171
     3
172
     1
271
     2
272
     2
274
     3
278
    44
283
     0
284
     8
340
11
  0
DIMSTYLE
105
42
330
A
100
AcDbSymbolTableRecord
100
AcDbDimStyleTableRecord
  2
Default
 70
     0
  3
<>
 41
4.375
 42
1.05
 44
2.1
 73
     0
 74
     0
 77
     1
 78
     8
140
3.5
146
0.4
147
1.75
172
     1
178
     3
271
     2
272
     3
284
     8
340
3F
341
43
342
43
  0
DIMSTYLE
105
4A
330
A
100
AcDbSymbolTableRecord
100
AcDbDimStyleTableRecord
  2
ISO
 70
     0
  3
<>
 41
4.375
 42
1.05
 44
2.1
 73
     0
 74
     0
 77
     1
 78
     8
140
3.5
146
0.4
147
1.75
172
     1
178
     3
271
     2
272
     3
284
     8
340
40
341
43
342
43
  0
DIMSTYLE
105
4B
330
A
100
AcDbSymbolTableRecord
100
AcDbDimStyleTableRecord
  2
zucchetti_unico
 70
     0
  3
<>
 41
3.5
 42
1.05
 44
2.1
 73
     0
 74
     0
 77
     1
 78
     8
140
3.5
146
0.6
147
1.75
172
     1
176
     3
177
     3
178
     3
271
     2
272
     2
284
     8
340
3F
  0
ENDTAB
  0
TABLE
  2
BLOCK_RECORD
  5
1
330
0
100
AcDbSymbolTable
 70
     6
  0
BLOCK_RECORD
  5
1F
330
1
100
AcDbSymbolTableRecord
100
AcDbBlockTableRecord
  2
*Model_Space
340
22
  0
BLOCK_RECORD
  5
1B
330
1
100
AcDbSymbolTableRecord
100
AcDbBlockTableRecord
  2
*Paper_Space
340
1E
  0
BLOCK_RECORD
  5
23
330
1
100
AcDbSymbolTableRecord
100
AcDbBlockTableRecord
  2
*Paper_Space0
340
26
  0
BLOCK_RECORD
  5
43
330
1
100
AcDbSymbolTableRecord
100
AcDbBlockTableRecord
  2
_CLOSED
340
0
  0
BLOCK_RECORD
  5
4C
330
1
100
AcDbSymbolTableRecord
100
AcDbBlockTableRecord
  2
a
340
0
102
{BLKREFS
331
AA
102
}
  0
BLOCK_RECORD
  5
AB
330
1
100
AcDbSymbolTableRecord
100
AcDbBlockTableRecord
  2
b
340
0
102
{BLKREFS
331
103
102
}
  0
BLOCK_RECORD
  5
104
330
1
100
AcDbSymbolTableRecord
100
AcDbBlockTableRecord
  2
c
340
0
102
{BLKREFS
331
168
102
}
  0
BLOCK_RECORD
  5
169
330
1
100
AcDbSymbolTableRecord
100
AcDbBlockTableRecord
  2
d
340
0
102
{BLKREFS
331
1C3
102
}
  0
ENDTAB
  0
ENDSEC
  0
SECTION
  2
BLOCKS
  0
BLOCK
  5
20
330
1F
100
AcDbEntity
  8
0
100
AcDbBlockBegin
  2
*Model_Space
 70
     0
 10
0.0
 20
0.0
 30
0.0
  3
*Model_Space
  1

  0
ENDBLK
  5
21
330
1F
100
AcDbEntity
  8
0
100
AcDbBlockEnd
  0
BLOCK
  5
1C
330
1B
100
AcDbEntity
 67
     1
  8
0
100
AcDbBlockBegin
  2
*Paper_Space
 70
     0
 10
0.0
 20
0.0
 30
0.0
  3
*Paper_Space
  1

  0
ENDBLK
  5
1D
330
1B
100
AcDbEntity
 67
     1
  8
0
100
AcDbBlockEnd
  0
BLOCK
  5
24
330
23
100
AcDbEntity
  8
0
100
AcDbBlockBegin
  2
*Paper_Space0
 70
     0
 10
0.0
 20
0.0
 30
0.0
  3
*Paper_Space0
  1

  0
ENDBLK
  5
25
330
23
100
AcDbEntity
  8
0
100
AcDbBlockEnd
  0
BLOCK
  5
44
330
43
100
AcDbEntity
  8
0
100
AcDbBlockBegin
  2
_CLOSED
 70
     0
 10
0.0
 20
0.0
 30
0.0
  3
_CLOSED
  1

  0
LINE
  5
46
330
43
100
AcDbEntity
  8
0
  6
ByBlock
 62
     0
370
    -2
100
AcDbLine
 10
-1.0
 20
0.166667
 30
0.0
 11
0.0
 21
0.0
 31
0.0
  0
LINE
  5
47
330
43
100
AcDbEntity
  8
0
  6
ByBlock
 62
     0
370
    -2
100
AcDbLine
 10
0.0
 20
0.0
 30
0.0
 11
-1.0
 21
-0.166667
 31
0.0
  0
LINE
  5
48
330
43
100
AcDbEntity
  8
0
  6
ByBlock
 62
     0
370
    -2
100
AcDbLine
 10
-1.0
 20
0.166667
 30
0.0
 11
-1.0
 21
-0.166667
 31
0.0
  0
LINE
  5
49
330
43
100
AcDbEntity
  8
0
  6
ByBlock
 62
     0
370
    -2
100
AcDbLine
 10
0.0
 20
0.0
 30
0.0
 11
-1.0
 21
0.0
 31
0.0
  0
ENDBLK
  5
45
330
43
100
AcDbEntity
  8
0
100
AcDbBlockEnd
  0
BLOCK
  5
A8
330
4C
100
AcDbEntity
  8
0
100
AcDbBlockBegin
  2
a
 70
     0
 10
167.974915
 20
150.864334
 30
0.0
  3
a
  1

  0
ARC
  5
4D
330
4C
100
AcDbEntity
  8
0
  6
Continuous
 62
     0
370
     0
100
AcDbCircle
 10
229.744243
 20
466.441887
 30
0.0
 40
31.00000000000023
100
AcDbArc
 50
180.0
 51
217.235559
  0
ARC
  5
4E
330
4C
100
AcDbEntity
  8
0
  6
Continuous
 62
     0
370
     0
100
AcDbCircle
 10
229.744243
 20
466.441887
 30
0.0
 40
31.00000000000023
100
AcDbArc
 50
223.493517
 51
224.791328
  0
ARC
  5
4F
330
4C
100
AcDbEntity
  8
0
  6
Continuous
 62
     0
370
     0
100
AcDbCircle
 10
229.744243
 20
466.441887
 30
0.0
 40
31.00000000000023
100
AcDbArc
 50
53.750679
 51
130.40972
  0
ARC
  5
50
330
4C
100
AcDbEntity
  8
0
  6
Continuous
 62
     0
370
     0
100
AcDbCircle
 10
229.744243
 20
466.441887
 30
0.0
 40
31.00000000000023
100
AcDbArc
 50
139.590277
 51
180.0
  0
ARC
  5
51
330
4C
100
AcDbEntity
  8
0
  6
Continuous
 62
     0
370
    30
100
AcDbCircle
 10
229.744243
 20
466.441887
 30
0.0
 40
31.50000000000026
100
AcDbArc
 50
180.0
 51
225.70021
  0
ARC
  5
52
330
4C
100
AcDbEntity
  8
0
  6
Continuous
 62
     0
370
    30
100
AcDbCircle
 10
229.744243
 20
466.441887
 30
0.0
 40
31.50000000000026
100
AcDbArc
 50
314.299796
 51
315.700207
  0
ARC
  5
53
330
4C
100
AcDbEntity
  8
0
  6
Continuous
 62
     0
370
    30
100
AcDbCircle
 10
229.744243
 20
466.441887
 30
0.0
 40
31.50000000000026
100
AcDbArc
 50
52.528005
 51
180.0
  0
ARC
  5
54
330
4C
100
AcDbEntity
  8
0
  6
Continuous
 62
     0
370
     0
100
AcDbCircle
 10
379.744243
 20
466.441887
 30
0.0
 40
31.00000000000023
100
AcDbArc
 50
225.208675
 51
316.506477
  0
ARC
  5
55
330
4C
100
AcDbEntity
  8
0
  6
Continuous
 62
     0
370
     0
100
AcDbCircle
 10
379.744243
 20
466.441887
 30
0.0
 40
31.00000000000023
100
AcDbArc
 50
322.764452
 51
40.409707
  0
ARC
  5
56
330
4C
100
AcDbEntity
  8
0
  6
Continuous
 62
     0
370
     0
100
AcDbCircle
 10
379.744243
 20
466.441887
 30
0.0
 40
31.00000000000023
100
AcDbArc
 50
49.59029
 51
126.249321
  0
ARC
  5
57
330
4C
100
AcDbEntity
  8
0
  6
Continuous
 62
     0
370
    30
100
AcDbCircle
 10
379.744243
 20
466.441887
 30
0.0
 40
31.50000000000026
100
AcDbArc
 50
224.299793
 51
127.471995
  0
LWPOLYLINE
  5
58
330
4C
100
AcDbEntity
  8
0
  6
Continuous
 62
     0
370
     0
100
AcDbPolyline
 90
       16
 70
     0
 43
0.0
 10
214.744247
 20
388.596405
 10
214.013626
 20
388.634155
 10
213.290985
 20
388.747009
 10
212.584229
 20
388.933685
 10
211.901062
 20
389.1922
 10
211.248947
 20
389.519684
 10
210.635025
 20
389.912598
 10
210.065979
 20
390.366638
 10
209.54805
 20
390.876801
 10
209.086884
 20
391.437592
 10
208.6875
 20
392.042847
 10
208.354294
 20
392.685913
 10
208.090881
 20
393.359833
 10
207.900162
 20
394.05722
 10
207.784195
 20
394.770447
 10
207.744247
 20
395.507812
  0
LINE
  5
59
330
4C
100
AcDbEntity
  8
0
  6
Continuous
 62
     0
370
     0
100
AcDbLine
 10
244.744244
 20
388.596409
 30
0.0
 11
214.744244
 21
388.596409
 31
0.0
  0
LWPOLYLINE
  5
5A
330
4C
100
AcDbEntity
  8
0
  6
Continuous
 62
     0
370
     0
100
AcDbPolyline
 90
       16
 70
     0
 43
0.0
 10
251.744247
 20
395.507812
 10
251.706009
 20
394.786438
 10
251.591721
 20
394.072968
 10
251.402649
 20
393.375122
 10
251.140823
 20
392.700623
 10
250.809128
 20
392.056763
 10
250.411194
 20
391.450592
 10
249.95134
 20
390.888763
 10
249.434616
 20
390.37738
 10
248.866638
 20
389.922058
 10
248.253647
 20
389.52774
 10
247.60231
 20
389.19873
 10
246.919754
 20
388.93866
 10
246.213425
 20
388.750366
 10
245.491058
 20
388.635864
 10
244.744247
 20
388.596405
  0
LINE
  5
5B
330
4C
100
AcDbEntity
  8
0
  6
Continuous
 62
     0
370
     0
100
AcDbLine
 10
214.744244
 20
388.596409
 30
0.0
 11
214.744244
 21
388.579625
 31
0.0
  0
LINE
  5
5C
330
4C
100
AcDbEntity
  8
0
  6
Continuous
 62
     0
370
     0
100
AcDbLine
 10
244.744244
 20
388.596409
 30
0.0
 11
244.744244
 21
388.579625
 31
0.0
  0
LINE
  5
5D
330
4C
100
AcDbEntity
  8
0
  6
Continuous
 62
     0
370
    30
100
AcDbLine
 10
244.744244
 20
488.690367
 30
0.0
 11
214.744244
 21
488.690367
 31
0.0
  0
LINE
  5
5E
330
4C
100
AcDbEntity
  8
0
  6
Continuous
 62
     0
370
     0
100
AcDbLine
 10
244.744244
 20
487.846801
 30
0.0
 11
214.744244
 21
487.846801
 31
0.0
  0
ARC
  5
5F
330
4C
100
AcDbEntity
  8
0
  6
Continuous
 62
     0
370
    30
100
AcDbCircle
 10
244.744244
 20
481.690367
 30
0.0
 40
6.99999988349556
100
AcDbArc
 50
0.000001
 51
90.000001
  0
ARC
  5
60
330
4C
100
AcDbEntity
  8
0
  6
Continuous
 62
     0
370
     0
100
AcDbCircle
 10
244.744244
 20
481.846801
 30
0.0
 40
5.999999883495486
100
AcDbArc
 50
0.000001
 51
90.000001
  0
LINE
  5
61
330
4C
100
AcDbEntity
  8
0
  6
Continuous
 62
     0
370
     0
100
AcDbLine
 10
250.744244
 20
396.029266
 30
0.0
 11
250.744244
 21
481.846801
 31
0.0
  0
LINE
  5
62
330
4C
100
AcDbEntity
  8
0
  6
Continuous
 62
     0
370
    30
100
AcDbLine
 10
251.744244
 20
395.872831
 30
0.0
 11
251.744244
 21
481.690367
 31
0.0
  0
LWPOLYLINE
  5
63
330
4C
100
AcDbEntity
  8
0
  6
Continuous
 62
     0
370
     0
100
AcDbPolyline
 90
       15
 70
     0
 43
0.0
 10
250.744247
 20
396.029266
 10
250.70668
 20
395.367004
 10
250.594482
 20
394.713013
 10
250.409027
 20
394.0755
 10
250.152664
 20
393.462463
 10
249.828583
 20
392.881561
 10
249.440857
 20
392.340057
 10
248.994324
 20
391.844757
 10
248.494568
 20
391.401825
 10
247.947876
 20
391.016846
 10
247.361084
 20
390.694611
 10
246.741516
 20
390.439148
 10
246.096939
 20
390.253693
 10
245.43544
 20
390.140533
 10
244.744247
 20
390.101074
  0
LWPOLYLINE
  5
64
330
4C
100
AcDbEntity
  8
0
  6
Continuous
 62
     0
370
     0
100
AcDbPolyline
 90
       16
 70
     0
 43
0.0
 10
251.744247
 20
395.872833
 10
251.706009
 20
395.151459
 10
251.591721
 20
394.437958
 10
251.402649
 20
393.740143
 10
251.140823
 20
393.065613
 10
250.809128
 20
392.421783
 10
250.411194
 20
391.815613
 10
249.95134
 20
391.253784
 10
249.434616
 20
390.742401
 10
248.866638
 20
390.287048
 10
248.253647
 20
389.892731
 10
247.60231
 20
389.563751
 10
246.919754
 20
389.30368
 10
246.213425
 20
389.115356
 10
245.491058
 20
389.000854
 10
244.744247
 20
388.961426
  0
LINE
  5
65
330
4C
100
AcDbEntity
  8
0
  6
Continuous
 62
     0
370
     0
100
AcDbLine
 10
244.744244
 20
390.101072
 30
0.0
 11
214.744244
 21
390.101072
 31
0.0
  0
LINE
  5
66
330
4C
100
AcDbEntity
  8
0
  6
Continuous
 62
     0
370
     0
100
AcDbLine
 10
244.744244
 20
388.961421
 30
0.0
 11
214.744244
 21
388.961421
 31
0.0
  0
LWPOLYLINE
  5
67
330
4C
100
AcDbEntity
  8
0
  6
Continuous
 62
     0
370
     0
100
AcDbPolyline
 90
       15
 70
     0
 43
0.0
 10
214.744247
 20
390.101074
 10
214.073944
 20
390.138184
 10
213.412048
 20
390.249054
 10
212.76683
 20
390.432281
 10
212.146362
 20
390.685577
 10
211.558411
 20
391.005768
 10
211.010361
 20
391.388855
 10
210.509048
 20
391.830048
 10
210.06076
 20
392.323822
 10
209.671112
 20
392.863983
 10
209.344971
 20
393.443756
 10
209.086426
 20
394.055908
 10
208.898712
 20
394.692749
 10
208.784195
 20
395.346344
 10
208.744247
 20
396.029266
  0
LWPOLYLINE
  5
68
330
4C
100
AcDbEntity
  8
0
  6
Continuous
 62
     0
370
     0
100
AcDbPolyline
 90
       16
 70
     0
 43
0.0
 10
214.744247
 20
388.961426
 10
214.013626
 20
388.999176
 10
213.290985
 20
389.112
 10
212.584229
 20
389.298706
 10
211.901062
 20
389.55719
 10
211.248947
 20
389.884705
 10
210.635025
 20
390.277618
 10
210.065979
 20
390.731628
 10
209.54805
 20
391.241821
 10
209.086884
 20
391.802612
 10
208.6875
 20
392.407837
 10
208.354294
 20
393.050934
 10
208.090881
 20
393.724854
 10
207.900162
 20
394.422241
 10
207.784195
 20
395.135468
 10
207.744247
 20
395.872833
  0
LINE
  5
69
330
4C
100
AcDbEntity
  8
0
  6
Continuous
 62
     0
370
     0
100
AcDbLine
 10
208.744244
 20
396.029266
 30
0.0
 11
208.744244
 21
481.846801
 31
0.0
  0
LINE
  5
6A
330
4C
100
AcDbEntity
  8
0
  6
Continuous
 62
     0
370
    30
100
AcDbLine
 10
207.744244
 20
395.872831
 30
0.0
 11
207.744244
 21
481.690367
 31
0.0
  0
ARC
  5
6B
330
4C
100
AcDbEntity
  8
0
  6
Continuous
 62
     0
370
    30
100
AcDbCircle
 10
214.744244
 20
481.690367
 30
0.0
 40
6.999999883495764
100
AcDbArc
 50
89.999999
 51
179.999999
  0
ARC
  5
6C
330
4C
100
AcDbEntity
  8
0
  6
Continuous
 62
     0
370
     0
100
AcDbCircle
 10
214.744244
 20
481.846801
 30
0.0
 40
5.999999883495692
100
AcDbArc
 50
89.999999
 51
179.999999
  0
LINE
  5
6D
330
4C
100
AcDbEntity
  8
0
  6
Continuous
 62
     0
370
     0
100
AcDbLine
 10
244.744244
 20
488.690367
 30
0.0
 11
244.744244
 21
487.846801
 31
0.0
  0
ELLIPSE
  5
6E
330
4C
100
AcDbEntity
  8
0
  6
Continuous
 62
     0
370
     0
100
AcDbEllipse
 10
250.744244
 20
481.690367
 30
0.0
 11
1.0
 21
9.698249873123660E-18
 31
0.0
210
0.0
220
0.0
230
1.0
 40
0.156434
 41
6.283185307179586
 42
7.853981633974483
  0
LINE
  5
6F
330
4C
100
AcDbEntity
  8
0
  6
Continuous
 62
     0
370
    30
100
AcDbLine
 10
251.744244
 20
395.507819
 30
0.0
 11
251.744244
 21
395.872831
 31
0.0
  0
ELLIPSE
  5
70
330
4C
100
AcDbEntity
  8
0
  6
Continuous
 62
     0
370
     0
100
AcDbEllipse
 10
250.744244
 20
395.872831
 30
0.0
 11
-1.000000000000017
 21
-9.698249873125003E-18
 31
0.0
210
0.0
220
0.0
230
-1.0
 40
0.156434
 41
1.570796326794897
 42
3.141592653589793
  0
LINE
  5
71
330
4C
100
AcDbEntity
  8
0
  6
Continuous
 62
     0
370
     0
100
AcDbLine
 10
244.744244
 20
388.596409
 30
0.0
 11
244.744244
 21
388.961421
 31
0.0
  0
LINE
  5
72
330
4C
100
AcDbEntity
  8
0
  6
Continuous
 62
     0
370
     0
100
AcDbLine
 10
214.744244
 20
388.596409
 30
0.0
 11
214.744244
 21
388.961421
 31
0.0
  0
LINE
  5
73
330
4C
100
AcDbEntity
  8
0
  6
Continuous
 62
     0
370
     0
100
AcDbLine
 10
244.744244
 20
390.101072
 30
0.0
 11
244.744244
 21
388.961421
 31
0.0
  0
LINE
  5
74
330
4C
100
AcDbEntity
  8
0
  6
Continuous
 62
     0
370
    30
100
AcDbLine
 10
207.744244
 20
395.507819
 30
0.0
 11
207.744244
 21
395.872831
 31
0.0
  0
LINE
  5
75
330
4C
100
AcDbEntity
  8
0
  6
Continuous
 62
     0
370
     0
100
AcDbLine
 10
214.744244
 20
390.101072
 30
0.0
 11
214.744244
 21
388.961421
 31
0.0
  0
ELLIPSE
  5
76
330
4C
100
AcDbEntity
  8
0
  6
Continuous
 62
     0
370
     0
100
AcDbEllipse
 10
208.744244
 20
395.872831
 30
0.0
 11
1.000000000000016
 21
9.698249873124552E-18
 31
0.0
210
0.0
220
0.0
230
1.0
 40
0.156434
 41
1.570796326794897
 42
3.141592653589793
  0
LINE
  5
77
330
4C
100
AcDbEntity
  8
0
  6
Continuous
 62
     0
370
     0
100
AcDbLine
 10
214.744244
 20
488.690367
 30
0.0
 11
214.744244
 21
487.846801
 31
0.0
  0
ELLIPSE
  5
78
330
4C
100
AcDbEntity
  8
0
  6
Continuous
 62
     0
370
     0
100
AcDbEllipse
 10
208.744244
 20
481.690367
 30
0.0
 11
0.9999999999999964
 21
4.864347341697502E-15
 31
0.0
210
0.0
220
0.0
230
1.0
 40
0.156434
 41
1.570796326794896
 42
3.141592653589807
  0
LINE
  5
79
330
4C
100
AcDbEntity
  8
0
  6
Continuous
 62
     0
370
    30
100
AcDbLine
 10
394.744244
 20
491.441887
 30
0.0
 11
214.744244
 21
491.441887
 31
0.0
  0
LINE
  5
7A
330
4C
100
AcDbEntity
  8
0
  6
Continuous
 62
     0
370
     0
100
AcDbLine
 10
394.744244
 20
489.441887
 30
0.0
 11
214.744244
 21
489.441887
 31
0.0
  0
ARC
  5
7B
330
4C
100
AcDbEntity
  8
0
  6
Continuous
 62
     0
370
    30
100
AcDbCircle
 10
394.744244
 20
481.441887
 30
0.0
 40
10.0
100
AcDbArc
 50
0.0
 51
90.0
  0
ARC
  5
7C
330
4C
100
AcDbEntity
  8
0
  6
Continuous
 62
     0
370
     0
100
AcDbCircle
 10
394.744244
 20
481.441887
 30
0.0
 40
8.0
100
AcDbArc
 50
0.0
 51
90.0
  0
LINE
  5
7D
330
4C
100
AcDbEntity
  8
0
  6
Continuous
 62
     0
370
    30
100
AcDbLine
 10
404.744244
 20
449.441887
 30
0.0
 11
404.744244
 21
481.441887
 31
0.0
  0
LINE
  5
7E
330
4C
100
AcDbEntity
  8
0
  6
Continuous
 62
     0
370
     0
100
AcDbLine
 10
402.744244
 20
449.441887
 30
0.0
 11
402.744244
 21
481.441887
 31
0.0
  0
ARC
  5
7F
330
4C
100
AcDbEntity
  8
0
  6
Continuous
 62
     0
370
    30
100
AcDbCircle
 10
399.744244
 20
449.441887
 30
0.0
 40
5.0
100
AcDbArc
 50
270.0
 51
360.0
  0
ARC
  5
80
330
4C
100
AcDbEntity
  8
0
  6
Continuous
 62
     0
370
     0
100
AcDbCircle
 10
399.744244
 20
449.441887
 30
0.0
 40
3.0
100
AcDbArc
 50
270.0
 51
360.0
  0
LINE
  5
81
330
4C
100
AcDbEntity
  8
0
  6
Continuous
 62
     0
370
    30
100
AcDbLine
 10
251.744244
 20
444.441887
 30
0.0
 11
399.744244
 21
444.441887
 31
0.0
  0
LINE
  5
82
330
4C
100
AcDbEntity
  8
0
  6
Continuous
 62
     0
370
     0
100
AcDbLine
 10
251.744244
 20
446.441887
 30
0.0
 11
399.744244
 21
446.441887
 31
0.0
  0
ARC
  5
83
330
4C
100
AcDbEntity
  8
0
  6
Continuous
 62
     0
370
    30
100
AcDbCircle
 10
209.744244
 20
449.441887
 30
0.0
 40
5.0
100
AcDbArc
 50
180.0
 51
246.421824
  0
ARC
  5
84
330
4C
100
AcDbEntity
  8
0
  6
Continuous
 62
     0
370
     0
100
AcDbCircle
 10
209.744244
 20
449.441887
 30
0.0
 40
3.0
100
AcDbArc
 50
180.0
 51
228.189691
  0
LINE
  5
85
330
4C
100
AcDbEntity
  8
0
  6
Continuous
 62
     0
370
    30
100
AcDbLine
 10
204.744244
 20
481.441887
 30
0.0
 11
204.744244
 21
449.441887
 31
0.0
  0
LINE
  5
86
330
4C
100
AcDbEntity
  8
0
  6
Continuous
 62
     0
370
     0
100
AcDbLine
 10
206.744244
 20
481.441887
 30
0.0
 11
206.744244
 21
449.441887
 31
0.0
  0
ARC
  5
87
330
4C
100
AcDbEntity
  8
0
  6
Continuous
 62
     0
370
    30
100
AcDbCircle
 10
214.744244
 20
481.441887
 30
0.0
 40
10.0
100
AcDbArc
 50
90.0
 51
180.0
  0
ARC
  5
88
330
4C
100
AcDbEntity
  8
0
  6
Continuous
 62
     0
370
     0
100
AcDbCircle
 10
214.744244
 20
481.441887
 30
0.0
 40
8.0
100
AcDbArc
 50
90.0
 51
180.0
  0
LINE
  5
89
330
4C
100
AcDbEntity
  8
0
  6
Continuous
 62
     0
370
     0
100
AcDbLine
 10
394.744244
 20
491.441887
 30
0.0
 11
394.744244
 21
489.441887
 31
0.0
  0
LINE
  5
8A
330
4C
100
AcDbEntity
  8
0
  6
Continuous
 62
     0
370
     0
100
AcDbLine
 10
214.744244
 20
489.441887
 30
0.0
 11
214.744244
 21
491.441887
 31
0.0
  0
LINE
  5
8B
330
4C
100
AcDbEntity
  8
0
  6
Continuous
 62
     0
370
     0
100
AcDbLine
 10
402.744244
 20
481.441887
 30
0.0
 11
404.744244
 21
481.441887
 31
0.0
  0
LINE
  5
8C
330
4C
100
AcDbEntity
  8
0
  6
Continuous
 62
     0
370
     0
100
AcDbLine
 10
404.744244
 20
449.441887
 30
0.0
 11
402.744244
 21
449.441887
 31
0.0
  0
LINE
  5
8D
330
4C
100
AcDbEntity
  8
0
  6
Continuous
 62
     0
370
     0
100
AcDbLine
 10
399.744244
 20
446.441887
 30
0.0
 11
399.744244
 21
444.441887
 31
0.0
  0
LINE
  5
8E
330
4C
100
AcDbEntity
  8
0
  6
Continuous
 62
     0
370
     0
100
AcDbLine
 10
206.744244
 20
449.441887
 30
0.0
 11
204.744244
 21
449.441887
 31
0.0
  0
LINE
  5
8F
330
4C
100
AcDbEntity
  8
0
  6
Continuous
 62
     0
370
     0
100
AcDbLine
 10
204.744244
 20
481.441887
 30
0.0
 11
206.744244
 21
481.441887
 31
0.0
  0
LINE
  5
90
330
4C
100
AcDbEntity
  8
0
  6
Continuous
 62
     0
370
    30
100
AcDbLine
 10
295.944257
 20
434.441887
 30
0.0
 11
295.744222
 21
434.641923
 31
0.0
  0
LINE
  5
91
330
4C
100
AcDbEntity
  8
0
  6
Continuous
 62
     0
370
    30
100
AcDbLine
 10
295.744222
 20
434.641923
 30
0.0
 11
295.744222
 21
436.191887
 31
0.0
  0
ARC
  5
92
330
4C
100
AcDbEntity
  8
0
  6
Continuous
 62
     0
370
    30
100
AcDbCircle
 10
295.493986
 20
436.19165
 30
0.0
 40
0.2502365219607061
100
AcDbArc
 50
0.054128
 51
89.945867
  0
LINE
  5
93
330
4C
100
AcDbEntity
  8
0
  6
Continuous
 62
     0
370
    30
100
AcDbLine
 10
295.242653
 20
436.443437
 30
0.0
 11
294.344243
 21
437.341847
 31
0.0
  0
LINE
  5
94
330
4C
100
AcDbEntity
  8
0
  6
Continuous
 62
     0
370
    30
100
AcDbLine
 10
294.344243
 20
437.341847
 30
0.0
 11
294.344243
 21
441.441887
 31
0.0
  0
LINE
  5
95
330
4C
100
AcDbEntity
  8
0
  6
Continuous
 62
     0
370
    30
100
AcDbLine
 10
295.744243
 20
441.441887
 30
0.0
 11
295.744244
 21
443.941887
 31
0.0
  0
LINE
  5
96
330
4C
100
AcDbEntity
  8
0
  6
Continuous
 62
     0
370
    30
100
AcDbLine
 10
295.744244
 20
443.941887
 30
0.0
 11
296.244244
 21
444.441887
 31
0.0
  0
LINE
  5
97
330
4C
100
AcDbEntity
  8
0
  6
Continuous
 62
     0
370
    30
100
AcDbLine
 10
295.944257
 20
434.441887
 30
0.0
 11
313.544229
 21
434.441886
 31
0.0
  0
LINE
  5
98
330
4C
100
AcDbEntity
  8
0
  6
Continuous
 62
     0
370
    30
100
AcDbLine
 10
295.744222
 20
434.641923
 30
0.0
 11
313.744264
 21
434.641922
 31
0.0
  0
LINE
  5
99
330
4C
100
AcDbEntity
  8
0
  6
Continuous
 62
     0
370
     0
100
AcDbLine
 10
295.744222
 20
436.191887
 30
0.0
 11
313.744264
 21
436.191886
 31
0.0
  0
LINE
  5
9A
330
4C
100
AcDbEntity
  8
0
  6
Continuous
 62
     0
370
    30
100
AcDbLine
 10
295.242653
 20
436.443437
 30
0.0
 11
314.245833
 21
436.443436
 31
0.0
  0
LINE
  5
9B
330
4C
100
AcDbEntity
  8
0
  6
Continuous
 62
     0
370
    30
100
AcDbLine
 10
294.344243
 20
437.341847
 30
0.0
 11
315.144243
 21
437.341846
 31
0.0
  0
LINE
  5
9C
330
4C
100
AcDbEntity
  8
0
  6
Continuous
 62
     0
370
    30
100
AcDbLine
 10
294.344243
 20
441.441887
 30
0.0
 11
315.144243
 21
441.441886
 31
0.0
  0
LINE
  5
9D
330
4C
100
AcDbEntity
  8
0
  6
Continuous
 62
     0
370
    30
100
AcDbLine
 10
295.744244
 20
443.941887
 30
0.0
 11
313.744244
 21
443.941887
 31
0.0
  0
LINE
  5
9E
330
4C
100
AcDbEntity
  8
0
  6
Continuous
 62
     0
370
    30
100
AcDbLine
 10
313.744244
 20
443.941887
 30
0.0
 11
313.244244
 21
444.441887
 31
0.0
  0
LINE
  5
9F
330
4C
100
AcDbEntity
  8
0
  6
Continuous
 62
     0
370
    30
100
AcDbLine
 10
313.744243
 20
441.441886
 30
0.0
 11
313.744244
 21
443.941887
 31
0.0
  0
LINE
  5
A0
330
4C
100
AcDbEntity
  8
0
  6
Continuous
 62
     0
370
    30
100
AcDbLine
 10
315.144243
 20
437.341846
 30
0.0
 11
315.144243
 21
441.441886
 31
0.0
  0
LINE
  5
A1
330
4C
100
AcDbEntity
  8
0
  6
Continuous
 62
     0
370
    30
100
AcDbLine
 10
314.245833
 20
436.443436
 30
0.0
 11
315.144243
 21
437.341846
 31
0.0
  0
ARC
  5
A2
330
4C
100
AcDbEntity
  8
0
  6
Continuous
 62
     0
370
    30
100
AcDbCircle
 10
313.994501
 20
436.19165
 30
0.0
 40
0.2502365219607061
100
AcDbArc
 50
90.054128
 51
179.945867
  0
LINE
  5
A3
330
4C
100
AcDbEntity
  8
0
  6
Continuous
 62
     0
370
    30
100
AcDbLine
 10
313.744264
 20
434.641922
 30
0.0
 11
313.744264
 21
436.191886
 31
0.0
  0
LINE
  5
A4
330
4C
100
AcDbEntity
  8
0
  6
Continuous
 62
     0
370
    30
100
AcDbLine
 10
313.544229
 20
434.441886
 30
0.0
 11
313.744264
 21
434.641922
 31
0.0
  0
ARC
  5
A5
330
4C
100
AcDbEntity
  8
0
  6
Continuous
 62
     0
370
    30
100
AcDbCircle
 10
244.779697
 20
395.544177
 30
0.0
 40
6.964641669108989
100
AcDbArc
 50
269.708337
 51
359.7009
  0
LINE
  5
A6
330
4C
100
AcDbEntity
  8
0
  6
Continuous
 62
     0
370
    30
100
AcDbLine
 10
244.744244
 20
388.579625
 30
0.0
 11
214.744244
 21
388.579625
 31
0.0
  0
ARC
  5
A7
330
4C
100
AcDbEntity
  8
0
  6
Continuous
 62
     0
370
    30
100
AcDbCircle
 10
214.708791
 20
395.544177
 30
0.0
 40
6.964641669109088
100
AcDbArc
 50
180.2991
 51
270.291663
  0
ENDBLK
  5
A9
330
4C
100
AcDbEntity
  8
0
100
AcDbBlockEnd
  0
BLOCK
  5
101
330
AB
100
AcDbEntity
  8
0
100
AcDbBlockBegin
  2
b
 70
     0
 10
167.974915
 20
155.199539
 30
0.0
  3
b
  1

  0
LINE
  5
AC
330
AB
100
AcDbEntity
  8
0
  6
Continuous
 62
     0
370
    30
100
AcDbLine
 10
213.744231
 20
246.687028
 30
0.0
 11
213.744231
 21
261.587029
 31
0.0
  0
ARC
  5
AD
330
AB
100
AcDbEntity
  8
0
  6
Continuous
 62
     0
370
    30
100
AcDbCircle
 10
198.744231
 20
262.08703
 30
0.0
 40
0.5
100
AcDbArc
 50
179.999997
 51
269.999997
  0
LINE
  5
AE
330
AB
100
AcDbEntity
  8
0
  6
Continuous
 62
     0
370
    30
100
AcDbLine
 10
198.244231
 20
262.08703
 30
0.0
 11
198.244232
 21
281.586982
 31
0.0
  0
LINE
  5
AF
330
AB
100
AcDbEntity
  8
0
  6
Continuous
 62
     0
370
    30
100
AcDbLine
 10
198.744231
 20
261.58703
 30
0.0
 11
260.744231
 21
261.587027
 31
0.0
  0
LINE
  5
B0
330
AB
100
AcDbEntity
  8
0
  6
Continuous
 62
     0
370
     0
100
AcDbLine
 10
198.244231
 20
262.08703
 30
0.0
 11
261.244231
 21
262.087027
 31
0.0
  0
LINE
  5
B1
330
AB
100
AcDbEntity
  8
0
  6
Continuous
 62
     0
370
    30
100
AcDbLine
 10
198.244232
 20
281.586982
 30
0.0
 11
261.244232
 21
281.586979
 31
0.0
  0
LINE
  5
B2
330
AB
100
AcDbEntity
  8
0
  6
Continuous
 62
     0
370
    30
100
AcDbLine
 10
363.744231
 20
246.687028
 30
0.0
 11
363.744231
 21
261.587029
 31
0.0
  0
ARC
  5
B3
330
AB
100
AcDbEntity
  8
0
  6
Continuous
 62
     0
370
    30
100
AcDbCircle
 10
348.744231
 20
262.08703
 30
0.0
 40
0.5
100
AcDbArc
 50
179.999997
 51
269.999997
  0
LINE
  5
B4
330
AB
100
AcDbEntity
  8
0
  6
Continuous
 62
     0
370
    30
100
AcDbLine
 10
348.244231
 20
262.08703
 30
0.0
 11
348.244232
 21
281.586982
 31
0.0
  0
LINE
  5
B5
330
AB
100
AcDbEntity
  8
0
  6
Continuous
 62
     0
370
    30
100
AcDbLine
 10
348.744231
 20
261.58703
 30
0.0
 11
410.744231
 21
261.587027
 31
0.0
  0
LINE
  5
B6
330
AB
100
AcDbEntity
  8
0
  6
Continuous
 62
     0
370
     0
100
AcDbLine
 10
348.244231
 20
262.08703
 30
0.0
 11
411.244231
 21
262.087027
 31
0.0
  0
LINE
  5
B7
330
AB
100
AcDbEntity
  8
0
  6
Continuous
 62
     0
370
    30
100
AcDbLine
 10
348.244232
 20
281.586982
 30
0.0
 11
411.244232
 21
281.586979
 31
0.0
  0
LINE
  5
B8
330
AB
100
AcDbEntity
  8
0
  6
Continuous
 62
     0
370
    30
100
AcDbLine
 10
251.744231
 20
190.055104
 30
0.0
 11
251.744231
 21
191.10158
 31
0.0
  0
LINE
  5
B9
330
AB
100
AcDbEntity
  8
0
  6
Continuous
 62
     0
370
    30
100
AcDbLine
 10
207.744231
 20
190.055104
 30
0.0
 11
207.744231
 21
191.10158
 31
0.0
  0
LINE
  5
BA
330
AB
100
AcDbEntity
  8
0
  6
Continuous
 62
     0
370
    30
100
AcDbLine
 10
207.744231
 20
183.71361
 30
0.0
 11
207.744231
 21
190.055104
 31
0.0
  0
ELLIPSE
  5
BB
330
AB
100
AcDbEntity
  8
0
  6
Continuous
 62
     0
370
    30
100
AcDbEllipse
 10
214.744232
 20
183.71361
 30
0.0
 11
6.999999999999997
 21
4.286263797015730E-16
 31
0.0
210
0.0
220
0.0
230
-1.0
 40
0.394486
 41
1.570796326794897
 42
3.141592653589797
  0
LINE
  5
BC
330
AB
100
AcDbEntity
  8
0
  6
Continuous
 62
     0
370
    30
100
AcDbLine
 10
251.744231
 20
183.71361
 30
0.0
 11
251.744231
 21
190.055104
 31
0.0
  0
LINE
  5
BD
330
AB
100
AcDbEntity
  8
0
  6
Continuous
 62
     0
370
    30
100
AcDbLine
 10
244.744232
 20
180.952209
 30
0.0
 11
214.744232
 21
180.952209
 31
0.0
  0
ELLIPSE
  5
BE
330
AB
100
AcDbEntity
  8
0
  6
Continuous
 62
     0
370
    30
100
AcDbEllipse
 10
244.744232
 20
183.71361
 30
0.0
 11
7.0
 21
4.286263797015732E-16
 31
0.0
210
0.0
220
0.0
230
-1.0
 40
0.394486
 41
6.283185307179584
 42
7.853981633974483
  0
LINE
  5
BF
330
AB
100
AcDbEntity
  8
0
  6
Continuous
 62
     0
370
     0
100
AcDbLine
 10
244.744232
 20
169.874715
 30
0.0
 11
214.744232
 21
169.874715
 31
0.0
  0
LINE
  5
C0
330
AB
100
AcDbEntity
  8
0
  6
Continuous
 62
     0
370
     0
100
AcDbLine
 10
244.744232
 20
168.887026
 30
0.0
 11
214.744232
 21
168.887026
 31
0.0
  0
LWPOLYLINE
  5
C1
330
AB
100
AcDbEntity
  8
0
  6
Continuous
 62
     0
370
     0
100
AcDbPolyline
 90
       16
 70
     0
 43
0.0
 10
251.744232
 20
168.924408
 10
251.706009
 20
169.02359
 10
251.591736
 20
169.121689
 10
251.402679
 20
169.217621
 10
251.1409
 20
169.310364
 10
250.80925
 20
169.398895
 10
250.411362
 20
169.482239
 10
249.951569
 20
169.559479
 10
249.434906
 20
169.629791
 10
248.867004
 20
169.692398
 10
248.254074
 20
169.746628
 10
247.602814
 20
169.79187
 10
246.920334
 20
169.827621
 10
246.214081
 20
169.853531
 10
245.49176
 20
169.869278
 10
244.744232
 20
169.87471
  0
LWPOLYLINE
  5
C2
330
AB
100
AcDbEntity
  8
0
  6
Continuous
 62
     0
370
     0
100
AcDbPolyline
 90
       15
 70
     0
 43
0.0
 10
250.744232
 20
167.936722
 10
250.70668
 20
168.042877
 10
250.594498
 20
168.147705
 10
250.409073
 20
168.249893
 10
250.15274
 20
168.34816
 10
249.828705
 20
168.441269
 10
249.441025
 20
168.528076
 10
248.994553
 20
168.607468
 10
248.494888
 20
168.678467
 10
247.948257
 20
168.740189
 10
247.361526
 20
168.79184
 10
246.742035
 20
168.832794
 10
246.097534
 20
168.862534
 10
245.436096
 20
168.880692
 10
244.744232
 20
168.887024
  0
LINE
  5
C3
330
AB
100
AcDbEntity
  8
0
  6
Continuous
 62
     0
370
     0
100
AcDbLine
 10
250.744232
 20
154.344561
 30
0.0
 11
250.744232
 21
167.93672
 31
0.0
  0
LINE
  5
C4
330
AB
100
AcDbEntity
  8
0
  6
Continuous
 62
     0
370
    30
100
AcDbLine
 10
251.744232
 20
155.332249
 30
0.0
 11
251.744232
 21
168.924408
 31
0.0
  0
LWPOLYLINE
  5
C5
330
AB
100
AcDbEntity
  8
0
  6
Continuous
 62
     0
370
     0
100
AcDbPolyline
 90
       15
 70
     0
 43
0.0
 10
250.744232
 20
154.344559
 10
250.70668
 20
154.23967
 10
250.594498
 20
154.136108
 10
250.409073
 20
154.035141
 10
250.15274
 20
153.938049
 10
249.828705
 20
153.846054
 10
249.441025
 20
153.760284
 10
248.994553
 20
153.681839
 10
248.494888
 20
153.611694
 10
247.948257
 20
153.550705
 10
247.361526
 20
153.499664
 10
246.742035
 20
153.459198
 10
246.097534
 20
153.429825
 10
245.436096
 20
153.411896
 10
244.744232
 20
153.405624
  0
LINE
  5
C6
330
AB
100
AcDbEntity
  8
0
  6
Continuous
 62
     0
370
     0
100
AcDbLine
 10
244.744232
 20
153.405628
 30
0.0
 11
214.744232
 21
153.405628
 31
0.0
  0
LWPOLYLINE
  5
C7
330
AB
100
AcDbEntity
  8
0
  6
Continuous
 62
     0
370
     0
100
AcDbPolyline
 90
       15
 70
     0
 43
0.0
 10
214.744232
 20
153.405624
 10
214.07399
 20
153.411499
 10
213.41214
 20
153.429062
 10
212.766953
 20
153.458084
 10
212.14653
 20
153.498184
 10
211.558624
 20
153.548904
 10
211.01059
 20
153.609558
 10
210.509293
 20
153.679428
 10
210.061005
 20
153.757629
 10
209.671341
 20
153.84317
 10
209.345184
 20
153.934982
 10
209.086609
 20
154.031921
 10
208.898849
 20
154.132782
 10
208.784256
 20
154.236298
 10
208.744232
 20
154.344559
  0
LINE
  5
C8
330
AB
100
AcDbEntity
  8
0
  6
Continuous
 62
     0
370
     0
100
AcDbLine
 10
208.744232
 20
154.344561
 30
0.0
 11
208.744232
 21
167.93672
 31
0.0
  0
LINE
  5
C9
330
AB
100
AcDbEntity
  8
0
  6
Continuous
 62
     0
370
    30
100
AcDbLine
 10
207.744232
 20
155.332249
 30
0.0
 11
207.744232
 21
168.924408
 31
0.0
  0
LWPOLYLINE
  5
CA
330
AB
100
AcDbEntity
  8
0
  6
Continuous
 62
     0
370
     0
100
AcDbPolyline
 90
       16
 70
     0
 43
0.0
 10
214.744232
 20
169.87471
 10
214.013672
 20
169.869522
 10
213.291077
 20
169.854019
 10
212.584366
 20
169.828339
 10
211.90123
 20
169.792801
 10
211.249161
 20
169.747787
 10
210.635254
 20
169.693771
 10
210.066238
 20
169.631348
 10
209.548309
 20
169.561203
 10
209.087143
 20
169.4841
 10
208.687744
 20
169.400894
 10
208.354507
 20
169.312485
 10
208.091064
 20
169.219833
 10
207.900284
 20
169.123947
 10
207.784256
 20
169.025894
 10
207.744232
 20
168.924408
  0
LWPOLYLINE
  5
CB
330
AB
100
AcDbEntity
  8
0
  6
Continuous
 62
     0
370
     0
100
AcDbPolyline
 90
       15
 70
     0
 43
0.0
 10
214.744232
 20
168.887024
 10
214.07399
 20
168.881073
 10
213.41214
 20
168.863312
 10
212.766953
 20
168.833939
 10
212.14653
 20
168.79335
 10
211.558624
 20
168.74202
 10
211.01059
 20
168.680618
 10
210.509293
 20
168.609909
 10
210.061005
 20
168.530762
 10
209.671341
 20
168.444183
 10
209.345184
 20
168.351257
 10
209.086609
 20
168.253143
 10
208.898849
 20
168.151062
 10
208.784256
 20
168.046295
 10
208.744232
 20
167.936722
  0
LINE
  5
CC
330
AB
100
AcDbEntity
  8
0
  6
Continuous
 62
     0
370
     0
100
AcDbLine
 10
244.744232
 20
169.874715
 30
0.0
 11
244.744232
 21
180.952209
 31
0.0
  0
LINE
  5
CD
330
AB
100
AcDbEntity
  8
0
  6
Continuous
 62
     0
370
     0
100
AcDbLine
 10
214.744232
 20
169.874715
 30
0.0
 11
214.744232
 21
180.952209
 31
0.0
  0
LINE
  5
CE
330
AB
100
AcDbEntity
  8
0
  6
Continuous
 62
     0
370
     0
100
AcDbLine
 10
244.744232
 20
169.874715
 30
0.0
 11
244.744232
 21
168.887026
 31
0.0
  0
LINE
  5
CF
330
AB
100
AcDbEntity
  8
0
  6
Continuous
 62
     0
370
    30
100
AcDbLine
 10
251.744232
 20
168.924408
 30
0.0
 11
251.744232
 21
183.71361
 31
0.0
  0
ELLIPSE
  5
D0
330
AB
100
AcDbEntity
  8
0
  6
Continuous
 62
     0
370
     0
100
AcDbEllipse
 10
250.744232
 20
168.924408
 30
0.0
 11
1.0
 21
6.123235685644775E-17
 31
0.0
210
0.0
220
0.0
230
-1.0
 40
0.987688
 41
0.0000000000000001
 42
1.570796326794897
  0
ELLIPSE
  5
D1
330
AB
100
AcDbEntity
  8
0
  6
Continuous
 62
     0
370
     0
100
AcDbEllipse
 10
250.744232
 20
155.332249
 30
0.0
 11
-1.000000000000017
 21
-6.123235685644877E-17
 31
0.0
210
0.0
220
0.0
230
1.0
 40
0.987688
 41
1.570796326794897
 42
3.141592653589793
  0
LINE
  5
D2
330
AB
100
AcDbEntity
  8
0
  6
Continuous
 62
     0
370
     0
100
AcDbLine
 10
244.744232
 20
153.405628
 30
0.0
 11
244.744232
 21
153.393316
 31
0.0
  0
LINE
  5
D3
330
AB
100
AcDbEntity
  8
0
  6
Continuous
 62
     0
370
     0
100
AcDbLine
 10
214.744232
 20
153.405628
 30
0.0
 11
214.744232
 21
153.393316
 31
0.0
  0
LINE
  5
D4
330
AB
100
AcDbEntity
  8
0
  6
Continuous
 62
     0
370
    30
100
AcDbLine
 10
207.744232
 20
168.924408
 30
0.0
 11
207.744232
 21
183.71361
 31
0.0
  0
ELLIPSE
  5
D5
330
AB
100
AcDbEntity
  8
0
  6
Continuous
 62
     0
370
     0
100
AcDbEllipse
 10
208.744232
 20
155.332249
 30
0.0
 11
1.000000000000016
 21
6.123235685644870E-17
 31
0.0
210
0.0
220
0.0
230
-1.0
 40
0.987688
 41
1.570796326794897
 42
3.141592653589793
  0
LINE
  5
D6
330
AB
100
AcDbEntity
  8
0
  6
Continuous
 62
     0
370
     0
100
AcDbLine
 10
214.744232
 20
169.874715
 30
0.0
 11
214.744232
 21
168.887026
 31
0.0
  0
ELLIPSE
  5
D7
330
AB
100
AcDbEntity
  8
0
  6
Continuous
 62
     0
370
     0
100
AcDbEllipse
 10
208.744232
 20
168.924408
 30
0.0
 11
0.9999999999999964
 21
3.071228893843663E-14
 31
0.0
210
0.0
220
0.0
230
-1.0
 40
0.987688
 41
1.570796326794927
 42
3.141592653589838
  0
LINE
  5
D8
330
AB
100
AcDbEntity
  8
0
  6
Continuous
 62
     0
370
     0
100
AcDbLine
 10
251.744231
 20
190.055104
 30
0.0
 11
249.556175
 21
190.055104
 31
0.0
  0
LINE
  5
D9
330
AB
100
AcDbEntity
  8
0
  6
Continuous
 62
     0
370
     0
100
AcDbLine
 10
209.932286
 20
190.055104
 30
0.0
 11
207.744231
 21
190.055104
 31
0.0
  0
LINE
  5
DA
330
AB
100
AcDbEntity
  8
0
  6
Continuous
 62
     0
370
    30
100
AcDbLine
 10
251.744231
 20
191.10158
 30
0.0
 11
249.759548
 21
191.10158
 31
0.0
  0
LINE
  5
DB
330
AB
100
AcDbEntity
  8
0
  6
Continuous
 62
     0
370
    30
100
AcDbLine
 10
209.728914
 20
191.10158
 30
0.0
 11
207.744231
 21
191.10158
 31
0.0
  0
LWPOLYLINE
  5
DC
330
AB
100
AcDbEntity
  8
0
  6
Continuous
 62
     0
370
    30
100
AcDbPolyline
 90
       24
 70
     0
 43
0.0
 10
210.157486
 20
189.138763
 10
210.321991
 20
188.680389
 10
210.565842
 20
188.226852
 10
210.887985
 20
187.779968
 10
211.287384
 20
187.341583
 10
211.762405
 20
186.913437
 10
212.310883
 20
186.497269
 10
212.930634
 20
186.094757
 10
213.619354
 20
185.707611
 10
214.374069
 20
185.337402
 10
215.191574
 20
184.985657
 10
216.068649
 20
184.653931
 10
217.001999
 20
184.343735
 10
217.987717
 20
184.056213
 10
219.021469
 20
183.792328
 10
220.098862
 20
183.553009
 10
221.215546
 20
183.339157
 10
222.367157
 20
183.151733
 10
223.549347
 20
182.991669
 10
224.757706
 20
182.859863
 10
225.987244
 20
182.757004
 10
227.231918
 20
182.683289
 10
228.48558
 20
182.638901
 10
229.744232
 20
182.624039
  0
LWPOLYLINE
  5
DD
330
AB
100
AcDbEntity
  8
0
  6
Continuous
 62
     0
370
    30
100
AcDbPolyline
 90
       24
 70
     0
 43
0.0
 10
229.744232
 20
182.624039
 10
231.000763
 20
182.638855
 10
232.25444
 20
182.683182
 10
233.49913
 20
182.756851
 10
234.728699
 20
182.859665
 10
235.937103
 20
182.991425
 10
237.119339
 20
183.151443
 10
238.271011
 20
183.338821
 10
239.387756
 20
183.552628
 10
240.465225
 20
183.791916
 10
241.499054
 20
184.055756
 10
242.484863
 20
184.343231
 10
243.418304
 20
184.653397
 10
244.295471
 20
184.985092
 10
245.113083
 20
185.336792
 10
245.867905
 20
185.70697
 10
246.556732
 20
186.094101
 10
247.176605
 20
186.496582
 10
247.725204
 20
186.912735
 10
248.200348
 20
187.340866
 10
248.599884
 20
187.779236
 10
248.92215
 20
188.226105
 10
249.166122
 20
188.679626
 10
249.330978
 20
189.138779
  0
LINE
  5
DE
330
AB
100
AcDbEntity
  8
0
  6
Continuous
 62
     0
370
     0
100
AcDbLine
 10
394.744232
 20
193.687026
 30
0.0
 11
214.744232
 21
193.687026
 31
0.0
  0
LINE
  5
DF
330
AB
100
AcDbEntity
  8
0
  6
Continuous
 62
     0
370
    30
100
AcDbLine
 10
394.744232
 20
191.687026
 30
0.0
 11
214.744232
 21
191.687026
 31
0.0
  0
LINE
  5
E0
330
AB
100
AcDbEntity
  8
0
  6
Continuous
 62
     0
370
     0
100
AcDbLine
 10
394.744232
 20
193.687026
 30
0.0
 11
404.744232
 21
193.687026
 31
0.0
  0
LINE
  5
E1
330
AB
100
AcDbEntity
  8
0
  6
Continuous
 62
     0
370
    30
100
AcDbLine
 10
394.744232
 20
191.687026
 30
0.0
 11
402.744232
 21
191.687026
 31
0.0
  0
LINE
  5
E2
330
AB
100
AcDbEntity
  8
0
  6
Continuous
 62
     0
370
     0
100
AcDbLine
 10
204.744232
 20
193.687026
 30
0.0
 11
214.744232
 21
193.687026
 31
0.0
  0
LINE
  5
E3
330
AB
100
AcDbEntity
  8
0
  6
Continuous
 62
     0
370
    30
100
AcDbLine
 10
206.744232
 20
191.687026
 30
0.0
 11
214.744232
 21
191.687026
 31
0.0
  0
LINE
  5
E4
330
AB
100
AcDbEntity
  8
0
  6
Continuous
 62
     0
370
     0
100
AcDbLine
 10
394.744232
 20
193.687026
 30
0.0
 11
394.744232
 21
191.687026
 31
0.0
  0
LINE
  5
E5
330
AB
100
AcDbEntity
  8
0
  6
Continuous
 62
     0
370
     0
100
AcDbLine
 10
214.744232
 20
191.687026
 30
0.0
 11
214.744232
 21
193.687026
 31
0.0
  0
ARC
  5
E6
330
AB
100
AcDbEntity
  8
0
  6
Continuous
 62
     0
370
    30
100
AcDbCircle
 10
402.744232
 20
193.687026
 30
0.0
 40
2.0
100
AcDbArc
 50
270.0
 51
0.0
  0
ARC
  5
E7
330
AB
100
AcDbEntity
  8
0
  6
Continuous
 62
     0
370
    30
100
AcDbCircle
 10
206.744232
 20
193.687026
 30
0.0
 40
2.0
100
AcDbArc
 50
180.0
 51
270.0
  0
LINE
  5
E8
330
AB
100
AcDbEntity
  8
0
  6
Continuous
 62
     0
370
    30
100
AcDbLine
 10
394.744232
 20
246.687026
 30
0.0
 11
214.744232
 21
246.687026
 31
0.0
  0
LINE
  5
E9
330
AB
100
AcDbEntity
  8
0
  6
Continuous
 62
     0
370
     0
100
AcDbLine
 10
394.744232
 20
244.687026
 30
0.0
 11
214.744232
 21
244.687026
 31
0.0
  0
LINE
  5
EA
330
AB
100
AcDbEntity
  8
0
  6
Continuous
 62
     0
370
    30
100
AcDbLine
 10
394.744232
 20
246.687026
 30
0.0
 11
402.744232
 21
246.687026
 31
0.0
  0
LINE
  5
EB
330
AB
100
AcDbEntity
  8
0
  6
Continuous
 62
     0
370
     0
100
AcDbLine
 10
394.744232
 20
244.687026
 30
0.0
 11
404.744232
 21
244.687026
 31
0.0
  0
LINE
  5
EC
330
AB
100
AcDbEntity
  8
0
  6
Continuous
 62
     0
370
    30
100
AcDbLine
 10
206.744232
 20
246.687026
 30
0.0
 11
214.744232
 21
246.687026
 31
0.0
  0
LINE
  5
ED
330
AB
100
AcDbEntity
  8
0
  6
Continuous
 62
     0
370
     0
100
AcDbLine
 10
204.744232
 20
244.687026
 30
0.0
 11
214.744232
 21
244.687026
 31
0.0
  0
LINE
  5
EE
330
AB
100
AcDbEntity
  8
0
  6
Continuous
 62
     0
370
     0
100
AcDbLine
 10
394.744232
 20
244.687026
 30
0.0
 11
394.744232
 21
193.687026
 31
0.0
  0
LINE
  5
EF
330
AB
100
AcDbEntity
  8
0
  6
Continuous
 62
     0
370
     0
100
AcDbLine
 10
214.744232
 20
244.687026
 30
0.0
 11
214.744232
 21
193.687026
 31
0.0
  0
LINE
  5
F0
330
AB
100
AcDbEntity
  8
0
  6
Continuous
 62
     0
370
     0
100
AcDbLine
 10
394.744232
 20
246.687026
 30
0.0
 11
394.744232
 21
244.687026
 31
0.0
  0
LINE
  5
F1
330
AB
100
AcDbEntity
  8
0
  6
Continuous
 62
     0
370
     0
100
AcDbLine
 10
214.744232
 20
244.687026
 30
0.0
 11
214.744232
 21
246.687026
 31
0.0
  0
LINE
  5
F2
330
AB
100
AcDbEntity
  8
0
  6
Continuous
 62
     0
370
    30
100
AcDbLine
 10
404.744232
 20
244.687026
 30
0.0
 11
404.744232
 21
193.687026
 31
0.0
  0
ARC
  5
F3
330
AB
100
AcDbEntity
  8
0
  6
Continuous
 62
     0
370
    30
100
AcDbCircle
 10
402.744232
 20
244.687026
 30
0.0
 40
2.0
100
AcDbArc
 50
0.0
 51
90.0
  0
LINE
  5
F4
330
AB
100
AcDbEntity
  8
0
  6
Continuous
 62
     0
370
    30
100
AcDbLine
 10
204.744232
 20
244.687026
 30
0.0
 11
204.744232
 21
193.687026
 31
0.0
  0
ARC
  5
F5
330
AB
100
AcDbEntity
  8
0
  6
Continuous
 62
     0
370
    30
100
AcDbCircle
 10
206.744232
 20
244.687026
 30
0.0
 40
2.0
100
AcDbArc
 50
90.0
 51
180.0
  0
LINE
  5
F6
330
AB
100
AcDbEntity
  8
0
  6
Continuous
 62
     0
370
    30
100
AcDbLine
 10
411.244231
 20
262.087027
 30
0.0
 11
411.244232
 21
281.586979
 31
0.0
  0
ARC
  5
F7
330
AB
100
AcDbEntity
  8
0
  6
Continuous
 62
     0
370
    30
100
AcDbCircle
 10
410.744231
 20
262.087027
 30
0.0
 40
0.5
100
AcDbArc
 50
269.999997
 51
359.999997
  0
LINE
  5
F8
330
AB
100
AcDbEntity
  8
0
  6
Continuous
 62
     0
370
    30
100
AcDbLine
 10
395.744231
 20
246.687026
 30
0.0
 11
395.744231
 21
261.587028
 31
0.0
  0
LINE
  5
F9
330
AB
100
AcDbEntity
  8
0
  6
Continuous
 62
     0
370
    30
100
AcDbLine
 10
261.244231
 20
262.087027
 30
0.0
 11
261.244232
 21
281.586979
 31
0.0
  0
ARC
  5
FA
330
AB
100
AcDbEntity
  8
0
  6
Continuous
 62
     0
370
    30
100
AcDbCircle
 10
260.744231
 20
262.087027
 30
0.0
 40
0.5
100
AcDbArc
 50
269.999997
 51
359.999997
  0
LINE
  5
FB
330
AB
100
AcDbEntity
  8
0
  6
Continuous
 62
     0
370
    30
100
AcDbLine
 10
245.744231
 20
246.687026
 30
0.0
 11
245.744231
 21
261.587028
 31
0.0
  0
LWPOLYLINE
  5
FC
330
AB
100
AcDbEntity
  8
0
  6
Continuous
 62
     0
370
    30
100
AcDbPolyline
 90
       27
 70
     0
 43
0.0
 10
214.744232
 20
153.393311
 10
214.351196
 20
153.395294
 10
213.958954
 20
153.401215
 10
213.569336
 20
153.411041
 10
213.184219
 20
153.424759
 10
212.80542
 20
153.442307
 10
212.434433
 20
153.463654
 10
212.072403
 20
153.488693
 10
211.72049
 20
153.51738
 10
211.379791
 20
153.549591
 10
211.051453
 20
153.585251
 10
210.736603
 20
153.624298
 10
210.436386
 20
153.666626
 10
210.151749
 20
153.712204
 10
209.882904
 20
153.761154
 10
209.629852
 20
153.813644
 10
209.392593
 20
153.869843
 10
209.171066
 20
153.929993
 10
208.963928
 20
153.995392
 10
208.768677
 20
154.068329
 10
208.582748
 20
154.151321
 10
208.402878
 20
154.250519
 10
208.225647
 20
154.375565
 10
208.05246
 20
154.539948
 10
207.89801
 20
154.75589
 10
207.787689
 20
155.024673
 10
207.744232
 20
155.332245
  0
LINE
  5
FD
330
AB
100
AcDbEntity
  8
0
  6
Continuous
 62
     0
370
    30
100
AcDbLine
 10
244.744232
 20
153.393316
 30
0.0
 11
214.744232
 21
153.393316
 31
0.0
  0
LWPOLYLINE
  5
FE
330
AB
100
AcDbEntity
  8
0
  6
Continuous
 62
     0
370
    30
100
AcDbPolyline
 90
       27
 70
     0
 43
0.0
 10
251.744232
 20
155.332245
 10
251.702728
 20
155.033859
 10
251.593903
 20
154.763641
 10
251.441254
 20
154.545273
 10
251.267914
 20
154.37973
 10
251.090759
 20
154.25386
 10
250.910828
 20
154.153641
 10
250.725372
 20
154.070099
 10
250.530731
 20
153.997772
 10
250.323639
 20
153.932083
 10
250.102478
 20
153.871521
 10
249.865982
 20
153.815262
 10
249.613312
 20
153.762634
 10
249.34465
 20
153.713516
 10
249.060425
 20
153.667801
 10
248.761032
 20
153.625427
 10
248.44696
 20
153.586349
 10
248.119171
 20
153.550613
 10
247.778824
 20
153.518295
 10
247.427078
 20
153.489517
 10
247.065125
 20
153.46434
 10
246.694092
 20
153.442871
 10
246.315247
 20
153.425217
 10
245.930206
 20
153.411392
 10
245.540771
 20
153.401459
 10
245.148758
 20
153.395416
 10
244.744232
 20
153.393311
  0
ARC
  5
FF
330
AB
100
AcDbEntity
  8
0
  6
Continuous
 62
     0
370
    30
100
AcDbCircle
 10
229.947304
 20
194.487831
 30
0.0
 40
20.49999999991807
100
AcDbArc
 50
187.852577
 51
195.125276
  0
ARC
  5
100
330
AB
100
AcDbEntity
  8
0
  6
Continuous
 62
     0
370
    30
100
AcDbCircle
 10
229.541158
 20
194.487831
 30
0.0
 40
20.49999999991807
100
AcDbArc
 50
344.874772
 51
352.147431
  0
ENDBLK
  5
102
330
AB
100
AcDbEntity
  8
0
100
AcDbBlockEnd
  0
BLOCK
  5
166
330
104
100
AcDbEntity
  8
0
100
AcDbBlockBegin
  2
c
 70
     0
 10
238.964096
 20
164.326157
 30
0.0
  3
c
  1

  0
LINE
  5
105
330
104
100
AcDbEntity
  8
0
  6
Continuous
 62
     0
370
    30
100
AcDbLine
 10
549.271401
 20
435.441872
 30
0.0
 11
549.271401
 21
466.441872
 31
0.0
  0
LINE
  5
106
330
104
100
AcDbEntity
  8
0
  6
Continuous
 62
     0
370
    30
100
AcDbLine
 10
549.271401
 20
466.441872
 30
0.0
 11
549.271401
 21
497.441872
 31
0.0
  0
LINE
  5
107
330
104
100
AcDbEntity
  8
0
  6
Continuous
 62
     0
370
     0
100
AcDbLine
 10
548.771401
 20
434.941872
 30
0.0
 11
548.771401
 21
466.441872
 31
0.0
  0
LINE
  5
108
330
104
100
AcDbEntity
  8
0
  6
Continuous
 62
     0
370
     0
100
AcDbLine
 10
548.771401
 20
466.441872
 30
0.0
 11
548.771401
 21
497.941872
 31
0.0
  0
LINE
  5
109
330
104
100
AcDbEntity
  8
0
  6
Continuous
 62
     0
370
    30
100
AcDbLine
 10
529.271449
 20
434.941872
 30
0.0
 11
529.271449
 21
466.441872
 31
0.0
  0
LINE
  5
10A
330
104
100
AcDbEntity
  8
0
  6
Continuous
 62
     0
370
    30
100
AcDbLine
 10
529.271449
 20
466.441872
 30
0.0
 11
529.271449
 21
497.941872
 31
0.0
  0
ARC
  5
10B
330
104
100
AcDbEntity
  8
0
  6
Continuous
 62
     0
370
    30
100
AcDbCircle
 10
634.756851
 20
460.11054
 30
0.0
 40
14.99999999994
100
AcDbArc
 50
158.471471
 51
180.0
  0
LINE
  5
10C
330
104
100
AcDbEntity
  8
0
  6
Continuous
 62
     0
370
    30
100
AcDbLine
 10
627.14482
 20
481.690348
 30
0.0
 11
620.803327
 21
465.615007
 31
0.0
  0
LINE
  5
10D
330
104
100
AcDbEntity
  8
0
  6
Continuous
 62
     0
370
    30
100
AcDbLine
 10
629.906221
 20
488.690349
 30
0.0
 11
627.14482
 21
481.690348
 31
0.0
  0
LINE
  5
10E
330
104
100
AcDbEntity
  8
0
  6
Continuous
 62
     0
370
    30
100
AcDbLine
 10
619.756851
 20
444.690346
 30
0.0
 11
638.778285
 21
444.690351
 31
0.0
  0
LINE
  5
10F
330
104
100
AcDbEntity
  8
0
  6
Continuous
 62
     0
370
     0
100
AcDbLine
 10
619.756851
 20
445.690346
 30
0.0
 11
638.778285
 21
445.690351
 31
0.0
  0
ARC
  5
110
330
104
100
AcDbEntity
  8
0
  6
Continuous
 62
     0
370
    30
100
AcDbCircle
 10
638.778286
 20
437.690351
 30
0.0
 40
6.999999999972001
100
AcDbArc
 50
9.0
 51
90.000014
  0
ARC
  5
111
330
104
100
AcDbEntity
  8
0
  6
Continuous
 62
     0
370
     0
100
AcDbCircle
 10
638.778286
 20
437.690351
 30
0.0
 40
7.999999999972001
100
AcDbArc
 50
9.0
 51
90.000014
  0
LINE
  5
112
330
104
100
AcDbEntity
  8
0
  6
Continuous
 62
     0
370
     0
100
AcDbLine
 10
646.679793
 20
438.941827
 30
0.0
 11
653.559067
 21
395.507804
 31
0.0
  0
LINE
  5
113
330
104
100
AcDbEntity
  8
0
  6
Continuous
 62
     0
370
    30
100
AcDbLine
 10
645.692105
 20
438.785392
 30
0.0
 11
652.571378
 21
395.35137
 31
0.0
  0
LWPOLYLINE
  5
114
330
104
100
AcDbEntity
  8
0
  6
Continuous
 62
     0
370
     0
100
AcDbPolyline
 90
       16
 70
     0
 43
0.0
 10
654.68042
 20
388.596405
 10
654.674316
 20
388.634125
 10
654.656006
 20
388.746948
 10
654.625732
 20
388.933624
 10
654.583801
 20
389.192108
 10
654.53064
 20
389.519562
 10
654.466919
 20
389.912415
 10
654.39325
 20
390.366394
 10
654.310486
 20
390.876526
 10
654.219543
 20
391.437256
 10
654.121338
 20
392.042419
 10
654.016968
 20
392.685455
 10
653.907654
 20
393.359314
 10
653.794495
 20
394.056641
 10
653.678833
 20
394.769806
 10
653.559082
 20
395.507812
  0
LWPOLYLINE
  5
115
330
104
100
AcDbEntity
  8
0
  6
Continuous
 62
     0
370
    30
100
AcDbPolyline
 90
       15
 70
     0
 43
0.0
 10
653.510315
 20
389.423187
 10
653.504456
 20
389.460266
 10
653.486877
 20
389.571136
 10
653.457886
 20
389.754333
 10
653.417725
 20
390.007599
 10
653.367065
 20
390.327759
 10
653.306396
 20
390.710815
 10
653.236511
 20
391.151947
 10
653.158325
 20
391.64566
 10
653.072754
 20
392.18576
 10
652.980957
 20
392.765472
 10
652.883972
 20
393.377563
 10
652.783142
 20
394.014374
 10
652.679626
 20
394.667908
 10
652.57135
 20
395.351379
  0
LINE
  5
116
330
104
100
AcDbEntity
  8
0
  6
Continuous
 62
     0
370
    30
100
AcDbLine
 10
619.756851
 20
460.11054
 30
0.0
 11
619.756851
 21
445.690346
 31
0.0
  0
LINE
  5
117
330
104
100
AcDbEntity
  8
0
  6
Continuous
 62
     0
370
     0
100
AcDbLine
 10
638.778285
 20
444.690351
 30
0.0
 11
638.778284
 21
445.690351
 31
0.0
  0
LINE
  5
118
330
104
100
AcDbEntity
  8
0
  6
Continuous
 62
     0
370
     0
100
AcDbLine
 10
646.679793
 20
438.941827
 30
0.0
 11
645.692105
 21
438.785392
 31
0.0
  0
LINE
  5
119
330
104
100
AcDbEntity
  8
0
  6
Continuous
 62
     0
370
     0
100
AcDbLine
 10
652.571378
 20
395.35137
 30
0.0
 11
653.559067
 21
395.507804
 31
0.0
  0
ARC
  5
11A
330
104
100
AcDbEntity
  8
0
  6
Continuous
 62
     0
370
    30
100
AcDbCircle
 10
654.498
 20
389.57961
 30
0.0
 40
0.9999999999999927
100
AcDbArc
 50
189.0
 51
280.512056
  0
LINE
  5
11B
330
104
100
AcDbEntity
  8
0
  6
Continuous
 62
     0
370
    30
100
AcDbLine
 10
619.756851
 20
444.690346
 30
0.0
 11
619.756851
 21
445.690346
 31
0.0
  0
LWPOLYLINE
  5
11C
330
104
100
AcDbEntity
  8
0
  6
Continuous
 62
     0
370
    30
100
AcDbPolyline
 90
       15
 70
     0
 43
0.0
 10
657.45282
 20
390.101044
 10
657.446899
 20
390.138153
 10
657.429382
 20
390.249023
 10
657.40033
 20
390.43222
 10
657.360229
 20
390.685486
 10
657.309509
 20
391.005646
 10
657.24884
 20
391.388702
 10
657.179016
 20
391.829834
 10
657.10083
 20
392.323547
 10
657.015259
 20
392.863647
 10
656.923462
 20
393.443359
 10
656.826477
 20
394.05545
 10
656.725647
 20
394.69223
 10
656.622131
 20
395.345795
 10
656.513855
 20
396.029236
  0
LWPOLYLINE
  5
11D
330
104
100
AcDbEntity
  8
0
  6
Continuous
 62
     0
370
     0
100
AcDbPolyline
 90
       16
 70
     0
 43
0.0
 10
656.647583
 20
388.961395
 10
656.641418
 20
388.999146
 10
656.623108
 20
389.111969
 10
656.592834
 20
389.298645
 10
656.550903
 20
389.557129
 10
656.497803
 20
389.884583
 10
656.434021
 20
390.277435
 10
656.360352
 20
390.731415
 10
656.277588
 20
391.241547
 10
656.186646
 20
391.802277
 10
656.08844
 20
392.40744
 10
655.984131
 20
393.050476
 10
655.874756
 20
393.724335
 10
655.761658
 20
394.421661
 10
655.645935
 20
395.134827
 10
655.526184
 20
395.872803
  0
LINE
  5
11E
330
104
100
AcDbEntity
  8
0
  6
Continuous
 62
     0
370
    30
100
AcDbLine
 10
656.513873
 20
396.029251
 30
0.0
 11
642.921711
 21
481.846786
 31
0.0
  0
LINE
  5
11F
330
104
100
AcDbEntity
  8
0
  6
Continuous
 62
     0
370
     0
100
AcDbLine
 10
655.526185
 20
395.872816
 30
0.0
 11
641.934022
 21
481.690352
 31
0.0
  0
LINE
  5
120
330
104
100
AcDbEntity
  8
0
  6
Continuous
 62
     0
370
     0
100
AcDbLine
 10
640.983715
 20
488.690351
 30
0.0
 11
641.934022
 21
481.690352
 31
0.0
  0
LINE
  5
121
330
104
100
AcDbEntity
  8
0
  6
Continuous
 62
     0
370
    30
100
AcDbLine
 10
641.971404
 20
487.846786
 30
0.0
 11
642.921711
 21
481.846786
 31
0.0
  0
LINE
  5
122
330
104
100
AcDbEntity
  8
0
  6
Continuous
 62
     0
370
    30
100
AcDbLine
 10
640.983715
 20
488.690351
 30
0.0
 11
629.906221
 21
488.690349
 31
0.0
  0
LINE
  5
123
330
104
100
AcDbEntity
  8
0
  6
Continuous
 62
     0
370
    30
100
AcDbLine
 10
654.680442
 20
388.596393
 30
0.0
 11
656.64756
 21
388.961405
 31
0.0
  0
LINE
  5
124
330
104
100
AcDbEntity
  8
0
  6
Continuous
 62
     0
370
     0
100
AcDbLine
 10
653.559067
 20
395.507804
 30
0.0
 11
655.526185
 21
395.872816
 31
0.0
  0
ARC
  5
125
330
104
100
AcDbEntity
  8
0
  6
Continuous
 62
     0
370
    30
100
AcDbCircle
 10
656.465118
 20
389.944622
 30
0.0
 40
1.000000000000016
100
AcDbArc
 50
280.512056
 51
9.0
  0
LINE
  5
126
330
104
100
AcDbEntity
  8
0
  6
Continuous
 62
     0
370
     0
100
AcDbLine
 10
641.934022
 20
481.690352
 30
0.0
 11
627.14482
 21
481.690348
 31
0.0
  0
LINE
  5
127
330
104
100
AcDbEntity
  8
0
  6
Continuous
 62
     0
370
     0
100
AcDbLine
 10
656.513873
 20
396.029251
 30
0.0
 11
655.526185
 21
395.872816
 31
0.0
  0
ARC
  5
128
330
104
100
AcDbEntity
  8
0
  6
Continuous
 62
     0
370
    30
100
AcDbCircle
 10
640.983715
 20
487.690351
 30
0.0
 40
0.9999999999999946
100
AcDbArc
 50
9.0
 51
90.000014
  0
LINE
  5
129
330
104
100
AcDbEntity
  8
0
  6
Continuous
 62
     0
370
     0
100
AcDbLine
 10
642.921711
 20
481.846786
 30
0.0
 11
641.934022
 21
481.690352
 31
0.0
  0
ARC
  5
12A
330
104
100
AcDbEntity
  8
0
  6
Continuous
 62
     0
370
    30
100
AcDbCircle
 10
616.370599
 20
467.734102
 30
0.0
 40
20.49999999991807
100
AcDbArc
 50
54.639309
 51
82.147427
  0
LINE
  5
12B
330
104
100
AcDbEntity
  8
0
  6
Continuous
 62
     0
370
     0
100
AcDbLine
 10
617.171404
 20
444.441872
 30
0.0
 11
617.171404
 21
449.441872
 31
0.0
  0
LINE
  5
12C
330
104
100
AcDbEntity
  8
0
  6
Continuous
 62
     0
370
    30
100
AcDbLine
 10
619.171404
 20
446.441872
 30
0.0
 11
619.171404
 21
449.441872
 31
0.0
  0
LINE
  5
12D
330
104
100
AcDbEntity
  8
0
  6
Continuous
 62
     0
370
     0
100
AcDbLine
 10
617.171404
 20
481.441872
 30
0.0
 11
617.171404
 21
449.441872
 31
0.0
  0
LINE
  5
12E
330
104
100
AcDbEntity
  8
0
  6
Continuous
 62
     0
370
    30
100
AcDbLine
 10
619.171404
 20
481.441872
 30
0.0
 11
619.171404
 21
449.441872
 31
0.0
  0
LINE
  5
12F
330
104
100
AcDbEntity
  8
0
  6
Continuous
 62
     0
370
     0
100
AcDbLine
 10
617.171404
 20
481.441872
 30
0.0
 11
617.171404
 21
491.441872
 31
0.0
  0
LINE
  5
130
330
104
100
AcDbEntity
  8
0
  6
Continuous
 62
     0
370
    30
100
AcDbLine
 10
619.171404
 20
481.441872
 30
0.0
 11
619.171404
 21
489.441872
 31
0.0
  0
ARC
  5
131
330
104
100
AcDbEntity
  8
0
  6
Continuous
 62
     0
370
    30
100
AcDbCircle
 10
617.171404
 20
489.441872
 30
0.0
 40
2.0
100
AcDbArc
 50
0.0
 51
90.0
  0
ARC
  5
132
330
104
100
AcDbEntity
  8
0
  6
Continuous
 62
     0
370
    30
100
AcDbCircle
 10
617.171404
 20
446.441872
 30
0.0
 40
2.0
100
AcDbArc
 50
270.0
 51
360.0
  0
LINE
  5
133
330
104
100
AcDbEntity
  8
0
  6
Continuous
 62
     0
370
     0
100
AcDbLine
 10
619.171404
 20
449.441872
 30
0.0
 11
617.171404
 21
449.441872
 31
0.0
  0
LINE
  5
134
330
104
100
AcDbEntity
  8
0
  6
Continuous
 62
     0
370
     0
100
AcDbLine
 10
617.171404
 20
481.441872
 30
0.0
 11
619.171404
 21
481.441872
 31
0.0
  0
LINE
  5
135
330
104
100
AcDbEntity
  8
0
  6
Continuous
 62
     0
370
    30
100
AcDbLine
 10
564.171404
 20
446.441872
 30
0.0
 11
564.171404
 21
449.441872
 31
0.0
  0
LINE
  5
136
330
104
100
AcDbEntity
  8
0
  6
Continuous
 62
     0
370
     0
100
AcDbLine
 10
566.171404
 20
444.441872
 30
0.0
 11
566.171404
 21
449.441872
 31
0.0
  0
LINE
  5
137
330
104
100
AcDbEntity
  8
0
  6
Continuous
 62
     0
370
    30
100
AcDbLine
 10
564.171404
 20
481.441872
 30
0.0
 11
564.171404
 21
449.441872
 31
0.0
  0
LINE
  5
138
330
104
100
AcDbEntity
  8
0
  6
Continuous
 62
     0
370
     0
100
AcDbLine
 10
566.171404
 20
481.441872
 30
0.0
 11
566.171404
 21
449.441872
 31
0.0
  0
LINE
  5
139
330
104
100
AcDbEntity
  8
0
  6
Continuous
 62
     0
370
    30
100
AcDbLine
 10
564.171404
 20
481.441872
 30
0.0
 11
564.171404
 21
489.441872
 31
0.0
  0
LINE
  5
13A
330
104
100
AcDbEntity
  8
0
  6
Continuous
 62
     0
370
     0
100
AcDbLine
 10
566.171404
 20
481.441872
 30
0.0
 11
566.171404
 21
491.441872
 31
0.0
  0
LINE
  5
13B
330
104
100
AcDbEntity
  8
0
  6
Continuous
 62
     0
370
    30
100
AcDbLine
 10
566.171404
 20
491.441872
 30
0.0
 11
617.171404
 21
491.441872
 31
0.0
  0
ARC
  5
13C
330
104
100
AcDbEntity
  8
0
  6
Continuous
 62
     0
370
    30
100
AcDbCircle
 10
566.171404
 20
489.441872
 30
0.0
 40
2.0
100
AcDbArc
 50
90.0
 51
180.0
  0
LINE
  5
13D
330
104
100
AcDbEntity
  8
0
  6
Continuous
 62
     0
370
    30
100
AcDbLine
 10
566.171404
 20
444.441872
 30
0.0
 11
617.171404
 21
444.441872
 31
0.0
  0
ARC
  5
13E
330
104
100
AcDbEntity
  8
0
  6
Continuous
 62
     0
370
    30
100
AcDbCircle
 10
566.171404
 20
446.441872
 30
0.0
 40
2.0
100
AcDbArc
 50
180.0
 51
270.0
  0
LINE
  5
13F
330
104
100
AcDbEntity
  8
0
  6
Continuous
 62
     0
370
     0
100
AcDbLine
 10
566.171404
 20
449.441872
 30
0.0
 11
617.171404
 21
449.441872
 31
0.0
  0
LINE
  5
140
330
104
100
AcDbEntity
  8
0
  6
Continuous
 62
     0
370
     0
100
AcDbLine
 10
566.171404
 20
481.441872
 30
0.0
 11
617.171404
 21
481.441872
 31
0.0
  0
LINE
  5
141
330
104
100
AcDbEntity
  8
0
  6
Continuous
 62
     0
370
     0
100
AcDbLine
 10
566.171404
 20
449.441872
 30
0.0
 11
564.171404
 21
449.441872
 31
0.0
  0
LINE
  5
142
330
104
100
AcDbEntity
  8
0
  6
Continuous
 62
     0
370
     0
100
AcDbLine
 10
564.171404
 20
481.441872
 30
0.0
 11
566.171404
 21
481.441872
 31
0.0
  0
LINE
  5
143
330
104
100
AcDbEntity
  8
0
  6
Continuous
 62
     0
370
    30
100
AcDbLine
 10
582.871414
 20
434.441871
 30
0.0
 11
591.671401
 21
434.441871
 31
0.0
  0
LINE
  5
144
330
104
100
AcDbEntity
  8
0
  6
Continuous
 62
     0
370
    30
100
AcDbLine
 10
591.671401
 20
434.441871
 30
0.0
 11
600.471386
 21
434.441871
 31
0.0
  0
LINE
  5
145
330
104
100
AcDbEntity
  8
0
  6
Continuous
 62
     0
370
    30
100
AcDbLine
 10
582.671379
 20
434.641907
 30
0.0
 11
591.671401
 21
434.641907
 31
0.0
  0
LINE
  5
146
330
104
100
AcDbEntity
  8
0
  6
Continuous
 62
     0
370
    30
100
AcDbLine
 10
591.671401
 20
434.641907
 30
0.0
 11
600.671421
 21
434.641907
 31
0.0
  0
LINE
  5
147
330
104
100
AcDbEntity
  8
0
  6
Continuous
 62
     0
370
     0
100
AcDbLine
 10
582.671379
 20
436.191871
 30
0.0
 11
591.671401
 21
436.191871
 31
0.0
  0
LINE
  5
148
330
104
100
AcDbEntity
  8
0
  6
Continuous
 62
     0
370
     0
100
AcDbLine
 10
591.671401
 20
436.191871
 30
0.0
 11
600.671421
 21
436.191871
 31
0.0
  0
LINE
  5
149
330
104
100
AcDbEntity
  8
0
  6
Continuous
 62
     0
370
    30
100
AcDbLine
 10
582.16981
 20
436.443421
 30
0.0
 11
591.671401
 21
436.443421
 31
0.0
  0
LINE
  5
14A
330
104
100
AcDbEntity
  8
0
  6
Continuous
 62
     0
370
    30
100
AcDbLine
 10
591.671401
 20
436.443421
 30
0.0
 11
601.17299
 21
436.443421
 31
0.0
  0
LINE
  5
14B
330
104
100
AcDbEntity
  8
0
  6
Continuous
 62
     0
370
    30
100
AcDbLine
 10
581.2714
 20
437.341831
 30
0.0
 11
591.671401
 21
437.341831
 31
0.0
  0
LINE
  5
14C
330
104
100
AcDbEntity
  8
0
  6
Continuous
 62
     0
370
    30
100
AcDbLine
 10
591.671401
 20
437.341831
 30
0.0
 11
602.0714
 21
437.341831
 31
0.0
  0
LINE
  5
14D
330
104
100
AcDbEntity
  8
0
  6
Continuous
 62
     0
370
    30
100
AcDbLine
 10
581.2714
 20
441.441871
 30
0.0
 11
591.671401
 21
441.441871
 31
0.0
  0
LINE
  5
14E
330
104
100
AcDbEntity
  8
0
  6
Continuous
 62
     0
370
    30
100
AcDbLine
 10
591.671401
 20
441.441871
 30
0.0
 11
602.0714
 21
441.441871
 31
0.0
  0
LINE
  5
14F
330
104
100
AcDbEntity
  8
0
  6
Continuous
 62
     0
370
    30
100
AcDbLine
 10
582.6714
 20
443.941872
 30
0.0
 11
591.671401
 21
443.941872
 31
0.0
  0
LINE
  5
150
330
104
100
AcDbEntity
  8
0
  6
Continuous
 62
     0
370
    30
100
AcDbLine
 10
591.671401
 20
443.941872
 30
0.0
 11
600.6714
 21
443.941872
 31
0.0
  0
LINE
  5
151
330
104
100
AcDbEntity
  8
0
  6
Continuous
 62
     0
370
    30
100
AcDbLine
 10
600.6714
 20
443.941872
 30
0.0
 11
600.1714
 21
444.441872
 31
0.0
  0
LINE
  5
152
330
104
100
AcDbEntity
  8
0
  6
Continuous
 62
     0
370
    30
100
AcDbLine
 10
582.6714
 20
443.941872
 30
0.0
 11
583.1714
 21
444.441872
 31
0.0
  0
LINE
  5
153
330
104
100
AcDbEntity
  8
0
  6
Continuous
 62
     0
370
    30
100
AcDbLine
 10
600.6714
 20
441.441871
 30
0.0
 11
600.6714
 21
443.941872
 31
0.0
  0
LINE
  5
154
330
104
100
AcDbEntity
  8
0
  6
Continuous
 62
     0
370
    30
100
AcDbLine
 10
582.6714
 20
441.441871
 30
0.0
 11
582.6714
 21
443.941872
 31
0.0
  0
LINE
  5
155
330
104
100
AcDbEntity
  8
0
  6
Continuous
 62
     0
370
    30
100
AcDbLine
 10
602.0714
 20
437.341831
 30
0.0
 11
602.0714
 21
441.441871
 31
0.0
  0
LINE
  5
156
330
104
100
AcDbEntity
  8
0
  6
Continuous
 62
     0
370
    30
100
AcDbLine
 10
581.2714
 20
437.341831
 30
0.0
 11
581.2714
 21
441.441871
 31
0.0
  0
LINE
  5
157
330
104
100
AcDbEntity
  8
0
  6
Continuous
 62
     0
370
    30
100
AcDbLine
 10
601.17299
 20
436.443421
 30
0.0
 11
602.0714
 21
437.341831
 31
0.0
  0
LINE
  5
158
330
104
100
AcDbEntity
  8
0
  6
Continuous
 62
     0
370
    30
100
AcDbLine
 10
582.16981
 20
436.443421
 30
0.0
 11
581.2714
 21
437.341831
 31
0.0
  0
ARC
  5
159
330
104
100
AcDbEntity
  8
0
  6
Continuous
 62
     0
370
    30
100
AcDbCircle
 10
600.921658
 20
436.191635
 30
0.0
 40
0.2502365219607061
100
AcDbArc
 50
90.05413
 51
179.94587
  0
ARC
  5
15A
330
104
100
AcDbEntity
  8
0
  6
Continuous
 62
     0
370
    30
100
AcDbCircle
 10
582.421143
 20
436.191635
 30
0.0
 40
0.2502365219607061
100
AcDbArc
 50
0.05413
 51
89.94587
  0
LINE
  5
15B
330
104
100
AcDbEntity
  8
0
  6
Continuous
 62
     0
370
    30
100
AcDbLine
 10
600.671421
 20
434.641907
 30
0.0
 11
600.671421
 21
436.191871
 31
0.0
  0
LINE
  5
15C
330
104
100
AcDbEntity
  8
0
  6
Continuous
 62
     0
370
    30
100
AcDbLine
 10
582.671379
 20
434.641907
 30
0.0
 11
582.671379
 21
436.191871
 31
0.0
  0
LINE
  5
15D
330
104
100
AcDbEntity
  8
0
  6
Continuous
 62
     0
370
    30
100
AcDbLine
 10
600.471386
 20
434.441871
 30
0.0
 11
600.671421
 21
434.641907
 31
0.0
  0
LINE
  5
15E
330
104
100
AcDbEntity
  8
0
  6
Continuous
 62
     0
370
    30
100
AcDbLine
 10
582.871414
 20
434.441871
 30
0.0
 11
582.671379
 21
434.641907
 31
0.0
  0
LINE
  5
15F
330
104
100
AcDbEntity
  8
0
  6
Continuous
 62
     0
370
    30
100
AcDbLine
 10
548.771401
 20
497.941872
 30
0.0
 11
529.271449
 21
497.941872
 31
0.0
  0
LINE
  5
160
330
104
100
AcDbEntity
  8
0
  6
Continuous
 62
     0
370
    30
100
AcDbLine
 10
548.771401
 20
434.941872
 30
0.0
 11
529.271449
 21
434.941872
 31
0.0
  0
ARC
  5
161
330
104
100
AcDbEntity
  8
0
  6
Continuous
 62
     0
370
    30
100
AcDbCircle
 10
548.771401
 20
497.441872
 30
0.0
 40
0.5
100
AcDbArc
 50
0.0
 51
90.0
  0
ARC
  5
162
330
104
100
AcDbEntity
  8
0
  6
Continuous
 62
     0
370
    30
100
AcDbCircle
 10
548.771401
 20
435.441872
 30
0.0
 40
0.5
100
AcDbArc
 50
270.0
 51
360.0
  0
LINE
  5
163
330
104
100
AcDbEntity
  8
0
  6
Continuous
 62
     0
370
    30
100
AcDbLine
 10
564.171403
 20
482.441872
 30
0.0
 11
549.271401
 21
482.441872
 31
0.0
  0
LINE
  5
164
330
104
100
AcDbEntity
  8
0
  6
Continuous
 62
     0
370
    30
100
AcDbLine
 10
564.171403
 20
450.441872
 30
0.0
 11
549.271401
 21
450.441872
 31
0.0
  0
ARC
  5
165
330
104
100
AcDbEntity
  8
0
  6
Continuous
 62
     0
370
    30
100
AcDbCircle
 10
616.370599
 20
468.140249
 30
0.0
 40
20.49999999991807
100
AcDbArc
 50
277.852573
 51
279.507865
  0
ENDBLK
  5
167
330
104
100
AcDbEntity
  8
0
100
AcDbBlockEnd
  0
BLOCK
  5
1C1
330
169
100
AcDbEntity
  8
0
100
AcDbBlockBegin
  2
d
 70
     0
 10
122.866257
 20
0.0
 30
0.0
  3
d
  1

  0
LINE
  5
16A
330
169
100
AcDbEntity
  8
0
  6
Continuous
 62
     0
370
    30
100
AcDbLine
 10
69.414607
 20
497.441872
 30
0.0
 11
69.414607
 21
435.441872
 31
0.0
  0
LINE
  5
16B
330
169
100
AcDbEntity
  8
0
  6
Continuous
 62
     0
370
     0
100
AcDbLine
 10
69.914607
 20
497.941872
 30
0.0
 11
69.914607
 21
434.941872
 31
0.0
  0
LINE
  5
16C
330
169
100
AcDbEntity
  8
0
  6
Continuous
 62
     0
370
    30
100
AcDbLine
 10
89.414559
 20
497.941872
 30
0.0
 11
89.414559
 21
434.941872
 31
0.0
  0
ARC
  5
16D
330
169
100
AcDbEntity
  8
0
  6
Continuous
 62
     0
370
    30
100
AcDbCircle
 10
-16.070836
 20
460.11054
 30
0.0
 40
14.99999999994
100
AcDbArc
 50
0.0
 51
21.528529
  0
LINE
  5
16E
330
169
100
AcDbEntity
  8
0
  6
Continuous
 62
     0
370
    30
100
AcDbLine
 10
-8.458805
 20
481.690348
 30
0.0
 11
-2.117312
 21
465.615007
 31
0.0
  0
LINE
  5
16F
330
169
100
AcDbEntity
  8
0
  6
Continuous
 62
     0
370
    30
100
AcDbLine
 10
-8.458805
 20
481.690348
 30
0.0
 11
-11.220205
 21
488.690349
 31
0.0
  0
LINE
  5
170
330
169
100
AcDbEntity
  8
0
  6
Continuous
 62
     0
370
     0
100
AcDbLine
 10
-34.873051
 20
395.507804
 30
0.0
 11
-35.994427
 21
388.596393
 31
0.0
  0
LINE
  5
171
330
169
100
AcDbEntity
  8
0
  6
Continuous
 62
     0
370
    30
100
AcDbLine
 10
-33.885363
 20
395.35137
 30
0.0
 11
-34.824296
 21
389.423175
 31
0.0
  0
LINE
  5
172
330
169
100
AcDbEntity
  8
0
  6
Continuous
 62
     0
370
     0
100
AcDbLine
 10
-27.993778
 20
438.941827
 30
0.0
 11
-34.873051
 21
395.507804
 31
0.0
  0
LINE
  5
173
330
169
100
AcDbEntity
  8
0
  6
Continuous
 62
     0
370
    30
100
AcDbLine
 10
-27.00609
 20
438.785392
 30
0.0
 11
-33.885363
 21
395.35137
 31
0.0
  0
ARC
  5
174
330
169
100
AcDbEntity
  8
0
  6
Continuous
 62
     0
370
    30
100
AcDbCircle
 10
-20.092271
 20
437.690351
 30
0.0
 40
6.999999999972001
100
AcDbArc
 50
89.999986
 51
171.0
  0
ARC
  5
175
330
169
100
AcDbEntity
  8
0
  6
Continuous
 62
     0
370
     0
100
AcDbCircle
 10
-20.092271
 20
437.690351
 30
0.0
 40
7.999999999972001
100
AcDbArc
 50
89.999986
 51
171.0
  0
LINE
  5
176
330
169
100
AcDbEntity
  8
0
  6
Continuous
 62
     0
370
    30
100
AcDbLine
 10
-1.070836
 20
444.690346
 30
0.0
 11
-20.09227
 21
444.690351
 31
0.0
  0
LINE
  5
177
330
169
100
AcDbEntity
  8
0
  6
Continuous
 62
     0
370
     0
100
AcDbLine
 10
-1.070836
 20
445.690346
 30
0.0
 11
-20.092269
 21
445.690351
 31
0.0
  0
ARC
  5
178
330
169
100
AcDbEntity
  8
0
  6
Continuous
 62
     0
370
    30
100
AcDbCircle
 10
-35.811985
 20
389.57961
 30
0.0
 40
0.9999999999999997
100
AcDbArc
 50
259.487944
 51
351.0
  0
LINE
  5
179
330
169
100
AcDbEntity
  8
0
  6
Continuous
 62
     0
370
     0
100
AcDbLine
 10
-33.885363
 20
395.35137
 30
0.0
 11
-34.873051
 21
395.507804
 31
0.0
  0
LINE
  5
17A
330
169
100
AcDbEntity
  8
0
  6
Continuous
 62
     0
370
     0
100
AcDbLine
 10
-20.09227
 20
444.690351
 30
0.0
 11
-20.092269
 21
445.690351
 31
0.0
  0
LINE
  5
17B
330
169
100
AcDbEntity
  8
0
  6
Continuous
 62
     0
370
     0
100
AcDbLine
 10
-27.993778
 20
438.941827
 30
0.0
 11
-27.00609
 21
438.785392
 31
0.0
  0
LINE
  5
17C
330
169
100
AcDbEntity
  8
0
  6
Continuous
 62
     0
370
    30
100
AcDbLine
 10
-1.070836
 20
460.11054
 30
0.0
 11
-1.070836
 21
445.690346
 31
0.0
  0
LINE
  5
17D
330
169
100
AcDbEntity
  8
0
  6
Continuous
 62
     0
370
    30
100
AcDbLine
 10
-1.070836
 20
444.690346
 30
0.0
 11
-1.070836
 21
445.690346
 31
0.0
  0
LINE
  5
17E
330
169
100
AcDbEntity
  8
0
  6
Continuous
 62
     0
370
     0
100
AcDbLine
 10
-23.248007
 20
481.690352
 30
0.0
 11
-22.2977
 21
488.690351
 31
0.0
  0
LINE
  5
17F
330
169
100
AcDbEntity
  8
0
  6
Continuous
 62
     0
370
    30
100
AcDbLine
 10
-24.235695
 20
481.846786
 30
0.0
 11
-23.285389
 21
487.846786
 31
0.0
  0
LINE
  5
180
330
169
100
AcDbEntity
  8
0
  6
Continuous
 62
     0
370
    30
100
AcDbLine
 10
-37.827858
 20
396.029251
 30
0.0
 11
-24.235695
 21
481.846786
 31
0.0
  0
LINE
  5
181
330
169
100
AcDbEntity
  8
0
  6
Continuous
 62
     0
370
     0
100
AcDbLine
 10
-36.840169
 20
395.872816
 30
0.0
 11
-23.248007
 21
481.690352
 31
0.0
  0
LINE
  5
182
330
169
100
AcDbEntity
  8
0
  6
Continuous
 62
     0
370
    30
100
AcDbLine
 10
-37.827858
 20
396.029251
 30
0.0
 11
-38.766791
 21
390.101056
 31
0.0
  0
LINE
  5
183
330
169
100
AcDbEntity
  8
0
  6
Continuous
 62
     0
370
     0
100
AcDbLine
 10
-36.840169
 20
395.872816
 30
0.0
 11
-37.961545
 21
388.961405
 31
0.0
  0
LINE
  5
184
330
169
100
AcDbEntity
  8
0
  6
Continuous
 62
     0
370
    30
100
AcDbLine
 10
-22.2977
 20
488.690351
 30
0.0
 11
-11.220205
 21
488.690349
 31
0.0
  0
ARC
  5
185
330
169
100
AcDbEntity
  8
0
  6
Continuous
 62
     0
370
    30
100
AcDbCircle
 10
-22.2977
 20
487.690351
 30
0.0
 40
1.000000000000002
100
AcDbArc
 50
89.999986
 51
171.0
  0
LINE
  5
186
330
169
100
AcDbEntity
  8
0
  6
Continuous
 62
     0
370
     0
100
AcDbLine
 10
-23.248007
 20
481.690352
 30
0.0
 11
-8.458805
 21
481.690348
 31
0.0
  0
LINE
  5
187
330
169
100
AcDbEntity
  8
0
  6
Continuous
 62
     0
370
     0
100
AcDbLine
 10
-23.248007
 20
481.690352
 30
0.0
 11
-24.235695
 21
481.846786
 31
0.0
  0
LINE
  5
188
330
169
100
AcDbEntity
  8
0
  6
Continuous
 62
     0
370
     0
100
AcDbLine
 10
-34.873051
 20
395.507804
 30
0.0
 11
-36.840169
 21
395.872816
 31
0.0
  0
LINE
  5
189
330
169
100
AcDbEntity
  8
0
  6
Continuous
 62
     0
370
     0
100
AcDbLine
 10
-37.827858
 20
396.029251
 30
0.0
 11
-36.840169
 21
395.872816
 31
0.0
  0
LINE
  5
18A
330
169
100
AcDbEntity
  8
0
  6
Continuous
 62
     0
370
    30
100
AcDbLine
 10
-35.994427
 20
388.596393
 30
0.0
 11
-37.961545
 21
388.961405
 31
0.0
  0
ARC
  5
18B
330
169
100
AcDbEntity
  8
0
  6
Continuous
 62
     0
370
    30
100
AcDbCircle
 10
-37.779103
 20
389.944622
 30
0.0
 40
1.0
100
AcDbArc
 50
171.0
 51
259.487944
  0
ARC
  5
18C
330
169
100
AcDbEntity
  8
0
  6
Continuous
 62
     0
370
    30
100
AcDbCircle
 10
2.315416
 20
467.734102
 30
0.0
 40
20.49999999991807
100
AcDbArc
 50
97.852573
 51
125.360691
  0
LINE
  5
18D
330
169
100
AcDbEntity
  8
0
  6
Continuous
 62
     0
370
     0
100
AcDbLine
 10
1.514605
 20
491.441872
 30
0.0
 11
1.514605
 21
481.441872
 31
0.0
  0
LINE
  5
18E
330
169
100
AcDbEntity
  8
0
  6
Continuous
 62
     0
370
    30
100
AcDbLine
 10
-0.485395
 20
489.441872
 30
0.0
 11
-0.485395
 21
481.441872
 31
0.0
  0
LINE
  5
18F
330
169
100
AcDbEntity
  8
0
  6
Continuous
 62
     0
370
     0
100
AcDbLine
 10
1.514604
 20
449.441872
 30
0.0
 11
1.514604
 21
481.441872
 31
0.0
  0
LINE
  5
190
330
169
100
AcDbEntity
  8
0
  6
Continuous
 62
     0
370
    30
100
AcDbLine
 10
-0.485395
 20
449.441872
 30
0.0
 11
-0.485395
 21
481.441872
 31
0.0
  0
LINE
  5
191
330
169
100
AcDbEntity
  8
0
  6
Continuous
 62
     0
370
     0
100
AcDbLine
 10
1.514605
 20
444.441872
 30
0.0
 11
1.514605
 21
449.441872
 31
0.0
  0
LINE
  5
192
330
169
100
AcDbEntity
  8
0
  6
Continuous
 62
     0
370
    30
100
AcDbLine
 10
-0.485395
 20
446.441872
 30
0.0
 11
-0.485395
 21
449.441872
 31
0.0
  0
ARC
  5
193
330
169
100
AcDbEntity
  8
0
  6
Continuous
 62
     0
370
    30
100
AcDbCircle
 10
1.514605
 20
489.441872
 30
0.0
 40
2.0
100
AcDbArc
 50
90.0
 51
180.0
  0
LINE
  5
194
330
169
100
AcDbEntity
  8
0
  6
Continuous
 62
     0
370
     0
100
AcDbLine
 10
-0.485395
 20
481.441872
 30
0.0
 11
1.514604
 21
481.441872
 31
0.0
  0
LINE
  5
195
330
169
100
AcDbEntity
  8
0
  6
Continuous
 62
     0
370
     0
100
AcDbLine
 10
1.514604
 20
449.441872
 30
0.0
 11
-0.485395
 21
449.441872
 31
0.0
  0
ARC
  5
196
330
169
100
AcDbEntity
  8
0
  6
Continuous
 62
     0
370
    30
100
AcDbCircle
 10
1.514605
 20
446.441872
 30
0.0
 40
2.0
100
AcDbArc
 50
180.0
 51
270.0
  0
LINE
  5
197
330
169
100
AcDbEntity
  8
0
  6
Continuous
 62
     0
370
    30
100
AcDbLine
 10
54.514605
 20
489.441872
 30
0.0
 11
54.514605
 21
481.441872
 31
0.0
  0
LINE
  5
198
330
169
100
AcDbEntity
  8
0
  6
Continuous
 62
     0
370
     0
100
AcDbLine
 10
52.514605
 20
491.441872
 30
0.0
 11
52.514605
 21
481.441872
 31
0.0
  0
LINE
  5
199
330
169
100
AcDbEntity
  8
0
  6
Continuous
 62
     0
370
    30
100
AcDbLine
 10
54.514605
 20
449.441872
 30
0.0
 11
54.514605
 21
481.441872
 31
0.0
  0
LINE
  5
19A
330
169
100
AcDbEntity
  8
0
  6
Continuous
 62
     0
370
     0
100
AcDbLine
 10
52.514604
 20
449.441872
 30
0.0
 11
52.514604
 21
481.441872
 31
0.0
  0
LINE
  5
19B
330
169
100
AcDbEntity
  8
0
  6
Continuous
 62
     0
370
    30
100
AcDbLine
 10
54.514605
 20
446.441872
 30
0.0
 11
54.514605
 21
449.441872
 31
0.0
  0
LINE
  5
19C
330
169
100
AcDbEntity
  8
0
  6
Continuous
 62
     0
370
     0
100
AcDbLine
 10
52.514605
 20
444.441872
 30
0.0
 11
52.514605
 21
449.441872
 31
0.0
  0
LINE
  5
19D
330
169
100
AcDbEntity
  8
0
  6
Continuous
 62
     0
370
    30
100
AcDbLine
 10
52.514605
 20
491.441872
 30
0.0
 11
1.514605
 21
491.441872
 31
0.0
  0
ARC
  5
19E
330
169
100
AcDbEntity
  8
0
  6
Continuous
 62
     0
370
    30
100
AcDbCircle
 10
52.514605
 20
489.441872
 30
0.0
 40
2.0
100
AcDbArc
 50
360.0
 51
90.0
  0
LINE
  5
19F
330
169
100
AcDbEntity
  8
0
  6
Continuous
 62
     0
370
     0
100
AcDbLine
 10
52.514604
 20
481.441872
 30
0.0
 11
1.514604
 21
481.441872
 31
0.0
  0
LINE
  5
1A0
330
169
100
AcDbEntity
  8
0
  6
Continuous
 62
     0
370
     0
100
AcDbLine
 10
52.514604
 20
481.441872
 30
0.0
 11
54.514605
 21
481.441872
 31
0.0
  0
LINE
  5
1A1
330
169
100
AcDbEntity
  8
0
  6
Continuous
 62
     0
370
     0
100
AcDbLine
 10
52.514604
 20
449.441872
 30
0.0
 11
1.514604
 21
449.441872
 31
0.0
  0
LINE
  5
1A2
330
169
100
AcDbEntity
  8
0
  6
Continuous
 62
     0
370
     0
100
AcDbLine
 10
54.514605
 20
449.441872
 30
0.0
 11
52.514604
 21
449.441872
 31
0.0
  0
LINE
  5
1A3
330
169
100
AcDbEntity
  8
0
  6
Continuous
 62
     0
370
    30
100
AcDbLine
 10
52.514605
 20
444.441872
 30
0.0
 11
1.514605
 21
444.441872
 31
0.0
  0
ARC
  5
1A4
330
169
100
AcDbEntity
  8
0
  6
Continuous
 62
     0
370
    30
100
AcDbCircle
 10
52.514605
 20
446.441872
 30
0.0
 40
2.0
100
AcDbArc
 50
270.0
 51
0.0
  0
LINE
  5
1A5
330
169
100
AcDbEntity
  8
0
  6
Continuous
 62
     0
370
    30
100
AcDbLine
 10
18.214622
 20
434.441871
 30
0.0
 11
35.814594
 21
434.441871
 31
0.0
  0
LINE
  5
1A6
330
169
100
AcDbEntity
  8
0
  6
Continuous
 62
     0
370
    30
100
AcDbLine
 10
18.014587
 20
434.641907
 30
0.0
 11
36.014629
 21
434.641907
 31
0.0
  0
LINE
  5
1A7
330
169
100
AcDbEntity
  8
0
  6
Continuous
 62
     0
370
     0
100
AcDbLine
 10
18.014587
 20
436.191871
 30
0.0
 11
36.014629
 21
436.191871
 31
0.0
  0
LINE
  5
1A8
330
169
100
AcDbEntity
  8
0
  6
Continuous
 62
     0
370
    30
100
AcDbLine
 10
17.513018
 20
436.443421
 30
0.0
 11
36.516198
 21
436.443421
 31
0.0
  0
LINE
  5
1A9
330
169
100
AcDbEntity
  8
0
  6
Continuous
 62
     0
370
    30
100
AcDbLine
 10
16.614608
 20
437.341831
 30
0.0
 11
37.414608
 21
437.341831
 31
0.0
  0
LINE
  5
1AA
330
169
100
AcDbEntity
  8
0
  6
Continuous
 62
     0
370
    30
100
AcDbLine
 10
16.614608
 20
441.441871
 30
0.0
 11
37.414608
 21
441.441871
 31
0.0
  0
LINE
  5
1AB
330
169
100
AcDbEntity
  8
0
  6
Continuous
 62
     0
370
    30
100
AcDbLine
 10
18.014608
 20
443.941872
 30
0.0
 11
36.014608
 21
443.941872
 31
0.0
  0
LINE
  5
1AC
330
169
100
AcDbEntity
  8
0
  6
Continuous
 62
     0
370
    30
100
AcDbLine
 10
18.014608
 20
443.941872
 30
0.0
 11
18.514608
 21
444.441872
 31
0.0
  0
LINE
  5
1AD
330
169
100
AcDbEntity
  8
0
  6
Continuous
 62
     0
370
    30
100
AcDbLine
 10
36.014608
 20
443.941872
 30
0.0
 11
35.514608
 21
444.441872
 31
0.0
  0
LINE
  5
1AE
330
169
100
AcDbEntity
  8
0
  6
Continuous
 62
     0
370
    30
100
AcDbLine
 10
18.014608
 20
441.441871
 30
0.0
 11
18.014608
 21
443.941872
 31
0.0
  0
LINE
  5
1AF
330
169
100
AcDbEntity
  8
0
  6
Continuous
 62
     0
370
    30
100
AcDbLine
 10
36.014608
 20
441.441871
 30
0.0
 11
36.014608
 21
443.941872
 31
0.0
  0
LINE
  5
1B0
330
169
100
AcDbEntity
  8
0
  6
Continuous
 62
     0
370
    30
100
AcDbLine
 10
16.614608
 20
437.341831
 30
0.0
 11
16.614608
 21
441.441871
 31
0.0
  0
LINE
  5
1B1
330
169
100
AcDbEntity
  8
0
  6
Continuous
 62
     0
370
    30
100
AcDbLine
 10
37.414608
 20
437.341831
 30
0.0
 11
37.414608
 21
441.441871
 31
0.0
  0
LINE
  5
1B2
330
169
100
AcDbEntity
  8
0
  6
Continuous
 62
     0
370
    30
100
AcDbLine
 10
17.513018
 20
436.443421
 30
0.0
 11
16.614608
 21
437.341831
 31
0.0
  0
LINE
  5
1B3
330
169
100
AcDbEntity
  8
0
  6
Continuous
 62
     0
370
    30
100
AcDbLine
 10
36.516198
 20
436.443421
 30
0.0
 11
37.414608
 21
437.341831
 31
0.0
  0
ARC
  5
1B4
330
169
100
AcDbEntity
  8
0
  6
Continuous
 62
     0
370
    30
100
AcDbCircle
 10
17.764351
 20
436.191635
 30
0.0
 40
0.2502365219607061
100
AcDbArc
 50
0.05413
 51
89.94587
  0
ARC
  5
1B5
330
169
100
AcDbEntity
  8
0
  6
Continuous
 62
     0
370
    30
100
AcDbCircle
 10
36.264866
 20
436.191635
 30
0.0
 40
0.2502365219607061
100
AcDbArc
 50
90.05413
 51
179.94587
  0
LINE
  5
1B6
330
169
100
AcDbEntity
  8
0
  6
Continuous
 62
     0
370
    30
100
AcDbLine
 10
18.014587
 20
434.641907
 30
0.0
 11
18.014587
 21
436.191871
 31
0.0
  0
LINE
  5
1B7
330
169
100
AcDbEntity
  8
0
  6
Continuous
 62
     0
370
    30
100
AcDbLine
 10
36.014629
 20
434.641907
 30
0.0
 11
36.014629
 21
436.191871
 31
0.0
  0
LINE
  5
1B8
330
169
100
AcDbEntity
  8
0
  6
Continuous
 62
     0
370
    30
100
AcDbLine
 10
18.214622
 20
434.441871
 30
0.0
 11
18.014587
 21
434.641907
 31
0.0
  0
LINE
  5
1B9
330
169
100
AcDbEntity
  8
0
  6
Continuous
 62
     0
370
    30
100
AcDbLine
 10
35.814594
 20
434.441871
 30
0.0
 11
36.014629
 21
434.641907
 31
0.0
  0
LINE
  5
1BA
330
169
100
AcDbEntity
  8
0
  6
Continuous
 62
     0
370
    30
100
AcDbLine
 10
69.914607
 20
497.941872
 30
0.0
 11
89.414559
 21
497.941872
 31
0.0
  0
LINE
  5
1BB
330
169
100
AcDbEntity
  8
0
  6
Continuous
 62
     0
370
    30
100
AcDbLine
 10
69.914607
 20
434.941872
 30
0.0
 11
89.414559
 21
434.941872
 31
0.0
  0
ARC
  5
1BC
330
169
100
AcDbEntity
  8
0
  6
Continuous
 62
     0
370
    30
100
AcDbCircle
 10
69.914607
 20
497.441872
 30
0.0
 40
0.5
100
AcDbArc
 50
90.0
 51
180.0
  0
ARC
  5
1BD
330
169
100
AcDbEntity
  8
0
  6
Continuous
 62
     0
370
    30
100
AcDbCircle
 10
69.914607
 20
435.441872
 30
0.0
 40
0.5
100
AcDbArc
 50
180.0
 51
270.0
  0
LINE
  5
1BE
330
169
100
AcDbEntity
  8
0
  6
Continuous
 62
     0
370
    30
100
AcDbLine
 10
54.514606
 20
482.441872
 30
0.0
 11
69.414607
 21
482.441872
 31
0.0
  0
LINE
  5
1BF
330
169
100
AcDbEntity
  8
0
  6
Continuous
 62
     0
370
    30
100
AcDbLine
 10
54.514606
 20
450.441872
 30
0.0
 11
69.414607
 21
450.441872
 31
0.0
  0
ARC
  5
1C0
330
169
100
AcDbEntity
  8
0
  6
Continuous
 62
     0
370
    30
100
AcDbCircle
 10
2.315416
 20
468.140249
 30
0.0
 40
20.49999999991807
100
AcDbArc
 50
260.492135
 51
262.147427
  0
ENDBLK
  5
1C2
330
169
100
AcDbEntity
  8
0
100
AcDbBlockEnd
  0
ENDSEC
  0
SECTION
  2
ENTITIES
  0
INSERT
  5
AA
330
1F
100
AcDbEntity
  8
0
  6
Continuous
 62
     7
370
     0
100
AcDbBlockReference
  2
a
 10
167.974915
 20
150.864334
 30
0.0
  0
INSERT
  5
103
330
1F
100
AcDbEntity
  8
0
  6
Continuous
 62
     7
370
     0
100
AcDbBlockReference
  2
b
 10
167.974915
 20
155.199539
 30
0.0
  0
INSERT
  5
168
330
1F
100
AcDbEntity
  8
0
  6
Continuous
 62
     7
370
     0
100
AcDbBlockReference
  2
c
 10
238.964096
 20
164.326157
 30
0.0
  0
INSERT
  5
1C3
330
1F
100
AcDbEntity
  8
0
  6
Continuous
 62
     7
370
     0
100
AcDbBlockReference
  2
d
 10
122.866257
 20
0.0
 30
0.0
  0
ENDSEC
  0
SECTION
  2
OBJECTS
  0
DICTIONARY
  5
C
330
0
100
AcDbDictionary
281
     1
  3
ACAD_GROUP
350
D
  3
ACAD_LAYOUT
350
1A
  3
ACAD_MATERIAL
350
3B
  3
ACAD_MLEADERSTYLE
350
1C6
  3
ACAD_MLINESTYLE
350
17
  3
ACAD_PLOTSETTINGS
350
19
  3
ACAD_PLOTSTYLENAME
350
E
  3
ACAD_VISUALSTYLE
350
2A
  3
AcDbVariableDictionary
350
1C4
  0
DICTIONARY
  5
D
102
{ACAD_REACTORS
330
C
102
}
330
C
100
AcDbDictionary
281
     1
  0
DICTIONARY
  5
1A
102
{ACAD_REACTORS
330
C
102
}
330
C
100
AcDbDictionary
281
     1
  3
Layout1
350
1E
  3
Layout2
350
26
  3
Model
350
22
  0
DICTIONARY
  5
3B
102
{ACAD_REACTORS
330
C
102
}
330
C
100
AcDbDictionary
281
     1
  3
ByBlock
350
3D
  3
ByLayer
350
3C
  3
Global
350
3E
  0
DICTIONARY
  5
1C6
102
{ACAD_REACTORS
330
C
102
}
330
C
100
AcDbDictionary
281
     1
  0
DICTIONARY
  5
17
102
{ACAD_REACTORS
330
C
102
}
330
C
100
AcDbDictionary
281
     1
  3
Standard
350
18
  0
DICTIONARY
  5
19
102
{ACAD_REACTORS
330
C
102
}
330
C
100
AcDbDictionary
281
     1
  0
ACDBDICTIONARYWDFLT
  5
E
102
{ACAD_REACTORS
330
C
102
}
330
C
100
AcDbDictionary
281
     1
  3
Normal
350
F
100
AcDbDictionaryWithDefault
340
F
  0
DICTIONARY
  5
2A
102
{ACAD_REACTORS
330
C
102
}
330
C
100
AcDbDictionary
281
     1
  3
2dWireframe
350
2F
  3
3D Hidden
350
31
  3
3dWireframe
350
30
  3
Basic
350
32
  3
Brighten
350
36
  3
ColorChange
350
3A
  3
Conceptual
350
34
  3
Dim
350
35
  3
Facepattern
350
39
  3
Flat
350
2B
  3
FlatWithEdges
350
2C
  3
Gouraud
350
2D
  3
GouraudWithEdges
350
2E
  3
Linepattern
350
38
  3
Realistic
350
33
  3
Thicken
350
37
  0
DICTIONARY
  5
1C4
102
{ACAD_REACTORS
330
C
102
}
330
C
100
AcDbDictionary
281
     1
  3
DIMASSOC
350
1C9
  3
HIDETEXT
350
1CA
  3
PSOLHEIGHT
350
1C8
  3
PSOLWIDTH
350
1C7
  0
LAYOUT
  5
1E
102
{ACAD_REACTORS
330
1A
102
}
330
1A
100
AcDbPlotSettings
  1

  2
none_device
  4

  6

 40
0.0
 41
0.0
 42
0.0
 43
0.0
 44
0.0
 45
0.0
 46
0.0
 47
0.0
 48
0.0
 49
0.0
140
0.0
141
0.0
142
1.0
143
1.0
 70
   688
 72
     0
 73
     0
 74
     5
  7

 75
    16
147
1.0
148
0.0
149
0.0
100
AcDbLayout
  1
Layout1
 70
     1
 71
     1
 10
0.0
 20
0.0
 11
420.0
 21
297.0
 12
0.0
 22
0.0
 32
0.0
 14
1.000000E+20
 24
1.000000E+20
 34
1.000000E+20
 15
-1.000000E+20
 25
-1.000000E+20
 35
-1.000000E+20
146
0.0
 13
0.0
 23
0.0
 33
0.0
 16
1.0
 26
0.0
 36
0.0
 17
0.0
 27
1.0
 37
0.0
 76
     0
330
1B
  0
LAYOUT
  5
26
102
{ACAD_REACTORS
330
1A
102
}
330
1A
100
AcDbPlotSettings
  1

  2
none_device
  4

  6

 40
0.0
 41
0.0
 42
0.0
 43
0.0
 44
0.0
 45
0.0
 46
0.0
 47
0.0
 48
0.0
 49
0.0
140
0.0
141
0.0
142
1.0
143
1.0
 70
   688
 72
     0
 73
     0
 74
     5
  7

 75
    16
147
1.0
148
0.0
149
0.0
100
AcDbLayout
  1
Layout2
 70
     1
 71
     2
 10
0.0
 20
0.0
 11
0.0
 21
0.0
 12
0.0
 22
0.0
 32
0.0
 14
0.0
 24
0.0
 34
0.0
 15
0.0
 25
0.0
 35
0.0
146
0.0
 13
0.0
 23
0.0
 33
0.0
 16
1.0
 26
0.0
 36
0.0
 17
0.0
 27
1.0
 37
0.0
 76
     0
330
23
  0
LAYOUT
  5
22
102
{ACAD_REACTORS
330
1A
102
}
330
1A
100
AcDbPlotSettings
  1

  2
none_device
  4

  6

 40
0.0
 41
0.0
 42
0.0
 43
0.0
 44
0.0
 45
0.0
 46
0.0
 47
0.0
 48
0.0
 49
0.0
140
0.0
141
0.0
142
1.0
143
1.0
 70
  1712
 72
     0
 73
     0
 74
     0
  7

 75
     0
147
1.0
148
0.0
149
0.0
100
AcDbLayout
  1
Model
 70
     1
 71
     0
 10
0.0
 20
0.0
 11
420.0
 21
297.0
 12
0.0
 22
0.0
 32
0.0
 14
1.000000E+20
 24
1.000000E+20
 34
1.000000E+20
 15
-1.000000E+20
 25
-1.000000E+20
 35
-1.000000E+20
146
0.0
 13
0.0
 23
0.0
 33
0.0
 16
1.0
 26
0.0
 36
0.0
 17
0.0
 27
1.0
 37
0.0
 76
     0
330
1F
331
29
  0
MATERIAL
  5
3D
102
{ACAD_REACTORS
330
3B
102
}
102
{ACAD_XDICTIONARY
360
1ED
102
}
330
3B
100
AcDbMaterial
  1
ByBlock
  0
MATERIAL
  5
3C
102
{ACAD_REACTORS
330
3B
102
}
102
{ACAD_XDICTIONARY
360
1EB
102
}
330
3B
100
AcDbMaterial
  1
ByLayer
  0
MATERIAL
  5
3E
102
{ACAD_REACTORS
330
3B
102
}
102
{ACAD_XDICTIONARY
360
1EF
102
}
330
3B
100
AcDbMaterial
  1
Global
  0
MLINESTYLE
  5
18
102
{ACAD_REACTORS
330
17
102
}
330
17
100
AcDbMlineStyle
  2
Standard
 70
     0
  3

 62
   256
 51
90.0
 52
90.0
 71
     2
 49
0.5
 62
   256
  6
BYLAYER
 49
-0.5
 62
   256
  6
BYLAYER
  0
ACDBPLACEHOLDER
  5
F
102
{ACAD_REACTORS
330
E
102
}
330
E
  0
VISUALSTYLE
  5
2F
102
{ACAD_REACTORS
330
2A
102
}
102
{ACAD_XDICTIONARY
360
1D3
102
}
330
2A
100
AcDbVisualStyle
  2
2dWireframe
 70
     4
 71
     0
 72
     2
 73
     0
 90
        0
 40
-0.6
 41
-30.0
 62
     5
 63
     7
 74
     1
 91
        4
 64
     7
 65
   257
 75
     1
175
     1
 42
1.0
 92
        0
 66
   257
 43
1.0
 76
     1
 77
     6
 78
     2
 67
     7
 79
     5
170
     0
171
     0
290
     0
174
     0
 93
        1
 44
0.0
173
     0
291
     0
 45
0.0
1001
ACAD
1000
AcDbSavedByObjectVersion
1070
     0
  0
VISUALSTYLE
  5
31
102
{ACAD_REACTORS
330
2A
102
}
102
{ACAD_XDICTIONARY
360
1D7
102
}
330
2A
100
AcDbVisualStyle
  2
3D Hidden
 70
     6
 71
     1
 72
     2
 73
     2
 90
        0
 40
-0.6
 41
-30.0
 62
     5
 63
     7
 74
     2
 91
        2
 64
     7
 65
   257
 75
     2
175
     1
 42
40.0
 92
        0
 66
   257
 43
1.0
 76
     1
 77
     6
 78
     2
 67
     7
 79
     3
170
     0
171
     0
290
     0
174
     0
 93
        1
 44
0.0
173
     0
291
     0
 45
0.0
1001
ACAD
1000
AcDbSavedByObjectVersion
1070
     0
  0
VISUALSTYLE
  5
30
102
{ACAD_REACTORS
330
2A
102
}
102
{ACAD_XDICTIONARY
360
1D5
102
}
330
2A
100
AcDbVisualStyle
  2
3dWireframe
 70
     5
 71
     0
 72
     2
 73
     0
 90
        0
 40
-0.6
 41
-30.0
 62
     5
 63
     7
 74
     1
 91
        4
 64
     7
 65
   257
 75
     1
175
     1
 42
1.0
 92
        0
 66
   257
 43
1.0
 76
     1
 77
     6
 78
     2
 67
     7
 79
     5
170
     0
171
     0
290
     0
174
     0
 93
        1
 44
0.0
173
     0
291
     0
 45
0.0
1001
ACAD
1000
AcDbSavedByObjectVersion
1070
     0
  0
VISUALSTYLE
  5
32
102
{ACAD_REACTORS
330
2A
102
}
102
{ACAD_XDICTIONARY
360
1D9
102
}
330
2A
100
AcDbVisualStyle
  2
Basic
 70
     7
 71
     1
 72
     0
 73
     1
 90
        0
 40
-0.6
 41
-30.0
 62
     5
 63
     7
 74
     0
 91
        4
 64
     7
 65
   257
 75
     1
175
     1
 42
1.0
 92
        8
 66
     7
 43
1.0
 76
     1
 77
     6
 78
     2
 67
     7
 79
     5
170
     0
171
     0
290
     0
174
     0
 93
        1
 44
0.0
173
     0
291
     1
 45
0.0
1001
ACAD
1000
AcDbSavedByObjectVersion
1070
     0
  0
VISUALSTYLE
  5
36
102
{ACAD_REACTORS
330
2A
102
}
102
{ACAD_XDICTIONARY
360
1E1
102
}
330
2A
100
AcDbVisualStyle
  2
Brighten
 70
    12
 71
     2
 72
     2
 73
     0
 90
        0
 40
-0.6
 41
-30.0
 62
     5
 63
     7
 74
     1
 91
        4
 64
     7
 65
   257
 75
     1
175
     1
 42
1.0
 92
        8
 66
     7
 43
1.0
 76
     1
 77
     6
 78
     2
 67
     7
 79
     5
170
     0
171
     0
290
     0
174
     0
 93
        1
 44
50.0
173
     0
291
     1
 45
0.0
1001
ACAD
1000
AcDbSavedByObjectVersion
1070
     0
  0
VISUALSTYLE
  5
3A
102
{ACAD_REACTORS
330
2A
102
}
102
{ACAD_XDICTIONARY
360
1E9
102
}
330
2A
100
AcDbVisualStyle
  2
ColorChange
 70
    16
 71
     2
 72
     2
 73
     3
 90
        0
 40
-0.6
 41
-30.0
 62
     5
 63
     8
 74
     1
 91
        4
 64
     7
 65
   257
 75
     1
175
     1
 42
1.0
 92
        8
 66
     8
 43
1.0
 76
     1
 77
     6
 78
     2
 67
     7
 79
     5
170
     0
171
     0
290
     0
174
     0
 93
        1
 44
0.0
173
     0
291
     1
 45
0.0
1001
ACAD
1000
AcDbSavedByObjectVersion
1070
     0
  0
VISUALSTYLE
  5
34
102
{ACAD_REACTORS
330
2A
102
}
102
{ACAD_XDICTIONARY
360
1DD
102
}
330
2A
100
AcDbVisualStyle
  2
Conceptual
 70
     9
 71
     3
 72
     2
 73
     0
 90
        0
 40
-0.6
 41
-30.0
 62
     5
 63
     7
 74
     2
 91
        2
 64
     7
 65
   257
 75
     1
175
     1
 42
40.0
 92
        8
 66
     7
 43
1.0
 76
     1
 77
     6
 78
     2
 67
     7
 79
     3
170
     0
171
     0
290
     0
174
     0
 93
        1
 44
0.0
173
     0
291
     0
 45
0.0
1001
ACAD
1000
AcDbSavedByObjectVersion
1070
     0
  0
VISUALSTYLE
  5
35
102
{ACAD_REACTORS
330
2A
102
}
102
{ACAD_XDICTIONARY
360
1DF
102
}
330
2A
100
AcDbVisualStyle
  2
Dim
 70
    11
 71
     2
 72
     2
 73
     0
 90
        0
 40
-0.6
 41
-30.0
 62
     5
 63
     7
 74
     1
 91
        4
 64
     7
 65
   257
 75
     1
175
     1
 42
1.0
 92
        8
 66
     7
 43
1.0
 76
     1
 77
     6
 78
     2
 67
     7
 79
     5
170
     0
171
     0
290
     0
174
     0
 93
        1
 44
-50.0
173
     0
291
     1
 45
0.0
1001
ACAD
1000
AcDbSavedByObjectVersion
1070
     0
  0
VISUALSTYLE
  5
39
102
{ACAD_REACTORS
330
2A
102
}
102
{ACAD_XDICTIONARY
360
1E7
102
}
330
2A
100
AcDbVisualStyle
  2
Facepattern
 70
    15
 71
     2
 72
     2
 73
     0
 90
        0
 40
-0.6
 41
-30.0
 62
     5
 63
     7
 74
     1
 91
        4
 64
     7
 65
   257
 75
     1
175
     1
 42
1.0
 92
        8
 66
     7
 43
1.0
 76
     1
 77
     6
 78
     2
 67
     7
 79
     5
170
     0
171
     0
290
     0
174
     0
 93
        1
 44
0.0
173
     0
291
     1
 45
0.0
1001
ACAD
1000
AcDbSavedByObjectVersion
1070
     0
  0
VISUALSTYLE
  5
2B
102
{ACAD_REACTORS
330
2A
102
}
102
{ACAD_XDICTIONARY
360
1CB
102
}
330
2A
100
AcDbVisualStyle
  2
Flat
 70
     0
 71
     2
 72
     1
 73
     1
 90
        2
 40
-0.6
 41
30.0
 62
     5
 63
     7
 74
     0
 91
        4
 64
     7
 65
   257
 75
     1
175
     1
 42
1.0
 92
        8
 66
     7
 43
1.0
 76
     1
 77
     6
 78
     2
 67
     7
 79
     5
170
     0
171
     0
290
     0
174
     0
 93
       13
 44
0.0
173
     0
291
     1
 45
0.0
1001
ACAD
1000
AcDbSavedByObjectVersion
1070
     0
  0
VISUALSTYLE
  5
2C
102
{ACAD_REACTORS
330
2A
102
}
102
{ACAD_XDICTIONARY
360
1CD
102
}
330
2A
100
AcDbVisualStyle
  2
FlatWithEdges
 70
     1
 71
     2
 72
     1
 73
     1
 90
        2
 40
-0.6
 41
30.0
 62
     5
 63
     7
 74
     1
 91
        4
 64
     7
 65
   257
 75
     1
175
     1
 42
1.0
 92
        0
 66
   257
 43
1.0
 76
     1
 77
     6
 78
     2
 67
     7
 79
     5
170
     0
171
     0
290
     0
174
     0
 93
       13
 44
0.0
173
     0
291
     1
 45
0.0
1001
ACAD
1000
AcDbSavedByObjectVersion
1070
     0
  0
VISUALSTYLE
  5
2D
102
{ACAD_REACTORS
330
2A
102
}
102
{ACAD_XDICTIONARY
360
1CF
102
}
330
2A
100
AcDbVisualStyle
  2
Gouraud
 70
     2
 71
     2
 72
     2
 73
     1
 90
        2
 40
-0.6
 41
30.0
 62
     5
 63
     7
 74
     0
 91
        4
 64
     7
 65
   257
 75
     1
175
     1
 42
1.0
 92
        0
 66
     7
 43
1.0
 76
     1
 77
     6
 78
     2
 67
     7
 79
     5
170
     0
171
     0
290
     0
174
     0
 93
       13
 44
0.0
173
     0
291
     1
 45
0.0
1001
ACAD
1000
AcDbSavedByObjectVersion
1070
     0
  0
VISUALSTYLE
  5
2E
102
{ACAD_REACTORS
330
2A
102
}
102
{ACAD_XDICTIONARY
360
1D1
102
}
330
2A
100
AcDbVisualStyle
  2
GouraudWithEdges
 70
     3
 71
     2
 72
     2
 73
     1
 90
        2
 40
-0.6
 41
30.0
 62
     5
 63
     7
 74
     1
 91
        4
 64
     7
 65
   257
 75
     1
175
     1
 42
1.0
 92
        0
 66
   257
 43
1.0
 76
     1
 77
     6
 78
     2
 67
     7
 79
     5
170
     0
171
     0
290
     0
174
     0
 93
       13
 44
0.0
173
     0
291
     1
 45
0.0
1001
ACAD
1000
AcDbSavedByObjectVersion
1070
     0
  0
VISUALSTYLE
  5
38
102
{ACAD_REACTORS
330
2A
102
}
102
{ACAD_XDICTIONARY
360
1E5
102
}
330
2A
100
AcDbVisualStyle
  2
Linepattern
 70
    14
 71
     2
 72
     2
 73
     0
 90
        0
 40
-0.6
 41
-30.0
 62
     5
 63
     7
 74
     1
 91
        4
 64
     7
 65
   257
 75
     7
175
     7
 42
1.0
 92
        8
 66
     7
 43
1.0
 76
     1
 77
     6
 78
     2
 67
     7
 79
     5
170
     0
171
     0
290
     0
174
     0
 93
        1
 44
0.0
173
     0
291
     1
 45
0.0
1001
ACAD
1000
AcDbSavedByObjectVersion
1070
     0
  0
VISUALSTYLE
  5
33
102
{ACAD_REACTORS
330
2A
102
}
102
{ACAD_XDICTIONARY
360
1DB
102
}
330
2A
100
AcDbVisualStyle
  2
Realistic
 70
     8
 71
     2
 72
     2
 73
     0
 90
        0
 40
-0.6
 41
-30.0
 62
     5
 63
     7
 74
     1
 91
        0
 64
     7
 65
   257
 75
     1
175
     1
 42
1.0
 92
        8
 66
     8
 43
1.0
 76
     1
 77
     6
 78
     2
 67
     7
 79
     5
170
     0
171
     0
290
     0
174
     0
 93
       13
 44
0.0
173
     0
291
     0
 45
0.0
1001
ACAD
1000
AcDbSavedByObjectVersion
1070
     0
  0
VISUALSTYLE
  5
37
102
{ACAD_REACTORS
330
2A
102
}
102
{ACAD_XDICTIONARY
360
1E3
102
}
330
2A
100
AcDbVisualStyle
  2
Thicken
 70
    13
 71
     2
 72
     2
 73
     0
 90
        0
 40
-0.6
 41
-30.0
 62
     5
 63
     7
 74
     1
 91
        4
 64
     7
 65
   257
 75
     1
175
     1
 42
1.0
 92
       12
 66
     7
 43
1.0
 76
     1
 77
     6
 78
     2
 67
     7
 79
     5
170
     0
171
     0
290
     0
174
     0
 93
        1
 44
0.0
173
     0
291
     1
 45
0.0
1001
ACAD
1000
AcDbSavedByObjectVersion
1070
     0
  0
DICTIONARYVAR
  5
1C9
102
{ACAD_REACTORS
330
1C4
102
}
330
1C4
100
DictionaryVariables
280
     0
  1
2
  0
DICTIONARYVAR
  5
1CA
102
{ACAD_REACTORS
330
1C4
102
}
330
1C4
100
DictionaryVariables
280
     0
  1
1
  0
DICTIONARYVAR
  5
1C8
102
{ACAD_REACTORS
330
1C4
102
}
330
1C4
100
DictionaryVariables
280
     0
  1
80.000000
  0
DICTIONARYVAR
  5
1C7
102
{ACAD_REACTORS
330
1C4
102
}
330
1C4
100
DictionaryVariables
280
     0
  1
5.000000
  0
DICTIONARY
  5
1ED
330
3D
100
AcDbDictionary
280
     1
281
     1
  3
ACAD_XREC_ROUNDTRIP
360
1EE
  0
DICTIONARY
  5
1EB
330
3C
100
AcDbDictionary
280
     1
281
     1
  3
ACAD_XREC_ROUNDTRIP
360
1EC
  0
DICTIONARY
  5
1EF
330
3E
100
AcDbDictionary
280
     1
281
     1
  3
ACAD_XREC_ROUNDTRIP
360
1F0
  0
DICTIONARY
  5
1D3
330
2F
100
AcDbDictionary
280
     1
281
     1
  3
ACAD_XREC_ROUNDTRIP
360
1D4
  0
DICTIONARY
  5
1D7
330
31
100
AcDbDictionary
280
     1
281
     1
  3
ACAD_XREC_ROUNDTRIP
360
1D8
  0
DICTIONARY
  5
1D5
330
30
100
AcDbDictionary
280
     1
281
     1
  3
ACAD_XREC_ROUNDTRIP
360
1D6
  0
DICTIONARY
  5
1D9
330
32
100
AcDbDictionary
280
     1
281
     1
  3
ACAD_XREC_ROUNDTRIP
360
1DA
  0
DICTIONARY
  5
1E1
330
36
100
AcDbDictionary
280
     1
281
     1
  3
ACAD_XREC_ROUNDTRIP
360
1E2
  0
DICTIONARY
  5
1E9
330
3A
100
AcDbDictionary
280
     1
281
     1
  3
ACAD_XREC_ROUNDTRIP
360
1EA
  0
DICTIONARY
  5
1DD
330
34
100
AcDbDictionary
280
     1
281
     1
  3
ACAD_XREC_ROUNDTRIP
360
1DE
  0
DICTIONARY
  5
1DF
330
35
100
AcDbDictionary
280
     1
281
     1
  3
ACAD_XREC_ROUNDTRIP
360
1E0
  0
DICTIONARY
  5
1E7
330
39
100
AcDbDictionary
280
     1
281
     1
  3
ACAD_XREC_ROUNDTRIP
360
1E8
  0
DICTIONARY
  5
1CB
330
2B
100
AcDbDictionary
280
     1
281
     1
  3
ACAD_XREC_ROUNDTRIP
360
1CC
  0
DICTIONARY
  5
1CD
330
2C
100
AcDbDictionary
280
     1
281
     1
  3
ACAD_XREC_ROUNDTRIP
360
1CE
  0
DICTIONARY
  5
1CF
330
2D
100
AcDbDictionary
280
     1
281
     1
  3
ACAD_XREC_ROUNDTRIP
360
1D0
  0
DICTIONARY
  5
1D1
330
2E
100
AcDbDictionary
280
     1
281
     1
  3
ACAD_XREC_ROUNDTRIP
360
1D2
  0
DICTIONARY
  5
1E5
330
38
100
AcDbDictionary
280
     1
281
     1
  3
ACAD_XREC_ROUNDTRIP
360
1E6
  0
DICTIONARY
  5
1DB
330
33
100
AcDbDictionary
280
     1
281
     1
  3
ACAD_XREC_ROUNDTRIP
360
1DC
  0
DICTIONARY
  5
1E3
330
37
100
AcDbDictionary
280
     1
281
     1
  3
ACAD_XREC_ROUNDTRIP
360
1E4
  0
XRECORD
  5
1EE
102
{ACAD_REACTORS
330
1ED
102
}
330
1ED
100
AcDbXrecord
280
     1
102
MATERIAL
148
0.0
149
0.0
149
0.0
 93
        0
 94
      127
282
     0
 72
     1
 77
     1
171
     1
175
     1
179
     1
273
     0
  0
XRECORD
  5
1EC
102
{ACAD_REACTORS
330
1EB
102
}
330
1EB
100
AcDbXrecord
280
     1
102
MATERIAL
148
0.0
149
0.0
149
0.0
 93
        0
 94
      127
282
     0
 72
     1
 77
     1
171
     1
175
     1
179
     1
273
     0
  0
XRECORD
  5
1F0
102
{ACAD_REACTORS
330
1EF
102
}
330
1EF
100
AcDbXrecord
280
     1
102
MATERIAL
148
0.0
149
0.0
149
0.0
 93
        0
 94
      127
282
     0
 72
     1
 77
     1
171
     1
175
     1
179
     1
273
     0
  0
XRECORD
  5
1D4
102
{ACAD_REACTORS
330
1D3
102
}
330
1D3
100
AcDbXrecord
280
     1
102
RTVSPropertyOp0
 70
     1
102
RTVSPropertyOp1
 70
     1
102
RTVSPropertyOp2
 70
     1
102
RTVSPropertyOp3
 70
     1
102
RTVSPropertyOp4
 70
     1
102
RTVSPropertyOp5
 70
     1
102
RTVSPropertyOp6
 70
     1
102
RTVSPropertyOp7
 70
     1
102
RTVSPropertyOp8
 70
     1
102
RTVSPropertyOp9
 70
     1
102
RTVSPropertyOp10
 70
     1
102
RTVSPropertyOp11
 70
     1
102
RTVSPropertyOp12
 70
     1
102
RTVSPropertyOp13
 70
     1
102
RTVSPropertyOp14
 70
     1
102
RTVSPropertyOp15
 70
     1
102
RTVSPropertyOp16
 70
     1
102
RTVSPropertyOp17
 70
     1
102
RTVSPropertyOp18
 70
     1
102
RTVSPropertyOp19
 70
     1
102
RTVSPropertyOp20
 70
     1
102
RTVSPropertyOp21
 70
     1
102
RTVSPropertyOp22
 70
     1
102
RTVSPropertyOp23
 70
     1
102
RTVSPropertyOp24
 70
     1
102
RTVSPropertyOp25
 70
     1
102
RTVSPropertyOp26
 70
     1
102
RTVSPropertyOp27
 70
     1
  0
XRECORD
  5
1D8
102
{ACAD_REACTORS
330
1D7
102
}
330
1D7
100
AcDbXrecord
280
     1
102
RTVSPropertyOp0
 70
     1
102
RTVSPropertyOp1
 70
     1
102
RTVSPropertyOp2
 70
     1
102
RTVSPropertyOp3
 70
     1
102
RTVSPropertyOp4
 70
     1
102
RTVSPropertyOp5
 70
     1
102
RTVSPropertyOp6
 70
     1
102
RTVSPropertyOp7
 70
     1
102
RTVSPropertyOp8
 70
     1
102
RTVSPropertyOp9
 70
     1
102
RTVSPropertyOp10
 70
     1
102
RTVSPropertyOp11
 70
     1
102
RTVSPropertyOp12
 70
     1
102
RTVSPropertyOp13
 70
     1
102
RTVSPropertyOp14
 70
     1
102
RTVSPropertyOp15
 70
     1
102
RTVSPropertyOp16
 70
     1
102
RTVSPropertyOp17
 70
     1
102
RTVSPropertyOp18
 70
     1
102
RTVSPropertyOp19
 70
     1
102
RTVSPropertyOp20
 70
     1
102
RTVSPropertyOp21
 70
     1
102
RTVSPropertyOp22
 70
     1
102
RTVSPropertyOp23
 70
     1
102
RTVSPropertyOp24
 70
     1
102
RTVSPropertyOp25
 70
     1
102
RTVSPropertyOp26
 70
     1
102
RTVSPropertyOp27
 70
     1
  0
XRECORD
  5
1D6
102
{ACAD_REACTORS
330
1D5
102
}
330
1D5
100
AcDbXrecord
280
     1
102
RTVSPropertyOp0
 70
     1
102
RTVSPropertyOp1
 70
     1
102
RTVSPropertyOp2
 70
     1
102
RTVSPropertyOp3
 70
     1
102
RTVSPropertyOp4
 70
     1
102
RTVSPropertyOp5
 70
     1
102
RTVSPropertyOp6
 70
     1
102
RTVSPropertyOp7
 70
     1
102
RTVSPropertyOp8
 70
     1
102
RTVSPropertyOp9
 70
     1
102
RTVSPropertyOp10
 70
     1
102
RTVSPropertyOp11
 70
     1
102
RTVSPropertyOp12
 70
     1
102
RTVSPropertyOp13
 70
     1
102
RTVSPropertyOp14
 70
     1
102
RTVSPropertyOp15
 70
     1
102
RTVSPropertyOp16
 70
     1
102
RTVSPropertyOp17
 70
     1
102
RTVSPropertyOp18
 70
     1
102
RTVSPropertyOp19
 70
     1
102
RTVSPropertyOp20
 70
     1
102
RTVSPropertyOp21
 70
     1
102
RTVSPropertyOp22
 70
     1
102
RTVSPropertyOp23
 70
     1
102
RTVSPropertyOp24
 70
     1
102
RTVSPropertyOp25
 70
     1
102
RTVSPropertyOp26
 70
     1
102
RTVSPropertyOp27
 70
     1
  0
XRECORD
  5
1DA
102
{ACAD_REACTORS
330
1D9
102
}
330
1D9
100
AcDbXrecord
280
     1
102
RTVSPropertyOp0
 70
     1
102
RTVSPropertyOp1
 70
     1
102
RTVSPropertyOp2
 70
     1
102
RTVSPropertyOp3
 70
     1
102
RTVSPropertyOp4
 70
     1
102
RTVSPropertyOp5
 70
     1
102
RTVSPropertyOp6
 70
     1
102
RTVSPropertyOp7
 70
     1
102
RTVSPropertyOp8
 70
     1
102
RTVSPropertyOp9
 70
     1
102
RTVSPropertyOp10
 70
     1
102
RTVSPropertyOp11
 70
     1
102
RTVSPropertyOp12
 70
     1
102
RTVSPropertyOp13
 70
     1
102
RTVSPropertyOp14
 70
     1
102
RTVSPropertyOp15
 70
     1
102
RTVSPropertyOp16
 70
     1
102
RTVSPropertyOp17
 70
     1
102
RTVSPropertyOp18
 70
     1
102
RTVSPropertyOp19
 70
     1
102
RTVSPropertyOp20
 70
     1
102
RTVSPropertyOp21
 70
     1
102
RTVSPropertyOp22
 70
     1
102
RTVSPropertyOp23
 70
     1
102
RTVSPropertyOp24
 70
     1
102
RTVSPropertyOp25
 70
     1
102
RTVSPropertyOp26
 70
     1
102
RTVSPropertyOp27
 70
     1
  0
XRECORD
  5
1E2
102
{ACAD_REACTORS
330
1E1
102
}
330
1E1
100
AcDbXrecord
280
     1
102
RTVSPropertyOp0
 70
     1
102
RTVSPropertyOp1
 70
     1
102
RTVSPropertyOp2
 70
     1
102
RTVSPropertyOp3
 70
     1
102
RTVSPropertyOp4
 70
     1
102
RTVSPropertyOp5
 70
     1
102
RTVSPropertyOp6
 70
     1
102
RTVSPropertyOp7
 70
     1
102
RTVSPropertyOp8
 70
     1
102
RTVSPropertyOp9
 70
     1
102
RTVSPropertyOp10
 70
     1
102
RTVSPropertyOp11
 70
     1
102
RTVSPropertyOp12
 70
     1
102
RTVSPropertyOp13
 70
     1
102
RTVSPropertyOp14
 70
     1
102
RTVSPropertyOp15
 70
     1
102
RTVSPropertyOp16
 70
     1
102
RTVSPropertyOp17
 70
     1
102
RTVSPropertyOp18
 70
     1
102
RTVSPropertyOp19
 70
     1
102
RTVSPropertyOp20
 70
     1
102
RTVSPropertyOp21
 70
     1
102
RTVSPropertyOp22
 70
     1
102
RTVSPropertyOp23
 70
     1
102
RTVSPropertyOp24
 70
     1
102
RTVSPropertyOp25
 70
     1
102
RTVSPropertyOp26
 70
     1
102
RTVSPropertyOp27
 70
     1
  0
XRECORD
  5
1EA
102
{ACAD_REACTORS
330
1E9
102
}
330
1E9
100
AcDbXrecord
280
     1
102
RTVSPropertyOp0
 70
     1
102
RTVSPropertyOp1
 70
     1
102
RTVSPropertyOp2
 70
     1
102
RTVSPropertyOp3
 70
     1
102
RTVSPropertyOp4
 70
     1
102
RTVSPropertyOp5
 70
     1
102
RTVSPropertyOp6
 70
     1
102
RTVSPropertyOp7
 70
     1
102
RTVSPropertyOp8
 70
     1
102
RTVSPropertyOp9
 70
     1
102
RTVSPropertyOp10
 70
     1
102
RTVSPropertyOp11
 70
     1
102
RTVSPropertyOp12
 70
     1
102
RTVSPropertyOp13
 70
     1
102
RTVSPropertyOp14
 70
     1
102
RTVSPropertyOp15
 70
     1
102
RTVSPropertyOp16
 70
     1
102
RTVSPropertyOp17
 70
     1
102
RTVSPropertyOp18
 70
     1
102
RTVSPropertyOp19
 70
     1
102
RTVSPropertyOp20
 70
     1
102
RTVSPropertyOp21
 70
     1
102
RTVSPropertyOp22
 70
     1
102
RTVSPropertyOp23
 70
     1
102
RTVSPropertyOp24
 70
     1
102
RTVSPropertyOp25
 70
     1
102
RTVSPropertyOp26
 70
     1
102
RTVSPropertyOp27
 70
     1
  0
XRECORD
  5
1DE
102
{ACAD_REACTORS
330
1DD
102
}
330
1DD
100
AcDbXrecord
280
     1
102
RTVSPropertyOp0
 70
     1
102
RTVSPropertyOp1
 70
     1
102
RTVSPropertyOp2
 70
     1
102
RTVSPropertyOp3
 70
     1
102
RTVSPropertyOp4
 70
     1
102
RTVSPropertyOp5
 70
     1
102
RTVSPropertyOp6
 70
     1
102
RTVSPropertyOp7
 70
     1
102
RTVSPropertyOp8
 70
     1
102
RTVSPropertyOp9
 70
     1
102
RTVSPropertyOp10
 70
     1
102
RTVSPropertyOp11
 70
     1
102
RTVSPropertyOp12
 70
     1
102
RTVSPropertyOp13
 70
     1
102
RTVSPropertyOp14
 70
     1
102
RTVSPropertyOp15
 70
     1
102
RTVSPropertyOp16
 70
     1
102
RTVSPropertyOp17
 70
     1
102
RTVSPropertyOp18
 70
     1
102
RTVSPropertyOp19
 70
     1
102
RTVSPropertyOp20
 70
     1
102
RTVSPropertyOp21
 70
     1
102
RTVSPropertyOp22
 70
     1
102
RTVSPropertyOp23
 70
     1
102
RTVSPropertyOp24
 70
     1
102
RTVSPropertyOp25
 70
     1
102
RTVSPropertyOp26
 70
     1
102
RTVSPropertyOp27
 70
     1
  0
XRECORD
  5
1E0
102
{ACAD_REACTORS
330
1DF
102
}
330
1DF
100
AcDbXrecord
280
     1
102
RTVSPropertyOp0
 70
     1
102
RTVSPropertyOp1
 70
     1
102
RTVSPropertyOp2
 70
     1
102
RTVSPropertyOp3
 70
     1
102
RTVSPropertyOp4
 70
     1
102
RTVSPropertyOp5
 70
     1
102
RTVSPropertyOp6
 70
     1
102
RTVSPropertyOp7
 70
     1
102
RTVSPropertyOp8
 70
     1
102
RTVSPropertyOp9
 70
     1
102
RTVSPropertyOp10
 70
     1
102
RTVSPropertyOp11
 70
     1
102
RTVSPropertyOp12
 70
     1
102
RTVSPropertyOp13
 70
     1
102
RTVSPropertyOp14
 70
     1
102
RTVSPropertyOp15
 70
     1
102
RTVSPropertyOp16
 70
     1
102
RTVSPropertyOp17
 70
     1
102
RTVSPropertyOp18
 70
     1
102
RTVSPropertyOp19
 70
     1
102
RTVSPropertyOp20
 70
     1
102
RTVSPropertyOp21
 70
     1
102
RTVSPropertyOp22
 70
     1
102
RTVSPropertyOp23
 70
     1
102
RTVSPropertyOp24
 70
     1
102
RTVSPropertyOp25
 70
     1
102
RTVSPropertyOp26
 70
     1
102
RTVSPropertyOp27
 70
     1
  0
XRECORD
  5
1E8
102
{ACAD_REACTORS
330
1E7
102
}
330
1E7
100
AcDbXrecord
280
     1
102
RTVSPropertyOp0
 70
     1
102
RTVSPropertyOp1
 70
     1
102
RTVSPropertyOp2
 70
     1
102
RTVSPropertyOp3
 70
     1
102
RTVSPropertyOp4
 70
     1
102
RTVSPropertyOp5
 70
     1
102
RTVSPropertyOp6
 70
     1
102
RTVSPropertyOp7
 70
     1
102
RTVSPropertyOp8
 70
     1
102
RTVSPropertyOp9
 70
     1
102
RTVSPropertyOp10
 70
     1
102
RTVSPropertyOp11
 70
     1
102
RTVSPropertyOp12
 70
     1
102
RTVSPropertyOp13
 70
     1
102
RTVSPropertyOp14
 70
     1
102
RTVSPropertyOp15
 70
     1
102
RTVSPropertyOp16
 70
     1
102
RTVSPropertyOp17
 70
     1
102
RTVSPropertyOp18
 70
     1
102
RTVSPropertyOp19
 70
     1
102
RTVSPropertyOp20
 70
     1
102
RTVSPropertyOp21
 70
     1
102
RTVSPropertyOp22
 70
     1
102
RTVSPropertyOp23
 70
     1
102
RTVSPropertyOp24
 70
     1
102
RTVSPropertyOp25
 70
     1
102
RTVSPropertyOp26
 70
     1
102
RTVSPropertyOp27
 70
     1
  0
XRECORD
  5
1CC
102
{ACAD_REACTORS
330
1CB
102
}
330
1CB
100
AcDbXrecord
280
     1
102
RTVSPropertyOp0
 70
     1
102
RTVSPropertyOp1
 70
     1
102
RTVSPropertyOp2
 70
     1
102
RTVSPropertyOp3
 70
     1
102
RTVSPropertyOp4
 70
     1
102
RTVSPropertyOp5
 70
     1
102
RTVSPropertyOp6
 70
     1
102
RTVSPropertyOp7
 70
     1
102
RTVSPropertyOp8
 70
     1
102
RTVSPropertyOp9
 70
     1
102
RTVSPropertyOp10
 70
     1
102
RTVSPropertyOp11
 70
     1
102
RTVSPropertyOp12
 70
     1
102
RTVSPropertyOp13
 70
     1
102
RTVSPropertyOp14
 70
     1
102
RTVSPropertyOp15
 70
     1
102
RTVSPropertyOp16
 70
     1
102
RTVSPropertyOp17
 70
     1
102
RTVSPropertyOp18
 70
     1
102
RTVSPropertyOp19
 70
     1
102
RTVSPropertyOp20
 70
     1
102
RTVSPropertyOp21
 70
     1
102
RTVSPropertyOp22
 70
     1
102
RTVSPropertyOp23
 70
     1
102
RTVSPropertyOp24
 70
     1
102
RTVSPropertyOp25
 70
     1
102
RTVSPropertyOp26
 70
     1
102
RTVSPropertyOp27
 70
     1
  0
XRECORD
  5
1CE
102
{ACAD_REACTORS
330
1CD
102
}
330
1CD
100
AcDbXrecord
280
     1
102
RTVSPropertyOp0
 70
     1
102
RTVSPropertyOp1
 70
     1
102
RTVSPropertyOp2
 70
     1
102
RTVSPropertyOp3
 70
     1
102
RTVSPropertyOp4
 70
     1
102
RTVSPropertyOp5
 70
     1
102
RTVSPropertyOp6
 70
     1
102
RTVSPropertyOp7
 70
     1
102
RTVSPropertyOp8
 70
     1
102
RTVSPropertyOp9
 70
     1
102
RTVSPropertyOp10
 70
     1
102
RTVSPropertyOp11
 70
     1
102
RTVSPropertyOp12
 70
     1
102
RTVSPropertyOp13
 70
     1
102
RTVSPropertyOp14
 70
     1
102
RTVSPropertyOp15
 70
     1
102
RTVSPropertyOp16
 70
     1
102
RTVSPropertyOp17
 70
     1
102
RTVSPropertyOp18
 70
     1
102
RTVSPropertyOp19
 70
     1
102
RTVSPropertyOp20
 70
     1
102
RTVSPropertyOp21
 70
     1
102
RTVSPropertyOp22
 70
     1
102
RTVSPropertyOp23
 70
     1
102
RTVSPropertyOp24
 70
     1
102
RTVSPropertyOp25
 70
     1
102
RTVSPropertyOp26
 70
     1
102
RTVSPropertyOp27
 70
     1
  0
XRECORD
  5
1D0
102
{ACAD_REACTORS
330
1CF
102
}
330
1CF
100
AcDbXrecord
280
     1
102
RTVSPropertyOp0
 70
     1
102
RTVSPropertyOp1
 70
     1
102
RTVSPropertyOp2
 70
     1
102
RTVSPropertyOp3
 70
     1
102
RTVSPropertyOp4
 70
     1
102
RTVSPropertyOp5
 70
     1
102
RTVSPropertyOp6
 70
     1
102
RTVSPropertyOp7
 70
     1
102
RTVSPropertyOp8
 70
     1
102
RTVSPropertyOp9
 70
     1
102
RTVSPropertyOp10
 70
     1
102
RTVSPropertyOp11
 70
     1
102
RTVSPropertyOp12
 70
     1
102
RTVSPropertyOp13
 70
     1
102
RTVSPropertyOp14
 70
     1
102
RTVSPropertyOp15
 70
     1
102
RTVSPropertyOp16
 70
     1
102
RTVSPropertyOp17
 70
     1
102
RTVSPropertyOp18
 70
     1
102
RTVSPropertyOp19
 70
     1
102
RTVSPropertyOp20
 70
     1
102
RTVSPropertyOp21
 70
     1
102
RTVSPropertyOp22
 70
     1
102
RTVSPropertyOp23
 70
     1
102
RTVSPropertyOp24
 70
     1
102
RTVSPropertyOp25
 70
     1
102
RTVSPropertyOp26
 70
     1
102
RTVSPropertyOp27
 70
     1
  0
XRECORD
  5
1D2
102
{ACAD_REACTORS
330
1D1
102
}
330
1D1
100
AcDbXrecord
280
     1
102
RTVSPropertyOp0
 70
     1
102
RTVSPropertyOp1
 70
     1
102
RTVSPropertyOp2
 70
     1
102
RTVSPropertyOp3
 70
     1
102
RTVSPropertyOp4
 70
     1
102
RTVSPropertyOp5
 70
     1
102
RTVSPropertyOp6
 70
     1
102
RTVSPropertyOp7
 70
     1
102
RTVSPropertyOp8
 70
     1
102
RTVSPropertyOp9
 70
     1
102
RTVSPropertyOp10
 70
     1
102
RTVSPropertyOp11
 70
     1
102
RTVSPropertyOp12
 70
     1
102
RTVSPropertyOp13
 70
     1
102
RTVSPropertyOp14
 70
     1
102
RTVSPropertyOp15
 70
     1
102
RTVSPropertyOp16
 70
     1
102
RTVSPropertyOp17
 70
     1
102
RTVSPropertyOp18
 70
     1
102
RTVSPropertyOp19
 70
     1
102
RTVSPropertyOp20
 70
     1
102
RTVSPropertyOp21
 70
     1
102
RTVSPropertyOp22
 70
     1
102
RTVSPropertyOp23
 70
     1
102
RTVSPropertyOp24
 70
     1
102
RTVSPropertyOp25
 70
     1
102
RTVSPropertyOp26
 70
     1
102
RTVSPropertyOp27
 70
     1
  0
XRECORD
  5
1E6
102
{ACAD_REACTORS
330
1E5
102
}
330
1E5
100
AcDbXrecord
280
     1
102
RTVSPropertyOp0
 70
     1
102
RTVSPropertyOp1
 70
     1
102
RTVSPropertyOp2
 70
     1
102
RTVSPropertyOp3
 70
     1
102
RTVSPropertyOp4
 70
     1
102
RTVSPropertyOp5
 70
     1
102
RTVSPropertyOp6
 70
     1
102
RTVSPropertyOp7
 70
     1
102
RTVSPropertyOp8
 70
     1
102
RTVSPropertyOp9
 70
     1
102
RTVSPropertyOp10
 70
     1
102
RTVSPropertyOp11
 70
     1
102
RTVSPropertyOp12
 70
     1
102
RTVSPropertyOp13
 70
     1
102
RTVSPropertyOp14
 70
     1
102
RTVSPropertyOp15
 70
     1
102
RTVSPropertyOp16
 70
     1
102
RTVSPropertyOp17
 70
     1
102
RTVSPropertyOp18
 70
     1
102
RTVSPropertyOp19
 70
     1
102
RTVSPropertyOp20
 70
     1
102
RTVSPropertyOp21
 70
     1
102
RTVSPropertyOp22
 70
     1
102
RTVSPropertyOp23
 70
     1
102
RTVSPropertyOp24
 70
     1
102
RTVSPropertyOp25
 70
     1
102
RTVSPropertyOp26
 70
     1
102
RTVSPropertyOp27
 70
     1
  0
XRECORD
  5
1DC
102
{ACAD_REACTORS
330
1DB
102
}
330
1DB
100
AcDbXrecord
280
     1
102
RTVSPropertyOp0
 70
     1
102
RTVSPropertyOp1
 70
     1
102
RTVSPropertyOp2
 70
     1
102
RTVSPropertyOp3
 70
     1
102
RTVSPropertyOp4
 70
     1
102
RTVSPropertyOp5
 70
     1
102
RTVSPropertyOp6
 70
     1
102
RTVSPropertyOp7
 70
     1
102
RTVSPropertyOp8
 70
     1
102
RTVSPropertyOp9
 70
     1
102
RTVSPropertyOp10
 70
     1
102
RTVSPropertyOp11
 70
     1
102
RTVSPropertyOp12
 70
     1
102
RTVSPropertyOp13
 70
     1
102
RTVSPropertyOp14
 70
     1
102
RTVSPropertyOp15
 70
     1
102
RTVSPropertyOp16
 70
     1
102
RTVSPropertyOp17
 70
     1
102
RTVSPropertyOp18
 70
     1
102
RTVSPropertyOp19
 70
     1
102
RTVSPropertyOp20
 70
     1
102
RTVSPropertyOp21
 70
     1
102
RTVSPropertyOp22
 70
     1
102
RTVSPropertyOp23
 70
     1
102
RTVSPropertyOp24
 70
     1
102
RTVSPropertyOp25
 70
     1
102
RTVSPropertyOp26
 70
     1
102
RTVSPropertyOp27
 70
     1
  0
XRECORD
  5
1E4
102
{ACAD_REACTORS
330
1E3
102
}
330
1E3
100
AcDbXrecord
280
     1
102
RTVSPropertyOp0
 70
     1
102
RTVSPropertyOp1
 70
     1
102
RTVSPropertyOp2
 70
     1
102
RTVSPropertyOp3
 70
     1
102
RTVSPropertyOp4
 70
     1
102
RTVSPropertyOp5
 70
     1
102
RTVSPropertyOp6
 70
     1
102
RTVSPropertyOp7
 70
     1
102
RTVSPropertyOp8
 70
     1
102
RTVSPropertyOp9
 70
     1
102
RTVSPropertyOp10
 70
     1
102
RTVSPropertyOp11
 70
     1
102
RTVSPropertyOp12
 70
     1
102
RTVSPropertyOp13
 70
     1
102
RTVSPropertyOp14
 70
     1
102
RTVSPropertyOp15
 70
     1
102
RTVSPropertyOp16
 70
     1
102
RTVSPropertyOp17
 70
     1
102
RTVSPropertyOp18
 70
     1
102
RTVSPropertyOp19
 70
     1
102
RTVSPropertyOp20
 70
     1
102
RTVSPropertyOp21
 70
     1
102
RTVSPropertyOp22
 70
     1
102
RTVSPropertyOp23
 70
     1
102
RTVSPropertyOp24
 70
     1
102
RTVSPropertyOp25
 70
     1
102
RTVSPropertyOp26
 70
     1
102
RTVSPropertyOp27
 70
     1
  0
ENDSEC
  0
EOF
