  0
SECTION
  2
HEADER
  9
$ACADVER
  1
AC1015
  9
$ACADMAINTVER
 70
     6
  9
$DWGCODEPAGE
  3
ANSI_1252
  9
$INSBASE
 10
0.0
 20
0.0
 30
0.0
  9
$EXTMIN
 10
1.000000E+20
 20
1.000000E+20
 30
1.000000E+20
  9
$EXTMAX
 10
-1.000000E+20
 20
-1.000000E+20
 30
-1.000000E+20
  9
$LIMMIN
 10
0.0
 20
0.0
  9
$LIMMAX
 10
420.0
 20
297.0
  9
$ORTHOMODE
 70
     0
  9
$REGENMODE
 70
     1
  9
$FILLMODE
 70
     1
  9
$QTEXTMODE
 70
     0
  9
$MIRRTEXT
 70
     1
  9
$LTSCALE
 40
1.0
  9
$ATTMODE
 70
     1
  9
$TEXTSIZE
 40
2.5
  9
$TRACEWID
 40
1.0
  9
$TEXTSTYLE
  7
Standard
  9
$CLAYER
  8
0
  9
$CELTYPE
  6
ByLayer
  9
$CECOLOR
 62
   256
  9
$CELTSCALE
 40
1.0
  9
$DISPSILH
 70
     0
  9
$DIMSCALE
 40
1.0
  9
$DIMASZ
 40
2.5
  9
$DIMEXO
 40
0.625
  9
$DIMDLI
 40
3.75
  9
$DIMRND
 40
0.0
  9
$DIMDLE
 40
0.0
  9
$DIMEXE
 40
1.25
  9
$DIMTP
 40
0.0
  9
$DIMTM
 40
0.0
  9
$DIMTXT
 40
2.5
  9
$DIMCEN
 40
2.5
  9
$DIMTSZ
 40
0.0
  9
$DIMTOL
 70
     0
  9
$DIMLIM
 70
     0
  9
$DIMTIH
 70
     0
  9
$DIMTOH
 70
     0
  9
$DIMSE1
 70
     0
  9
$DIMSE2
 70
     0
  9
$DIMTAD
 70
     1
  9
$DIMZIN
 70
     8
  9
$DIMBLK
  1

  9
$DIMASO
 70
     1
  9
$DIMSHO
 70
     1
  9
$DIMPOST
  1

  9
$DIMAPOST
  1

  9
$DIMALT
 70
     0
  9
$DIMALTD
 70
     3
  9
$DIMALTF
 40
0.03937
  9
$DIMLFAC
 40
1.0
  9
$DIMTOFL
 70
     1
  9
$DIMTVP
 40
0.0
  9
$DIMTIX
 70
     0
  9
$DIMSOXD
 70
     0
  9
$DIMSAH
 70
     0
  9
$DIMBLK1
  1

  9
$DIMBLK2
  1

  9
$DIMSTYLE
  2
ISO-25
  9
$DIMCLRD
 70
     0
  9
$DIMCLRE
 70
     0
  9
$DIMCLRT
 70
     0
  9
$DIMTFAC
 40
1.0
  9
$DIMGAP
 40
0.625
  9
$DIMJUST
 70
     0
  9
$DIMSD1
 70
     0
  9
$DIMSD2
 70
     0
  9
$DIMTOLJ
 70
     0
  9
$DIMTZIN
 70
     8
  9
$DIMALTZ
 70
     0
  9
$DIMALTTZ
 70
     0
  9
$DIMUPT
 70
     0
  9
$DIMDEC
 70
     2
  9
$DIMTDEC
 70
     2
  9
$DIMALTU
 70
     2
  9
$DIMALTTD
 70
     3
  9
$DIMTXSTY
  7
Standard
  9
$DIMAUNIT
 70
     0
  9
$DIMADEC
 70
     0
  9
$DIMALTRND
 40
0.0
  9
$DIMAZIN
 70
     0
  9
$DIMDSEP
 70
    44
  9
$DIMATFIT
 70
     3
  9
$DIMFRAC
 70
     0
  9
$DIMLDRBLK
  1

  9
$DIMLUNIT
 70
     2
  9
$DIMLWD
 70
    -2
  9
$DIMLWE
 70
    -2
  9
$DIMTMOVE
 70
     0
  9
$LUNITS
 70
     2
  9
$LUPREC
 70
     4
  9
$SKETCHINC
 40
1.0
  9
$FILLETRAD
 40
10.0
  9
$AUNITS
 70
     0
  9
$AUPREC
 70
     0
  9
$MENU
  1
.
  9
$ELEVATION
 40
0.0
  9
$PELEVATION
 40
0.0
  9
$THICKNESS
 40
0.0
  9
$LIMCHECK
 70
     0
  9
$CHAMFERA
 40
10.0
  9
$CHAMFERB
 40
10.0
  9
$CHAMFERC
 40
20.0
  9
$CHAMFERD
 40
0.0
  9
$SKPOLY
 70
     0
  9
$TDCREATE
 40
2456121.615756134
  9
$TDUCREATE
 40
2456121.532422801
  9
$TDUPDATE
 40
2456121.615756146
  9
$TDUUPDATE
 40
2456121.532422813
  9
$TDINDWG
 40
0.0000000116
  9
$TDUSRTIMER
 40
0.0000000116
  9
$USRTIMER
 70
     1
  9
$ANGBASE
 50
0.0
  9
$ANGDIR
 70
     0
  9
$PDMODE
 70
     0
  9
$PDSIZE
 40
0.0
  9
$PLINEWID
 40
0.0
  9
$SPLFRAME
 70
     0
  9
$SPLINETYPE
 70
     6
  9
$SPLINESEGS
 70
     8
  9
$HANDSEED
  5
3A5
  9
$SURFTAB1
 70
     6
  9
$SURFTAB2
 70
     6
  9
$SURFTYPE
 70
     6
  9
$SURFU
 70
     6
  9
$SURFV
 70
     6
  9
$UCSBASE
  2

  9
$UCSNAME
  2

  9
$UCSORG
 10
0.0
 20
0.0
 30
0.0
  9
$UCSXDIR
 10
1.0
 20
0.0
 30
0.0
  9
$UCSYDIR
 10
0.0
 20
1.0
 30
0.0
  9
$UCSORTHOREF
  2

  9
$UCSORTHOVIEW
 70
     0
  9
$UCSORGTOP
 10
0.0
 20
0.0
 30
0.0
  9
$UCSORGBOTTOM
 10
0.0
 20
0.0
 30
0.0
  9
$UCSORGLEFT
 10
0.0
 20
0.0
 30
0.0
  9
$UCSORGRIGHT
 10
0.0
 20
0.0
 30
0.0
  9
$UCSORGFRONT
 10
0.0
 20
0.0
 30
0.0
  9
$UCSORGBACK
 10
0.0
 20
0.0
 30
0.0
  9
$PUCSBASE
  2

  9
$PUCSNAME
  2

  9
$PUCSORG
 10
0.0
 20
0.0
 30
0.0
  9
$PUCSXDIR
 10
1.0
 20
0.0
 30
0.0
  9
$PUCSYDIR
 10
0.0
 20
1.0
 30
0.0
  9
$PUCSORTHOREF
  2

  9
$PUCSORTHOVIEW
 70
     0
  9
$PUCSORGTOP
 10
0.0
 20
0.0
 30
0.0
  9
$PUCSORGBOTTOM
 10
0.0
 20
0.0
 30
0.0
  9
$PUCSORGLEFT
 10
0.0
 20
0.0
 30
0.0
  9
$PUCSORGRIGHT
 10
0.0
 20
0.0
 30
0.0
  9
$PUCSORGFRONT
 10
0.0
 20
0.0
 30
0.0
  9
$PUCSORGBACK
 10
0.0
 20
0.0
 30
0.0
  9
$USERI1
 70
     0
  9
$USERI2
 70
     0
  9
$USERI3
 70
     0
  9
$USERI4
 70
     0
  9
$USERI5
 70
     0
  9
$USERR1
 40
0.0
  9
$USERR2
 40
0.0
  9
$USERR3
 40
0.0
  9
$USERR4
 40
0.0
  9
$USERR5
 40
0.0
  9
$WORLDVIEW
 70
     1
  9
$SHADEDGE
 70
     3
  9
$SHADEDIF
 70
    70
  9
$TILEMODE
 70
     1
  9
$MAXACTVP
 70
    64
  9
$PINSBASE
 10
0.0
 20
0.0
 30
0.0
  9
$PLIMCHECK
 70
     0
  9
$PEXTMIN
 10
1.000000E+20
 20
1.000000E+20
 30
1.000000E+20
  9
$PEXTMAX
 10
-1.000000E+20
 20
-1.000000E+20
 30
-1.000000E+20
  9
$PLIMMIN
 10
0.0
 20
0.0
  9
$PLIMMAX
 10
420.0
 20
297.0
  9
$UNITMODE
 70
     0
  9
$VISRETAIN
 70
     1
  9
$PLINEGEN
 70
     0
  9
$PSLTSCALE
 70
     1
  9
$TREEDEPTH
 70
  3020
  9
$CMLSTYLE
  2
Standard
  9
$CMLJUST
 70
     0
  9
$CMLSCALE
 40
20.0
  9
$PROXYGRAPHICS
 70
     1
  9
$MEASUREMENT
 70
     1
  9
$CELWEIGHT
370
    -1
  9
$ENDCAPS
280
     0
  9
$JOINSTYLE
280
     0
  9
$LWDISPLAY
290
     0
  9
$INSUNITS
 70
     4
  9
$HYPERLINKBASE
  1

  9
$STYLESHEET
  1

  9
$XEDIT
290
     1
  9
$CEPSNTYPE
380
     0
  9
$PSTYLEMODE
290
     1
  9
$FINGERPRINTGUID
  2
{F156F701-9C3B-45E6-BB03-4CD2C44BB38A}
  9
$VERSIONGUID
  2
{FAEB1C32-E019-11D5-929B-00C0DF256EC4}
  9
$EXTNAMES
290
     1
  9
$PSVPSCALE
 40
0.0
  9
$OLESTARTUP
290
     0
  0
ENDSEC
  0
SECTION
  2
CLASSES
  0
CLASS
  1
ACDBDICTIONARYWDFLT
  2
AcDbDictionaryWithDefault
  3
ObjectDBX Classes
 90
        0
280
     0
281
     0
  0
CLASS
  1
VISUALSTYLE
  2
AcDbVisualStyle
  3
ObjectDBX Classes
 90
     4095
280
     0
281
     0
  0
CLASS
  1
MATERIAL
  2
AcDbMaterial
  3
ObjectDBX Classes
 90
     1153
280
     0
281
     0
  0
CLASS
  1
DICTIONARYVAR
  2
AcDbDictionaryVar
  3
ObjectDBX Classes
 90
        0
280
     0
281
     0
  0
CLASS
  1
ACDBPLACEHOLDER
  2
AcDbPlaceHolder
  3
ObjectDBX Classes
 90
        0
280
     0
281
     0
  0
CLASS
  1
LAYOUT
  2
AcDbLayout
  3
ObjectDBX Classes
 90
        0
280
     0
281
     0
  0
ENDSEC
  0
SECTION
  2
TABLES
  0
TABLE
  2
VPORT
  5
8
330
0
100
AcDbSymbolTable
 70
     1
  0
VPORT
  5
29
330
8
100
AcDbSymbolTableRecord
100
AcDbViewportTableRecord
  2
*Active
 70
     0
 10
0.0
 20
0.0
 11
1.0
 21
1.0
 12
344.186916
 22
148.5
 13
0.0
 23
0.0
 14
10.0
 24
10.0
 15
10.0
 25
10.0
 16
0.0
 26
0.0
 36
1.0
 17
0.0
 27
0.0
 37
0.0
 40
297.0
 41
1.972973
 42
50.0
 43
0.0
 44
0.0
 50
0.0
 51
0.0
 71
     0
 72
   100
 73
     1
 74
     3
 75
     0
 76
     0
 77
     0
 78
     0
281
     0
 65
     1
110
0.0
120
0.0
130
0.0
111
1.0
121
0.0
131
0.0
112
0.0
122
1.0
132
0.0
 79
     0
146
0.0
  0
ENDTAB
  0
TABLE
  2
LTYPE
  5
5
330
0
100
AcDbSymbolTable
 70
     1
  0
LTYPE
  5
14
330
5
100
AcDbSymbolTableRecord
100
AcDbLinetypeTableRecord
  2
ByBlock
 70
     0
  3

 72
    65
 73
     0
 40
0.0
  0
LTYPE
  5
15
330
5
100
AcDbSymbolTableRecord
100
AcDbLinetypeTableRecord
  2
ByLayer
 70
     0
  3

 72
    65
 73
     0
 40
0.0
  0
LTYPE
  5
16
330
5
100
AcDbSymbolTableRecord
100
AcDbLinetypeTableRecord
  2
Continuous
 70
     0
  3
Solid line
 72
    65
 73
     0
 40
0.0
  0
ENDTAB
  0
TABLE
  2
LAYER
  5
2
330
0
100
AcDbSymbolTable
 70
     1
  0
LAYER
  5
10
330
2
100
AcDbSymbolTableRecord
100
AcDbLayerTableRecord
  2
0
 70
     0
 62
   106
  6
Continuous
370
     0
390
F
  0
ENDTAB
  0
TABLE
  2
STYLE
  5
3
330
0
100
AcDbSymbolTable
 70
     4
  0
STYLE
  5
11
330
3
100
AcDbSymbolTableRecord
100
AcDbTextStyleTableRecord
  2
Standard
 70
     0
 40
0.0
 41
1.0
 50
0.0
 71
     0
 42
2.5
  3
txt
  4

  0
STYLE
  5
3F
330
3
100
AcDbSymbolTableRecord
100
AcDbTextStyleTableRecord
  2
Default
 70
     0
 40
0.0
 41
1.0
 50
0.0
 71
     0
 42
0.2
  3

  4

1001
ACAD
1000
txt
1071
        0
  0
STYLE
  5
40
330
3
100
AcDbSymbolTableRecord
100
AcDbTextStyleTableRecord
  2
ISO
 70
     0
 40
0.0
 41
1.0
 50
0.0
 71
     0
 42
0.2
  3

  4

1001
ACAD
1000
txt
1071
        0
  0
STYLE
  5
41
330
3
100
AcDbSymbolTableRecord
100
AcDbTextStyleTableRecord
  2
GIANLU
 70
     0
 40
0.0
 41
1.0
 50
0.0
 71
     0
 42
0.2
  3

  4

1001
ACAD
1000
Arial
1071
 33554432
  0
ENDTAB
  0
TABLE
  2
VIEW
  5
6
330
0
100
AcDbSymbolTable
 70
     0
  0
ENDTAB
  0
TABLE
  2
UCS
  5
7
330
0
100
AcDbSymbolTable
 70
     0
  0
ENDTAB
  0
TABLE
  2
APPID
  5
9
330
0
100
AcDbSymbolTable
 70
     1
  0
APPID
  5
12
330
9
100
AcDbSymbolTableRecord
100
AcDbRegAppTableRecord
  2
ACAD
 70
     0
  0
ENDTAB
  0
TABLE
  2
DIMSTYLE
  5
A
330
0
100
AcDbSymbolTable
 70
     4
100
AcDbDimStyleTable
  0
DIMSTYLE
105
27
330
A
100
AcDbSymbolTableRecord
100
AcDbDimStyleTableRecord
  2
ISO-25
 70
     0
 41
2.5
 42
0.625
 43
3.75
 44
1.25
 73
     0
 74
     0
 77
     1
 78
     8
140
2.5
141
2.5
143
0.03937
147
0.625
171
     3
172
     1
271
     2
272
     2
274
     3
278
    44
283
     0
284
     8
340
11
  0
DIMSTYLE
105
42
330
A
100
AcDbSymbolTableRecord
100
AcDbDimStyleTableRecord
  2
Default
 70
     0
  3
<>
 41
4.375
 42
1.05
 44
2.1
 73
     0
 74
     0
 77
     1
 78
     8
140
3.5
146
0.4
147
1.75
172
     1
178
     3
271
     2
272
     3
284
     8
340
3F
341
43
342
43
  0
DIMSTYLE
105
4A
330
A
100
AcDbSymbolTableRecord
100
AcDbDimStyleTableRecord
  2
ISO
 70
     0
  3
<>
 41
4.375
 42
1.05
 44
2.1
 73
     0
 74
     0
 77
     1
 78
     8
140
3.5
146
0.4
147
1.75
172
     1
178
     3
271
     2
272
     3
284
     8
340
40
341
43
342
43
  0
DIMSTYLE
105
4B
330
A
100
AcDbSymbolTableRecord
100
AcDbDimStyleTableRecord
  2
zucchetti_unico
 70
     0
  3
<>
 41
3.5
 42
1.05
 44
2.1
 73
     0
 74
     0
 77
     1
 78
     8
140
3.5
146
0.6
147
1.75
172
     1
176
     3
177
     3
178
     3
271
     2
272
     2
284
     8
340
3F
  0
ENDTAB
  0
TABLE
  2
BLOCK_RECORD
  5
1
330
0
100
AcDbSymbolTable
 70
     6
  0
BLOCK_RECORD
  5
1F
330
1
100
AcDbSymbolTableRecord
100
AcDbBlockTableRecord
  2
*Model_Space
340
22
  0
BLOCK_RECORD
  5
1B
330
1
100
AcDbSymbolTableRecord
100
AcDbBlockTableRecord
  2
*Paper_Space
340
1E
  0
BLOCK_RECORD
  5
23
330
1
100
AcDbSymbolTableRecord
100
AcDbBlockTableRecord
  2
*Paper_Space0
340
26
  0
BLOCK_RECORD
  5
43
330
1
100
AcDbSymbolTableRecord
100
AcDbBlockTableRecord
  2
_CLOSED
340
0
  0
BLOCK_RECORD
  5
4C
330
1
100
AcDbSymbolTableRecord
100
AcDbBlockTableRecord
  2
a
340
0
102
{BLKREFS
331
15B
102
}
  0
BLOCK_RECORD
  5
15C
330
1
100
AcDbSymbolTableRecord
100
AcDbBlockTableRecord
  2
b
340
0
102
{BLKREFS
331
1DE
102
}
  0
BLOCK_RECORD
  5
1DF
330
1
100
AcDbSymbolTableRecord
100
AcDbBlockTableRecord
  2
c
340
0
102
{BLKREFS
331
2A4
102
}
  0
BLOCK_RECORD
  5
2A5
330
1
100
AcDbSymbolTableRecord
100
AcDbBlockTableRecord
  2
d
340
0
102
{BLKREFS
331
377
102
}
  0
ENDTAB
  0
ENDSEC
  0
SECTION
  2
BLOCKS
  0
BLOCK
  5
20
330
1F
100
AcDbEntity
  8
0
100
AcDbBlockBegin
  2
*Model_Space
 70
     0
 10
0.0
 20
0.0
 30
0.0
  3
*Model_Space
  1

  0
ENDBLK
  5
21
330
1F
100
AcDbEntity
  8
0
100
AcDbBlockEnd
  0
BLOCK
  5
1C
330
1B
100
AcDbEntity
 67
     1
  8
0
100
AcDbBlockBegin
  2
*Paper_Space
 70
     0
 10
0.0
 20
0.0
 30
0.0
  3
*Paper_Space
  1

  0
ENDBLK
  5
1D
330
1B
100
AcDbEntity
 67
     1
  8
0
100
AcDbBlockEnd
  0
BLOCK
  5
24
330
23
100
AcDbEntity
  8
0
100
AcDbBlockBegin
  2
*Paper_Space0
 70
     0
 10
0.0
 20
0.0
 30
0.0
  3
*Paper_Space0
  1

  0
ENDBLK
  5
25
330
23
100
AcDbEntity
  8
0
100
AcDbBlockEnd
  0
BLOCK
  5
44
330
43
100
AcDbEntity
  8
0
100
AcDbBlockBegin
  2
_CLOSED
 70
     0
 10
0.0
 20
0.0
 30
0.0
  3
_CLOSED
  1

  0
LINE
  5
46
330
43
100
AcDbEntity
  8
0
  6
ByBlock
 62
     0
370
    -2
100
AcDbLine
 10
-1.0
 20
0.166667
 30
0.0
 11
0.0
 21
0.0
 31
0.0
  0
LINE
  5
47
330
43
100
AcDbEntity
  8
0
  6
ByBlock
 62
     0
370
    -2
100
AcDbLine
 10
0.0
 20
0.0
 30
0.0
 11
-1.0
 21
-0.166667
 31
0.0
  0
LINE
  5
48
330
43
100
AcDbEntity
  8
0
  6
ByBlock
 62
     0
370
    -2
100
AcDbLine
 10
-1.0
 20
0.166667
 30
0.0
 11
-1.0
 21
-0.166667
 31
0.0
  0
LINE
  5
49
330
43
100
AcDbEntity
  8
0
  6
ByBlock
 62
     0
370
    -2
100
AcDbLine
 10
0.0
 20
0.0
 30
0.0
 11
-1.0
 21
0.0
 31
0.0
  0
ENDBLK
  5
45
330
43
100
AcDbEntity
  8
0
100
AcDbBlockEnd
  0
BLOCK
  5
159
330
4C
100
AcDbEntity
  8
0
100
AcDbBlockBegin
  2
a
 70
     0
 10
187.347565
 20
113.762405
 30
0.0
  3
a
  1

  0
LINE
  5
4D
330
4C
100
AcDbEntity
  8
0
  6
Continuous
 62
     0
370
     0
100
AcDbLine
 10
293.038339
 20
557.00761
 30
0.0
 11
293.038339
 21
583.00761
 31
0.0
  0
LINE
  5
4E
330
4C
100
AcDbEntity
  8
0
  6
Continuous
 62
     0
370
     0
100
AcDbLine
 10
293.038339
 20
583.00761
 30
0.0
 11
239.038483
 21
583.00761
 31
0.0
  0
ARC
  5
4F
330
4C
100
AcDbEntity
  8
0
  6
Continuous
 62
     0
370
     0
100
AcDbCircle
 10
239.038483
 20
573.00761
 30
0.0
 40
10.00000000000055
100
AcDbArc
 50
90.0
 51
180.0
  0
LINE
  5
50
330
4C
100
AcDbEntity
  8
0
  6
Continuous
 62
     0
370
     0
100
AcDbLine
 10
229.038483
 20
573.00761
 30
0.0
 11
229.038483
 21
551.007615
 31
0.0
  0
ARC
  5
51
330
4C
100
AcDbEntity
  8
0
  6
Continuous
 62
     0
370
     0
100
AcDbCircle
 10
239.038483
 20
551.007615
 30
0.0
 40
10.00000000000072
100
AcDbArc
 50
180.0
 51
270.0
  0
LINE
  5
52
330
4C
100
AcDbEntity
  8
0
  6
Continuous
 62
     0
370
     0
100
AcDbLine
 10
336.138329
 20
541.00761
 30
0.0
 11
415.038483
 21
541.00761
 31
0.0
  0
LINE
  5
53
330
4C
100
AcDbEntity
  8
0
  6
Continuous
 62
     0
370
     0
100
AcDbLine
 10
239.038483
 20
541.00761
 30
0.0
 11
317.938342
 21
541.00761
 31
0.0
  0
ARC
  5
54
330
4C
100
AcDbEntity
  8
0
  6
Continuous
 62
     0
370
     0
100
AcDbCircle
 10
415.038483
 20
551.007615
 30
0.0
 40
9.999999999994508
100
AcDbArc
 50
270.0
 51
360.0
  0
LINE
  5
55
330
4C
100
AcDbEntity
  8
0
  6
Continuous
 62
     0
370
     0
100
AcDbLine
 10
425.038483
 20
551.007615
 30
0.0
 11
425.038483
 21
573.00761
 31
0.0
  0
ARC
  5
56
330
4C
100
AcDbEntity
  8
0
  6
Continuous
 62
     0
370
     0
100
AcDbCircle
 10
415.038483
 20
573.00761
 30
0.0
 40
9.999999999999247
100
AcDbArc
 50
360.0
 51
90.0
  0
LINE
  5
57
330
4C
100
AcDbEntity
  8
0
  6
Continuous
 62
     0
370
     0
100
AcDbLine
 10
415.038483
 20
583.00761
 30
0.0
 11
361.038339
 21
583.00761
 31
0.0
  0
LINE
  5
58
330
4C
100
AcDbEntity
  8
0
  6
Continuous
 62
     0
370
     0
100
AcDbLine
 10
361.038339
 20
583.00761
 30
0.0
 11
361.038339
 21
557.00761
 31
0.0
  0
LINE
  5
59
330
4C
100
AcDbEntity
  8
0
  6
Continuous
 62
     0
370
     0
100
AcDbLine
 10
315.038323
 20
557.00761
 30
0.0
 11
293.038339
 21
557.00761
 31
0.0
  0
LINE
  5
5A
330
4C
100
AcDbEntity
  8
0
  6
Continuous
 62
     0
370
     0
100
AcDbLine
 10
361.038339
 20
557.00761
 30
0.0
 11
339.03835
 21
557.00761
 31
0.0
  0
LINE
  5
5B
330
4C
100
AcDbEntity
  8
0
  6
Continuous
 62
     0
370
     0
100
AcDbLine
 10
317.038339
 20
583.00761
 30
0.0
 11
317.038339
 21
585.00761
 31
0.0
  0
LINE
  5
5C
330
4C
100
AcDbEntity
  8
0
  6
Continuous
 62
     0
370
    30
100
AcDbLine
 10
317.038339
 20
585.00761
 30
0.0
 11
307.038339
 21
585.00761
 31
0.0
  0
ARC
  5
5D
330
4C
100
AcDbEntity
  8
0
  6
Continuous
 62
     0
370
    30
100
AcDbCircle
 10
307.038339
 20
583.00761
 30
0.0
 40
2.000000000011767
100
AcDbArc
 50
90.0
 51
180.0
  0
LINE
  5
5E
330
4C
100
AcDbEntity
  8
0
  6
Continuous
 62
     0
370
     0
100
AcDbLine
 10
305.038339
 20
583.00761
 30
0.0
 11
317.038339
 21
583.00761
 31
0.0
  0
LINE
  5
5F
330
4C
100
AcDbEntity
  8
0
  6
Continuous
 62
     0
370
    30
100
AcDbLine
 10
307.038339
 20
585.00761
 30
0.0
 11
293.038339
 21
585.00761
 31
0.0
  0
LINE
  5
60
330
4C
100
AcDbEntity
  8
0
  6
Continuous
 62
     0
370
     0
100
AcDbLine
 10
293.038339
 20
585.00761
 30
0.0
 11
293.038339
 21
583.00761
 31
0.0
  0
LINE
  5
61
330
4C
100
AcDbEntity
  8
0
  6
Continuous
 62
     0
370
     0
100
AcDbLine
 10
293.038339
 20
583.00761
 30
0.0
 11
305.038339
 21
583.00761
 31
0.0
  0
LINE
  5
62
330
4C
100
AcDbEntity
  8
0
  6
Continuous
 62
     0
370
    30
100
AcDbLine
 10
293.038339
 20
585.00761
 30
0.0
 11
239.038483
 21
585.00761
 31
0.0
  0
LINE
  5
63
330
4C
100
AcDbEntity
  8
0
  6
Continuous
 62
     0
370
     0
100
AcDbLine
 10
239.038483
 20
585.00761
 30
0.0
 11
239.038483
 21
583.00761
 31
0.0
  0
ARC
  5
64
330
4C
100
AcDbEntity
  8
0
  6
Continuous
 62
     0
370
    30
100
AcDbCircle
 10
239.038483
 20
573.00761
 30
0.0
 40
12.00000000000041
100
AcDbArc
 50
90.0
 51
180.0
  0
LINE
  5
65
330
4C
100
AcDbEntity
  8
0
  6
Continuous
 62
     0
370
     0
100
AcDbLine
 10
227.038483
 20
573.00761
 30
0.0
 11
229.038483
 21
573.00761
 31
0.0
  0
LINE
  5
66
330
4C
100
AcDbEntity
  8
0
  6
Continuous
 62
     0
370
    30
100
AcDbLine
 10
227.038483
 20
573.00761
 30
0.0
 11
227.038483
 21
551.007615
 31
0.0
  0
LINE
  5
67
330
4C
100
AcDbEntity
  8
0
  6
Continuous
 62
     0
370
     0
100
AcDbLine
 10
227.038483
 20
551.007615
 30
0.0
 11
229.038483
 21
551.007615
 31
0.0
  0
ARC
  5
68
330
4C
100
AcDbEntity
  8
0
  6
Continuous
 62
     0
370
    30
100
AcDbCircle
 10
239.038483
 20
551.007615
 30
0.0
 40
11.99999999999972
100
AcDbArc
 50
180.0
 51
270.0
  0
LINE
  5
69
330
4C
100
AcDbEntity
  8
0
  6
Continuous
 62
     0
370
     0
100
AcDbLine
 10
239.038483
 20
539.007615
 30
0.0
 11
239.038483
 21
541.007615
 31
0.0
  0
LINE
  5
6A
330
4C
100
AcDbEntity
  8
0
  6
Continuous
 62
     0
370
    30
100
AcDbLine
 10
239.038483
 20
539.00761
 30
0.0
 11
415.038483
 21
539.00761
 31
0.0
  0
LINE
  5
6B
330
4C
100
AcDbEntity
  8
0
  6
Continuous
 62
     0
370
     0
100
AcDbLine
 10
415.038483
 20
539.00761
 30
0.0
 11
415.038483
 21
541.00761
 31
0.0
  0
ARC
  5
6C
330
4C
100
AcDbEntity
  8
0
  6
Continuous
 62
     0
370
    30
100
AcDbCircle
 10
415.038483
 20
551.007615
 30
0.0
 40
11.99999999999877
100
AcDbArc
 50
270.0
 51
360.0
  0
LINE
  5
6D
330
4C
100
AcDbEntity
  8
0
  6
Continuous
 62
     0
370
     0
100
AcDbLine
 10
427.038483
 20
551.007615
 30
0.0
 11
425.038483
 21
551.007615
 31
0.0
  0
LINE
  5
6E
330
4C
100
AcDbEntity
  8
0
  6
Continuous
 62
     0
370
    30
100
AcDbLine
 10
427.038483
 20
551.007615
 30
0.0
 11
427.038483
 21
573.00761
 31
0.0
  0
LINE
  5
6F
330
4C
100
AcDbEntity
  8
0
  6
Continuous
 62
     0
370
     0
100
AcDbLine
 10
427.038483
 20
573.00761
 30
0.0
 11
425.038483
 21
573.00761
 31
0.0
  0
ARC
  5
70
330
4C
100
AcDbEntity
  8
0
  6
Continuous
 62
     0
370
    30
100
AcDbCircle
 10
415.038483
 20
573.00761
 30
0.0
 40
11.99999999999695
100
AcDbArc
 50
360.0
 51
90.0
  0
LINE
  5
71
330
4C
100
AcDbEntity
  8
0
  6
Continuous
 62
     0
370
     0
100
AcDbLine
 10
415.038483
 20
585.00761
 30
0.0
 11
415.038483
 21
583.00761
 31
0.0
  0
LINE
  5
72
330
4C
100
AcDbEntity
  8
0
  6
Continuous
 62
     0
370
    30
100
AcDbLine
 10
415.038483
 20
585.00761
 30
0.0
 11
361.038339
 21
585.00761
 31
0.0
  0
LINE
  5
73
330
4C
100
AcDbEntity
  8
0
  6
Continuous
 62
     0
370
     0
100
AcDbLine
 10
361.038339
 20
585.00761
 30
0.0
 11
361.038339
 21
583.00761
 31
0.0
  0
LINE
  5
74
330
4C
100
AcDbEntity
  8
0
  6
Continuous
 62
     0
370
    30
100
AcDbLine
 10
361.038339
 20
585.00761
 30
0.0
 11
347.038339
 21
585.00761
 31
0.0
  0
LINE
  5
75
330
4C
100
AcDbEntity
  8
0
  6
Continuous
 62
     0
370
     0
100
AcDbLine
 10
349.038339
 20
583.00761
 30
0.0
 11
361.038339
 21
583.00761
 31
0.0
  0
ARC
  5
76
330
4C
100
AcDbEntity
  8
0
  6
Continuous
 62
     0
370
    30
100
AcDbCircle
 10
347.038339
 20
583.00761
 30
0.0
 40
2.0
100
AcDbArc
 50
360.0
 51
90.0
  0
LINE
  5
77
330
4C
100
AcDbEntity
  8
0
  6
Continuous
 62
     0
370
    30
100
AcDbLine
 10
347.038339
 20
585.00761
 30
0.0
 11
337.038339
 21
585.00761
 31
0.0
  0
LINE
  5
78
330
4C
100
AcDbEntity
  8
0
  6
Continuous
 62
     0
370
     0
100
AcDbLine
 10
337.038339
 20
585.00761
 30
0.0
 11
337.038339
 21
583.00761
 31
0.0
  0
LINE
  5
79
330
4C
100
AcDbEntity
  8
0
  6
Continuous
 62
     0
370
     0
100
AcDbLine
 10
337.038339
 20
583.00761
 30
0.0
 11
349.038339
 21
583.00761
 31
0.0
  0
LINE
  5
7A
330
4C
100
AcDbEntity
  8
0
  6
Continuous
 62
     0
370
     0
100
AcDbLine
 10
317.038339
 20
583.00761
 30
0.0
 11
337.038339
 21
583.00761
 31
0.0
  0
LINE
  5
7B
330
4C
100
AcDbEntity
  8
0
  6
Continuous
 62
     0
370
    30
100
AcDbLine
 10
337.038339
 20
585.00761
 30
0.0
 11
317.038339
 21
585.00761
 31
0.0
  0
LINE
  5
7C
330
4C
100
AcDbEntity
  8
0
  6
Continuous
 62
     0
370
     0
100
AcDbLine
 10
305.038339
 20
561.007589
 30
0.0
 11
301.43659
 21
561.007589
 31
0.0
  0
LWPOLYLINE
  5
7D
330
4C
100
AcDbEntity
  8
0
  6
Continuous
 62
     0
370
     0
100
AcDbPolyline
 90
        9
 70
     0
 43
0.0
 10
301.436584
 20
561.007629
 10
300.967743
 20
560.975525
 10
300.480682
 20
560.886902
 10
299.980255
 20
560.748718
 10
299.469513
 20
560.570435
 10
298.95105
 20
560.359558
 10
298.426361
 20
560.122437
 10
297.897003
 20
559.863098
 10
297.294495
 20
559.547852
  0
LINE
  5
7E
330
4C
100
AcDbEntity
  8
0
  6
Continuous
 62
     0
370
     0
100
AcDbLine
 10
297.2945
 20
559.547878
 30
0.0
 11
296.964747
 21
559.367945
 31
0.0
  0
LWPOLYLINE
  5
7F
330
4C
100
AcDbEntity
  8
0
  6
Continuous
 62
     0
370
     0
100
AcDbPolyline
 90
        4
 70
     0
 43
0.0
 10
296.964752
 20
559.36792
 10
295.675659
 20
558.627258
 10
294.375671
 20
557.838928
 10
293.03833
 20
557.007629
  0
LWPOLYLINE
  5
80
330
4C
100
AcDbEntity
  8
0
  6
Continuous
 62
     0
370
     0
100
AcDbPolyline
 90
        3
 70
     0
 43
0.0
 10
293.03833
 20
557.007629
 10
295.328491
 20
557.614929
 10
297.619141
 20
558.187805
  0
LINE
  5
81
330
4C
100
AcDbEntity
  8
0
  6
Continuous
 62
     0
370
     0
100
AcDbLine
 10
297.619148
 20
558.187777
 30
0.0
 11
298.00386
 21
558.277744
 31
0.0
  0
LWPOLYLINE
  5
82
330
4C
100
AcDbEntity
  8
0
  6
Continuous
 62
     0
370
     0
100
AcDbPolyline
 90
        7
 70
     0
 43
0.0
 10
298.003845
 20
558.277771
 10
298.811584
 20
558.458069
 10
299.615906
 20
558.622986
 10
300.415588
 20
558.767944
 10
301.208954
 20
558.886719
 10
301.993469
 20
558.971313
 10
302.836304
 20
559.007629
  0
LWPOLYLINE
  5
83
330
4C
100
AcDbEntity
  8
0
  6
Continuous
 62
     0
370
     0
100
AcDbPolyline
 90
        7
 70
     0
 43
0.0
 10
351.240387
 20
559.007629
 10
352.008392
 20
558.977295
 10
352.791656
 20
558.89679
 10
353.583862
 20
558.780701
 10
354.382477
 20
558.637817
 10
355.186188
 20
558.474792
 10
356.072815
 20
558.277771
  0
LINE
  5
84
330
4C
100
AcDbEntity
  8
0
  6
Continuous
 62
     0
370
     0
100
AcDbLine
 10
356.072818
 20
558.277744
 30
0.0
 11
356.45753
 21
558.187777
 31
0.0
  0
LWPOLYLINE
  5
85
330
4C
100
AcDbEntity
  8
0
  6
Continuous
 62
     0
370
     0
100
AcDbPolyline
 90
        3
 70
     0
 43
0.0
 10
356.45752
 20
558.187805
 10
358.739929
 20
557.617126
 10
361.03833
 20
557.007629
  0
LWPOLYLINE
  5
86
330
4C
100
AcDbEntity
  8
0
  6
Continuous
 62
     0
370
     0
100
AcDbPolyline
 90
        4
 70
     0
 43
0.0
 10
361.03833
 20
557.007629
 10
359.738037
 20
557.81604
 10
358.437897
 20
558.605347
 10
357.111938
 20
559.36792
  0
LINE
  5
87
330
4C
100
AcDbEntity
  8
0
  6
Continuous
 62
     0
370
     0
100
AcDbLine
 10
357.111931
 20
559.367945
 30
0.0
 11
356.78218
 21
559.547877
 31
0.0
  0
LWPOLYLINE
  5
88
330
4C
100
AcDbEntity
  8
0
  6
Continuous
 62
     0
370
     0
100
AcDbPolyline
 90
        9
 70
     0
 43
0.0
 10
356.782166
 20
559.547852
 10
356.248444
 20
559.828491
 10
355.718262
 20
560.091309
 10
355.192413
 20
560.331909
 10
354.672211
 20
560.545532
 10
354.159546
 20
560.727173
 10
353.657135
 20
560.870667
 10
353.167847
 20
560.966858
 10
352.640076
 20
561.007629
  0
LINE
  5
89
330
4C
100
AcDbEntity
  8
0
  6
Continuous
 62
     0
370
     0
100
AcDbLine
 10
352.640089
 20
561.007589
 30
0.0
 11
349.038339
 21
561.007589
 31
0.0
  0
LINE
  5
8A
330
4C
100
AcDbEntity
  8
0
  6
Continuous
 62
     0
370
    30
100
AcDbLine
 10
302.836298
 20
559.007589
 30
0.0
 11
307.038339
 21
559.007589
 31
0.0
  0
LINE
  5
8B
330
4C
100
AcDbEntity
  8
0
  6
Continuous
 62
     0
370
    30
100
AcDbLine
 10
307.038339
 20
559.007589
 30
0.0
 11
317.038339
 21
559.007589
 31
0.0
  0
LINE
  5
8C
330
4C
100
AcDbEntity
  8
0
  6
Continuous
 62
     0
370
    30
100
AcDbLine
 10
317.038339
 20
559.007589
 30
0.0
 11
337.038339
 21
559.007589
 31
0.0
  0
LINE
  5
8D
330
4C
100
AcDbEntity
  8
0
  6
Continuous
 62
     0
370
    30
100
AcDbLine
 10
337.038339
 20
559.007589
 30
0.0
 11
347.038339
 21
559.007589
 31
0.0
  0
LINE
  5
8E
330
4C
100
AcDbEntity
  8
0
  6
Continuous
 62
     0
370
    30
100
AcDbLine
 10
347.038339
 20
559.007589
 30
0.0
 11
351.24038
 21
559.007589
 31
0.0
  0
LINE
  5
8F
330
4C
100
AcDbEntity
  8
0
  6
Continuous
 62
     0
370
    30
100
AcDbLine
 10
349.038339
 20
583.00761
 30
0.0
 11
349.038339
 21
561.007589
 31
0.0
  0
LINE
  5
90
330
4C
100
AcDbEntity
  8
0
  6
Continuous
 62
     0
370
     0
100
AcDbLine
 10
337.038339
 20
583.00761
 30
0.0
 11
337.038339
 21
561.007589
 31
0.0
  0
LINE
  5
91
330
4C
100
AcDbEntity
  8
0
  6
Continuous
 62
     0
370
     0
100
AcDbLine
 10
337.038339
 20
561.007589
 30
0.0
 11
349.038339
 21
561.007589
 31
0.0
  0
LINE
  5
92
330
4C
100
AcDbEntity
  8
0
  6
Continuous
 62
     0
370
     0
100
AcDbLine
 10
317.038339
 20
583.00761
 30
0.0
 11
317.038339
 21
561.007589
 31
0.0
  0
LINE
  5
93
330
4C
100
AcDbEntity
  8
0
  6
Continuous
 62
     0
370
     0
100
AcDbLine
 10
317.038339
 20
561.007589
 30
0.0
 11
337.038339
 21
561.007589
 31
0.0
  0
LINE
  5
94
330
4C
100
AcDbEntity
  8
0
  6
Continuous
 62
     0
370
    30
100
AcDbLine
 10
305.038339
 20
583.00761
 30
0.0
 11
305.038339
 21
561.007589
 31
0.0
  0
LINE
  5
95
330
4C
100
AcDbEntity
  8
0
  6
Continuous
 62
     0
370
     0
100
AcDbLine
 10
305.038339
 20
561.007589
 30
0.0
 11
317.038339
 21
561.007589
 31
0.0
  0
LWPOLYLINE
  5
96
330
4C
100
AcDbEntity
  8
0
  6
Continuous
 62
     0
370
     0
100
AcDbPolyline
 90
        5
 70
     0
 43
0.0
 10
298.003845
 20
558.277771
 10
297.829407
 20
558.521851
 10
297.660034
 20
558.795837
 10
297.500732
 20
559.091736
 10
297.294495
 20
559.547852
  0
LWPOLYLINE
  5
97
330
4C
100
AcDbEntity
  8
0
  6
Continuous
 62
     0
370
     0
100
AcDbPolyline
 90
        4
 70
     0
 43
0.0
 10
296.964752
 20
559.36792
 10
297.150208
 20
558.967224
 10
297.358521
 20
558.586182
 10
297.619141
 20
558.187805
  0
LWPOLYLINE
  5
98
330
4C
100
AcDbEntity
  8
0
  6
Continuous
 62
     0
370
     0
100
AcDbPolyline
 90
        9
 70
     0
 43
0.0
 10
301.436584
 20
561.007629
 10
301.46344
 20
560.619141
 10
301.542633
 20
560.243958
 10
301.671509
 20
559.898682
 10
301.844696
 20
559.596069
 10
302.055817
 20
559.347473
 10
302.296967
 20
559.162048
 10
302.559174
 20
559.047485
 10
302.836304
 20
559.007629
  0
ARC
  5
99
330
4C
100
AcDbEntity
  8
0
  6
Continuous
 62
     0
370
    30
100
AcDbCircle
 10
307.038339
 20
561.007589
 30
0.0
 40
2.0
100
AcDbArc
 50
180.0
 51
270.0
  0
LINE
  5
9A
330
4C
100
AcDbEntity
  8
0
  6
Continuous
 62
     0
370
     0
100
AcDbLine
 10
317.038339
 20
561.007589
 30
0.0
 11
317.038339
 21
559.007589
 31
0.0
  0
LINE
  5
9B
330
4C
100
AcDbEntity
  8
0
  6
Continuous
 62
     0
370
     0
100
AcDbLine
 10
337.038339
 20
559.007589
 30
0.0
 11
337.038339
 21
561.007589
 31
0.0
  0
ARC
  5
9C
330
4C
100
AcDbEntity
  8
0
  6
Continuous
 62
     0
370
    30
100
AcDbCircle
 10
347.038339
 20
561.007589
 30
0.0
 40
1.999999999997634
100
AcDbArc
 50
270.0
 51
360.0
  0
LWPOLYLINE
  5
9D
330
4C
100
AcDbEntity
  8
0
  6
Continuous
 62
     0
370
     0
100
AcDbPolyline
 90
        9
 70
     0
 43
0.0
 10
352.640076
 20
561.007568
 10
352.613251
 20
560.619141
 10
352.534058
 20
560.244019
 10
352.405212
 20
559.898682
 10
352.232025
 20
559.596069
 10
352.020905
 20
559.347473
 10
351.779755
 20
559.162048
 10
351.517487
 20
559.047485
 10
351.240387
 20
559.007568
  0
LWPOLYLINE
  5
9E
330
4C
100
AcDbEntity
  8
0
  6
Continuous
 62
     0
370
     0
100
AcDbPolyline
 90
        5
 70
     0
 43
0.0
 10
356.782166
 20
559.547852
 10
356.645844
 20
559.235535
 10
356.492828
 20
558.932251
 10
356.327576
 20
558.647034
 10
356.072815
 20
558.277771
  0
LWPOLYLINE
  5
9F
330
4C
100
AcDbEntity
  8
0
  6
Continuous
 62
     0
370
     0
100
AcDbPolyline
 90
        4
 70
     0
 43
0.0
 10
356.45752
 20
558.187805
 10
356.679718
 20
558.522278
 10
356.891022
 20
558.897949
 10
357.111938
 20
559.36792
  0
ARC
  5
A0
330
4C
100
AcDbEntity
  8
0
  6
Continuous
 62
     0
370
     0
100
AcDbCircle
 10
252.03834
 20
562.007595
 30
0.0
 40
31.00000000000023
100
AcDbArc
 50
180.0
 51
312.10349
  0
ARC
  5
A1
330
4C
100
AcDbEntity
  8
0
  6
Continuous
 62
     0
370
     0
100
AcDbCircle
 10
252.03834
 20
562.007595
 30
0.0
 40
31.00000000000023
100
AcDbArc
 50
47.896592
 51
180.0
  0
ARC
  5
A2
330
4C
100
AcDbEntity
  8
0
  6
Continuous
 62
     0
370
    30
100
AcDbCircle
 10
252.03834
 20
562.007595
 30
0.0
 40
31.50000000000026
100
AcDbArc
 50
180.0
 51
313.100337
  0
ARC
  5
A3
330
4C
100
AcDbEntity
  8
0
  6
Continuous
 62
     0
370
    30
100
AcDbCircle
 10
252.03834
 20
562.007595
 30
0.0
 40
31.50000000000026
100
AcDbArc
 50
46.899742
 51
180.0
  0
LINE
  5
A4
330
4C
100
AcDbEntity
  8
0
  6
Continuous
 62
     0
370
     0
100
AcDbLine
 10
306.038341
 20
585.593057
 30
0.0
 11
306.038341
 21
604.614491
 31
0.0
  0
LINE
  5
A5
330
4C
100
AcDbEntity
  8
0
  6
Continuous
 62
     0
370
    30
100
AcDbLine
 10
305.038341
 20
585.593057
 30
0.0
 11
305.038341
 21
604.61449
 31
0.0
  0
LINE
  5
A6
330
4C
100
AcDbEntity
  8
0
  6
Continuous
 62
     0
370
     0
100
AcDbLine
 10
306.038341
 20
604.614491
 30
0.0
 11
306.038341
 21
611.528311
 31
0.0
  0
LINE
  5
A7
330
4C
100
AcDbEntity
  8
0
  6
Continuous
 62
     0
370
    30
100
AcDbLine
 10
305.038341
 20
604.61449
 30
0.0
 11
305.038341
 21
612.515999
 31
0.0
  0
LINE
  5
A8
330
4C
100
AcDbEntity
  8
0
  6
Continuous
 62
     0
370
    30
100
AcDbLine
 10
305.038341
 20
612.515999
 30
0.0
 11
305.038341
 21
619.395272
 31
0.0
  0
LINE
  5
A9
330
4C
100
AcDbEntity
  8
0
  6
Continuous
 62
     0
370
     0
100
AcDbLine
 10
306.038341
 20
611.528311
 30
0.0
 11
306.038341
 21
618.407584
 31
0.0
  0
LWPOLYLINE
  5
AA
330
4C
100
AcDbEntity
  8
0
  6
Continuous
 62
     0
370
     0
100
AcDbPolyline
 90
       16
 70
     0
 43
0.0
 10
312.03833
 20
620.516663
 10
311.30777
 20
620.510498
 10
310.585175
 20
620.492249
 10
309.878479
 20
620.461914
 10
309.195343
 20
620.419983
 10
308.543274
 20
620.366882
 10
307.929382
 20
620.303101
 10
307.360352
 20
620.229492
 10
306.842407
 20
620.146729
 10
306.381256
 20
620.055725
 10
305.981873
 20
619.95752
 10
305.648621
 20
619.85321
 10
305.385162
 20
619.743896
 10
305.194397
 20
619.630737
 10
305.078369
 20
619.515015
 10
305.03833
 20
619.395264
  0
LWPOLYLINE
  5
AB
330
4C
100
AcDbEntity
  8
0
  6
Continuous
 62
     0
370
     0
100
AcDbPolyline
 90
       15
 70
     0
 43
0.0
 10
312.03833
 20
619.346497
 10
311.368103
 20
619.340637
 10
310.706238
 20
619.323059
 10
310.061066
 20
619.294067
 10
309.440643
 20
619.253967
 10
308.852722
 20
619.203247
 10
308.304688
 20
619.142578
 10
307.803406
 20
619.072693
 10
307.355103
 20
618.994507
 10
306.965454
 20
618.908997
 10
306.639282
 20
618.817139
 10
306.380707
 20
618.720215
 10
306.192963
 20
618.619385
 10
306.078369
 20
618.515869
 10
306.03833
 20
618.407593
  0
LINE
  5
AC
330
4C
100
AcDbEntity
  8
0
  6
Continuous
 62
     0
370
     0
100
AcDbLine
 10
342.038341
 20
620.516649
 30
0.0
 11
312.038341
 21
620.516649
 31
0.0
  0
LINE
  5
AD
330
4C
100
AcDbEntity
  8
0
  6
Continuous
 62
     0
370
     0
100
AcDbLine
 10
342.038341
 20
619.346518
 30
0.0
 11
312.038341
 21
619.346518
 31
0.0
  0
LWPOLYLINE
  5
AE
330
4C
100
AcDbEntity
  8
0
  6
Continuous
 62
     0
370
     0
100
AcDbPolyline
 90
       16
 70
     0
 43
0.0
 10
349.03833
 20
619.395264
 10
349.000122
 20
619.512329
 10
348.885834
 20
619.628052
 10
348.696777
 20
619.741272
 10
348.434998
 20
619.850708
 10
348.103363
 20
619.9552
 10
347.705475
 20
620.053528
 10
347.245667
 20
620.144653
 10
346.729004
 20
620.227661
 10
346.161102
 20
620.301514
 10
345.548187
 20
620.365479
 10
344.896912
 20
620.418884
 10
344.214447
 20
620.46106
 10
343.508179
 20
620.491638
 10
342.785858
 20
620.510254
 10
342.03833
 20
620.516663
  0
LWPOLYLINE
  5
AF
330
4C
100
AcDbEntity
  8
0
  6
Continuous
 62
     0
370
     0
100
AcDbPolyline
 90
       15
 70
     0
 43
0.0
 10
348.03833
 20
618.407593
 10
348.000793
 20
618.512451
 10
347.888611
 20
618.616028
 10
347.703186
 20
618.71698
 10
347.446838
 20
618.814087
 10
347.122803
 20
618.906067
 10
346.735138
 20
618.991882
 10
346.288666
 20
619.070312
 10
345.789001
 20
619.140442
 10
345.242371
 20
619.201416
 10
344.65564
 20
619.252502
 10
344.036133
 20
619.292969
 10
343.391632
 20
619.322327
 10
342.730194
 20
619.340271
 10
342.03833
 20
619.346497
  0
LINE
  5
B0
330
4C
100
AcDbEntity
  8
0
  6
Continuous
 62
     0
370
    30
100
AcDbLine
 10
349.038341
 20
612.515999
 30
0.0
 11
349.038341
 21
619.395272
 31
0.0
  0
LINE
  5
B1
330
4C
100
AcDbEntity
  8
0
  6
Continuous
 62
     0
370
     0
100
AcDbLine
 10
348.038341
 20
611.528311
 30
0.0
 11
348.038341
 21
618.407584
 31
0.0
  0
LINE
  5
B2
330
4C
100
AcDbEntity
  8
0
  6
Continuous
 62
     0
370
     0
100
AcDbLine
 10
348.038341
 20
604.614491
 30
0.0
 11
348.038341
 21
611.528311
 31
0.0
  0
LINE
  5
B3
330
4C
100
AcDbEntity
  8
0
  6
Continuous
 62
     0
370
    30
100
AcDbLine
 10
349.038341
 20
604.61449
 30
0.0
 11
349.038341
 21
612.515999
 31
0.0
  0
LINE
  5
B4
330
4C
100
AcDbEntity
  8
0
  6
Continuous
 62
     0
370
     0
100
AcDbLine
 10
348.038341
 20
585.593057
 30
0.0
 11
348.038341
 21
604.614491
 31
0.0
  0
LINE
  5
B5
330
4C
100
AcDbEntity
  8
0
  6
Continuous
 62
     0
370
    30
100
AcDbLine
 10
349.038341
 20
585.593057
 30
0.0
 11
349.038341
 21
604.61449
 31
0.0
  0
LINE
  5
B6
330
4C
100
AcDbEntity
  8
0
  6
Continuous
 62
     0
370
     0
100
AcDbLine
 10
306.038341
 20
604.61449
 30
0.0
 11
305.038341
 21
604.61449
 31
0.0
  0
ELLIPSE
  5
B7
330
4C
100
AcDbEntity
  8
0
  6
Continuous
 62
     0
370
     0
100
AcDbEllipse
 10
306.038341
 20
612.515999
 30
0.0
 11
-1.000000000000009
 21
6.123233995736819E-17
 31
0.0
210
0.0
220
0.0
230
1.0
 40
0.987688
 41
6.283185307179586
 42
7.853981633974483
  0
ELLIPSE
  5
B8
330
4C
100
AcDbEntity
  8
0
  6
Continuous
 62
     0
370
     0
100
AcDbEllipse
 10
306.038341
 20
619.395272
 30
0.0
 11
1.0
 21
-2.673591188859903E-15
 31
0.0
210
0.0
220
0.0
230
-1.0
 40
0.987688
 41
1.570796326794894
 42
3.141592653589776
  0
LINE
  5
B9
330
4C
100
AcDbEntity
  8
0
  6
Continuous
 62
     0
370
     0
100
AcDbLine
 10
312.038341
 20
620.516649
 30
0.0
 11
312.038341
 21
619.346518
 31
0.0
  0
LINE
  5
BA
330
4C
100
AcDbEntity
  8
0
  6
Continuous
 62
     0
370
     0
100
AcDbLine
 10
342.038341
 20
620.516649
 30
0.0
 11
342.038341
 21
619.346518
 31
0.0
  0
LINE
  5
BB
330
4C
100
AcDbEntity
  8
0
  6
Continuous
 62
     0
370
     0
100
AcDbLine
 10
348.038341
 20
611.528311
 30
0.0
 11
306.038341
 21
611.528311
 31
0.0
  0
ELLIPSE
  5
BC
330
4C
100
AcDbEntity
  8
0
  6
Continuous
 62
     0
370
     0
100
AcDbEllipse
 10
348.038341
 20
619.395272
 30
0.0
 11
-1.0
 21
-2.551126508945169E-15
 31
0.0
210
0.0
220
0.0
230
1.0
 40
0.987688
 41
1.570796326794894
 42
3.141592653589776
  0
LINE
  5
BD
330
4C
100
AcDbEntity
  8
0
  6
Continuous
 62
     0
370
     0
100
AcDbLine
 10
315.03834
 20
604.614491
 30
0.0
 11
306.038341
 21
604.614491
 31
0.0
  0
LINE
  5
BE
330
4C
100
AcDbEntity
  8
0
  6
Continuous
 62
     0
370
     0
100
AcDbLine
 10
348.038341
 20
604.614491
 30
0.0
 11
339.038341
 21
604.614491
 31
0.0
  0
LINE
  5
BF
330
4C
100
AcDbEntity
  8
0
  6
Continuous
 62
     0
370
     0
100
AcDbLine
 10
348.038341
 20
604.61449
 30
0.0
 11
349.038341
 21
604.61449
 31
0.0
  0
ELLIPSE
  5
C0
330
4C
100
AcDbEntity
  8
0
  6
Continuous
 62
     0
370
     0
100
AcDbEllipse
 10
348.038341
 20
612.515999
 30
0.0
 11
1.000000000000009
 21
-6.123233995736819E-17
 31
0.0
210
0.0
220
0.0
230
-1.0
 40
0.987688
 41
0.0
 42
1.570796326794897
  0
LINE
  5
C1
330
4C
100
AcDbEntity
  8
0
  6
Continuous
 62
     0
370
    30
100
AcDbLine
 10
317.03834
 20
585.593057
 30
0.0
 11
306.038341
 21
585.593057
 31
0.0
  0
LINE
  5
C2
330
4C
100
AcDbEntity
  8
0
  6
Continuous
 62
     0
370
    30
100
AcDbLine
 10
348.038341
 20
585.593057
 30
0.0
 11
337.038339
 21
585.593057
 31
0.0
  0
LINE
  5
C3
330
4C
100
AcDbEntity
  8
0
  6
Continuous
 62
     0
370
    30
100
AcDbLine
 10
306.038341
 20
585.593057
 30
0.0
 11
305.038341
 21
585.593057
 31
0.0
  0
LINE
  5
C4
330
4C
100
AcDbEntity
  8
0
  6
Continuous
 62
     0
370
    30
100
AcDbLine
 10
348.038341
 20
585.593057
 30
0.0
 11
349.038341
 21
585.593057
 31
0.0
  0
LWPOLYLINE
  5
C5
330
4C
100
AcDbEntity
  8
0
  6
Continuous
 62
     0
370
     0
100
AcDbPolyline
 90
       16
 70
     0
 43
0.0
 10
349.03833
 20
621.362366
 10
349.000122
 20
621.479431
 10
348.885834
 20
621.595154
 10
348.696777
 20
621.708374
 10
348.434998
 20
621.81781
 10
348.103363
 20
621.922302
 10
347.705475
 20
622.02063
 10
347.245667
 20
622.111816
 10
346.729004
 20
622.194763
 10
346.161102
 20
622.268616
 10
345.548187
 20
622.332642
 10
344.896912
 20
622.385986
 10
344.214447
 20
622.428223
 10
343.508179
 20
622.45874
 10
342.785858
 20
622.477356
 10
342.03833
 20
622.483765
  0
LINE
  5
C6
330
4C
100
AcDbEntity
  8
0
  6
Continuous
 62
     0
370
     0
100
AcDbLine
 10
342.038341
 20
622.483767
 30
0.0
 11
312.038341
 21
622.483767
 31
0.0
  0
LWPOLYLINE
  5
C7
330
4C
100
AcDbEntity
  8
0
  6
Continuous
 62
     0
370
     0
100
AcDbPolyline
 90
       16
 70
     0
 43
0.0
 10
312.03833
 20
622.483765
 10
311.30777
 20
622.477661
 10
310.585175
 20
622.459351
 10
309.878479
 20
622.429077
 10
309.195343
 20
622.387085
 10
308.543274
 20
622.333984
 10
307.929382
 20
622.270264
 10
307.360352
 20
622.196594
 10
306.842407
 20
622.113831
 10
306.381256
 20
622.022827
 10
305.981873
 20
621.924683
 10
305.648621
 20
621.820312
 10
305.385162
 20
621.710999
 10
305.194397
 20
621.597839
 10
305.078369
 20
621.482117
 10
305.03833
 20
621.362366
  0
LINE
  5
C8
330
4C
100
AcDbEntity
  8
0
  6
Continuous
 62
     0
370
    30
100
AcDbLine
 10
349.038341
 20
619.395272
 30
0.0
 11
349.038341
 21
621.362391
 31
0.0
  0
LINE
  5
C9
330
4C
100
AcDbEntity
  8
0
  6
Continuous
 62
     0
370
     0
100
AcDbLine
 10
342.038341
 20
620.516649
 30
0.0
 11
342.038341
 21
622.483767
 31
0.0
  0
LINE
  5
CA
330
4C
100
AcDbEntity
  8
0
  6
Continuous
 62
     0
370
     0
100
AcDbLine
 10
312.038341
 20
620.516649
 30
0.0
 11
312.038341
 21
622.483767
 31
0.0
  0
LINE
  5
CB
330
4C
100
AcDbEntity
  8
0
  6
Continuous
 62
     0
370
     0
100
AcDbLine
 10
342.038341
 20
623.301324
 30
0.0
 11
342.038341
 21
622.483767
 31
0.0
  0
LINE
  5
CC
330
4C
100
AcDbEntity
  8
0
  6
Continuous
 62
     0
370
    30
100
AcDbLine
 10
305.038341
 20
619.395272
 30
0.0
 11
305.038341
 21
621.362391
 31
0.0
  0
LINE
  5
CD
330
4C
100
AcDbEntity
  8
0
  6
Continuous
 62
     0
370
     0
100
AcDbLine
 10
312.038341
 20
623.301324
 30
0.0
 11
312.038341
 21
622.483767
 31
0.0
  0
ARC
  5
CE
330
4C
100
AcDbEntity
  8
0
  6
Continuous
 62
     0
370
     0
100
AcDbCircle
 10
402.03834
 20
562.007595
 30
0.0
 40
31.00000000000023
100
AcDbArc
 50
227.89651
 51
132.103408
  0
ARC
  5
CF
330
4C
100
AcDbEntity
  8
0
  6
Continuous
 62
     0
370
    30
100
AcDbCircle
 10
402.03834
 20
562.007595
 30
0.0
 40
31.50000000000026
100
AcDbArc
 50
226.899663
 51
133.100258
  0
ARC
  5
D0
330
4C
100
AcDbEntity
  8
0
  6
Continuous
 62
     0
370
    30
100
AcDbCircle
 10
335.537651
 20
540.508264
 30
0.0
 40
0.5006981442812252
100
AcDbArc
 50
269.999995
 51
359.999995
  0
LINE
  5
D1
330
4C
100
AcDbEntity
  8
0
  6
Continuous
 62
     0
370
    30
100
AcDbLine
 10
336.038349
 20
540.508263
 30
0.0
 11
336.038349
 21
541.007566
 31
0.0
  0
LINE
  5
D2
330
4C
100
AcDbEntity
  8
0
  6
Continuous
 62
     0
370
    30
100
AcDbLine
 10
336.138329
 20
541.007566
 30
0.0
 11
337.438336
 21
542.307574
 31
0.0
  0
LINE
  5
D3
330
4C
100
AcDbEntity
  8
0
  6
Continuous
 62
     0
370
    30
100
AcDbLine
 10
337.438336
 20
542.307574
 30
0.0
 11
337.438337
 21
552.053968
 31
0.0
  0
LINE
  5
D4
330
4C
100
AcDbEntity
  8
0
  6
Continuous
 62
     0
370
    30
100
AcDbLine
 10
337.438337
 20
552.053968
 30
0.0
 11
336.23835
 21
553.253956
 31
0.0
  0
LINE
  5
D5
330
4C
100
AcDbEntity
  8
0
  6
Continuous
 62
     0
370
    30
100
AcDbLine
 10
336.23835
 20
553.253956
 30
0.0
 11
336.23835
 21
553.807298
 31
0.0
  0
ARC
  5
D6
330
4C
100
AcDbEntity
  8
0
  6
Continuous
 62
     0
370
    30
100
AcDbCircle
 10
336.438618
 20
553.807298
 30
0.0
 40
0.2002679970140918
100
AcDbArc
 50
89.999995
 51
179.999995
  0
ARC
  5
D7
330
4C
100
AcDbEntity
  8
0
  6
Continuous
 62
     0
370
    30
100
AcDbCircle
 10
338.838065
 20
554.207851
 30
0.0
 40
0.200285110191701
100
AcDbArc
 50
269.999995
 51
359.999995
  0
LINE
  5
D8
330
4C
100
AcDbEntity
  8
0
  6
Continuous
 62
     0
370
    30
100
AcDbLine
 10
339.03835
 20
554.207851
 30
0.0
 11
339.038351
 21
558.00761
 31
0.0
  0
LINE
  5
D9
330
4C
100
AcDbEntity
  8
0
  6
Continuous
 62
     0
370
    30
100
AcDbLine
 10
339.538341
 20
558.00761
 30
0.0
 11
340.038351
 21
558.50762
 31
0.0
  0
LINE
  5
DA
330
4C
100
AcDbEntity
  8
0
  6
Continuous
 62
     0
370
    30
100
AcDbLine
 10
340.038351
 20
558.50762
 30
0.0
 11
340.038351
 21
559.007614
 31
0.0
  0
LINE
  5
DB
330
4C
100
AcDbEntity
  8
0
  6
Continuous
 62
     0
370
    30
100
AcDbLine
 10
318.53902
 20
540.007567
 30
0.0
 11
335.53765
 21
540.007565
 31
0.0
  0
LINE
  5
DC
330
4C
100
AcDbEntity
  8
0
  6
Continuous
 62
     0
370
     0
100
AcDbLine
 10
318.038322
 20
540.508265
 30
0.0
 11
336.038349
 21
540.508263
 31
0.0
  0
LINE
  5
DD
330
4C
100
AcDbEntity
  8
0
  6
Continuous
 62
     0
370
    30
100
AcDbLine
 10
317.938342
 20
541.007567
 30
0.0
 11
336.138329
 21
541.007566
 31
0.0
  0
LINE
  5
DE
330
4C
100
AcDbEntity
  8
0
  6
Continuous
 62
     0
370
    30
100
AcDbLine
 10
316.638335
 20
542.307576
 30
0.0
 11
337.438336
 21
542.307574
 31
0.0
  0
LINE
  5
DF
330
4C
100
AcDbEntity
  8
0
  6
Continuous
 62
     0
370
    30
100
AcDbLine
 10
316.638336
 20
552.053969
 30
0.0
 11
337.438337
 21
552.053968
 31
0.0
  0
LINE
  5
E0
330
4C
100
AcDbEntity
  8
0
  6
Continuous
 62
     0
370
    30
100
AcDbLine
 10
317.838323
 20
553.253957
 30
0.0
 11
336.23835
 21
553.253956
 31
0.0
  0
LINE
  5
E1
330
4C
100
AcDbEntity
  8
0
  6
Continuous
 62
     0
370
     0
100
AcDbLine
 10
317.838323
 20
553.8073
 30
0.0
 11
336.23835
 21
553.807298
 31
0.0
  0
LINE
  5
E2
330
4C
100
AcDbEntity
  8
0
  6
Continuous
 62
     0
370
    30
100
AcDbLine
 10
315.238608
 20
554.007568
 30
0.0
 11
338.838065
 21
554.007566
 31
0.0
  0
LINE
  5
E3
330
4C
100
AcDbEntity
  8
0
  6
Continuous
 62
     0
370
     0
100
AcDbLine
 10
315.038323
 20
554.207853
 30
0.0
 11
339.03835
 21
554.207851
 31
0.0
  0
LINE
  5
E4
330
4C
100
AcDbEntity
  8
0
  6
Continuous
 62
     0
370
    30
100
AcDbLine
 10
336.288339
 20
558.00761
 30
0.0
 11
339.538341
 21
558.00761
 31
0.0
  0
LINE
  5
E5
330
4C
100
AcDbEntity
  8
0
  6
Continuous
 62
     0
370
    30
100
AcDbLine
 10
314.538333
 20
558.007612
 30
0.0
 11
317.788339
 21
558.007612
 31
0.0
  0
LINE
  5
E6
330
4C
100
AcDbEntity
  8
0
  6
Continuous
 62
     0
370
    30
100
AcDbLine
 10
336.288339
 20
558.50762
 30
0.0
 11
340.038351
 21
558.50762
 31
0.0
  0
LINE
  5
E7
330
4C
100
AcDbEntity
  8
0
  6
Continuous
 62
     0
370
    30
100
AcDbLine
 10
314.038323
 20
558.507622
 30
0.0
 11
317.788339
 21
558.507622
 31
0.0
  0
LINE
  5
E8
330
4C
100
AcDbEntity
  8
0
  6
Continuous
 62
     0
370
    30
100
AcDbLine
 10
337.038339
 20
585.007609
 30
0.0
 11
337.038339
 21
587.283468
 31
0.0
  0
LINE
  5
E9
330
4C
100
AcDbEntity
  8
0
  6
Continuous
 62
     0
370
    30
100
AcDbLine
 10
337.038339
 20
587.283468
 30
0.0
 11
334.788339
 21
587.886353
 31
0.0
  0
LINE
  5
EA
330
4C
100
AcDbEntity
  8
0
  6
Continuous
 62
     0
370
    30
100
AcDbLine
 10
334.788339
 20
587.886353
 30
0.0
 11
334.788339
 21
588.637594
 31
0.0
  0
ARC
  5
EB
330
4C
100
AcDbEntity
  8
0
  6
Continuous
 62
     0
370
    30
100
AcDbCircle
 10
336.538339
 20
589.137594
 30
0.0
 40
0.4999999999999983
100
AcDbArc
 50
269.999995
 51
359.999995
  0
LINE
  5
EC
330
4C
100
AcDbEntity
  8
0
  6
Continuous
 62
     0
370
    30
100
AcDbLine
 10
337.038339
 20
589.137593
 30
0.0
 11
337.03834
 21
601.636648
 31
0.0
  0
ARC
  5
ED
330
4C
100
AcDbEntity
  8
0
  6
Continuous
 62
     0
370
    30
100
AcDbCircle
 10
338.039286
 20
601.636648
 30
0.0
 40
1.000946087843413
100
AcDbArc
 50
90.054125
 51
179.999995
  0
ARC
  5
EE
330
4C
100
AcDbEntity
  8
0
  6
Continuous
 62
     0
370
    30
100
AcDbCircle
 10
338.037395
 20
603.638539
 30
0.0
 40
1.000946087858942
100
AcDbArc
 50
270.054125
 51
359.999995
  0
LINE
  5
EF
330
4C
100
AcDbEntity
  8
0
  6
Continuous
 62
     0
370
    30
100
AcDbLine
 10
339.038341
 20
603.638539
 30
0.0
 11
339.038342
 21
608.636648
 31
0.0
  0
ARC
  5
F0
330
4C
100
AcDbEntity
  8
0
  6
Continuous
 62
     0
370
    30
100
AcDbCircle
 10
338.037396
 20
608.636648
 30
0.0
 40
1.000946087843346
100
AcDbArc
 50
359.999995
 51
89.999995
  0
LINE
  5
F1
330
4C
100
AcDbEntity
  8
0
  6
Continuous
 62
     0
370
    30
100
AcDbLine
 10
337.038339
 20
587.283468
 30
0.0
 11
317.03834
 21
587.283469
 31
0.0
  0
LINE
  5
F2
330
4C
100
AcDbEntity
  8
0
  6
Continuous
 62
     0
370
    30
100
AcDbLine
 10
334.788339
 20
587.886353
 30
0.0
 11
319.28834
 21
587.886355
 31
0.0
  0
LINE
  5
F3
330
4C
100
AcDbEntity
  8
0
  6
Continuous
 62
     0
370
    30
100
AcDbLine
 10
336.538339
 20
588.637594
 30
0.0
 11
317.53834
 21
588.637595
 31
0.0
  0
LINE
  5
F4
330
4C
100
AcDbEntity
  8
0
  6
Continuous
 62
     0
370
     0
100
AcDbLine
 10
337.038339
 20
589.137593
 30
0.0
 11
317.03834
 21
589.137595
 31
0.0
  0
LINE
  5
F5
330
4C
100
AcDbEntity
  8
0
  6
Continuous
 62
     0
370
     0
100
AcDbLine
 10
337.03834
 20
601.636648
 30
0.0
 11
317.038341
 21
601.63665
 31
0.0
  0
LINE
  5
F6
330
4C
100
AcDbEntity
  8
0
  6
Continuous
 62
     0
370
    30
100
AcDbLine
 10
338.038341
 20
602.637593
 30
0.0
 11
316.038341
 21
602.637595
 31
0.0
  0
LINE
  5
F7
330
4C
100
AcDbEntity
  8
0
  6
Continuous
 62
     0
370
     0
100
AcDbLine
 10
339.038341
 20
603.638539
 30
0.0
 11
315.03834
 21
603.638541
 31
0.0
  0
LINE
  5
F8
330
4C
100
AcDbEntity
  8
0
  6
Continuous
 62
     0
370
     0
100
AcDbLine
 10
339.038342
 20
608.636648
 30
0.0
 11
315.038341
 21
608.63665
 31
0.0
  0
LINE
  5
F9
330
4C
100
AcDbEntity
  8
0
  6
Continuous
 62
     0
370
    30
100
AcDbLine
 10
338.037396
 20
609.637594
 30
0.0
 11
316.039287
 21
609.637596
 31
0.0
  0
LINE
  5
FA
330
4C
100
AcDbEntity
  8
0
  6
Continuous
 62
     0
370
    30
100
AcDbLine
 10
336.288339
 20
557.757589
 30
0.0
 11
317.788339
 21
557.757589
 31
0.0
  0
LINE
  5
FB
330
4C
100
AcDbEntity
  8
0
  6
Continuous
 62
     0
370
    30
100
AcDbLine
 10
317.788339
 20
559.007589
 30
0.0
 11
317.788339
 21
557.757589
 31
0.0
  0
LINE
  5
FC
330
4C
100
AcDbEntity
  8
0
  6
Continuous
 62
     0
370
    30
100
AcDbLine
 10
336.288339
 20
559.007589
 30
0.0
 11
336.288339
 21
557.757589
 31
0.0
  0
LWPOLYLINE
  5
FD
330
4C
100
AcDbEntity
  8
0
  6
Continuous
 62
     0
370
    30
100
AcDbPolyline
 90
       27
 70
     0
 43
0.0
 10
312.03833
 20
623.301331
 10
311.645294
 20
623.299316
 10
311.253052
 20
623.293396
 10
310.863434
 20
623.283569
 10
310.478333
 20
623.269897
 10
310.099518
 20
623.252319
 10
309.728546
 20
623.231018
 10
309.366516
 20
623.205933
 10
309.014587
 20
623.177246
 10
308.673889
 20
623.145081
 10
308.345551
 20
623.109375
 10
308.030701
 20
623.070312
 10
307.730499
 20
623.028015
 10
307.445862
 20
622.982422
 10
307.177002
 20
622.933472
 10
306.92395
 20
622.880981
 10
306.686707
 20
622.824768
 10
306.465179
 20
622.764648
 10
306.258026
 20
622.69928
 10
306.062805
 20
622.626343
 10
305.876862
 20
622.543335
 10
305.696991
 20
622.444092
 10
305.519745
 20
622.319092
 10
305.346558
 20
622.154663
 10
305.192108
 20
621.938782
 10
305.081787
 20
621.669983
 10
305.03833
 20
621.362366
  0
LINE
  5
FE
330
4C
100
AcDbEntity
  8
0
  6
Continuous
 62
     0
370
    30
100
AcDbLine
 10
342.038341
 20
623.301324
 30
0.0
 11
312.038341
 21
623.301324
 31
0.0
  0
LWPOLYLINE
  5
FF
330
4C
100
AcDbEntity
  8
0
  6
Continuous
 62
     0
370
    30
100
AcDbPolyline
 90
       27
 70
     0
 43
0.0
 10
349.03833
 20
621.362366
 10
348.996826
 20
621.660767
 10
348.888
 20
621.930969
 10
348.735352
 20
622.149353
 10
348.562012
 20
622.31488
 10
348.384857
 20
622.440796
 10
348.204926
 20
622.541016
 10
348.01947
 20
622.624573
 10
347.824829
 20
622.696899
 10
347.617737
 20
622.762573
 10
347.396576
 20
622.82312
 10
347.160095
 20
622.879395
 10
346.90741
 20
622.932007
 10
346.638763
 20
622.98114
 10
346.354523
 20
623.026855
 10
346.055145
 20
623.069214
 10
345.741089
 20
623.108276
 10
345.413269
 20
623.144043
 10
345.072937
 20
623.176331
 10
344.721191
 20
623.205139
 10
344.359222
 20
623.230286
 10
343.98822
 20
623.25177
 10
343.609344
 20
623.269409
 10
343.224304
 20
623.283264
 10
342.834869
 20
623.293213
 10
342.442871
 20
623.299194
 10
342.03833
 20
623.301331
  0
ARC
  5
100
330
4C
100
AcDbEntity
  8
0
  6
Continuous
 62
     0
370
    30
100
AcDbCircle
 10
327.241412
 20
582.206806
 30
0.0
 40
20.49999999991807
100
AcDbArc
 50
170.492135
 51
172.147423
  0
ARC
  5
101
330
4C
100
AcDbEntity
  8
0
  6
Continuous
 62
     0
370
    30
100
AcDbCircle
 10
326.835266
 20
582.206806
 30
0.0
 40
20.49999999991807
100
AcDbArc
 50
7.852569
 51
9.507865
  0
LINE
  5
102
330
4C
100
AcDbEntity
  8
0
  6
Continuous
 62
     0
370
    30
100
AcDbLine
 10
314.038323
 20
558.507622
 30
0.0
 11
314.038323
 21
559.007616
 31
0.0
  0
LINE
  5
103
330
4C
100
AcDbEntity
  8
0
  6
Continuous
 62
     0
370
    30
100
AcDbLine
 10
314.538333
 20
558.007612
 30
0.0
 11
314.038323
 21
558.507622
 31
0.0
  0
LINE
  5
104
330
4C
100
AcDbEntity
  8
0
  6
Continuous
 62
     0
370
    30
100
AcDbLine
 10
315.038323
 20
554.207853
 30
0.0
 11
315.038323
 21
558.007612
 31
0.0
  0
ARC
  5
105
330
4C
100
AcDbEntity
  8
0
  6
Continuous
 62
     0
370
    30
100
AcDbCircle
 10
315.238608
 20
554.207853
 30
0.0
 40
0.200285110191701
100
AcDbArc
 50
179.999995
 51
269.999995
  0
ARC
  5
106
330
4C
100
AcDbEntity
  8
0
  6
Continuous
 62
     0
370
    30
100
AcDbCircle
 10
317.638055
 20
553.8073
 30
0.0
 40
0.2002679970140918
100
AcDbArc
 50
359.999995
 51
89.999995
  0
LINE
  5
107
330
4C
100
AcDbEntity
  8
0
  6
Continuous
 62
     0
370
    30
100
AcDbLine
 10
317.838323
 20
553.253957
 30
0.0
 11
317.838323
 21
553.8073
 31
0.0
  0
LINE
  5
108
330
4C
100
AcDbEntity
  8
0
  6
Continuous
 62
     0
370
    30
100
AcDbLine
 10
316.638336
 20
552.053969
 30
0.0
 11
317.838323
 21
553.253957
 31
0.0
  0
LINE
  5
109
330
4C
100
AcDbEntity
  8
0
  6
Continuous
 62
     0
370
    30
100
AcDbLine
 10
316.638335
 20
542.307576
 30
0.0
 11
316.638336
 21
552.053969
 31
0.0
  0
LINE
  5
10A
330
4C
100
AcDbEntity
  8
0
  6
Continuous
 62
     0
370
    30
100
AcDbLine
 10
317.938342
 20
541.007567
 30
0.0
 11
316.638335
 21
542.307576
 31
0.0
  0
LINE
  5
10B
330
4C
100
AcDbEntity
  8
0
  6
Continuous
 62
     0
370
    30
100
AcDbLine
 10
318.038322
 20
540.508265
 30
0.0
 11
318.038322
 21
541.007567
 31
0.0
  0
ARC
  5
10C
330
4C
100
AcDbEntity
  8
0
  6
Continuous
 62
     0
370
    30
100
AcDbCircle
 10
318.53902
 20
540.508265
 30
0.0
 40
0.5006981442812252
100
AcDbArc
 50
179.999995
 51
269.999995
  0
ARC
  5
10D
330
4C
100
AcDbEntity
  8
0
  6
Continuous
 62
     0
370
    30
100
AcDbCircle
 10
316.039287
 20
608.63665
 30
0.0
 40
1.000946087843346
100
AcDbArc
 50
89.999995
 51
179.999995
  0
LINE
  5
10E
330
4C
100
AcDbEntity
  8
0
  6
Continuous
 62
     0
370
    30
100
AcDbLine
 10
315.03834
 20
603.638541
 30
0.0
 11
315.038341
 21
608.63665
 31
0.0
  0
ARC
  5
10F
330
4C
100
AcDbEntity
  8
0
  6
Continuous
 62
     0
370
    30
100
AcDbCircle
 10
316.039286
 20
603.638541
 30
0.0
 40
1.000946087858942
100
AcDbArc
 50
179.999995
 51
269.945865
  0
ARC
  5
110
330
4C
100
AcDbEntity
  8
0
  6
Continuous
 62
     0
370
    30
100
AcDbCircle
 10
316.037395
 20
601.63665
 30
0.0
 40
1.000946087843413
100
AcDbArc
 50
359.999995
 51
89.945865
  0
LINE
  5
111
330
4C
100
AcDbEntity
  8
0
  6
Continuous
 62
     0
370
    30
100
AcDbLine
 10
317.03834
 20
589.137595
 30
0.0
 11
317.038341
 21
601.63665
 31
0.0
  0
ARC
  5
112
330
4C
100
AcDbEntity
  8
0
  6
Continuous
 62
     0
370
    30
100
AcDbCircle
 10
317.53834
 20
589.137595
 30
0.0
 40
0.4999999999999983
100
AcDbArc
 50
179.999995
 51
269.999995
  0
LINE
  5
113
330
4C
100
AcDbEntity
  8
0
  6
Continuous
 62
     0
370
    30
100
AcDbLine
 10
319.28834
 20
587.886355
 30
0.0
 11
319.28834
 21
588.637595
 31
0.0
  0
LINE
  5
114
330
4C
100
AcDbEntity
  8
0
  6
Continuous
 62
     0
370
    30
100
AcDbLine
 10
317.03834
 20
587.283469
 30
0.0
 11
319.28834
 21
587.886355
 31
0.0
  0
LINE
  5
115
330
4C
100
AcDbEntity
  8
0
  6
Continuous
 62
     0
370
    30
100
AcDbLine
 10
317.03834
 20
585.007611
 30
0.0
 11
317.03834
 21
587.283469
 31
0.0
  0
ARC
  5
116
330
4C
100
AcDbEntity
  8
0
  6
Continuous
 62
     0
370
    30
100
AcDbCircle
 10
563.538341
 20
562.007595
 30
0.0
 40
15.50000000000005
100
AcDbArc
 50
303.256431
 51
56.743569
  0
ARC
  5
117
330
4C
100
AcDbEntity
  8
0
  6
Continuous
 62
     0
370
    30
100
AcDbCircle
 10
563.543963
 20
561.998502
 30
0.0
 40
15.48931225192274
100
AcDbArc
 50
297.289163
 51
303.257485
  0
ARC
  5
118
330
4C
100
AcDbEntity
  8
0
  6
Continuous
 62
     0
370
    30
100
AcDbCircle
 10
563.534121
 20
562.000681
 30
0.0
 40
15.49190396420772
100
AcDbArc
 50
236.742595
 51
243.584735
  0
ARC
  5
119
330
4C
100
AcDbEntity
  8
0
  6
Continuous
 62
     0
370
    30
100
AcDbCircle
 10
563.538341
 20
562.007595
 30
0.0
 40
15.50000000000005
100
AcDbArc
 50
123.256431
 51
236.743569
  0
ARC
  5
11A
330
4C
100
AcDbEntity
  8
0
  6
Continuous
 62
     0
370
    30
100
AcDbCircle
 10
585.023936
 20
565.239034
 30
0.0
 40
34.07853541318421
100
AcDbArc
 50
204.599353
 51
208.37008
  0
ARC
  5
11B
330
4C
100
AcDbEntity
  8
0
  6
Continuous
 62
     0
370
     0
100
AcDbCircle
 10
563.538839
 20
562.007595
 30
0.0
 40
14.50032657724757
100
AcDbArc
 50
130.934213
 51
229.065787
  0
LWPOLYLINE
  5
11C
330
4C
100
AcDbEntity
  8
0
  6
Continuous
 62
     0
370
    30
100
AcDbPolyline
 90
       15
 70
     0
 43
0.0
 10
554.03833
 20
572.962036
 10
554.117065
 20
573.132996
 10
554.196655
 20
573.303284
 10
554.277039
 20
573.472778
 10
554.357971
 20
573.641052
 10
554.439392
 20
573.807861
 10
554.521057
 20
573.972656
 10
554.602661
 20
574.134827
 10
554.683411
 20
574.293518
 10
554.762573
 20
574.44751
 10
554.838867
 20
574.593994
 10
554.9104
 20
574.729431
 10
554.972778
 20
574.846741
 10
555.018555
 20
574.932739
 10
555.03833
 20
574.969055
  0
LINE
  5
11D
330
4C
100
AcDbEntity
  8
0
  6
Continuous
 62
     0
370
     0
100
AcDbLine
 10
554.038341
 20
551.053144
 30
0.0
 11
554.038341
 21
572.962046
 31
0.0
  0
LINE
  5
11E
330
4C
100
AcDbEntity
  8
0
  6
Continuous
 62
     0
370
     0
100
AcDbLine
 10
573.038341
 20
572.962046
 30
0.0
 11
573.038341
 21
551.053144
 31
0.0
  0
ARC
  5
11F
330
4C
100
AcDbEntity
  8
0
  6
Continuous
 62
     0
370
     0
100
AcDbCircle
 10
563.538341
 20
562.007595
 30
0.0
 40
14.50000000000006
100
AcDbArc
 50
310.932725
 51
49.067275
  0
ARC
  5
120
330
4C
100
AcDbEntity
  8
0
  6
Continuous
 62
     0
370
    30
100
AcDbCircle
 10
542.386987
 20
558.942692
 30
0.0
 40
33.7053076697927
100
AcDbArc
 50
24.578468
 51
28.390965
  0
LINE
  5
121
330
4C
100
AcDbEntity
  8
0
  6
Continuous
 62
     0
370
    30
100
AcDbLine
 10
572.038341
 20
574.969077
 30
0.0
 11
572.038341
 21
549.046114
 31
0.0
  0
LWPOLYLINE
  5
122
330
4C
100
AcDbEntity
  8
0
  6
Continuous
 62
     0
370
    30
100
AcDbPolyline
 90
       15
 70
     0
 43
0.0
 10
572.03833
 20
549.046143
 10
572.055542
 20
549.078491
 10
572.100586
 20
549.161865
 10
572.162354
 20
549.277649
 10
572.233276
 20
549.412292
 10
572.309448
 20
549.558289
 10
572.388611
 20
549.711914
 10
572.469299
 20
549.870422
 10
572.55072
 20
550.032532
 10
572.632385
 20
550.197205
 10
572.713867
 20
550.364014
 10
572.794861
 20
550.532288
 10
572.875244
 20
550.701721
 10
572.954956
 20
550.87207
 10
573.03833
 20
551.053162
  0
LINE
  5
123
330
4C
100
AcDbEntity
  8
0
  6
Continuous
 62
     0
370
    30
100
AcDbLine
 10
555.038341
 20
549.046114
 30
0.0
 11
555.038341
 21
574.969077
 31
0.0
  0
LINE
  5
124
330
4C
100
AcDbEntity
  8
0
  6
Continuous
 62
     0
370
    30
100
AcDbLine
 10
563.538341
 20
791.648096
 30
0.0
 11
578.27182
 21
791.648096
 31
0.0
  0
LINE
  5
125
330
4C
100
AcDbEntity
  8
0
  6
Continuous
 62
     0
370
    30
100
AcDbLine
 10
548.804862
 20
791.648096
 30
0.0
 11
563.538341
 21
791.648096
 31
0.0
  0
LINE
  5
126
330
4C
100
AcDbEntity
  8
0
  6
Continuous
 62
     0
370
     0
100
AcDbLine
 10
563.538341
 20
790.649842
 30
0.0
 11
579.271818
 21
790.649842
 31
0.0
  0
LWPOLYLINE
  5
127
330
4C
100
AcDbEntity
  8
0
  6
Continuous
 62
     0
370
     0
100
AcDbPolyline
 90
       24
 70
     0
 43
0.0
 10
547.804871
 20
790.649841
 10
547.841431
 20
790.649841
 10
547.950867
 20
790.649841
 10
548.132629
 20
790.649841
 10
548.385986
 20
790.649841
 10
548.709656
 20
790.649841
 10
549.102173
 20
790.649841
 10
549.561829
 20
790.649841
 10
550.086243
 20
790.649841
 10
550.673218
 20
790.649841
 10
551.319946
 20
790.649841
 10
552.023315
 20
790.649841
 10
552.780151
 20
790.649841
 10
553.587036
 20
790.649841
 10
554.440063
 20
790.649841
 10
555.335388
 20
790.649841
 10
556.26886
 20
790.649841
 10
557.235962
 20
790.649841
 10
558.232239
 20
790.649841
 10
559.253174
 20
790.649841
 10
560.29425
 20
790.649841
 10
561.35083
 20
790.649841
 10
562.417358
 20
790.649841
 10
563.53833
 20
790.649841
  0
LINE
  5
128
330
4C
100
AcDbEntity
  8
0
  6
Continuous
 62
     0
370
     0
100
AcDbLine
 10
573.544234
 20
773.294971
 30
0.0
 11
573.544234
 21
723.647708
 31
0.0
  0
LWPOLYLINE
  5
129
330
4C
100
AcDbEntity
  8
0
  6
Continuous
 62
     0
370
     0
100
AcDbPolyline
 90
       24
 70
     0
 43
0.0
 10
573.54425
 20
723.647705
 10
573.523865
 20
722.864868
 10
573.463135
 20
722.085205
 10
573.362305
 20
721.312988
 10
573.221863
 20
720.551575
 10
573.042542
 20
719.803589
 10
572.82489
 20
719.071472
 10
572.569397
 20
718.3573
 10
572.27655
 20
717.662964
 10
571.946533
 20
716.990417
 10
571.57959
 20
716.341553
 10
571.175537
 20
715.718201
 10
570.73407
 20
715.122131
 10
570.254761
 20
714.555847
 10
569.737366
 20
714.022156
 10
569.181458
 20
713.524414
 10
568.587524
 20
713.066711
 10
567.956299
 20
712.653809
 10
567.288757
 20
712.290527
 10
566.587402
 20
711.982117
 10
565.856323
 20
711.734253
 10
565.101074
 20
711.552734
 10
564.328674
 20
711.441162
 10
563.53833
 20
711.403442
  0
LWPOLYLINE
  5
12A
330
4C
100
AcDbEntity
  8
0
  6
Continuous
 62
     0
370
     0
100
AcDbPolyline
 90
       24
 70
     0
 43
0.0
 10
563.53833
 20
711.403442
 10
562.763
 20
711.439636
 10
561.996643
 20
711.548645
 10
561.246948
 20
711.72644
 10
560.520752
 20
711.969666
 10
559.823608
 20
712.272705
 10
559.159607
 20
712.630066
 10
558.531189
 20
713.036499
 10
557.939331
 20
713.487305
 10
557.384949
 20
713.977844
 10
556.868408
 20
714.504028
 10
556.389282
 20
715.062744
 10
555.947083
 20
715.651367
 10
555.541748
 20
716.267334
 10
555.173096
 20
716.908386
 10
554.841064
 20
717.57251
 10
554.545654
 20
718.258057
 10
554.286926
 20
718.963562
 10
554.065247
 20
719.687012
 10
553.881226
 20
720.426514
 10
553.735352
 20
721.179565
 10
553.628296
 20
721.943726
 10
553.560608
 20
722.715881
 10
553.532471
 20
723.507568
  0
LINE
  5
12B
330
4C
100
AcDbEntity
  8
0
  6
Continuous
 62
     0
370
     0
100
AcDbLine
 10
553.532448
 20
723.507556
 30
0.0
 11
553.532448
 21
773.148533
 31
0.0
  0
LWPOLYLINE
  5
12C
330
4C
100
AcDbEntity
  8
0
  6
Continuous
 62
     0
370
     0
100
AcDbPolyline
 90
       24
 70
     0
 43
0.0
 10
553.532471
 20
773.14856
 10
553.552795
 20
773.931396
 10
553.613525
 20
774.71106
 10
553.714355
 20
775.483215
 10
553.854797
 20
776.24469
 10
554.03418
 20
776.992676
 10
554.251831
 20
777.724731
 10
554.507324
 20
778.438965
 10
554.800171
 20
779.133301
 10
555.130127
 20
779.805847
 10
555.497131
 20
780.454712
 10
555.901123
 20
781.078064
 10
556.342651
 20
781.674133
 10
556.821899
 20
782.240417
 10
557.339294
 20
782.774109
 10
557.895203
 20
783.271912
 10
558.489136
 20
783.729553
 10
559.120361
 20
784.142456
 10
559.787903
 20
784.505737
 10
560.489319
 20
784.814148
 10
561.220337
 20
785.062012
 10
561.975586
 20
785.24353
 10
562.748047
 20
785.355164
 10
563.53833
 20
785.392883
  0
LWPOLYLINE
  5
12D
330
4C
100
AcDbEntity
  8
0
  6
Continuous
 62
     0
370
     0
100
AcDbPolyline
 90
       24
 70
     0
 43
0.0
 10
563.53833
 20
785.392883
 10
564.313416
 20
785.356689
 10
565.079529
 20
785.247803
 10
565.828979
 20
785.070068
 10
566.554871
 20
784.827026
 10
567.251831
 20
784.52417
 10
567.915649
 20
784.167114
 10
568.543945
 20
783.760864
 10
569.135681
 20
783.310364
 10
569.690002
 20
782.820129
 10
570.206482
 20
782.29425
 10
570.685547
 20
781.73584
 10
571.127747
 20
781.147583
 10
571.533142
 20
780.531921
 10
571.901855
 20
779.891235
 10
572.233948
 20
779.227539
 10
572.52948
 20
778.542297
 10
572.78833
 20
777.837158
 10
573.010132
 20
777.114075
 10
573.194336
 20
776.375
 10
573.340454
 20
775.622253
 10
573.447754
 20
774.858459
 10
573.515747
 20
774.08667
 10
573.54425
 20
773.294983
  0
LWPOLYLINE
  5
12E
330
4C
100
AcDbEntity
  8
0
  6
Continuous
 62
     0
370
    30
100
AcDbPolyline
 90
       19
 70
     0
 43
0.0
 10
563.53833
 20
715.620728
 10
562.882629
 20
715.657166
 10
562.235352
 20
715.765137
 10
561.605164
 20
715.941162
 10
560.998535
 20
716.181213
 10
560.42041
 20
716.479553
 10
559.874329
 20
716.830322
 10
559.362549
 20
717.228088
 10
558.886414
 20
717.667786
 10
558.446594
 20
718.14502
 10
558.04364
 20
718.655579
 10
557.677856
 20
719.195557
 10
557.34967
 20
719.761047
 10
557.059326
 20
720.34845
 10
556.806702
 20
720.954041
 10
556.592041
 20
721.574646
 10
556.415527
 20
722.20752
 10
556.276733
 20
722.848572
 10
556.171021
 20
723.524353
  0
ARC
  5
12F
330
4C
100
AcDbEntity
  8
0
  6
Continuous
 62
     0
370
    30
100
AcDbCircle
 10
769.744766
 20
748.148684
 30
0.0
 40
214.9886176517526
100
AcDbArc
 50
173.32228
 51
186.576967
  0
LWPOLYLINE
  5
130
330
4C
100
AcDbEntity
  8
0
  6
Continuous
 62
     0
370
    30
100
AcDbPolyline
 90
       19
 70
     0
 43
0.0
 10
556.214661
 20
773.14856
 10
556.30896
 20
773.794128
 10
556.440979
 20
774.43689
 10
556.611084
 20
775.072327
 10
556.819397
 20
775.696167
 10
557.06604
 20
776.305359
 10
557.350952
 20
776.896729
 10
557.674011
 20
777.466675
 10
558.035095
 20
778.011414
 10
558.433838
 20
778.526978
 10
558.869812
 20
779.009338
 10
559.34259
 20
779.454285
 10
559.85144
 20
779.857361
 10
560.395142
 20
780.21344
 10
560.971497
 20
780.517029
 10
561.576904
 20
780.762146
 10
562.206543
 20
780.942993
 10
562.853882
 20
781.055115
 10
563.53833
 20
781.095276
  0
LINE
  5
131
330
4C
100
AcDbEntity
  8
0
  6
Continuous
 62
     0
370
     0
100
AcDbLine
 10
563.538341
 20
781.095294
 30
0.0
 11
563.538341
 21
715.62072
 31
0.0
  0
LWPOLYLINE
  5
132
330
4C
100
AcDbEntity
  8
0
  6
Continuous
 62
     0
370
    30
100
AcDbPolyline
 90
       19
 70
     0
 43
0.0
 10
563.53833
 20
781.095276
 10
564.187378
 20
781.059265
 10
564.828003
 20
780.952698
 10
565.451843
 20
780.778748
 10
566.05249
 20
780.541626
 10
566.625122
 20
780.246826
 10
567.166077
 20
779.900146
 10
567.673218
 20
779.507019
 10
568.145203
 20
779.072388
 10
568.58136
 20
778.600586
 10
568.98114
 20
778.095764
 10
569.344238
 20
777.56189
 10
569.670227
 20
777.002625
 10
569.958923
 20
776.421875
 10
570.210327
 20
775.822998
 10
570.424255
 20
775.209229
 10
570.600586
 20
774.583374
 10
570.739807
 20
773.949402
 10
570.847046
 20
773.276917
  0
ARC
  5
133
330
4C
100
AcDbEntity
  8
0
  6
Continuous
 62
     0
370
    30
100
AcDbCircle
 10
356.806892
 20
748.117063
 30
0.0
 40
215.513788211533
100
AcDbArc
 50
359.974326
 51
6.704196
  0
ARC
  5
134
330
4C
100
AcDbEntity
  8
0
  6
Continuous
 62
     0
370
    30
100
AcDbCircle
 10
356.849975
 20
748.1782
 30
0.0
 40
215.4707417209813
100
AcDbArc
 50
353.462929
 51
359.958064
  0
LWPOLYLINE
  5
135
330
4C
100
AcDbEntity
  8
0
  6
Continuous
 62
     0
370
    30
100
AcDbPolyline
 90
       19
 70
     0
 43
0.0
 10
570.9198
 20
723.647705
 10
570.825989
 20
722.995361
 10
570.693909
 20
722.345825
 10
570.523315
 20
721.703796
 10
570.313965
 20
721.073547
 10
570.065857
 20
720.458069
 10
569.778992
 20
719.860657
 10
569.453491
 20
719.284851
 10
569.089539
 20
718.734619
 10
568.687439
 20
718.213806
 10
568.247681
 20
717.726562
 10
567.770691
 20
717.2771
 10
567.257141
 20
716.869995
 10
566.708374
 20
716.510315
 10
566.126526
 20
716.203735
 10
565.515198
 20
715.956299
 10
564.879333
 20
715.773865
 10
564.225647
 20
715.660828
 10
563.53833
 20
715.620728
  0
LWPOLYLINE
  5
136
330
4C
100
AcDbEntity
  8
0
  6
Continuous
 62
     0
370
     0
100
AcDbPolyline
 90
       24
 70
     0
 43
0.0
 10
554.631714
 20
773.14856
 10
554.64856
 20
773.873108
 10
554.699097
 20
774.59552
 10
554.78302
 20
775.312256
 10
554.900146
 20
776.019836
 10
555.050171
 20
776.716003
 10
555.232971
 20
777.399048
 10
555.448242
 20
778.067139
 10
555.696045
 20
778.718689
 10
555.976685
 20
779.352295
 10
556.290649
 20
779.966309
 10
556.638306
 20
780.559204
 10
557.020386
 20
781.128845
 10
557.437622
 20
781.672852
 10
557.890747
 20
782.188965
 10
558.380676
 20
782.673462
 10
558.908325
 20
783.12207
 10
559.474487
 20
783.530334
 10
560.078064
 20
783.892883
 10
560.715637
 20
784.202942
 10
561.383667
 20
784.453674
 10
562.077759
 20
784.638855
 10
562.791382
 20
784.753418
 10
563.538391
 20
784.793884
  0
LINE
  5
137
330
4C
100
AcDbEntity
  8
0
  6
Continuous
 62
     0
370
     0
100
AcDbLine
 10
563.538368
 20
784.793897
 30
0.0
 11
563.538341
 21
785.392874
 31
0.0
  0
LINE
  5
138
330
4C
100
AcDbEntity
  8
0
  6
Continuous
 62
     0
370
     0
100
AcDbLine
 10
553.532448
 20
773.148533
 30
0.0
 11
554.631719
 21
773.148533
 31
0.0
  0
LINE
  5
139
330
4C
100
AcDbEntity
  8
0
  6
Continuous
 62
     0
370
     0
100
AcDbLine
 10
573.544234
 20
723.647708
 30
0.0
 11
572.444962
 21
723.647708
 31
0.0
  0
LWPOLYLINE
  5
13A
330
4C
100
AcDbEntity
  8
0
  6
Continuous
 62
     0
370
     0
100
AcDbPolyline
 90
       24
 70
     0
 43
0.0
 10
572.444946
 20
723.647705
 10
572.428101
 20
722.923157
 10
572.377625
 20
722.200745
 10
572.29364
 20
721.484009
 10
572.176575
 20
720.776367
 10
572.026489
 20
720.0802
 10
571.843689
 20
719.397217
 10
571.628418
 20
718.729126
 10
571.380615
 20
718.077576
 10
571.099976
 20
717.44397
 10
570.786011
 20
716.829956
 10
570.438354
 20
716.237061
 10
570.056274
 20
715.667419
 10
569.639038
 20
715.123413
 10
569.185913
 20
714.6073
 10
568.695984
 20
714.122803
 10
568.168396
 20
713.674194
 10
567.602173
 20
713.26593
 10
566.998596
 20
712.903381
 10
566.361023
 20
712.593323
 10
565.692993
 20
712.34259
 10
564.998901
 20
712.15741
 10
564.285278
 20
712.042908
 10
563.53833
 20
712.00238
  0
LINE
  5
13B
330
4C
100
AcDbEntity
  8
0
  6
Continuous
 62
     0
370
     0
100
AcDbLine
 10
563.538315
 20
712.002391
 30
0.0
 11
563.538341
 21
711.403414
 31
0.0
  0
LINE
  5
13C
330
4C
100
AcDbEntity
  8
0
  6
Continuous
 62
     0
370
    30
100
AcDbLine
 10
572.038341
 20
550.648096
 30
0.0
 11
566.799456
 21
550.648096
 31
0.0
  0
LINE
  5
13D
330
4C
100
AcDbEntity
  8
0
  6
Continuous
 62
     0
370
    30
100
AcDbLine
 10
566.799456
 20
550.648096
 30
0.0
 11
555.038341
 21
550.648096
 31
0.0
  0
LINE
  5
13E
330
4C
100
AcDbEntity
  8
0
  6
Continuous
 62
     0
370
    30
100
AcDbLine
 10
563.538341
 20
580.648096
 30
0.0
 11
579.638341
 21
580.648096
 31
0.0
  0
LINE
  5
13F
330
4C
100
AcDbEntity
  8
0
  6
Continuous
 62
     0
370
    30
100
AcDbLine
 10
547.438341
 20
580.648096
 30
0.0
 11
563.538341
 21
580.648096
 31
0.0
  0
ARC
  5
140
330
4C
100
AcDbEntity
  8
0
  6
Continuous
 62
     0
370
    30
100
AcDbCircle
 10
563.537799
 20
723.647555
 30
0.0
 40
13.49945809020112
100
AcDbArc
 50
179.9977
 51
270.0023
  0
LINE
  5
141
330
4C
100
AcDbEntity
  8
0
  6
Continuous
 62
     0
370
    30
100
AcDbLine
 10
550.038341
 20
723.648096
 30
0.0
 11
550.038341
 21
773.148096
 31
0.0
  0
ARC
  5
142
330
4C
100
AcDbEntity
  8
0
  6
Continuous
 62
     0
370
    30
100
AcDbCircle
 10
563.53786
 20
773.148577
 30
0.0
 40
13.49951942358634
100
AcDbArc
 50
89.99796
 51
180.00204
  0
ARC
  5
143
330
4C
100
AcDbEntity
  8
0
  6
Continuous
 62
     0
370
    30
100
AcDbCircle
 10
563.538873
 20
773.148629
 30
0.0
 40
13.49946745460202
100
AcDbArc
 50
359.99774
 51
90.00226
  0
LINE
  5
144
330
4C
100
AcDbEntity
  8
0
  6
Continuous
 62
     0
370
    30
100
AcDbLine
 10
577.038341
 20
773.148096
 30
0.0
 11
577.038341
 21
723.648096
 31
0.0
  0
ARC
  5
145
330
4C
100
AcDbEntity
  8
0
  6
Continuous
 62
     0
370
    30
100
AcDbCircle
 10
563.538883
 20
723.647555
 30
0.0
 40
13.49945809000643
100
AcDbArc
 50
269.9977
 51
0.0023
  0
LWPOLYLINE
  5
146
330
4C
100
AcDbEntity
  8
0
  6
Continuous
 62
     0
370
     0
100
AcDbPolyline
 90
       24
 70
     0
 43
0.0
 10
563.53833
 20
712.00238
 10
562.82074
 20
712.039734
 10
562.112488
 20
712.149963
 10
561.423096
 20
712.330017
 10
560.758911
 20
712.574768
 10
560.12439
 20
712.878235
 10
559.523132
 20
713.233765
 10
558.958374
 20
713.634827
 10
558.43158
 20
714.075928
 10
557.941956
 20
714.552795
 10
557.488525
 20
715.061157
 10
557.070496
 20
715.597351
 10
556.687134
 20
716.158936
 10
556.337708
 20
716.743774
 10
556.021545
 20
717.349609
 10
555.738159
 20
717.974915
 10
555.487122
 20
718.618164
 10
555.268127
 20
719.277893
 10
555.081055
 20
719.952515
 10
554.926086
 20
720.640442
 10
554.803467
 20
721.340088
 10
554.713379
 20
722.049133
 10
554.656128
 20
722.764404
 10
554.631714
 20
723.512329
  0
ARC
  5
147
330
4C
100
AcDbEntity
  8
0
  6
Continuous
 62
     0
370
     0
100
AcDbCircle
 10
554.838008
 20
548.404941
 30
0.0
 40
175.1074811580049
100
AcDbArc
 50
90.067508
 51
90.427188
  0
LINE
  5
148
330
4C
100
AcDbEntity
  8
0
  6
Continuous
 62
     0
370
     0
100
AcDbLine
 10
554.631719
 20
723.512301
 30
0.0
 11
554.631719
 21
773.148533
 31
0.0
  0
ARC
  5
149
330
4C
100
AcDbEntity
  8
0
  6
Continuous
 62
     0
370
     0
100
AcDbCircle
 10
572.238694
 20
940.878072
 30
0.0
 40
167.5881859286998
100
AcDbArc
 50
270.070531
 51
270.446348
  0
LWPOLYLINE
  5
14A
330
4C
100
AcDbEntity
  8
0
  6
Continuous
 62
     0
370
     0
100
AcDbPolyline
 90
       24
 70
     0
 43
0.0
 10
563.538391
 20
784.793884
 10
564.255676
 20
784.756592
 10
564.963684
 20
784.646423
 10
565.652832
 20
784.466553
 10
566.316772
 20
784.221924
 10
566.951111
 20
783.918701
 10
567.552246
 20
783.563416
 10
568.116882
 20
783.162598
 10
568.643555
 20
782.721802
 10
569.133179
 20
782.245178
 10
569.586548
 20
781.737122
 10
570.004517
 20
781.201294
 10
570.387878
 20
780.639954
 10
570.737366
 20
780.055481
 10
571.053589
 20
779.449951
 10
571.337036
 20
778.825012
 10
571.588135
 20
778.182129
 10
571.807312
 20
777.522705
 10
571.994507
 20
776.84845
 10
572.149658
 20
776.160828
 10
572.272461
 20
775.461548
 10
572.362793
 20
774.752869
 10
572.420288
 20
774.037903
 10
572.445007
 20
773.290039
  0
LINE
  5
14B
330
4C
100
AcDbEntity
  8
0
  6
Continuous
 62
     0
370
     0
100
AcDbLine
 10
572.444962
 20
773.290012
 30
0.0
 11
572.444962
 21
723.647708
 31
0.0
  0
LINE
  5
14C
330
4C
100
AcDbEntity
  8
0
  6
Continuous
 62
     0
370
     0
100
AcDbLine
 10
554.631719
 20
773.148533
 30
0.0
 11
556.214643
 21
773.148533
 31
0.0
  0
LINE
  5
14D
330
4C
100
AcDbEntity
  8
0
  6
Continuous
 62
     0
370
     0
100
AcDbLine
 10
570.84703
 20
773.276812
 30
0.0
 11
572.444995
 21
773.290013
 31
0.0
  0
LINE
  5
14E
330
4C
100
AcDbEntity
  8
0
  6
Continuous
 62
     0
370
     0
100
AcDbLine
 10
554.631719
 20
723.512062
 30
0.0
 11
556.171001
 21
723.524388
 31
0.0
  0
LINE
  5
14F
330
4C
100
AcDbEntity
  8
0
  6
Continuous
 62
     0
370
     0
100
AcDbLine
 10
572.444962
 20
723.647708
 30
0.0
 11
570.919813
 21
723.647708
 31
0.0
  0
LWPOLYLINE
  5
150
330
4C
100
AcDbEntity
  8
0
  6
Continuous
 62
     0
370
    30
100
AcDbPolyline
 90
       61
 70
     0
 43
0.0
 10
558.045837
 20
506.349091
 10
558.102112
 20
506.349091
 10
558.234009
 20
506.349091
 10
558.439453
 20
506.349091
 10
558.716553
 20
506.349091
 10
559.06311
 20
506.349091
 10
559.475159
 20
506.349091
 10
559.947754
 20
506.349091
 10
560.47583
 20
506.349091
 10
561.054443
 20
506.349091
 10
561.677551
 20
506.349091
 10
562.337891
 20
506.349091
 10
563.028076
 20
506.349091
 10
563.740906
 20
506.349121
 10
564.468811
 20
506.349121
 10
565.203491
 20
506.349121
 10
565.936768
 20
506.349152
 10
566.660339
 20
506.349152
 10
567.365967
 20
506.349152
 10
568.046082
 20
506.349152
 10
568.693298
 20
506.349121
 10
569.300232
 20
506.349121
 10
569.85968
 20
506.349121
 10
570.365601
 20
506.349121
 10
570.813232
 20
506.349121
 10
571.197693
 20
506.349121
 10
571.514282
 20
506.349121
 10
571.759338
 20
506.349121
 10
571.931152
 20
506.349121
 10
572.028381
 20
506.349091
 10
572.049561
 20
506.349091
 10
571.993774
 20
506.349091
 10
571.862488
 20
506.349091
 10
571.657593
 20
506.349091
 10
571.381104
 20
506.349091
 10
571.035095
 20
506.349091
 10
570.623596
 20
506.349091
 10
570.151428
 20
506.349091
 10
569.623779
 20
506.349091
 10
569.045532
 20
506.349091
 10
568.422791
 20
506.349091
 10
567.762756
 20
506.349091
 10
567.072754
 20
506.349091
 10
566.360046
 20
506.349091
 10
565.632263
 20
506.349091
 10
564.897583
 20
506.34906
 10
564.164307
 20
506.34906
 10
563.440613
 20
506.34906
 10
562.734863
 20
506.34906
 10
562.054504
 20
506.34906
 10
561.406982
 20
506.34906
 10
560.799683
 20
506.34906
 10
560.239868
 20
506.34906
 10
559.733459
 20
506.34906
 10
559.2854
 20
506.34906
 10
558.900391
 20
506.34906
 10
558.583252
 20
506.34906
 10
558.337708
 20
506.34906
 10
558.165283
 20
506.349091
 10
558.067444
 20
506.349091
 10
558.045837
 20
506.349091
  0
LINE
  5
151
330
4C
100
AcDbEntity
  8
0
  6
Continuous
 62
     0
370
    30
100
AcDbLine
 10
579.638341
 20
580.648096
 30
0.0
 11
579.271818
 21
790.649842
 31
0.0
  0
LINE
  5
152
330
4C
100
AcDbEntity
  8
0
  6
Continuous
 62
     0
370
    30
100
AcDbLine
 10
547.438341
 20
580.648096
 30
0.0
 11
547.804863
 21
790.649842
 31
0.0
  0
LINE
  5
153
330
4C
100
AcDbEntity
  8
0
  6
Continuous
 62
     0
370
    30
100
AcDbLine
 10
574.65495
 20
572.809095
 30
0.0
 11
575.038341
 21
580.648096
 31
0.0
  0
LINE
  5
154
330
4C
100
AcDbEntity
  8
0
  6
Continuous
 62
     0
370
    30
100
AcDbLine
 10
552.038341
 20
580.648096
 30
0.0
 11
552.421732
 21
572.809083
 31
0.0
  0
LWPOLYLINE
  5
155
330
4C
100
AcDbEntity
  8
0
  6
Continuous
 62
     0
370
    30
100
AcDbPolyline
 90
        9
 70
     0
 43
0.0
 10
556.565308
 20
550.648071
 10
556.734863
 20
545.136597
 10
556.910522
 20
539.623291
 10
557.09198
 20
534.108337
 10
557.275452
 20
528.59082
 10
557.459167
 20
523.070496
 10
557.653381
 20
517.550842
 10
557.861145
 20
512.03302
 10
558.043762
 20
506.349091
  0
LWPOLYLINE
  5
156
330
4C
100
AcDbEntity
  8
0
  6
Continuous
 62
     0
370
    30
100
AcDbPolyline
 90
        9
 70
     0
 43
0.0
 10
570.571716
 20
550.648071
 10
570.741882
 20
545.132385
 10
570.91803
 20
539.614746
 10
571.099976
 20
534.09552
 10
571.283813
 20
528.573669
 10
571.467712
 20
523.048889
 10
571.662292
 20
517.524841
 10
571.870361
 20
512.002625
 10
572.051514
 20
506.349091
  0
ARC
  5
157
330
4C
100
AcDbEntity
  8
0
  6
Continuous
 62
     0
370
    30
100
AcDbCircle
 10
548.805295
 20
790.647662
 30
0.0
 40
1.000434434331786
100
AcDbArc
 50
90.030559
 51
179.875171
  0
ARC
  5
158
330
4C
100
AcDbEntity
  8
0
  6
Continuous
 62
     0
370
    30
100
AcDbCircle
 10
578.271386
 20
790.647662
 30
0.0
 40
1.000434434114375
100
AcDbArc
 50
0.124829
 51
89.969441
  0
ENDBLK
  5
15A
330
4C
100
AcDbEntity
  8
0
100
AcDbBlockEnd
  0
BLOCK
  5
1DC
330
15C
100
AcDbEntity
  8
0
100
AcDbBlockBegin
  2
b
 70
     0
 10
187.347565
 20
124.973557
 30
0.0
  3
b
  1

  0
LINE
  5
15D
330
15C
100
AcDbEntity
  8
0
  6
Continuous
 62
     0
370
    30
100
AcDbLine
 10
293.038358
 20
240.563064
 30
0.0
 11
239.038502
 21
240.563064
 31
0.0
  0
LINE
  5
15E
330
15C
100
AcDbEntity
  8
0
  6
Continuous
 62
     0
370
    30
100
AcDbLine
 10
239.038502
 20
240.563064
 30
0.0
 11
229.038502
 21
240.563064
 31
0.0
  0
LINE
  5
15F
330
15C
100
AcDbEntity
  8
0
  6
Continuous
 62
     0
370
    30
100
AcDbLine
 10
425.038502
 20
240.563064
 30
0.0
 11
415.038502
 21
240.563064
 31
0.0
  0
LINE
  5
160
330
15C
100
AcDbEntity
  8
0
  6
Continuous
 62
     0
370
    30
100
AcDbLine
 10
415.038502
 20
240.563064
 30
0.0
 11
361.038358
 21
240.563064
 31
0.0
  0
LWPOLYLINE
  5
161
330
15C
100
AcDbEntity
  8
0
  6
Continuous
 62
     0
370
     0
100
AcDbPolyline
 90
        9
 70
     0
 43
0.0
 10
317.038361
 20
112.563065
 10
317.038361
 20
112.601418
 10
317.038361
 20
112.714569
 10
317.038361
 20
112.898689
 10
317.038361
 20
113.146141
 10
317.038361
 20
113.4478
 10
317.038361
 20
113.792374
 10
317.038361
 20
114.167091
 10
317.038361
 20
114.563065
  0
ARC
  5
162
330
15C
100
AcDbEntity
  8
0
  6
Continuous
 62
     0
370
     0
100
AcDbCircle
 10
317.038358
 20
124.563063
 30
0.0
 40
10.00000000000129
100
AcDbArc
 50
180.0
 51
270.0
  0
LINE
  5
163
330
15C
100
AcDbEntity
  8
0
  6
Continuous
 62
     0
370
     0
100
AcDbLine
 10
307.038358
 20
124.563063
 30
0.0
 11
305.038358
 21
124.563064
 31
0.0
  0
ARC
  5
164
330
15C
100
AcDbEntity
  8
0
  6
Continuous
 62
     0
370
    30
100
AcDbCircle
 10
317.038358
 20
124.563064
 30
0.0
 40
12.00000000000074
100
AcDbArc
 50
180.0
 51
270.0
  0
LINE
  5
165
330
15C
100
AcDbEntity
  8
0
  6
Continuous
 62
     0
370
     0
100
AcDbLine
 10
307.038358
 20
124.563063
 30
0.0
 11
307.038358
 21
185.285177
 31
0.0
  0
LINE
  5
166
330
15C
100
AcDbEntity
  8
0
  6
Continuous
 62
     0
370
    30
100
AcDbLine
 10
305.038358
 20
190.133692
 30
0.0
 11
305.038358
 21
124.563064
 31
0.0
  0
ARC
  5
167
330
15C
100
AcDbEntity
  8
0
  6
Continuous
 62
     0
370
     0
100
AcDbCircle
 10
293.038145
 20
228.562775
 30
0.0
 40
14.00028864908969
100
AcDbArc
 50
31.002982
 51
89.999129
  0
LINE
  5
168
330
15C
100
AcDbEntity
  8
0
  6
Continuous
 62
     0
370
     0
100
AcDbLine
 10
293.038358
 20
242.563063
 30
0.0
 11
293.038358
 21
240.563064
 31
0.0
  0
ARC
  5
169
330
15C
100
AcDbEntity
  8
0
  6
Continuous
 62
     0
370
    30
100
AcDbCircle
 10
293.038358
 20
228.563064
 30
0.0
 40
11.99999999999932
100
AcDbArc
 50
0.0
 51
90.0
  0
LINE
  5
16A
330
15C
100
AcDbEntity
  8
0
  6
Continuous
 62
     0
370
     0
100
AcDbLine
 10
293.038358
 20
242.563063
 30
0.0
 11
239.038502
 21
242.563063
 31
0.0
  0
LINE
  5
16B
330
15C
100
AcDbEntity
  8
0
  6
Continuous
 62
     0
370
     0
100
AcDbLine
 10
239.038502
 20
242.563063
 30
0.0
 11
239.038502
 21
240.563064
 31
0.0
  0
LINE
  5
16C
330
15C
100
AcDbEntity
  8
0
  6
Continuous
 62
     0
370
     0
100
AcDbLine
 10
239.038502
 20
242.563063
 30
0.0
 11
227.038502
 21
242.563064
 31
0.0
  0
ARC
  5
16D
330
15C
100
AcDbEntity
  8
0
  6
Continuous
 62
     0
370
    30
100
AcDbCircle
 10
229.038502
 20
242.563064
 30
0.0
 40
2.000000000017838
100
AcDbArc
 50
180.0
 51
270.0
  0
ARC
  5
16E
330
15C
100
AcDbEntity
  8
0
  6
Continuous
 62
     0
370
    30
100
AcDbCircle
 10
425.038502
 20
242.563064
 30
0.0
 40
1.999999999999993
100
AcDbArc
 50
270.0
 51
360.0
  0
LINE
  5
16F
330
15C
100
AcDbEntity
  8
0
  6
Continuous
 62
     0
370
     0
100
AcDbLine
 10
427.038502
 20
242.563064
 30
0.0
 11
415.038502
 21
242.563063
 31
0.0
  0
LINE
  5
170
330
15C
100
AcDbEntity
  8
0
  6
Continuous
 62
     0
370
     0
100
AcDbLine
 10
415.038502
 20
242.563063
 30
0.0
 11
415.038502
 21
240.563064
 31
0.0
  0
LINE
  5
171
330
15C
100
AcDbEntity
  8
0
  6
Continuous
 62
     0
370
     0
100
AcDbLine
 10
415.038502
 20
242.563063
 30
0.0
 11
361.038358
 21
242.563063
 31
0.0
  0
LINE
  5
172
330
15C
100
AcDbEntity
  8
0
  6
Continuous
 62
     0
370
     0
100
AcDbLine
 10
361.038358
 20
242.563063
 30
0.0
 11
361.038358
 21
240.563064
 31
0.0
  0
ARC
  5
173
330
15C
100
AcDbEntity
  8
0
  6
Continuous
 62
     0
370
     0
100
AcDbCircle
 10
361.038571
 20
228.562775
 30
0.0
 40
14.00028865220566
100
AcDbArc
 50
90.000871
 51
148.996994
  0
ARC
  5
174
330
15C
100
AcDbEntity
  8
0
  6
Continuous
 62
     0
370
    30
100
AcDbCircle
 10
361.038358
 20
228.563064
 30
0.0
 40
11.99999998622515
100
AcDbArc
 50
90.0
 51
179.971244
  0
LINE
  5
175
330
15C
100
AcDbEntity
  8
0
  6
Continuous
 62
     0
370
     0
100
AcDbLine
 10
347.038358
 20
185.285174
 30
0.0
 11
347.038358
 21
124.563063
 31
0.0
  0
LINE
  5
176
330
15C
100
AcDbEntity
  8
0
  6
Continuous
 62
     0
370
     0
100
AcDbLine
 10
347.038358
 20
124.563064
 30
0.0
 11
349.038358
 21
124.563064
 31
0.0
  0
LINE
  5
177
330
15C
100
AcDbEntity
  8
0
  6
Continuous
 62
     0
370
    30
100
AcDbLine
 10
349.038358
 20
124.563064
 30
0.0
 11
349.038358
 21
190.129138
 31
0.0
  0
ARC
  5
178
330
15C
100
AcDbEntity
  8
0
  6
Continuous
 62
     0
370
     0
100
AcDbCircle
 10
337.038358
 20
124.563063
 30
0.0
 40
9.999999999995897
100
AcDbArc
 50
270.0
 51
0.0
  0
LINE
  5
179
330
15C
100
AcDbEntity
  8
0
  6
Continuous
 62
     0
370
     0
100
AcDbLine
 10
337.038358
 20
114.563063
 30
0.0
 11
337.038358
 21
112.563064
 31
0.0
  0
ARC
  5
17A
330
15C
100
AcDbEntity
  8
0
  6
Continuous
 62
     0
370
    30
100
AcDbCircle
 10
337.038358
 20
124.563064
 30
0.0
 40
11.99999999999977
100
AcDbArc
 50
270.0
 51
360.0
  0
LINE
  5
17B
330
15C
100
AcDbEntity
  8
0
  6
Continuous
 62
     0
370
    30
100
AcDbLine
 10
317.038358
 20
112.563064
 30
0.0
 11
337.038358
 21
112.563064
 31
0.0
  0
LINE
  5
17C
330
15C
100
AcDbEntity
  8
0
  6
Continuous
 62
     0
370
     0
100
AcDbLine
 10
337.038358
 20
114.563063
 30
0.0
 11
317.038358
 21
114.563063
 31
0.0
  0
LINE
  5
17D
330
15C
100
AcDbEntity
  8
0
  6
Continuous
 62
     0
370
    30
100
AcDbLine
 10
229.038502
 20
284.563064
 30
0.0
 11
239.038502
 21
284.563064
 31
0.0
  0
LINE
  5
17E
330
15C
100
AcDbEntity
  8
0
  6
Continuous
 62
     0
370
    30
100
AcDbLine
 10
239.038502
 20
284.563064
 30
0.0
 11
415.038502
 21
284.563064
 31
0.0
  0
LINE
  5
17F
330
15C
100
AcDbEntity
  8
0
  6
Continuous
 62
     0
370
    30
100
AcDbLine
 10
415.038502
 20
284.563064
 30
0.0
 11
425.038502
 21
284.563064
 31
0.0
  0
LINE
  5
180
330
15C
100
AcDbEntity
  8
0
  6
Continuous
 62
     0
370
    30
100
AcDbLine
 10
427.038502
 20
282.563064
 30
0.0
 11
427.038502
 21
242.563064
 31
0.0
  0
LINE
  5
181
330
15C
100
AcDbEntity
  8
0
  6
Continuous
 62
     0
370
     0
100
AcDbLine
 10
427.038502
 20
282.563064
 30
0.0
 11
415.038502
 21
282.563064
 31
0.0
  0
LINE
  5
182
330
15C
100
AcDbEntity
  8
0
  6
Continuous
 62
     0
370
     0
100
AcDbLine
 10
415.038502
 20
282.563063
 30
0.0
 11
415.038502
 21
242.563063
 31
0.0
  0
LINE
  5
183
330
15C
100
AcDbEntity
  8
0
  6
Continuous
 62
     0
370
     0
100
AcDbLine
 10
239.038502
 20
242.563063
 30
0.0
 11
239.038502
 21
282.563063
 31
0.0
  0
LINE
  5
184
330
15C
100
AcDbEntity
  8
0
  6
Continuous
 62
     0
370
     0
100
AcDbLine
 10
239.038502
 20
282.563064
 30
0.0
 11
227.038502
 21
282.563064
 31
0.0
  0
LINE
  5
185
330
15C
100
AcDbEntity
  8
0
  6
Continuous
 62
     0
370
    30
100
AcDbLine
 10
227.038502
 20
282.563064
 30
0.0
 11
227.038502
 21
242.563064
 31
0.0
  0
ARC
  5
186
330
15C
100
AcDbEntity
  8
0
  6
Continuous
 62
     0
370
    30
100
AcDbCircle
 10
229.038502
 20
282.563064
 30
0.0
 40
1.999999999999986
100
AcDbArc
 50
90.0
 51
180.0
  0
LINE
  5
187
330
15C
100
AcDbEntity
  8
0
  6
Continuous
 62
     0
370
     0
100
AcDbLine
 10
239.038502
 20
282.563063
 30
0.0
 11
239.038502
 21
284.563064
 31
0.0
  0
LINE
  5
188
330
15C
100
AcDbEntity
  8
0
  6
Continuous
 62
     0
370
     0
100
AcDbLine
 10
415.038502
 20
282.563063
 30
0.0
 11
415.038502
 21
284.563064
 31
0.0
  0
ARC
  5
189
330
15C
100
AcDbEntity
  8
0
  6
Continuous
 62
     0
370
    30
100
AcDbCircle
 10
425.038502
 20
282.563064
 30
0.0
 40
1.99999999999271
100
AcDbArc
 50
360.0
 51
90.0
  0
LINE
  5
18A
330
15C
100
AcDbEntity
  8
0
  6
Continuous
 62
     0
370
    30
100
AcDbLine
 10
236.038358
 20
284.563065
 30
0.0
 11
236.038359
 21
299.463067
 31
0.0
  0
ARC
  5
18B
330
15C
100
AcDbEntity
  8
0
  6
Continuous
 62
     0
370
    30
100
AcDbCircle
 10
221.038359
 20
299.963067
 30
0.0
 40
0.5
100
AcDbArc
 50
179.999997
 51
269.999997
  0
LINE
  5
18C
330
15C
100
AcDbEntity
  8
0
  6
Continuous
 62
     0
370
    30
100
AcDbLine
 10
220.538359
 20
299.963067
 30
0.0
 11
220.53836
 21
319.46302
 31
0.0
  0
LINE
  5
18D
330
15C
100
AcDbEntity
  8
0
  6
Continuous
 62
     0
370
    30
100
AcDbLine
 10
221.038359
 20
299.463067
 30
0.0
 11
283.038359
 21
299.463065
 31
0.0
  0
LINE
  5
18E
330
15C
100
AcDbEntity
  8
0
  6
Continuous
 62
     0
370
     0
100
AcDbLine
 10
220.538359
 20
299.963067
 30
0.0
 11
283.538359
 21
299.963065
 31
0.0
  0
LINE
  5
18F
330
15C
100
AcDbEntity
  8
0
  6
Continuous
 62
     0
370
    30
100
AcDbLine
 10
220.53836
 20
319.46302
 30
0.0
 11
283.53836
 21
319.463017
 31
0.0
  0
LWPOLYLINE
  5
190
330
15C
100
AcDbEntity
  8
0
  6
Continuous
 62
     0
370
     0
100
AcDbPolyline
 90
       16
 70
     0
 43
0.0
 10
312.038361
 20
183.222275
 10
311.307739
 20
183.260025
 10
310.585114
 20
183.372864
 10
309.878326
 20
183.559555
 10
309.19516
 20
183.818054
 10
308.54306
 20
184.145554
 10
307.929138
 20
184.538467
 10
307.360107
 20
184.992493
 10
306.842163
 20
185.502686
 10
306.380981
 20
186.063461
 10
305.981628
 20
186.668701
 10
305.648407
 20
187.311798
 10
305.38501
 20
187.985718
 10
305.194275
 20
188.68309
 10
305.078308
 20
189.396332
 10
305.038361
 20
190.133698
  0
LINE
  5
191
330
15C
100
AcDbEntity
  8
0
  6
Continuous
 62
     0
370
     0
100
AcDbLine
 10
342.03836
 20
183.22228
 30
0.0
 11
312.03836
 21
183.22228
 31
0.0
  0
LWPOLYLINE
  5
192
330
15C
100
AcDbEntity
  8
0
  6
Continuous
 62
     0
370
     0
100
AcDbPolyline
 90
       16
 70
     0
 43
0.0
 10
349.038361
 20
190.133698
 10
349.000122
 20
189.412323
 10
348.885834
 20
188.698822
 10
348.696747
 20
188.001007
 10
348.434937
 20
187.326492
 10
348.103241
 20
186.682632
 10
347.705292
 20
186.076477
 10
347.245453
 20
185.514633
 10
346.728729
 20
185.00325
 10
346.160767
 20
184.547928
 10
345.54776
 20
184.15361
 10
344.896423
 20
183.824615
 10
344.213867
 20
183.564529
 10
343.507538
 20
183.376221
 10
342.785187
 20
183.261734
 10
342.038361
 20
183.222275
  0
LINE
  5
193
330
15C
100
AcDbEntity
  8
0
  6
Continuous
 62
     0
370
     0
100
AcDbLine
 10
312.03836
 20
183.22228
 30
0.0
 11
312.03836
 21
183.205496
 31
0.0
  0
LINE
  5
194
330
15C
100
AcDbEntity
  8
0
  6
Continuous
 62
     0
370
     0
100
AcDbLine
 10
342.03836
 20
183.22228
 30
0.0
 11
342.03836
 21
183.205496
 31
0.0
  0
LINE
  5
195
330
15C
100
AcDbEntity
  8
0
  6
Continuous
 62
     0
370
    30
100
AcDbLine
 10
342.03836
 20
283.316238
 30
0.0
 11
312.03836
 21
283.316238
 31
0.0
  0
LINE
  5
196
330
15C
100
AcDbEntity
  8
0
  6
Continuous
 62
     0
370
     0
100
AcDbLine
 10
342.03836
 20
282.472673
 30
0.0
 11
312.03836
 21
282.472673
 31
0.0
  0
ARC
  5
197
330
15C
100
AcDbEntity
  8
0
  6
Continuous
 62
     0
370
    30
100
AcDbCircle
 10
342.03836
 20
276.316239
 30
0.0
 40
6.99999990425539
100
AcDbArc
 50
0.000001
 51
90.000001
  0
ARC
  5
198
330
15C
100
AcDbEntity
  8
0
  6
Continuous
 62
     0
370
     0
100
AcDbCircle
 10
342.03836
 20
276.472673
 30
0.0
 40
5.999999904269821
100
AcDbArc
 50
0.000001
 51
90.000001
  0
LINE
  5
199
330
15C
100
AcDbEntity
  8
0
  6
Continuous
 62
     0
370
     0
100
AcDbLine
 10
348.03836
 20
190.655137
 30
0.0
 11
348.03836
 21
276.472673
 31
0.0
  0
LINE
  5
19A
330
15C
100
AcDbEntity
  8
0
  6
Continuous
 62
     0
370
    30
100
AcDbLine
 10
349.03836
 20
190.498702
 30
0.0
 11
349.03836
 21
276.316239
 31
0.0
  0
LWPOLYLINE
  5
19B
330
15C
100
AcDbEntity
  8
0
  6
Continuous
 62
     0
370
     0
100
AcDbPolyline
 90
       15
 70
     0
 43
0.0
 10
348.038361
 20
190.655136
 10
348.000793
 20
189.992859
 10
347.88858
 20
189.338882
 10
347.703156
 20
188.701385
 10
347.446777
 20
188.088348
 10
347.122711
 20
187.507431
 10
346.734955
 20
186.965942
 10
346.288422
 20
186.470627
 10
345.788696
 20
186.02771
 10
345.242004
 20
185.642715
 10
344.655182
 20
185.32048
 10
344.035645
 20
185.065033
 10
343.391052
 20
184.879562
 10
342.729553
 20
184.766403
 10
342.038361
 20
184.726944
  0
LWPOLYLINE
  5
19C
330
15C
100
AcDbEntity
  8
0
  6
Continuous
 62
     0
370
     0
100
AcDbPolyline
 90
       16
 70
     0
 43
0.0
 10
349.038361
 20
190.498703
 10
349.000122
 20
189.777328
 10
348.885834
 20
189.063843
 10
348.696747
 20
188.366013
 10
348.434937
 20
187.691498
 10
348.103241
 20
187.047638
 10
347.705292
 20
186.441483
 10
347.245453
 20
185.879654
 10
346.728729
 20
185.368271
 10
346.160767
 20
184.912933
 10
345.54776
 20
184.518616
 10
344.896423
 20
184.189621
 10
344.213867
 20
183.92955
 10
343.507538
 20
183.741241
 10
342.785187
 20
183.62674
 10
342.038361
 20
183.587296
  0
LINE
  5
19D
330
15C
100
AcDbEntity
  8
0
  6
Continuous
 62
     0
370
     0
100
AcDbLine
 10
342.03836
 20
184.726943
 30
0.0
 11
312.03836
 21
184.726943
 31
0.0
  0
LINE
  5
19E
330
15C
100
AcDbEntity
  8
0
  6
Continuous
 62
     0
370
     0
100
AcDbLine
 10
342.03836
 20
183.587292
 30
0.0
 11
312.03836
 21
183.587292
 31
0.0
  0
LWPOLYLINE
  5
19F
330
15C
100
AcDbEntity
  8
0
  6
Continuous
 62
     0
370
     0
100
AcDbPolyline
 90
       15
 70
     0
 43
0.0
 10
312.038361
 20
184.726944
 10
311.368073
 20
184.764053
 10
310.706177
 20
184.874908
 10
310.060944
 20
185.058136
 10
309.44046
 20
185.311447
 10
308.852539
 20
185.631653
 10
308.304474
 20
186.01474
 10
307.803162
 20
186.455933
 10
307.354889
 20
186.949692
 10
306.96521
 20
187.489838
 10
306.639099
 20
188.069626
 10
306.380554
 20
188.681763
 10
306.192841
 20
189.318619
 10
306.078308
 20
189.972214
 10
306.038361
 20
190.655136
  0
LWPOLYLINE
  5
1A0
330
15C
100
AcDbEntity
  8
0
  6
Continuous
 62
     0
370
     0
100
AcDbPolyline
 90
       16
 70
     0
 43
0.0
 10
312.038361
 20
183.587296
 10
311.307739
 20
183.625046
 10
310.585114
 20
183.737885
 10
309.878326
 20
183.924561
 10
309.19516
 20
184.183075
 10
308.54306
 20
184.510574
 10
307.929138
 20
184.903473
 10
307.360107
 20
185.357513
 10
306.842163
 20
185.867691
 10
306.380981
 20
186.428482
 10
305.981628
 20
187.033722
 10
305.648407
 20
187.676804
 10
305.38501
 20
188.350723
 10
305.194275
 20
189.048111
 10
305.078308
 20
189.761337
 10
305.038361
 20
190.498703
  0
LINE
  5
1A1
330
15C
100
AcDbEntity
  8
0
  6
Continuous
 62
     0
370
     0
100
AcDbLine
 10
306.03836
 20
190.655137
 30
0.0
 11
306.03836
 21
276.472673
 31
0.0
  0
LINE
  5
1A2
330
15C
100
AcDbEntity
  8
0
  6
Continuous
 62
     0
370
    30
100
AcDbLine
 10
305.03836
 20
190.498702
 30
0.0
 11
305.03836
 21
276.316239
 31
0.0
  0
ARC
  5
1A3
330
15C
100
AcDbEntity
  8
0
  6
Continuous
 62
     0
370
    30
100
AcDbCircle
 10
312.03836
 20
276.316239
 30
0.0
 40
6.999999904268719
100
AcDbArc
 50
89.999999
 51
179.999999
  0
ARC
  5
1A4
330
15C
100
AcDbEntity
  8
0
  6
Continuous
 62
     0
370
     0
100
AcDbCircle
 10
312.03836
 20
276.472673
 30
0.0
 40
5.999999904265913
100
AcDbArc
 50
89.999999
 51
179.999999
  0
LINE
  5
1A5
330
15C
100
AcDbEntity
  8
0
  6
Continuous
 62
     0
370
     0
100
AcDbLine
 10
342.03836
 20
283.316238
 30
0.0
 11
342.03836
 21
282.472673
 31
0.0
  0
ELLIPSE
  5
1A6
330
15C
100
AcDbEntity
  8
0
  6
Continuous
 62
     0
370
     0
100
AcDbEllipse
 10
348.03836
 20
276.316239
 30
0.0
 11
1.0
 21
9.698249805980707E-18
 31
0.0
210
0.0
220
0.0
230
1.0
 40
0.156434
 41
6.283185307179586
 42
7.853981633974483
  0
LINE
  5
1A7
330
15C
100
AcDbEntity
  8
0
  6
Continuous
 62
     0
370
    30
100
AcDbLine
 10
349.03836
 20
190.133691
 30
0.0
 11
349.03836
 21
190.498702
 31
0.0
  0
ELLIPSE
  5
1A8
330
15C
100
AcDbEntity
  8
0
  6
Continuous
 62
     0
370
     0
100
AcDbEllipse
 10
348.03836
 20
190.498702
 30
0.0
 11
-1.000000000000017
 21
-9.698249805982052E-18
 31
0.0
210
0.0
220
0.0
230
-1.0
 40
0.156434
 41
1.570796326794897
 42
3.141592653589793
  0
LINE
  5
1A9
330
15C
100
AcDbEntity
  8
0
  6
Continuous
 62
     0
370
     0
100
AcDbLine
 10
342.03836
 20
183.22228
 30
0.0
 11
342.03836
 21
183.587292
 31
0.0
  0
LINE
  5
1AA
330
15C
100
AcDbEntity
  8
0
  6
Continuous
 62
     0
370
     0
100
AcDbLine
 10
312.03836
 20
183.22228
 30
0.0
 11
312.03836
 21
183.587292
 31
0.0
  0
LINE
  5
1AB
330
15C
100
AcDbEntity
  8
0
  6
Continuous
 62
     0
370
     0
100
AcDbLine
 10
342.03836
 20
184.726943
 30
0.0
 11
342.03836
 21
183.587292
 31
0.0
  0
LINE
  5
1AC
330
15C
100
AcDbEntity
  8
0
  6
Continuous
 62
     0
370
    30
100
AcDbLine
 10
305.03836
 20
190.133691
 30
0.0
 11
305.03836
 21
190.498702
 31
0.0
  0
LINE
  5
1AD
330
15C
100
AcDbEntity
  8
0
  6
Continuous
 62
     0
370
     0
100
AcDbLine
 10
312.03836
 20
184.726943
 30
0.0
 11
312.03836
 21
183.587292
 31
0.0
  0
ELLIPSE
  5
1AE
330
15C
100
AcDbEntity
  8
0
  6
Continuous
 62
     0
370
     0
100
AcDbEllipse
 10
306.03836
 20
190.498702
 30
0.0
 11
1.000000000000016
 21
9.698249805981600E-18
 31
0.0
210
0.0
220
0.0
230
1.0
 40
0.156434
 41
1.570796326794897
 42
3.141592653589793
  0
LINE
  5
1AF
330
15C
100
AcDbEntity
  8
0
  6
Continuous
 62
     0
370
     0
100
AcDbLine
 10
312.03836
 20
283.316238
 30
0.0
 11
312.03836
 21
282.472673
 31
0.0
  0
ELLIPSE
  5
1B0
330
15C
100
AcDbEntity
  8
0
  6
Continuous
 62
     0
370
     0
100
AcDbEllipse
 10
306.03836
 20
276.316239
 30
0.0
 11
0.9999999999999964
 21
4.864347308020641E-15
 31
0.0
210
0.0
220
0.0
230
1.0
 40
0.156434
 41
1.570796326794896
 42
3.141592653589762
  0
LINE
  5
1B1
330
15C
100
AcDbEntity
  8
0
  6
Continuous
 62
     0
370
    30
100
AcDbLine
 10
386.038358
 20
284.563065
 30
0.0
 11
386.038359
 21
299.463067
 31
0.0
  0
ARC
  5
1B2
330
15C
100
AcDbEntity
  8
0
  6
Continuous
 62
     0
370
    30
100
AcDbCircle
 10
371.038359
 20
299.963067
 30
0.0
 40
0.5
100
AcDbArc
 50
179.999997
 51
269.999997
  0
LINE
  5
1B3
330
15C
100
AcDbEntity
  8
0
  6
Continuous
 62
     0
370
    30
100
AcDbLine
 10
370.538359
 20
299.963067
 30
0.0
 11
370.53836
 21
319.46302
 31
0.0
  0
LINE
  5
1B4
330
15C
100
AcDbEntity
  8
0
  6
Continuous
 62
     0
370
    30
100
AcDbLine
 10
371.038359
 20
299.463067
 30
0.0
 11
433.038359
 21
299.463065
 31
0.0
  0
LINE
  5
1B5
330
15C
100
AcDbEntity
  8
0
  6
Continuous
 62
     0
370
     0
100
AcDbLine
 10
370.538359
 20
299.963067
 30
0.0
 11
433.538359
 21
299.963065
 31
0.0
  0
LINE
  5
1B6
330
15C
100
AcDbEntity
  8
0
  6
Continuous
 62
     0
370
    30
100
AcDbLine
 10
370.53836
 20
319.46302
 30
0.0
 11
433.53836
 21
319.463017
 31
0.0
  0
CIRCLE
  5
1B7
330
15C
100
AcDbEntity
  8
0
  6
Continuous
 62
     0
370
    30
100
AcDbCircle
 10
327.03836
 20
168.563062
 30
0.0
 40
12.00000044669473
  0
CIRCLE
  5
1B8
330
15C
100
AcDbEntity
  8
0
  6
Continuous
 62
     0
370
     0
100
AcDbCircle
 10
327.03836
 20
168.563062
 30
0.0
 40
10.9990543588513
  0
LINE
  5
1B9
330
15C
100
AcDbEntity
  8
0
  6
Continuous
 62
     0
370
     0
100
AcDbLine
 10
239.038502
 20
282.563063
 30
0.0
 11
308.879693
 21
282.563063
 31
0.0
  0
LINE
  5
1BA
330
15C
100
AcDbEntity
  8
0
  6
Continuous
 62
     0
370
     0
100
AcDbLine
 10
345.197027
 20
282.563063
 30
0.0
 11
415.038502
 21
282.563063
 31
0.0
  0
ARC
  5
1BB
330
15C
100
AcDbEntity
  8
0
  6
Continuous
 62
     0
370
    30
100
AcDbCircle
 10
342.073813
 20
190.170048
 30
0.0
 40
6.964641689337487
100
AcDbArc
 50
269.708337
 51
359.700901
  0
LINE
  5
1BC
330
15C
100
AcDbEntity
  8
0
  6
Continuous
 62
     0
370
    30
100
AcDbLine
 10
342.03836
 20
183.205496
 30
0.0
 11
312.03836
 21
183.205496
 31
0.0
  0
ARC
  5
1BD
330
15C
100
AcDbEntity
  8
0
  6
Continuous
 62
     0
370
    30
100
AcDbCircle
 10
312.002907
 20
190.170048
 30
0.0
 40
6.964641689345537
100
AcDbArc
 50
180.299099
 51
270.291663
  0
LINE
  5
1BE
330
15C
100
AcDbEntity
  8
0
  6
Continuous
 62
     0
370
    30
100
AcDbLine
 10
283.538359
 20
299.963065
 30
0.0
 11
283.53836
 21
319.463017
 31
0.0
  0
ARC
  5
1BF
330
15C
100
AcDbEntity
  8
0
  6
Continuous
 62
     0
370
    30
100
AcDbCircle
 10
283.038359
 20
299.963065
 30
0.0
 40
0.5
100
AcDbArc
 50
269.999997
 51
359.999997
  0
LINE
  5
1C0
330
15C
100
AcDbEntity
  8
0
  6
Continuous
 62
     0
370
    30
100
AcDbLine
 10
268.038358
 20
284.563064
 30
0.0
 11
268.038359
 21
299.463065
 31
0.0
  0
LINE
  5
1C1
330
15C
100
AcDbEntity
  8
0
  6
Continuous
 62
     0
370
    30
100
AcDbLine
 10
433.538359
 20
299.963065
 30
0.0
 11
433.53836
 21
319.463017
 31
0.0
  0
ARC
  5
1C2
330
15C
100
AcDbEntity
  8
0
  6
Continuous
 62
     0
370
    30
100
AcDbCircle
 10
433.038359
 20
299.963065
 30
0.0
 40
0.5
100
AcDbArc
 50
269.999997
 51
359.999997
  0
LINE
  5
1C3
330
15C
100
AcDbEntity
  8
0
  6
Continuous
 62
     0
370
    30
100
AcDbLine
 10
418.038358
 20
284.563064
 30
0.0
 11
418.038359
 21
299.463065
 31
0.0
  0
LINE
  5
1C4
330
15C
100
AcDbEntity
  8
0
  6
Continuous
 62
     0
370
    30
100
AcDbLine
 10
563.53836
 20
319.463011
 30
0.0
 11
579.03836
 21
319.463011
 31
0.0
  0
LINE
  5
1C5
330
15C
100
AcDbEntity
  8
0
  6
Continuous
 62
     0
370
    30
100
AcDbLine
 10
548.03836
 20
319.463011
 30
0.0
 11
563.53836
 21
319.463011
 31
0.0
  0
LINE
  5
1C6
330
15C
100
AcDbEntity
  8
0
  6
Continuous
 62
     0
370
     0
100
AcDbLine
 10
576.035859
 20
265.463011
 30
0.0
 11
579.03836
 21
265.463011
 31
0.0
  0
LINE
  5
1C7
330
15C
100
AcDbEntity
  8
0
  6
Continuous
 62
     0
370
     0
100
AcDbLine
 10
548.03836
 20
265.463011
 30
0.0
 11
551.04086
 21
265.463011
 31
0.0
  0
LINE
  5
1C8
330
15C
100
AcDbEntity
  8
0
  6
Continuous
 62
     0
370
    30
100
AcDbLine
 10
549.038532
 20
264.463011
 30
0.0
 11
551.924252
 21
264.463011
 31
0.0
  0
LINE
  5
1C9
330
15C
100
AcDbEntity
  8
0
  6
Continuous
 62
     0
370
    30
100
AcDbLine
 10
578.03836
 20
264.463011
 30
0.0
 11
575.152468
 21
264.463011
 31
0.0
  0
ARC
  5
1CA
330
15C
100
AcDbEntity
  8
0
  6
Continuous
 62
     0
370
     0
100
AcDbCircle
 10
563.53836
 20
275.613001
 30
0.0
 40
14.73347896183132
100
AcDbArc
 50
270.0
 51
90.0
  0
ARC
  5
1CB
330
15C
100
AcDbEntity
  8
0
  6
Continuous
 62
     0
370
     0
100
AcDbCircle
 10
563.53836
 20
275.613001
 30
0.0
 40
14.73347896183132
100
AcDbArc
 50
90.0
 51
270.0
  0
ARC
  5
1CC
330
15C
100
AcDbEntity
  8
0
  6
Continuous
 62
     0
370
     0
100
AcDbCircle
 10
563.53836
 20
275.613001
 30
0.0
 40
15.73347743874449
100
AcDbArc
 50
270.0
 51
90.0
  0
ARC
  5
1CD
330
15C
100
AcDbEntity
  8
0
  6
Continuous
 62
     0
370
     0
100
AcDbCircle
 10
563.53836
 20
275.613001
 30
0.0
 40
15.7334774387445
100
AcDbArc
 50
90.0
 51
270.0
  0
ARC
  5
1CE
330
15C
100
AcDbEntity
  8
0
  6
Continuous
 62
     0
370
    30
100
AcDbCircle
 10
563.53836
 20
275.61301
 30
0.0
 40
16.1
100
AcDbArc
 50
270.0
 51
90.0
  0
ARC
  5
1CF
330
15C
100
AcDbEntity
  8
0
  6
Continuous
 62
     0
370
    30
100
AcDbCircle
 10
563.53836
 20
275.61301
 30
0.0
 40
16.1
100
AcDbArc
 50
90.0
 51
270.0
  0
LWPOLYLINE
  5
1D0
330
15C
100
AcDbEntity
  8
0
  6
Continuous
 62
     0
370
    30
100
AcDbPolyline
 90
       31
 70
     0
 43
0.0
 10
563.53833
 20
259.739014
 10
562.779846
 20
259.757416
 10
562.024109
 20
259.81192
 10
561.276428
 20
259.901428
 10
560.54187
 20
260.024963
 10
559.823181
 20
260.180847
 10
559.122009
 20
260.367157
 10
558.440918
 20
260.581573
 10
557.782288
 20
260.821808
 10
557.147339
 20
261.08548
 10
556.537109
 20
261.370209
 10
555.952209
 20
261.673706
 10
555.393188
 20
261.993622
 10
554.860535
 20
262.327515
 10
554.35437
 20
262.673187
 10
553.874573
 20
263.028595
 10
553.420959
 20
263.391449
 10
552.993652
 20
263.759308
 10
552.592712
 20
264.1297
 10
552.218201
 20
264.500122
 10
551.870239
 20
264.867523
 10
551.549072
 20
265.228577
 10
551.254944
 20
265.579895
 10
550.988464
 20
265.917206
 10
550.750854
 20
266.23465
 10
550.543457
 20
266.526154
 10
550.368103
 20
266.784515
 10
550.227417
 20
267.000397
 10
550.124084
 20
267.164337
 10
550.060425
 20
267.268646
 10
550.03833
 20
267.307251
  0
LINE
  5
1D1
330
15C
100
AcDbEntity
  8
0
  6
Continuous
 62
     0
370
    30
100
AcDbLine
 10
550.03836
 20
267.307239
 30
0.0
 11
550.03836
 21
267.473319
 31
0.0
  0
LWPOLYLINE
  5
1D2
330
15C
100
AcDbEntity
  8
0
  6
Continuous
 62
     0
370
    30
100
AcDbPolyline
 90
       31
 70
     0
 43
0.0
 10
550.03833
 20
267.473328
 10
550.060059
 20
267.439728
 10
550.123413
 20
267.338715
 10
550.226562
 20
267.176422
 10
550.367249
 20
266.960754
 10
550.542603
 20
266.701599
 10
550.749939
 20
266.4086
 10
550.987366
 20
266.089325
 10
551.253601
 20
265.749878
 10
551.547485
 20
265.396271
 10
551.868225
 20
265.032898
 10
552.21582
 20
264.663147
 10
552.589905
 20
264.290405
 10
552.990417
 20
263.917725
 10
553.417236
 20
263.547607
 10
553.870422
 20
263.182526
 10
554.349854
 20
262.825012
 10
554.855652
 20
262.477264
 10
555.388
 20
262.141388
 10
555.946838
 20
261.81958
 10
556.531555
 20
261.514252
 10
557.141785
 20
261.227783
 10
557.776733
 20
260.962524
 10
558.435486
 20
260.720764
 10
559.116882
 20
260.505005
 10
559.81842
 20
260.317505
 10
560.537598
 20
260.160553
 10
561.272766
 20
260.036194
 10
562.021118
 20
259.946014
 10
562.777588
 20
259.891113
 10
563.53833
 20
259.872528
  0
LWPOLYLINE
  5
1D3
330
15C
100
AcDbEntity
  8
0
  6
Continuous
 62
     0
370
    30
100
AcDbPolyline
 90
       31
 70
     0
 43
0.0
 10
563.53833
 20
259.872528
 10
564.297668
 20
259.891052
 10
565.054138
 20
259.945892
 10
565.802551
 20
260.03598
 10
566.53772
 20
260.160278
 10
567.256958
 20
260.317169
 10
567.958557
 20
260.504608
 10
568.639954
 20
260.720337
 10
569.298767
 20
260.962036
 10
569.933777
 20
261.227264
 10
570.544006
 20
261.513702
 10
571.128845
 20
261.819
 10
571.687744
 20
262.140808
 10
572.220093
 20
262.476654
 10
572.725952
 20
262.824371
 10
573.205444
 20
263.181885
 10
573.658691
 20
263.546936
 10
574.085571
 20
263.917053
 10
574.486145
 20
264.289734
 10
574.860291
 20
264.662476
 10
575.207886
 20
265.032257
 10
575.528748
 20
265.39566
 10
575.822632
 20
265.749298
 10
576.088928
 20
266.088776
 10
576.326477
 20
266.408142
 10
576.533813
 20
266.701172
 10
576.709229
 20
266.960388
 10
576.849915
 20
267.176086
 10
576.953125
 20
267.33847
 10
577.016602
 20
267.439636
 10
577.03833
 20
267.473328
  0
LINE
  5
1D4
330
15C
100
AcDbEntity
  8
0
  6
Continuous
 62
     0
370
    30
100
AcDbLine
 10
577.03836
 20
267.473319
 30
0.0
 11
577.03836
 21
267.307239
 31
0.0
  0
LWPOLYLINE
  5
1D5
330
15C
100
AcDbEntity
  8
0
  6
Continuous
 62
     0
370
    30
100
AcDbPolyline
 90
       31
 70
     0
 43
0.0
 10
577.03833
 20
267.307251
 10
577.016724
 20
267.26944
 10
576.953552
 20
267.165802
 10
576.850647
 20
267.002502
 10
576.710388
 20
266.78714
 10
576.535339
 20
266.529205
 10
576.328308
 20
266.238007
 10
576.091003
 20
265.920807
 10
575.824829
 20
265.583679
 10
575.531006
 20
265.232483
 10
575.210144
 20
264.871521
 10
574.862488
 20
264.50415
 10
574.48822
 20
264.133789
 10
574.087585
 20
263.763367
 10
573.660583
 20
263.395477
 10
573.207275
 20
263.032532
 10
572.727722
 20
262.677063
 10
572.221863
 20
262.331268
 10
571.689514
 20
261.997223
 10
571.130798
 20
261.677155
 10
570.546143
 20
261.373444
 10
569.936218
 20
261.088501
 10
569.301575
 20
260.824585
 10
568.643188
 20
260.584076
 10
567.962341
 20
260.369354
 10
567.261353
 20
260.182739
 10
566.542847
 20
260.026489
 10
565.808472
 20
259.902618
 10
565.060913
 20
259.812714
 10
564.305237
 20
259.757812
 10
563.53833
 20
259.739014
  0
ARC
  5
1D6
330
15C
100
AcDbEntity
  8
0
  6
Continuous
 62
     0
370
    30
100
AcDbCircle
 10
578.037925
 20
265.463446
 30
0.0
 40
1.000434885996651
100
AcDbArc
 50
270.029696
 51
359.975101
  0
ARC
  5
1D7
330
15C
100
AcDbEntity
  8
0
  6
Continuous
 62
     0
370
    30
100
AcDbCircle
 10
549.038795
 20
265.463446
 30
0.0
 40
1.000434886088148
100
AcDbArc
 50
180.024899
 51
269.970304
  0
LINE
  5
1D8
330
15C
100
AcDbEntity
  8
0
  6
Continuous
 62
     0
370
    30
100
AcDbLine
 10
548.03836
 20
271.258703
 30
0.0
 11
548.03836
 21
265.463011
 31
0.0
  0
LINE
  5
1D9
330
15C
100
AcDbEntity
  8
0
  6
Continuous
 62
     0
370
    30
100
AcDbLine
 10
548.03836
 20
319.463011
 30
0.0
 11
548.03836
 21
279.96732
 31
0.0
  0
LINE
  5
1DA
330
15C
100
AcDbEntity
  8
0
  6
Continuous
 62
     0
370
    30
100
AcDbLine
 10
579.03836
 20
271.258703
 30
0.0
 11
579.03836
 21
265.463011
 31
0.0
  0
LINE
  5
1DB
330
15C
100
AcDbEntity
  8
0
  6
Continuous
 62
     0
370
    30
100
AcDbLine
 10
579.03836
 20
319.463011
 30
0.0
 11
579.03836
 21
279.96732
 31
0.0
  0
ENDBLK
  5
1DD
330
15C
100
AcDbEntity
  8
0
100
AcDbBlockEnd
  0
BLOCK
  5
2A2
330
1DF
100
AcDbEntity
  8
0
100
AcDbBlockBegin
  2
c
 70
     0
 10
388.138214
 20
167.059372
 30
0.0
  3
c
  1

  0
LINE
  5
1E0
330
1DF
100
AcDbEntity
  8
0
  6
Continuous
 62
     0
370
    30
100
AcDbLine
 10
934.854215
 20
583.00761
 30
0.0
 11
934.854216
 21
573.00761
 31
0.0
  0
LINE
  5
1E1
330
1DF
100
AcDbEntity
  8
0
  6
Continuous
 62
     0
370
    30
100
AcDbLine
 10
934.854216
 20
573.00761
 30
0.0
 11
934.854216
 21
551.007615
 31
0.0
  0
LINE
  5
1E2
330
1DF
100
AcDbEntity
  8
0
  6
Continuous
 62
     0
370
    30
100
AcDbLine
 10
934.854216
 20
551.007615
 30
0.0
 11
934.854215
 21
541.007615
 31
0.0
  0
ARC
  5
1E3
330
1DF
100
AcDbEntity
  8
0
  6
Continuous
 62
     0
370
    30
100
AcDbCircle
 10
1060.854212
 20
583.00761
 30
0.0
 40
1.999999999999972
100
AcDbArc
 50
0.0
 51
90.0
  0
LWPOLYLINE
  5
1E4
330
1DF
100
AcDbEntity
  8
0
  6
Continuous
 62
     0
370
    30
100
AcDbPolyline
 90
       19
 70
     0
 43
0.0
 10
1060.854248
 20
585.007629
 10
1060.816284
 20
585.007629
 10
1060.702759
 20
585.007629
 10
1060.514526
 20
585.007629
 10
1060.25293
 20
585.007629
 10
1059.920044
 20
585.007629
 10
1059.518433
 20
585.007629
 10
1059.051025
 20
585.007629
 10
1058.521362
 20
585.007629
 10
1057.933716
 20
585.007629
 10
1057.292236
 20
585.007629
 10
1056.601929
 20
585.007629
 10
1055.86792
 20
585.007629
 10
1055.095947
 20
585.007629
 10
1054.29187
 20
585.007629
 10
1053.46167
 20
585.007629
 10
1052.61145
 20
585.007629
 10
1051.747681
 20
585.007629
 10
1050.854248
 20
585.007629
  0
LINE
  5
1E5
330
1DF
100
AcDbEntity
  8
0
  6
Continuous
 62
     0
370
     0
100
AcDbLine
 10
1050.854212
 20
585.00761
 30
0.0
 11
1050.854212
 21
583.00761
 31
0.0
  0
LINE
  5
1E6
330
1DF
100
AcDbEntity
  8
0
  6
Continuous
 62
     0
370
     0
100
AcDbLine
 10
1050.854212
 20
583.00761
 30
0.0
 11
1062.854212
 21
583.00761
 31
0.0
  0
LINE
  5
1E7
330
1DF
100
AcDbEntity
  8
0
  6
Continuous
 62
     0
370
    30
100
AcDbLine
 10
1050.854212
 20
585.00761
 30
0.0
 11
946.854212
 21
585.00761
 31
0.0
  0
LINE
  5
1E8
330
1DF
100
AcDbEntity
  8
0
  6
Continuous
 62
     0
370
     0
100
AcDbLine
 10
946.854212
 20
585.00761
 30
0.0
 11
946.854212
 21
583.00761
 31
0.0
  0
LINE
  5
1E9
330
1DF
100
AcDbEntity
  8
0
  6
Continuous
 62
     0
370
     0
100
AcDbLine
 10
946.854212
 20
583.00761
 30
0.0
 11
1050.854212
 21
583.00761
 31
0.0
  0
LINE
  5
1EA
330
1DF
100
AcDbEntity
  8
0
  6
Continuous
 62
     0
370
    30
100
AcDbLine
 10
946.854212
 20
585.00761
 30
0.0
 11
932.854213
 21
585.00761
 31
0.0
  0
LWPOLYLINE
  5
1EB
330
1DF
100
AcDbEntity
  8
0
  6
Continuous
 62
     0
370
     0
100
AcDbPolyline
 90
       21
 70
     0
 43
0.0
 10
934.854187
 20
583.007629
 10
934.891113
 20
583.007629
 10
935.001343
 20
583.007629
 10
935.184387
 20
583.007629
 10
935.439087
 20
583.007629
 10
935.763855
 20
583.007629
 10
936.156738
 20
583.007629
 10
936.615234
 20
583.007629
 10
937.136597
 20
583.007629
 10
937.717651
 20
583.007629
 10
938.354736
 20
583.007629
 10
939.044067
 20
583.007629
 10
939.781311
 20
583.007629
 10
940.562012
 20
583.007629
 10
941.381409
 20
583.007629
 10
942.234253
 20
583.007629
 10
943.115356
 20
583.007629
 10
944.019592
 20
583.007629
 10
944.941589
 20
583.007629
 10
945.875366
 20
583.007629
 10
946.854187
 20
583.007629
  0
ARC
  5
1EC
330
1DF
100
AcDbEntity
  8
0
  6
Continuous
 62
     0
370
    30
100
AcDbCircle
 10
932.854215
 20
583.00761
 30
0.0
 40
2.0
100
AcDbArc
 50
0.0
 51
90.0
  0
LINE
  5
1ED
330
1DF
100
AcDbEntity
  8
0
  6
Continuous
 62
     0
370
     0
100
AcDbLine
 10
932.854215
 20
585.00761
 30
0.0
 11
932.854216
 21
573.00761
 31
0.0
  0
LINE
  5
1EE
330
1DF
100
AcDbEntity
  8
0
  6
Continuous
 62
     0
370
     0
100
AcDbLine
 10
932.854216
 20
573.00761
 30
0.0
 11
934.854216
 21
573.00761
 31
0.0
  0
LINE
  5
1EF
330
1DF
100
AcDbEntity
  8
0
  6
Continuous
 62
     0
370
     0
100
AcDbLine
 10
932.854216
 20
573.00761
 30
0.0
 11
932.854216
 21
551.007615
 31
0.0
  0
LINE
  5
1F0
330
1DF
100
AcDbEntity
  8
0
  6
Continuous
 62
     0
370
     0
100
AcDbLine
 10
932.854216
 20
551.007615
 30
0.0
 11
934.854216
 21
551.007615
 31
0.0
  0
LINE
  5
1F1
330
1DF
100
AcDbEntity
  8
0
  6
Continuous
 62
     0
370
     0
100
AcDbLine
 10
932.854216
 20
551.007615
 30
0.0
 11
932.854215
 21
539.007615
 31
0.0
  0
ARC
  5
1F2
330
1DF
100
AcDbEntity
  8
0
  6
Continuous
 62
     0
370
    30
100
AcDbCircle
 10
932.854215
 20
541.007615
 30
0.0
 40
2.000000000001727
100
AcDbArc
 50
270.0
 51
360.0
  0
LINE
  5
1F3
330
1DF
100
AcDbEntity
  8
0
  6
Continuous
 62
     0
370
     0
100
AcDbLine
 10
946.854212
 20
583.00761
 30
0.0
 11
946.854212
 21
561.007589
 31
0.0
  0
LINE
  5
1F4
330
1DF
100
AcDbEntity
  8
0
  6
Continuous
 62
     0
370
     0
100
AcDbLine
 10
946.854212
 20
561.007589
 30
0.0
 11
938.282784
 21
561.007589
 31
0.0
  0
LWPOLYLINE
  5
1F5
330
1DF
100
AcDbEntity
  8
0
  6
Continuous
 62
     0
370
     0
100
AcDbPolyline
 90
        9
 70
     0
 43
0.0
 10
938.282776
 20
561.007629
 10
937.846619
 20
560.975403
 10
937.439514
 20
560.886536
 10
937.064209
 20
560.747925
 10
936.720886
 20
560.569092
 10
936.409546
 20
560.357727
 10
936.129211
 20
560.119934
 10
935.879089
 20
559.859924
 10
935.634338
 20
559.547852
  0
ARC
  5
1F6
330
1DF
100
AcDbEntity
  8
0
  6
Continuous
 62
     0
370
     0
100
AcDbCircle
 10
938.893428
 20
557.251781
 30
0.0
 40
3.986675671643993
100
AcDbArc
 50
144.83432
 51
147.939867
  0
LWPOLYLINE
  5
1F7
330
1DF
100
AcDbEntity
  8
0
  6
Continuous
 62
     0
370
     0
100
AcDbPolyline
 90
        6
 70
     0
 43
0.0
 10
935.514771
 20
559.36792
 10
935.281433
 20
558.941833
 10
935.09967
 20
558.495361
 10
934.968689
 20
558.034241
 10
934.88739
 20
557.563965
 10
934.854187
 20
557.007629
  0
ARC
  5
1F8
330
1DF
100
AcDbEntity
  8
0
  6
Continuous
 62
     0
370
    30
100
AcDbCircle
 10
936.841677
 20
557.011703
 30
0.0
 40
1.987468754167885
100
AcDbArc
 50
143.719077
 51
180.117995
  0
LINE
  5
1F9
330
1DF
100
AcDbEntity
  8
0
  6
Continuous
 62
     0
370
    30
100
AcDbLine
 10
935.239528
 20
558.187777
 30
0.0
 11
935.309298
 21
558.277744
 31
0.0
  0
ARC
  5
1FA
330
1DF
100
AcDbEntity
  8
0
  6
Continuous
 62
     0
370
    30
100
AcDbCircle
 10
936.853582
 20
557.008944
 30
0.0
 40
1.99866640510865
100
AcDbArc
 50
89.981944
 51
140.593104
  0
LINE
  5
1FB
330
1DF
100
AcDbEntity
  8
0
  6
Continuous
 62
     0
370
    30
100
AcDbLine
 10
936.854212
 20
559.007589
 30
0.0
 11
946.854212
 21
559.007589
 31
0.0
  0
LINE
  5
1FC
330
1DF
100
AcDbEntity
  8
0
  6
Continuous
 62
     0
370
    30
100
AcDbLine
 10
946.854212
 20
559.007589
 30
0.0
 11
1050.854212
 21
559.007589
 31
0.0
  0
LINE
  5
1FD
330
1DF
100
AcDbEntity
  8
0
  6
Continuous
 62
     0
370
    30
100
AcDbLine
 10
1050.854212
 20
559.007589
 30
0.0
 11
1060.854212
 21
559.007589
 31
0.0
  0
LINE
  5
1FE
330
1DF
100
AcDbEntity
  8
0
  6
Continuous
 62
     0
370
    30
100
AcDbLine
 10
1062.854212
 20
583.00761
 30
0.0
 11
1062.854212
 21
561.007589
 31
0.0
  0
LINE
  5
1FF
330
1DF
100
AcDbEntity
  8
0
  6
Continuous
 62
     0
370
     0
100
AcDbLine
 10
1050.854212
 20
583.00761
 30
0.0
 11
1050.854212
 21
561.007589
 31
0.0
  0
LINE
  5
200
330
1DF
100
AcDbEntity
  8
0
  6
Continuous
 62
     0
370
     0
100
AcDbLine
 10
1050.854212
 20
561.007589
 30
0.0
 11
1062.854212
 21
561.007589
 31
0.0
  0
LINE
  5
201
330
1DF
100
AcDbEntity
  8
0
  6
Continuous
 62
     0
370
     0
100
AcDbLine
 10
946.854212
 20
561.007589
 30
0.0
 11
1050.854212
 21
561.007589
 31
0.0
  0
LWPOLYLINE
  5
202
330
1DF
100
AcDbEntity
  8
0
  6
Continuous
 62
     0
370
     0
100
AcDbPolyline
 90
        5
 70
     0
 43
0.0
 10
935.309326
 20
558.277771
 10
935.48584
 20
558.547913
 10
935.601746
 20
558.853333
 10
935.652893
 20
559.183167
 10
935.634338
 20
559.547852
  0
LWPOLYLINE
  5
203
330
1DF
100
AcDbEntity
  8
0
  6
Continuous
 62
     0
370
     0
100
AcDbPolyline
 90
        5
 70
     0
 43
0.0
 10
935.514771
 20
559.36792
 10
935.532898
 20
559.063293
 10
935.497437
 20
558.767151
 10
935.409546
 20
558.487915
 10
935.239502
 20
558.187805
  0
LWPOLYLINE
  5
204
330
1DF
100
AcDbEntity
  8
0
  6
Continuous
 62
     0
370
     0
100
AcDbPolyline
 90
        9
 70
     0
 43
0.0
 10
938.282776
 20
561.007629
 10
938.255371
 20
560.619141
 10
938.174561
 20
560.243958
 10
938.04303
 20
559.898682
 10
937.866272
 20
559.596069
 10
937.650818
 20
559.347473
 10
937.404663
 20
559.162048
 10
937.137024
 20
559.047485
 10
936.854187
 20
559.007629
  0
LINE
  5
205
330
1DF
100
AcDbEntity
  8
0
  6
Continuous
 62
     0
370
     0
100
AcDbLine
 10
946.854212
 20
561.007589
 30
0.0
 11
946.854212
 21
559.007589
 31
0.0
  0
LINE
  5
206
330
1DF
100
AcDbEntity
  8
0
  6
Continuous
 62
     0
370
     0
100
AcDbLine
 10
1050.854212
 20
559.007589
 30
0.0
 11
1050.854212
 21
561.007589
 31
0.0
  0
ARC
  5
207
330
1DF
100
AcDbEntity
  8
0
  6
Continuous
 62
     0
370
    30
100
AcDbCircle
 10
1060.854212
 20
561.007589
 30
0.0
 40
2.000000000000469
100
AcDbArc
 50
270.0
 51
360.0
  0
LINE
  5
208
330
1DF
100
AcDbEntity
  8
0
  6
Continuous
 62
     0
370
    30
100
AcDbLine
 10
890.854216
 20
551.007615
 30
0.0
 11
890.854216
 21
573.00761
 31
0.0
  0
LINE
  5
209
330
1DF
100
AcDbEntity
  8
0
  6
Continuous
 62
     0
370
    30
100
AcDbLine
 10
890.854216
 20
573.00761
 30
0.0
 11
890.854215
 21
583.00761
 31
0.0
  0
LINE
  5
20A
330
1DF
100
AcDbEntity
  8
0
  6
Continuous
 62
     0
370
    30
100
AcDbLine
 10
890.854215
 20
541.007615
 30
0.0
 11
890.854216
 21
551.007615
 31
0.0
  0
LINE
  5
20B
330
1DF
100
AcDbEntity
  8
0
  6
Continuous
 62
     0
370
    30
100
AcDbLine
 10
892.854215
 20
539.00761
 30
0.0
 11
932.854215
 21
539.00761
 31
0.0
  0
LINE
  5
20C
330
1DF
100
AcDbEntity
  8
0
  6
Continuous
 62
     0
370
    30
100
AcDbLine
 10
932.854215
 20
585.00761
 30
0.0
 11
892.854215
 21
585.00761
 31
0.0
  0
LINE
  5
20D
330
1DF
100
AcDbEntity
  8
0
  6
Continuous
 62
     0
370
     0
100
AcDbLine
 10
892.854215
 20
585.00761
 30
0.0
 11
892.854215
 21
573.00761
 31
0.0
  0
LINE
  5
20E
330
1DF
100
AcDbEntity
  8
0
  6
Continuous
 62
     0
370
     0
100
AcDbLine
 10
892.854216
 20
573.00761
 30
0.0
 11
932.854216
 21
573.00761
 31
0.0
  0
LINE
  5
20F
330
1DF
100
AcDbEntity
  8
0
  6
Continuous
 62
     0
370
     0
100
AcDbLine
 10
892.854216
 20
573.00761
 30
0.0
 11
892.854216
 21
551.007615
 31
0.0
  0
LINE
  5
210
330
1DF
100
AcDbEntity
  8
0
  6
Continuous
 62
     0
370
     0
100
AcDbLine
 10
892.854216
 20
551.007615
 30
0.0
 11
932.854216
 21
551.007615
 31
0.0
  0
LINE
  5
211
330
1DF
100
AcDbEntity
  8
0
  6
Continuous
 62
     0
370
     0
100
AcDbLine
 10
892.854215
 20
551.007615
 30
0.0
 11
892.854215
 21
539.007615
 31
0.0
  0
LINE
  5
212
330
1DF
100
AcDbEntity
  8
0
  6
Continuous
 62
     0
370
     0
100
AcDbLine
 10
892.854216
 20
551.007615
 30
0.0
 11
890.854216
 21
551.007615
 31
0.0
  0
ARC
  5
213
330
1DF
100
AcDbEntity
  8
0
  6
Continuous
 62
     0
370
    30
100
AcDbCircle
 10
892.854215
 20
541.007615
 30
0.0
 40
2.000000000000696
100
AcDbArc
 50
180.0
 51
270.0
  0
LINE
  5
214
330
1DF
100
AcDbEntity
  8
0
  6
Continuous
 62
     0
370
     0
100
AcDbLine
 10
892.854216
 20
573.00761
 30
0.0
 11
890.854216
 21
573.00761
 31
0.0
  0
ARC
  5
215
330
1DF
100
AcDbEntity
  8
0
  6
Continuous
 62
     0
370
    30
100
AcDbCircle
 10
892.854215
 20
583.00761
 30
0.0
 40
1.999999999999581
100
AcDbArc
 50
90.0
 51
180.0
  0
LINE
  5
216
330
1DF
100
AcDbEntity
  8
0
  6
Continuous
 62
     0
370
    30
100
AcDbLine
 10
875.954213
 20
531.007595
 30
0.0
 11
875.954213
 21
562.007595
 31
0.0
  0
LINE
  5
217
330
1DF
100
AcDbEntity
  8
0
  6
Continuous
 62
     0
370
    30
100
AcDbLine
 10
875.954213
 20
562.007595
 30
0.0
 11
875.954213
 21
593.007595
 31
0.0
  0
LINE
  5
218
330
1DF
100
AcDbEntity
  8
0
  6
Continuous
 62
     0
370
     0
100
AcDbLine
 10
875.454213
 20
530.507595
 30
0.0
 11
875.454213
 21
562.007595
 31
0.0
  0
LINE
  5
219
330
1DF
100
AcDbEntity
  8
0
  6
Continuous
 62
     0
370
     0
100
AcDbLine
 10
875.454213
 20
562.007595
 30
0.0
 11
875.454213
 21
593.507595
 31
0.0
  0
LINE
  5
21A
330
1DF
100
AcDbEntity
  8
0
  6
Continuous
 62
     0
370
    30
100
AcDbLine
 10
855.954261
 20
530.507595
 30
0.0
 11
855.954261
 21
562.007595
 31
0.0
  0
LINE
  5
21B
330
1DF
100
AcDbEntity
  8
0
  6
Continuous
 62
     0
370
    30
100
AcDbLine
 10
855.954261
 20
562.007595
 30
0.0
 11
855.954261
 21
593.507595
 31
0.0
  0
ARC
  5
21C
330
1DF
100
AcDbEntity
  8
0
  6
Continuous
 62
     0
370
    30
100
AcDbCircle
 10
920.680848
 20
600.593057
 30
0.0
 40
14.99999999994
100
AcDbArc
 50
248.471471
 51
270.0
  0
LINE
  5
21D
330
1DF
100
AcDbEntity
  8
0
  6
Continuous
 62
     0
370
    30
100
AcDbLine
 10
899.10104
 20
592.981026
 30
0.0
 11
915.176381
 21
586.639533
 31
0.0
  0
LINE
  5
21E
330
1DF
100
AcDbEntity
  8
0
  6
Continuous
 62
     0
370
    30
100
AcDbLine
 10
892.101039
 20
595.742427
 30
0.0
 11
899.10104
 21
592.981026
 31
0.0
  0
LINE
  5
21F
330
1DF
100
AcDbEntity
  8
0
  6
Continuous
 62
     0
370
    30
100
AcDbLine
 10
936.101041
 20
585.593057
 30
0.0
 11
936.101037
 21
604.614491
 31
0.0
  0
LINE
  5
220
330
1DF
100
AcDbEntity
  8
0
  6
Continuous
 62
     0
370
     0
100
AcDbLine
 10
935.101042
 20
585.593057
 30
0.0
 11
935.101037
 21
604.61449
 31
0.0
  0
ARC
  5
221
330
1DF
100
AcDbEntity
  8
0
  6
Continuous
 62
     0
370
    30
100
AcDbCircle
 10
943.101037
 20
604.614492
 30
0.0
 40
6.999999999972001
100
AcDbArc
 50
99.0
 51
180.000014
  0
ARC
  5
222
330
1DF
100
AcDbEntity
  8
0
  6
Continuous
 62
     0
370
     0
100
AcDbCircle
 10
943.101037
 20
604.614492
 30
0.0
 40
7.999999999972001
100
AcDbArc
 50
99.0
 51
180.000014
  0
LINE
  5
223
330
1DF
100
AcDbEntity
  8
0
  6
Continuous
 62
     0
370
     0
100
AcDbLine
 10
941.849561
 20
612.515999
 30
0.0
 11
985.283584
 21
619.395272
 31
0.0
  0
LINE
  5
224
330
1DF
100
AcDbEntity
  8
0
  6
Continuous
 62
     0
370
    30
100
AcDbLine
 10
942.005996
 20
611.528311
 30
0.0
 11
985.440018
 21
618.407584
 31
0.0
  0
LWPOLYLINE
  5
225
330
1DF
100
AcDbEntity
  8
0
  6
Continuous
 62
     0
370
     0
100
AcDbPolyline
 90
       16
 70
     0
 43
0.0
 10
992.195007
 20
620.516663
 10
992.157227
 20
620.510498
 10
992.044434
 20
620.492249
 10
991.857788
 20
620.461914
 10
991.599304
 20
620.419983
 10
991.271851
 20
620.366882
 10
990.878967
 20
620.303101
 10
990.424988
 20
620.229492
 10
989.914856
 20
620.146667
 10
989.354126
 20
620.055725
 10
988.748962
 20
619.95752
 10
988.105896
 20
619.85321
 10
987.432068
 20
619.743835
 10
986.734741
 20
619.630737
 10
986.021545
 20
619.515015
 10
985.283569
 20
619.395264
  0
LWPOLYLINE
  5
226
330
1DF
100
AcDbEntity
  8
0
  6
Continuous
 62
     0
370
    30
100
AcDbPolyline
 90
       15
 70
     0
 43
0.0
 10
991.368225
 20
619.346497
 10
991.331116
 20
619.340637
 10
991.220276
 20
619.323059
 10
991.037048
 20
619.294067
 10
990.783813
 20
619.253967
 10
990.463623
 20
619.203247
 10
990.080566
 20
619.142578
 10
989.639465
 20
619.072693
 10
989.145752
 20
618.994507
 10
988.605652
 20
618.908997
 10
988.02594
 20
618.817139
 10
987.413818
 20
618.720215
 10
986.777039
 20
618.619324
 10
986.123474
 20
618.515808
 10
985.440002
 20
618.407593
  0
LINE
  5
227
330
1DF
100
AcDbEntity
  8
0
  6
Continuous
 62
     0
370
    30
100
AcDbLine
 10
920.680848
 20
585.593057
 30
0.0
 11
935.101042
 21
585.593057
 31
0.0
  0
LINE
  5
228
330
1DF
100
AcDbEntity
  8
0
  6
Continuous
 62
     0
370
     0
100
AcDbLine
 10
936.101037
 20
604.614491
 30
0.0
 11
935.101037
 21
604.61449
 31
0.0
  0
LINE
  5
229
330
1DF
100
AcDbEntity
  8
0
  6
Continuous
 62
     0
370
     0
100
AcDbLine
 10
941.849561
 20
612.515999
 30
0.0
 11
942.005996
 21
611.528311
 31
0.0
  0
LINE
  5
22A
330
1DF
100
AcDbEntity
  8
0
  6
Continuous
 62
     0
370
     0
100
AcDbLine
 10
985.440018
 20
618.407584
 30
0.0
 11
985.283583
 21
619.395272
 31
0.0
  0
ARC
  5
22B
330
1DF
100
AcDbEntity
  8
0
  6
Continuous
 62
     0
370
    30
100
AcDbCircle
 10
991.211778
 20
620.334206
 30
0.0
 40
0.9999999999999927
100
AcDbArc
 50
279.0
 51
10.512056
  0
LINE
  5
22C
330
1DF
100
AcDbEntity
  8
0
  6
Continuous
 62
     0
370
    30
100
AcDbLine
 10
936.101041
 20
585.593057
 30
0.0
 11
935.101042
 21
585.593057
 31
0.0
  0
LWPOLYLINE
  5
22D
330
1DF
100
AcDbEntity
  8
0
  6
Continuous
 62
     0
370
    30
100
AcDbPolyline
 90
       15
 70
     0
 43
0.0
 10
990.690308
 20
623.289001
 10
990.653198
 20
623.283142
 10
990.542358
 20
623.265564
 10
990.359192
 20
623.236572
 10
990.105896
 20
623.196472
 10
989.785767
 20
623.145752
 10
989.40271
 20
623.085083
 10
988.961548
 20
623.015198
 10
988.467834
 20
622.937012
 10
987.927734
 20
622.85144
 10
987.348022
 20
622.759644
 10
986.735962
 20
622.66272
 10
986.099121
 20
622.561829
 10
985.445618
 20
622.458313
 10
984.762146
 20
622.350098
  0
LWPOLYLINE
  5
22E
330
1DF
100
AcDbEntity
  8
0
  6
Continuous
 62
     0
370
     0
100
AcDbPolyline
 90
       16
 70
     0
 43
0.0
 10
991.829956
 20
622.483765
 10
991.792236
 20
622.477661
 10
991.679443
 20
622.459351
 10
991.492737
 20
622.429077
 10
991.234253
 20
622.387085
 10
990.906799
 20
622.333984
 10
990.513977
 20
622.270264
 10
990.059998
 20
622.196594
 10
989.549866
 20
622.113831
 10
988.989136
 20
622.022827
 10
988.383972
 20
621.924622
 10
987.740906
 20
621.820312
 10
987.067078
 20
621.710999
 10
986.369751
 20
621.597839
 10
985.656555
 20
621.482117
 10
984.918579
 20
621.362366
  0
LINE
  5
22F
330
1DF
100
AcDbEntity
  8
0
  6
Continuous
 62
     0
370
    30
100
AcDbLine
 10
984.762137
 20
622.350079
 30
0.0
 11
898.944601
 21
608.757917
 31
0.0
  0
LINE
  5
230
330
1DF
100
AcDbEntity
  8
0
  6
Continuous
 62
     0
370
     0
100
AcDbLine
 10
984.918572
 20
621.362391
 30
0.0
 11
899.101036
 21
607.770228
 31
0.0
  0
LINE
  5
231
330
1DF
100
AcDbEntity
  8
0
  6
Continuous
 62
     0
370
     0
100
AcDbLine
 10
892.101036
 20
606.819921
 30
0.0
 11
899.101036
 21
607.770228
 31
0.0
  0
LINE
  5
232
330
1DF
100
AcDbEntity
  8
0
  6
Continuous
 62
     0
370
    30
100
AcDbLine
 10
892.944601
 20
607.80761
 30
0.0
 11
898.944601
 21
608.757917
 31
0.0
  0
LINE
  5
233
330
1DF
100
AcDbEntity
  8
0
  6
Continuous
 62
     0
370
    30
100
AcDbLine
 10
892.101036
 20
606.819921
 30
0.0
 11
892.101039
 21
595.742427
 31
0.0
  0
LINE
  5
234
330
1DF
100
AcDbEntity
  8
0
  6
Continuous
 62
     0
370
    30
100
AcDbLine
 10
992.194994
 20
620.516649
 30
0.0
 11
991.829982
 21
622.483767
 31
0.0
  0
LINE
  5
235
330
1DF
100
AcDbEntity
  8
0
  6
Continuous
 62
     0
370
     0
100
AcDbLine
 10
985.283584
 20
619.395272
 30
0.0
 11
984.918572
 21
621.362391
 31
0.0
  0
ARC
  5
236
330
1DF
100
AcDbEntity
  8
0
  6
Continuous
 62
     0
370
    30
100
AcDbCircle
 10
990.846766
 20
622.301324
 30
0.0
 40
1.000000000000016
100
AcDbArc
 50
10.512056
 51
99.0
  0
LINE
  5
237
330
1DF
100
AcDbEntity
  8
0
  6
Continuous
 62
     0
370
     0
100
AcDbLine
 10
899.101036
 20
607.770228
 30
0.0
 11
899.10104
 21
592.981026
 31
0.0
  0
LINE
  5
238
330
1DF
100
AcDbEntity
  8
0
  6
Continuous
 62
     0
370
     0
100
AcDbLine
 10
984.762137
 20
622.350079
 30
0.0
 11
984.918572
 21
621.362391
 31
0.0
  0
ARC
  5
239
330
1DF
100
AcDbEntity
  8
0
  6
Continuous
 62
     0
370
    30
100
AcDbCircle
 10
893.101036
 20
606.819922
 30
0.0
 40
0.9999999999999946
100
AcDbArc
 50
99.0
 51
180.000014
  0
LINE
  5
23A
330
1DF
100
AcDbEntity
  8
0
  6
Continuous
 62
     0
370
     0
100
AcDbLine
 10
898.944601
 20
608.757917
 30
0.0
 11
899.101036
 21
607.770228
 31
0.0
  0
ARC
  5
23B
330
1DF
100
AcDbEntity
  8
0
  6
Continuous
 62
     0
370
    30
100
AcDbCircle
 10
913.057284
 20
582.206806
 30
0.0
 40
20.49999999991807
100
AcDbArc
 50
144.639309
 51
172.147427
  0
LINE
  5
23C
330
1DF
100
AcDbEntity
  8
0
  6
Continuous
 62
     0
370
    30
100
AcDbLine
 10
998.354896
 20
540.007566
 30
0.0
 11
1015.353526
 21
540.007566
 31
0.0
  0
LINE
  5
23D
330
1DF
100
AcDbEntity
  8
0
  6
Continuous
 62
     0
370
     0
100
AcDbLine
 10
997.854198
 20
540.508264
 30
0.0
 11
1015.854225
 21
540.508264
 31
0.0
  0
LINE
  5
23E
330
1DF
100
AcDbEntity
  8
0
  6
Continuous
 62
     0
370
    30
100
AcDbLine
 10
997.754218
 20
541.007567
 30
0.0
 11
1015.954205
 21
541.007567
 31
0.0
  0
LINE
  5
23F
330
1DF
100
AcDbEntity
  8
0
  6
Continuous
 62
     0
370
    30
100
AcDbLine
 10
996.454211
 20
542.307575
 30
0.0
 11
1017.254212
 21
542.307575
 31
0.0
  0
LINE
  5
240
330
1DF
100
AcDbEntity
  8
0
  6
Continuous
 62
     0
370
    30
100
AcDbLine
 10
996.454211
 20
552.053969
 30
0.0
 11
1017.254212
 21
552.053969
 31
0.0
  0
LINE
  5
241
330
1DF
100
AcDbEntity
  8
0
  6
Continuous
 62
     0
370
    30
100
AcDbLine
 10
997.654198
 20
553.253957
 30
0.0
 11
1016.054225
 21
553.253957
 31
0.0
  0
LINE
  5
242
330
1DF
100
AcDbEntity
  8
0
  6
Continuous
 62
     0
370
     0
100
AcDbLine
 10
997.654198
 20
553.807299
 30
0.0
 11
1016.054225
 21
553.807299
 31
0.0
  0
LINE
  5
243
330
1DF
100
AcDbEntity
  8
0
  6
Continuous
 62
     0
370
    30
100
AcDbLine
 10
995.054483
 20
554.007567
 30
0.0
 11
1018.65394
 21
554.007567
 31
0.0
  0
LINE
  5
244
330
1DF
100
AcDbEntity
  8
0
  6
Continuous
 62
     0
370
     0
100
AcDbLine
 10
994.854197
 20
554.207852
 30
0.0
 11
1018.854225
 21
554.207852
 31
0.0
  0
LINE
  5
245
330
1DF
100
AcDbEntity
  8
0
  6
Continuous
 62
     0
370
    30
100
AcDbLine
 10
994.354207
 20
558.007611
 30
0.0
 11
1019.354215
 21
558.007611
 31
0.0
  0
LINE
  5
246
330
1DF
100
AcDbEntity
  8
0
  6
Continuous
 62
     0
370
    30
100
AcDbLine
 10
993.854197
 20
558.507621
 30
0.0
 11
1019.854225
 21
558.507621
 31
0.0
  0
LINE
  5
247
330
1DF
100
AcDbEntity
  8
0
  6
Continuous
 62
     0
370
    30
100
AcDbLine
 10
1016.854211
 20
587.283468
 30
0.0
 11
996.854212
 21
587.283468
 31
0.0
  0
LINE
  5
248
330
1DF
100
AcDbEntity
  8
0
  6
Continuous
 62
     0
370
    30
100
AcDbLine
 10
1014.604211
 20
587.886354
 30
0.0
 11
999.104212
 21
587.886354
 31
0.0
  0
LINE
  5
249
330
1DF
100
AcDbEntity
  8
0
  6
Continuous
 62
     0
370
    30
100
AcDbLine
 10
1016.354211
 20
588.637594
 30
0.0
 11
997.354212
 21
588.637594
 31
0.0
  0
LINE
  5
24A
330
1DF
100
AcDbEntity
  8
0
  6
Continuous
 62
     0
370
     0
100
AcDbLine
 10
1016.854211
 20
589.137594
 30
0.0
 11
996.854212
 21
589.137594
 31
0.0
  0
LINE
  5
24B
330
1DF
100
AcDbEntity
  8
0
  6
Continuous
 62
     0
370
     0
100
AcDbLine
 10
1016.854211
 20
601.636649
 30
0.0
 11
996.854212
 21
601.636649
 31
0.0
  0
LINE
  5
24C
330
1DF
100
AcDbEntity
  8
0
  6
Continuous
 62
     0
370
    30
100
AcDbLine
 10
1017.854211
 20
602.637594
 30
0.0
 11
995.854211
 21
602.637594
 31
0.0
  0
LINE
  5
24D
330
1DF
100
AcDbEntity
  8
0
  6
Continuous
 62
     0
370
     0
100
AcDbLine
 10
1018.854212
 20
603.63854
 30
0.0
 11
994.854211
 21
603.63854
 31
0.0
  0
LINE
  5
24E
330
1DF
100
AcDbEntity
  8
0
  6
Continuous
 62
     0
370
     0
100
AcDbLine
 10
1018.854212
 20
608.636649
 30
0.0
 11
994.854211
 21
608.636649
 31
0.0
  0
LINE
  5
24F
330
1DF
100
AcDbEntity
  8
0
  6
Continuous
 62
     0
370
    30
100
AcDbLine
 10
1017.853266
 20
609.637595
 30
0.0
 11
995.855157
 21
609.637595
 31
0.0
  0
LINE
  5
250
330
1DF
100
AcDbEntity
  8
0
  6
Continuous
 62
     0
370
    30
100
AcDbLine
 10
1056.104211
 20
557.757589
 30
0.0
 11
1046.854211
 21
557.757589
 31
0.0
  0
LINE
  5
251
330
1DF
100
AcDbEntity
  8
0
  6
Continuous
 62
     0
370
    30
100
AcDbLine
 10
1046.854211
 20
557.757589
 30
0.0
 11
1037.604211
 21
557.757589
 31
0.0
  0
LINE
  5
252
330
1DF
100
AcDbEntity
  8
0
  6
Continuous
 62
     0
370
    30
100
AcDbLine
 10
1037.604211
 20
559.007589
 30
0.0
 11
1037.604211
 21
557.757589
 31
0.0
  0
LINE
  5
253
330
1DF
100
AcDbEntity
  8
0
  6
Continuous
 62
     0
370
    30
100
AcDbLine
 10
1056.104211
 20
559.007589
 30
0.0
 11
1056.104211
 21
557.757589
 31
0.0
  0
ARC
  5
254
330
1DF
100
AcDbEntity
  8
0
  6
Continuous
 62
     0
370
    30
100
AcDbCircle
 10
912.651138
 20
582.206806
 30
0.0
 40
20.49999999991807
100
AcDbArc
 50
7.852573
 51
9.507865
  0
LINE
  5
255
330
1DF
100
AcDbEntity
  8
0
  6
Continuous
 62
     0
370
    30
100
AcDbLine
 10
993.854197
 20
558.507621
 30
0.0
 11
993.854197
 21
559.007615
 31
0.0
  0
LINE
  5
256
330
1DF
100
AcDbEntity
  8
0
  6
Continuous
 62
     0
370
    30
100
AcDbLine
 10
1019.854225
 20
558.507621
 30
0.0
 11
1019.854225
 21
559.007615
 31
0.0
  0
LINE
  5
257
330
1DF
100
AcDbEntity
  8
0
  6
Continuous
 62
     0
370
    30
100
AcDbLine
 10
994.354207
 20
558.007611
 30
0.0
 11
993.854197
 21
558.507621
 31
0.0
  0
LINE
  5
258
330
1DF
100
AcDbEntity
  8
0
  6
Continuous
 62
     0
370
    30
100
AcDbLine
 10
1019.354215
 20
558.007611
 30
0.0
 11
1019.854225
 21
558.507621
 31
0.0
  0
LINE
  5
259
330
1DF
100
AcDbEntity
  8
0
  6
Continuous
 62
     0
370
    30
100
AcDbLine
 10
994.854197
 20
554.207852
 30
0.0
 11
994.854197
 21
558.007611
 31
0.0
  0
LINE
  5
25A
330
1DF
100
AcDbEntity
  8
0
  6
Continuous
 62
     0
370
    30
100
AcDbLine
 10
1018.854225
 20
554.207852
 30
0.0
 11
1018.854225
 21
558.007611
 31
0.0
  0
ARC
  5
25B
330
1DF
100
AcDbEntity
  8
0
  6
Continuous
 62
     0
370
    30
100
AcDbCircle
 10
995.054483
 20
554.207852
 30
0.0
 40
0.200285110191701
100
AcDbArc
 50
180.0
 51
270.0
  0
ARC
  5
25C
330
1DF
100
AcDbEntity
  8
0
  6
Continuous
 62
     0
370
    30
100
AcDbCircle
 10
1018.65394
 20
554.207852
 30
0.0
 40
0.200285110191701
100
AcDbArc
 50
270.0
 51
360.0
  0
ARC
  5
25D
330
1DF
100
AcDbEntity
  8
0
  6
Continuous
 62
     0
370
    30
100
AcDbCircle
 10
997.45393
 20
553.807299
 30
0.0
 40
0.2002679970140918
100
AcDbArc
 50
0.0
 51
90.0
  0
ARC
  5
25E
330
1DF
100
AcDbEntity
  8
0
  6
Continuous
 62
     0
370
    30
100
AcDbCircle
 10
1016.254493
 20
553.807299
 30
0.0
 40
0.2002679970140918
100
AcDbArc
 50
90.0
 51
180.0
  0
LINE
  5
25F
330
1DF
100
AcDbEntity
  8
0
  6
Continuous
 62
     0
370
    30
100
AcDbLine
 10
997.654198
 20
553.253957
 30
0.0
 11
997.654198
 21
553.807299
 31
0.0
  0
LINE
  5
260
330
1DF
100
AcDbEntity
  8
0
  6
Continuous
 62
     0
370
    30
100
AcDbLine
 10
1016.054225
 20
553.253957
 30
0.0
 11
1016.054225
 21
553.807299
 31
0.0
  0
LINE
  5
261
330
1DF
100
AcDbEntity
  8
0
  6
Continuous
 62
     0
370
    30
100
AcDbLine
 10
996.454211
 20
552.053969
 30
0.0
 11
997.654198
 21
553.253957
 31
0.0
  0
LINE
  5
262
330
1DF
100
AcDbEntity
  8
0
  6
Continuous
 62
     0
370
    30
100
AcDbLine
 10
1017.254212
 20
552.053969
 30
0.0
 11
1016.054225
 21
553.253957
 31
0.0
  0
LINE
  5
263
330
1DF
100
AcDbEntity
  8
0
  6
Continuous
 62
     0
370
    30
100
AcDbLine
 10
996.454211
 20
542.307575
 30
0.0
 11
996.454211
 21
552.053969
 31
0.0
  0
LINE
  5
264
330
1DF
100
AcDbEntity
  8
0
  6
Continuous
 62
     0
370
    30
100
AcDbLine
 10
1017.254212
 20
542.307575
 30
0.0
 11
1017.254212
 21
552.053969
 31
0.0
  0
LINE
  5
265
330
1DF
100
AcDbEntity
  8
0
  6
Continuous
 62
     0
370
    30
100
AcDbLine
 10
997.754218
 20
541.007567
 30
0.0
 11
996.454211
 21
542.307575
 31
0.0
  0
LINE
  5
266
330
1DF
100
AcDbEntity
  8
0
  6
Continuous
 62
     0
370
    30
100
AcDbLine
 10
1015.954205
 20
541.007567
 30
0.0
 11
1017.254212
 21
542.307575
 31
0.0
  0
LINE
  5
267
330
1DF
100
AcDbEntity
  8
0
  6
Continuous
 62
     0
370
    30
100
AcDbLine
 10
997.854198
 20
540.508264
 30
0.0
 11
997.854198
 21
541.007567
 31
0.0
  0
LINE
  5
268
330
1DF
100
AcDbEntity
  8
0
  6
Continuous
 62
     0
370
    30
100
AcDbLine
 10
1015.854225
 20
540.508264
 30
0.0
 11
1015.854225
 21
541.007567
 31
0.0
  0
ARC
  5
269
330
1DF
100
AcDbEntity
  8
0
  6
Continuous
 62
     0
370
    30
100
AcDbCircle
 10
998.354896
 20
540.508264
 30
0.0
 40
0.5006981442812252
100
AcDbArc
 50
180.0
 51
270.0
  0
ARC
  5
26A
330
1DF
100
AcDbEntity
  8
0
  6
Continuous
 62
     0
370
    30
100
AcDbCircle
 10
1015.353526
 20
540.508264
 30
0.0
 40
0.5006981442812252
100
AcDbArc
 50
270.0
 51
360.0
  0
ARC
  5
26B
330
1DF
100
AcDbEntity
  8
0
  6
Continuous
 62
     0
370
    30
100
AcDbCircle
 10
1017.853266
 20
608.636649
 30
0.0
 40
1.000946087843346
100
AcDbArc
 50
0.0
 51
90.0
  0
ARC
  5
26C
330
1DF
100
AcDbEntity
  8
0
  6
Continuous
 62
     0
370
    30
100
AcDbCircle
 10
995.855157
 20
608.636649
 30
0.0
 40
1.000946087843346
100
AcDbArc
 50
90.0
 51
180.0
  0
LINE
  5
26D
330
1DF
100
AcDbEntity
  8
0
  6
Continuous
 62
     0
370
    30
100
AcDbLine
 10
1018.854212
 20
603.63854
 30
0.0
 11
1018.854212
 21
608.636649
 31
0.0
  0
LINE
  5
26E
330
1DF
100
AcDbEntity
  8
0
  6
Continuous
 62
     0
370
    30
100
AcDbLine
 10
994.854211
 20
603.63854
 30
0.0
 11
994.854211
 21
608.636649
 31
0.0
  0
ARC
  5
26F
330
1DF
100
AcDbEntity
  8
0
  6
Continuous
 62
     0
370
    30
100
AcDbCircle
 10
1017.853266
 20
603.63854
 30
0.0
 40
1.000946087858942
100
AcDbArc
 50
270.05413
 51
0.0
  0
ARC
  5
270
330
1DF
100
AcDbEntity
  8
0
  6
Continuous
 62
     0
370
    30
100
AcDbCircle
 10
995.855157
 20
603.63854
 30
0.0
 40
1.000946087858942
100
AcDbArc
 50
180.0
 51
269.94587
  0
ARC
  5
271
330
1DF
100
AcDbEntity
  8
0
  6
Continuous
 62
     0
370
    30
100
AcDbCircle
 10
1017.855157
 20
601.636649
 30
0.0
 40
1.000946087843413
100
AcDbArc
 50
90.05413
 51
180.0
  0
ARC
  5
272
330
1DF
100
AcDbEntity
  8
0
  6
Continuous
 62
     0
370
    30
100
AcDbCircle
 10
995.853266
 20
601.636649
 30
0.0
 40
1.000946087843413
100
AcDbArc
 50
0.0
 51
89.94587
  0
LINE
  5
273
330
1DF
100
AcDbEntity
  8
0
  6
Continuous
 62
     0
370
    30
100
AcDbLine
 10
1016.854211
 20
589.137594
 30
0.0
 11
1016.854211
 21
601.636649
 31
0.0
  0
LINE
  5
274
330
1DF
100
AcDbEntity
  8
0
  6
Continuous
 62
     0
370
    30
100
AcDbLine
 10
996.854212
 20
589.137594
 30
0.0
 11
996.854212
 21
601.636649
 31
0.0
  0
ARC
  5
275
330
1DF
100
AcDbEntity
  8
0
  6
Continuous
 62
     0
370
    30
100
AcDbCircle
 10
1016.354211
 20
589.137594
 30
0.0
 40
0.4999999999999983
100
AcDbArc
 50
270.0
 51
0.0
  0
ARC
  5
276
330
1DF
100
AcDbEntity
  8
0
  6
Continuous
 62
     0
370
    30
100
AcDbCircle
 10
997.354212
 20
589.137594
 30
0.0
 40
0.4999999999999983
100
AcDbArc
 50
180.0
 51
270.0
  0
LINE
  5
277
330
1DF
100
AcDbEntity
  8
0
  6
Continuous
 62
     0
370
    30
100
AcDbLine
 10
1014.604211
 20
587.886354
 30
0.0
 11
1014.604211
 21
588.637594
 31
0.0
  0
LINE
  5
278
330
1DF
100
AcDbEntity
  8
0
  6
Continuous
 62
     0
370
    30
100
AcDbLine
 10
999.104212
 20
587.886354
 30
0.0
 11
999.104212
 21
588.637594
 31
0.0
  0
LINE
  5
279
330
1DF
100
AcDbEntity
  8
0
  6
Continuous
 62
     0
370
    30
100
AcDbLine
 10
1016.854211
 20
587.283468
 30
0.0
 11
1014.604211
 21
587.886354
 31
0.0
  0
LINE
  5
27A
330
1DF
100
AcDbEntity
  8
0
  6
Continuous
 62
     0
370
    30
100
AcDbLine
 10
996.854212
 20
587.283468
 30
0.0
 11
999.104212
 21
587.886354
 31
0.0
  0
LINE
  5
27B
330
1DF
100
AcDbEntity
  8
0
  6
Continuous
 62
     0
370
    30
100
AcDbLine
 10
1016.854211
 20
585.00761
 30
0.0
 11
1016.854211
 21
587.283468
 31
0.0
  0
LINE
  5
27C
330
1DF
100
AcDbEntity
  8
0
  6
Continuous
 62
     0
370
    30
100
AcDbLine
 10
996.854212
 20
585.00761
 30
0.0
 11
996.854212
 21
587.283468
 31
0.0
  0
LINE
  5
27D
330
1DF
100
AcDbEntity
  8
0
  6
Continuous
 62
     0
370
    30
100
AcDbLine
 10
875.454213
 20
593.507595
 30
0.0
 11
855.954261
 21
593.507595
 31
0.0
  0
LINE
  5
27E
330
1DF
100
AcDbEntity
  8
0
  6
Continuous
 62
     0
370
    30
100
AcDbLine
 10
875.454213
 20
530.507595
 30
0.0
 11
855.954261
 21
530.507595
 31
0.0
  0
ARC
  5
27F
330
1DF
100
AcDbEntity
  8
0
  6
Continuous
 62
     0
370
    30
100
AcDbCircle
 10
875.454213
 20
593.007595
 30
0.0
 40
0.5
100
AcDbArc
 50
0.0
 51
90.0
  0
ARC
  5
280
330
1DF
100
AcDbEntity
  8
0
  6
Continuous
 62
     0
370
    30
100
AcDbCircle
 10
875.454213
 20
531.007595
 30
0.0
 40
0.5
100
AcDbArc
 50
270.0
 51
360.0
  0
LINE
  5
281
330
1DF
100
AcDbEntity
  8
0
  6
Continuous
 62
     0
370
    30
100
AcDbLine
 10
890.854215
 20
578.007595
 30
0.0
 11
875.954213
 21
578.007595
 31
0.0
  0
LINE
  5
282
330
1DF
100
AcDbEntity
  8
0
  6
Continuous
 62
     0
370
    30
100
AcDbLine
 10
890.854215
 20
546.007595
 30
0.0
 11
875.954213
 21
546.007595
 31
0.0
  0
LINE
  5
283
330
1DF
100
AcDbEntity
  8
0
  6
Continuous
 62
     0
370
    30
100
AcDbLine
 10
935.242553
 20
558.191931
 30
0.0
 11
935.230188
 21
558.174819
 31
0.0
  0
LINE
  5
284
330
1DF
100
AcDbEntity
  8
0
  6
Continuous
 62
     0
370
    30
100
AcDbLine
 10
936.860542
 20
559.00763
 30
0.0
 11
936.829447
 21
559.007351
 31
0.0
  0
LINE
  5
285
330
1DF
100
AcDbEntity
  8
0
  6
Continuous
 62
     0
370
    30
100
AcDbLine
 10
885.070775
 20
791.648096
 30
0.0
 11
914.537733
 21
791.648096
 31
0.0
  0
ARC
  5
286
330
1DF
100
AcDbEntity
  8
0
  6
Continuous
 62
     0
370
    30
100
AcDbCircle
 10
914.537733
 20
790.648096
 30
0.0
 40
0.9999999999961053
100
AcDbArc
 50
0.1
 51
90.0
  0
LINE
  5
287
330
1DF
100
AcDbEntity
  8
0
  6
Continuous
 62
     0
370
     0
100
AcDbLine
 10
884.070777
 20
790.649842
 30
0.0
 11
915.537731
 21
790.649842
 31
0.0
  0
LWPOLYLINE
  5
288
330
1DF
100
AcDbEntity
  8
0
  6
Continuous
 62
     0
370
     0
100
AcDbPolyline
 90
       25
 70
     0
 43
0.0
 10
914.80426
 20
711.403442
 10
914.785828
 20
711.436707
 10
914.73114
 20
711.537109
 10
914.641968
 20
711.700928
 10
914.521179
 20
711.925537
 10
914.372131
 20
712.205994
 10
914.198792
 20
712.537415
 10
914.005188
 20
712.915161
 10
913.795044
 20
713.3349
 10
913.572266
 20
713.792542
 10
913.340637
 20
714.284241
 10
913.103516
 20
714.806946
 10
912.864136
 20
715.358215
 10
912.625793
 20
715.935852
 10
912.391724
 20
716.537598
 10
912.165222
 20
717.161499
 10
911.949463
 20
717.806091
 10
911.74762
 20
718.46991
 10
911.562927
 20
719.15155
 10
911.398499
 20
719.849304
 10
911.257507
 20
720.561218
 10
911.142822
 20
721.285339
 10
911.057007
 20
722.019287
 10
911.002136
 20
722.760193
 10
910.979309
 20
723.507568
  0
LINE
  5
289
330
1DF
100
AcDbEntity
  8
0
  6
Continuous
 62
     0
370
     0
100
AcDbLine
 10
910.979321
 20
723.507556
 30
0.0
 11
910.979321
 21
773.148533
 31
0.0
  0
LWPOLYLINE
  5
28A
330
1DF
100
AcDbEntity
  8
0
  6
Continuous
 62
     0
370
     0
100
AcDbPolyline
 90
       26
 70
     0
 43
0.0
 10
910.979309
 20
773.14856
 10
910.994751
 20
773.868042
 10
911.040344
 20
774.585144
 10
911.115112
 20
775.296509
 10
911.217529
 20
775.99939
 10
911.345337
 20
776.691589
 10
911.495972
 20
777.371155
 10
911.666748
 20
778.036438
 10
911.854858
 20
778.685852
 10
912.057312
 20
779.317932
 10
912.271179
 20
779.931152
 10
912.49353
 20
780.524048
 10
912.721497
 20
781.095276
 10
912.952332
 20
781.643433
 10
913.183167
 20
782.166565
 10
913.41095
 20
782.662415
 10
913.63269
 20
783.128662
 10
913.845276
 20
783.562134
 10
914.045105
 20
783.959351
 10
914.228943
 20
784.316528
 10
914.393188
 20
784.629822
 10
914.534302
 20
784.894958
 10
914.648682
 20
785.107483
 10
914.733276
 20
785.263
 10
914.785706
 20
785.359253
 10
914.80426
 20
785.392883
  0
LWPOLYLINE
  5
28B
330
1DF
100
AcDbEntity
  8
0
  6
Continuous
 62
     0
370
    30
100
AcDbPolyline
 90
       18
 70
     0
 43
0.0
 10
911.196899
 20
774.086304
 10
911.771118
 20
771.052551
 10
912.274048
 20
768.018799
 10
912.705627
 20
764.985046
 10
913.065857
 20
761.951355
 10
913.354797
 20
758.917603
 10
913.572327
 20
755.88385
 10
913.718567
 20
752.850098
 10
913.793457
 20
749.816345
 10
913.797058
 20
746.782593
 10
913.729248
 20
743.74884
 10
913.590149
 20
740.715088
 10
913.3797
 20
737.681396
 10
913.0979
 20
734.647644
 10
912.744812
 20
731.613892
 10
912.320312
 20
728.580139
 10
911.824524
 20
725.546387
 10
911.221741
 20
722.333679
  0
ARC
  5
28C
330
1DF
100
AcDbEntity
  8
0
  6
Continuous
 62
     0
370
    30
100
AcDbCircle
 10
914.054281
 20
785.392868
 30
0.0
 40
0.7499729662533952
100
AcDbArc
 50
332.341727
 51
0.00045
  0
LINE
  5
28D
330
1DF
100
AcDbEntity
  8
0
  6
Continuous
 62
     0
370
     0
100
AcDbLine
 10
910.979321
 20
773.148533
 30
0.0
 11
911.170549
 21
773.148533
 31
0.0
  0
ARC
  5
28E
330
1DF
100
AcDbEntity
  8
0
  6
Continuous
 62
     0
370
    30
100
AcDbCircle
 10
914.054286
 20
711.403421
 30
0.0
 40
0.7499680792659349
100
AcDbArc
 50
359.999476
 51
27.914308
  0
LINE
  5
28F
330
1DF
100
AcDbEntity
  8
0
  6
Continuous
 62
     0
370
    30
100
AcDbLine
 10
883.704254
 20
580.648096
 30
0.0
 11
890.854201
 21
580.648096
 31
0.0
  0
LINE
  5
290
330
1DF
100
AcDbEntity
  8
0
  6
Continuous
 62
     0
370
    30
100
AcDbLine
 10
915.85052
 20
611.435553
 30
0.0
 11
915.678234
 21
710.148096
 31
0.0
  0
LWPOLYLINE
  5
291
330
1DF
100
AcDbEntity
  8
0
  6
Continuous
 62
     0
370
    30
100
AcDbPolyline
 90
       29
 70
     0
 43
0.0
 10
915.678223
 20
710.148071
 10
915.657166
 20
710.174133
 10
915.594788
 20
710.247192
 10
915.492371
 20
710.367065
 10
915.351318
 20
710.533264
 10
915.173706
 20
710.743713
 10
914.962219
 20
710.995911
 10
914.719543
 20
711.287109
 10
914.448608
 20
711.614624
 10
914.152405
 20
711.976013
 10
913.833679
 20
712.369141
 10
913.4953
 20
712.791809
 10
913.14032
 20
713.241882
 10
912.771484
 20
713.717529
 10
912.391296
 20
714.217651
 10
912.002563
 20
714.741272
 10
911.608215
 20
715.287598
 10
911.211426
 20
715.85614
 10
910.815186
 20
716.446228
 10
910.423523
 20
717.058289
 10
910.040405
 20
717.692871
 10
909.670288
 20
718.350586
 10
909.319519
 20
719.032471
 10
908.9953
 20
719.739624
 10
908.705811
 20
720.472961
 10
908.461731
 20
721.231812
 10
908.27478
 20
722.014954
 10
908.155029
 20
722.817383
 10
908.110046
 20
723.648071
  0
LINE
  5
292
330
1DF
100
AcDbEntity
  8
0
  6
Continuous
 62
     0
370
    30
100
AcDbLine
 10
908.11002
 20
723.648096
 30
0.0
 11
907.943938
 21
773.148096
 31
0.0
  0
LWPOLYLINE
  5
293
330
1DF
100
AcDbEntity
  8
0
  6
Continuous
 62
     0
370
    30
100
AcDbPolyline
 90
       29
 70
     0
 43
0.0
 10
907.943909
 20
773.148071
 10
907.982544
 20
773.960571
 10
908.098022
 20
774.764771
 10
908.282654
 20
775.549622
 10
908.526123
 20
776.309753
 10
908.816345
 20
777.044067
 10
909.141907
 20
777.751892
 10
909.494629
 20
778.434143
 10
909.866943
 20
779.092041
 10
910.25238
 20
779.726746
 10
910.646545
 20
780.338867
 10
911.045288
 20
780.929077
 10
911.444702
 20
781.497742
 10
911.841492
 20
782.044312
 10
912.232788
 20
782.568176
 10
912.615417
 20
783.068665
 10
912.986633
 20
783.544861
 10
913.343933
 20
783.995483
 10
913.68457
 20
784.418823
 10
914.005493
 20
784.812683
 10
914.303833
 20
785.174927
 10
914.576721
 20
785.503296
 10
914.821289
 20
785.795349
 10
915.034546
 20
786.048462
 10
915.213684
 20
786.259888
 10
915.35614
 20
786.426941
 10
915.459717
 20
786.547607
 10
915.52301
 20
786.621399
 10
915.544739
 20
786.648071
  0
LINE
  5
294
330
1DF
100
AcDbEntity
  8
0
  6
Continuous
 62
     0
370
    30
100
AcDbLine
 10
915.544716
 20
786.648096
 30
0.0
 11
915.537731
 21
790.649842
 31
0.0
  0
LINE
  5
295
330
1DF
100
AcDbEntity
  8
0
  6
Continuous
 62
     0
370
     0
100
AcDbLine
 10
911.170567
 20
723.51059
 30
0.0
 11
910.979321
 21
723.507556
 31
0.0
  0
LINE
  5
296
330
1DF
100
AcDbEntity
  8
0
  6
Continuous
 62
     0
370
    30
100
AcDbLine
 10
901.257673
 20
506.34907
 30
0.0
 11
894.069274
 21
506.349083
 31
0.0
  0
LINE
  5
297
330
1DF
100
AcDbEntity
  8
0
  6
Continuous
 62
     0
370
    30
100
AcDbLine
 10
894.069274
 20
506.349083
 30
0.0
 11
887.172757
 21
506.349128
 31
0.0
  0
LINE
  5
298
330
1DF
100
AcDbEntity
  8
0
  6
Continuous
 62
     0
370
    30
100
AcDbLine
 10
911.170567
 20
723.510641
 30
0.0
 11
911.170567
 21
773.148533
 31
0.0
  0
LWPOLYLINE
  5
299
330
1DF
100
AcDbEntity
  8
0
  6
Continuous
 62
     0
370
    30
100
AcDbPolyline
 90
       26
 70
     0
 43
0.0
 10
911.170532
 20
723.51062
 10
911.189636
 20
722.840942
 10
911.234985
 20
722.173035
 10
911.304932
 20
721.509338
 10
911.39801
 20
720.852295
 10
911.512634
 20
720.204407
 10
911.647156
 20
719.567993
 10
911.799438
 20
718.944397
 10
911.96698
 20
718.334778
 10
912.147339
 20
717.740173
 10
912.338196
 20
717.161621
 10
912.537048
 20
716.60022
 10
912.741455
 20
716.057129
 10
912.949097
 20
715.533936
 10
913.15741
 20
715.032654
 10
913.363953
 20
714.555298
 10
913.566284
 20
714.103882
 10
913.76178
 20
713.680603
 10
913.947571
 20
713.289001
 10
914.120483
 20
712.932678
 10
914.277405
 20
712.615479
 10
914.415222
 20
712.34137
 10
914.530884
 20
712.114441
 10
914.620972
 20
711.939453
 10
914.68219
 20
711.821289
 10
914.717163
 20
711.754578
  0
LINE
  5
29A
330
1DF
100
AcDbEntity
  8
0
  6
Continuous
 62
     0
370
    30
100
AcDbLine
 10
883.704254
 20
580.648096
 30
0.0
 11
884.070777
 21
790.649842
 31
0.0
  0
LINE
  5
29B
330
1DF
100
AcDbEntity
  8
0
  6
Continuous
 62
     0
370
    30
100
AcDbLine
 10
888.433396
 20
578.007595
 30
0.0
 11
888.304254
 21
580.648096
 31
0.0
  0
LWPOLYLINE
  5
29C
330
1DF
100
AcDbEntity
  8
0
  6
Continuous
 62
     0
370
    30
100
AcDbPolyline
 90
       12
 70
     0
 43
0.0
 10
905.191345
 20
539.007629
 10
904.812134
 20
536.069397
 10
904.43811
 20
533.130554
 10
904.071045
 20
530.190979
 10
903.712402
 20
527.250366
 10
903.360413
 20
524.309021
 10
903.009094
 20
521.367615
 10
902.652222
 20
518.426758
 10
902.285034
 20
515.487
 10
901.919495
 20
512.547058
 10
901.578552
 20
509.604401
 10
901.258423
 20
506.34903
  0
LWPOLYLINE
  5
29D
330
1DF
100
AcDbEntity
  8
0
  6
Continuous
 62
     0
370
    30
100
AcDbPolyline
 90
       12
 70
     0
 43
0.0
 10
891.190613
 20
539.897583
 10
890.801575
 20
536.870361
 10
890.41748
 20
533.842529
 10
890.040344
 20
530.813904
 10
889.671875
 20
527.784302
 10
889.311218
 20
524.753784
 10
888.952209
 20
521.723083
 10
888.588074
 20
518.692932
 10
888.212952
 20
515.66394
 10
887.838257
 20
512.634888
 10
887.489014
 20
509.603027
 10
887.171997
 20
506.349091
  0
LWPOLYLINE
  5
29E
330
1DF
100
AcDbEntity
  8
0
  6
Continuous
 62
     0
370
    30
100
AcDbPolyline
 90
       26
 70
     0
 43
0.0
 10
914.718567
 20
785.044739
 10
914.695801
 20
785.001038
 10
914.641235
 20
784.895874
 10
914.556885
 20
784.7323
 10
914.44519
 20
784.513733
 10
914.309692
 20
784.244995
 10
914.153564
 20
783.930603
 10
913.980225
 20
783.574707
 10
913.792969
 20
783.181519
 10
913.595093
 20
782.754944
 10
913.389587
 20
782.298401
 10
913.179321
 20
781.814453
 10
912.96698
 20
781.305542
 10
912.75531
 20
780.774109
 10
912.546875
 20
780.221985
 10
912.344177
 20
779.650452
 10
912.14978
 20
779.060852
 10
911.966125
 20
778.454468
 10
911.795715
 20
777.83252
 10
911.640991
 20
777.196533
 10
911.504456
 20
776.547913
 10
911.38855
 20
775.888062
 10
911.295715
 20
775.218384
 10
911.227844
 20
774.541016
 10
911.185852
 20
773.858765
 10
911.170532
 20
773.14856
  0
LINE
  5
29F
330
1DF
100
AcDbEntity
  8
0
  6
Continuous
 62
     0
370
    30
100
AcDbLine
 10
914.804254
 20
711.185212
 30
0.0
 11
914.804254
 21
711.403414
 31
0.0
  0
LINE
  5
2A0
330
1DF
100
AcDbEntity
  8
0
  6
Continuous
 62
     0
370
    30
100
AcDbLine
 10
914.804254
 20
785.392874
 30
0.0
 11
914.804254
 21
785.775051
 31
0.0
  0
ARC
  5
2A1
330
1DF
100
AcDbEntity
  8
0
  6
Continuous
 62
     0
370
    30
100
AcDbCircle
 10
885.071209
 20
790.647662
 30
0.0
 40
1.000434434206468
100
AcDbArc
 50
90.030559
 51
179.875171
  0
ENDBLK
  5
2A3
330
1DF
100
AcDbEntity
  8
0
100
AcDbBlockEnd
  0
BLOCK
  5
375
330
2A5
100
AcDbEntity
  8
0
100
AcDbBlockBegin
  2
d
 70
     0
 10
41.334717
 20
0.0
 30
0.0
  3
d
  1

  0
LWPOLYLINE
  5
2A6
330
2A5
100
AcDbEntity
  8
0
  6
Continuous
 62
     0
370
    30
100
AcDbPolyline
 90
       19
 70
     0
 43
0.0
 10
-85.372864
 20
541.007629
 10
-85.372864
 20
541.044189
 10
-85.372864
 20
541.155762
 10
-85.372871
 20
541.343567
 10
-85.372871
 20
541.607239
 10
-85.372871
 20
541.944519
 10
-85.372871
 20
542.351562
 10
-85.372871
 20
542.822876
 10
-85.372871
 20
543.351501
 10
-85.372871
 20
543.929688
 10
-85.372871
 20
544.559448
 10
-85.372871
 20
545.24585
 10
-85.372871
 20
545.98291
 10
-85.372871
 20
546.763123
 10
-85.372871
 20
547.577942
 10
-85.372871
 20
548.417847
 10
-85.372871
 20
549.272888
 10
-85.372871
 20
550.132996
 10
-85.372871
 20
551.007629
  0
LINE
  5
2A7
330
2A5
100
AcDbEntity
  8
0
  6
Continuous
 62
     0
370
    30
100
AcDbLine
 10
-85.372868
 20
551.007599
 30
0.0
 11
-85.372868
 21
573.007595
 31
0.0
  0
LINE
  5
2A8
330
2A5
100
AcDbEntity
  8
0
  6
Continuous
 62
     0
370
    30
100
AcDbLine
 10
-85.372868
 20
573.007595
 30
0.0
 11
-85.372868
 21
583.007595
 31
0.0
  0
ARC
  5
2A9
330
2A5
100
AcDbEntity
  8
0
  6
Continuous
 62
     0
370
    30
100
AcDbCircle
 10
-83.372868
 20
541.007595
 30
0.0
 40
2.0
100
AcDbArc
 50
180.0
 51
270.0
  0
LINE
  5
2AA
330
2A5
100
AcDbEntity
  8
0
  6
Continuous
 62
     0
370
     0
100
AcDbLine
 10
-83.372868
 20
539.007599
 30
0.0
 11
-83.372868
 21
551.007599
 31
0.0
  0
LINE
  5
2AB
330
2A5
100
AcDbEntity
  8
0
  6
Continuous
 62
     0
370
     0
100
AcDbLine
 10
-83.372868
 20
551.007599
 30
0.0
 11
-85.372868
 21
551.007599
 31
0.0
  0
LINE
  5
2AC
330
2A5
100
AcDbEntity
  8
0
  6
Continuous
 62
     0
370
     0
100
AcDbLine
 10
-83.372868
 20
551.007599
 30
0.0
 11
-83.372868
 21
573.007595
 31
0.0
  0
LINE
  5
2AD
330
2A5
100
AcDbEntity
  8
0
  6
Continuous
 62
     0
370
     0
100
AcDbLine
 10
-83.372868
 20
573.007595
 30
0.0
 11
-85.372868
 21
573.007595
 31
0.0
  0
LINE
  5
2AE
330
2A5
100
AcDbEntity
  8
0
  6
Continuous
 62
     0
370
     0
100
AcDbLine
 10
-83.372868
 20
573.007595
 30
0.0
 11
-83.372868
 21
585.007595
 31
0.0
  0
ARC
  5
2AF
330
2A5
100
AcDbEntity
  8
0
  6
Continuous
 62
     0
370
    30
100
AcDbCircle
 10
-83.372868
 20
583.007595
 30
0.0
 40
2.000000000000252
100
AcDbArc
 50
90.0
 51
180.0
  0
LWPOLYLINE
  5
2B0
330
2A5
100
AcDbEntity
  8
0
  6
Continuous
 62
     0
370
    30
100
AcDbPolyline
 90
       22
 70
     0
 43
0.0
 10
-83.372864
 20
585.007568
 10
-83.412018
 20
585.007568
 10
-83.529083
 20
585.007568
 10
-83.723488
 20
585.007568
 10
-83.994194
 20
585.007568
 10
-84.339546
 20
585.007568
 10
-84.757774
 20
585.007568
 10
-85.246452
 20
585.007568
 10
-85.802834
 20
585.007568
 10
-86.423912
 20
585.007568
 10
-87.106094
 20
585.007568
 10
-87.845634
 20
585.007568
 10
-88.63842
 20
585.007568
 10
-89.479965
 20
585.007568
 10
-90.365677
 20
585.007568
 10
-91.290489
 20
585.007568
 10
-92.249161
 20
585.007568
 10
-93.23642
 20
585.007568
 10
-94.246956
 20
585.007568
 10
-95.275391
 20
585.007568
 10
-96.315475
 20
585.007568
 10
-97.372864
 20
585.007568
  0
LINE
  5
2B1
330
2A5
100
AcDbEntity
  8
0
  6
Continuous
 62
     0
370
     0
100
AcDbLine
 10
-97.372865
 20
585.007595
 30
0.0
 11
-97.372865
 21
583.007595
 31
0.0
  0
LINE
  5
2B2
330
2A5
100
AcDbEntity
  8
0
  6
Continuous
 62
     0
370
     0
100
AcDbLine
 10
-97.372865
 20
583.007595
 30
0.0
 11
-85.372865
 21
583.007595
 31
0.0
  0
LINE
  5
2B3
330
2A5
100
AcDbEntity
  8
0
  6
Continuous
 62
     0
370
    30
100
AcDbLine
 10
-97.372865
 20
585.007595
 30
0.0
 11
-201.372865
 21
585.007595
 31
0.0
  0
LINE
  5
2B4
330
2A5
100
AcDbEntity
  8
0
  6
Continuous
 62
     0
370
     0
100
AcDbLine
 10
-201.372865
 20
585.007595
 30
0.0
 11
-201.372865
 21
583.007595
 31
0.0
  0
LINE
  5
2B5
330
2A5
100
AcDbEntity
  8
0
  6
Continuous
 62
     0
370
     0
100
AcDbLine
 10
-201.372865
 20
583.007595
 30
0.0
 11
-97.372865
 21
583.007595
 31
0.0
  0
LINE
  5
2B6
330
2A5
100
AcDbEntity
  8
0
  6
Continuous
 62
     0
370
    30
100
AcDbLine
 10
-201.372865
 20
585.007595
 30
0.0
 11
-211.372864
 21
585.007595
 31
0.0
  0
ARC
  5
2B7
330
2A5
100
AcDbEntity
  8
0
  6
Continuous
 62
     0
370
    30
100
AcDbCircle
 10
-211.372864
 20
583.007595
 30
0.0
 40
1.99999999999995
100
AcDbArc
 50
90.0
 51
180.0
  0
LWPOLYLINE
  5
2B8
330
2A5
100
AcDbEntity
  8
0
  6
Continuous
 62
     0
370
     0
100
AcDbPolyline
 90
       21
 70
     0
 43
0.0
 10
-213.372864
 20
583.007568
 10
-213.335983
 20
583.007568
 10
-213.225739
 20
583.007568
 10
-213.042694
 20
583.007568
 10
-212.787979
 20
583.007568
 10
-212.463257
 20
583.007568
 10
-212.070358
 20
583.007568
 10
-211.611862
 20
583.007568
 10
-211.090469
 20
583.007568
 10
-210.509415
 20
583.007568
 10
-209.872314
 20
583.007568
 10
-209.182983
 20
583.007568
 10
-208.44574
 20
583.007568
 10
-207.665039
 20
583.007568
 10
-206.845688
 20
583.007568
 10
-205.992844
 20
583.007568
 10
-205.111694
 20
583.007568
 10
-204.207489
 20
583.007568
 10
-203.285492
 20
583.007568
 10
-202.351715
 20
583.007568
 10
-201.372864
 20
583.007568
  0
ARC
  5
2B9
330
2A5
100
AcDbEntity
  8
0
  6
Continuous
 62
     0
370
    30
100
AcDbCircle
 10
-87.372705
 20
557.007933
 30
0.0
 40
1.999661422871359
100
AcDbArc
 50
39.420375
 51
90.004577
  0
LINE
  5
2BA
330
2A5
100
AcDbEntity
  8
0
  6
Continuous
 62
     0
370
    30
100
AcDbLine
 10
-85.827951
 20
558.277729
 30
0.0
 11
-85.758181
 21
558.187762
 31
0.0
  0
ARC
  5
2BB
330
2A5
100
AcDbEntity
  8
0
  6
Continuous
 62
     0
370
    30
100
AcDbCircle
 10
-87.36033
 20
557.011688
 30
0.0
 40
1.9874687541446
100
AcDbArc
 50
359.882005
 51
36.280923
  0
LWPOLYLINE
  5
2BC
330
2A5
100
AcDbEntity
  8
0
  6
Continuous
 62
     0
370
     0
100
AcDbPolyline
 90
        6
 70
     0
 43
0.0
 10
-85.372864
 20
557.007568
 10
-85.396896
 20
557.481506
 10
-85.469597
 20
557.95282
 10
-85.591904
 20
558.415955
 10
-85.764732
 20
558.865356
 10
-86.033409
 20
559.36792
  0
ARC
  5
2BD
330
2A5
100
AcDbEntity
  8
0
  6
Continuous
 62
     0
370
     0
100
AcDbCircle
 10
-89.41208
 20
557.251766
 30
0.0
 40
3.986675990889726
100
AcDbArc
 50
32.060133
 51
35.16566
  0
LWPOLYLINE
  5
2BE
330
2A5
100
AcDbEntity
  8
0
  6
Continuous
 62
     0
370
     0
100
AcDbPolyline
 90
        9
 70
     0
 43
0.0
 10
-86.153015
 20
559.547852
 10
-86.370461
 20
559.828674
 10
-86.61702
 20
560.091675
 10
-86.893776
 20
560.332397
 10
-87.201691
 20
560.546082
 10
-87.541496
 20
560.727722
 10
-87.913231
 20
560.871155
 10
-88.316666
 20
560.967163
 10
-88.801437
 20
561.007568
  0
LINE
  5
2BF
330
2A5
100
AcDbEntity
  8
0
  6
Continuous
 62
     0
370
     0
100
AcDbLine
 10
-88.801436
 20
561.007574
 30
0.0
 11
-97.372865
 21
561.007574
 31
0.0
  0
LINE
  5
2C0
330
2A5
100
AcDbEntity
  8
0
  6
Continuous
 62
     0
370
     0
100
AcDbLine
 10
-97.372865
 20
561.007574
 30
0.0
 11
-97.372865
 21
583.007595
 31
0.0
  0
LWPOLYLINE
  5
2C1
330
2A5
100
AcDbEntity
  8
0
  6
Continuous
 62
     0
370
    30
100
AcDbPolyline
 90
       19
 70
     0
 43
0.0
 10
-211.372864
 20
559.007568
 10
-211.341064
 20
559.007568
 10
-211.241989
 20
559.007568
 10
-211.070862
 20
559.007568
 10
-210.824097
 20
559.007568
 10
-210.499619
 20
559.007568
 10
-210.097076
 20
559.007568
 10
-209.618134
 20
559.007568
 10
-209.066391
 20
559.007568
 10
-208.447495
 20
559.007568
 10
-207.768845
 20
559.007568
 10
-207.039337
 20
559.007568
 10
-206.269028
 20
559.007568
 10
-205.468628
 20
559.007568
 10
-204.649033
 20
559.007568
 10
-203.820953
 20
559.007568
 10
-202.994446
 20
559.007568
 10
-202.178619
 20
559.007568
 10
-201.372864
 20
559.007568
  0
LINE
  5
2C2
330
2A5
100
AcDbEntity
  8
0
  6
Continuous
 62
     0
370
    30
100
AcDbLine
 10
-201.372865
 20
559.007574
 30
0.0
 11
-97.372865
 21
559.007574
 31
0.0
  0
LINE
  5
2C3
330
2A5
100
AcDbEntity
  8
0
  6
Continuous
 62
     0
370
    30
100
AcDbLine
 10
-97.372865
 20
559.007574
 30
0.0
 11
-87.372865
 21
559.007574
 31
0.0
  0
LINE
  5
2C4
330
2A5
100
AcDbEntity
  8
0
  6
Continuous
 62
     0
370
     0
100
AcDbLine
 10
-201.372865
 20
583.007595
 30
0.0
 11
-201.372865
 21
561.007574
 31
0.0
  0
LINE
  5
2C5
330
2A5
100
AcDbEntity
  8
0
  6
Continuous
 62
     0
370
     0
100
AcDbLine
 10
-201.372865
 20
561.007574
 30
0.0
 11
-97.372865
 21
561.007574
 31
0.0
  0
LINE
  5
2C6
330
2A5
100
AcDbEntity
  8
0
  6
Continuous
 62
     0
370
    30
100
AcDbLine
 10
-213.372864
 20
583.007595
 30
0.0
 11
-213.372864
 21
561.007574
 31
0.0
  0
LINE
  5
2C7
330
2A5
100
AcDbEntity
  8
0
  6
Continuous
 62
     0
370
     0
100
AcDbLine
 10
-213.372864
 20
561.007574
 30
0.0
 11
-201.372865
 21
561.007574
 31
0.0
  0
ARC
  5
2C8
330
2A5
100
AcDbEntity
  8
0
  6
Continuous
 62
     0
370
    30
100
AcDbCircle
 10
-211.372864
 20
561.007574
 30
0.0
 40
2.000000000000004
100
AcDbArc
 50
180.0
 51
270.0
  0
LINE
  5
2C9
330
2A5
100
AcDbEntity
  8
0
  6
Continuous
 62
     0
370
     0
100
AcDbLine
 10
-201.372865
 20
561.007574
 30
0.0
 11
-201.372865
 21
559.007574
 31
0.0
  0
LINE
  5
2CA
330
2A5
100
AcDbEntity
  8
0
  6
Continuous
 62
     0
370
     0
100
AcDbLine
 10
-97.372865
 20
559.007574
 30
0.0
 11
-97.372865
 21
561.007574
 31
0.0
  0
LWPOLYLINE
  5
2CB
330
2A5
100
AcDbEntity
  8
0
  6
Continuous
 62
     0
370
     0
100
AcDbPolyline
 90
        9
 70
     0
 43
0.0
 10
-88.801437
 20
561.007568
 10
-88.77404
 20
560.619141
 10
-88.693214
 20
560.243958
 10
-88.561707
 20
559.898682
 10
-88.384956
 20
559.596069
 10
-88.169479
 20
559.347473
 10
-87.923363
 20
559.162048
 10
-87.655701
 20
559.047424
 10
-87.372864
 20
559.007568
  0
LWPOLYLINE
  5
2CC
330
2A5
100
AcDbEntity
  8
0
  6
Continuous
 62
     0
370
     0
100
AcDbPolyline
 90
        5
 70
     0
 43
0.0
 10
-86.153015
 20
559.547852
 10
-86.172585
 20
559.204773
 10
-86.125603
 20
558.873718
 10
-86.013741
 20
558.566467
 10
-85.82795
 20
558.27771
  0
LWPOLYLINE
  5
2CD
330
2A5
100
AcDbEntity
  8
0
  6
Continuous
 62
     0
370
     0
100
AcDbPolyline
 90
        5
 70
     0
 43
0.0
 10
-85.758179
 20
558.187744
 10
-85.905411
 20
558.436768
 10
-86.003227
 20
558.711853
 10
-86.048859
 20
559.005371
 10
-86.033409
 20
559.36792
  0
LINE
  5
2CE
330
2A5
100
AcDbEntity
  8
0
  6
Continuous
 62
     0
370
    30
100
AcDbLine
 10
-41.372868
 20
547.296709
 30
0.0
 11
-41.372868
 21
541.007599
 31
0.0
  0
LINE
  5
2CF
330
2A5
100
AcDbEntity
  8
0
  6
Continuous
 62
     0
370
    30
100
AcDbLine
 10
-83.372868
 20
539.007595
 30
0.0
 11
-55.710013
 21
539.007595
 31
0.0
  0
LINE
  5
2D0
330
2A5
100
AcDbEntity
  8
0
  6
Continuous
 62
     0
370
     0
100
AcDbLine
 10
-61.472704
 20
551.007599
 30
0.0
 11
-83.372868
 21
551.007599
 31
0.0
  0
LINE
  5
2D1
330
2A5
100
AcDbEntity
  8
0
  6
Continuous
 62
     0
370
     0
100
AcDbLine
 10
-61.472704
 20
573.007595
 30
0.0
 11
-83.372868
 21
573.007595
 31
0.0
  0
LINE
  5
2D2
330
2A5
100
AcDbEntity
  8
0
  6
Continuous
 62
     0
370
    30
100
AcDbLine
 10
-66.415312
 20
585.007595
 30
0.0
 11
-83.372868
 21
585.007595
 31
0.0
  0
ARC
  5
2D3
330
2A5
100
AcDbEntity
  8
0
  6
Continuous
 62
     0
370
    30
100
AcDbCircle
 10
-43.376252
 20
541.00873
 30
0.0
 40
2.003385054658466
100
AcDbArc
 50
326.313963
 51
359.967674
  0
ARC
  5
2D4
330
2A5
100
AcDbEntity
  8
0
  6
Continuous
 62
     0
370
    30
100
AcDbCircle
 10
-71.1995
 20
600.593042
 30
0.0
 40
14.99999999994
100
AcDbArc
 50
270.0
 51
288.608835
  0
LINE
  5
2D5
330
2A5
100
AcDbEntity
  8
0
  6
Continuous
 62
     0
370
     0
100
AcDbLine
 10
-135.802236
 20
619.395257
 30
0.0
 11
-142.713646
 21
620.516633
 31
0.0
  0
LINE
  5
2D6
330
2A5
100
AcDbEntity
  8
0
  6
Continuous
 62
     0
370
    30
100
AcDbLine
 10
-135.95867
 20
618.407569
 30
0.0
 11
-141.886864
 21
619.346503
 31
0.0
  0
LINE
  5
2D7
330
2A5
100
AcDbEntity
  8
0
  6
Continuous
 62
     0
370
     0
100
AcDbLine
 10
-92.368214
 20
612.515984
 30
0.0
 11
-135.802236
 21
619.395257
 31
0.0
  0
LINE
  5
2D8
330
2A5
100
AcDbEntity
  8
0
  6
Continuous
 62
     0
370
    30
100
AcDbLine
 10
-92.524648
 20
611.528296
 30
0.0
 11
-135.95867
 21
618.407569
 31
0.0
  0
ARC
  5
2D9
330
2A5
100
AcDbEntity
  8
0
  6
Continuous
 62
     0
370
    30
100
AcDbCircle
 10
-93.619689
 20
604.614477
 30
0.0
 40
6.999999999972001
100
AcDbArc
 50
359.999986
 51
81.0
  0
ARC
  5
2DA
330
2A5
100
AcDbEntity
  8
0
  6
Continuous
 62
     0
370
     0
100
AcDbCircle
 10
-93.619689
 20
604.614477
 30
0.0
 40
7.999999999972001
100
AcDbArc
 50
359.999986
 51
81.0
  0
LINE
  5
2DB
330
2A5
100
AcDbEntity
  8
0
  6
Continuous
 62
     0
370
    30
100
AcDbLine
 10
-86.619694
 20
585.593042
 30
0.0
 11
-86.619689
 21
604.614475
 31
0.0
  0
LINE
  5
2DC
330
2A5
100
AcDbEntity
  8
0
  6
Continuous
 62
     0
370
     0
100
AcDbLine
 10
-85.619694
 20
585.593042
 30
0.0
 11
-85.619689
 21
604.614475
 31
0.0
  0
ARC
  5
2DD
330
2A5
100
AcDbEntity
  8
0
  6
Continuous
 62
     0
370
    30
100
AcDbCircle
 10
-141.73043
 20
620.334191
 30
0.0
 40
0.9999999999999997
100
AcDbArc
 50
169.487944
 51
261.0
  0
LINE
  5
2DE
330
2A5
100
AcDbEntity
  8
0
  6
Continuous
 62
     0
370
     0
100
AcDbLine
 10
-135.95867
 20
618.407569
 30
0.0
 11
-135.802236
 21
619.395257
 31
0.0
  0
LINE
  5
2DF
330
2A5
100
AcDbEntity
  8
0
  6
Continuous
 62
     0
370
     0
100
AcDbLine
 10
-86.619689
 20
604.614475
 30
0.0
 11
-85.619689
 21
604.614475
 31
0.0
  0
LINE
  5
2E0
330
2A5
100
AcDbEntity
  8
0
  6
Continuous
 62
     0
370
     0
100
AcDbLine
 10
-92.368214
 20
612.515984
 30
0.0
 11
-92.524648
 21
611.528296
 31
0.0
  0
LINE
  5
2E1
330
2A5
100
AcDbEntity
  8
0
  6
Continuous
 62
     0
370
    30
100
AcDbLine
 10
-71.1995
 20
585.593042
 30
0.0
 11
-85.619694
 21
585.593042
 31
0.0
  0
LINE
  5
2E2
330
2A5
100
AcDbEntity
  8
0
  6
Continuous
 62
     0
370
    30
100
AcDbLine
 10
-86.619694
 20
585.593042
 30
0.0
 11
-85.619694
 21
585.593042
 31
0.0
  0
LINE
  5
2E3
330
2A5
100
AcDbEntity
  8
0
  6
Continuous
 62
     0
370
    30
100
AcDbLine
 10
-135.28079
 20
622.350064
 30
0.0
 11
-66.369183
 21
611.435537
 31
0.0
  0
LINE
  5
2E4
330
2A5
100
AcDbEntity
  8
0
  6
Continuous
 62
     0
370
     0
100
AcDbLine
 10
-135.437224
 20
621.362375
 30
0.0
 11
-66.37095
 21
610.423352
 31
0.0
  0
LINE
  5
2E5
330
2A5
100
AcDbEntity
  8
0
  6
Continuous
 62
     0
370
    30
100
AcDbLine
 10
-135.28079
 20
622.350064
 30
0.0
 11
-141.208984
 21
623.288997
 31
0.0
  0
LINE
  5
2E6
330
2A5
100
AcDbEntity
  8
0
  6
Continuous
 62
     0
370
     0
100
AcDbLine
 10
-135.437224
 20
621.362375
 30
0.0
 11
-142.348635
 21
622.483751
 31
0.0
  0
LINE
  5
2E7
330
2A5
100
AcDbEntity
  8
0
  6
Continuous
 62
     0
370
     0
100
AcDbLine
 10
-135.802236
 20
619.395257
 30
0.0
 11
-135.437224
 21
621.362375
 31
0.0
  0
LINE
  5
2E8
330
2A5
100
AcDbEntity
  8
0
  6
Continuous
 62
     0
370
     0
100
AcDbLine
 10
-135.28079
 20
622.350064
 30
0.0
 11
-135.437224
 21
621.362375
 31
0.0
  0
LINE
  5
2E9
330
2A5
100
AcDbEntity
  8
0
  6
Continuous
 62
     0
370
    30
100
AcDbLine
 10
-142.713646
 20
620.516633
 30
0.0
 11
-142.348635
 21
622.483751
 31
0.0
  0
ARC
  5
2EA
330
2A5
100
AcDbEntity
  8
0
  6
Continuous
 62
     0
370
    30
100
AcDbCircle
 10
-141.365418
 20
622.301309
 30
0.0
 40
1.0
100
AcDbArc
 50
81.0
 51
169.487944
  0
LINE
  5
2EB
330
2A5
100
AcDbEntity
  8
0
  6
Continuous
 62
     0
370
    30
100
AcDbLine
 10
-26.472865
 20
546.50758
 30
0.0
 11
-26.472865
 21
531.00758
 31
0.0
  0
LINE
  5
2EC
330
2A5
100
AcDbEntity
  8
0
  6
Continuous
 62
     0
370
    30
100
AcDbLine
 10
-26.472865
 20
593.00758
 30
0.0
 11
-26.472865
 21
577.50758
 31
0.0
  0
LINE
  5
2ED
330
2A5
100
AcDbEntity
  8
0
  6
Continuous
 62
     0
370
     0
100
AcDbLine
 10
-25.972865
 20
546.50758
 30
0.0
 11
-25.972865
 21
530.50758
 31
0.0
  0
LINE
  5
2EE
330
2A5
100
AcDbEntity
  8
0
  6
Continuous
 62
     0
370
     0
100
AcDbLine
 10
-25.972865
 20
593.50758
 30
0.0
 11
-25.972865
 21
577.50758
 31
0.0
  0
LINE
  5
2EF
330
2A5
100
AcDbEntity
  8
0
  6
Continuous
 62
     0
370
    30
100
AcDbLine
 10
-6.472913
 20
546.50758
 30
0.0
 11
-6.472913
 21
530.50758
 31
0.0
  0
LINE
  5
2F0
330
2A5
100
AcDbEntity
  8
0
  6
Continuous
 62
     0
370
    30
100
AcDbLine
 10
-6.472913
 20
593.50758
 30
0.0
 11
-6.472913
 21
577.50758
 31
0.0
  0
LINE
  5
2F1
330
2A5
100
AcDbEntity
  8
0
  6
Continuous
 62
     0
370
    30
100
AcDbLine
 10
-165.872179
 20
540.007551
 30
0.0
 11
-157.372864
 21
540.007551
 31
0.0
  0
LINE
  5
2F2
330
2A5
100
AcDbEntity
  8
0
  6
Continuous
 62
     0
370
    30
100
AcDbLine
 10
-157.372864
 20
540.007551
 30
0.0
 11
-148.873548
 21
540.007551
 31
0.0
  0
LINE
  5
2F3
330
2A5
100
AcDbEntity
  8
0
  6
Continuous
 62
     0
370
     0
100
AcDbLine
 10
-166.372877
 20
540.508249
 30
0.0
 11
-157.372864
 21
540.508249
 31
0.0
  0
LINE
  5
2F4
330
2A5
100
AcDbEntity
  8
0
  6
Continuous
 62
     0
370
     0
100
AcDbLine
 10
-157.372864
 20
540.508249
 30
0.0
 11
-148.37285
 21
540.508249
 31
0.0
  0
LINE
  5
2F5
330
2A5
100
AcDbEntity
  8
0
  6
Continuous
 62
     0
370
    30
100
AcDbLine
 10
-166.472857
 20
541.007551
 30
0.0
 11
-157.372864
 21
541.007551
 31
0.0
  0
LINE
  5
2F6
330
2A5
100
AcDbEntity
  8
0
  6
Continuous
 62
     0
370
    30
100
AcDbLine
 10
-157.372864
 20
541.007551
 30
0.0
 11
-148.27287
 21
541.007551
 31
0.0
  0
LINE
  5
2F7
330
2A5
100
AcDbEntity
  8
0
  6
Continuous
 62
     0
370
    30
100
AcDbLine
 10
-167.772864
 20
542.307559
 30
0.0
 11
-157.372864
 21
542.307559
 31
0.0
  0
LINE
  5
2F8
330
2A5
100
AcDbEntity
  8
0
  6
Continuous
 62
     0
370
    30
100
AcDbLine
 10
-157.372864
 20
542.307559
 30
0.0
 11
-146.972863
 21
542.307559
 31
0.0
  0
LINE
  5
2F9
330
2A5
100
AcDbEntity
  8
0
  6
Continuous
 62
     0
370
    30
100
AcDbLine
 10
-167.772864
 20
552.053953
 30
0.0
 11
-157.372864
 21
552.053953
 31
0.0
  0
LINE
  5
2FA
330
2A5
100
AcDbEntity
  8
0
  6
Continuous
 62
     0
370
    30
100
AcDbLine
 10
-157.372864
 20
552.053953
 30
0.0
 11
-146.972863
 21
552.053953
 31
0.0
  0
LINE
  5
2FB
330
2A5
100
AcDbEntity
  8
0
  6
Continuous
 62
     0
370
    30
100
AcDbLine
 10
-166.572877
 20
553.253941
 30
0.0
 11
-157.372864
 21
553.253941
 31
0.0
  0
LINE
  5
2FC
330
2A5
100
AcDbEntity
  8
0
  6
Continuous
 62
     0
370
    30
100
AcDbLine
 10
-157.372864
 20
553.253941
 30
0.0
 11
-148.17285
 21
553.253941
 31
0.0
  0
LINE
  5
2FD
330
2A5
100
AcDbEntity
  8
0
  6
Continuous
 62
     0
370
     0
100
AcDbLine
 10
-166.572877
 20
553.807284
 30
0.0
 11
-157.372864
 21
553.807284
 31
0.0
  0
LINE
  5
2FE
330
2A5
100
AcDbEntity
  8
0
  6
Continuous
 62
     0
370
     0
100
AcDbLine
 10
-157.372864
 20
553.807284
 30
0.0
 11
-148.17285
 21
553.807284
 31
0.0
  0
LINE
  5
2FF
330
2A5
100
AcDbEntity
  8
0
  6
Continuous
 62
     0
370
    30
100
AcDbLine
 10
-169.172592
 20
554.007552
 30
0.0
 11
-157.372864
 21
554.007552
 31
0.0
  0
LINE
  5
300
330
2A5
100
AcDbEntity
  8
0
  6
Continuous
 62
     0
370
    30
100
AcDbLine
 10
-157.372864
 20
554.007552
 30
0.0
 11
-145.573135
 21
554.007552
 31
0.0
  0
LINE
  5
301
330
2A5
100
AcDbEntity
  8
0
  6
Continuous
 62
     0
370
     0
100
AcDbLine
 10
-169.372877
 20
554.207837
 30
0.0
 11
-157.372864
 21
554.207837
 31
0.0
  0
LINE
  5
302
330
2A5
100
AcDbEntity
  8
0
  6
Continuous
 62
     0
370
     0
100
AcDbLine
 10
-157.372864
 20
554.207837
 30
0.0
 11
-145.37285
 21
554.207837
 31
0.0
  0
LINE
  5
303
330
2A5
100
AcDbEntity
  8
0
  6
Continuous
 62
     0
370
    30
100
AcDbLine
 10
-169.872868
 20
558.007596
 30
0.0
 11
-157.372864
 21
558.007596
 31
0.0
  0
LINE
  5
304
330
2A5
100
AcDbEntity
  8
0
  6
Continuous
 62
     0
370
    30
100
AcDbLine
 10
-157.372864
 20
558.007596
 30
0.0
 11
-144.87286
 21
558.007596
 31
0.0
  0
LINE
  5
305
330
2A5
100
AcDbEntity
  8
0
  6
Continuous
 62
     0
370
    30
100
AcDbLine
 10
-170.372877
 20
558.507606
 30
0.0
 11
-157.372864
 21
558.507606
 31
0.0
  0
LINE
  5
306
330
2A5
100
AcDbEntity
  8
0
  6
Continuous
 62
     0
370
    30
100
AcDbLine
 10
-157.372864
 20
558.507606
 30
0.0
 11
-144.37285
 21
558.507606
 31
0.0
  0
LINE
  5
307
330
2A5
100
AcDbEntity
  8
0
  6
Continuous
 62
     0
370
    30
100
AcDbLine
 10
-147.372864
 20
587.283453
 30
0.0
 11
-157.372864
 21
587.283453
 31
0.0
  0
LINE
  5
308
330
2A5
100
AcDbEntity
  8
0
  6
Continuous
 62
     0
370
    30
100
AcDbLine
 10
-157.372864
 20
587.283453
 30
0.0
 11
-167.372863
 21
587.283453
 31
0.0
  0
LINE
  5
309
330
2A5
100
AcDbEntity
  8
0
  6
Continuous
 62
     0
370
    30
100
AcDbLine
 10
-149.622864
 20
587.886339
 30
0.0
 11
-157.372864
 21
587.886339
 31
0.0
  0
LINE
  5
30A
330
2A5
100
AcDbEntity
  8
0
  6
Continuous
 62
     0
370
    30
100
AcDbLine
 10
-157.372864
 20
587.886339
 30
0.0
 11
-165.122863
 21
587.886339
 31
0.0
  0
LINE
  5
30B
330
2A5
100
AcDbEntity
  8
0
  6
Continuous
 62
     0
370
    30
100
AcDbLine
 10
-147.872864
 20
588.637579
 30
0.0
 11
-157.372864
 21
588.637579
 31
0.0
  0
LINE
  5
30C
330
2A5
100
AcDbEntity
  8
0
  6
Continuous
 62
     0
370
    30
100
AcDbLine
 10
-157.372864
 20
588.637579
 30
0.0
 11
-166.872863
 21
588.637579
 31
0.0
  0
LINE
  5
30D
330
2A5
100
AcDbEntity
  8
0
  6
Continuous
 62
     0
370
     0
100
AcDbLine
 10
-147.372864
 20
589.137579
 30
0.0
 11
-157.372864
 21
589.137579
 31
0.0
  0
LINE
  5
30E
330
2A5
100
AcDbEntity
  8
0
  6
Continuous
 62
     0
370
     0
100
AcDbLine
 10
-157.372864
 20
589.137579
 30
0.0
 11
-167.372863
 21
589.137579
 31
0.0
  0
LINE
  5
30F
330
2A5
100
AcDbEntity
  8
0
  6
Continuous
 62
     0
370
     0
100
AcDbLine
 10
-147.372864
 20
601.636633
 30
0.0
 11
-157.372864
 21
601.636633
 31
0.0
  0
LINE
  5
310
330
2A5
100
AcDbEntity
  8
0
  6
Continuous
 62
     0
370
     0
100
AcDbLine
 10
-157.372864
 20
601.636633
 30
0.0
 11
-167.372863
 21
601.636633
 31
0.0
  0
LINE
  5
311
330
2A5
100
AcDbEntity
  8
0
  6
Continuous
 62
     0
370
    30
100
AcDbLine
 10
-146.372864
 20
602.637579
 30
0.0
 11
-157.372864
 21
602.637579
 31
0.0
  0
LINE
  5
312
330
2A5
100
AcDbEntity
  8
0
  6
Continuous
 62
     0
370
    30
100
AcDbLine
 10
-157.372864
 20
602.637579
 30
0.0
 11
-168.372864
 21
602.637579
 31
0.0
  0
LINE
  5
313
330
2A5
100
AcDbEntity
  8
0
  6
Continuous
 62
     0
370
     0
100
AcDbLine
 10
-145.372863
 20
603.638525
 30
0.0
 11
-157.372864
 21
603.638525
 31
0.0
  0
LINE
  5
314
330
2A5
100
AcDbEntity
  8
0
  6
Continuous
 62
     0
370
     0
100
AcDbLine
 10
-157.372864
 20
603.638525
 30
0.0
 11
-169.372864
 21
603.638525
 31
0.0
  0
LINE
  5
315
330
2A5
100
AcDbEntity
  8
0
  6
Continuous
 62
     0
370
     0
100
AcDbLine
 10
-145.372863
 20
608.636633
 30
0.0
 11
-157.372864
 21
608.636633
 31
0.0
  0
LINE
  5
316
330
2A5
100
AcDbEntity
  8
0
  6
Continuous
 62
     0
370
     0
100
AcDbLine
 10
-157.372864
 20
608.636633
 30
0.0
 11
-169.372864
 21
608.636633
 31
0.0
  0
LINE
  5
317
330
2A5
100
AcDbEntity
  8
0
  6
Continuous
 62
     0
370
    30
100
AcDbLine
 10
-146.373809
 20
609.63758
 30
0.0
 11
-157.372864
 21
609.63758
 31
0.0
  0
LINE
  5
318
330
2A5
100
AcDbEntity
  8
0
  6
Continuous
 62
     0
370
    30
100
AcDbLine
 10
-157.372864
 20
609.63758
 30
0.0
 11
-168.371918
 21
609.63758
 31
0.0
  0
LINE
  5
319
330
2A5
100
AcDbEntity
  8
0
  6
Continuous
 62
     0
370
    30
100
AcDbLine
 10
-188.122863
 20
557.757574
 30
0.0
 11
-206.622863
 21
557.757574
 31
0.0
  0
LINE
  5
31A
330
2A5
100
AcDbEntity
  8
0
  6
Continuous
 62
     0
370
    30
100
AcDbLine
 10
-188.122863
 20
559.007574
 30
0.0
 11
-188.122863
 21
557.757574
 31
0.0
  0
LINE
  5
31B
330
2A5
100
AcDbEntity
  8
0
  6
Continuous
 62
     0
370
    30
100
AcDbLine
 10
-206.622863
 20
559.007574
 30
0.0
 11
-206.622863
 21
557.757574
 31
0.0
  0
ARC
  5
31C
330
2A5
100
AcDbEntity
  8
0
  6
Continuous
 62
     0
370
    30
100
AcDbCircle
 10
-63.16979
 20
582.20679
 30
0.0
 40
20.49999999991807
100
AcDbArc
 50
170.492135
 51
172.147427
  0
LINE
  5
31D
330
2A5
100
AcDbEntity
  8
0
  6
Continuous
 62
     0
370
    30
100
AcDbLine
 10
-144.37285
 20
558.507606
 30
0.0
 11
-144.37285
 21
559.0076
 31
0.0
  0
LINE
  5
31E
330
2A5
100
AcDbEntity
  8
0
  6
Continuous
 62
     0
370
    30
100
AcDbLine
 10
-170.372877
 20
558.507606
 30
0.0
 11
-170.372877
 21
559.0076
 31
0.0
  0
LINE
  5
31F
330
2A5
100
AcDbEntity
  8
0
  6
Continuous
 62
     0
370
    30
100
AcDbLine
 10
-144.87286
 20
558.007596
 30
0.0
 11
-144.37285
 21
558.507606
 31
0.0
  0
LINE
  5
320
330
2A5
100
AcDbEntity
  8
0
  6
Continuous
 62
     0
370
    30
100
AcDbLine
 10
-169.872868
 20
558.007596
 30
0.0
 11
-170.372877
 21
558.507606
 31
0.0
  0
LINE
  5
321
330
2A5
100
AcDbEntity
  8
0
  6
Continuous
 62
     0
370
    30
100
AcDbLine
 10
-145.37285
 20
554.207837
 30
0.0
 11
-145.37285
 21
558.007596
 31
0.0
  0
LINE
  5
322
330
2A5
100
AcDbEntity
  8
0
  6
Continuous
 62
     0
370
    30
100
AcDbLine
 10
-169.372877
 20
554.207837
 30
0.0
 11
-169.372877
 21
558.007596
 31
0.0
  0
ARC
  5
323
330
2A5
100
AcDbEntity
  8
0
  6
Continuous
 62
     0
370
    30
100
AcDbCircle
 10
-145.573135
 20
554.207837
 30
0.0
 40
0.200285110191701
100
AcDbArc
 50
270.0
 51
360.0
  0
ARC
  5
324
330
2A5
100
AcDbEntity
  8
0
  6
Continuous
 62
     0
370
    30
100
AcDbCircle
 10
-169.172592
 20
554.207837
 30
0.0
 40
0.200285110191701
100
AcDbArc
 50
180.0
 51
270.0
  0
ARC
  5
325
330
2A5
100
AcDbEntity
  8
0
  6
Continuous
 62
     0
370
    30
100
AcDbCircle
 10
-147.972582
 20
553.807284
 30
0.0
 40
0.2002679970140918
100
AcDbArc
 50
90.0
 51
180.0
  0
ARC
  5
326
330
2A5
100
AcDbEntity
  8
0
  6
Continuous
 62
     0
370
    30
100
AcDbCircle
 10
-166.773145
 20
553.807284
 30
0.0
 40
0.2002679970140918
100
AcDbArc
 50
0.0
 51
90.0
  0
LINE
  5
327
330
2A5
100
AcDbEntity
  8
0
  6
Continuous
 62
     0
370
    30
100
AcDbLine
 10
-148.17285
 20
553.253941
 30
0.0
 11
-148.17285
 21
553.807284
 31
0.0
  0
LINE
  5
328
330
2A5
100
AcDbEntity
  8
0
  6
Continuous
 62
     0
370
    30
100
AcDbLine
 10
-166.572877
 20
553.253941
 30
0.0
 11
-166.572877
 21
553.807284
 31
0.0
  0
LINE
  5
329
330
2A5
100
AcDbEntity
  8
0
  6
Continuous
 62
     0
370
    30
100
AcDbLine
 10
-146.972863
 20
552.053953
 30
0.0
 11
-148.17285
 21
553.253941
 31
0.0
  0
LINE
  5
32A
330
2A5
100
AcDbEntity
  8
0
  6
Continuous
 62
     0
370
    30
100
AcDbLine
 10
-167.772864
 20
552.053953
 30
0.0
 11
-166.572877
 21
553.253941
 31
0.0
  0
LINE
  5
32B
330
2A5
100
AcDbEntity
  8
0
  6
Continuous
 62
     0
370
    30
100
AcDbLine
 10
-146.972863
 20
542.307559
 30
0.0
 11
-146.972863
 21
552.053953
 31
0.0
  0
LINE
  5
32C
330
2A5
100
AcDbEntity
  8
0
  6
Continuous
 62
     0
370
    30
100
AcDbLine
 10
-167.772864
 20
542.307559
 30
0.0
 11
-167.772864
 21
552.053953
 31
0.0
  0
LINE
  5
32D
330
2A5
100
AcDbEntity
  8
0
  6
Continuous
 62
     0
370
    30
100
AcDbLine
 10
-148.27287
 20
541.007551
 30
0.0
 11
-146.972863
 21
542.307559
 31
0.0
  0
LINE
  5
32E
330
2A5
100
AcDbEntity
  8
0
  6
Continuous
 62
     0
370
    30
100
AcDbLine
 10
-166.472857
 20
541.007551
 30
0.0
 11
-167.772864
 21
542.307559
 31
0.0
  0
LINE
  5
32F
330
2A5
100
AcDbEntity
  8
0
  6
Continuous
 62
     0
370
    30
100
AcDbLine
 10
-148.37285
 20
540.508249
 30
0.0
 11
-148.37285
 21
541.007551
 31
0.0
  0
LINE
  5
330
330
2A5
100
AcDbEntity
  8
0
  6
Continuous
 62
     0
370
    30
100
AcDbLine
 10
-166.372877
 20
540.508249
 30
0.0
 11
-166.372877
 21
541.007551
 31
0.0
  0
ARC
  5
331
330
2A5
100
AcDbEntity
  8
0
  6
Continuous
 62
     0
370
    30
100
AcDbCircle
 10
-148.873548
 20
540.508249
 30
0.0
 40
0.5006981442812252
100
AcDbArc
 50
270.0
 51
360.0
  0
ARC
  5
332
330
2A5
100
AcDbEntity
  8
0
  6
Continuous
 62
     0
370
    30
100
AcDbCircle
 10
-165.872179
 20
540.508249
 30
0.0
 40
0.5006981442812252
100
AcDbArc
 50
180.0
 51
270.0
  0
ARC
  5
333
330
2A5
100
AcDbEntity
  8
0
  6
Continuous
 62
     0
370
    30
100
AcDbCircle
 10
-168.371918
 20
608.636633
 30
0.0
 40
1.000946087843346
100
AcDbArc
 50
90.0
 51
180.0
  0
ARC
  5
334
330
2A5
100
AcDbEntity
  8
0
  6
Continuous
 62
     0
370
    30
100
AcDbCircle
 10
-146.373809
 20
608.636633
 30
0.0
 40
1.000946087843346
100
AcDbArc
 50
0.0
 51
90.0
  0
LINE
  5
335
330
2A5
100
AcDbEntity
  8
0
  6
Continuous
 62
     0
370
    30
100
AcDbLine
 10
-169.372864
 20
603.638525
 30
0.0
 11
-169.372864
 21
608.636633
 31
0.0
  0
LINE
  5
336
330
2A5
100
AcDbEntity
  8
0
  6
Continuous
 62
     0
370
    30
100
AcDbLine
 10
-145.372863
 20
603.638525
 30
0.0
 11
-145.372863
 21
608.636633
 31
0.0
  0
ARC
  5
337
330
2A5
100
AcDbEntity
  8
0
  6
Continuous
 62
     0
370
    30
100
AcDbCircle
 10
-168.371918
 20
603.638525
 30
0.0
 40
1.000946087858942
100
AcDbArc
 50
180.0
 51
269.94587
  0
ARC
  5
338
330
2A5
100
AcDbEntity
  8
0
  6
Continuous
 62
     0
370
    30
100
AcDbCircle
 10
-146.373809
 20
603.638525
 30
0.0
 40
1.000946087858942
100
AcDbArc
 50
270.05413
 51
0.0
  0
ARC
  5
339
330
2A5
100
AcDbEntity
  8
0
  6
Continuous
 62
     0
370
    30
100
AcDbCircle
 10
-168.373809
 20
601.636633
 30
0.0
 40
1.000946087843413
100
AcDbArc
 50
0.0
 51
89.94587
  0
ARC
  5
33A
330
2A5
100
AcDbEntity
  8
0
  6
Continuous
 62
     0
370
    30
100
AcDbCircle
 10
-146.371918
 20
601.636633
 30
0.0
 40
1.000946087843413
100
AcDbArc
 50
90.05413
 51
180.0
  0
LINE
  5
33B
330
2A5
100
AcDbEntity
  8
0
  6
Continuous
 62
     0
370
    30
100
AcDbLine
 10
-167.372863
 20
589.137579
 30
0.0
 11
-167.372863
 21
601.636633
 31
0.0
  0
LINE
  5
33C
330
2A5
100
AcDbEntity
  8
0
  6
Continuous
 62
     0
370
    30
100
AcDbLine
 10
-147.372864
 20
589.137579
 30
0.0
 11
-147.372864
 21
601.636633
 31
0.0
  0
ARC
  5
33D
330
2A5
100
AcDbEntity
  8
0
  6
Continuous
 62
     0
370
    30
100
AcDbCircle
 10
-166.872863
 20
589.137579
 30
0.0
 40
0.4999999999999983
100
AcDbArc
 50
180.0
 51
270.0
  0
ARC
  5
33E
330
2A5
100
AcDbEntity
  8
0
  6
Continuous
 62
     0
370
    30
100
AcDbCircle
 10
-147.872864
 20
589.137579
 30
0.0
 40
0.4999999999999983
100
AcDbArc
 50
270.0
 51
0.0
  0
LINE
  5
33F
330
2A5
100
AcDbEntity
  8
0
  6
Continuous
 62
     0
370
    30
100
AcDbLine
 10
-165.122863
 20
587.886339
 30
0.0
 11
-165.122863
 21
588.637579
 31
0.0
  0
LINE
  5
340
330
2A5
100
AcDbEntity
  8
0
  6
Continuous
 62
     0
370
    30
100
AcDbLine
 10
-149.622864
 20
587.886339
 30
0.0
 11
-149.622864
 21
588.637579
 31
0.0
  0
LINE
  5
341
330
2A5
100
AcDbEntity
  8
0
  6
Continuous
 62
     0
370
    30
100
AcDbLine
 10
-167.372863
 20
587.283453
 30
0.0
 11
-165.122863
 21
587.886339
 31
0.0
  0
LINE
  5
342
330
2A5
100
AcDbEntity
  8
0
  6
Continuous
 62
     0
370
    30
100
AcDbLine
 10
-147.372864
 20
587.283453
 30
0.0
 11
-149.622864
 21
587.886339
 31
0.0
  0
LINE
  5
343
330
2A5
100
AcDbEntity
  8
0
  6
Continuous
 62
     0
370
    30
100
AcDbLine
 10
-167.372863
 20
585.007595
 30
0.0
 11
-167.372863
 21
587.283453
 31
0.0
  0
LINE
  5
344
330
2A5
100
AcDbEntity
  8
0
  6
Continuous
 62
     0
370
    30
100
AcDbLine
 10
-147.372864
 20
585.007595
 30
0.0
 11
-147.372864
 21
587.283453
 31
0.0
  0
LINE
  5
345
330
2A5
100
AcDbEntity
  8
0
  6
Continuous
 62
     0
370
    30
100
AcDbLine
 10
-25.972865
 20
593.50758
 30
0.0
 11
-6.472913
 21
593.50758
 31
0.0
  0
LINE
  5
346
330
2A5
100
AcDbEntity
  8
0
  6
Continuous
 62
     0
370
    30
100
AcDbLine
 10
-25.972865
 20
530.50758
 30
0.0
 11
-6.472913
 21
530.50758
 31
0.0
  0
ARC
  5
347
330
2A5
100
AcDbEntity
  8
0
  6
Continuous
 62
     0
370
    30
100
AcDbCircle
 10
-25.972865
 20
593.00758
 30
0.0
 40
0.5
100
AcDbArc
 50
90.0
 51
180.0
  0
ARC
  5
348
330
2A5
100
AcDbEntity
  8
0
  6
Continuous
 62
     0
370
    30
100
AcDbCircle
 10
-25.972865
 20
531.00758
 30
0.0
 40
0.5
100
AcDbArc
 50
180.0
 51
270.0
  0
LINE
  5
349
330
2A5
100
AcDbEntity
  8
0
  6
Continuous
 62
     0
370
    30
100
AcDbLine
 10
-38.952062
 20
578.00758
 30
0.0
 11
-26.472865
 21
578.00758
 31
0.0
  0
LINE
  5
34A
330
2A5
100
AcDbEntity
  8
0
  6
Continuous
 62
     0
370
    30
100
AcDbLine
 10
-41.372867
 20
546.00758
 30
0.0
 11
-26.472865
 21
546.00758
 31
0.0
  0
LINE
  5
34B
330
2A5
100
AcDbEntity
  8
0
  6
Continuous
 62
     0
370
    30
100
AcDbLine
 10
-85.761206
 20
558.191916
 30
0.0
 11
-85.748841
 21
558.174804
 31
0.0
  0
LINE
  5
34C
330
2A5
100
AcDbEntity
  8
0
  6
Continuous
 62
     0
370
    30
100
AcDbLine
 10
-87.379127
 20
559.007614
 30
0.0
 11
-87.348573
 21
559.007344
 31
0.0
  0
LINE
  5
34D
330
2A5
100
AcDbEntity
  8
0
  6
Continuous
 62
     0
370
    30
100
AcDbLine
 10
-6.472927
 20
577.50758
 30
0.0
 11
-6.472927
 21
546.50758
 31
0.0
  0
LINE
  5
34E
330
2A5
100
AcDbEntity
  8
0
  6
Continuous
 62
     0
370
    30
100
AcDbLine
 10
-6.472927
 20
577.50758
 30
0.0
 11
-38.976523
 21
577.50758
 31
0.0
  0
LWPOLYLINE
  5
34F
330
2A5
100
AcDbEntity
  8
0
  6
Continuous
 62
     0
370
    30
100
AcDbPolyline
 90
       33
 70
     0
 43
0.0
 10
-38.976524
 20
577.507568
 10
-39.008472
 20
577.485168
 10
-39.10244
 20
577.418762
 10
-39.257912
 20
577.310059
 10
-39.471813
 20
577.161499
 10
-39.741367
 20
576.97644
 10
-40.063335
 20
576.758789
 10
-40.433929
 20
576.512878
 10
-40.849632
 20
576.243164
 10
-41.307365
 20
575.954041
 10
-41.804783
 20
575.649963
 10
-42.33976
 20
575.335571
 10
-42.910141
 20
575.015625
 10
-43.513988
 20
574.695068
 10
-44.150303
 20
574.379272
 10
-44.818314
 20
574.07373
 10
-45.517185
 20
573.78479
 10
-46.245956
 20
573.519287
 10
-47.003067
 20
573.284729
 10
-47.786221
 20
573.089172
 10
-48.59145
 20
572.94043
 10
-49.413219
 20
572.845459
 10
-50.244236
 20
572.809387
 10
-51.07605
 20
572.833984
 10
-51.900127
 20
572.918152
 10
-52.709156
 20
573.057434
 10
-53.497818
 20
573.245361
 10
-54.262558
 20
573.473938
 10
-54.999874
 20
573.735046
 10
-55.706779
 20
574.021057
 10
-56.382095
 20
574.325012
 10
-57.025047
 20
574.640442
 10
-57.650196
 20
574.969055
  0
LINE
  5
350
330
2A5
100
AcDbEntity
  8
0
  6
Continuous
 62
     0
370
    30
100
AcDbLine
 10
-57.650198
 20
574.969061
 30
0.0
 11
-60.472927
 21
574.969061
 31
0.0
  0
LINE
  5
351
330
2A5
100
AcDbEntity
  8
0
  6
Continuous
 62
     0
370
     0
100
AcDbLine
 10
-60.472927
 20
574.969061
 30
0.0
 11
-60.472927
 21
549.046098
 31
0.0
  0
LINE
  5
352
330
2A5
100
AcDbEntity
  8
0
  6
Continuous
 62
     0
370
    30
100
AcDbLine
 10
-60.472927
 20
549.046098
 30
0.0
 11
-56.062075
 21
549.046098
 31
0.0
  0
LWPOLYLINE
  5
353
330
2A5
100
AcDbEntity
  8
0
  6
Continuous
 62
     0
370
    30
100
AcDbPolyline
 90
       29
 70
     0
 43
0.0
 10
-56.062077
 20
549.046082
 10
-55.414608
 20
549.327576
 10
-54.731712
 20
549.593872
 10
-54.015091
 20
549.836853
 10
-53.266674
 20
550.048401
 10
-52.491013
 20
550.220459
 10
-51.694286
 20
550.345032
 10
-50.882927
 20
550.414673
 10
-50.065304
 20
550.425659
 10
-49.250507
 20
550.377502
 10
-48.447029
 20
550.2724
 10
-47.662411
 20
550.117004
 10
-46.903915
 20
549.919312
 10
-46.177418
 20
549.687439
 10
-45.48378
 20
549.429626
 10
-44.823605
 20
549.153503
 10
-44.198479
 20
548.86615
 10
-43.609692
 20
548.573914
 10
-43.058434
 20
548.282532
 10
-42.546627
 20
547.997559
 10
-42.076508
 20
547.724365
 10
-41.650288
 20
547.467896
 10
-41.270699
 20
547.232849
 10
-40.941238
 20
547.023743
 10
-40.665497
 20
546.845154
 10
-40.446812
 20
546.701233
 10
-40.287537
 20
546.595459
 10
-40.189747
 20
546.530334
 10
-40.155472
 20
546.507568
  0
LINE
  5
354
330
2A5
100
AcDbEntity
  8
0
  6
Continuous
 62
     0
370
    30
100
AcDbLine
 10
-61.472928
 20
551.053129
 30
0.0
 11
-61.472928
 21
572.962031
 31
0.0
  0
LWPOLYLINE
  5
355
330
2A5
100
AcDbEntity
  8
0
  6
Continuous
 62
     0
370
    30
100
AcDbPolyline
 90
       14
 70
     0
 43
0.0
 10
-61.472927
 20
572.962036
 10
-61.469318
 20
573.14624
 10
-61.458241
 20
573.329651
 10
-61.439224
 20
573.512024
 10
-61.411583
 20
573.692993
 10
-61.374466
 20
573.87207
 10
-61.326771
 20
574.048584
 10
-61.266899
 20
574.221619
 10
-61.192608
 20
574.389771
 10
-61.101345
 20
574.55072
 10
-60.989891
 20
574.700989
 10
-60.850437
 20
574.831909
 10
-60.675152
 20
574.929565
 10
-60.472927
 20
574.969055
  0
LWPOLYLINE
  5
356
330
2A5
100
AcDbEntity
  8
0
  6
Continuous
 62
     0
370
    30
100
AcDbPolyline
 90
       14
 70
     0
 43
0.0
 10
-60.472927
 20
549.046082
 10
-60.671318
 20
549.083435
 10
-60.843204
 20
549.178284
 10
-60.983311
 20
549.307922
 10
-61.09671
 20
549.45697
 10
-61.188946
 20
549.617676
 10
-61.26384
 20
549.785889
 10
-61.324371
 20
549.958862
 10
-61.372643
 20
550.135376
 10
-61.410233
 20
550.314514
 10
-61.438274
 20
550.495605
 10
-61.457638
 20
550.678162
 10
-61.469032
 20
550.861755
 10
-61.472927
 20
551.053101
  0
LWPOLYLINE
  5
357
330
2A5
100
AcDbEntity
  8
0
  6
Continuous
 62
     0
370
    30
100
AcDbPolyline
 90
       45
 70
     0
 43
0.0
 10
-65.056404
 20
791.648071
 10
-65.0252
 20
791.648071
 10
-64.928551
 20
791.648071
 10
-64.762383
 20
791.648071
 10
-64.5233
 20
791.648071
 10
-64.208824
 20
791.648071
 10
-63.817501
 20
791.648071
 10
-63.349072
 20
791.648071
 10
-62.804554
 20
791.648071
 10
-62.186295
 20
791.648071
 10
-61.497974
 20
791.648071
 10
-60.744549
 20
791.648071
 10
-59.932137
 20
791.648071
 10
-59.067852
 20
791.648071
 10
-58.159595
 20
791.648071
 10
-57.215836
 20
791.648071
 10
-56.245338
 20
791.648071
 10
-55.256927
 20
791.648071
 10
-54.259239
 20
791.648071
 10
-53.260525
 20
791.648071
 10
-52.268459
 20
791.648071
 10
-51.290009
 20
791.648071
 10
-50.331333
 20
791.648071
 10
-49.373055
 20
791.648071
 10
-48.394901
 20
791.648071
 10
-47.403019
 20
791.648071
 10
-46.404358
 20
791.648071
 10
-45.406582
 20
791.648071
 10
-44.417931
 20
791.648071
 10
-43.447041
 20
791.648071
 10
-42.502728
 20
791.648071
 10
-41.593769
 20
791.648071
 10
-40.72863
 20
791.648071
 10
-39.91523
 20
791.648071
 10
-39.160702
 20
791.648071
 10
-38.47118
 20
791.648071
 10
-37.851643
 20
791.648071
 10
-37.30579
 20
791.648071
 10
-36.835999
 20
791.648071
 10
-36.443306
 20
791.648071
 10
-36.127472
 20
791.648071
 10
-35.887074
 20
791.648071
 10
-35.719635
 20
791.648071
 10
-35.621788
 20
791.648071
 10
-35.589447
 20
791.648071
  0
ARC
  5
358
330
2A5
100
AcDbEntity
  8
0
  6
Continuous
 62
     0
370
    30
100
AcDbCircle
 10
-65.056406
 20
790.648081
 30
0.0
 40
0.9999999999977616
100
AcDbArc
 50
90.0
 51
179.9
  0
LWPOLYLINE
  5
359
330
2A5
100
AcDbEntity
  8
0
  6
Continuous
 62
     0
370
     0
100
AcDbPolyline
 90
       45
 70
     0
 43
0.0
 10
-66.056404
 20
790.649841
 10
-66.016266
 20
790.649841
 10
-65.896233
 20
790.649841
 10
-65.696869
 20
790.649841
 10
-65.41909
 20
790.649841
 10
-65.064468
 20
790.649841
 10
-64.634712
 20
790.649841
 10
-64.131989
 20
790.649841
 10
-63.558983
 20
790.649841
 10
-62.918468
 20
790.649841
 10
-62.213783
 20
790.649841
 10
-61.448566
 20
790.649841
 10
-60.626587
 20
790.649841
 10
-59.752148
 20
790.649841
 10
-58.829678
 20
790.649841
 10
-57.863815
 20
790.649841
 10
-56.85957
 20
790.649841
 10
-55.82201
 20
790.649841
 10
-54.756409
 20
790.649841
 10
-53.668247
 20
790.649841
 10
-52.563026
 20
790.649841
 10
-51.446388
 20
790.649841
 10
-50.324032
 20
790.649841
 10
-49.201672
 20
790.649841
 10
-48.085014
 20
790.649841
 10
-46.979767
 20
790.649841
 10
-45.891567
 20
790.649841
 10
-44.825916
 20
790.649841
 10
-43.788296
 20
790.649841
 10
-42.783981
 20
790.649841
 10
-41.818039
 20
790.649841
 10
-40.895477
 20
790.649841
 10
-40.020939
 20
790.649841
 10
-39.198853
 20
790.649841
 10
-38.433517
 20
790.649841
 10
-37.728714
 20
790.649841
 10
-37.08807
 20
790.649841
 10
-36.514931
 20
790.649841
 10
-36.012066
 20
790.649841
 10
-35.582157
 20
790.649841
 10
-35.22739
 20
790.649841
 10
-34.949451
 20
790.649841
 10
-34.749931
 20
790.649841
 10
-34.629742
 20
790.649841
 10
-34.589451
 20
790.649841
  0
LINE
  5
35A
330
2A5
100
AcDbEntity
  8
0
  6
Continuous
 62
     0
370
     0
100
AcDbLine
 10
-61.497994
 20
773.294956
 30
0.0
 11
-61.497994
 21
723.647692
 31
0.0
  0
LWPOLYLINE
  5
35B
330
2A5
100
AcDbEntity
  8
0
  6
Continuous
 62
     0
370
     0
100
AcDbPolyline
 90
       26
 70
     0
 43
0.0
 10
-61.497993
 20
723.647705
 10
-61.51342
 20
722.928162
 10
-61.55899
 20
722.21106
 10
-61.633804
 20
721.499695
 10
-61.736233
 20
720.796875
 10
-61.863983
 20
720.104614
 10
-62.014641
 20
719.42511
 10
-62.185436
 20
718.759827
 10
-62.373508
 20
718.110413
 10
-62.575958
 20
717.478333
 10
-62.789837
 20
716.865112
 10
-63.012192
 20
716.272156
 10
-63.240185
 20
715.700928
 10
-63.471027
 20
715.152832
 10
-63.70182
 20
714.6297
 10
-63.929604
 20
714.133789
 10
-64.15139
 20
713.667603
 10
-64.363922
 20
713.234131
 10
-64.563805
 20
712.836914
 10
-64.747627
 20
712.479736
 10
-64.91188
 20
712.166443
 10
-65.052948
 20
711.901306
 10
-65.167336
 20
711.688782
 10
-65.251953
 20
711.533264
 10
-65.304352
 20
711.437012
 10
-65.322929
 20
711.403381
  0
LWPOLYLINE
  5
35C
330
2A5
100
AcDbEntity
  8
0
  6
Continuous
 62
     0
370
     0
100
AcDbPolyline
 90
       25
 70
     0
 43
0.0
 10
-65.322929
 20
785.392883
 10
-65.304497
 20
785.359558
 10
-65.249847
 20
785.259277
 10
-65.160774
 20
785.095581
 10
-65.040031
 20
784.871094
 10
-64.891106
 20
784.59082
 10
-64.717873
 20
784.259644
 10
-64.524345
 20
783.882141
 10
-64.314354
 20
783.462708
 10
-64.09169
 20
783.00531
 10
-63.86013
 20
782.513916
 10
-63.623108
 20
781.991455
 10
-63.383831
 20
781.440491
 10
-63.14555
 20
780.86322
 10
-62.911549
 20
780.261841
 10
-62.685078
 20
779.638245
 10
-62.469326
 20
778.994019
 10
-62.267471
 20
778.330505
 10
-62.082687
 20
777.649231
 10
-61.918175
 20
776.951904
 10
-61.777088
 20
776.240295
 10
-61.662235
 20
775.516541
 10
-61.576229
 20
774.782898
 10
-61.521103
 20
774.042297
 10
-61.497993
 20
773.294983
  0
LWPOLYLINE
  5
35D
330
2A5
100
AcDbEntity
  8
0
  6
Continuous
 62
     0
370
    30
100
AcDbPolyline
 90
       18
 70
     0
 43
0.0
 10
-61.715225
 20
774.088013
 10
-62.289486
 20
771.054443
 10
-62.792416
 20
768.020813
 10
-63.224018
 20
764.987244
 10
-63.584293
 20
761.953674
 10
-63.873238
 20
758.920044
 10
-64.090858
 20
755.886475
 10
-64.237144
 20
752.852905
 10
-64.312103
 20
749.819275
 10
-64.315735
 20
746.785706
 10
-64.248039
 20
743.752075
 10
-64.109009
 20
740.718506
 10
-63.898655
 20
737.684937
 10
-63.61697
 20
734.651306
 10
-63.263958
 20
731.617737
 10
-62.839615
 20
728.584167
 10
-62.343945
 20
725.550537
 10
-61.741238
 20
722.33783
  0
ARC
  5
35E
330
2A5
100
AcDbEntity
  8
0
  6
Continuous
 62
     0
370
    30
100
AcDbCircle
 10
-64.572959
 20
785.392852
 30
0.0
 40
0.7499680499445475
100
AcDbArc
 50
179.999475
 51
207.915913
  0
LINE
  5
35F
330
2A5
100
AcDbEntity
  8
0
  6
Continuous
 62
     0
370
     0
100
AcDbLine
 10
-61.497994
 20
723.647692
 30
0.0
 11
-61.689222
 21
723.647692
 31
0.0
  0
ARC
  5
360
330
2A5
100
AcDbEntity
  8
0
  6
Continuous
 62
     0
370
    30
100
AcDbCircle
 10
-64.572956
 20
711.403405
 30
0.0
 40
0.7499711631425099
100
AcDbArc
 50
152.249978
 51
180.000478
  0
LWPOLYLINE
  5
361
330
2A5
100
AcDbEntity
  8
0
  6
Continuous
 62
     0
370
    30
100
AcDbPolyline
 90
       47
 70
     0
 43
0.0
 10
-66.422928
 20
580.648071
 10
-66.391754
 20
580.648071
 10
-66.295349
 20
580.648071
 10
-66.129753
 20
580.648071
 10
-65.891647
 20
580.648071
 10
-65.578514
 20
580.648071
 10
-65.188759
 20
580.648071
 10
-64.721855
 20
580.648071
 10
-64.178413
 20
580.648071
 10
-63.560261
 20
580.648071
 10
-62.870457
 20
580.648071
 10
-62.113251
 20
580.648071
 10
-61.293995
 20
580.648071
 10
-60.419048
 20
580.648071
 10
-59.495583
 20
580.648071
 10
-58.531418
 20
580.648071
 10
-57.534782
 20
580.648071
 10
-56.514103
 20
580.648071
 10
-55.477798
 20
580.648071
 10
-54.434059
 20
580.648071
 10
-53.390678
 20
580.648071
 10
-52.3549
 20
580.648071
 10
-51.333313
 20
580.648071
 10
-50.331757
 20
580.648071
 10
-49.330601
 20
580.648071
 10
-48.309322
 20
580.648071
 10
-47.273743
 20
580.648071
 10
-46.230438
 20
580.648071
 10
-45.186638
 20
580.648071
 10
-44.150127
 20
580.648071
 10
-43.129097
 20
580.648071
 10
-42.131958
 20
580.648071
 10
-41.167141
 20
580.648071
 10
-40.242882
 20
580.648071
 10
-39.367001
 20
580.648071
 10
-38.546696
 20
580.648071
 10
-37.78833
 20
580.648071
 10
-37.097282
 20
580.648071
 10
-36.477825
 20
580.648071
 10
-35.933029
 20
580.648071
 10
-35.464748
 20
580.648071
 10
-35.073616
 20
580.648071
 10
-34.759129
 20
580.648071
 10
-34.519703
 20
580.648071
 10
-34.35284
 20
580.648071
 10
-34.255234
 20
580.648071
 10
-34.222927
 20
580.648071
  0
LINE
  5
362
330
2A5
100
AcDbEntity
  8
0
  6
Continuous
 62
     0
370
    30
100
AcDbLine
 10
-66.422927
 20
580.648081
 30
0.0
 11
-66.196907
 21
710.148081
 31
0.0
  0
LINE
  5
363
330
2A5
100
AcDbEntity
  8
0
  6
Continuous
 62
     0
370
    30
100
AcDbLine
 10
-66.063389
 20
786.648081
 30
0.0
 11
-66.056405
 21
790.649827
 31
0.0
  0
LWPOLYLINE
  5
364
330
2A5
100
AcDbEntity
  8
0
  6
Continuous
 62
     0
370
    30
100
AcDbPolyline
 90
       29
 70
     0
 43
0.0
 10
-66.063393
 20
786.648071
 10
-66.042168
 20
786.622009
 10
-65.979362
 20
786.548767
 10
-65.876266
 20
786.428589
 10
-65.734291
 20
786.262085
 10
-65.555557
 20
786.051208
 10
-65.342682
 20
785.798523
 10
-65.09848
 20
785.506958
 10
-64.825874
 20
785.178955
 10
-64.527809
 20
784.817139
 10
-64.207123
 20
784.423584
 10
-63.866726
 20
784.00061
 10
-63.509594
 20
783.550293
 10
-63.138496
 20
783.074402
 10
-62.755981
 20
782.574219
 10
-62.364811
 20
782.050598
 10
-61.968025
 20
781.504211
 10
-61.568665
 20
780.935852
 10
-61.169903
 20
780.345886
 10
-60.775642
 20
779.734009
 10
-60.390041
 20
779.099609
 10
-60.017494
 20
778.441956
 10
-59.664478
 20
777.76001
 10
-59.338554
 20
777.05249
 10
-59.047924
 20
776.318481
 10
-58.803848
 20
775.558594
 10
-58.618477
 20
774.773987
 10
-58.502121
 20
773.969971
 10
-58.462612
 20
773.148071
  0
LINE
  5
365
330
2A5
100
AcDbEntity
  8
0
  6
Continuous
 62
     0
370
    30
100
AcDbLine
 10
-58.462611
 20
773.148081
 30
0.0
 11
-58.628693
 21
723.648081
 31
0.0
  0
LWPOLYLINE
  5
366
330
2A5
100
AcDbEntity
  8
0
  6
Continuous
 62
     0
370
    30
100
AcDbPolyline
 90
       29
 70
     0
 43
0.0
 10
-58.628693
 20
723.648071
 10
-58.67173
 20
722.836792
 10
-58.789791
 20
722.033997
 10
-58.975208
 20
721.250244
 10
-59.218037
 20
720.490845
 10
-59.506615
 20
719.756897
 10
-59.830048
 20
719.049072
 10
-60.180321
 20
718.366638
 10
-60.55006
 20
717.708313
 10
-60.93288
 20
717.073242
 10
-61.324417
 20
716.460632
 10
-61.720554
 20
715.869995
 10
-62.117413
 20
715.300964
 10
-62.511826
 20
714.754089
 10
-62.900749
 20
714.229919
 10
-63.28117
 20
713.729248
 10
-63.650322
 20
713.252991
 10
-64.005661
 20
712.802307
 10
-64.344421
 20
712.378967
 10
-64.663666
 20
711.985046
 10
-64.960464
 20
711.622864
 10
-65.232018
 20
711.294495
 10
-65.475403
 20
711.002441
 10
-65.687706
 20
710.749329
 10
-65.866127
 20
710.537781
 10
-66.008087
 20
710.370483
 10
-66.111443
 20
710.249512
 10
-66.174805
 20
710.175293
 10
-66.196907
 20
710.148071
  0
LINE
  5
367
330
2A5
100
AcDbEntity
  8
0
  6
Continuous
 62
     0
370
     0
100
AcDbLine
 10
-61.689241
 20
773.291786
 30
0.0
 11
-61.497994
 21
773.294956
 31
0.0
  0
LINE
  5
368
330
2A5
100
AcDbEntity
  8
0
  6
Continuous
 62
     0
370
    30
100
AcDbLine
 10
-37.69143
 20
506.349113
 30
0.0
 11
-51.776346
 21
506.349055
 31
0.0
  0
LINE
  5
369
330
2A5
100
AcDbEntity
  8
0
  6
Continuous
 62
     0
370
    30
100
AcDbLine
 10
-61.689241
 20
723.647692
 30
0.0
 11
-61.689241
 21
773.291732
 31
0.0
  0
LWPOLYLINE
  5
36A
330
2A5
100
AcDbEntity
  8
0
  6
Continuous
 62
     0
370
    30
100
AcDbPolyline
 90
       26
 70
     0
 43
0.0
 10
-61.68922
 20
773.291748
 10
-61.708557
 20
773.961182
 10
-61.754066
 20
774.628784
 10
-61.824203
 20
775.292236
 10
-61.917419
 20
775.948914
 10
-62.032162
 20
776.596497
 10
-62.16679
 20
777.232605
 10
-62.319092
 20
777.855835
 10
-62.486652
 20
778.465149
 10
-62.667049
 20
779.059448
 10
-62.857868
 20
779.637695
 10
-63.056683
 20
780.198792
 10
-63.261082
 20
780.741577
 10
-63.468616
 20
781.264465
 10
-63.676838
 20
781.765503
 10
-63.883293
 20
782.242615
 10
-64.085526
 20
782.693787
 10
-64.280991
 20
783.11676
 10
-64.466682
 20
783.508179
 10
-64.639496
 20
783.864258
 10
-64.796326
 20
784.181274
 10
-64.934059
 20
784.4552
 10
-65.04966
 20
784.682007
 10
-65.139664
 20
784.856873
 10
-65.200844
 20
784.975037
 10
-65.235809
 20
785.041626
  0
LINE
  5
36B
330
2A5
100
AcDbEntity
  8
0
  6
Continuous
 62
     0
370
    30
100
AcDbLine
 10
-34.222927
 20
580.648081
 30
0.0
 11
-34.58945
 21
790.649827
 31
0.0
  0
LINE
  5
36C
330
2A5
100
AcDbEntity
  8
0
  6
Continuous
 62
     0
370
    30
100
AcDbLine
 10
-61.462335
 20
573.275237
 30
0.0
 11
-61.822927
 21
580.648081
 31
0.0
  0
LINE
  5
36D
330
2A5
100
AcDbEntity
  8
0
  6
Continuous
 62
     0
370
    30
100
AcDbLine
 10
-38.976523
 20
577.50758
 30
0.0
 11
-38.822927
 21
580.648081
 31
0.0
  0
LWPOLYLINE
  5
36E
330
2A5
100
AcDbEntity
  8
0
  6
Continuous
 62
     0
370
    30
100
AcDbPolyline
 90
       14
 70
     0
 43
0.0
 10
-57.035015
 20
549.046082
 10
-56.59687
 20
545.767822
 10
-56.1642
 20
542.488892
 10
-55.736214
 20
539.209351
 10
-55.31284
 20
535.929321
 10
-54.896065
 20
532.648438
 10
-54.488232
 20
529.366577
 10
-54.090946
 20
526.083496
 10
-53.699131
 20
522.799805
 10
-53.304176
 20
519.516418
 10
-52.89777
 20
516.234253
 10
-52.487606
 20
512.952454
 10
-52.104122
 20
509.667755
 10
-51.777115
 20
506.34903
  0
LWPOLYLINE
  5
36F
330
2A5
100
AcDbEntity
  8
0
  6
Continuous
 62
     0
370
    30
100
AcDbPolyline
 90
       14
 70
     0
 43
0.0
 10
-42.787907
 20
548.133545
 10
-42.364487
 20
544.930054
 10
-41.946056
 20
541.725952
 10
-41.531883
 20
538.521301
 10
-41.122337
 20
535.316101
 10
-40.719467
 20
532.110107
 10
-40.325478
 20
528.903137
 10
-39.941402
 20
525.695068
 10
-39.561554
 20
522.48645
 10
-39.177822
 20
519.278259
 10
-38.7826
 20
516.071289
 10
-38.384777
 20
512.864563
 10
-38.013309
 20
509.654938
 10
-37.690666
 20
506.349091
  0
LWPOLYLINE
  5
370
330
2A5
100
AcDbEntity
  8
0
  6
Continuous
 62
     0
370
    30
100
AcDbPolyline
 90
       30
 70
     0
 43
0.0
 10
-61.68922
 20
723.647705
 10
-61.70042
 20
723.051636
 10
-61.732441
 20
722.456421
 10
-61.784286
 20
721.863708
 10
-61.854954
 20
721.275269
 10
-61.943439
 20
720.69281
 10
-62.048744
 20
720.118103
 10
-62.169674
 20
719.552551
 10
-62.304588
 20
718.997192
 10
-62.451782
 20
718.452759
 10
-62.60955
 20
717.920044
 10
-62.776192
 20
717.399963
 10
-62.950001
 20
716.893311
 10
-63.129276
 20
716.400879
 10
-63.312309
 20
715.923523
 10
-63.497402
 20
715.462097
 10
-63.682808
 20
715.017761
 10
-63.866741
 20
714.592224
 10
-64.047401
 20
714.187134
 10
-64.223007
 20
713.804321
 10
-64.39167
 20
713.445557
 10
-64.551186
 20
713.113464
 10
-64.699318
 20
712.810791
 10
-64.833908
 20
712.540161
 10
-64.952759
 20
712.304443
 10
-65.053604
 20
712.10675
 10
-65.13427
 20
711.950012
 10
-65.19162
 20
711.83905
 10
-65.228302
 20
711.768799
 10
-65.19297
 20
711.825378
  0
LINE
  5
371
330
2A5
100
AcDbEntity
  8
0
  6
Continuous
 62
     0
370
    30
100
AcDbLine
 10
-65.322927
 20
711.185197
 30
0.0
 11
-65.322927
 21
711.403399
 31
0.0
  0
LINE
  5
372
330
2A5
100
AcDbEntity
  8
0
  6
Continuous
 62
     0
370
    30
100
AcDbLine
 10
-65.322927
 20
785.392859
 30
0.0
 11
-65.322927
 21
785.775032
 31
0.0
  0
ARC
  5
373
330
2A5
100
AcDbEntity
  8
0
  6
Continuous
 62
     0
370
    30
100
AcDbCircle
 10
-35.589882
 20
790.647647
 30
0.0
 40
1.000434434205136
100
AcDbArc
 50
0.124829
 51
89.969441
  0
LINE
  5
374
330
2A5
100
AcDbEntity
  8
0
  6
Continuous
 62
     0
370
    30
100
AcDbLine
 10
-6.472927
 20
546.50758
 30
0.0
 11
-40.155471
 21
546.50758
 31
0.0
  0
ENDBLK
  5
376
330
2A5
100
AcDbEntity
  8
0
100
AcDbBlockEnd
  0
ENDSEC
  0
SECTION
  2
ENTITIES
  0
INSERT
  5
15B
330
1F
100
AcDbEntity
  8
0
  6
Continuous
 62
     7
370
     0
100
AcDbBlockReference
  2
a
 10
187.347565
 20
113.762405
 30
0.0
  0
INSERT
  5
1DE
330
1F
100
AcDbEntity
  8
0
  6
Continuous
 62
     7
370
     0
100
AcDbBlockReference
  2
b
 10
187.347565
 20
124.973557
 30
0.0
  0
INSERT
  5
2A4
330
1F
100
AcDbEntity
  8
0
  6
Continuous
 62
     7
370
     0
100
AcDbBlockReference
  2
c
 10
388.138214
 20
167.059372
 30
0.0
  0
INSERT
  5
377
330
1F
100
AcDbEntity
  8
0
  6
Continuous
 62
     7
370
     0
100
AcDbBlockReference
  2
d
 10
41.334717
 20
0.0
 30
0.0
  0
ENDSEC
  0
SECTION
  2
OBJECTS
  0
DICTIONARY
  5
C
330
0
100
AcDbDictionary
281
     1
  3
ACAD_GROUP
350
D
  3
ACAD_LAYOUT
350
1A
  3
ACAD_MATERIAL
350
3B
  3
ACAD_MLEADERSTYLE
350
37A
  3
ACAD_MLINESTYLE
350
17
  3
ACAD_PLOTSETTINGS
350
19
  3
ACAD_PLOTSTYLENAME
350
E
  3
ACAD_VISUALSTYLE
350
2A
  3
AcDbVariableDictionary
350
378
  0
DICTIONARY
  5
D
102
{ACAD_REACTORS
330
C
102
}
330
C
100
AcDbDictionary
281
     1
  0
DICTIONARY
  5
1A
102
{ACAD_REACTORS
330
C
102
}
330
C
100
AcDbDictionary
281
     1
  3
Layout1
350
1E
  3
Layout2
350
26
  3
Model
350
22
  0
DICTIONARY
  5
3B
102
{ACAD_REACTORS
330
C
102
}
330
C
100
AcDbDictionary
281
     1
  3
ByBlock
350
3D
  3
ByLayer
350
3C
  3
Global
350
3E
  0
DICTIONARY
  5
37A
102
{ACAD_REACTORS
330
C
102
}
330
C
100
AcDbDictionary
281
     1
  0
DICTIONARY
  5
17
102
{ACAD_REACTORS
330
C
102
}
330
C
100
AcDbDictionary
281
     1
  3
Standard
350
18
  0
DICTIONARY
  5
19
102
{ACAD_REACTORS
330
C
102
}
330
C
100
AcDbDictionary
281
     1
  0
ACDBDICTIONARYWDFLT
  5
E
102
{ACAD_REACTORS
330
C
102
}
330
C
100
AcDbDictionary
281
     1
  3
Normal
350
F
100
AcDbDictionaryWithDefault
340
F
  0
DICTIONARY
  5
2A
102
{ACAD_REACTORS
330
C
102
}
330
C
100
AcDbDictionary
281
     1
  3
2dWireframe
350
2F
  3
3D Hidden
350
31
  3
3dWireframe
350
30
  3
Basic
350
32
  3
Brighten
350
36
  3
ColorChange
350
3A
  3
Conceptual
350
34
  3
Dim
350
35
  3
Facepattern
350
39
  3
Flat
350
2B
  3
FlatWithEdges
350
2C
  3
Gouraud
350
2D
  3
GouraudWithEdges
350
2E
  3
Linepattern
350
38
  3
Realistic
350
33
  3
Thicken
350
37
  0
DICTIONARY
  5
378
102
{ACAD_REACTORS
330
C
102
}
330
C
100
AcDbDictionary
281
     1
  3
DIMASSOC
350
37D
  3
HIDETEXT
350
37E
  3
PSOLHEIGHT
350
37C
  3
PSOLWIDTH
350
37B
  0
LAYOUT
  5
1E
102
{ACAD_REACTORS
330
1A
102
}
330
1A
100
AcDbPlotSettings
  1

  2
none_device
  4

  6

 40
0.0
 41
0.0
 42
0.0
 43
0.0
 44
0.0
 45
0.0
 46
0.0
 47
0.0
 48
0.0
 49
0.0
140
0.0
141
0.0
142
1.0
143
1.0
 70
   688
 72
     0
 73
     0
 74
     5
  7

 75
    16
147
1.0
148
0.0
149
0.0
100
AcDbLayout
  1
Layout1
 70
     1
 71
     1
 10
0.0
 20
0.0
 11
420.0
 21
297.0
 12
0.0
 22
0.0
 32
0.0
 14
1.000000E+20
 24
1.000000E+20
 34
1.000000E+20
 15
-1.000000E+20
 25
-1.000000E+20
 35
-1.000000E+20
146
0.0
 13
0.0
 23
0.0
 33
0.0
 16
1.0
 26
0.0
 36
0.0
 17
0.0
 27
1.0
 37
0.0
 76
     0
330
1B
  0
LAYOUT
  5
26
102
{ACAD_REACTORS
330
1A
102
}
330
1A
100
AcDbPlotSettings
  1

  2
none_device
  4

  6

 40
0.0
 41
0.0
 42
0.0
 43
0.0
 44
0.0
 45
0.0
 46
0.0
 47
0.0
 48
0.0
 49
0.0
140
0.0
141
0.0
142
1.0
143
1.0
 70
   688
 72
     0
 73
     0
 74
     5
  7

 75
    16
147
1.0
148
0.0
149
0.0
100
AcDbLayout
  1
Layout2
 70
     1
 71
     2
 10
0.0
 20
0.0
 11
0.0
 21
0.0
 12
0.0
 22
0.0
 32
0.0
 14
0.0
 24
0.0
 34
0.0
 15
0.0
 25
0.0
 35
0.0
146
0.0
 13
0.0
 23
0.0
 33
0.0
 16
1.0
 26
0.0
 36
0.0
 17
0.0
 27
1.0
 37
0.0
 76
     0
330
23
  0
LAYOUT
  5
22
102
{ACAD_REACTORS
330
1A
102
}
330
1A
100
AcDbPlotSettings
  1

  2
none_device
  4

  6

 40
0.0
 41
0.0
 42
0.0
 43
0.0
 44
0.0
 45
0.0
 46
0.0
 47
0.0
 48
0.0
 49
0.0
140
0.0
141
0.0
142
1.0
143
1.0
 70
  1712
 72
     0
 73
     0
 74
     0
  7

 75
     0
147
1.0
148
0.0
149
0.0
100
AcDbLayout
  1
Model
 70
     1
 71
     0
 10
0.0
 20
0.0
 11
420.0
 21
297.0
 12
0.0
 22
0.0
 32
0.0
 14
1.000000E+20
 24
1.000000E+20
 34
1.000000E+20
 15
-1.000000E+20
 25
-1.000000E+20
 35
-1.000000E+20
146
0.0
 13
0.0
 23
0.0
 33
0.0
 16
1.0
 26
0.0
 36
0.0
 17
0.0
 27
1.0
 37
0.0
 76
     0
330
1F
331
29
  0
MATERIAL
  5
3D
102
{ACAD_REACTORS
330
3B
102
}
102
{ACAD_XDICTIONARY
360
3A1
102
}
330
3B
100
AcDbMaterial
  1
ByBlock
  0
MATERIAL
  5
3C
102
{ACAD_REACTORS
330
3B
102
}
102
{ACAD_XDICTIONARY
360
39F
102
}
330
3B
100
AcDbMaterial
  1
ByLayer
  0
MATERIAL
  5
3E
102
{ACAD_REACTORS
330
3B
102
}
102
{ACAD_XDICTIONARY
360
3A3
102
}
330
3B
100
AcDbMaterial
  1
Global
  0
MLINESTYLE
  5
18
102
{ACAD_REACTORS
330
17
102
}
330
17
100
AcDbMlineStyle
  2
Standard
 70
     0
  3

 62
   256
 51
90.0
 52
90.0
 71
     2
 49
0.5
 62
   256
  6
BYLAYER
 49
-0.5
 62
   256
  6
BYLAYER
  0
ACDBPLACEHOLDER
  5
F
102
{ACAD_REACTORS
330
E
102
}
330
E
  0
VISUALSTYLE
  5
2F
102
{ACAD_REACTORS
330
2A
102
}
102
{ACAD_XDICTIONARY
360
387
102
}
330
2A
100
AcDbVisualStyle
  2
2dWireframe
 70
     4
 71
     0
 72
     2
 73
     0
 90
        0
 40
-0.6
 41
-30.0
 62
     5
 63
     7
 74
     1
 91
        4
 64
     7
 65
   257
 75
     1
175
     1
 42
1.0
 92
        0
 66
   257
 43
1.0
 76
     1
 77
     6
 78
     2
 67
     7
 79
     5
170
     0
171
     0
290
     0
174
     0
 93
        1
 44
0.0
173
     0
291
     0
 45
0.0
1001
ACAD
1000
AcDbSavedByObjectVersion
1070
     0
  0
VISUALSTYLE
  5
31
102
{ACAD_REACTORS
330
2A
102
}
102
{ACAD_XDICTIONARY
360
38B
102
}
330
2A
100
AcDbVisualStyle
  2
3D Hidden
 70
     6
 71
     1
 72
     2
 73
     2
 90
        0
 40
-0.6
 41
-30.0
 62
     5
 63
     7
 74
     2
 91
        2
 64
     7
 65
   257
 75
     2
175
     1
 42
40.0
 92
        0
 66
   257
 43
1.0
 76
     1
 77
     6
 78
     2
 67
     7
 79
     3
170
     0
171
     0
290
     0
174
     0
 93
        1
 44
0.0
173
     0
291
     0
 45
0.0
1001
ACAD
1000
AcDbSavedByObjectVersion
1070
     0
  0
VISUALSTYLE
  5
30
102
{ACAD_REACTORS
330
2A
102
}
102
{ACAD_XDICTIONARY
360
389
102
}
330
2A
100
AcDbVisualStyle
  2
3dWireframe
 70
     5
 71
     0
 72
     2
 73
     0
 90
        0
 40
-0.6
 41
-30.0
 62
     5
 63
     7
 74
     1
 91
        4
 64
     7
 65
   257
 75
     1
175
     1
 42
1.0
 92
        0
 66
   257
 43
1.0
 76
     1
 77
     6
 78
     2
 67
     7
 79
     5
170
     0
171
     0
290
     0
174
     0
 93
        1
 44
0.0
173
     0
291
     0
 45
0.0
1001
ACAD
1000
AcDbSavedByObjectVersion
1070
     0
  0
VISUALSTYLE
  5
32
102
{ACAD_REACTORS
330
2A
102
}
102
{ACAD_XDICTIONARY
360
38D
102
}
330
2A
100
AcDbVisualStyle
  2
Basic
 70
     7
 71
     1
 72
     0
 73
     1
 90
        0
 40
-0.6
 41
-30.0
 62
     5
 63
     7
 74
     0
 91
        4
 64
     7
 65
   257
 75
     1
175
     1
 42
1.0
 92
        8
 66
     7
 43
1.0
 76
     1
 77
     6
 78
     2
 67
     7
 79
     5
170
     0
171
     0
290
     0
174
     0
 93
        1
 44
0.0
173
     0
291
     1
 45
0.0
1001
ACAD
1000
AcDbSavedByObjectVersion
1070
     0
  0
VISUALSTYLE
  5
36
102
{ACAD_REACTORS
330
2A
102
}
102
{ACAD_XDICTIONARY
360
395
102
}
330
2A
100
AcDbVisualStyle
  2
Brighten
 70
    12
 71
     2
 72
     2
 73
     0
 90
        0
 40
-0.6
 41
-30.0
 62
     5
 63
     7
 74
     1
 91
        4
 64
     7
 65
   257
 75
     1
175
     1
 42
1.0
 92
        8
 66
     7
 43
1.0
 76
     1
 77
     6
 78
     2
 67
     7
 79
     5
170
     0
171
     0
290
     0
174
     0
 93
        1
 44
50.0
173
     0
291
     1
 45
0.0
1001
ACAD
1000
AcDbSavedByObjectVersion
1070
     0
  0
VISUALSTYLE
  5
3A
102
{ACAD_REACTORS
330
2A
102
}
102
{ACAD_XDICTIONARY
360
39D
102
}
330
2A
100
AcDbVisualStyle
  2
ColorChange
 70
    16
 71
     2
 72
     2
 73
     3
 90
        0
 40
-0.6
 41
-30.0
 62
     5
 63
     8
 74
     1
 91
        4
 64
     7
 65
   257
 75
     1
175
     1
 42
1.0
 92
        8
 66
     8
 43
1.0
 76
     1
 77
     6
 78
     2
 67
     7
 79
     5
170
     0
171
     0
290
     0
174
     0
 93
        1
 44
0.0
173
     0
291
     1
 45
0.0
1001
ACAD
1000
AcDbSavedByObjectVersion
1070
     0
  0
VISUALSTYLE
  5
34
102
{ACAD_REACTORS
330
2A
102
}
102
{ACAD_XDICTIONARY
360
391
102
}
330
2A
100
AcDbVisualStyle
  2
Conceptual
 70
     9
 71
     3
 72
     2
 73
     0
 90
        0
 40
-0.6
 41
-30.0
 62
     5
 63
     7
 74
     2
 91
        2
 64
     7
 65
   257
 75
     1
175
     1
 42
40.0
 92
        8
 66
     7
 43
1.0
 76
     1
 77
     6
 78
     2
 67
     7
 79
     3
170
     0
171
     0
290
     0
174
     0
 93
        1
 44
0.0
173
     0
291
     0
 45
0.0
1001
ACAD
1000
AcDbSavedByObjectVersion
1070
     0
  0
VISUALSTYLE
  5
35
102
{ACAD_REACTORS
330
2A
102
}
102
{ACAD_XDICTIONARY
360
393
102
}
330
2A
100
AcDbVisualStyle
  2
Dim
 70
    11
 71
     2
 72
     2
 73
     0
 90
        0
 40
-0.6
 41
-30.0
 62
     5
 63
     7
 74
     1
 91
        4
 64
     7
 65
   257
 75
     1
175
     1
 42
1.0
 92
        8
 66
     7
 43
1.0
 76
     1
 77
     6
 78
     2
 67
     7
 79
     5
170
     0
171
     0
290
     0
174
     0
 93
        1
 44
-50.0
173
     0
291
     1
 45
0.0
1001
ACAD
1000
AcDbSavedByObjectVersion
1070
     0
  0
VISUALSTYLE
  5
39
102
{ACAD_REACTORS
330
2A
102
}
102
{ACAD_XDICTIONARY
360
39B
102
}
330
2A
100
AcDbVisualStyle
  2
Facepattern
 70
    15
 71
     2
 72
     2
 73
     0
 90
        0
 40
-0.6
 41
-30.0
 62
     5
 63
     7
 74
     1
 91
        4
 64
     7
 65
   257
 75
     1
175
     1
 42
1.0
 92
        8
 66
     7
 43
1.0
 76
     1
 77
     6
 78
     2
 67
     7
 79
     5
170
     0
171
     0
290
     0
174
     0
 93
        1
 44
0.0
173
     0
291
     1
 45
0.0
1001
ACAD
1000
AcDbSavedByObjectVersion
1070
     0
  0
VISUALSTYLE
  5
2B
102
{ACAD_REACTORS
330
2A
102
}
102
{ACAD_XDICTIONARY
360
37F
102
}
330
2A
100
AcDbVisualStyle
  2
Flat
 70
     0
 71
     2
 72
     1
 73
     1
 90
        2
 40
-0.6
 41
30.0
 62
     5
 63
     7
 74
     0
 91
        4
 64
     7
 65
   257
 75
     1
175
     1
 42
1.0
 92
        8
 66
     7
 43
1.0
 76
     1
 77
     6
 78
     2
 67
     7
 79
     5
170
     0
171
     0
290
     0
174
     0
 93
       13
 44
0.0
173
     0
291
     1
 45
0.0
1001
ACAD
1000
AcDbSavedByObjectVersion
1070
     0
  0
VISUALSTYLE
  5
2C
102
{ACAD_REACTORS
330
2A
102
}
102
{ACAD_XDICTIONARY
360
381
102
}
330
2A
100
AcDbVisualStyle
  2
FlatWithEdges
 70
     1
 71
     2
 72
     1
 73
     1
 90
        2
 40
-0.6
 41
30.0
 62
     5
 63
     7
 74
     1
 91
        4
 64
     7
 65
   257
 75
     1
175
     1
 42
1.0
 92
        0
 66
   257
 43
1.0
 76
     1
 77
     6
 78
     2
 67
     7
 79
     5
170
     0
171
     0
290
     0
174
     0
 93
       13
 44
0.0
173
     0
291
     1
 45
0.0
1001
ACAD
1000
AcDbSavedByObjectVersion
1070
     0
  0
VISUALSTYLE
  5
2D
102
{ACAD_REACTORS
330
2A
102
}
102
{ACAD_XDICTIONARY
360
383
102
}
330
2A
100
AcDbVisualStyle
  2
Gouraud
 70
     2
 71
     2
 72
     2
 73
     1
 90
        2
 40
-0.6
 41
30.0
 62
     5
 63
     7
 74
     0
 91
        4
 64
     7
 65
   257
 75
     1
175
     1
 42
1.0
 92
        0
 66
     7
 43
1.0
 76
     1
 77
     6
 78
     2
 67
     7
 79
     5
170
     0
171
     0
290
     0
174
     0
 93
       13
 44
0.0
173
     0
291
     1
 45
0.0
1001
ACAD
1000
AcDbSavedByObjectVersion
1070
     0
  0
VISUALSTYLE
  5
2E
102
{ACAD_REACTORS
330
2A
102
}
102
{ACAD_XDICTIONARY
360
385
102
}
330
2A
100
AcDbVisualStyle
  2
GouraudWithEdges
 70
     3
 71
     2
 72
     2
 73
     1
 90
        2
 40
-0.6
 41
30.0
 62
     5
 63
     7
 74
     1
 91
        4
 64
     7
 65
   257
 75
     1
175
     1
 42
1.0
 92
        0
 66
   257
 43
1.0
 76
     1
 77
     6
 78
     2
 67
     7
 79
     5
170
     0
171
     0
290
     0
174
     0
 93
       13
 44
0.0
173
     0
291
     1
 45
0.0
1001
ACAD
1000
AcDbSavedByObjectVersion
1070
     0
  0
VISUALSTYLE
  5
38
102
{ACAD_REACTORS
330
2A
102
}
102
{ACAD_XDICTIONARY
360
399
102
}
330
2A
100
AcDbVisualStyle
  2
Linepattern
 70
    14
 71
     2
 72
     2
 73
     0
 90
        0
 40
-0.6
 41
-30.0
 62
     5
 63
     7
 74
     1
 91
        4
 64
     7
 65
   257
 75
     7
175
     7
 42
1.0
 92
        8
 66
     7
 43
1.0
 76
     1
 77
     6
 78
     2
 67
     7
 79
     5
170
     0
171
     0
290
     0
174
     0
 93
        1
 44
0.0
173
     0
291
     1
 45
0.0
1001
ACAD
1000
AcDbSavedByObjectVersion
1070
     0
  0
VISUALSTYLE
  5
33
102
{ACAD_REACTORS
330
2A
102
}
102
{ACAD_XDICTIONARY
360
38F
102
}
330
2A
100
AcDbVisualStyle
  2
Realistic
 70
     8
 71
     2
 72
     2
 73
     0
 90
        0
 40
-0.6
 41
-30.0
 62
     5
 63
     7
 74
     1
 91
        0
 64
     7
 65
   257
 75
     1
175
     1
 42
1.0
 92
        8
 66
     8
 43
1.0
 76
     1
 77
     6
 78
     2
 67
     7
 79
     5
170
     0
171
     0
290
     0
174
     0
 93
       13
 44
0.0
173
     0
291
     0
 45
0.0
1001
ACAD
1000
AcDbSavedByObjectVersion
1070
     0
  0
VISUALSTYLE
  5
37
102
{ACAD_REACTORS
330
2A
102
}
102
{ACAD_XDICTIONARY
360
397
102
}
330
2A
100
AcDbVisualStyle
  2
Thicken
 70
    13
 71
     2
 72
     2
 73
     0
 90
        0
 40
-0.6
 41
-30.0
 62
     5
 63
     7
 74
     1
 91
        4
 64
     7
 65
   257
 75
     1
175
     1
 42
1.0
 92
       12
 66
     7
 43
1.0
 76
     1
 77
     6
 78
     2
 67
     7
 79
     5
170
     0
171
     0
290
     0
174
     0
 93
        1
 44
0.0
173
     0
291
     1
 45
0.0
1001
ACAD
1000
AcDbSavedByObjectVersion
1070
     0
  0
DICTIONARYVAR
  5
37D
102
{ACAD_REACTORS
330
378
102
}
330
378
100
DictionaryVariables
280
     0
  1
2
  0
DICTIONARYVAR
  5
37E
102
{ACAD_REACTORS
330
378
102
}
330
378
100
DictionaryVariables
280
     0
  1
1
  0
DICTIONARYVAR
  5
37C
102
{ACAD_REACTORS
330
378
102
}
330
378
100
DictionaryVariables
280
     0
  1
80.000000
  0
DICTIONARYVAR
  5
37B
102
{ACAD_REACTORS
330
378
102
}
330
378
100
DictionaryVariables
280
     0
  1
5.000000
  0
DICTIONARY
  5
3A1
330
3D
100
AcDbDictionary
280
     1
281
     1
  3
ACAD_XREC_ROUNDTRIP
360
3A2
  0
DICTIONARY
  5
39F
330
3C
100
AcDbDictionary
280
     1
281
     1
  3
ACAD_XREC_ROUNDTRIP
360
3A0
  0
DICTIONARY
  5
3A3
330
3E
100
AcDbDictionary
280
     1
281
     1
  3
ACAD_XREC_ROUNDTRIP
360
3A4
  0
DICTIONARY
  5
387
330
2F
100
AcDbDictionary
280
     1
281
     1
  3
ACAD_XREC_ROUNDTRIP
360
388
  0
DICTIONARY
  5
38B
330
31
100
AcDbDictionary
280
     1
281
     1
  3
ACAD_XREC_ROUNDTRIP
360
38C
  0
DICTIONARY
  5
389
330
30
100
AcDbDictionary
280
     1
281
     1
  3
ACAD_XREC_ROUNDTRIP
360
38A
  0
DICTIONARY
  5
38D
330
32
100
AcDbDictionary
280
     1
281
     1
  3
ACAD_XREC_ROUNDTRIP
360
38E
  0
DICTIONARY
  5
395
330
36
100
AcDbDictionary
280
     1
281
     1
  3
ACAD_XREC_ROUNDTRIP
360
396
  0
DICTIONARY
  5
39D
330
3A
100
AcDbDictionary
280
     1
281
     1
  3
ACAD_XREC_ROUNDTRIP
360
39E
  0
DICTIONARY
  5
391
330
34
100
AcDbDictionary
280
     1
281
     1
  3
ACAD_XREC_ROUNDTRIP
360
392
  0
DICTIONARY
  5
393
330
35
100
AcDbDictionary
280
     1
281
     1
  3
ACAD_XREC_ROUNDTRIP
360
394
  0
DICTIONARY
  5
39B
330
39
100
AcDbDictionary
280
     1
281
     1
  3
ACAD_XREC_ROUNDTRIP
360
39C
  0
DICTIONARY
  5
37F
330
2B
100
AcDbDictionary
280
     1
281
     1
  3
ACAD_XREC_ROUNDTRIP
360
380
  0
DICTIONARY
  5
381
330
2C
100
AcDbDictionary
280
     1
281
     1
  3
ACAD_XREC_ROUNDTRIP
360
382
  0
DICTIONARY
  5
383
330
2D
100
AcDbDictionary
280
     1
281
     1
  3
ACAD_XREC_ROUNDTRIP
360
384
  0
DICTIONARY
  5
385
330
2E
100
AcDbDictionary
280
     1
281
     1
  3
ACAD_XREC_ROUNDTRIP
360
386
  0
DICTIONARY
  5
399
330
38
100
AcDbDictionary
280
     1
281
     1
  3
ACAD_XREC_ROUNDTRIP
360
39A
  0
DICTIONARY
  5
38F
330
33
100
AcDbDictionary
280
     1
281
     1
  3
ACAD_XREC_ROUNDTRIP
360
390
  0
DICTIONARY
  5
397
330
37
100
AcDbDictionary
280
     1
281
     1
  3
ACAD_XREC_ROUNDTRIP
360
398
  0
XRECORD
  5
3A2
102
{ACAD_REACTORS
330
3A1
102
}
330
3A1
100
AcDbXrecord
280
     1
102
MATERIAL
148
0.0
149
0.0
149
0.0
 93
        0
 94
      127
282
     0
 72
     1
 77
     1
171
     1
175
     1
179
     1
273
     0
  0
XRECORD
  5
3A0
102
{ACAD_REACTORS
330
39F
102
}
330
39F
100
AcDbXrecord
280
     1
102
MATERIAL
148
0.0
149
0.0
149
0.0
 93
        0
 94
      127
282
     0
 72
     1
 77
     1
171
     1
175
     1
179
     1
273
     0
  0
XRECORD
  5
3A4
102
{ACAD_REACTORS
330
3A3
102
}
330
3A3
100
AcDbXrecord
280
     1
102
MATERIAL
148
0.0
149
0.0
149
0.0
 93
        0
 94
      127
282
     0
 72
     1
 77
     1
171
     1
175
     1
179
     1
273
     0
  0
XRECORD
  5
388
102
{ACAD_REACTORS
330
387
102
}
330
387
100
AcDbXrecord
280
     1
102
RTVSPropertyOp0
 70
     1
102
RTVSPropertyOp1
 70
     1
102
RTVSPropertyOp2
 70
     1
102
RTVSPropertyOp3
 70
     1
102
RTVSPropertyOp4
 70
     1
102
RTVSPropertyOp5
 70
     1
102
RTVSPropertyOp6
 70
     1
102
RTVSPropertyOp7
 70
     1
102
RTVSPropertyOp8
 70
     1
102
RTVSPropertyOp9
 70
     1
102
RTVSPropertyOp10
 70
     1
102
RTVSPropertyOp11
 70
     1
102
RTVSPropertyOp12
 70
     1
102
RTVSPropertyOp13
 70
     1
102
RTVSPropertyOp14
 70
     1
102
RTVSPropertyOp15
 70
     1
102
RTVSPropertyOp16
 70
     1
102
RTVSPropertyOp17
 70
     1
102
RTVSPropertyOp18
 70
     1
102
RTVSPropertyOp19
 70
     1
102
RTVSPropertyOp20
 70
     1
102
RTVSPropertyOp21
 70
     1
102
RTVSPropertyOp22
 70
     1
102
RTVSPropertyOp23
 70
     1
102
RTVSPropertyOp24
 70
     1
102
RTVSPropertyOp25
 70
     1
102
RTVSPropertyOp26
 70
     1
102
RTVSPropertyOp27
 70
     1
  0
XRECORD
  5
38C
102
{ACAD_REACTORS
330
38B
102
}
330
38B
100
AcDbXrecord
280
     1
102
RTVSPropertyOp0
 70
     1
102
RTVSPropertyOp1
 70
     1
102
RTVSPropertyOp2
 70
     1
102
RTVSPropertyOp3
 70
     1
102
RTVSPropertyOp4
 70
     1
102
RTVSPropertyOp5
 70
     1
102
RTVSPropertyOp6
 70
     1
102
RTVSPropertyOp7
 70
     1
102
RTVSPropertyOp8
 70
     1
102
RTVSPropertyOp9
 70
     1
102
RTVSPropertyOp10
 70
     1
102
RTVSPropertyOp11
 70
     1
102
RTVSPropertyOp12
 70
     1
102
RTVSPropertyOp13
 70
     1
102
RTVSPropertyOp14
 70
     1
102
RTVSPropertyOp15
 70
     1
102
RTVSPropertyOp16
 70
     1
102
RTVSPropertyOp17
 70
     1
102
RTVSPropertyOp18
 70
     1
102
RTVSPropertyOp19
 70
     1
102
RTVSPropertyOp20
 70
     1
102
RTVSPropertyOp21
 70
     1
102
RTVSPropertyOp22
 70
     1
102
RTVSPropertyOp23
 70
     1
102
RTVSPropertyOp24
 70
     1
102
RTVSPropertyOp25
 70
     1
102
RTVSPropertyOp26
 70
     1
102
RTVSPropertyOp27
 70
     1
  0
XRECORD
  5
38A
102
{ACAD_REACTORS
330
389
102
}
330
389
100
AcDbXrecord
280
     1
102
RTVSPropertyOp0
 70
     1
102
RTVSPropertyOp1
 70
     1
102
RTVSPropertyOp2
 70
     1
102
RTVSPropertyOp3
 70
     1
102
RTVSPropertyOp4
 70
     1
102
RTVSPropertyOp5
 70
     1
102
RTVSPropertyOp6
 70
     1
102
RTVSPropertyOp7
 70
     1
102
RTVSPropertyOp8
 70
     1
102
RTVSPropertyOp9
 70
     1
102
RTVSPropertyOp10
 70
     1
102
RTVSPropertyOp11
 70
     1
102
RTVSPropertyOp12
 70
     1
102
RTVSPropertyOp13
 70
     1
102
RTVSPropertyOp14
 70
     1
102
RTVSPropertyOp15
 70
     1
102
RTVSPropertyOp16
 70
     1
102
RTVSPropertyOp17
 70
     1
102
RTVSPropertyOp18
 70
     1
102
RTVSPropertyOp19
 70
     1
102
RTVSPropertyOp20
 70
     1
102
RTVSPropertyOp21
 70
     1
102
RTVSPropertyOp22
 70
     1
102
RTVSPropertyOp23
 70
     1
102
RTVSPropertyOp24
 70
     1
102
RTVSPropertyOp25
 70
     1
102
RTVSPropertyOp26
 70
     1
102
RTVSPropertyOp27
 70
     1
  0
XRECORD
  5
38E
102
{ACAD_REACTORS
330
38D
102
}
330
38D
100
AcDbXrecord
280
     1
102
RTVSPropertyOp0
 70
     1
102
RTVSPropertyOp1
 70
     1
102
RTVSPropertyOp2
 70
     1
102
RTVSPropertyOp3
 70
     1
102
RTVSPropertyOp4
 70
     1
102
RTVSPropertyOp5
 70
     1
102
RTVSPropertyOp6
 70
     1
102
RTVSPropertyOp7
 70
     1
102
RTVSPropertyOp8
 70
     1
102
RTVSPropertyOp9
 70
     1
102
RTVSPropertyOp10
 70
     1
102
RTVSPropertyOp11
 70
     1
102
RTVSPropertyOp12
 70
     1
102
RTVSPropertyOp13
 70
     1
102
RTVSPropertyOp14
 70
     1
102
RTVSPropertyOp15
 70
     1
102
RTVSPropertyOp16
 70
     1
102
RTVSPropertyOp17
 70
     1
102
RTVSPropertyOp18
 70
     1
102
RTVSPropertyOp19
 70
     1
102
RTVSPropertyOp20
 70
     1
102
RTVSPropertyOp21
 70
     1
102
RTVSPropertyOp22
 70
     1
102
RTVSPropertyOp23
 70
     1
102
RTVSPropertyOp24
 70
     1
102
RTVSPropertyOp25
 70
     1
102
RTVSPropertyOp26
 70
     1
102
RTVSPropertyOp27
 70
     1
  0
XRECORD
  5
396
102
{ACAD_REACTORS
330
395
102
}
330
395
100
AcDbXrecord
280
     1
102
RTVSPropertyOp0
 70
     1
102
RTVSPropertyOp1
 70
     1
102
RTVSPropertyOp2
 70
     1
102
RTVSPropertyOp3
 70
     1
102
RTVSPropertyOp4
 70
     1
102
RTVSPropertyOp5
 70
     1
102
RTVSPropertyOp6
 70
     1
102
RTVSPropertyOp7
 70
     1
102
RTVSPropertyOp8
 70
     1
102
RTVSPropertyOp9
 70
     1
102
RTVSPropertyOp10
 70
     1
102
RTVSPropertyOp11
 70
     1
102
RTVSPropertyOp12
 70
     1
102
RTVSPropertyOp13
 70
     1
102
RTVSPropertyOp14
 70
     1
102
RTVSPropertyOp15
 70
     1
102
RTVSPropertyOp16
 70
     1
102
RTVSPropertyOp17
 70
     1
102
RTVSPropertyOp18
 70
     1
102
RTVSPropertyOp19
 70
     1
102
RTVSPropertyOp20
 70
     1
102
RTVSPropertyOp21
 70
     1
102
RTVSPropertyOp22
 70
     1
102
RTVSPropertyOp23
 70
     1
102
RTVSPropertyOp24
 70
     1
102
RTVSPropertyOp25
 70
     1
102
RTVSPropertyOp26
 70
     1
102
RTVSPropertyOp27
 70
     1
  0
XRECORD
  5
39E
102
{ACAD_REACTORS
330
39D
102
}
330
39D
100
AcDbXrecord
280
     1
102
RTVSPropertyOp0
 70
     1
102
RTVSPropertyOp1
 70
     1
102
RTVSPropertyOp2
 70
     1
102
RTVSPropertyOp3
 70
     1
102
RTVSPropertyOp4
 70
     1
102
RTVSPropertyOp5
 70
     1
102
RTVSPropertyOp6
 70
     1
102
RTVSPropertyOp7
 70
     1
102
RTVSPropertyOp8
 70
     1
102
RTVSPropertyOp9
 70
     1
102
RTVSPropertyOp10
 70
     1
102
RTVSPropertyOp11
 70
     1
102
RTVSPropertyOp12
 70
     1
102
RTVSPropertyOp13
 70
     1
102
RTVSPropertyOp14
 70
     1
102
RTVSPropertyOp15
 70
     1
102
RTVSPropertyOp16
 70
     1
102
RTVSPropertyOp17
 70
     1
102
RTVSPropertyOp18
 70
     1
102
RTVSPropertyOp19
 70
     1
102
RTVSPropertyOp20
 70
     1
102
RTVSPropertyOp21
 70
     1
102
RTVSPropertyOp22
 70
     1
102
RTVSPropertyOp23
 70
     1
102
RTVSPropertyOp24
 70
     1
102
RTVSPropertyOp25
 70
     1
102
RTVSPropertyOp26
 70
     1
102
RTVSPropertyOp27
 70
     1
  0
XRECORD
  5
392
102
{ACAD_REACTORS
330
391
102
}
330
391
100
AcDbXrecord
280
     1
102
RTVSPropertyOp0
 70
     1
102
RTVSPropertyOp1
 70
     1
102
RTVSPropertyOp2
 70
     1
102
RTVSPropertyOp3
 70
     1
102
RTVSPropertyOp4
 70
     1
102
RTVSPropertyOp5
 70
     1
102
RTVSPropertyOp6
 70
     1
102
RTVSPropertyOp7
 70
     1
102
RTVSPropertyOp8
 70
     1
102
RTVSPropertyOp9
 70
     1
102
RTVSPropertyOp10
 70
     1
102
RTVSPropertyOp11
 70
     1
102
RTVSPropertyOp12
 70
     1
102
RTVSPropertyOp13
 70
     1
102
RTVSPropertyOp14
 70
     1
102
RTVSPropertyOp15
 70
     1
102
RTVSPropertyOp16
 70
     1
102
RTVSPropertyOp17
 70
     1
102
RTVSPropertyOp18
 70
     1
102
RTVSPropertyOp19
 70
     1
102
RTVSPropertyOp20
 70
     1
102
RTVSPropertyOp21
 70
     1
102
RTVSPropertyOp22
 70
     1
102
RTVSPropertyOp23
 70
     1
102
RTVSPropertyOp24
 70
     1
102
RTVSPropertyOp25
 70
     1
102
RTVSPropertyOp26
 70
     1
102
RTVSPropertyOp27
 70
     1
  0
XRECORD
  5
394
102
{ACAD_REACTORS
330
393
102
}
330
393
100
AcDbXrecord
280
     1
102
RTVSPropertyOp0
 70
     1
102
RTVSPropertyOp1
 70
     1
102
RTVSPropertyOp2
 70
     1
102
RTVSPropertyOp3
 70
     1
102
RTVSPropertyOp4
 70
     1
102
RTVSPropertyOp5
 70
     1
102
RTVSPropertyOp6
 70
     1
102
RTVSPropertyOp7
 70
     1
102
RTVSPropertyOp8
 70
     1
102
RTVSPropertyOp9
 70
     1
102
RTVSPropertyOp10
 70
     1
102
RTVSPropertyOp11
 70
     1
102
RTVSPropertyOp12
 70
     1
102
RTVSPropertyOp13
 70
     1
102
RTVSPropertyOp14
 70
     1
102
RTVSPropertyOp15
 70
     1
102
RTVSPropertyOp16
 70
     1
102
RTVSPropertyOp17
 70
     1
102
RTVSPropertyOp18
 70
     1
102
RTVSPropertyOp19
 70
     1
102
RTVSPropertyOp20
 70
     1
102
RTVSPropertyOp21
 70
     1
102
RTVSPropertyOp22
 70
     1
102
RTVSPropertyOp23
 70
     1
102
RTVSPropertyOp24
 70
     1
102
RTVSPropertyOp25
 70
     1
102
RTVSPropertyOp26
 70
     1
102
RTVSPropertyOp27
 70
     1
  0
XRECORD
  5
39C
102
{ACAD_REACTORS
330
39B
102
}
330
39B
100
AcDbXrecord
280
     1
102
RTVSPropertyOp0
 70
     1
102
RTVSPropertyOp1
 70
     1
102
RTVSPropertyOp2
 70
     1
102
RTVSPropertyOp3
 70
     1
102
RTVSPropertyOp4
 70
     1
102
RTVSPropertyOp5
 70
     1
102
RTVSPropertyOp6
 70
     1
102
RTVSPropertyOp7
 70
     1
102
RTVSPropertyOp8
 70
     1
102
RTVSPropertyOp9
 70
     1
102
RTVSPropertyOp10
 70
     1
102
RTVSPropertyOp11
 70
     1
102
RTVSPropertyOp12
 70
     1
102
RTVSPropertyOp13
 70
     1
102
RTVSPropertyOp14
 70
     1
102
RTVSPropertyOp15
 70
     1
102
RTVSPropertyOp16
 70
     1
102
RTVSPropertyOp17
 70
     1
102
RTVSPropertyOp18
 70
     1
102
RTVSPropertyOp19
 70
     1
102
RTVSPropertyOp20
 70
     1
102
RTVSPropertyOp21
 70
     1
102
RTVSPropertyOp22
 70
     1
102
RTVSPropertyOp23
 70
     1
102
RTVSPropertyOp24
 70
     1
102
RTVSPropertyOp25
 70
     1
102
RTVSPropertyOp26
 70
     1
102
RTVSPropertyOp27
 70
     1
  0
XRECORD
  5
380
102
{ACAD_REACTORS
330
37F
102
}
330
37F
100
AcDbXrecord
280
     1
102
RTVSPropertyOp0
 70
     1
102
RTVSPropertyOp1
 70
     1
102
RTVSPropertyOp2
 70
     1
102
RTVSPropertyOp3
 70
     1
102
RTVSPropertyOp4
 70
     1
102
RTVSPropertyOp5
 70
     1
102
RTVSPropertyOp6
 70
     1
102
RTVSPropertyOp7
 70
     1
102
RTVSPropertyOp8
 70
     1
102
RTVSPropertyOp9
 70
     1
102
RTVSPropertyOp10
 70
     1
102
RTVSPropertyOp11
 70
     1
102
RTVSPropertyOp12
 70
     1
102
RTVSPropertyOp13
 70
     1
102
RTVSPropertyOp14
 70
     1
102
RTVSPropertyOp15
 70
     1
102
RTVSPropertyOp16
 70
     1
102
RTVSPropertyOp17
 70
     1
102
RTVSPropertyOp18
 70
     1
102
RTVSPropertyOp19
 70
     1
102
RTVSPropertyOp20
 70
     1
102
RTVSPropertyOp21
 70
     1
102
RTVSPropertyOp22
 70
     1
102
RTVSPropertyOp23
 70
     1
102
RTVSPropertyOp24
 70
     1
102
RTVSPropertyOp25
 70
     1
102
RTVSPropertyOp26
 70
     1
102
RTVSPropertyOp27
 70
     1
  0
XRECORD
  5
382
102
{ACAD_REACTORS
330
381
102
}
330
381
100
AcDbXrecord
280
     1
102
RTVSPropertyOp0
 70
     1
102
RTVSPropertyOp1
 70
     1
102
RTVSPropertyOp2
 70
     1
102
RTVSPropertyOp3
 70
     1
102
RTVSPropertyOp4
 70
     1
102
RTVSPropertyOp5
 70
     1
102
RTVSPropertyOp6
 70
     1
102
RTVSPropertyOp7
 70
     1
102
RTVSPropertyOp8
 70
     1
102
RTVSPropertyOp9
 70
     1
102
RTVSPropertyOp10
 70
     1
102
RTVSPropertyOp11
 70
     1
102
RTVSPropertyOp12
 70
     1
102
RTVSPropertyOp13
 70
     1
102
RTVSPropertyOp14
 70
     1
102
RTVSPropertyOp15
 70
     1
102
RTVSPropertyOp16
 70
     1
102
RTVSPropertyOp17
 70
     1
102
RTVSPropertyOp18
 70
     1
102
RTVSPropertyOp19
 70
     1
102
RTVSPropertyOp20
 70
     1
102
RTVSPropertyOp21
 70
     1
102
RTVSPropertyOp22
 70
     1
102
RTVSPropertyOp23
 70
     1
102
RTVSPropertyOp24
 70
     1
102
RTVSPropertyOp25
 70
     1
102
RTVSPropertyOp26
 70
     1
102
RTVSPropertyOp27
 70
     1
  0
XRECORD
  5
384
102
{ACAD_REACTORS
330
383
102
}
330
383
100
AcDbXrecord
280
     1
102
RTVSPropertyOp0
 70
     1
102
RTVSPropertyOp1
 70
     1
102
RTVSPropertyOp2
 70
     1
102
RTVSPropertyOp3
 70
     1
102
RTVSPropertyOp4
 70
     1
102
RTVSPropertyOp5
 70
     1
102
RTVSPropertyOp6
 70
     1
102
RTVSPropertyOp7
 70
     1
102
RTVSPropertyOp8
 70
     1
102
RTVSPropertyOp9
 70
     1
102
RTVSPropertyOp10
 70
     1
102
RTVSPropertyOp11
 70
     1
102
RTVSPropertyOp12
 70
     1
102
RTVSPropertyOp13
 70
     1
102
RTVSPropertyOp14
 70
     1
102
RTVSPropertyOp15
 70
     1
102
RTVSPropertyOp16
 70
     1
102
RTVSPropertyOp17
 70
     1
102
RTVSPropertyOp18
 70
     1
102
RTVSPropertyOp19
 70
     1
102
RTVSPropertyOp20
 70
     1
102
RTVSPropertyOp21
 70
     1
102
RTVSPropertyOp22
 70
     1
102
RTVSPropertyOp23
 70
     1
102
RTVSPropertyOp24
 70
     1
102
RTVSPropertyOp25
 70
     1
102
RTVSPropertyOp26
 70
     1
102
RTVSPropertyOp27
 70
     1
  0
XRECORD
  5
386
102
{ACAD_REACTORS
330
385
102
}
330
385
100
AcDbXrecord
280
     1
102
RTVSPropertyOp0
 70
     1
102
RTVSPropertyOp1
 70
     1
102
RTVSPropertyOp2
 70
     1
102
RTVSPropertyOp3
 70
     1
102
RTVSPropertyOp4
 70
     1
102
RTVSPropertyOp5
 70
     1
102
RTVSPropertyOp6
 70
     1
102
RTVSPropertyOp7
 70
     1
102
RTVSPropertyOp8
 70
     1
102
RTVSPropertyOp9
 70
     1
102
RTVSPropertyOp10
 70
     1
102
RTVSPropertyOp11
 70
     1
102
RTVSPropertyOp12
 70
     1
102
RTVSPropertyOp13
 70
     1
102
RTVSPropertyOp14
 70
     1
102
RTVSPropertyOp15
 70
     1
102
RTVSPropertyOp16
 70
     1
102
RTVSPropertyOp17
 70
     1
102
RTVSPropertyOp18
 70
     1
102
RTVSPropertyOp19
 70
     1
102
RTVSPropertyOp20
 70
     1
102
RTVSPropertyOp21
 70
     1
102
RTVSPropertyOp22
 70
     1
102
RTVSPropertyOp23
 70
     1
102
RTVSPropertyOp24
 70
     1
102
RTVSPropertyOp25
 70
     1
102
RTVSPropertyOp26
 70
     1
102
RTVSPropertyOp27
 70
     1
  0
XRECORD
  5
39A
102
{ACAD_REACTORS
330
399
102
}
330
399
100
AcDbXrecord
280
     1
102
RTVSPropertyOp0
 70
     1
102
RTVSPropertyOp1
 70
     1
102
RTVSPropertyOp2
 70
     1
102
RTVSPropertyOp3
 70
     1
102
RTVSPropertyOp4
 70
     1
102
RTVSPropertyOp5
 70
     1
102
RTVSPropertyOp6
 70
     1
102
RTVSPropertyOp7
 70
     1
102
RTVSPropertyOp8
 70
     1
102
RTVSPropertyOp9
 70
     1
102
RTVSPropertyOp10
 70
     1
102
RTVSPropertyOp11
 70
     1
102
RTVSPropertyOp12
 70
     1
102
RTVSPropertyOp13
 70
     1
102
RTVSPropertyOp14
 70
     1
102
RTVSPropertyOp15
 70
     1
102
RTVSPropertyOp16
 70
     1
102
RTVSPropertyOp17
 70
     1
102
RTVSPropertyOp18
 70
     1
102
RTVSPropertyOp19
 70
     1
102
RTVSPropertyOp20
 70
     1
102
RTVSPropertyOp21
 70
     1
102
RTVSPropertyOp22
 70
     1
102
RTVSPropertyOp23
 70
     1
102
RTVSPropertyOp24
 70
     1
102
RTVSPropertyOp25
 70
     1
102
RTVSPropertyOp26
 70
     1
102
RTVSPropertyOp27
 70
     1
  0
XRECORD
  5
390
102
{ACAD_REACTORS
330
38F
102
}
330
38F
100
AcDbXrecord
280
     1
102
RTVSPropertyOp0
 70
     1
102
RTVSPropertyOp1
 70
     1
102
RTVSPropertyOp2
 70
     1
102
RTVSPropertyOp3
 70
     1
102
RTVSPropertyOp4
 70
     1
102
RTVSPropertyOp5
 70
     1
102
RTVSPropertyOp6
 70
     1
102
RTVSPropertyOp7
 70
     1
102
RTVSPropertyOp8
 70
     1
102
RTVSPropertyOp9
 70
     1
102
RTVSPropertyOp10
 70
     1
102
RTVSPropertyOp11
 70
     1
102
RTVSPropertyOp12
 70
     1
102
RTVSPropertyOp13
 70
     1
102
RTVSPropertyOp14
 70
     1
102
RTVSPropertyOp15
 70
     1
102
RTVSPropertyOp16
 70
     1
102
RTVSPropertyOp17
 70
     1
102
RTVSPropertyOp18
 70
     1
102
RTVSPropertyOp19
 70
     1
102
RTVSPropertyOp20
 70
     1
102
RTVSPropertyOp21
 70
     1
102
RTVSPropertyOp22
 70
     1
102
RTVSPropertyOp23
 70
     1
102
RTVSPropertyOp24
 70
     1
102
RTVSPropertyOp25
 70
     1
102
RTVSPropertyOp26
 70
     1
102
RTVSPropertyOp27
 70
     1
  0
XRECORD
  5
398
102
{ACAD_REACTORS
330
397
102
}
330
397
100
AcDbXrecord
280
     1
102
RTVSPropertyOp0
 70
     1
102
RTVSPropertyOp1
 70
     1
102
RTVSPropertyOp2
 70
     1
102
RTVSPropertyOp3
 70
     1
102
RTVSPropertyOp4
 70
     1
102
RTVSPropertyOp5
 70
     1
102
RTVSPropertyOp6
 70
     1
102
RTVSPropertyOp7
 70
     1
102
RTVSPropertyOp8
 70
     1
102
RTVSPropertyOp9
 70
     1
102
RTVSPropertyOp10
 70
     1
102
RTVSPropertyOp11
 70
     1
102
RTVSPropertyOp12
 70
     1
102
RTVSPropertyOp13
 70
     1
102
RTVSPropertyOp14
 70
     1
102
RTVSPropertyOp15
 70
     1
102
RTVSPropertyOp16
 70
     1
102
RTVSPropertyOp17
 70
     1
102
RTVSPropertyOp18
 70
     1
102
RTVSPropertyOp19
 70
     1
102
RTVSPropertyOp20
 70
     1
102
RTVSPropertyOp21
 70
     1
102
RTVSPropertyOp22
 70
     1
102
RTVSPropertyOp23
 70
     1
102
RTVSPropertyOp24
 70
     1
102
RTVSPropertyOp25
 70
     1
102
RTVSPropertyOp26
 70
     1
102
RTVSPropertyOp27
 70
     1
  0
ENDSEC
  0
EOF
