  0
SECTION
  2
HEADER
  9
$ACADVER
  1
AC1024
  9
$ACADMAINTVER
 70
     6
  9
$DWGCODEPAGE
  3
ANSI_1252
  9
$INSBASE
 10
0.0
 20
0.0
 30
0.0
  9
$EXTMIN
 10
1.000000E+20
 20
1.000000E+20
 30
1.000000E+20
  9
$EXTMAX
 10
-1.000000E+20
 20
-1.000000E+20
 30
-1.000000E+20
  9
$LIMMIN
 10
0.0
 20
0.0
  9
$LIMMAX
 10
420.0
 20
297.0
  9
$ORTHOMODE
 70
     0
  9
$REGENMODE
 70
     1
  9
$FILLMODE
 70
     1
  9
$QTEXTMODE
 70
     0
  9
$MIRRTEXT
 70
     1
  9
$LTSCALE
 40
1.0
  9
$ATTMODE
 70
     1
  9
$TEXTSIZE
 40
2.5
  9
$TRACEWID
 40
1.0
  9
$TEXTSTYLE
  7
Standard
  9
$CLAYER
  8
0
  9
$CELTYPE
  6
ByLayer
  9
$CECOLOR
 62
   256
  9
$CELTSCALE
 40
1.0
  9
$DISPSILH
 70
     0
  9
$DIMSCALE
 40
1.0
  9
$DIMASZ
 40
2.5
  9
$DIMEXO
 40
0.625
  9
$DIMDLI
 40
3.75
  9
$DIMRND
 40
0.0
  9
$DIMDLE
 40
0.0
  9
$DIMEXE
 40
1.25
  9
$DIMTP
 40
0.0
  9
$DIMTM
 40
0.0
  9
$DIMTXT
 40
2.5
  9
$DIMCEN
 40
2.5
  9
$DIMTSZ
 40
0.0
  9
$DIMTOL
 70
     0
  9
$DIMLIM
 70
     0
  9
$DIMTIH
 70
     0
  9
$DIMTOH
 70
     0
  9
$DIMSE1
 70
     0
  9
$DIMSE2
 70
     0
  9
$DIMTAD
 70
     1
  9
$DIMZIN
 70
     8
  9
$DIMBLK
  1

  9
$DIMASO
 70
     1
  9
$DIMSHO
 70
     1
  9
$DIMPOST
  1

  9
$DIMAPOST
  1

  9
$DIMALT
 70
     0
  9
$DIMALTD
 70
     3
  9
$DIMALTF
 40
0.03937
  9
$DIMLFAC
 40
1.0
  9
$DIMTOFL
 70
     1
  9
$DIMTVP
 40
0.0
  9
$DIMTIX
 70
     0
  9
$DIMSOXD
 70
     0
  9
$DIMSAH
 70
     0
  9
$DIMBLK1
  1

  9
$DIMBLK2
  1

  9
$DIMSTYLE
  2
ISO-25
  9
$DIMCLRD
 70
     0
  9
$DIMCLRE
 70
     0
  9
$DIMCLRT
 70
     0
  9
$DIMTFAC
 40
1.0
  9
$DIMGAP
 40
0.625
  9
$DIMJUST
 70
     0
  9
$DIMSD1
 70
     0
  9
$DIMSD2
 70
     0
  9
$DIMTOLJ
 70
     0
  9
$DIMTZIN
 70
     8
  9
$DIMALTZ
 70
     0
  9
$DIMALTTZ
 70
     0
  9
$DIMUPT
 70
     0
  9
$DIMDEC
 70
     2
  9
$DIMTDEC
 70
     2
  9
$DIMALTU
 70
     2
  9
$DIMALTTD
 70
     3
  9
$DIMTXSTY
  7
Standard
  9
$DIMAUNIT
 70
     0
  9
$DIMADEC
 70
     0
  9
$DIMALTRND
 40
0.0
  9
$DIMAZIN
 70
     0
  9
$DIMDSEP
 70
    44
  9
$DIMATFIT
 70
     3
  9
$DIMFRAC
 70
     0
  9
$DIMLDRBLK
  1

  9
$DIMLUNIT
 70
     2
  9
$DIMLWD
 70
    -2
  9
$DIMLWE
 70
    -2
  9
$DIMTMOVE
 70
     0
  9
$DIMFXL
 40
1.0
  9
$DIMFXLON
 70
     0
  9
$DIMJOGANG
 40
0.785398
  9
$DIMTFILL
 70
     0
  9
$DIMTFILLCLR
 70
     0
  9
$DIMARCSYM
 70
     0
  9
$DIMLTYPE
  6

  9
$DIMLTEX1
  6

  9
$DIMLTEX2
  6

  9
$DIMTXTDIRECTION
 70
     0
  9
$LUNITS
 70
     2
  9
$LUPREC
 70
     4
  9
$SKETCHINC
 40
1.0
  9
$FILLETRAD
 40
10.0
  9
$AUNITS
 70
     0
  9
$AUPREC
 70
     0
  9
$MENU
  1
.
  9
$ELEVATION
 40
0.0
  9
$PELEVATION
 40
0.0
  9
$THICKNESS
 40
0.0
  9
$LIMCHECK
 70
     0
  9
$CHAMFERA
 40
0.0
  9
$CHAMFERB
 40
0.0
  9
$CHAMFERC
 40
0.0
  9
$CHAMFERD
 40
0.0
  9
$SKPOLY
 70
     0
  9
$TDCREATE
 40
2457836.432952824
  9
$TDUCREATE
 40
2457836.391286158
  9
$TDUPDATE
 40
2457836.432956493
  9
$TDUUPDATE
 40
2457836.391289826
  9
$TDINDWG
 40
0.0000000116
  9
$TDUSRTIMER
 40
0.0000000116
  9
$USRTIMER
 70
     1
  9
$ANGBASE
 50
0.0
  9
$ANGDIR
 70
     0
  9
$PDMODE
 70
     0
  9
$PDSIZE
 40
0.0
  9
$PLINEWID
 40
0.0
  9
$SPLFRAME
 70
     0
  9
$SPLINETYPE
 70
     6
  9
$SPLINESEGS
 70
     8
  9
$HANDSEED
  5
26E
  9
$SURFTAB1
 70
     6
  9
$SURFTAB2
 70
     6
  9
$SURFTYPE
 70
     6
  9
$SURFU
 70
     6
  9
$SURFV
 70
     6
  9
$UCSBASE
  2

  9
$UCSNAME
  2

  9
$UCSORG
 10
0.0
 20
0.0
 30
0.0
  9
$UCSXDIR
 10
1.0
 20
0.0
 30
0.0
  9
$UCSYDIR
 10
0.0
 20
1.0
 30
0.0
  9
$UCSORTHOREF
  2

  9
$UCSORTHOVIEW
 70
     0
  9
$UCSORGTOP
 10
0.0
 20
0.0
 30
0.0
  9
$UCSORGBOTTOM
 10
0.0
 20
0.0
 30
0.0
  9
$UCSORGLEFT
 10
0.0
 20
0.0
 30
0.0
  9
$UCSORGRIGHT
 10
0.0
 20
0.0
 30
0.0
  9
$UCSORGFRONT
 10
0.0
 20
0.0
 30
0.0
  9
$UCSORGBACK
 10
0.0
 20
0.0
 30
0.0
  9
$PUCSBASE
  2

  9
$PUCSNAME
  2

  9
$PUCSORG
 10
0.0
 20
0.0
 30
0.0
  9
$PUCSXDIR
 10
1.0
 20
0.0
 30
0.0
  9
$PUCSYDIR
 10
0.0
 20
1.0
 30
0.0
  9
$PUCSORTHOREF
  2

  9
$PUCSORTHOVIEW
 70
     0
  9
$PUCSORGTOP
 10
0.0
 20
0.0
 30
0.0
  9
$PUCSORGBOTTOM
 10
0.0
 20
0.0
 30
0.0
  9
$PUCSORGLEFT
 10
0.0
 20
0.0
 30
0.0
  9
$PUCSORGRIGHT
 10
0.0
 20
0.0
 30
0.0
  9
$PUCSORGFRONT
 10
0.0
 20
0.0
 30
0.0
  9
$PUCSORGBACK
 10
0.0
 20
0.0
 30
0.0
  9
$USERI1
 70
     0
  9
$USERI2
 70
     0
  9
$USERI3
 70
     0
  9
$USERI4
 70
     0
  9
$USERI5
 70
     0
  9
$USERR1
 40
0.0
  9
$USERR2
 40
0.0
  9
$USERR3
 40
0.0
  9
$USERR4
 40
0.0
  9
$USERR5
 40
0.0
  9
$WORLDVIEW
 70
     1
  9
$SHADEDGE
 70
     3
  9
$SHADEDIF
 70
    70
  9
$TILEMODE
 70
     1
  9
$MAXACTVP
 70
    64
  9
$PINSBASE
 10
0.0
 20
0.0
 30
0.0
  9
$PLIMCHECK
 70
     0
  9
$PEXTMIN
 10
1.000000E+20
 20
1.000000E+20
 30
1.000000E+20
  9
$PEXTMAX
 10
-1.000000E+20
 20
-1.000000E+20
 30
-1.000000E+20
  9
$PLIMMIN
 10
0.0
 20
0.0
  9
$PLIMMAX
 10
420.0
 20
297.0
  9
$UNITMODE
 70
     0
  9
$VISRETAIN
 70
     1
  9
$PLINEGEN
 70
     0
  9
$PSLTSCALE
 70
     1
  9
$TREEDEPTH
 70
  3020
  9
$CMLSTYLE
  2
Standard
  9
$CMLJUST
 70
     0
  9
$CMLSCALE
 40
20.0
  9
$PROXYGRAPHICS
 70
     1
  9
$MEASUREMENT
 70
     1
  9
$CELWEIGHT
370
    -1
  9
$ENDCAPS
280
     0
  9
$JOINSTYLE
280
     0
  9
$LWDISPLAY
290
     0
  9
$INSUNITS
 70
     4
  9
$HYPERLINKBASE
  1

  9
$STYLESHEET
  1

  9
$XEDIT
290
     1
  9
$CEPSNTYPE
380
     0
  9
$PSTYLEMODE
290
     1
  9
$FINGERPRINTGUID
  2
{9837B76D-CC3F-4B85-AD4B-CC5CED5A1A12}
  9
$VERSIONGUID
  2
{FAEB1C32-E019-11D5-929B-00C0DF256EC4}
  9
$EXTNAMES
290
     1
  9
$PSVPSCALE
 40
0.0
  9
$OLESTARTUP
290
     0
  9
$SORTENTS
280
   127
  9
$INDEXCTL
280
     0
  9
$HIDETEXT
280
     1
  9
$XCLIPFRAME
280
     2
  9
$HALOGAP
280
     0
  9
$OBSCOLOR
 70
   257
  9
$OBSLTYPE
280
     0
  9
$INTERSECTIONDISPLAY
280
     0
  9
$INTERSECTIONCOLOR
 70
   257
  9
$DIMASSOC
280
     2
  9
$PROJECTNAME
  1

  9
$CAMERADISPLAY
290
     0
  9
$LENSLENGTH
 40
50.0
  9
$CAMERAHEIGHT
 40
0.0
  9
$STEPSPERSEC
 40
2.0
  9
$STEPSIZE
 40
6.0
  9
$3DDWFPREC
 40
2.0
  9
$PSOLWIDTH
 40
5.0
  9
$PSOLHEIGHT
 40
80.0
  9
$LOFTANG1
 40
1.570796
  9
$LOFTANG2
 40
1.570796
  9
$LOFTMAG1
 40
0.0
  9
$LOFTMAG2
 40
0.0
  9
$LOFTPARAM
 70
     7
  9
$LOFTNORMALS
280
     1
  9
$LATITUDE
 40
37.795
  9
$LONGITUDE
 40
-122.394
  9
$NORTHDIRECTION
 40
0.0
  9
$TIMEZONE
 70
 -8000
  9
$LIGHTGLYPHDISPLAY
280
     1
  9
$TILEMODELIGHTSYNCH
280
     1
  9
$CMATERIAL
347
44
  9
$SOLIDHIST
280
     0
  9
$SHOWHIST
280
     1
  9
$DWFFRAME
280
     2
  9
$DGNFRAME
280
     2
  9
$REALWORLDSCALE
290
     1
  9
$INTERFERECOLOR
 62
   256
  9
$CSHADOW
280
     0
  9
$SHADOWPLANELOCATION
 40
0.0
  0
ENDSEC
  0
SECTION
  2
CLASSES
  0
CLASS
  1
ACDBDICTIONARYWDFLT
  2
AcDbDictionaryWithDefault
  3
ObjectDBX Classes
 90
        0
 91
        4
280
     0
281
     0
  0
CLASS
  1
VISUALSTYLE
  2
AcDbVisualStyle
  3
ObjectDBX Classes
 90
     4095
 91
        4
280
     0
281
     0
  0
CLASS
  1
MATERIAL
  2
AcDbMaterial
  3
ObjectDBX Classes
 90
     1153
 91
        4
280
     0
281
     0
  0
CLASS
  1
SCALE
  2
AcDbScale
  3
ObjectDBX Classes
 90
     1153
 91
        4
280
     0
281
     0
  0
CLASS
  1
TABLESTYLE
  2
AcDbTableStyle
  3
ObjectDBX Classes
 90
     4095
 91
        4
280
     0
281
     0
  0
CLASS
  1
MLEADERSTYLE
  2
AcDbMLeaderStyle
  3
ACDB_MLEADERSTYLE_CLASS
 90
     4095
 91
        4
280
     0
281
     0
  0
CLASS
  1
SUN
  2
AcDbSun
  3
SCENEOE
 90
     1153
 91
        4
280
     0
281
     0
  0
CLASS
  1
DICTIONARYVAR
  2
AcDbDictionaryVar
  3
ObjectDBX Classes
 90
        0
 91
        4
280
     0
281
     0
  0
CLASS
  1
CELLSTYLEMAP
  2
AcDbCellStyleMap
  3
ObjectDBX Classes
 90
     1152
 91
        4
280
     0
281
     0
  0
ENDSEC
  0
SECTION
  2
TABLES
  0
TABLE
  2
VPORT
  5
8
330
0
100
AcDbSymbolTable
 70
     1
  0
VPORT
  5
29
330
8
100
AcDbSymbolTableRecord
100
AcDbViewportTableRecord
  2
*Active
 70
     0
 10
0.0
 20
0.0
 11
1.0
 21
1.0
 12
344.186916
 22
148.5
 13
0.0
 23
0.0
 14
10.0
 24
10.0
 15
10.0
 25
10.0
 16
0.0
 26
0.0
 36
1.0
 17
0.0
 27
0.0
 37
0.0
 40
297.0
 41
1.972973
 42
50.0
 43
0.0
 44
0.0
 50
0.0
 51
0.0
 71
     0
 72
   100
 73
     1
 74
     3
 75
     0
 76
     0
 77
     0
 78
     0
281
     0
 65
     1
110
0.0
120
0.0
130
0.0
111
1.0
121
0.0
131
0.0
112
0.0
122
1.0
132
0.0
 79
     0
146
0.0
348
2F
 60
     3
 61
     5
292
     1
282
     1
141
0.0
142
0.0
 63
   250
361
6D
  0
ENDTAB
  0
TABLE
  2
LTYPE
  5
5
330
0
100
AcDbSymbolTable
 70
     1
  0
LTYPE
  5
14
330
5
100
AcDbSymbolTableRecord
100
AcDbLinetypeTableRecord
  2
ByBlock
 70
     0
  3

 72
    65
 73
     0
 40
0.0
  0
LTYPE
  5
15
330
5
100
AcDbSymbolTableRecord
100
AcDbLinetypeTableRecord
  2
ByLayer
 70
     0
  3

 72
    65
 73
     0
 40
0.0
  0
LTYPE
  5
16
330
5
100
AcDbSymbolTableRecord
100
AcDbLinetypeTableRecord
  2
Continuous
 70
     0
  3
Solid line
 72
    65
 73
     0
 40
0.0
  0
ENDTAB
  0
TABLE
  2
LAYER
  5
2
330
0
100
AcDbSymbolTable
 70
     1
  0
LAYER
  5
10
330
2
100
AcDbSymbolTableRecord
100
AcDbLayerTableRecord
  2
0
 70
     0
 62
   106
  6
Continuous
370
     0
390
F
347
46
  0
ENDTAB
  0
TABLE
  2
STYLE
  5
3
330
0
100
AcDbSymbolTable
 70
     4
  0
STYLE
  5
11
330
3
100
AcDbSymbolTableRecord
100
AcDbTextStyleTableRecord
  2
Standard
 70
     0
 40
0.0
 41
1.0
 50
0.0
 71
     0
 42
2.5
  3
txt
  4

  0
STYLE
  5
6E
330
3
100
AcDbSymbolTableRecord
100
AcDbTextStyleTableRecord
  2
Default
 70
     0
 40
0.0
 41
1.0
 50
0.0
 71
     0
 42
2.5
  3

  4

1001
ACAD
1000
txt
1071
        0
  0
STYLE
  5
6F
330
3
100
AcDbSymbolTableRecord
100
AcDbTextStyleTableRecord
  2
ISO
 70
     0
 40
0.0
 41
1.0
 50
0.0
 71
     0
 42
2.5
  3

  4

1001
ACAD
1000
txt
1071
        0
  0
STYLE
  5
70
330
3
100
AcDbSymbolTableRecord
100
AcDbTextStyleTableRecord
  2
zucchetti
 70
     0
 40
0.0
 41
1.0
 50
0.0
 71
     0
 42
2.5
  3

  4

1001
ACAD
1000
Arial
1071
        0
  0
ENDTAB
  0
TABLE
  2
VIEW
  5
6
330
0
100
AcDbSymbolTable
 70
     0
  0
ENDTAB
  0
TABLE
  2
UCS
  5
7
330
0
100
AcDbSymbolTable
 70
     0
  0
ENDTAB
  0
TABLE
  2
APPID
  5
9
330
0
100
AcDbSymbolTable
 70
     1
  0
APPID
  5
12
330
9
100
AcDbSymbolTableRecord
100
AcDbRegAppTableRecord
  2
ACAD
 70
     0
  0
ENDTAB
  0
TABLE
  2
DIMSTYLE
  5
A
330
0
100
AcDbSymbolTable
 70
     4
100
AcDbDimStyleTable
  0
DIMSTYLE
105
27
330
A
100
AcDbSymbolTableRecord
100
AcDbDimStyleTableRecord
  2
ISO-25
 70
     0
 41
2.5
 42
0.625
 43
3.75
 44
1.25
 73
     0
 74
     0
 77
     1
 78
     8
140
2.5
141
2.5
143
0.03937
147
0.625
171
     3
172
     1
178
     0
271
     2
272
     2
274
     3
278
    44
283
     0
284
     8
340
11
  0
DIMSTYLE
105
71
330
A
100
AcDbSymbolTableRecord
100
AcDbDimStyleTableRecord
  2
Default
 70
     0
  3
<>
 41
4.375
 42
1.05
 44
2.1
 49
10.01
 73
     0
 74
     0
 77
     1
 78
     8
140
3.5
146
0.4
147
1.75
172
     1
271
     2
178
     3
271
     2
272
     3
284
     8
340
6E
341
72
342
72
  0
DIMSTYLE
105
79
330
A
100
AcDbSymbolTableRecord
100
AcDbDimStyleTableRecord
  2
ISO
 70
     0
  3
<>
 41
4.375
 42
1.05
 44
2.1
 49
10.01
 73
     0
 74
     0
 77
     1
 78
     8
140
3.5
146
0.4
147
1.75
172
     1
271
     2
178
     3
271
     2
272
     3
284
     8
340
6F
341
72
342
72
  0
DIMSTYLE
105
7A
330
A
100
AcDbSymbolTableRecord
100
AcDbDimStyleTableRecord
  2
zucchetti
 70
     0
  3
<>
 41
3.0
 42
0.9
 44
1.8
 49
8.58
 73
     0
 74
     0
 77
     1
 78
     8
140
3.0
146
0.6
147
1.5
172
     1
176
     3
177
     3
271
     2
178
     3
271
     2
272
     2
284
     8
340
70
  0
ENDTAB
  0
TABLE
  2
BLOCK_RECORD
  5
1
330
0
100
AcDbSymbolTable
 70
     7
  0
BLOCK_RECORD
  5
1F
330
1
100
AcDbSymbolTableRecord
100
AcDbBlockTableRecord
  2
*Model_Space
340
22
 70
     0
280
     1
281
     0
  0
BLOCK_RECORD
  5
1B
330
1
100
AcDbSymbolTableRecord
100
AcDbBlockTableRecord
  2
*Paper_Space
340
1E
 70
     0
280
     1
281
     0
  0
BLOCK_RECORD
  5
23
330
1
100
AcDbSymbolTableRecord
100
AcDbBlockTableRecord
  2
*Paper_Space0
340
26
 70
     0
280
     1
281
     0
  0
BLOCK_RECORD
  5
72
330
1
100
AcDbSymbolTableRecord
100
AcDbBlockTableRecord
  2
_CLOSED
340
0
 70
     0
280
     1
281
     0
  0
BLOCK_RECORD
  5
7B
330
1
100
AcDbSymbolTableRecord
100
AcDbBlockTableRecord
  2
a
340
0
102
{BLKREFS
331
AA
102
}
 70
     0
280
     1
281
     0
  0
BLOCK_RECORD
  5
AB
330
1
100
AcDbSymbolTableRecord
100
AcDbBlockTableRecord
  2
b
340
0
102
{BLKREFS
331
112
102
}
 70
     0
280
     1
281
     0
  0
BLOCK_RECORD
  5
113
330
1
100
AcDbSymbolTableRecord
100
AcDbBlockTableRecord
  2
c
340
0
102
{BLKREFS
331
174
102
}
 70
     0
280
     1
281
     0
  0
BLOCK_RECORD
  5
175
330
1
100
AcDbSymbolTableRecord
100
AcDbBlockTableRecord
  2
d
340
0
102
{BLKREFS
331
1D0
102
}
 70
     0
280
     1
281
     0
  0
BLOCK_RECORD
  5
1D1
330
1
100
AcDbSymbolTableRecord
100
AcDbBlockTableRecord
  2
e
340
0
102
{BLKREFS
331
234
102
}
 70
     0
280
     1
281
     0
  0
ENDTAB
  0
ENDSEC
  0
SECTION
  2
BLOCKS
  0
BLOCK
  5
20
330
1F
100
AcDbEntity
  8
0
100
AcDbBlockBegin
  2
*Model_Space
 70
     0
 10
0.0
 20
0.0
 30
0.0
  3
*Model_Space
  1

  0
ENDBLK
  5
21
330
1F
100
AcDbEntity
  8
0
100
AcDbBlockEnd
  0
BLOCK
  5
1C
330
1B
100
AcDbEntity
 67
     1
  8
0
100
AcDbBlockBegin
  2
*Paper_Space
 70
     0
 10
0.0
 20
0.0
 30
0.0
  3
*Paper_Space
  1

  0
ENDBLK
  5
1D
330
1B
100
AcDbEntity
 67
     1
  8
0
100
AcDbBlockEnd
  0
BLOCK
  5
24
330
23
100
AcDbEntity
  8
0
100
AcDbBlockBegin
  2
*Paper_Space0
 70
     0
 10
0.0
 20
0.0
 30
0.0
  3
*Paper_Space0
  1

  0
ENDBLK
  5
25
330
23
100
AcDbEntity
  8
0
100
AcDbBlockEnd
  0
BLOCK
  5
73
330
72
100
AcDbEntity
  8
0
100
AcDbBlockBegin
  2
_CLOSED
 70
     0
 10
0.0
 20
0.0
 30
0.0
  3
_CLOSED
  1

  0
LINE
  5
75
330
72
100
AcDbEntity
  8
0
  6
ByBlock
 62
     0
370
    -2
100
AcDbLine
 10
-1.0
 20
0.166667
 30
0.0
 11
0.0
 21
0.0
 31
0.0
  0
LINE
  5
76
330
72
100
AcDbEntity
  8
0
  6
ByBlock
 62
     0
370
    -2
100
AcDbLine
 10
0.0
 20
0.0
 30
0.0
 11
-1.0
 21
-0.166667
 31
0.0
  0
LINE
  5
77
330
72
100
AcDbEntity
  8
0
  6
ByBlock
 62
     0
370
    -2
100
AcDbLine
 10
-1.0
 20
0.166667
 30
0.0
 11
-1.0
 21
-0.166667
 31
0.0
  0
LINE
  5
78
330
72
100
AcDbEntity
  8
0
  6
ByBlock
 62
     0
370
    -2
100
AcDbLine
 10
0.0
 20
0.0
 30
0.0
 11
-1.0
 21
0.0
 31
0.0
  0
ENDBLK
  5
74
330
72
100
AcDbEntity
  8
0
100
AcDbBlockEnd
  0
BLOCK
  5
A8
330
7B
100
AcDbEntity
  8
0
100
AcDbBlockBegin
  2
a
 70
     0
 10
203.544144
 20
85.18631
 30
0.0
  3
a
  1

  0
ARC
  5
7C
330
7B
100
AcDbEntity
  8
0
  6
Continuous
 62
     0
370
    30
100
AcDbCircle
 10
326.964334
 20
453.600505
 30
0.0
 40
22.10000000000001
100
AcDbArc
 50
69.870008
 51
110.129946
  0
ARC
  5
7D
330
7B
100
AcDbEntity
  8
0
  6
Continuous
 62
     0
370
    30
100
AcDbCircle
 10
326.964334
 20
453.600505
 30
0.0
 40
22.10000000000001
100
AcDbArc
 50
174.547322
 51
185.452632
  0
ARC
  5
7E
330
7B
100
AcDbEntity
  8
0
  6
Continuous
 62
     0
370
     0
100
AcDbCircle
 10
311.920408
 20
381.212668
 30
0.0
 40
6.95624573456961
100
AcDbArc
 50
180.368126
 51
270.361548
  0
LINE
  5
7F
330
7B
100
AcDbEntity
  8
0
  6
Continuous
 62
     0
370
     0
100
AcDbLine
 10
341.964303
 20
374.256549
 30
0.0
 11
311.964303
 21
374.256561
 31
0.0
  0
ARC
  5
80
330
7B
100
AcDbEntity
  8
0
  6
Continuous
 62
     0
370
     0
100
AcDbCircle
 10
342.008204
 20
381.212656
 30
0.0
 40
6.95624573456975
100
AcDbArc
 50
269.638406
 51
359.631828
  0
LINE
  5
81
330
7B
100
AcDbEntity
  8
0
  6
Continuous
 62
     0
370
     0
100
AcDbLine
 10
347.964306
 20
381.689404
 30
0.0
 11
347.964341
 21
467.506939
 31
0.0
  0
ARC
  5
82
330
7B
100
AcDbEntity
  8
0
  6
Continuous
 62
     0
370
     0
100
AcDbCircle
 10
341.964244
 20
467.506844
 30
0.0
 40
6.000096943359464
100
AcDbArc
 50
0.000905
 51
89.999051
  0
LINE
  5
83
330
7B
100
AcDbEntity
  8
0
  6
Continuous
 62
     0
370
     0
100
AcDbLine
 10
341.964343
 20
473.506941
 30
0.0
 11
311.964343
 21
473.506953
 31
0.0
  0
ARC
  5
84
330
7B
100
AcDbEntity
  8
0
  6
Continuous
 62
     0
370
     0
100
AcDbCircle
 10
311.964438
 20
467.506856
 30
0.0
 40
6.000096943359472
100
AcDbArc
 50
90.000903
 51
179.999049
  0
LINE
  5
85
330
7B
100
AcDbEntity
  8
0
  6
Continuous
 62
     0
370
     0
100
AcDbLine
 10
305.964341
 20
467.506956
 30
0.0
 11
305.964306
 21
381.68942
 31
0.0
  0
ARC
  5
86
330
7B
100
AcDbEntity
  8
0
  6
Continuous
 62
     0
370
     0
100
AcDbCircle
 10
311.928714
 20
381.725635
 30
0.0
 40
5.964517836325902
100
AcDbArc
 50
180.347887
 51
270.341881
  0
LINE
  5
87
330
7B
100
AcDbEntity
  8
0
  6
Continuous
 62
     0
370
     0
100
AcDbLine
 10
311.964304
 20
375.761224
 30
0.0
 11
341.964304
 21
375.761212
 31
0.0
  0
ARC
  5
88
330
7B
100
AcDbEntity
  8
0
  6
Continuous
 62
     0
370
     0
100
AcDbCircle
 10
341.999898
 20
381.725623
 30
0.0
 40
5.964517836326003
100
AcDbArc
 50
269.658073
 51
359.652067
  0
ARC
  5
89
330
7B
100
AcDbEntity
  8
0
  6
Continuous
 62
     0
370
    30
100
AcDbCircle
 10
341.968657
 20
467.354824
 30
0.0
 40
6.995684488323696
100
AcDbArc
 50
359.964623
 51
90.035333
  0
LINE
  5
8A
330
7B
100
AcDbEntity
  8
0
  6
Continuous
 62
     0
370
    30
100
AcDbLine
 10
311.964343
 20
474.350519
 30
0.0
 11
341.964343
 21
474.350507
 31
0.0
  0
ARC
  5
8B
330
7B
100
AcDbEntity
  8
0
  6
Continuous
 62
     0
370
    30
100
AcDbCircle
 10
311.960024
 20
467.354836
 30
0.0
 40
6.995684488323706
100
AcDbArc
 50
89.964621
 51
180.035331
  0
LINE
  5
8C
330
7B
100
AcDbEntity
  8
0
  6
Continuous
 62
     0
370
    30
100
AcDbLine
 10
304.964306
 20
381.532986
 30
0.0
 11
304.964341
 21
467.350522
 31
0.0
  0
LINE
  5
8D
330
7B
100
AcDbEntity
  8
0
  6
Continuous
 62
     0
370
     0
100
AcDbLine
 10
311.964303
 20
374.256561
 30
0.0
 11
311.964303
 21
374.621573
 31
0.0
  0
ARC
  5
8E
330
7B
100
AcDbEntity
  8
0
  6
Continuous
 62
     0
370
     0
100
AcDbCircle
 10
311.918137
 20
381.575379
 30
0.0
 40
6.953959718979558
100
AcDbArc
 50
180.34929
 51
270.380384
  0
LINE
  5
8F
330
7B
100
AcDbEntity
  8
0
  6
Continuous
 62
     0
370
     0
100
AcDbLine
 10
341.964303
 20
374.256549
 30
0.0
 11
341.964303
 21
374.621561
 31
0.0
  0
LINE
  5
90
330
7B
100
AcDbEntity
  8
0
  6
Continuous
 62
     0
370
     0
100
AcDbLine
 10
341.964303
 20
374.621561
 30
0.0
 11
311.964303
 21
374.621573
 31
0.0
  0
ARC
  5
91
330
7B
100
AcDbEntity
  8
0
  6
Continuous
 62
     0
370
     0
100
AcDbCircle
 10
342.010476
 20
381.575367
 30
0.0
 40
6.953959718979599
100
AcDbArc
 50
269.61957
 51
359.650664
  0
LINE
  5
92
330
7B
100
AcDbEntity
  8
0
  6
Continuous
 62
     0
370
    30
100
AcDbLine
 10
348.964306
 20
381.532969
 30
0.0
 11
348.964341
 21
467.350504
 31
0.0
  0
ELLIPSE
  5
93
330
7B
100
AcDbEntity
  8
0
  6
Continuous
 62
     0
370
     0
100
AcDbEllipse
 10
347.964306
 20
381.532969
 30
0.0
 11
-0.9999999999999245
 21
4.010416886877382E-7
 31
0.0
210
0.0
220
0.0
230
-1.0
 40
0.156434
 41
1.570796326794907
 42
3.141592653589839
  0
ELLIPSE
  5
94
330
7B
100
AcDbEntity
  8
0
  6
Continuous
 62
     0
370
     0
100
AcDbEllipse
 10
347.964341
 20
467.350505
 30
0.0
 11
0.9999999999999245
 21
-4.010416886877382E-7
 31
0.0
210
0.0
220
0.0
230
1.0
 40
0.156434
 41
0.0000000000002265
 42
1.570796326794925
  0
LINE
  5
95
330
7B
100
AcDbEntity
  8
0
  6
Continuous
 62
     0
370
     0
100
AcDbLine
 10
341.964304
 20
375.761212
 30
0.0
 11
341.964303
 21
374.621561
 31
0.0
  0
LINE
  5
96
330
7B
100
AcDbEntity
  8
0
  6
Continuous
 62
     0
370
     0
100
AcDbLine
 10
311.964304
 20
375.761224
 30
0.0
 11
311.964303
 21
374.621573
 31
0.0
  0
LINE
  5
97
330
7B
100
AcDbEntity
  8
0
  6
Continuous
 62
     0
370
     0
100
AcDbLine
 10
304.964306
 20
381.532986
 30
0.0
 11
305.964306
 21
381.68942
 31
0.0
  0
ELLIPSE
  5
98
330
7B
100
AcDbEntity
  8
0
  6
Continuous
 62
     0
370
     0
100
AcDbEllipse
 10
305.964341
 20
467.350522
 30
0.0
 11
0.9999999999999148
 21
-4.010416887017843E-7
 31
0.0
210
0.0
220
0.0
230
1.0
 40
0.156434
 41
1.570796326794939
 42
3.14159265359061
  0
LWPOLYLINE
  5
99
330
7B
100
AcDbEntity
  8
0
  6
Continuous
 62
     0
370
     0
100
AcDbPolyline
 90
        7
 70
     0
 43
0.0
 10
311.964355
 20
474.350525
 10
311.964355
 20
474.325012
 10
311.964355
 20
474.249847
 10
311.964355
 20
474.128876
 10
311.964355
 20
473.968292
 10
311.964355
 20
473.77597
 10
311.964355
 20
473.506958
  0
LINE
  5
9A
330
7B
100
AcDbEntity
  8
0
  6
Continuous
 62
     0
370
     0
100
AcDbLine
 10
341.964343
 20
473.506941
 30
0.0
 11
341.964343
 21
474.350507
 31
0.0
  0
ARC
  5
9B
330
7B
100
AcDbEntity
  8
0
  6
Continuous
 62
     0
370
    30
100
AcDbCircle
 10
326.964513
 20
475.100485
 30
0.0
 40
89.99982085234518
100
AcDbArc
 50
0.000013
 51
255.850833
  0
ARC
  5
9C
330
7B
100
AcDbEntity
  8
0
  6
Continuous
 62
     0
370
    30
100
AcDbCircle
 10
326.964739
 20
475.100458
 30
0.0
 40
89.99959485499602
100
AcDbArc
 50
284.148787
 51
0.000031
  0
ARC
  5
9D
330
7B
100
AcDbEntity
  8
0
  6
Continuous
 62
     0
370
     0
100
AcDbCircle
 10
326.964771
 20
475.100449
 30
0.0
 40
88.99956256895784
100
AcDbArc
 50
284.311118
 51
0.000037
  0
ARC
  5
9E
330
7B
100
AcDbEntity
  8
0
  6
Continuous
 62
     0
370
     0
100
AcDbCircle
 10
326.964514
 20
475.100497
 30
0.0
 40
88.99982028697957
100
AcDbArc
 50
0.000006
 51
255.688482
  0
CIRCLE
  5
9F
330
7B
100
AcDbEntity
  8
0
  6
Continuous
 62
     0
370
     0
100
AcDbCircle
 10
326.964334
 20
501.600506
 30
0.0
 40
11.8
  0
ARC
  5
A0
330
7B
100
AcDbEntity
  8
0
  6
Continuous
 62
     0
370
     0
100
AcDbCircle
 10
326.964334
 20
453.600506
 30
0.0
 40
22.90000000000005
100
AcDbArc
 50
0.0
 51
16.116582
  0
ARC
  5
A1
330
7B
100
AcDbEntity
  8
0
  6
Continuous
 62
     0
370
     0
100
AcDbCircle
 10
326.964334
 20
453.600506
 30
0.0
 40
22.89999999999989
100
AcDbArc
 50
64.973697
 51
115.026257
  0
ARC
  5
A2
330
7B
100
AcDbEntity
  8
0
  6
Continuous
 62
     0
370
     0
100
AcDbCircle
 10
326.964334
 20
453.600506
 30
0.0
 40
22.90000000000005
100
AcDbArc
 50
163.88335
 51
196.116604
  0
ARC
  5
A3
330
7B
100
AcDbEntity
  8
0
  6
Continuous
 62
     0
370
     0
100
AcDbCircle
 10
326.964334
 20
453.600506
 30
0.0
 40
22.90000000000025
100
AcDbArc
 50
343.883372
 51
360.0
  0
ARC
  5
A4
330
7B
100
AcDbEntity
  8
0
  6
Continuous
 62
     0
370
     0
100
AcDbCircle
 10
326.964334
 20
501.600506
 30
0.0
 40
10.65000055632791
100
AcDbArc
 50
15.661045
 51
195.661045
  0
ARC
  5
A5
330
7B
100
AcDbEntity
  8
0
  6
Continuous
 62
     0
370
     0
100
AcDbCircle
 10
326.964334
 20
501.600506
 30
0.0
 40
10.65000055632791
100
AcDbArc
 50
195.661045
 51
15.661045
  0
ARC
  5
A6
330
7B
100
AcDbEntity
  8
0
  6
Continuous
 62
     0
370
    30
100
AcDbCircle
 10
326.964334
 20
501.600506
 30
0.0
 40
10.95000055513543
100
AcDbArc
 50
15.661045
 51
195.661045
  0
ARC
  5
A7
330
7B
100
AcDbEntity
  8
0
  6
Continuous
 62
     0
370
    30
100
AcDbCircle
 10
326.964334
 20
501.600506
 30
0.0
 40
10.95000055513543
100
AcDbArc
 50
195.661045
 51
15.661045
  0
ENDBLK
  5
A9
330
7B
100
AcDbEntity
  8
0
100
AcDbBlockEnd
  0
BLOCK
  5
110
330
AB
100
AcDbEntity
  8
0
100
AcDbBlockBegin
  2
b
 70
     0
 10
203.544144
 20
85.18631
 30
0.0
  3
b
  1

  0
LINE
  5
AC
330
AB
100
AcDbEntity
  8
0
  6
Continuous
 62
     0
370
    30
100
AcDbLine
 10
335.864326
 20
121.007602
 30
0.0
 11
344.39361
 21
121.007602
 31
0.0
  0
LINE
  5
AD
330
AB
100
AcDbEntity
  8
0
  6
Continuous
 62
     0
370
    30
100
AcDbLine
 10
304.864326
 20
121.007602
 30
0.0
 11
318.064326
 21
121.007602
 31
0.0
  0
LINE
  5
AE
330
AB
100
AcDbEntity
  8
0
  6
Continuous
 62
     0
370
    30
100
AcDbLine
 10
344.39361
 20
121.007602
 30
0.0
 11
349.064326
 21
121.007602
 31
0.0
  0
LINE
  5
AF
330
AB
100
AcDbEntity
  8
0
  6
Continuous
 62
     0
370
    30
100
AcDbLine
 10
343.210627
 20
162.407602
 30
0.0
 11
347.564326
 21
162.407602
 31
0.0
  0
LINE
  5
B0
330
AB
100
AcDbEntity
  8
0
  6
Continuous
 62
     0
370
    30
100
AcDbLine
 10
306.364326
 20
162.407602
 30
0.0
 11
343.210627
 21
162.407602
 31
0.0
  0
LINE
  5
B1
330
AB
100
AcDbEntity
  8
0
  6
Continuous
 62
     0
370
    30
100
AcDbLine
 10
304.864326
 20
160.907602
 30
0.0
 11
344.39361
 21
160.907602
 31
0.0
  0
LINE
  5
B2
330
AB
100
AcDbEntity
  8
0
  6
Continuous
 62
     0
370
    30
100
AcDbLine
 10
344.39361
 20
160.907602
 30
0.0
 11
349.064326
 21
160.907602
 31
0.0
  0
LINE
  5
B3
330
AB
100
AcDbEntity
  8
0
  6
Continuous
 62
     0
370
    30
100
AcDbLine
 10
304.864402
 20
160.907602
 30
0.0
 11
306.364397
 21
162.407602
 31
0.0
  0
LINE
  5
B4
330
AB
100
AcDbEntity
  8
0
  6
Continuous
 62
     0
370
    30
100
AcDbLine
 10
349.064265
 20
160.907602
 30
0.0
 11
347.564269
 21
162.407602
 31
0.0
  0
LINE
  5
B5
330
AB
100
AcDbEntity
  8
0
  6
Continuous
 62
     0
370
    30
100
AcDbLine
 10
349.064326
 20
141.307605
 30
0.0
 11
349.064326
 21
160.907602
 31
0.0
  0
LINE
  5
B6
330
AB
100
AcDbEntity
  8
0
  6
Continuous
 62
     0
370
    30
100
AcDbLine
 10
349.064326
 20
121.007602
 30
0.0
 11
349.064326
 21
129.307605
 31
0.0
  0
LINE
  5
B7
330
AB
100
AcDbEntity
  8
0
  6
Continuous
 62
     0
370
    30
100
AcDbLine
 10
304.864326
 20
141.307605
 30
0.0
 11
304.864326
 21
160.907602
 31
0.0
  0
LINE
  5
B8
330
AB
100
AcDbEntity
  8
0
  6
Continuous
 62
     0
370
    30
100
AcDbLine
 10
304.864326
 20
121.007602
 30
0.0
 11
304.864326
 21
129.307605
 31
0.0
  0
LINE
  5
B9
330
AB
100
AcDbEntity
  8
0
  6
Continuous
 62
     0
370
     0
100
AcDbLine
 10
347.964299
 20
82.850589
 30
0.0
 11
347.964333
 21
96.442748
 31
0.0
  0
LWPOLYLINE
  5
BA
330
AB
100
AcDbEntity
  8
0
  6
Continuous
 62
     0
370
     0
100
AcDbPolyline
 90
       15
 70
     0
 43
0.0
 10
347.964325
 20
96.442749
 10
347.926727
 20
96.548904
 10
347.814575
 20
96.653732
 10
347.62912
 20
96.75592
 10
347.372833
 20
96.854187
 10
347.048737
 20
96.947304
 10
346.661102
 20
97.034103
 10
346.214569
 20
97.113503
 10
345.714905
 20
97.184509
 10
345.168274
 20
97.246216
 10
344.581543
 20
97.297882
 10
343.962006
 20
97.338829
 10
343.317505
 20
97.368568
 10
342.656067
 20
97.386711
 10
341.964325
 20
97.393051
  0
LINE
  5
BB
330
AB
100
AcDbEntity
  8
0
  6
Continuous
 62
     0
370
     0
100
AcDbLine
 10
341.964335
 20
97.393054
 30
0.0
 11
311.964335
 21
97.393054
 31
0.0
  0
LWPOLYLINE
  5
BC
330
AB
100
AcDbEntity
  8
0
  6
Continuous
 62
     0
370
     0
100
AcDbPolyline
 90
       15
 70
     0
 43
0.0
 10
311.964325
 20
97.393051
 10
311.294098
 20
97.3871
 10
310.632233
 20
97.369339
 10
309.987061
 20
97.339958
 10
309.366608
 20
97.29937
 10
308.778687
 20
97.248039
 10
308.230652
 20
97.186638
 10
307.72937
 20
97.115921
 10
307.281067
 20
97.036781
 10
306.891418
 20
96.950195
 10
306.565247
 20
96.857269
 10
306.306702
 20
96.759148
 10
306.118927
 20
96.657066
 10
306.004395
 20
96.552307
 10
305.964325
 20
96.442749
  0
LINE
  5
BD
330
AB
100
AcDbEntity
  8
0
  6
Continuous
 62
     0
370
     0
100
AcDbLine
 10
305.964333
 20
96.442748
 30
0.0
 11
305.964299
 21
82.850589
 31
0.0
  0
LWPOLYLINE
  5
BE
330
AB
100
AcDbEntity
  8
0
  6
Continuous
 62
     0
370
     0
100
AcDbPolyline
 90
       15
 70
     0
 43
0.0
 10
305.964294
 20
82.850586
 10
306.001892
 20
82.745705
 10
306.114044
 20
82.642128
 10
306.2995
 20
82.541168
 10
306.555817
 20
82.444069
 10
306.879883
 20
82.352074
 10
307.267548
 20
82.266304
 10
307.71405
 20
82.187866
 10
308.213715
 20
82.117706
 10
308.760376
 20
82.056732
 10
309.347107
 20
82.005692
 10
309.966614
 20
81.965233
 10
310.611115
 20
81.935844
 10
311.272583
 20
81.917923
 10
311.964294
 20
81.911659
  0
LINE
  5
BF
330
AB
100
AcDbEntity
  8
0
  6
Continuous
 62
     0
370
     0
100
AcDbLine
 10
311.964296
 20
81.911655
 30
0.0
 11
341.964296
 21
81.911655
 31
0.0
  0
LWPOLYLINE
  5
C0
330
AB
100
AcDbEntity
  8
0
  6
Continuous
 62
     0
370
     0
100
AcDbPolyline
 90
       15
 70
     0
 43
0.0
 10
341.964294
 20
81.911659
 10
342.634552
 20
81.917542
 10
343.296417
 20
81.935089
 10
343.941589
 20
81.964111
 10
344.562042
 20
82.004219
 10
345.149933
 20
82.054932
 10
345.697998
 20
82.115601
 10
346.199249
 20
82.185471
 10
346.647583
 20
82.263664
 10
347.037201
 20
82.349213
 10
347.363403
 20
82.441025
 10
347.621918
 20
82.537971
 10
347.809723
 20
82.638832
 10
347.924255
 20
82.74234
 10
347.964294
 20
82.850586
  0
LINE
  5
C1
330
AB
100
AcDbEntity
  8
0
  6
Continuous
 62
     0
370
     0
100
AcDbLine
 10
341.964336
 20
109.458237
 30
0.0
 11
341.964336
 21
98.380742
 31
0.0
  0
LWPOLYLINE
  5
C2
330
AB
100
AcDbEntity
  8
0
  6
Continuous
 62
     0
370
     0
100
AcDbPolyline
 90
       16
 70
     0
 43
0.0
 10
341.964325
 20
98.380745
 10
342.692474
 20
98.375336
 10
343.417633
 20
98.359344
 10
344.130249
 20
98.333168
 10
344.820709
 20
98.297218
 10
345.479431
 20
98.251884
 10
346.096863
 20
98.197586
 10
346.665344
 20
98.134865
 10
347.180359
 20
98.064529
 10
347.637573
 20
97.987396
 10
348.032745
 20
97.904274
 10
348.361633
 20
97.816002
 10
348.621094
 20
97.723549
 10
348.809204
 20
97.628105
 10
348.924225
 20
97.530869
 10
348.964325
 20
97.430435
  0
LINE
  5
C3
330
AB
100
AcDbEntity
  8
0
  6
Continuous
 62
     0
370
    30
100
AcDbLine
 10
348.964333
 20
97.430436
 30
0.0
 11
348.964333
 21
112.219638
 31
0.0
  0
LINE
  5
C4
330
AB
100
AcDbEntity
  8
0
  6
Continuous
 62
     0
370
     0
100
AcDbLine
 10
311.964336
 20
109.458237
 30
0.0
 11
311.964336
 21
98.380742
 31
0.0
  0
LINE
  5
C5
330
AB
100
AcDbEntity
  8
0
  6
Continuous
 62
     0
370
     0
100
AcDbLine
 10
311.964336
 20
98.380742
 30
0.0
 11
341.964336
 21
98.380742
 31
0.0
  0
LINE
  5
C6
330
AB
100
AcDbEntity
  8
0
  6
Continuous
 62
     0
370
    30
100
AcDbLine
 10
304.964333
 20
112.219638
 30
0.0
 11
304.964333
 21
97.430436
 31
0.0
  0
LWPOLYLINE
  5
C7
330
AB
100
AcDbEntity
  8
0
  6
Continuous
 62
     0
370
     0
100
AcDbPolyline
 90
       16
 70
     0
 43
0.0
 10
304.964325
 20
97.430435
 10
305.002411
 20
97.528267
 10
305.115448
 20
97.625534
 10
305.301636
 20
97.721039
 10
305.559204
 20
97.813591
 10
305.886292
 20
97.901993
 10
306.279755
 20
97.98526
 10
306.735382
 20
98.062569
 10
307.248901
 20
98.133095
 10
307.81601
 20
98.196022
 10
308.43222
 20
98.250557
 10
309.089996
 20
98.296127
 10
309.779724
 20
98.332336
 10
310.491882
 20
98.35878
 10
311.216827
 20
98.375046
 10
311.964325
 20
98.380745
  0
LINE
  5
C8
330
AB
100
AcDbEntity
  8
0
  6
Continuous
 62
     0
370
    30
100
AcDbLine
 10
304.964299
 20
83.838277
 30
0.0
 11
304.964333
 21
97.430436
 31
0.0
  0
LINE
  5
C9
330
AB
100
AcDbEntity
  8
0
  6
Continuous
 62
     0
370
    30
100
AcDbLine
 10
348.964299
 20
83.838277
 30
0.0
 11
348.964333
 21
97.430436
 31
0.0
  0
ARC
  5
CA
330
AB
100
AcDbEntity
  8
0
  6
Continuous
 62
     0
370
     0
100
AcDbCircle
 10
347.970417
 20
83.844471
 30
0.0
 40
0.9939012936200029
100
AcDbArc
 50
269.647314
 51
359.642923
  0
ARC
  5
CB
330
AB
100
AcDbEntity
  8
0
  6
Continuous
 62
     0
370
     0
100
AcDbCircle
 10
347.970451
 20
97.43663
 30
0.0
 40
0.9939012936234153
100
AcDbArc
 50
269.647314
 51
359.642923
  0
ARC
  5
CC
330
AB
100
AcDbEntity
  8
0
  6
Continuous
 62
     0
370
     0
100
AcDbCircle
 10
305.958181
 20
83.844472
 30
0.0
 40
0.9939014509031461
100
AcDbArc
 50
180.357086
 51
270.352684
  0
ARC
  5
CD
330
AB
100
AcDbEntity
  8
0
  6
Continuous
 62
     0
370
     0
100
AcDbCircle
 10
305.958215
 20
97.43663
 30
0.0
 40
0.9939014460331111
100
AcDbArc
 50
180.357085
 51
270.352684
  0
LINE
  5
CE
330
AB
100
AcDbEntity
  8
0
  6
Continuous
 62
     0
370
     0
100
AcDbLine
 10
311.964336
 20
98.380742
 30
0.0
 11
311.964335
 21
97.393054
 31
0.0
  0
LINE
  5
CF
330
AB
100
AcDbEntity
  8
0
  6
Continuous
 62
     0
370
     0
100
AcDbLine
 10
341.964335
 20
97.393054
 30
0.0
 11
341.964335
 21
98.380742
 31
0.0
  0
LINE
  5
D0
330
AB
100
AcDbEntity
  8
0
  6
Continuous
 62
     0
370
    30
100
AcDbLine
 10
304.964327
 20
118.561132
 30
0.0
 11
304.964324
 21
119.607608
 31
0.0
  0
LINE
  5
D1
330
AB
100
AcDbEntity
  8
0
  6
Continuous
 62
     0
370
    30
100
AcDbLine
 10
304.964333
 20
112.219638
 30
0.0
 11
304.964327
 21
118.561132
 31
0.0
  0
LINE
  5
D2
330
AB
100
AcDbEntity
  8
0
  6
Continuous
 62
     0
370
    30
100
AcDbLine
 10
348.964327
 20
118.561132
 30
0.0
 11
348.964324
 21
119.607608
 31
0.0
  0
LINE
  5
D3
330
AB
100
AcDbEntity
  8
0
  6
Continuous
 62
     0
370
    30
100
AcDbLine
 10
348.964333
 20
112.219638
 30
0.0
 11
348.964327
 21
118.561132
 31
0.0
  0
LINE
  5
D4
330
AB
100
AcDbEntity
  8
0
  6
Continuous
 62
     0
370
    30
100
AcDbLine
 10
347.171773
 20
119.607609
 30
0.0
 11
347.426013
 21
119.607609
 31
0.0
  0
LINE
  5
D5
330
AB
100
AcDbEntity
  8
0
  6
Continuous
 62
     0
370
    30
100
AcDbLine
 10
306.502634
 20
119.607609
 30
0.0
 11
306.75688
 21
119.607609
 31
0.0
  0
LWPOLYLINE
  5
D6
330
AB
100
AcDbEntity
  8
0
  6
Continuous
 62
     0
370
    30
100
AcDbPolyline
 90
       16
 70
     0
 43
0.0
 10
348.964325
 20
112.219635
 10
348.929108
 20
111.945862
 10
348.824432
 20
111.673576
 10
348.651703
 20
111.405518
 10
348.412415
 20
111.144417
 10
348.107605
 20
110.892967
 10
347.737274
 20
110.653732
 10
347.301331
 20
110.429268
 10
346.799652
 20
110.222137
 10
346.233307
 20
110.034866
 10
345.610229
 20
109.869812
 10
344.940979
 20
109.729279
 10
344.236206
 20
109.615555
 10
343.506439
 20
109.530952
 10
342.762329
 20
109.47776
 10
341.964325
 20
109.458237
  0
LINE
  5
D7
330
AB
100
AcDbEntity
  8
0
  6
Continuous
 62
     0
370
    30
100
AcDbLine
 10
316.014326
 20
109.458237
 30
0.0
 11
311.964336
 21
109.458237
 31
0.0
  0
LINE
  5
D8
330
AB
100
AcDbEntity
  8
0
  6
Continuous
 62
     0
370
    30
100
AcDbLine
 10
341.964336
 20
109.458237
 30
0.0
 11
337.914327
 21
109.458237
 31
0.0
  0
LWPOLYLINE
  5
D9
330
AB
100
AcDbEntity
  8
0
  6
Continuous
 62
     0
370
    30
100
AcDbPolyline
 90
       16
 70
     0
 43
0.0
 10
311.964325
 20
109.458237
 10
311.216583
 20
109.475372
 10
310.471893
 20
109.526367
 10
309.740845
 20
109.608932
 10
309.034058
 20
109.720772
 10
308.362091
 20
109.859573
 10
307.735565
 20
110.023056
 10
307.16507
 20
110.208908
 10
306.658997
 20
110.41478
 10
306.218628
 20
110.638161
 10
305.843903
 20
110.87648
 10
305.534668
 20
111.12719
 10
305.290985
 20
111.387726
 10
305.113739
 20
111.655403
 10
305.004425
 20
111.92749
 10
304.964325
 20
112.219635
  0
LINE
  5
DA
330
AB
100
AcDbEntity
  8
0
  6
Continuous
 62
     0
370
    30
100
AcDbLine
 10
347.173217
 20
119.618194
 30
0.0
 11
348.964322
 21
119.600663
 31
0.0
  0
LINE
  5
DB
330
AB
100
AcDbEntity
  8
0
  6
Continuous
 62
     0
370
    30
100
AcDbLine
 10
304.964324
 20
119.63308
 30
0.0
 11
306.751989
 21
119.64361
 31
0.0
  0
LINE
  5
DC
330
AB
100
AcDbEntity
  8
0
  6
Continuous
 62
     0
370
    30
100
AcDbLine
 10
306.755435
 20
119.618194
 30
0.0
 11
304.964322
 21
119.600663
 31
0.0
  0
LINE
  5
DD
330
AB
100
AcDbEntity
  8
0
  6
Continuous
 62
     0
370
    30
100
AcDbLine
 10
348.964324
 20
119.63308
 30
0.0
 11
347.176664
 21
119.64361
 31
0.0
  0
LWPOLYLINE
  5
DE
330
AB
100
AcDbEntity
  8
0
  6
Continuous
 62
     0
370
    30
100
AcDbPolyline
 90
       28
 70
     0
 43
0.0
 10
311.964294
 20
81.89946
 10
311.585999
 20
81.901291
 10
311.208313
 20
81.906769
 10
310.832855
 20
81.915878
 10
310.461182
 20
81.928596
 10
310.094879
 20
81.944901
 10
309.735504
 20
81.96476
 10
309.384277
 20
81.988098
 10
309.042328
 20
82.014801
 10
308.710785
 20
82.044769
 10
308.390778
 20
82.077904
 10
308.083221
 20
82.114136
 10
307.788666
 20
82.153488
 10
307.507599
 20
82.195984
 10
307.240509
 20
82.241653
 10
306.987885
 20
82.290535
 10
306.750183
 20
82.342659
 10
306.527618
 20
82.398193
 10
306.319244
 20
82.457932
 10
306.123749
 20
82.522842
 10
305.939331
 20
82.594658
 10
305.762115
 20
82.678001
 10
305.587921
 20
82.778336
 10
305.41684
 20
82.904465
 10
305.253357
 20
83.068611
 10
305.106354
 20
83.281151
 10
305.006134
 20
83.54158
 10
304.964294
 20
83.83828
  0
LWPOLYLINE
  5
DF
330
AB
100
AcDbEntity
  8
0
  6
Continuous
 62
     0
370
    30
100
AcDbPolyline
 90
       28
 70
     0
 43
0.0
 10
341.964294
 20
81.89946
 10
342.34259
 20
81.901291
 10
342.720276
 20
81.906769
 10
343.095734
 20
81.915878
 10
343.467407
 20
81.928596
 10
343.83371
 20
81.944901
 10
344.193085
 20
81.96476
 10
344.544312
 20
81.988098
 10
344.886261
 20
82.014801
 10
345.217804
 20
82.044769
 10
345.537811
 20
82.077904
 10
345.845367
 20
82.114136
 10
346.139923
 20
82.153488
 10
346.42099
 20
82.195984
 10
346.68808
 20
82.241653
 10
346.940735
 20
82.290535
 10
347.178436
 20
82.342659
 10
347.40097
 20
82.398193
 10
347.609344
 20
82.457932
 10
347.80484
 20
82.522842
 10
347.989258
 20
82.594658
 10
348.166473
 20
82.678001
 10
348.340668
 20
82.778336
 10
348.511749
 20
82.904465
 10
348.675262
 20
83.068611
 10
348.822235
 20
83.281151
 10
348.922455
 20
83.54158
 10
348.964294
 20
83.83828
  0
LINE
  5
E0
330
AB
100
AcDbEntity
  8
0
  6
Continuous
 62
     0
370
     0
100
AcDbLine
 10
236.964326
 20
130.307604
 30
0.0
 11
416.964326
 21
130.307604
 31
0.0
  0
ARC
  5
E1
330
AB
100
AcDbEntity
  8
0
  6
Continuous
 62
     0
370
    30
100
AcDbCircle
 10
415.964326
 20
130.307604
 30
0.0
 40
0.9999999999992255
100
AcDbArc
 50
270.0
 51
360.0
  0
LINE
  5
E2
330
AB
100
AcDbEntity
  8
0
  6
Continuous
 62
     0
370
    30
100
AcDbLine
 10
415.964326
 20
129.307604
 30
0.0
 11
237.964326
 21
129.307604
 31
0.0
  0
LINE
  5
E3
330
AB
100
AcDbEntity
  8
0
  6
Continuous
 62
     0
370
    30
100
AcDbLine
 10
416.964326
 20
141.307604
 30
0.0
 11
416.964326
 21
130.307604
 31
0.0
  0
LINE
  5
E4
330
AB
100
AcDbEntity
  8
0
  6
Continuous
 62
     0
370
    30
100
AcDbLine
 10
416.964326
 20
141.307604
 30
0.0
 11
236.964326
 21
141.307604
 31
0.0
  0
LINE
  5
E5
330
AB
100
AcDbEntity
  8
0
  6
Continuous
 62
     0
370
    30
100
AcDbLine
 10
236.964326
 20
141.307604
 30
0.0
 11
236.964326
 21
130.307604
 31
0.0
  0
ARC
  5
E6
330
AB
100
AcDbEntity
  8
0
  6
Continuous
 62
     0
370
    30
100
AcDbCircle
 10
237.967783
 20
130.31106
 30
0.0
 40
1.00346268666677
100
AcDbArc
 50
180.197373
 51
269.802627
  0
LINE
  5
E7
330
AB
100
AcDbEntity
  8
0
  6
Continuous
 62
     0
370
    30
100
AcDbLine
 10
416.084443
 20
129.314937
 30
0.0
 11
415.964326
 21
129.307604
 31
0.0
  0
LINE
  5
E8
330
AB
100
AcDbEntity
  8
0
  6
Continuous
 62
     0
370
     0
100
AcDbLine
 10
337.507814
 20
106.207601
 30
0.0
 11
316.014326
 21
106.207601
 31
0.0
  0
LINE
  5
E9
330
AB
100
AcDbEntity
  8
0
  6
Continuous
 62
     0
370
     0
100
AcDbLine
 10
337.914327
 20
106.207601
 30
0.0
 11
337.507814
 21
106.207601
 31
0.0
  0
LINE
  5
EA
330
AB
100
AcDbEntity
  8
0
  6
Continuous
 62
     0
370
     0
100
AcDbLine
 10
337.507813
 20
113.010208
 30
0.0
 11
316.014326
 21
113.010208
 31
0.0
  0
LINE
  5
EB
330
AB
100
AcDbEntity
  8
0
  6
Continuous
 62
     0
370
     0
100
AcDbLine
 10
337.914326
 20
113.010208
 30
0.0
 11
337.507813
 21
113.010208
 31
0.0
  0
LINE
  5
EC
330
AB
100
AcDbEntity
  8
0
  6
Continuous
 62
     0
370
     0
100
AcDbLine
 10
316.311708
 20
113.310197
 30
0.0
 11
316.707181
 21
113.310197
 31
0.0
  0
LINE
  5
ED
330
AB
100
AcDbEntity
  8
0
  6
Continuous
 62
     0
370
     0
100
AcDbLine
 10
337.221471
 20
113.310197
 30
0.0
 11
316.311708
 21
113.310197
 31
0.0
  0
LINE
  5
EE
330
AB
100
AcDbEntity
  8
0
  6
Continuous
 62
     0
370
     0
100
AcDbLine
 10
337.616944
 20
113.310197
 30
0.0
 11
337.221471
 21
113.310197
 31
0.0
  0
LINE
  5
EF
330
AB
100
AcDbEntity
  8
0
  6
Continuous
 62
     0
370
     0
100
AcDbLine
 10
336.8556
 20
113.310197
 30
0.0
 11
337.616944
 21
113.310197
 31
0.0
  0
LINE
  5
F0
330
AB
100
AcDbEntity
  8
0
  6
Continuous
 62
     0
370
     0
100
AcDbLine
 10
316.707181
 20
113.310197
 30
0.0
 11
317.073053
 21
113.310197
 31
0.0
  0
LINE
  5
F1
330
AB
100
AcDbEntity
  8
0
  6
Continuous
 62
     0
370
     0
100
AcDbLine
 10
317.073053
 20
113.316841
 30
0.0
 11
317.440261
 21
113.316841
 31
0.0
  0
LINE
  5
F2
330
AB
100
AcDbEntity
  8
0
  6
Continuous
 62
     0
370
     0
100
AcDbLine
 10
336.488391
 20
113.316841
 30
0.0
 11
317.073053
 21
113.316841
 31
0.0
  0
LINE
  5
F3
330
AB
100
AcDbEntity
  8
0
  6
Continuous
 62
     0
370
     0
100
AcDbLine
 10
336.8556
 20
113.316841
 30
0.0
 11
336.488391
 21
113.316841
 31
0.0
  0
LINE
  5
F4
330
AB
100
AcDbEntity
  8
0
  6
Continuous
 62
     0
370
     0
100
AcDbLine
 10
335.533918
 20
114.316803
 30
0.0
 11
318.064326
 21
114.316803
 31
0.0
  0
LINE
  5
F5
330
AB
100
AcDbEntity
  8
0
  6
Continuous
 62
     0
370
     0
100
AcDbLine
 10
335.864326
 20
114.316803
 30
0.0
 11
335.533918
 21
114.316803
 31
0.0
  0
LINE
  5
F6
330
AB
100
AcDbEntity
  8
0
  6
Continuous
 62
     0
370
     0
100
AcDbLine
 10
335.533918
 20
125.607601
 30
0.0
 11
318.064327
 21
125.607601
 31
0.0
  0
LINE
  5
F7
330
AB
100
AcDbEntity
  8
0
  6
Continuous
 62
     0
370
     0
100
AcDbLine
 10
335.864326
 20
125.607601
 30
0.0
 11
335.533918
 21
125.607601
 31
0.0
  0
LINE
  5
F8
330
AB
100
AcDbEntity
  8
0
  6
Continuous
 62
     0
370
    30
100
AcDbLine
 10
317.464326
 20
126.057602
 30
0.0
 11
326.964326
 21
126.057602
 31
0.0
  0
LINE
  5
F9
330
AB
100
AcDbEntity
  8
0
  6
Continuous
 62
     0
370
    30
100
AcDbLine
 10
326.964326
 20
126.057602
 30
0.0
 11
336.464326
 21
126.057602
 31
0.0
  0
LINE
  5
FA
330
AB
100
AcDbEntity
  8
0
  6
Continuous
 62
     0
370
    30
100
AcDbLine
 10
315.964326
 20
126.807602
 30
0.0
 11
326.964326
 21
126.807602
 31
0.0
  0
LINE
  5
FB
330
AB
100
AcDbEntity
  8
0
  6
Continuous
 62
     0
370
    30
100
AcDbLine
 10
326.964326
 20
126.807602
 30
0.0
 11
337.964326
 21
126.807602
 31
0.0
  0
LINE
  5
FC
330
AB
100
AcDbEntity
  8
0
  6
Continuous
 62
     0
370
    30
100
AcDbLine
 10
337.964326
 20
155.257602
 30
0.0
 11
336.490606
 21
155.257602
 31
0.0
  0
LINE
  5
FD
330
AB
100
AcDbEntity
  8
0
  6
Continuous
 62
     0
370
    30
100
AcDbLine
 10
336.490606
 20
155.257602
 30
0.0
 11
326.964326
 21
155.257602
 31
0.0
  0
LINE
  5
FE
330
AB
100
AcDbEntity
  8
0
  6
Continuous
 62
     0
370
    30
100
AcDbLine
 10
326.964326
 20
155.257602
 30
0.0
 11
317.438047
 21
155.257602
 31
0.0
  0
LINE
  5
FF
330
AB
100
AcDbEntity
  8
0
  6
Continuous
 62
     0
370
    30
100
AcDbLine
 10
317.438047
 20
155.257602
 30
0.0
 11
315.964326
 21
155.257602
 31
0.0
  0
LINE
  5
100
330
AB
100
AcDbEntity
  8
0
  6
Continuous
 62
     0
370
    30
100
AcDbLine
 10
315.964326
 20
141.307603
 30
0.0
 11
315.964326
 21
155.257602
 31
0.0
  0
LINE
  5
101
330
AB
100
AcDbEntity
  8
0
  6
Continuous
 62
     0
370
    30
100
AcDbLine
 10
315.964326
 20
126.807602
 30
0.0
 11
315.964326
 21
129.307603
 31
0.0
  0
LINE
  5
102
330
AB
100
AcDbEntity
  8
0
  6
Continuous
 62
     0
370
    30
100
AcDbLine
 10
337.964326
 20
141.307603
 30
0.0
 11
337.964326
 21
155.257602
 31
0.0
  0
LINE
  5
103
330
AB
100
AcDbEntity
  8
0
  6
Continuous
 62
     0
370
    30
100
AcDbLine
 10
337.964326
 20
126.807602
 30
0.0
 11
337.964326
 21
129.307603
 31
0.0
  0
LINE
  5
104
330
AB
100
AcDbEntity
  8
0
  6
Continuous
 62
     0
370
    30
100
AcDbLine
 10
317.464326
 20
126.057602
 30
0.0
 11
317.464326
 21
126.807602
 31
0.0
  0
LINE
  5
105
330
AB
100
AcDbEntity
  8
0
  6
Continuous
 62
     0
370
    30
100
AcDbLine
 10
336.464326
 20
126.057602
 30
0.0
 11
336.464326
 21
126.807602
 31
0.0
  0
LINE
  5
106
330
AB
100
AcDbEntity
  8
0
  6
Continuous
 62
     0
370
    30
100
AcDbLine
 10
324.864326
 20
113.310197
 30
0.0
 11
324.864326
 21
113.010208
 31
0.0
  0
LINE
  5
107
330
AB
100
AcDbEntity
  8
0
  6
Continuous
 62
     0
370
    30
100
AcDbLine
 10
329.064326
 20
113.310197
 30
0.0
 11
329.064326
 21
113.010208
 31
0.0
  0
LINE
  5
108
330
AB
100
AcDbEntity
  8
0
  6
Continuous
 62
     0
370
    30
100
AcDbLine
 10
319.964327
 20
125.907601
 30
0.0
 11
319.964327
 21
125.607601
 31
0.0
  0
LINE
  5
109
330
AB
100
AcDbEntity
  8
0
  6
Continuous
 62
     0
370
    30
100
AcDbLine
 10
333.964326
 20
125.907601
 30
0.0
 11
333.964326
 21
125.607601
 31
0.0
  0
LINE
  5
10A
330
AB
100
AcDbEntity
  8
0
  6
Continuous
 62
     0
370
    30
100
AcDbLine
 10
318.064326
 20
125.607601
 30
0.0
 11
318.064326
 21
114.316803
 31
0.0
  0
LINE
  5
10B
330
AB
100
AcDbEntity
  8
0
  6
Continuous
 62
     0
370
    30
100
AcDbLine
 10
335.864326
 20
125.607601
 30
0.0
 11
335.864326
 21
114.316803
 31
0.0
  0
ARC
  5
10C
330
AB
100
AcDbEntity
  8
0
  6
Continuous
 62
     0
370
    30
100
AcDbCircle
 10
317.064319
 20
114.316809
 30
0.0
 40
1.000005910477552
100
AcDbArc
 50
270.500379
 51
358.360236
  0
ARC
  5
10D
330
AB
100
AcDbEntity
  8
0
  6
Continuous
 62
     0
370
    30
100
AcDbCircle
 10
336.856751
 20
114.313295
 30
0.0
 40
0.9923318212061432
100
AcDbArc
 50
181.449534
 51
249.742352
  0
LINE
  5
10E
330
AB
100
AcDbEntity
  8
0
  6
Continuous
 62
     0
370
    30
100
AcDbLine
 10
316.014326
 20
113.010208
 30
0.0
 11
316.014326
 21
106.207601
 31
0.0
  0
LINE
  5
10F
330
AB
100
AcDbEntity
  8
0
  6
Continuous
 62
     0
370
    30
100
AcDbLine
 10
337.914327
 20
113.010208
 30
0.0
 11
337.914327
 21
106.207601
 31
0.0
  0
ENDBLK
  5
111
330
AB
100
AcDbEntity
  8
0
100
AcDbBlockEnd
  0
BLOCK
  5
172
330
113
100
AcDbEntity
  8
0
100
AcDbBlockBegin
  2
c
 70
     0
 10
203.544144
 20
85.18631
 30
0.0
  3
c
  1

  0
LINE
  5
114
330
113
100
AcDbEntity
  8
0
  6
Continuous
 62
     0
370
    30
100
AcDbLine
 10
505.327033
 20
440.012671
 30
0.0
 11
505.327033
 21
475.700536
 31
0.0
  0
LINE
  5
115
330
113
100
AcDbEntity
  8
0
  6
Continuous
 62
     0
370
    30
100
AcDbLine
 10
505.327033
 20
431.500536
 30
0.0
 11
505.327033
 21
440.012671
 31
0.0
  0
LINE
  5
116
330
113
100
AcDbEntity
  8
0
  6
Continuous
 62
     0
370
    30
100
AcDbLine
 10
463.927033
 20
433.000536
 30
0.0
 11
463.927033
 21
440.934925
 31
0.0
  0
LINE
  5
117
330
113
100
AcDbEntity
  8
0
  6
Continuous
 62
     0
370
    30
100
AcDbLine
 10
463.927033
 20
440.934925
 30
0.0
 11
463.927033
 21
474.200536
 31
0.0
  0
LINE
  5
118
330
113
100
AcDbEntity
  8
0
  6
Continuous
 62
     0
370
    30
100
AcDbLine
 10
465.427033
 20
440.012671
 30
0.0
 11
465.427033
 21
475.700536
 31
0.0
  0
LINE
  5
119
330
113
100
AcDbEntity
  8
0
  6
Continuous
 62
     0
370
    30
100
AcDbLine
 10
465.427033
 20
431.500536
 30
0.0
 11
465.427033
 21
440.012671
 31
0.0
  0
LINE
  5
11A
330
113
100
AcDbEntity
  8
0
  6
Continuous
 62
     0
370
    30
100
AcDbLine
 10
465.427033
 20
475.700457
 30
0.0
 11
463.927033
 21
474.200462
 31
0.0
  0
LINE
  5
11B
330
113
100
AcDbEntity
  8
0
  6
Continuous
 62
     0
370
    30
100
AcDbLine
 10
465.427033
 20
431.500611
 30
0.0
 11
463.927033
 21
433.000606
 31
0.0
  0
LINE
  5
11C
330
113
100
AcDbEntity
  8
0
  6
Continuous
 62
     0
370
    30
100
AcDbLine
 10
485.027031
 20
431.500536
 30
0.0
 11
465.427033
 21
431.500536
 31
0.0
  0
LINE
  5
11D
330
113
100
AcDbEntity
  8
0
  6
Continuous
 62
     0
370
    30
100
AcDbLine
 10
505.327033
 20
431.500536
 30
0.0
 11
497.027031
 21
431.500536
 31
0.0
  0
LINE
  5
11E
330
113
100
AcDbEntity
  8
0
  6
Continuous
 62
     0
370
    30
100
AcDbLine
 10
485.027031
 20
475.700536
 30
0.0
 11
465.427033
 21
475.700536
 31
0.0
  0
LINE
  5
11F
330
113
100
AcDbEntity
  8
0
  6
Continuous
 62
     0
370
    30
100
AcDbLine
 10
505.327033
 20
475.700536
 30
0.0
 11
497.027031
 21
475.700536
 31
0.0
  0
LWPOLYLINE
  5
120
330
113
100
AcDbEntity
  8
0
  6
Continuous
 62
     0
370
     0
100
AcDbPolyline
 90
        8
 70
     0
 43
0.0
 10
522.975464
 20
430.244965
 10
523.207764
 20
430.221954
 10
523.391113
 20
430.211365
 10
523.520813
 20
430.21344
 10
523.593445
 20
430.228119
 10
523.607117
 20
430.255035
 10
523.561401
 20
430.293488
 10
523.437378
 20
430.350555
  0
LINE
  5
121
330
113
100
AcDbEntity
  8
0
  6
Continuous
 62
     0
370
     0
100
AcDbLine
 10
525.748463
 20
430.350551
 30
0.0
 11
525.748462
 21
431.350552
 31
0.0
  0
LINE
  5
122
330
113
100
AcDbEntity
  8
0
  6
Continuous
 62
     0
370
     0
100
AcDbLine
 10
525.748462
 20
431.350552
 30
0.0
 11
506.727029
 21
431.350547
 31
0.0
  0
LINE
  5
123
330
113
100
AcDbEntity
  8
0
  6
Continuous
 62
     0
370
    30
100
AcDbLine
 10
506.727029
 20
430.350547
 30
0.0
 11
525.748463
 21
430.350551
 31
0.0
  0
ARC
  5
124
330
113
100
AcDbEntity
  8
0
  6
Continuous
 62
     0
370
    30
100
AcDbCircle
 10
525.748464
 20
423.350551
 30
0.0
 40
7.0
100
AcDbArc
 50
9.0
 51
90.000014
  0
LINE
  5
125
330
113
100
AcDbEntity
  8
0
  6
Continuous
 62
     0
370
    30
100
AcDbLine
 10
540.480489
 20
375.083373
 30
0.0
 11
539.541556
 21
381.01157
 31
0.0
  0
LINE
  5
126
330
113
100
AcDbEntity
  8
0
  6
Continuous
 62
     0
370
    30
100
AcDbLine
 10
539.541556
 20
381.01157
 30
0.0
 11
532.662283
 21
424.445593
 31
0.0
  0
LINE
  5
127
330
113
100
AcDbEntity
  8
0
  6
Continuous
 62
     0
370
     0
100
AcDbLine
 10
539.541556
 20
381.01157
 30
0.0
 11
540.529244
 21
381.168004
 31
0.0
  0
LINE
  5
128
330
113
100
AcDbEntity
  8
0
  6
Continuous
 62
     0
370
     0
100
AcDbLine
 10
540.529244
 20
381.168005
 30
0.0
 11
533.649971
 21
424.602027
 31
0.0
  0
LINE
  5
129
330
113
100
AcDbEntity
  8
0
  6
Continuous
 62
     0
370
     0
100
AcDbLine
 10
533.649971
 20
424.602027
 30
0.0
 11
532.662283
 21
424.445593
 31
0.0
  0
ARC
  5
12A
330
113
100
AcDbEntity
  8
0
  6
Continuous
 62
     0
370
     0
100
AcDbCircle
 10
525.748464
 20
423.350552
 30
0.0
 40
7.999999999999724
100
AcDbArc
 50
9.0
 51
90.000014
  0
LINE
  5
12B
330
113
100
AcDbEntity
  8
0
  6
Continuous
 62
     0
370
     0
100
AcDbLine
 10
540.529244
 20
381.168005
 30
0.0
 11
541.65062
 21
374.256591
 31
0.0
  0
ARC
  5
12C
330
113
100
AcDbEntity
  8
0
  6
Continuous
 62
     0
370
    30
100
AcDbCircle
 10
541.468178
 20
375.239808
 30
0.0
 40
1.000000000001805
100
AcDbArc
 50
189.0
 51
280.512056
  0
LWPOLYLINE
  5
12D
330
113
100
AcDbEntity
  8
0
  6
Continuous
 62
     0
370
    30
100
AcDbPolyline
 90
       15
 70
     0
 43
0.0
 10
528.941589
 20
473.506989
 10
528.947571
 20
473.46936
 10
528.965332
 20
473.357086
 10
528.994751
 20
473.171448
 10
529.035339
 20
472.914917
 10
529.086731
 20
472.590515
 10
529.148193
 20
472.202515
 10
529.218994
 20
471.755615
 10
529.298157
 20
471.255524
 10
529.384827
 20
470.708405
 10
529.477844
 20
470.121216
 10
529.57605
 20
469.501251
 10
529.678162
 20
468.856323
 10
529.78302
 20
468.194458
 10
529.891907
 20
467.506989
  0
LINE
  5
12E
330
113
100
AcDbEntity
  8
0
  6
Continuous
 62
     0
370
    30
100
AcDbLine
 10
529.891888
 20
467.506987
 30
0.0
 11
543.484051
 21
381.689451
 31
0.0
  0
LINE
  5
12F
330
113
100
AcDbEntity
  8
0
  6
Continuous
 62
     0
370
    30
100
AcDbLine
 10
543.484051
 20
381.689451
 30
0.0
 11
544.422984
 21
375.761254
 31
0.0
  0
LINE
  5
130
330
113
100
AcDbEntity
  8
0
  6
Continuous
 62
     0
370
    30
100
AcDbLine
 10
516.876398
 20
474.350547
 30
0.0
 11
527.953893
 21
474.350549
 31
0.0
  0
LINE
  5
131
330
113
100
AcDbEntity
  8
0
  6
Continuous
 62
     0
370
     0
100
AcDbLine
 10
514.114998
 20
467.350549
 30
0.0
 11
528.9042
 21
467.350552
 31
0.0
  0
LINE
  5
132
330
113
100
AcDbEntity
  8
0
  6
Continuous
 62
     0
370
     0
100
AcDbLine
 10
528.9042
 20
467.350552
 30
0.0
 11
527.953893
 21
474.350549
 31
0.0
  0
LINE
  5
133
330
113
100
AcDbEntity
  8
0
  6
Continuous
 62
     0
370
     0
100
AcDbLine
 10
540.529244
 20
381.168005
 30
0.0
 11
542.496362
 21
381.533017
 31
0.0
  0
LINE
  5
134
330
113
100
AcDbEntity
  8
0
  6
Continuous
 62
     0
370
     0
100
AcDbLine
 10
542.496362
 20
381.533017
 30
0.0
 11
528.9042
 21
467.350552
 31
0.0
  0
LINE
  5
135
330
113
100
AcDbEntity
  8
0
  6
Continuous
 62
     0
370
    30
100
AcDbLine
 10
541.65062
 20
374.256591
 30
0.0
 11
543.617738
 21
374.621603
 31
0.0
  0
LINE
  5
136
330
113
100
AcDbEntity
  8
0
  6
Continuous
 62
     0
370
     0
100
AcDbLine
 10
543.617738
 20
374.621603
 30
0.0
 11
542.496362
 21
381.533017
 31
0.0
  0
ARC
  5
137
330
113
100
AcDbEntity
  8
0
  6
Continuous
 62
     0
370
    30
100
AcDbCircle
 10
543.435296
 20
375.60482
 30
0.0
 40
0.9999999999999952
100
AcDbArc
 50
280.512056
 51
9.0
  0
LINE
  5
138
330
113
100
AcDbEntity
  8
0
  6
Continuous
 62
     0
370
     0
100
AcDbLine
 10
542.496362
 20
381.533017
 30
0.0
 11
543.484051
 21
381.689451
 31
0.0
  0
LINE
  5
139
330
113
100
AcDbEntity
  8
0
  6
Continuous
 62
     0
370
     0
100
AcDbLine
 10
529.891888
 20
467.506987
 30
0.0
 11
528.9042
 21
467.350552
 31
0.0
  0
ARC
  5
13A
330
113
100
AcDbEntity
  8
0
  6
Continuous
 62
     0
370
    30
100
AcDbCircle
 10
527.953893
 20
473.350549
 30
0.0
 40
1.000000000000272
100
AcDbArc
 50
9.0
 51
90.000014
  0
ARC
  5
13B
330
113
100
AcDbEntity
  8
0
  6
Continuous
 62
     0
370
    30
100
AcDbCircle
 10
521.727029
 20
445.770741
 30
0.0
 40
14.99999999999878
100
AcDbArc
 50
158.471471
 51
180.0
  0
LINE
  5
13C
330
113
100
AcDbEntity
  8
0
  6
Continuous
 62
     0
370
    30
100
AcDbLine
 10
506.727029
 20
445.770741
 30
0.0
 11
506.727029
 21
431.350547
 31
0.0
  0
LINE
  5
13D
330
113
100
AcDbEntity
  8
0
  6
Continuous
 62
     0
370
    30
100
AcDbLine
 10
514.114998
 20
467.350549
 30
0.0
 11
507.773504
 21
451.275208
 31
0.0
  0
LINE
  5
13E
330
113
100
AcDbEntity
  8
0
  6
Continuous
 62
     0
370
    30
100
AcDbLine
 10
506.727029
 20
431.350547
 30
0.0
 11
506.727029
 21
430.350547
 31
0.0
  0
LWPOLYLINE
  5
13F
330
113
100
AcDbEntity
  8
0
  6
Continuous
 62
     0
370
    30
100
AcDbPolyline
 90
       18
 70
     0
 43
0.0
 10
516.876404
 20
474.350555
 10
516.863037
 20
474.315613
 10
516.822937
 20
474.21347
 10
516.757751
 20
474.048035
 10
516.669067
 20
473.823242
 10
516.558472
 20
473.543091
 10
516.427551
 20
473.211487
 10
516.277832
 20
472.832428
 10
516.110962
 20
472.40979
 10
515.928589
 20
471.947693
 10
515.732483
 20
471.450653
 10
515.524353
 20
470.923096
 10
515.305969
 20
470.369568
 10
515.079102
 20
469.794586
 10
514.845642
 20
469.202728
 10
514.607361
 20
468.598755
 10
514.366211
 20
467.987457
 10
514.11499
 20
467.350555
  0
LINE
  5
140
330
113
100
AcDbEntity
  8
0
  6
Continuous
 62
     0
370
    30
100
AcDbLine
 10
506.618581
 20
433.378319
 30
0.0
 11
506.677261
 21
431.350547
 31
0.0
  0
LINE
  5
141
330
113
100
AcDbEntity
  8
0
  6
Continuous
 62
     0
370
    30
100
AcDbLine
 10
516.876584
 20
474.350398
 30
0.0
 11
515.142927
 21
470.675646
 31
0.0
  0
LINE
  5
142
330
113
100
AcDbEntity
  8
0
  6
Continuous
 62
     0
370
     0
100
AcDbLine
 10
496.027031
 20
385.100536
 30
0.0
 11
496.027031
 21
565.100536
 31
0.0
  0
LINE
  5
143
330
113
100
AcDbEntity
  8
0
  6
Continuous
 62
     0
370
    30
100
AcDbLine
 10
497.027031
 20
564.100536
 30
0.0
 11
497.027031
 21
386.100536
 31
0.0
  0
LINE
  5
144
330
113
100
AcDbEntity
  8
0
  6
Continuous
 62
     0
370
    30
100
AcDbLine
 10
487.28585
 20
385.198524
 30
0.0
 11
488.027031
 21
385.158612
 31
0.0
  0
LINE
  5
145
330
113
100
AcDbEntity
  8
0
  6
Continuous
 62
     0
370
    30
100
AcDbLine
 10
485.027031
 20
565.100536
 30
0.0
 11
485.027031
 21
385.273132
 31
0.0
  0
LINE
  5
146
330
113
100
AcDbEntity
  8
0
  6
Continuous
 62
     0
370
    30
100
AcDbLine
 10
485.027031
 20
385.273135
 30
0.0
 11
485.768212
 21
385.218438
 31
0.0
  0
LINE
  5
147
330
113
100
AcDbEntity
  8
0
  6
Continuous
 62
     0
370
    30
100
AcDbLine
 10
485.768212
 20
385.218438
 30
0.0
 11
487.28585
 21
385.198524
 31
0.0
  0
LINE
  5
148
330
113
100
AcDbEntity
  8
0
  6
Continuous
 62
     0
370
    30
100
AcDbLine
 10
485.027031
 20
565.100536
 30
0.0
 11
496.027031
 21
565.100536
 31
0.0
  0
LINE
  5
149
330
113
100
AcDbEntity
  8
0
  6
Continuous
 62
     0
370
    30
100
AcDbLine
 10
488.027031
 20
385.100536
 30
0.0
 11
496.027031
 21
385.100536
 31
0.0
  0
ARC
  5
14A
330
113
100
AcDbEntity
  8
0
  6
Continuous
 62
     0
370
    30
100
AcDbCircle
 10
496.023574
 20
386.103993
 30
0.0
 40
1.003462686668045
100
AcDbArc
 50
270.197373
 51
359.802627
  0
ARC
  5
14B
330
113
100
AcDbEntity
  8
0
  6
Continuous
 62
     0
370
    30
100
AcDbCircle
 10
496.023574
 20
564.09708
 30
0.0
 40
1.003462686671688
100
AcDbArc
 50
0.197373
 51
89.802627
  0
LINE
  5
14C
330
113
100
AcDbEntity
  8
0
  6
Continuous
 62
     0
370
    30
100
AcDbLine
 10
520.427032
 20
512.250537
 30
0.0
 11
520.427032
 21
498.725613
 31
0.0
  0
LINE
  5
14D
330
113
100
AcDbEntity
  8
0
  6
Continuous
 62
     0
370
    30
100
AcDbLine
 10
520.427032
 20
498.725613
 30
0.0
 11
520.427032
 21
490.950536
 31
0.0
  0
LINE
  5
14E
330
113
100
AcDbEntity
  8
0
  6
Continuous
 62
     0
370
     0
100
AcDbLine
 10
520.127032
 20
512.550537
 30
0.0
 11
520.127032
 21
498.644629
 31
0.0
  0
LINE
  5
14F
330
113
100
AcDbEntity
  8
0
  6
Continuous
 62
     0
370
     0
100
AcDbLine
 10
520.127032
 20
498.644629
 30
0.0
 11
520.127032
 21
490.650536
 31
0.0
  0
LINE
  5
150
330
113
100
AcDbEntity
  8
0
  6
Continuous
 62
     0
370
     0
100
AcDbLine
 10
513.324425
 20
512.550537
 30
0.0
 11
513.324425
 21
498.644629
 31
0.0
  0
LINE
  5
151
330
113
100
AcDbEntity
  8
0
  6
Continuous
 62
     0
370
     0
100
AcDbLine
 10
513.324425
 20
498.644629
 30
0.0
 11
513.324425
 21
490.650536
 31
0.0
  0
LINE
  5
152
330
113
100
AcDbEntity
  8
0
  6
Continuous
 62
     0
370
     0
100
AcDbLine
 10
513.024437
 20
512.253155
 30
0.0
 11
513.024437
 21
498.724906
 31
0.0
  0
LINE
  5
153
330
113
100
AcDbEntity
  8
0
  6
Continuous
 62
     0
370
     0
100
AcDbLine
 10
513.024437
 20
511.49181
 30
0.0
 11
513.024437
 21
512.253155
 31
0.0
  0
LINE
  5
154
330
113
100
AcDbEntity
  8
0
  6
Continuous
 62
     0
370
     0
100
AcDbLine
 10
513.024437
 20
490.947918
 30
0.0
 11
513.024437
 21
491.709263
 31
0.0
  0
LINE
  5
155
330
113
100
AcDbEntity
  8
0
  6
Continuous
 62
     0
370
     0
100
AcDbLine
 10
513.024437
 20
498.724906
 30
0.0
 11
513.024437
 21
490.947918
 31
0.0
  0
LINE
  5
156
330
113
100
AcDbEntity
  8
0
  6
Continuous
 62
     0
370
     0
100
AcDbLine
 10
512.017831
 20
510.500537
 30
0.0
 11
512.017831
 21
499.198018
 31
0.0
  0
LINE
  5
157
330
113
100
AcDbEntity
  8
0
  6
Continuous
 62
     0
370
     0
100
AcDbLine
 10
512.017831
 20
499.198018
 30
0.0
 11
512.017831
 21
492.700536
 31
0.0
  0
LINE
  5
158
330
113
100
AcDbEntity
  8
0
  6
Continuous
 62
     0
370
     0
100
AcDbLine
 10
500.727032
 20
510.500536
 30
0.0
 11
500.727032
 21
499.198018
 31
0.0
  0
LINE
  5
159
330
113
100
AcDbEntity
  8
0
  6
Continuous
 62
     0
370
     0
100
AcDbLine
 10
500.727032
 20
499.198018
 30
0.0
 11
500.727032
 21
492.700537
 31
0.0
  0
LINE
  5
15A
330
113
100
AcDbEntity
  8
0
  6
Continuous
 62
     0
370
    30
100
AcDbLine
 10
500.427032
 20
510.200536
 30
0.0
 11
500.427032
 21
499.279002
 31
0.0
  0
LINE
  5
15B
330
113
100
AcDbEntity
  8
0
  6
Continuous
 62
     0
370
    30
100
AcDbLine
 10
500.427032
 20
508.600536
 30
0.0
 11
500.427032
 21
510.200536
 31
0.0
  0
LINE
  5
15C
330
113
100
AcDbEntity
  8
0
  6
Continuous
 62
     0
370
    30
100
AcDbLine
 10
500.427032
 20
493.000537
 30
0.0
 11
500.427032
 21
494.600537
 31
0.0
  0
LINE
  5
15D
330
113
100
AcDbEntity
  8
0
  6
Continuous
 62
     0
370
    30
100
AcDbLine
 10
500.427032
 20
499.279002
 30
0.0
 11
500.427032
 21
493.000537
 31
0.0
  0
LINE
  5
15E
330
113
100
AcDbEntity
  8
0
  6
Continuous
 62
     0
370
    30
100
AcDbLine
 10
499.527032
 20
492.100536
 30
0.0
 11
500.277032
 21
492.100536
 31
0.0
  0
LINE
  5
15F
330
113
100
AcDbEntity
  8
0
  6
Continuous
 62
     0
370
    30
100
AcDbLine
 10
500.277032
 20
492.100536
 30
0.0
 11
500.277032
 21
511.100536
 31
0.0
  0
LINE
  5
160
330
113
100
AcDbEntity
  8
0
  6
Continuous
 62
     0
370
    30
100
AcDbLine
 10
499.527032
 20
490.600536
 30
0.0
 11
499.527032
 21
512.600536
 31
0.0
  0
LINE
  5
161
330
113
100
AcDbEntity
  8
0
  6
Continuous
 62
     0
370
    30
100
AcDbLine
 10
485.027031
 20
490.600536
 30
0.0
 11
471.077032
 21
490.600536
 31
0.0
  0
LINE
  5
162
330
113
100
AcDbEntity
  8
0
  6
Continuous
 62
     0
370
    30
100
AcDbLine
 10
499.527032
 20
490.600536
 30
0.0
 11
497.027031
 21
490.600536
 31
0.0
  0
LINE
  5
163
330
113
100
AcDbEntity
  8
0
  6
Continuous
 62
     0
370
    30
100
AcDbLine
 10
471.077032
 20
512.600536
 30
0.0
 11
471.077032
 21
507.100536
 31
0.0
  0
LINE
  5
164
330
113
100
AcDbEntity
  8
0
  6
Continuous
 62
     0
370
    30
100
AcDbLine
 10
471.077032
 20
507.100536
 30
0.0
 11
471.077032
 21
496.100536
 31
0.0
  0
LINE
  5
165
330
113
100
AcDbEntity
  8
0
  6
Continuous
 62
     0
370
    30
100
AcDbLine
 10
471.077032
 20
496.100536
 30
0.0
 11
471.077032
 21
490.600536
 31
0.0
  0
LINE
  5
166
330
113
100
AcDbEntity
  8
0
  6
Continuous
 62
     0
370
    30
100
AcDbLine
 10
485.027031
 20
512.600536
 30
0.0
 11
471.077032
 21
512.600536
 31
0.0
  0
LINE
  5
167
330
113
100
AcDbEntity
  8
0
  6
Continuous
 62
     0
370
    30
100
AcDbLine
 10
499.527032
 20
512.600536
 30
0.0
 11
497.027031
 21
512.600536
 31
0.0
  0
LINE
  5
168
330
113
100
AcDbEntity
  8
0
  6
Continuous
 62
     0
370
    30
100
AcDbLine
 10
500.277032
 20
511.100536
 30
0.0
 11
499.527032
 21
511.100536
 31
0.0
  0
LINE
  5
169
330
113
100
AcDbEntity
  8
0
  6
Continuous
 62
     0
370
    30
100
AcDbLine
 10
500.727032
 20
510.500537
 30
0.0
 11
512.017831
 21
510.500537
 31
0.0
  0
LINE
  5
16A
330
113
100
AcDbEntity
  8
0
  6
Continuous
 62
     0
370
    30
100
AcDbLine
 10
500.727032
 20
492.700536
 30
0.0
 11
512.017831
 21
492.700536
 31
0.0
  0
ARC
  5
16B
330
113
100
AcDbEntity
  8
0
  6
Continuous
 62
     0
370
    30
100
AcDbCircle
 10
512.017825
 20
511.500543
 30
0.0
 40
1.000005910477148
100
AcDbArc
 50
271.639764
 51
359.499621
  0
ARC
  5
16C
330
113
100
AcDbEntity
  8
0
  6
Continuous
 62
     0
370
    30
100
AcDbCircle
 10
512.017825
 20
491.700529
 30
0.0
 40
1.000005910477475
100
AcDbArc
 50
0.500379
 51
88.360236
  0
LINE
  5
16D
330
113
100
AcDbEntity
  8
0
  6
Continuous
 62
     0
370
    30
100
AcDbLine
 10
513.324425
 20
512.550537
 30
0.0
 11
520.127032
 21
512.550537
 31
0.0
  0
LINE
  5
16E
330
113
100
AcDbEntity
  8
0
  6
Continuous
 62
     0
370
    30
100
AcDbLine
 10
513.324425
 20
490.650536
 30
0.0
 11
520.127032
 21
490.650536
 31
0.0
  0
ARC
  5
16F
330
113
100
AcDbEntity
  8
0
  6
Continuous
 62
     0
370
    30
100
AcDbCircle
 10
503.957127
 20
453.496359
 30
0.0
 40
20.5000000000012
100
AcDbArc
 50
56.930992
 51
86.168371
  0
LINE
  5
170
330
113
100
AcDbEntity
  8
0
  6
Continuous
 62
     0
370
    30
100
AcDbLine
 10
505.327034
 20
433.349055
 30
0.0
 11
505.827034
 21
433.388885
 31
0.0
  0
LINE
  5
171
330
113
100
AcDbEntity
  8
0
  6
Continuous
 62
     0
370
    30
100
AcDbLine
 10
505.827034
 20
433.290173
 30
0.0
 11
506.618581
 21
433.378319
 31
0.0
  0
ENDBLK
  5
173
330
113
100
AcDbEntity
  8
0
100
AcDbBlockEnd
  0
BLOCK
  5
1CE
330
175
100
AcDbEntity
  8
0
100
AcDbBlockBegin
  2
d
 70
     0
 10
203.544144
 20
85.18631
 30
0.0
  3
d
  1

  0
ELLIPSE
  5
176
330
175
100
AcDbEntity
  8
0
  6
Continuous
 62
     0
370
    30
100
AcDbEllipse
 10
545.679277
 20
186.514093
 30
0.0
 11
-11.05000000000001
 21
-19.1391614236361
 31
0.0
210
0.0
220
0.0
230
-1.0
 40
0.57735
 41
0.4092978177533786
 42
3.264813462396928
  0
ELLIPSE
  5
177
330
175
100
AcDbEntity
  8
0
  6
Continuous
 62
     0
370
    30
100
AcDbEllipse
 10
545.679277
 20
186.514093
 30
0.0
 11
-11.05000000000001
 21
-19.1391614236361
 31
0.0
210
0.0
220
0.0
230
-1.0
 40
0.57735
 41
3.264813462396928
 42
3.49759847260477
  0
LINE
  5
178
330
175
100
AcDbEntity
  8
0
  6
Continuous
 62
     0
370
    30
100
AcDbLine
 10
556.729278
 20
205.653255
 30
0.0
 11
547.860289
 21
210.773768
 31
0.0
  0
ELLIPSE
  5
179
330
175
100
AcDbEntity
  8
0
  6
Continuous
 62
     0
370
     0
100
AcDbEllipse
 10
545.27016
 20
151.436827
 30
0.0
 11
-0.4999998158564491
 21
-0.8660255100997436
 31
0.0
210
0.0
220
0.0
230
-1.0
 40
0.57735
 41
5.497787667586199
 42
7.068583994381101
  0
LINE
  5
17A
330
175
100
AcDbEntity
  8
0
  6
Continuous
 62
     0
370
     0
100
AcDbLine
 10
544.563053
 20
151.028579
 30
0.0
 11
531.112869
 21
158.794043
 31
0.0
  0
ELLIPSE
  5
17B
330
175
100
AcDbEntity
  8
0
  6
Continuous
 62
     0
370
     0
100
AcDbEllipse
 10
555.721737
 20
104.428712
 30
0.0
 11
-0.9920194446164357
 21
-0.126084977308588
 31
0.0
210
0.0
220
0.0
230
1.0
 40
0.479924
 41
-0.0000000042951287
 42
0.7182817423673002
  0
LINE
  5
17C
330
175
100
AcDbEntity
  8
0
  6
Continuous
 62
     0
370
     0
100
AcDbLine
 10
555.01463
 20
104.020464
 30
0.0
 11
550.150262
 21
142.292653
 31
0.0
  0
ELLIPSE
  5
17D
330
175
100
AcDbEntity
  8
0
  6
Continuous
 62
     0
370
     0
100
AcDbEllipse
 10
550.857368
 20
142.700901
 30
0.0
 11
0.9920194446164357
 21
0.126084977308588
 31
0.0
210
0.0
220
0.0
230
-1.0
 40
0.479924
 41
2.423310911222579
 42
3.828753068200951
  0
ARC
  5
17E
330
175
100
AcDbEntity
  8
0
  6
Continuous
 62
     0
370
     0
100
AcDbCircle
 10
537.616012
 20
140.430822
 30
0.0
 40
12.67177306067648
100
AcDbArc
 50
8.44891
 51
56.754358
  0
ARC
  5
17F
330
175
100
AcDbEntity
  8
0
  6
Continuous
 62
     0
370
     0
100
AcDbCircle
 10
559.254256
 20
104.188769
 30
0.0
 40
4.24296532281568
100
AcDbArc
 50
182.273344
 51
245.423749
  0
LINE
  5
180
330
175
100
AcDbEntity
  8
0
  6
Continuous
 62
     0
370
     0
100
AcDbLine
 10
587.509585
 20
120.794591
 30
0.0
 11
577.8985
 21
196.413306
 31
0.0
  0
ARC
  5
181
330
175
100
AcDbEntity
  8
0
  6
Continuous
 62
     0
370
     0
100
AcDbCircle
 10
574.738828
 20
196.615498
 30
0.0
 40
3.166134244332771
100
AcDbArc
 50
356.338564
 51
123.66137
  0
LINE
  5
182
330
175
100
AcDbEntity
  8
0
  6
Continuous
 62
     0
370
     0
100
AcDbLine
 10
572.983892
 20
199.25076
 30
0.0
 11
551.770689
 21
187.003321
 31
0.0
  0
ARC
  5
183
330
175
100
AcDbEntity
  8
0
  6
Continuous
 62
     0
370
     0
100
AcDbCircle
 10
556.489861
 20
180.133013
 30
0.0
 40
8.334969108544096
100
AcDbArc
 50
124.484931
 51
185.964611
  0
LINE
  5
184
330
175
100
AcDbEntity
  8
0
  6
Continuous
 62
     0
370
     0
100
AcDbLine
 10
548.200015
 20
179.266892
 30
0.0
 11
557.811101
 21
103.648176
 31
0.0
  0
ARC
  5
185
330
175
100
AcDbEntity
  8
0
  6
Continuous
 62
     0
370
     0
100
AcDbCircle
 10
560.949672
 20
103.473123
 30
0.0
 40
3.143448925584442
100
AcDbArc
 50
176.807639
 51
304.224556
  0
LINE
  5
186
330
175
100
AcDbEntity
  8
0
  6
Continuous
 62
     0
370
     0
100
AcDbLine
 10
562.717666
 20
100.873995
 30
0.0
 11
583.93087
 21
113.121434
 31
0.0
  0
ARC
  5
187
330
175
100
AcDbEntity
  8
0
  6
Continuous
 62
     0
370
     0
100
AcDbCircle
 10
579.272837
 20
119.965038
 30
0.0
 40
8.27841674652445
100
AcDbArc
 50
304.24078
 51
5.751075
  0
LINE
  5
188
330
175
100
AcDbEntity
  8
0
  6
Continuous
 62
     0
370
     0
100
AcDbLine
 10
564.45252
 20
204.865117
 30
0.0
 11
572.285491
 21
200.342751
 31
0.0
  0
ARC
  5
189
330
175
100
AcDbEntity
  8
0
  6
Continuous
 62
     0
370
     0
100
AcDbCircle
 10
574.303993
 20
197.4604
 30
0.0
 40
3.518848711305394
100
AcDbArc
 50
53.227907
 51
125.003446
  0
LINE
  5
18A
330
175
100
AcDbEntity
  8
0
  6
Continuous
 62
     0
370
     0
100
AcDbLine
 10
543.239316
 20
192.617678
 30
0.0
 11
551.072288
 21
188.095312
 31
0.0
  0
LINE
  5
18B
330
175
100
AcDbEntity
  8
0
  6
Continuous
 62
     0
370
     0
100
AcDbLine
 10
551.072288
 20
188.095312
 30
0.0
 11
572.285491
 21
200.342751
 31
0.0
  0
LINE
  5
18C
330
175
100
AcDbEntity
  8
0
  6
Continuous
 62
     0
370
     0
100
AcDbLine
 10
536.336962
 20
185.171801
 30
0.0
 11
546.794507
 21
179.134138
 31
0.0
  0
ARC
  5
18D
330
175
100
AcDbEntity
  8
0
  6
Continuous
 62
     0
370
     0
100
AcDbCircle
 10
556.618088
 20
179.946297
 30
0.0
 40
9.85709605232741
100
AcDbArc
 50
124.237186
 51
184.726147
  0
LINE
  5
18E
330
175
100
AcDbEntity
  8
0
  6
Continuous
 62
     0
370
     0
100
AcDbLine
 10
555.01463
 20
104.020464
 30
0.0
 11
556.405593
 21
103.515422
 31
0.0
  0
LINE
  5
18F
330
175
100
AcDbEntity
  8
0
  6
Continuous
 62
     0
370
     0
100
AcDbLine
 10
556.405593
 20
103.515422
 30
0.0
 11
546.794507
 21
179.134138
 31
0.0
  0
LWPOLYLINE
  5
190
330
175
100
AcDbEntity
  8
0
  6
Continuous
 62
     0
370
     0
100
AcDbPolyline
 90
       16
 70
     0
 43
0.0
 10
562.148254
 20
100.272217
 10
561.630859
 20
100.009995
 10
561.107361
 20
99.81591
 10
560.584595
 20
99.691765
 10
560.069336
 20
99.639389
 10
559.568481
 20
99.660606
 10
559.088318
 20
99.756554
 10
558.633789
 20
99.925514
 10
558.209167
 20
100.164963
 10
557.818848
 20
100.472374
 10
557.467285
 20
100.84523
 10
557.158447
 20
101.280312
 10
556.895386
 20
101.771317
 10
556.680603
 20
102.311104
 10
556.516785
 20
102.892517
 10
556.405579
 20
103.515419
  0
ELLIPSE
  5
191
330
175
100
AcDbEntity
  8
0
  6
Continuous
 62
     0
370
     0
100
AcDbEllipse
 10
586.811184
 20
121.070085
 30
0.0
 11
-0.9920194446164357
 21
-0.1260849773085936
 31
0.0
210
0.0
220
0.0
230
1.0
 40
0.479924
 41
2.289078069162101
 42
3.141592649294641
  0
ELLIPSE
  5
192
330
175
100
AcDbEntity
  8
0
  6
Continuous
 62
     0
370
     0
100
AcDbEllipse
 10
577.200098
 20
196.6888
 30
0.0
 11
0.9920194446164357
 21
0.1260849773085936
 31
0.0
210
0.0
220
0.0
230
-1.0
 40
0.479924
 41
5.564903564812631
 42
7.135699891607316
  0
ARC
  5
193
330
175
100
AcDbEntity
  8
0
  6
Continuous
 62
     0
370
     0
100
AcDbCircle
 10
583.383403
 20
112.976801
 30
0.0
 40
0.5662495757484076
100
AcDbArc
 50
308.05441
 51
14.798583
  0
ELLIPSE
  5
194
330
175
100
AcDbEntity
  8
0
  6
Continuous
 62
     0
370
     0
100
AcDbEllipse
 10
562.019265
 20
101.149489
 30
0.0
 11
-0.499999699218638
 21
0.866025577440564
 31
0.0
210
0.0
220
0.0
230
-1.0
 40
0.577351
 41
2.19911465699193
 42
3.743520622375309
  0
ARC
  5
195
330
175
100
AcDbEntity
  8
0
  6
Continuous
 62
     0
370
     0
100
AcDbCircle
 10
556.94867
 20
105.272348
 30
0.0
 40
1.838945376635464
100
AcDbArc
 50
252.823285
 51
297.96819
  0
ELLIPSE
  5
196
330
175
100
AcDbEntity
  8
0
  6
Continuous
 62
     0
370
     0
100
AcDbEllipse
 10
547.501614
 20
179.542386
 30
0.0
 11
0.9920194446164271
 21
0.1260849773085834
 31
0.0
210
0.0
220
0.0
230
-1.0
 40
0.479924
 41
0.8525145844277333
 42
2.423310911223397
  0
ARC
  5
197
330
175
100
AcDbEntity
  8
0
  6
Continuous
 62
     0
370
     0
100
AcDbCircle
 10
550.203908
 20
186.770592
 30
0.0
 40
1.583971673712984
100
AcDbArc
 50
8.44891
 51
56.754358
  0
ELLIPSE
  5
198
330
175
100
AcDbEntity
  8
0
  6
Continuous
 62
     0
370
     0
100
AcDbEllipse
 10
572.285491
 20
199.526254
 30
0.0
 11
0.4999996992186457
 21
-0.8660255774405673
 31
0.0
210
0.0
220
0.0
230
1.0
 40
0.577351
 41
0.9424779965978747
 42
2.356194936237956
  0
ARC
  5
199
330
175
100
AcDbEntity
  8
0
  6
Continuous
 62
     0
370
    30
100
AcDbCircle
 10
541.527414
 20
170.774174
 30
0.0
 40
10.41658033589271
100
AcDbArc
 50
158.243329
 51
181.133659
  0
LINE
  5
19A
330
175
100
AcDbEntity
  8
0
  6
Continuous
 62
     0
370
    30
100
AcDbLine
 10
531.112873
 20
170.568084
 30
0.0
 11
531.112869
 21
158.794043
 31
0.0
  0
LINE
  5
19B
330
175
100
AcDbEntity
  8
0
  6
Continuous
 62
     0
370
    30
100
AcDbLine
 10
536.336962
 20
185.171801
 30
0.0
 11
531.852844
 21
174.635242
 31
0.0
  0
ELLIPSE
  5
19C
330
175
100
AcDbEntity
  8
0
  6
Continuous
 62
     0
370
    30
100
AcDbEllipse
 10
531.819975
 20
159.202291
 30
0.0
 11
0.4999998158564491
 21
0.8660255100997436
 31
0.0
210
0.0
220
0.0
230
1.0
 40
0.57735
 41
2.356193966388271
 42
3.141592630739636
  0
LWPOLYLINE
  5
19D
330
175
100
AcDbEntity
  8
0
  6
Continuous
 62
     0
370
    30
100
AcDbPolyline
 90
       17
 70
     0
 43
0.0
 10
567.449646
 20
203.134705
 10
567.609619
 20
203.549667
 10
567.725281
 20
203.937515
 10
567.795959
 20
204.294998
 10
567.820801
 20
204.618896
 10
567.799011
 20
204.905869
 10
567.729126
 20
205.152405
 10
567.609619
 20
205.354935
 10
567.438965
 20
205.509842
 10
567.215637
 20
205.613571
 10
566.940491
 20
205.664093
 10
566.618042
 20
205.661713
 10
566.253235
 20
205.606934
 10
565.850891
 20
205.500229
 10
565.415894
 20
205.342133
 10
564.953125
 20
205.133133
 10
564.452515
 20
204.865112
  0
LINE
  5
19E
330
175
100
AcDbEntity
  8
0
  6
Continuous
 62
     0
370
    30
100
AcDbLine
 10
564.45252
 20
204.865117
 30
0.0
 11
543.239316
 21
192.617678
 31
0.0
  0
ARC
  5
19F
330
175
100
AcDbEntity
  8
0
  6
Continuous
 62
     0
370
    30
100
AcDbCircle
 10
552.983737
 20
176.662372
 30
0.0
 40
18.69560203143494
100
AcDbArc
 50
121.413761
 51
152.924979
  0
ARC
  5
1A0
330
175
100
AcDbEntity
  8
0
  6
Continuous
 62
     0
370
    30
100
AcDbCircle
 10
573.315818
 20
196.479167
 30
0.0
 40
4.887847464606594
100
AcDbArc
 50
3.934868
 51
56.967525
  0
ARC
  5
1A1
330
175
100
AcDbEntity
  8
0
  6
Continuous
 62
     0
370
    30
100
AcDbCircle
 10
560.211586
 20
103.932167
 30
0.0
 40
4.317193878552715
100
AcDbArc
 50
251.991778
 51
302.311682
  0
LINE
  5
1A2
330
175
100
AcDbEntity
  8
0
  6
Continuous
 62
     0
370
    30
100
AcDbLine
 10
562.519265
 20
100.283463
 30
0.0
 11
583.732468
 21
112.530902
 31
0.0
  0
ARC
  5
1A3
330
175
100
AcDbEntity
  8
0
  6
Continuous
 62
     0
370
    30
100
AcDbCircle
 10
578.578585
 20
120.240896
 30
0.0
 40
9.273940189982266
100
AcDbArc
 50
303.761368
 51
5.911449
  0
LINE
  5
1A4
330
175
100
AcDbEntity
  8
0
  6
Continuous
 62
     0
370
    30
100
AcDbLine
 10
587.803204
 20
121.19617
 30
0.0
 11
578.192118
 21
196.814885
 31
0.0
  0
LINE
  5
1A5
330
175
100
AcDbEntity
  8
0
  6
Continuous
 62
     0
370
    30
100
AcDbLine
 10
575.982304
 20
200.57582
 30
0.0
 11
567.38069
 21
205.541962
 31
0.0
  0
ARC
  5
1A6
330
175
100
AcDbEntity
  8
0
  6
Continuous
 62
     0
370
    30
100
AcDbCircle
 10
559.307928
 20
104.538146
 30
0.0
 40
4.584261697644719
100
AcDbArc
 50
182.943171
 51
246.582207
  0
ARC
  5
1A7
330
175
100
AcDbEntity
  8
0
  6
Continuous
 62
     0
370
    30
100
AcDbCircle
 10
538.304459
 20
140.829348
 30
0.0
 40
11.69192909989602
100
AcDbArc
 50
8.586369
 51
56.426553
  0
LINE
  5
1A8
330
175
100
AcDbEntity
  8
0
  6
Continuous
 62
     0
370
    30
100
AcDbLine
 10
554.729717
 20
104.302627
 30
0.0
 11
549.865349
 21
142.574816
 31
0.0
  0
LINE
  5
1A9
330
175
100
AcDbEntity
  8
0
  6
Continuous
 62
     0
370
    30
100
AcDbLine
 10
544.77016
 20
150.570801
 30
0.0
 11
531.319976
 21
158.336265
 31
0.0
  0
LWPOLYLINE
  5
1AA
330
175
100
AcDbEntity
  8
0
  6
Continuous
 62
     0
370
     0
100
AcDbPolyline
 90
      108
 70
     0
 43
0.0
 10
495.710663
 20
129.059296
 10
494.3479
 20
129.783432
 10
493.024689
 20
130.576538
 10
491.742096
 20
131.437836
 10
490.501221
 20
132.36647
 10
489.303131
 20
133.361542
 10
488.148865
 20
134.42218
 10
487.03949
 20
135.547501
 10
485.976074
 20
136.736633
 10
484.959564
 20
137.988602
 10
483.990784
 20
139.302185
 10
483.070526
 20
140.676132
 10
482.199585
 20
142.109207
 10
481.378723
 20
143.600174
 10
480.608765
 20
145.147766
 10
479.890442
 20
146.750732
 10
479.224396
 20
148.407654
 10
478.611115
 20
150.116989
 10
478.051056
 20
151.877136
 10
477.544739
 20
153.686554
 10
477.092621
 20
155.543686
 10
476.695221
 20
157.44696
 10
476.352936
 20
159.39476
 10
476.065979
 20
161.38533
 10
475.834564
 20
163.41684
 10
475.658813
 20
165.487457
 10
475.53891
 20
167.595383
 10
475.475006
 20
169.73877
 10
475.467255
 20
171.915817
 10
475.515717
 20
174.124603
 10
475.620239
 20
176.363144
 10
475.78064
 20
178.629425
 10
475.996735
 20
180.921432
 10
476.268402
 20
183.237152
 10
476.59549
 20
185.57457
 10
476.977753
 20
187.931686
 10
477.414856
 20
190.306396
 10
477.906311
 20
192.696579
 10
478.45163
 20
195.100113
 10
479.050293
 20
197.514893
 10
479.701874
 20
199.938766
 10
480.405853
 20
202.369629
 10
481.161682
 20
204.805344
 10
481.968628
 20
207.243774
 10
482.825867
 20
209.682755
 10
483.732605
 20
212.120148
 10
484.68811
 20
214.553772
 10
485.691559
 20
216.981506
 10
486.742157
 20
219.401184
 10
487.838989
 20
221.810684
 10
488.981018
 20
224.207901
 10
490.167145
 20
226.590729
 10
491.396362
 20
228.957092
 10
492.667542
 20
231.304871
 10
493.979706
 20
233.631973
 10
495.331696
 20
235.93631
 10
496.722321
 20
238.215881
 10
498.150299
 20
240.46875
 10
499.614288
 20
242.692917
 10
501.113037
 20
244.886429
 10
502.645264
 20
247.047318
 10
504.209656
 20
249.17363
 10
505.80484
 20
251.263443
 10
507.429413
 20
253.315018
 10
509.081879
 20
255.326584
 10
510.760742
 20
257.296387
 10
512.464539
 20
259.222687
 10
514.191833
 20
261.103668
 10
515.941162
 20
262.937653
 10
517.710876
 20
264.723053
 10
519.499512
 20
266.458344
 10
521.305359
 20
268.142059
 10
523.126831
 20
269.772736
 10
524.962463
 20
271.348907
 10
526.810486
 20
272.869049
 10
528.669373
 20
274.331757
 10
530.537476
 20
275.73587
 10
532.413147
 20
277.080231
 10
534.294739
 20
278.363678
 10
536.180481
 20
279.585052
 10
538.068848
 20
280.743256
 10
539.958069
 20
281.837097
 10
541.846558
 20
282.865631
 10
543.732666
 20
283.828094
 10
545.614685
 20
284.723663
 10
547.490967
 20
285.551605
 10
549.359863
 20
286.311127
 10
551.219727
 20
287.001495
 10
553.068909
 20
287.621918
 10
554.905762
 20
288.171997
 10
556.728699
 20
288.651337
 10
558.536133
 20
289.059601
 10
560.326416
 20
289.396393
 10
562.098022
 20
289.661407
 10
563.849243
 20
289.854248
 10
565.578613
 20
289.974731
 10
567.284668
 20
290.022797
 10
568.965881
 20
289.998505
 10
570.62085
 20
289.901917
 10
572.24823
 20
289.733032
 10
573.846436
 20
289.491943
 10
575.414062
 20
289.178619
 10
576.949707
 20
288.793488
 10
578.452026
 20
288.337067
 10
579.919556
 20
287.809906
 10
581.351013
 20
287.212555
 10
582.744934
 20
286.545624
 10
584.107239
 20
285.80545
  0
LWPOLYLINE
  5
1AB
330
175
100
AcDbEntity
  8
0
  6
Continuous
 62
     0
370
     0
100
AcDbPolyline
 90
       27
 70
     0
 43
0.0
 10
580.833191
 20
176.035217
 10
582.391052
 20
178.533157
 10
583.901733
 20
181.06192
 10
585.363403
 20
183.618576
 10
586.774658
 20
186.200577
 10
588.134338
 20
188.805527
 10
589.441162
 20
191.431015
 10
590.693909
 20
194.074234
 10
591.890991
 20
196.732208
 10
593.031067
 20
199.401947
 10
594.112793
 20
202.080429
 10
595.135132
 20
204.764633
 10
596.096924
 20
207.451584
 10
596.99707
 20
210.138657
 10
597.834778
 20
212.823318
 10
598.609131
 20
215.502991
 10
599.319336
 20
218.174789
 10
599.964539
 20
220.835648
 10
600.544067
 20
223.482513
 10
601.057129
 20
226.11235
 10
601.50293
 20
228.722092
 10
601.880859
 20
231.308685
 10
602.190491
 20
233.869003
 10
602.431702
 20
236.399887
 10
602.604248
 20
238.898193
 10
602.708008
 20
241.360733
 10
602.742798
 20
243.791336
  0
LWPOLYLINE
  5
1AC
330
175
100
AcDbEntity
  8
0
  6
Continuous
 62
     0
370
     0
100
AcDbPolyline
 90
      164
 70
     0
 43
0.0
 10
602.742798
 20
243.791336
 10
602.7146
 20
245.945511
 10
602.630127
 20
248.066666
 10
602.489502
 20
250.152649
 10
602.292908
 20
252.201294
 10
602.040405
 20
254.210449
 10
601.732239
 20
256.177948
 10
601.368469
 20
258.101624
 10
600.949402
 20
259.979584
 10
600.475708
 20
261.810242
 10
599.947876
 20
263.591949
 10
599.366455
 20
265.323151
 10
598.732056
 20
267.002289
 10
598.045227
 20
268.627686
 10
597.306519
 20
270.197876
 10
596.516663
 20
271.711639
 10
595.676208
 20
273.167908
 10
594.785889
 20
274.565552
 10
593.846497
 20
275.903442
 10
592.858887
 20
277.180389
 10
591.823914
 20
278.395081
 10
590.742432
 20
279.546417
 10
589.615601
 20
280.633423
 10
588.444458
 20
281.655121
 10
587.22998
 20
282.610596
 10
585.973145
 20
283.498993
 10
584.674805
 20
284.319641
 10
583.335754
 20
285.071747
 10
581.957336
 20
285.75473
 10
580.540894
 20
286.367981
 10
579.08783
 20
286.91095
 10
577.599548
 20
287.383057
 10
576.077454
 20
287.783752
 10
574.522949
 20
288.112488
 10
572.937439
 20
288.368805
 10
571.322327
 20
288.552612
 10
569.679199
 20
288.66391
 10
568.009399
 20
288.702606
 10
566.314453
 20
288.668701
 10
564.595825
 20
288.562164
 10
562.854919
 20
288.382935
 10
561.093323
 20
288.131256
 10
559.312683
 20
287.807434
 10
557.514648
 20
287.411835
 10
555.700745
 20
286.944855
 10
553.87262
 20
286.40683
 10
552.031921
 20
285.798096
 10
550.180298
 20
285.119141
 10
548.319397
 20
284.370667
 10
546.450867
 20
283.553436
 10
544.576416
 20
282.668243
 10
542.697754
 20
281.715851
 10
540.816467
 20
280.697021
 10
538.934265
 20
279.61261
 10
537.052917
 20
278.463531
 10
535.17395
 20
277.250916
 10
533.299133
 20
275.975952
 10
531.430176
 20
274.639801
 10
529.568665
 20
273.243622
 10
527.71637
 20
271.788544
 10
525.874878
 20
270.275818
 10
524.045898
 20
268.706818
 10
522.231018
 20
267.083069
 10
520.431763
 20
265.406036
 10
518.649902
 20
263.677277
 10
516.886902
 20
261.898254
 10
515.14447
 20
260.070435
 10
513.424133
 20
258.195496
 10
511.727417
 20
256.275116
 10
510.055786
 20
254.311142
 10
508.410706
 20
252.305298
 10
506.793701
 20
250.259399
 10
505.206268
 20
248.175217
 10
503.649841
 20
246.05452
 10
502.125793
 20
243.899246
 10
500.635406
 20
241.711395
 10
499.180054
 20
239.492935
 10
497.760956
 20
237.245865
 10
496.379486
 20
234.972183
 10
495.036896
 20
232.673859
 10
493.734467
 20
230.352921
 10
492.473236
 20
228.01149
 10
491.254333
 20
225.651672
 10
490.078766
 20
223.27562
 10
488.947662
 20
220.885437
 10
487.862061
 20
218.483246
 10
486.822998
 20
216.071182
 10
485.831421
 20
213.651398
 10
484.888092
 20
211.226059
 10
483.993835
 20
208.797348
 10
483.149445
 20
206.367447
 10
482.355713
 20
203.938522
 10
481.613403
 20
201.512756
 10
480.923248
 20
199.092331
 10
480.285828
 20
196.679367
 10
479.701599
 20
194.276047
 10
479.171082
 20
191.884491
 10
478.694702
 20
189.506836
 10
478.27298
 20
187.145264
 10
477.906433
 20
184.801895
 10
477.595337
 20
182.478821
 10
477.339905
 20
180.178085
 10
477.140259
 20
177.901703
 10
476.996613
 20
175.651718
 10
476.909088
 20
173.430176
 10
476.877869
 20
171.239105
 10
476.903076
 20
169.08049
 10
476.984589
 20
166.956238
 10
477.122284
 20
164.868179
 10
477.315948
 20
162.818146
 10
477.56546
 20
160.807999
 10
477.870605
 20
158.839584
 10
478.231262
 20
156.914719
 10
478.647095
 20
155.035156
 10
479.117676
 20
153.202484
 10
479.642456
 20
151.418289
 10
480.220978
 20
149.684128
 10
480.852753
 20
148.001617
 10
481.537292
 20
146.372299
 10
482.274048
 20
144.79776
 10
483.062347
 20
143.279312
 10
483.901398
 20
141.818253
 10
484.790375
 20
140.415817
 10
485.728485
 20
139.073257
 10
486.714966
 20
137.791855
 10
487.748993
 20
136.572845
 10
488.829681
 20
135.417374
 10
489.955994
 20
134.32637
 10
491.126862
 20
133.300705
 10
492.341187
 20
132.341263
 10
493.597961
 20
131.448959
 10
494.896057
 20
130.624649
 10
496.234406
 20
129.869202
 10
497.611786
 20
129.183258
 10
499.026917
 20
128.567307
 10
500.478485
 20
128.021835
 10
501.965179
 20
127.547302
 10
503.485687
 20
127.144203
 10
505.038727
 20
126.813019
 10
506.622955
 20
126.554138
 10
508.236877
 20
126.367668
 10
509.878998
 20
126.253662
 10
511.547882
 20
126.212173
 10
513.242004
 20
126.243279
 10
514.9599
 20
126.347023
 10
516.700012
 20
126.52346
 10
518.460876
 20
126.772423
 10
520.240845
 20
127.093536
 10
522.038269
 20
127.486443
 10
523.851624
 20
127.950775
 10
525.679199
 20
128.486176
 10
527.519409
 20
129.092255
 10
529.370667
 20
129.768616
 10
531.231262
 20
130.514511
 10
533.099487
 20
131.329178
 10
534.973755
 20
132.211853
 10
536.852356
 20
133.161728
 10
538.733521
 20
134.17804
 10
540.615723
 20
135.26001
 10
542.497131
 20
136.406677
 10
544.376221
 20
137.616913
 10
546.251221
 20
138.889542
 10
548.120422
 20
140.223419
 10
549.986633
 20
141.620758
  0
ELLIPSE
  5
1AD
330
175
100
AcDbEntity
  8
0
  6
Continuous
 62
     0
370
    30
100
AcDbEllipse
 10
531.325008
 20
212.356212
 30
0.0
 11
45.00000000000001
 21
77.94228634059948
 31
0.0
210
0.0
220
0.0
230
1.0
 40
0.57735
 41
-0.0000000228501555
 42
3.141592630739637
  0
LWPOLYLINE
  5
1AE
330
175
100
AcDbEntity
  8
0
  6
Continuous
 62
     0
370
     0
100
AcDbPolyline
 90
       51
 70
     0
 43
0.0
 10
536.498962
 20
218.339127
 10
535.903259
 20
218.325531
 10
535.325378
 20
218.380539
 10
534.771545
 20
218.505768
 10
534.247925
 20
218.701492
 10
533.759949
 20
218.966614
 10
533.312683
 20
219.298615
 10
532.910095
 20
219.693665
 10
532.555359
 20
220.14679
 10
532.25061
 20
220.652008
 10
531.996948
 20
221.202621
 10
531.794495
 20
221.791443
 10
531.642273
 20
222.411026
 10
531.538635
 20
223.053986
 10
531.481201
 20
223.713104
 10
531.466919
 20
224.382065
 10
531.494324
 20
225.079941
 10
531.565857
 20
225.817413
 10
531.684387
 20
226.590759
 10
531.852112
 20
227.395248
 10
532.070557
 20
228.225113
 10
532.340149
 20
229.073669
 10
532.660645
 20
229.93338
 10
533.030518
 20
230.796143
 10
533.447449
 20
231.653442
 10
533.907898
 20
232.496628
 10
534.407532
 20
233.317261
 10
534.941223
 20
234.107315
 10
535.503174
 20
234.859451
 10
536.08728
 20
235.567322
 10
536.687256
 20
236.225616
 10
537.296692
 20
236.830215
 10
537.909485
 20
237.378296
 10
538.52002
 20
237.86821
 10
539.122986
 20
238.2995
 10
539.713806
 20
238.672714
 10
540.300171
 20
238.99527
 10
540.899597
 20
239.275513
 10
541.508179
 20
239.507751
 10
542.12085
 20
239.686279
 10
542.732056
 20
239.805939
 10
543.335876
 20
239.862228
 10
543.925903
 20
239.851608
 10
544.495911
 20
239.771667
 10
545.039612
 20
239.621231
 10
545.551147
 20
239.400543
 10
546.025146
 20
239.111191
 10
546.456909
 20
238.756195
 10
546.842712
 20
238.339798
 10
547.17981
 20
237.867355
 10
547.468933
 20
237.339737
  0
LWPOLYLINE
  5
1AF
330
175
100
AcDbEntity
  8
0
  6
Continuous
 62
     0
370
     0
100
AcDbPolyline
 90
       66
 70
     0
 43
0.0
 10
531.112854
 20
169.10939
 10
530.336792
 20
169.269135
 10
529.589111
 20
169.499283
 10
528.873901
 20
169.799515
 10
528.195129
 20
170.168701
 10
527.556274
 20
170.605072
 10
526.960449
 20
171.10614
 10
526.410278
 20
171.668762
 10
525.907898
 20
172.289276
 10
525.455017
 20
172.96347
 10
525.052551
 20
173.686737
 10
524.701233
 20
174.454163
 10
524.40094
 20
175.260574
 10
524.151306
 20
176.100693
 10
523.951416
 20
176.969162
 10
523.799927
 20
177.860687
 10
523.695129
 20
178.770111
 10
523.635132
 20
179.692444
 10
523.617676
 20
180.623032
 10
523.641296
 20
181.579895
 10
523.707825
 20
182.577423
 10
523.819397
 20
183.613358
 10
523.977966
 20
184.684921
 10
524.185181
 20
185.788788
 10
524.442322
 20
186.921097
 10
524.750122
 20
188.077515
 10
525.109131
 20
189.253189
 10
525.519043
 20
190.442871
 10
525.979431
 20
191.640945
 10
526.489014
 20
192.841522
 10
527.046082
 20
194.038513
 10
527.648499
 20
195.225739
 10
528.293457
 20
196.397064
 10
528.977905
 20
197.546402
 10
529.698181
 20
198.667953
 10
530.450317
 20
199.75621
 10
531.230225
 20
200.806061
 10
532.033508
 20
201.812881
 10
532.855591
 20
202.772629
 10
533.691956
 20
203.681824
 10
534.538086
 20
204.537613
 10
535.389587
 20
205.337769
 10
536.242249
 20
206.08075
 10
537.09198
 20
206.765564
 10
537.93512
 20
207.391876
 10
538.768127
 20
207.959869
 10
539.587952
 20
208.4702
 10
540.400574
 20
208.928711
 10
541.226746
 20
209.346451
 10
542.064697
 20
209.719818
 10
542.911255
 20
210.044617
 10
543.762817
 20
210.316742
 10
544.615417
 20
210.532364
 10
545.465088
 20
210.687943
 10
546.307373
 20
210.78035
 10
547.137817
 20
210.806931
 10
547.952026
 20
210.765579
 10
548.7453
 20
210.6548
 10
549.513184
 20
210.47377
 10
550.251465
 20
210.222336
 10
550.956055
 20
209.901093
 10
551.623108
 20
209.511353
 10
552.249268
 20
209.055115
 10
552.831543
 20
208.535065
 10
553.367432
 20
207.954514
 10
553.860291
 20
207.309662
  0
LINE
  5
1B0
330
175
100
AcDbEntity
  8
0
  6
Continuous
 62
     0
370
    30
100
AcDbLine
 10
576.325009
 20
290.298497
 30
0.0
 11
584.103184
 21
285.807766
 31
0.0
  0
LINE
  5
1B1
330
175
100
AcDbEntity
  8
0
  6
Continuous
 62
     0
370
    30
100
AcDbLine
 10
486.325007
 20
134.413926
 30
0.0
 11
494.103182
 21
129.923195
 31
0.0
  0
LINE
  5
1B2
330
175
100
AcDbEntity
  8
0
  6
Continuous
 62
     0
370
    30
100
AcDbLine
 10
494.103183
 20
129.923194
 30
0.0
 11
495.745747
 21
129.040452
 31
0.0
  0
LINE
  5
1B3
330
175
100
AcDbEntity
  8
0
  6
Continuous
 62
     0
370
    30
100
AcDbLine
 10
584.107221
 20
285.805436
 30
0.0
 11
585.692617
 21
284.824511
 31
0.0
  0
LWPOLYLINE
  5
1B4
330
175
100
AcDbEntity
  8
0
  6
Continuous
 62
     0
370
    30
100
AcDbPolyline
 90
       28
 70
     0
 43
0.0
 10
603.035706
 20
244.199585
 10
603.008667
 20
246.324005
 10
602.927551
 20
248.417419
 10
602.79248
 20
250.477859
 10
602.603516
 20
252.503296
 10
602.360657
 20
254.491745
 10
602.064026
 20
256.441223
 10
601.713806
 20
258.349945
 10
601.310242
 20
260.2164
 10
600.85376
 20
262.039154
 10
600.344666
 20
263.816742
 10
599.783325
 20
265.547699
 10
599.169983
 20
267.23053
 10
598.505066
 20
268.86377
 10
597.78894
 20
270.445984
 10
597.022034
 20
271.97583
 10
596.205078
 20
273.452057
 10
595.338684
 20
274.873383
 10
594.423523
 20
276.238556
 10
593.460266
 20
277.546356
 10
592.449463
 20
278.795471
 10
591.391846
 20
279.98468
 10
590.288208
 20
281.112732
 10
589.139771
 20
282.178436
 10
587.948059
 20
283.180573
 10
586.714355
 20
284.118011
 10
585.440247
 20
284.989563
 10
584.107239
 20
285.80545
  0
LWPOLYLINE
  5
1B5
330
175
100
AcDbEntity
  8
0
  6
Continuous
 62
     0
370
    30
100
AcDbPolyline
 90
       34
 70
     0
 43
0.0
 10
550.022278
 20
141.340225
 10
548.211487
 20
139.978485
 10
546.393066
 20
138.672424
 10
544.568481
 20
137.423187
 10
542.739197
 20
136.231857
 10
540.906738
 20
135.099579
 10
539.07251
 20
134.027451
 10
537.237976
 20
133.016602
 10
535.404602
 20
132.067917
 10
533.573914
 20
131.181976
 10
531.747253
 20
130.359314
 10
529.926086
 20
129.600479
 10
528.111877
 20
128.906036
 10
526.30603
 20
128.27652
 10
524.51001
 20
127.712486
 10
522.72522
 20
127.214485
 10
520.953186
 20
126.783058
 10
519.195251
 20
126.418755
 10
517.452881
 20
126.122131
 10
515.727539
 20
125.89373
 10
514.020691
 20
125.733978
 10
512.333618
 20
125.642975
 10
510.667664
 20
125.620766
 10
509.024261
 20
125.667381
 10
507.404724
 20
125.782867
 10
505.810394
 20
125.967262
 10
504.242676
 20
126.220612
 10
502.702881
 20
126.542946
 10
501.192444
 20
126.934166
 10
499.712982
 20
127.393715
 10
498.266235
 20
127.920967
 10
496.853821
 20
128.515305
 10
495.477417
 20
129.176086
 10
494.10318
 20
129.923187
  0
LWPOLYLINE
  5
1B6
330
175
100
AcDbEntity
  8
0
  6
Continuous
 62
     0
370
    30
100
AcDbPolyline
 90
       27
 70
     0
 43
0.0
 10
603.035706
 20
244.199585
 10
603.000732
 20
241.744553
 10
602.895874
 20
239.251495
 10
602.721313
 20
236.723511
 10
602.477234
 20
234.163712
 10
602.163635
 20
231.575195
 10
601.780884
 20
228.96106
 10
601.32959
 20
226.324203
 10
600.810547
 20
223.667511
 10
600.224365
 20
220.993866
 10
599.57196
 20
218.306168
 10
598.853882
 20
215.6073
 10
598.071045
 20
212.900146
 10
597.22406
 20
210.187576
 10
596.313721
 20
207.472488
 10
595.340759
 20
204.757782
 10
594.305969
 20
202.046326
 10
593.210632
 20
199.341019
 10
592.056213
 20
196.644806
 10
590.844177
 20
193.960587
 10
589.575989
 20
191.29129
 10
588.253174
 20
188.639832
 10
586.877197
 20
186.009109
 10
585.449524
 20
183.402069
 10
583.971619
 20
180.821609
 10
582.444946
 20
178.27066
 10
580.869507
 20
175.749695
  0
ELLIPSE
  5
1B7
330
175
100
AcDbEntity
  8
0
  6
Continuous
 62
     0
370
     0
100
AcDbEllipse
 10
556.356589
 20
219.541381
 30
0.0
 11
5.325000278163954
 21
9.223171032098371
 31
0.0
210
0.0
220
0.0
230
1.0
 40
0.57735
 41
5.7711239518244
 42
8.912716605414193
  0
ELLIPSE
  5
1B8
330
175
100
AcDbEntity
  8
0
  6
Continuous
 62
     0
370
     0
100
AcDbEllipse
 10
556.356589
 20
219.541381
 30
0.0
 11
5.325000278163954
 21
9.223171032098371
 31
0.0
210
0.0
220
0.0
230
1.0
 40
0.57735
 41
2.629531298234607
 42
5.771123951824396
  0
ELLIPSE
  5
1B9
330
175
100
AcDbEntity
  8
0
  6
Continuous
 62
     0
370
     0
100
AcDbEllipse
 10
556.144457
 20
219.663856
 30
0.0
 11
5.475000277567715
 21
9.482978652200988
 31
0.0
210
0.0
220
0.0
230
1.0
 40
0.57735
 41
6.283184866110577
 42
8.912716605414193
  0
ELLIPSE
  5
1BA
330
175
100
AcDbEntity
  8
0
  6
Continuous
 62
     0
370
     0
100
AcDbEllipse
 10
556.144457
 20
219.663856
 30
0.0
 11
5.475000277567715
 21
9.482978652200988
 31
0.0
210
0.0
220
0.0
230
1.0
 40
0.57735
 41
2.629531298234608
 42
3.940784875490654
  0
ELLIPSE
  5
1BB
330
175
100
AcDbEntity
  8
0
  6
Continuous
 62
     0
370
     0
100
AcDbEllipse
 10
551.334288
 20
222.441008
 30
0.0
 11
5.475000128892019
 21
9.482978394687128
 31
0.0
210
0.0
220
0.0
230
1.0
 40
0.57735
 41
-0.0000000228501573
 42
2.629531298234606
  0
ELLIPSE
  5
1BC
330
175
100
AcDbEntity
  8
0
  6
Continuous
 62
     0
370
     0
100
AcDbEllipse
 10
551.334288
 20
222.441008
 30
0.0
 11
5.475000128892019
 21
9.482978394687128
 31
0.0
210
0.0
220
0.0
230
1.0
 40
0.57735
 41
2.629531298234606
 42
3.141592630739636
  0
ELLIPSE
  5
1BD
330
175
100
AcDbEntity
  8
0
  6
Continuous
 62
     0
370
     0
100
AcDbEllipse
 10
542.426585
 20
227.583872
 30
0.0
 11
4.449999853567217
 21
7.707625840052482
 31
0.0
210
0.0
220
0.0
230
1.0
 40
0.57735
 41
-0.0000000228501555
 42
2.629531298234604
  0
ELLIPSE
  5
1BE
330
175
100
AcDbEntity
  8
0
  6
Continuous
 62
     0
370
     0
100
AcDbEllipse
 10
542.426585
 20
227.583872
 30
0.0
 11
4.449999853567217
 21
7.707625840052482
 31
0.0
210
0.0
220
0.0
230
1.0
 40
0.57735
 41
2.629531298234604
 42
3.141592630739638
  0
ELLIPSE
  5
1BF
330
175
100
AcDbEntity
  8
0
  6
Continuous
 62
     0
370
    30
100
AcDbEllipse
 10
542.108387
 20
227.767584
 30
0.0
 11
-4.75000000000029
 21
-8.227241335952669
 31
0.0
210
0.0
220
0.0
230
-1.0
 40
0.57735
 41
5.92587839585121
 42
8.63937979737193
  0
ELLIPSE
  5
1C0
330
175
100
AcDbEntity
  8
0
  6
Continuous
 62
     0
370
    30
100
AcDbEllipse
 10
542.108387
 20
227.767584
 30
0.0
 11
-4.75000000000029
 21
-8.227241335952669
 31
0.0
210
0.0
220
0.0
230
-1.0
 40
0.57735
 41
2.356194490192344
 42
3.49889961061844
  0
ELLIPSE
  5
1C1
330
175
100
AcDbEntity
  8
0
  6
Continuous
 62
     0
370
    30
100
AcDbEllipse
 10
541.578057
 20
228.07377
 30
0.0
 11
-5.499999999978173
 21
-9.526279441591019
 31
0.0
210
0.0
220
0.0
230
-1.0
 40
0.57735
 41
5.654992592469735
 42
8.63937979737193
  0
ELLIPSE
  5
1C2
330
175
100
AcDbEntity
  8
0
  6
Continuous
 62
     0
370
    30
100
AcDbEllipse
 10
541.578057
 20
228.07377
 30
0.0
 11
-5.499999999978173
 21
-9.526279441591019
 31
0.0
210
0.0
220
0.0
230
-1.0
 40
0.57735
 41
2.356194490192345
 42
3.769785413999933
  0
LWPOLYLINE
  5
1C3
330
175
100
AcDbEntity
  8
0
  6
Continuous
 62
     0
370
    30
100
AcDbPolyline
 90
       30
 70
     0
 43
0.0
 10
546.876587
 20
235.291504
 10
546.429565
 20
235.504868
 10
545.948853
 20
235.649429
 10
545.440796
 20
235.723557
 10
544.910461
 20
235.727646
 10
544.362244
 20
235.662933
 10
543.800537
 20
235.530701
 10
543.229736
 20
235.33226
 10
542.654297
 20
235.069962
 10
542.078369
 20
234.74678
 10
541.506287
 20
234.365692
 10
540.942322
 20
233.929703
 10
540.390686
 20
233.441803
 10
539.855652
 20
232.905746
 10
539.341248
 20
232.326462
 10
538.85144
 20
231.708923
 10
538.390381
 20
231.058136
 10
537.962036
 20
230.379105
 10
537.570068
 20
229.677109
 10
537.217346
 20
228.958084
 10
536.906494
 20
228.228088
 10
536.640259
 20
227.493134
 10
536.421204
 20
226.759293
 10
536.251587
 20
226.032394
 10
536.132263
 20
225.317932
 10
536.063965
 20
224.621292
 10
536.047302
 20
223.947845
 10
536.083008
 20
223.302994
 10
536.171753
 20
222.692093
 10
536.317078
 20
222.108368
  0
LINE
  5
1C4
330
175
100
AcDbEntity
  8
0
  6
Continuous
 62
     0
370
    30
100
AcDbLine
 10
546.876586
 20
235.291499
 30
0.0
 11
552.519023
 21
232.033836
 31
0.0
  0
LINE
  5
1C5
330
175
100
AcDbEntity
  8
0
  6
Continuous
 62
     0
370
    30
100
AcDbLine
 10
537.976585
 20
219.876246
 30
0.0
 11
543.61894
 21
216.618631
 31
0.0
  0
LWPOLYLINE
  5
1C6
330
175
100
AcDbEntity
  8
0
  6
Continuous
 62
     0
370
    30
100
AcDbPolyline
 90
       33
 70
     0
 43
0.0
 10
556.809265
 20
231.923981
 10
556.318604
 20
232.162369
 10
555.792908
 20
232.332458
 10
555.237549
 20
232.432999
 10
554.657776
 20
232.462936
 10
554.058044
 20
232.422775
 10
553.442322
 20
232.314026
 10
552.814392
 20
232.138184
 10
552.178345
 20
231.896759
 10
551.537903
 20
231.591248
 10
550.897156
 20
231.223801
 10
550.260071
 20
230.797577
 10
549.630493
 20
230.315903
 10
549.012573
 20
229.782059
 10
548.410217
 20
229.199371
 10
547.827393
 20
228.571167
 10
547.267883
 20
227.901443
 10
546.735352
 20
227.195114
 10
546.233215
 20
226.457123
 10
545.765076
 20
225.692459
 10
545.334412
 20
224.906067
 10
544.94397
 20
224.103241
 10
544.595825
 20
223.289459
 10
544.292297
 20
222.470169
 10
544.035461
 20
221.650848
 10
543.827576
 20
220.836975
 10
543.670471
 20
220.033936
 10
543.56488
 20
219.246735
 10
543.511292
 20
218.480331
 10
543.510132
 20
217.73967
 10
543.561951
 20
217.029709
 10
543.667053
 20
216.355301
 10
543.828918
 20
215.708023
  0
LINE
  5
1C7
330
175
100
AcDbEntity
  8
0
  6
Continuous
 62
     0
370
    30
100
AcDbLine
 10
556.809288
 20
231.923987
 30
0.0
 11
561.619457
 21
229.146834
 31
0.0
  0
LINE
  5
1C8
330
175
100
AcDbEntity
  8
0
  6
Continuous
 62
     0
370
    30
100
AcDbLine
 10
545.859287
 20
212.95803
 30
0.0
 11
550.669457
 21
210.180877
 31
0.0
  0
LWPOLYLINE
  5
1C9
330
175
100
AcDbEntity
  8
0
  6
Continuous
 62
     0
370
    30
100
AcDbPolyline
 90
       33
 70
     0
 43
0.0
 10
563.684265
 20
226.279175
 10
563.831055
 20
225.645691
 10
563.926331
 20
224.970901
 10
563.969971
 20
224.260193
 10
563.961914
 20
223.518906
 10
563.902222
 20
222.752426
 10
563.79071
 20
221.966095
 10
563.627869
 20
221.165237
 10
563.415344
 20
220.355011
 10
563.154907
 20
219.540558
 10
562.848511
 20
218.727066
 10
562.497803
 20
217.919647
 10
562.105042
 20
217.123459
 10
561.673035
 20
216.343704
 10
561.204895
 20
215.585571
 10
560.703613
 20
214.854233
 10
560.172241
 20
214.154846
 10
559.614319
 20
213.49202
 10
559.03363
 20
212.869873
 10
558.43396
 20
212.292465
 10
557.819214
 20
211.763901
 10
557.193115
 20
211.287964
 10
556.559631
 20
210.867416
 10
555.922668
 20
210.504745
 10
555.286072
 20
210.202484
 10
554.653809
 20
209.96312
 10
554.029663
 20
209.789078
 10
553.417664
 20
209.681808
 10
552.821777
 20
209.642242
 10
552.245972
 20
209.67128
 10
551.694275
 20
209.769821
 10
551.171143
 20
209.93782
 10
550.669434
 20
210.180878
  0
ARC
  5
1CA
330
175
100
AcDbEntity
  8
0
  6
Continuous
 62
     0
370
    30
100
AcDbCircle
 10
559.174992
 20
225.209518
 30
0.0
 40
4.63442274414434
100
AcDbArc
 50
13.344633
 51
58.166068
  0
LWPOLYLINE
  5
1CB
330
175
100
AcDbEntity
  8
0
  6
Continuous
 62
     0
370
    30
100
AcDbPolyline
 90
       28
 70
     0
 43
0.0
 10
545.67926
 20
203.129807
 10
544.787781
 20
202.583191
 10
543.878479
 20
201.959503
 10
542.956543
 20
201.257675
 10
542.02771
 20
200.477646
 10
541.098389
 20
199.62056
 10
540.175415
 20
198.688705
 10
539.266113
 20
197.685715
 10
538.377869
 20
196.616455
 10
537.518066
 20
195.487076
 10
536.694092
 20
194.304855
 10
535.912842
 20
193.078079
 10
535.180664
 20
191.815826
 10
534.503235
 20
190.527832
 10
533.885254
 20
189.224136
 10
533.330688
 20
187.914871
 10
532.842224
 20
186.610031
 10
532.421509
 20
185.319168
 10
532.069275
 20
184.051254
 10
531.785034
 20
182.814423
 10
531.567444
 20
181.615891
 10
531.414429
 20
180.461838
 10
531.323059
 20
179.357407
 10
531.289917
 20
178.30661
 10
531.312073
 20
177.292084
 10
531.391724
 20
176.289871
 10
531.532349
 20
175.307617
 10
531.738037
 20
174.349701
  0
LWPOLYLINE
  5
1CC
330
175
100
AcDbEntity
  8
0
  6
Continuous
 62
     0
370
    30
100
AcDbPolyline
 90
       20
 70
     0
 43
0.0
 10
558.514221
 20
201.43663
 10
558.108093
 20
202.063324
 10
557.655029
 20
202.640045
 10
557.156616
 20
203.162659
 10
556.614746
 20
203.627472
 10
556.032043
 20
204.031418
 10
555.411499
 20
204.372009
 10
554.75647
 20
204.647491
 10
554.07074
 20
204.856796
 10
553.358398
 20
204.999557
 10
552.623657
 20
205.076187
 10
551.870911
 20
205.087723
 10
551.104675
 20
205.035889
 10
550.329224
 20
204.922989
 10
549.548889
 20
204.751846
 10
548.767761
 20
204.525711
 10
547.989807
 20
204.248199
 10
547.218628
 20
203.923187
 10
546.457458
 20
203.554764
 10
545.67926
 20
203.129807
  0
LINE
  5
1CD
330
175
100
AcDbEntity
  8
0
  6
Continuous
 62
     0
370
    30
100
AcDbLine
 10
556.32473
 20
203.83973
 30
0.0
 11
558.942291
 21
201.683787
 31
0.0
  0
ENDBLK
  5
1CF
330
175
100
AcDbEntity
  8
0
100
AcDbBlockEnd
  0
BLOCK
  5
232
330
1D1
100
AcDbEntity
  8
0
100
AcDbBlockBegin
  2
e
 70
     0
 10
171.278412
 20
0.000031
 30
0.0
  3
e
  1

  0
LINE
  5
1D2
330
1D1
100
AcDbEntity
  8
0
  6
Continuous
 62
     0
370
    30
100
AcDbLine
 10
97.196397
 20
475.700505
 30
0.0
 11
97.196397
 21
467.18837
 31
0.0
  0
LINE
  5
1D3
330
1D1
100
AcDbEntity
  8
0
  6
Continuous
 62
     0
370
    30
100
AcDbLine
 10
97.196397
 20
467.18837
 30
0.0
 11
97.196397
 21
431.500505
 31
0.0
  0
LINE
  5
1D4
330
1D1
100
AcDbEntity
  8
0
  6
Continuous
 62
     0
370
    30
100
AcDbLine
 10
138.596397
 20
466.266116
 30
0.0
 11
138.596397
 21
433.000505
 31
0.0
  0
LINE
  5
1D5
330
1D1
100
AcDbEntity
  8
0
  6
Continuous
 62
     0
370
    30
100
AcDbLine
 10
138.596397
 20
474.200505
 30
0.0
 11
138.596397
 21
466.266116
 31
0.0
  0
LINE
  5
1D6
330
1D1
100
AcDbEntity
  8
0
  6
Continuous
 62
     0
370
    30
100
AcDbLine
 10
137.096397
 20
475.700505
 30
0.0
 11
137.096397
 21
467.18837
 31
0.0
  0
LINE
  5
1D7
330
1D1
100
AcDbEntity
  8
0
  6
Continuous
 62
     0
370
    30
100
AcDbLine
 10
137.096397
 20
467.18837
 30
0.0
 11
137.096397
 21
431.500505
 31
0.0
  0
LINE
  5
1D8
330
1D1
100
AcDbEntity
  8
0
  6
Continuous
 62
     0
370
    30
100
AcDbLine
 10
137.096397
 20
475.700426
 30
0.0
 11
138.596397
 21
474.200432
 31
0.0
  0
LINE
  5
1D9
330
1D1
100
AcDbEntity
  8
0
  6
Continuous
 62
     0
370
    30
100
AcDbLine
 10
137.096397
 20
431.500581
 30
0.0
 11
138.596397
 21
433.000576
 31
0.0
  0
LINE
  5
1DA
330
1D1
100
AcDbEntity
  8
0
  6
Continuous
 62
     0
370
    30
100
AcDbLine
 10
117.496399
 20
431.500505
 30
0.0
 11
137.096397
 21
431.500505
 31
0.0
  0
LINE
  5
1DB
330
1D1
100
AcDbEntity
  8
0
  6
Continuous
 62
     0
370
    30
100
AcDbLine
 10
97.196397
 20
431.500505
 30
0.0
 11
105.496399
 21
431.500505
 31
0.0
  0
LINE
  5
1DC
330
1D1
100
AcDbEntity
  8
0
  6
Continuous
 62
     0
370
    30
100
AcDbLine
 10
117.496399
 20
475.700505
 30
0.0
 11
137.096397
 21
475.700505
 31
0.0
  0
LINE
  5
1DD
330
1D1
100
AcDbEntity
  8
0
  6
Continuous
 62
     0
370
    30
100
AcDbLine
 10
97.196397
 20
475.700505
 30
0.0
 11
105.496399
 21
475.700505
 31
0.0
  0
LINE
  5
1DE
330
1D1
100
AcDbEntity
  8
0
  6
Continuous
 62
     0
370
    30
100
AcDbLine
 10
76.774967
 20
430.350504
 30
0.0
 11
95.796401
 21
430.350499
 31
0.0
  0
LINE
  5
1DF
330
1D1
100
AcDbEntity
  8
0
  6
Continuous
 62
     0
370
     0
100
AcDbLine
 10
95.796401
 20
431.350499
 30
0.0
 11
76.774968
 21
431.350504
 31
0.0
  0
LINE
  5
1E0
330
1D1
100
AcDbEntity
  8
0
  6
Continuous
 62
     0
370
     0
100
AcDbLine
 10
76.774968
 20
431.350504
 30
0.0
 11
76.774967
 21
430.350504
 31
0.0
  0
ARC
  5
1E1
330
1D1
100
AcDbEntity
  8
0
  6
Continuous
 62
     0
370
    30
100
AcDbCircle
 10
76.774966
 20
423.350504
 30
0.0
 40
7.0
100
AcDbArc
 50
89.999986
 51
171.0
  0
LINE
  5
1E2
330
1D1
100
AcDbEntity
  8
0
  6
Continuous
 62
     0
370
    30
100
AcDbLine
 10
69.861147
 20
424.445545
 30
0.0
 11
62.981874
 21
381.011523
 31
0.0
  0
LINE
  5
1E3
330
1D1
100
AcDbEntity
  8
0
  6
Continuous
 62
     0
370
    30
100
AcDbLine
 10
62.981874
 20
381.011523
 30
0.0
 11
62.04294
 21
375.083331
 31
0.0
  0
ARC
  5
1E4
330
1D1
100
AcDbEntity
  8
0
  6
Continuous
 62
     0
370
    30
100
AcDbCircle
 10
61.055252
 20
375.239765
 30
0.0
 40
1.000000000000004
100
AcDbArc
 50
259.487944
 51
351.0
  0
LWPOLYLINE
  5
1E5
330
1D1
100
AcDbEntity
  8
0
  6
Continuous
 62
     0
370
     0
100
AcDbPolyline
 90
        7
 70
     0
 43
0.0
 10
62.981873
 20
381.011536
 10
62.949223
 20
381.016693
 10
62.853539
 20
381.03186
 10
62.701172
 20
381.055969
 10
62.502159
 20
381.087494
 10
62.269207
 20
381.12439
 10
61.994186
 20
381.167969
  0
LINE
  5
1E6
330
1D1
100
AcDbEntity
  8
0
  6
Continuous
 62
     0
370
     0
100
AcDbLine
 10
61.994186
 20
381.167957
 30
0.0
 11
60.87281
 21
374.256549
 31
0.0
  0
LINE
  5
1E7
330
1D1
100
AcDbEntity
  8
0
  6
Continuous
 62
     0
370
     0
100
AcDbLine
 10
69.861147
 20
424.445545
 30
0.0
 11
68.873459
 21
424.60198
 31
0.0
  0
LINE
  5
1E8
330
1D1
100
AcDbEntity
  8
0
  6
Continuous
 62
     0
370
     0
100
AcDbLine
 10
68.873459
 20
424.601979
 30
0.0
 11
61.994186
 21
381.167957
 31
0.0
  0
ARC
  5
1E9
330
1D1
100
AcDbEntity
  8
0
  6
Continuous
 62
     0
370
     0
100
AcDbCircle
 10
76.774966
 20
423.350504
 30
0.0
 40
7.999999999998884
100
AcDbArc
 50
89.999986
 51
171.0
  0
LINE
  5
1EA
330
1D1
100
AcDbEntity
  8
0
  6
Continuous
 62
     0
370
    30
100
AcDbLine
 10
59.039379
 20
381.689404
 30
0.0
 11
72.631542
 21
467.506939
 31
0.0
  0
LINE
  5
1EB
330
1D1
100
AcDbEntity
  8
0
  6
Continuous
 62
     0
370
    30
100
AcDbLine
 10
72.631542
 20
467.506939
 30
0.0
 11
73.581848
 21
473.506941
 31
0.0
  0
LWPOLYLINE
  5
1EC
330
1D1
100
AcDbEntity
  8
0
  6
Continuous
 62
     0
370
    30
100
AcDbPolyline
 90
       15
 70
     0
 43
0.0
 10
58.100445
 20
375.7612
 10
58.106327
 20
375.79837
 10
58.123878
 20
375.90918
 10
58.152905
 20
376.092407
 10
58.193012
 20
376.345642
 10
58.243729
 20
376.665863
 10
58.304394
 20
377.048889
 10
58.374268
 20
377.490051
 10
58.452461
 20
377.983765
 10
58.53801
 20
378.523895
 10
58.629829
 20
379.103607
 10
58.72678
 20
379.715729
 10
58.827637
 20
380.352509
 10
58.931149
 20
381.006073
 10
59.039379
 20
381.689392
  0
LINE
  5
1ED
330
1D1
100
AcDbEntity
  8
0
  6
Continuous
 62
     0
370
    30
100
AcDbLine
 10
85.647032
 20
474.350504
 30
0.0
 11
74.569537
 21
474.350507
 31
0.0
  0
LWPOLYLINE
  5
1EE
330
1D1
100
AcDbEntity
  8
0
  6
Continuous
 62
     0
370
     0
100
AcDbPolyline
 90
       17
 70
     0
 43
0.0
 10
74.569534
 20
474.350494
 10
74.564804
 20
474.315552
 10
74.550797
 20
474.212311
 10
74.527832
 20
474.043182
 10
74.496246
 20
473.810577
 10
74.456375
 20
473.516876
 10
74.408531
 20
473.164551
 10
74.353111
 20
472.756317
 10
74.290695
 20
472.2966
 10
74.221962
 20
471.790314
 10
74.147583
 20
471.242401
 10
74.068222
 20
470.657806
 10
73.984566
 20
470.041595
 10
73.897484
 20
469.400146
 10
73.807953
 20
468.740631
 10
73.716949
 20
468.070282
 10
73.619232
 20
467.350494
  0
LINE
  5
1EF
330
1D1
100
AcDbEntity
  8
0
  6
Continuous
 62
     0
370
     0
100
AcDbLine
 10
73.61923
 20
467.350504
 30
0.0
 11
88.408432
 21
467.350501
 31
0.0
  0
LINE
  5
1F0
330
1D1
100
AcDbEntity
  8
0
  6
Continuous
 62
     0
370
    30
100
AcDbLine
 10
60.87281
 20
374.256549
 30
0.0
 11
58.905692
 21
374.621561
 31
0.0
  0
LINE
  5
1F1
330
1D1
100
AcDbEntity
  8
0
  6
Continuous
 62
     0
370
     0
100
AcDbLine
 10
61.994186
 20
381.167957
 30
0.0
 11
60.027067
 21
381.532969
 31
0.0
  0
LINE
  5
1F2
330
1D1
100
AcDbEntity
  8
0
  6
Continuous
 62
     0
370
     0
100
AcDbLine
 10
60.027067
 20
381.532969
 30
0.0
 11
58.905692
 21
374.621561
 31
0.0
  0
LINE
  5
1F3
330
1D1
100
AcDbEntity
  8
0
  6
Continuous
 62
     0
370
     0
100
AcDbLine
 10
60.027067
 20
381.532969
 30
0.0
 11
73.61923
 21
467.350504
 31
0.0
  0
LINE
  5
1F4
330
1D1
100
AcDbEntity
  8
0
  6
Continuous
 62
     0
370
     0
100
AcDbLine
 10
59.039379
 20
381.689404
 30
0.0
 11
60.027068
 21
381.532969
 31
0.0
  0
LINE
  5
1F5
330
1D1
100
AcDbEntity
  8
0
  6
Continuous
 62
     0
370
     0
100
AcDbLine
 10
73.61923
 20
467.350505
 30
0.0
 11
72.631542
 21
467.506939
 31
0.0
  0
ARC
  5
1F6
330
1D1
100
AcDbEntity
  8
0
  6
Continuous
 62
     0
370
    30
100
AcDbCircle
 10
59.088134
 20
375.604777
 30
0.0
 40
1.000000000004031
100
AcDbArc
 50
171.0
 51
259.487944
  0
ARC
  5
1F7
330
1D1
100
AcDbEntity
  8
0
  6
Continuous
 62
     0
370
    30
100
AcDbCircle
 10
74.569537
 20
473.350507
 30
0.0
 40
1.000000000000002
100
AcDbArc
 50
89.999986
 51
171.0
  0
ARC
  5
1F8
330
1D1
100
AcDbEntity
  8
0
  6
Continuous
 62
     0
370
    30
100
AcDbCircle
 10
80.796401
 20
445.770693
 30
0.0
 40
14.99999999999775
100
AcDbArc
 50
0.0
 51
21.528529
  0
LINE
  5
1F9
330
1D1
100
AcDbEntity
  8
0
  6
Continuous
 62
     0
370
    30
100
AcDbLine
 10
95.796401
 20
445.770693
 30
0.0
 11
95.796401
 21
431.350499
 31
0.0
  0
LINE
  5
1FA
330
1D1
100
AcDbEntity
  8
0
  6
Continuous
 62
     0
370
    30
100
AcDbLine
 10
88.408432
 20
467.350501
 30
0.0
 11
94.749925
 21
451.27516
 31
0.0
  0
LINE
  5
1FB
330
1D1
100
AcDbEntity
  8
0
  6
Continuous
 62
     0
370
    30
100
AcDbLine
 10
95.796401
 20
430.350499
 30
0.0
 11
95.796401
 21
431.350499
 31
0.0
  0
LINE
  5
1FC
330
1D1
100
AcDbEntity
  8
0
  6
Continuous
 62
     0
370
    30
100
AcDbLine
 10
88.408432
 20
467.350501
 30
0.0
 11
85.647032
 21
474.350504
 31
0.0
  0
LINE
  5
1FD
330
1D1
100
AcDbEntity
  8
0
  6
Continuous
 62
     0
370
    30
100
AcDbLine
 10
95.904849
 20
433.378288
 30
0.0
 11
95.846168
 21
431.350499
 31
0.0
  0
LINE
  5
1FE
330
1D1
100
AcDbEntity
  8
0
  6
Continuous
 62
     0
370
    30
100
AcDbLine
 10
85.646846
 20
474.350367
 30
0.0
 11
87.380503
 21
470.675616
 31
0.0
  0
LWPOLYLINE
  5
1FF
330
1D1
100
AcDbEntity
  8
0
  6
Continuous
 62
     0
370
     0
100
AcDbPolyline
 90
       54
 70
     0
 43
0.0
 10
106.496399
 20
565.100525
 10
106.496399
 20
565.060852
 10
106.496399
 20
564.942139
 10
106.496399
 20
564.744507
 10
106.496399
 20
564.468262
 10
106.496399
 20
564.113586
 10
106.496399
 20
563.680664
 10
106.496399
 20
563.1698
 10
106.496399
 20
562.581421
 10
106.496399
 20
561.916138
 10
106.496399
 20
561.174683
 10
106.496399
 20
560.357727
 10
106.496399
 20
559.466003
 10
106.496399
 20
558.500122
 10
106.496399
 20
557.460938
 10
106.496399
 20
556.349243
 10
106.496399
 20
555.166199
 10
106.496399
 20
553.912842
 10
106.496399
 20
552.590271
 10
106.496399
 20
551.199463
 10
106.496399
 20
549.741577
 10
106.496399
 20
548.217712
 10
106.496399
 20
546.629578
 10
106.496399
 20
544.97876
 10
106.496399
 20
543.266907
 10
106.496399
 20
541.495667
 10
106.496399
 20
539.666748
 10
106.496399
 20
537.781799
 10
106.496399
 20
535.842346
 10
106.496399
 20
533.849915
 10
106.496399
 20
531.806091
 10
106.496399
 20
529.712402
 10
106.496399
 20
527.57074
 10
106.496399
 20
525.383057
 10
106.496399
 20
523.151245
 10
106.496399
 20
520.877319
 10
106.496399
 20
518.563477
 10
106.496399
 20
516.21167
 10
106.496399
 20
513.823914
 10
106.496399
 20
511.401855
 10
106.496399
 20
508.947388
 10
106.496399
 20
506.462341
 10
106.496399
 20
503.949036
 10
106.496399
 20
501.409821
 10
106.496399
 20
498.846924
 10
106.496391
 20
496.262756
 10
106.496391
 20
493.659546
 10
106.496391
 20
491.039673
 10
106.496391
 20
488.40564
 10
106.496391
 20
485.760193
 10
106.496391
 20
483.105988
 10
106.496391
 20
480.44577
 10
106.496391
 20
477.782227
 10
106.496391
 20
475.100494
  0
LINE
  5
200
330
1D1
100
AcDbEntity
  8
0
  6
Continuous
 62
     0
370
     0
100
AcDbLine
 10
106.496395
 20
475.100506
 30
0.0
 11
106.496399
 21
385.100506
 31
0.0
  0
LWPOLYLINE
  5
201
330
1D1
100
AcDbEntity
  8
0
  6
Continuous
 62
     0
370
    30
100
AcDbPolyline
 90
       54
 70
     0
 43
0.0
 10
105.496399
 20
386.100494
 10
105.496399
 20
386.139679
 10
105.496399
 20
386.25708
 10
105.496399
 20
386.452454
 10
105.496399
 20
386.725586
 10
105.496399
 20
387.076263
 10
105.496399
 20
387.504242
 10
105.496399
 20
388.009308
 10
105.496399
 20
388.591064
 10
105.496399
 20
389.24881
 10
105.496399
 20
389.981873
 10
105.496399
 20
390.789581
 10
105.496399
 20
391.671234
 10
105.496399
 20
392.626129
 10
105.496399
 20
393.653595
 10
105.496399
 20
394.752686
 10
105.496399
 20
395.922333
 10
105.496399
 20
397.161499
 10
105.496399
 20
398.469116
 10
105.496399
 20
399.844177
 10
105.496399
 20
401.285583
 10
105.496399
 20
402.792175
 10
105.496399
 20
404.362396
 10
105.496399
 20
405.994568
 10
105.496399
 20
407.687042
 10
105.496399
 20
409.438232
 10
105.496399
 20
411.24649
 10
105.496399
 20
413.110168
 10
105.496399
 20
415.027679
 10
105.496399
 20
416.997589
 10
105.496399
 20
419.018341
 10
105.496399
 20
421.088379
 10
105.496399
 20
423.205841
 10
105.496399
 20
425.368866
 10
105.496399
 20
427.57547
 10
105.496399
 20
429.8237
 10
105.496399
 20
432.11145
 10
105.496399
 20
434.436707
 10
105.496399
 20
436.797577
 10
105.496399
 20
439.192291
 10
105.496399
 20
441.61911
 10
105.496399
 20
444.076141
 10
105.496399
 20
446.561127
 10
105.496399
 20
449.071777
 10
105.496399
 20
451.605774
 10
105.496399
 20
454.160889
 10
105.496399
 20
456.734802
 10
105.496391
 20
459.325226
 10
105.496391
 20
461.929626
 10
105.496391
 20
464.545349
 10
105.496391
 20
467.169708
 10
105.496391
 20
469.800079
 10
105.496391
 20
472.433746
 10
105.496391
 20
475.100494
  0
LINE
  5
202
330
1D1
100
AcDbEntity
  8
0
  6
Continuous
 62
     0
370
    30
100
AcDbLine
 10
105.496395
 20
475.100506
 30
0.0
 11
105.496399
 21
564.100506
 31
0.0
  0
LINE
  5
203
330
1D1
100
AcDbEntity
  8
0
  6
Continuous
 62
     0
370
    30
100
AcDbLine
 10
117.496399
 20
385.273105
 30
0.0
 11
117.496399
 21
475.100506
 31
0.0
  0
LINE
  5
204
330
1D1
100
AcDbEntity
  8
0
  6
Continuous
 62
     0
370
    30
100
AcDbLine
 10
117.496399
 20
475.100506
 30
0.0
 11
117.496399
 21
565.100506
 31
0.0
  0
LINE
  5
205
330
1D1
100
AcDbEntity
  8
0
  6
Continuous
 62
     0
370
    30
100
AcDbLine
 10
114.496399
 20
385.158581
 30
0.0
 11
115.23758
 21
385.198494
 31
0.0
  0
LINE
  5
206
330
1D1
100
AcDbEntity
  8
0
  6
Continuous
 62
     0
370
    30
100
AcDbLine
 10
115.23758
 20
385.198494
 30
0.0
 11
116.755218
 21
385.218407
 31
0.0
  0
LINE
  5
207
330
1D1
100
AcDbEntity
  8
0
  6
Continuous
 62
     0
370
    30
100
AcDbLine
 10
116.755218
 20
385.218407
 30
0.0
 11
117.496399
 21
385.273105
 31
0.0
  0
LINE
  5
208
330
1D1
100
AcDbEntity
  8
0
  6
Continuous
 62
     0
370
    30
100
AcDbLine
 10
117.496399
 20
565.100506
 30
0.0
 11
106.496399
 21
565.100506
 31
0.0
  0
LINE
  5
209
330
1D1
100
AcDbEntity
  8
0
  6
Continuous
 62
     0
370
    30
100
AcDbLine
 10
114.496399
 20
385.100506
 30
0.0
 11
106.496399
 21
385.100506
 31
0.0
  0
ARC
  5
20A
330
1D1
100
AcDbEntity
  8
0
  6
Continuous
 62
     0
370
    30
100
AcDbCircle
 10
106.499856
 20
386.103963
 30
0.0
 40
1.003462686668045
100
AcDbArc
 50
180.197373
 51
269.802627
  0
ARC
  5
20B
330
1D1
100
AcDbEntity
  8
0
  6
Continuous
 62
     0
370
    30
100
AcDbCircle
 10
106.499856
 20
564.097049
 30
0.0
 40
1.003462686671617
100
AcDbArc
 50
90.197373
 51
179.802627
  0
LINE
  5
20C
330
1D1
100
AcDbEntity
  8
0
  6
Continuous
 62
     0
370
     0
100
AcDbLine
 10
82.396398
 20
504.556413
 30
0.0
 11
82.396398
 21
512.550506
 31
0.0
  0
LINE
  5
20D
330
1D1
100
AcDbEntity
  8
0
  6
Continuous
 62
     0
370
     0
100
AcDbLine
 10
82.396398
 20
490.650505
 30
0.0
 11
82.396398
 21
504.556413
 31
0.0
  0
LINE
  5
20E
330
1D1
100
AcDbEntity
  8
0
  6
Continuous
 62
     0
370
     0
100
AcDbLine
 10
89.199005
 20
504.556413
 30
0.0
 11
89.199005
 21
512.550506
 31
0.0
  0
LINE
  5
20F
330
1D1
100
AcDbEntity
  8
0
  6
Continuous
 62
     0
370
     0
100
AcDbLine
 10
89.199005
 20
490.650506
 30
0.0
 11
89.199005
 21
504.556413
 31
0.0
  0
LINE
  5
210
330
1D1
100
AcDbEntity
  8
0
  6
Continuous
 62
     0
370
     0
100
AcDbLine
 10
89.498993
 20
512.253124
 30
0.0
 11
89.498993
 21
511.49178
 31
0.0
  0
LINE
  5
211
330
1D1
100
AcDbEntity
  8
0
  6
Continuous
 62
     0
370
     0
100
AcDbLine
 10
89.498993
 20
504.476136
 30
0.0
 11
89.498993
 21
512.253124
 31
0.0
  0
LINE
  5
212
330
1D1
100
AcDbEntity
  8
0
  6
Continuous
 62
     0
370
     0
100
AcDbLine
 10
89.498993
 20
490.947888
 30
0.0
 11
89.498993
 21
504.476136
 31
0.0
  0
LINE
  5
213
330
1D1
100
AcDbEntity
  8
0
  6
Continuous
 62
     0
370
     0
100
AcDbLine
 10
89.498993
 20
491.709232
 30
0.0
 11
89.498993
 21
490.947888
 31
0.0
  0
LINE
  5
214
330
1D1
100
AcDbEntity
  8
0
  6
Continuous
 62
     0
370
     0
100
AcDbLine
 10
89.505637
 20
504.270614
 30
0.0
 11
89.505637
 21
511.49178
 31
0.0
  0
LINE
  5
215
330
1D1
100
AcDbEntity
  8
0
  6
Continuous
 62
     0
370
     0
100
AcDbLine
 10
89.505637
 20
491.709232
 30
0.0
 11
89.505637
 21
504.270614
 31
0.0
  0
LINE
  5
216
330
1D1
100
AcDbEntity
  8
0
  6
Continuous
 62
     0
370
     0
100
AcDbLine
 10
90.505599
 20
504.003024
 30
0.0
 11
90.505599
 21
510.500506
 31
0.0
  0
LINE
  5
217
330
1D1
100
AcDbEntity
  8
0
  6
Continuous
 62
     0
370
     0
100
AcDbLine
 10
90.505599
 20
492.700506
 30
0.0
 11
90.505599
 21
504.003024
 31
0.0
  0
LINE
  5
218
330
1D1
100
AcDbEntity
  8
0
  6
Continuous
 62
     0
370
     0
100
AcDbLine
 10
101.796398
 20
504.003024
 30
0.0
 11
101.796398
 21
510.500506
 31
0.0
  0
LINE
  5
219
330
1D1
100
AcDbEntity
  8
0
  6
Continuous
 62
     0
370
     0
100
AcDbLine
 10
101.796398
 20
492.700506
 30
0.0
 11
101.796398
 21
504.003024
 31
0.0
  0
LINE
  5
21A
330
1D1
100
AcDbEntity
  8
0
  6
Continuous
 62
     0
370
    30
100
AcDbLine
 10
102.996398
 20
492.100506
 30
0.0
 11
102.246398
 21
492.100506
 31
0.0
  0
LINE
  5
21B
330
1D1
100
AcDbEntity
  8
0
  6
Continuous
 62
     0
370
    30
100
AcDbLine
 10
102.246398
 20
511.100506
 30
0.0
 11
102.246398
 21
492.100506
 31
0.0
  0
LINE
  5
21C
330
1D1
100
AcDbEntity
  8
0
  6
Continuous
 62
     0
370
    30
100
AcDbLine
 10
102.996398
 20
512.600506
 30
0.0
 11
102.996398
 21
490.600506
 31
0.0
  0
LINE
  5
21D
330
1D1
100
AcDbEntity
  8
0
  6
Continuous
 62
     0
370
    30
100
AcDbLine
 10
117.496399
 20
490.600506
 30
0.0
 11
131.446398
 21
490.600506
 31
0.0
  0
LINE
  5
21E
330
1D1
100
AcDbEntity
  8
0
  6
Continuous
 62
     0
370
    30
100
AcDbLine
 10
102.996398
 20
490.600506
 30
0.0
 11
105.496399
 21
490.600506
 31
0.0
  0
LINE
  5
21F
330
1D1
100
AcDbEntity
  8
0
  6
Continuous
 62
     0
370
    30
100
AcDbLine
 10
131.446398
 20
490.600506
 30
0.0
 11
131.446398
 21
496.100506
 31
0.0
  0
LINE
  5
220
330
1D1
100
AcDbEntity
  8
0
  6
Continuous
 62
     0
370
    30
100
AcDbLine
 10
131.446398
 20
496.100506
 30
0.0
 11
131.446398
 21
507.100506
 31
0.0
  0
LINE
  5
221
330
1D1
100
AcDbEntity
  8
0
  6
Continuous
 62
     0
370
    30
100
AcDbLine
 10
131.446398
 20
507.100506
 30
0.0
 11
131.446398
 21
512.600506
 31
0.0
  0
LINE
  5
222
330
1D1
100
AcDbEntity
  8
0
  6
Continuous
 62
     0
370
    30
100
AcDbLine
 10
117.496399
 20
512.600506
 30
0.0
 11
131.446398
 21
512.600506
 31
0.0
  0
LINE
  5
223
330
1D1
100
AcDbEntity
  8
0
  6
Continuous
 62
     0
370
    30
100
AcDbLine
 10
102.996398
 20
512.600506
 30
0.0
 11
105.496399
 21
512.600506
 31
0.0
  0
LINE
  5
224
330
1D1
100
AcDbEntity
  8
0
  6
Continuous
 62
     0
370
    30
100
AcDbLine
 10
102.246398
 20
511.100506
 30
0.0
 11
102.996398
 21
511.100506
 31
0.0
  0
LINE
  5
225
330
1D1
100
AcDbEntity
  8
0
  6
Continuous
 62
     0
370
    30
100
AcDbLine
 10
89.498993
 20
503.700506
 30
0.0
 11
89.199005
 21
503.700506
 31
0.0
  0
LINE
  5
226
330
1D1
100
AcDbEntity
  8
0
  6
Continuous
 62
     0
370
    30
100
AcDbLine
 10
89.498993
 20
499.500506
 30
0.0
 11
89.199005
 21
499.500506
 31
0.0
  0
LINE
  5
227
330
1D1
100
AcDbEntity
  8
0
  6
Continuous
 62
     0
370
    30
100
AcDbLine
 10
102.096398
 20
508.600506
 30
0.0
 11
101.796398
 21
508.600506
 31
0.0
  0
LINE
  5
228
330
1D1
100
AcDbEntity
  8
0
  6
Continuous
 62
     0
370
    30
100
AcDbLine
 10
102.096398
 20
494.600506
 30
0.0
 11
101.796398
 21
494.600506
 31
0.0
  0
LINE
  5
229
330
1D1
100
AcDbEntity
  8
0
  6
Continuous
 62
     0
370
    30
100
AcDbLine
 10
101.796398
 20
510.500506
 30
0.0
 11
90.505599
 21
510.500506
 31
0.0
  0
LINE
  5
22A
330
1D1
100
AcDbEntity
  8
0
  6
Continuous
 62
     0
370
    30
100
AcDbLine
 10
101.796398
 20
492.700506
 30
0.0
 11
90.505599
 21
492.700506
 31
0.0
  0
ARC
  5
22B
330
1D1
100
AcDbEntity
  8
0
  6
Continuous
 62
     0
370
    30
100
AcDbCircle
 10
90.505605
 20
511.500513
 30
0.0
 40
1.000005910477094
100
AcDbArc
 50
180.500379
 51
268.360236
  0
ARC
  5
22C
330
1D1
100
AcDbEntity
  8
0
  6
Continuous
 62
     0
370
    30
100
AcDbCircle
 10
90.505605
 20
491.700499
 30
0.0
 40
1.000005910474646
100
AcDbArc
 50
91.639764
 51
179.499621
  0
LINE
  5
22D
330
1D1
100
AcDbEntity
  8
0
  6
Continuous
 62
     0
370
    30
100
AcDbLine
 10
89.199005
 20
512.550506
 30
0.0
 11
82.396398
 21
512.550506
 31
0.0
  0
LINE
  5
22E
330
1D1
100
AcDbEntity
  8
0
  6
Continuous
 62
     0
370
    30
100
AcDbLine
 10
89.199005
 20
490.650505
 30
0.0
 11
82.396398
 21
490.650505
 31
0.0
  0
ARC
  5
22F
330
1D1
100
AcDbEntity
  8
0
  6
Continuous
 62
     0
370
    30
100
AcDbCircle
 10
98.566302
 20
453.496329
 30
0.0
 40
20.50000000000103
100
AcDbArc
 50
93.831629
 51
123.069008
  0
LINE
  5
230
330
1D1
100
AcDbEntity
  8
0
  6
Continuous
 62
     0
370
    30
100
AcDbLine
 10
96.696396
 20
433.388854
 30
0.0
 11
97.196396
 21
433.349024
 31
0.0
  0
LINE
  5
231
330
1D1
100
AcDbEntity
  8
0
  6
Continuous
 62
     0
370
    30
100
AcDbLine
 10
96.696396
 20
433.290143
 30
0.0
 11
95.904849
 21
433.378288
 31
0.0
  0
ENDBLK
  5
233
330
1D1
100
AcDbEntity
  8
0
100
AcDbBlockEnd
  0
ENDSEC
  0
SECTION
  2
ENTITIES
  0
INSERT
  5
AA
330
1F
100
AcDbEntity
  8
0
  6
Continuous
 62
     7
420
 16250871
370
     0
100
AcDbBlockReference
  2
a
 10
203.544144
 20
85.18631
 30
0.0
  0
INSERT
  5
112
330
1F
100
AcDbEntity
  8
0
  6
Continuous
 62
     7
420
 16250871
370
     0
100
AcDbBlockReference
  2
b
 10
203.544144
 20
85.18631
 30
0.0
  0
INSERT
  5
174
330
1F
100
AcDbEntity
  8
0
  6
Continuous
 62
     7
420
 16250871
370
     0
100
AcDbBlockReference
  2
c
 10
203.544144
 20
85.18631
 30
0.0
  0
INSERT
  5
1D0
330
1F
100
AcDbEntity
  8
0
  6
Continuous
 62
     7
420
 16250871
370
     0
100
AcDbBlockReference
  2
d
 10
203.544144
 20
85.18631
 30
0.0
  0
INSERT
  5
234
330
1F
100
AcDbEntity
  8
0
  6
Continuous
 62
     7
420
 16250871
370
     0
100
AcDbBlockReference
  2
e
 10
171.278412
 20
0.000031
 30
0.0
  0
ENDSEC
  0
SECTION
  2
OBJECTS
  0
DICTIONARY
  5
C
330
0
100
AcDbDictionary
281
     1
  3
ACAD_DETAILVIEWSTYLE
350
26C
  3
ACAD_GROUP
350
D
  3
ACAD_LAYOUT
350
1A
  3
ACAD_MATERIAL
350
43
  3
ACAD_MLEADERSTYLE
350
6B
  3
ACAD_MLINESTYLE
350
17
  3
ACAD_PLOTSETTINGS
350
19
  3
ACAD_PLOTSTYLENAME
350
E
  3
ACAD_SCALELIST
350
47
  3
ACAD_SECTIONVIEWSTYLE
350
26D
  3
ACAD_TABLESTYLE
350
69
  3
ACAD_VISUALSTYLE
350
2A
  3
ACDB_RECOMPOSE_DATA
350
269
  3
AcDbVariableDictionary
350
235
  0
SUN
  5
6D
330
29
100
AcDbSun
 90
        1
290
     0
 63
     7
421
 16777215
 40
1.0
291
     1
 91
  2455826
 92
 54000000
292
     0
 70
     2
 71
   256
280
     1
  0
DICTIONARY
  5
26C
102
{ACAD_REACTORS
330
C
102
}
330
C
100
AcDbDictionary
281
     1
  0
DICTIONARY
  5
D
102
{ACAD_REACTORS
330
C
102
}
330
C
100
AcDbDictionary
281
     1
  0
DICTIONARY
  5
1A
102
{ACAD_REACTORS
330
C
102
}
330
C
100
AcDbDictionary
281
     1
  3
Layout1
350
1E
  3
Layout2
350
26
  3
Model
350
22
  0
DICTIONARY
  5
43
102
{ACAD_REACTORS
330
C
102
}
330
C
100
AcDbDictionary
281
     1
  3
ByBlock
350
45
  3
ByLayer
350
44
  3
Global
350
46
  0
DICTIONARY
  5
6B
102
{ACAD_REACTORS
330
C
102
}
330
C
100
AcDbDictionary
281
     1
  3
Standard
350
6C
  0
DICTIONARY
  5
17
102
{ACAD_REACTORS
330
C
102
}
330
C
100
AcDbDictionary
281
     1
  3
Standard
350
18
  0
DICTIONARY
  5
19
102
{ACAD_REACTORS
330
C
102
}
330
C
100
AcDbDictionary
281
     1
  0
ACDBDICTIONARYWDFLT
  5
E
102
{ACAD_REACTORS
330
C
102
}
330
C
100
AcDbDictionary
281
     1
  3
Normal
350
F
100
AcDbDictionaryWithDefault
340
F
  0
DICTIONARY
  5
47
102
{ACAD_REACTORS
330
C
102
}
330
C
100
AcDbDictionary
281
     1
  3
A0
350
48
  3
A1
350
49
  3
A2
350
4A
  3
A3
350
4B
  3
A4
350
4C
  3
A5
350
4D
  3
A6
350
4E
  3
A7
350
4F
  3
A8
350
50
  3
A9
350
51
  3
B0
350
52
  3
B1
350
53
  3
B2
350
54
  3
B3
350
55
  3
B4
350
56
  3
B5
350
57
  3
B6
350
58
  3
B7
350
59
  3
B8
350
5A
  3
B9
350
5B
  3
C0
350
5C
  3
C1
350
5D
  3
C2
350
5E
  3
C3
350
5F
  3
C4
350
60
  3
C5
350
61
  3
C6
350
62
  3
C7
350
63
  3
C8
350
64
  3
C9
350
65
  3
D0
350
66
  3
D1
350
67
  3
D2
350
68
  0
DICTIONARY
  5
26D
102
{ACAD_REACTORS
330
C
102
}
330
C
100
AcDbDictionary
281
     1
  0
DICTIONARY
  5
69
102
{ACAD_REACTORS
330
C
102
}
330
C
100
AcDbDictionary
281
     1
  3
Standard
350
6A
  0
DICTIONARY
  5
2A
102
{ACAD_REACTORS
330
C
102
}
330
C
100
AcDbDictionary
281
     1
  3
2dWireframe
350
2F
  3
Basic
350
32
  3
Brighten
350
36
  3
ColorChange
350
3A
  3
Conceptual
350
34
  3
Dim
350
35
  3
EdgeColorOff
350
3D
  3
Facepattern
350
39
  3
Flat
350
2B
  3
FlatWithEdges
350
2C
  3
Gouraud
350
2D
  3
GouraudWithEdges
350
2E
  3
Hidden
350
31
  3
JitterOff
350
3B
  3
Linepattern
350
38
  3
OverhangOff
350
3C
  3
Realistic
350
33
  3
Shaded
350
42
  3
Shaded with edges
350
41
  3
Shades of Gray
350
3E
  3
Sketchy
350
3F
  3
Thicken
350
37
  3
Wireframe
350
30
  3
X-Ray
350
40
  0
XRECORD
  5
269
102
{ACAD_REACTORS
330
C
102
}
330
C
100
AcDbXrecord
280
     1
 90
        1
330
6A
  0
DICTIONARY
  5
235
102
{ACAD_REACTORS
330
C
102
}
330
C
100
AcDbDictionary
281
     1
  3
CANNOSCALE
350
236
  3
CMLEADERSTYLE
350
26B
  3
CTABLESTYLE
350
26A
  0
LAYOUT
  5
1E
102
{ACAD_REACTORS
330
1A
102
}
330
1A
100
AcDbPlotSettings
  1

  2
none_device
  4

  6

 40
0.0
 41
0.0
 42
0.0
 43
0.0
 44
0.0
 45
0.0
 46
0.0
 47
0.0
 48
0.0
 49
0.0
140
0.0
141
0.0
142
1.0
143
1.0
 70
   688
 72
     1
 73
     0
 74
     5
  7

 75
    16
 76
     0
 77
     2
 78
   300
147
1.0
148
0.0
149
0.0
100
AcDbLayout
  1
Layout1
 70
     1
 71
     1
 10
0.0
 20
0.0
 11
420.0
 21
297.0
 12
0.0
 22
0.0
 32
0.0
 14
1.000000E+20
 24
1.000000E+20
 34
1.000000E+20
 15
-1.000000E+20
 25
-1.000000E+20
 35
-1.000000E+20
146
0.0
 13
0.0
 23
0.0
 33
0.0
 16
1.0
 26
0.0
 36
0.0
 17
0.0
 27
1.0
 37
0.0
 76
     0
330
1B
  0
LAYOUT
  5
26
102
{ACAD_REACTORS
330
1A
102
}
330
1A
100
AcDbPlotSettings
  1

  2
none_device
  4

  6

 40
0.0
 41
0.0
 42
0.0
 43
0.0
 44
0.0
 45
0.0
 46
0.0
 47
0.0
 48
0.0
 49
0.0
140
0.0
141
0.0
142
1.0
143
1.0
 70
   688
 72
     1
 73
     0
 74
     5
  7

 75
    16
 76
     0
 77
     2
 78
   300
147
1.0
148
0.0
149
0.0
100
AcDbLayout
  1
Layout2
 70
     1
 71
     2
 10
0.0
 20
0.0
 11
0.0
 21
0.0
 12
0.0
 22
0.0
 32
0.0
 14
0.0
 24
0.0
 34
0.0
 15
0.0
 25
0.0
 35
0.0
146
0.0
 13
0.0
 23
0.0
 33
0.0
 16
1.0
 26
0.0
 36
0.0
 17
0.0
 27
1.0
 37
0.0
 76
     0
330
23
  0
LAYOUT
  5
22
102
{ACAD_REACTORS
330
1A
102
}
330
1A
100
AcDbPlotSettings
  1

  2
none_device
  4
Letter_(8.50_x_11.00_Inches)
  6

 40
6.35
 41
6.35
 42
6.350005
 43
6.350005
 44
215.9
 45
279.4
 46
0.0
 47
0.0
 48
0.0
 49
0.0
140
0.0
141
0.0
142
1.0
143
1.0
 70
  1712
 72
     1
 73
     0
 74
     0
  7

 75
     0
 76
     0
 77
     2
 78
   300
147
1.0
148
0.0
149
0.0
100
AcDbLayout
  1
Model
 70
     1
 71
     0
 10
0.0
 20
0.0
 11
420.0
 21
297.0
 12
0.0
 22
0.0
 32
0.0
 14
1.000000E+20
 24
1.000000E+20
 34
1.000000E+20
 15
-1.000000E+20
 25
-1.000000E+20
 35
-1.000000E+20
146
0.0
 13
0.0
 23
0.0
 33
0.0
 16
1.0
 26
0.0
 36
0.0
 17
0.0
 27
1.0
 37
0.0
 76
     0
330
1F
331
29
  0
MATERIAL
  5
45
102
{ACAD_REACTORS
330
43
102
}
330
43
100
AcDbMaterial
  1
ByBlock
 72
     1
 94
      127
  0
MATERIAL
  5
44
102
{ACAD_REACTORS
330
43
102
}
330
43
100
AcDbMaterial
  1
ByLayer
 72
     1
 94
      127
  0
MATERIAL
  5
46
102
{ACAD_REACTORS
330
43
102
}
330
43
100
AcDbMaterial
  1
Global
 72
     1
 94
      127
  0
MLEADERSTYLE
  5
6C
102
{ACAD_REACTORS
330
6B
102
}
330
6B
100
AcDbMLeaderStyle
179
     2
170
     2
171
     1
172
     0
 90
        2
 40
0.0
 41
0.0
173
     1
 91
-1056964608
340
14
 92
       -2
290
     1
 42
2.0
291
     1
 43
8.0
  3
Standard
341
0
 44
4.0
300

342
11
174
     1
178
     6
175
     1
176
     0
 93
-1056964608
 45
4.0
292
     0
297
     0
 46
4.0
343
0
 94
-1056964608
 47
1.0
 49
1.0
140
1.0
293
     1
141
0.0
294
     1
177
     0
142
1.0
295
     0
296
     0
143
3.75
271
     0
272
     9
273
     9
  0
MLINESTYLE
  5
18
102
{ACAD_REACTORS
330
17
102
}
330
17
100
AcDbMlineStyle
  2
Standard
 70
     0
  3

 62
   256
 51
90.0
 52
90.0
 71
     2
 49
0.5
 62
   256
  6
BYLAYER
 49
-0.5
 62
   256
  6
BYLAYER
  0
ACDBPLACEHOLDER
  5
F
102
{ACAD_REACTORS
330
E
102
}
330
E
  0
SCALE
  5
48
102
{ACAD_REACTORS
330
47
102
}
330
47
100
AcDbScale
 70
     0
300
1:1
140
1.0
141
1.0
290
     1
  0
SCALE
  5
49
102
{ACAD_REACTORS
330
47
102
}
330
47
100
AcDbScale
 70
     0
300
1:2
140
1.0
141
2.0
290
     0
  0
SCALE
  5
4A
102
{ACAD_REACTORS
330
47
102
}
330
47
100
AcDbScale
 70
     0
300
1:4
140
1.0
141
4.0
290
     0
  0
SCALE
  5
4B
102
{ACAD_REACTORS
330
47
102
}
330
47
100
AcDbScale
 70
     0
300
1:5
140
1.0
141
5.0
290
     0
  0
SCALE
  5
4C
102
{ACAD_REACTORS
330
47
102
}
330
47
100
AcDbScale
 70
     0
300
1:8
140
1.0
141
8.0
290
     0
  0
SCALE
  5
4D
102
{ACAD_REACTORS
330
47
102
}
330
47
100
AcDbScale
 70
     0
300
1:10
140
1.0
141
10.0
290
     0
  0
SCALE
  5
4E
102
{ACAD_REACTORS
330
47
102
}
330
47
100
AcDbScale
 70
     0
300
1:16
140
1.0
141
16.0
290
     0
  0
SCALE
  5
4F
102
{ACAD_REACTORS
330
47
102
}
330
47
100
AcDbScale
 70
     0
300
1:20
140
1.0
141
20.0
290
     0
  0
SCALE
  5
50
102
{ACAD_REACTORS
330
47
102
}
330
47
100
AcDbScale
 70
     0
300
1:30
140
1.0
141
30.0
290
     0
  0
SCALE
  5
51
102
{ACAD_REACTORS
330
47
102
}
330
47
100
AcDbScale
 70
     0
300
1:40
140
1.0
141
40.0
290
     0
  0
SCALE
  5
52
102
{ACAD_REACTORS
330
47
102
}
330
47
100
AcDbScale
 70
     0
300
1:50
140
1.0
141
50.0
290
     0
  0
SCALE
  5
53
102
{ACAD_REACTORS
330
47
102
}
330
47
100
AcDbScale
 70
     0
300
1:100
140
1.0
141
100.0
290
     0
  0
SCALE
  5
54
102
{ACAD_REACTORS
330
47
102
}
330
47
100
AcDbScale
 70
     0
300
2:1
140
2.0
141
1.0
290
     0
  0
SCALE
  5
55
102
{ACAD_REACTORS
330
47
102
}
330
47
100
AcDbScale
 70
     0
300
4:1
140
4.0
141
1.0
290
     0
  0
SCALE
  5
56
102
{ACAD_REACTORS
330
47
102
}
330
47
100
AcDbScale
 70
     0
300
8:1
140
8.0
141
1.0
290
     0
  0
SCALE
  5
57
102
{ACAD_REACTORS
330
47
102
}
330
47
100
AcDbScale
 70
     0
300
10:1
140
10.0
141
1.0
290
     0
  0
SCALE
  5
58
102
{ACAD_REACTORS
330
47
102
}
330
47
100
AcDbScale
 70
     0
300
100:1
140
100.0
141
1.0
290
     0
  0
SCALE
  5
59
102
{ACAD_REACTORS
330
47
102
}
330
47
100
AcDbScale
 70
     0
300
1/128" = 1'-0"
140
0.007812
141
12.0
290
     0
  0
SCALE
  5
5A
102
{ACAD_REACTORS
330
47
102
}
330
47
100
AcDbScale
 70
     0
300
1/64" = 1'-0"
140
0.015625
141
12.0
290
     0
  0
SCALE
  5
5B
102
{ACAD_REACTORS
330
47
102
}
330
47
100
AcDbScale
 70
     0
300
1/32" = 1'-0"
140
0.03125
141
12.0
290
     0
  0
SCALE
  5
5C
102
{ACAD_REACTORS
330
47
102
}
330
47
100
AcDbScale
 70
     0
300
1/16" = 1'-0"
140
0.0625
141
12.0
290
     0
  0
SCALE
  5
5D
102
{ACAD_REACTORS
330
47
102
}
330
47
100
AcDbScale
 70
     0
300
3/32" = 1'-0"
140
0.09375
141
12.0
290
     0
  0
SCALE
  5
5E
102
{ACAD_REACTORS
330
47
102
}
330
47
100
AcDbScale
 70
     0
300
1/8" = 1'-0"
140
0.125
141
12.0
290
     0
  0
SCALE
  5
5F
102
{ACAD_REACTORS
330
47
102
}
330
47
100
AcDbScale
 70
     0
300
3/16" = 1'-0"
140
0.1875
141
12.0
290
     0
  0
SCALE
  5
60
102
{ACAD_REACTORS
330
47
102
}
330
47
100
AcDbScale
 70
     0
300
1/4" = 1'-0"
140
0.25
141
12.0
290
     0
  0
SCALE
  5
61
102
{ACAD_REACTORS
330
47
102
}
330
47
100
AcDbScale
 70
     0
300
3/8" = 1'-0"
140
0.375
141
12.0
290
     0
  0
SCALE
  5
62
102
{ACAD_REACTORS
330
47
102
}
330
47
100
AcDbScale
 70
     0
300
1/2" = 1'-0"
140
0.5
141
12.0
290
     0
  0
SCALE
  5
63
102
{ACAD_REACTORS
330
47
102
}
330
47
100
AcDbScale
 70
     0
300
3/4" = 1'-0"
140
0.75
141
12.0
290
     0
  0
SCALE
  5
64
102
{ACAD_REACTORS
330
47
102
}
330
47
100
AcDbScale
 70
     0
300
1" = 1'-0"
140
1.0
141
12.0
290
     0
  0
SCALE
  5
65
102
{ACAD_REACTORS
330
47
102
}
330
47
100
AcDbScale
 70
     0
300
1-1/2" = 1'-0"
140
1.5
141
12.0
290
     0
  0
SCALE
  5
66
102
{ACAD_REACTORS
330
47
102
}
330
47
100
AcDbScale
 70
     0
300
3" = 1'-0"
140
3.0
141
12.0
290
     0
  0
SCALE
  5
67
102
{ACAD_REACTORS
330
47
102
}
330
47
100
AcDbScale
 70
     0
300
6" = 1'-0"
140
6.0
141
12.0
290
     0
  0
SCALE
  5
68
102
{ACAD_REACTORS
330
47
102
}
330
47
100
AcDbScale
 70
     0
300
1'-0" = 1'-0"
140
12.0
141
12.0
290
     0
  0
TABLESTYLE
  5
6A
102
{ACAD_REACTORS
330
69
102
}
102
{ACAD_XDICTIONARY
360
267
102
}
330
69
100
AcDbTableStyle
  3
Standard
 70
     0
 71
     0
 40
0.06
 41
0.06
280
     0
281
     0
  7
Standard
140
4.5
170
     2
 62
     0
 63
   257
283
     0
 90
        4
 91
        0
  1

274
    -2
284
     1
 64
     0
275
    -2
285
     1
 65
     0
276
    -2
286
     1
 66
     0
277
    -2
287
     1
 67
     0
278
    -2
288
     1
 68
     0
279
    -2
289
     1
 69
     0
  7
Standard
140
6.0
170
     5
 62
     0
 63
   257
283
     0
 90
        4
 91
        0
  1

274
    -2
284
     1
 64
     0
275
    -2
285
     1
 65
     0
276
    -2
286
     1
 66
     0
277
    -2
287
     1
 67
     0
278
    -2
288
     1
 68
     0
279
    -2
289
     1
 69
     0
  7
Standard
140
4.5
170
     5
 62
     0
 63
   257
283
     0
 90
        4
 91
        0
  1

274
    -2
284
     1
 64
     0
275
    -2
285
     1
 65
     0
276
    -2
286
     1
 66
     0
277
    -2
287
     1
 67
     0
278
    -2
288
     1
 68
     0
279
    -2
289
     1
 69
     0
  0
VISUALSTYLE
  5
2F
102
{ACAD_REACTORS
330
2A
102
}
102
{ACAD_XDICTIONARY
360
23F
102
}
330
2A
100
AcDbVisualStyle
  2
2dWireframe
 70
     4
177
     2
291
     0
 71
     0
176
     1
 72
     2
176
     1
 73
     0
176
     1
 90
        0
176
     1
 40
0.6
176
     1
 41
30.0
176
     1
 62
     5
 63
     7
421
 16777215
176
     1
 74
     1
176
     1
 91
        4
176
     1
 64
     7
176
     1
 65
   257
176
     1
 75
     1
176
     1
175
     1
176
     1
 42
1.0
176
     1
 92
        0
176
     1
 66
   257
176
     1
 43
1.0
176
     1
 76
     1
176
     1
 77
     6
176
     1
 78
     2
176
     1
 67
     7
176
     1
 79
     5
176
     1
170
     0
176
     1
171
     0
176
     1
290
     0
176
     1
 93
        1
176
     1
 44
0.0
176
     1
173
     0
176
     1
  0
VISUALSTYLE
  5
32
102
{ACAD_REACTORS
330
2A
102
}
102
{ACAD_XDICTIONARY
360
245
102
}
330
2A
100
AcDbVisualStyle
  2
Basic
 70
     7
177
     2
291
     1
 71
     1
176
     1
 72
     0
176
     1
 73
     1
176
     1
 90
        0
176
     1
 40
0.6
176
     1
 41
30.0
176
     1
 62
     5
 63
     7
421
 16777215
176
     1
 74
     0
176
     1
 91
        4
176
     1
 64
     7
176
     1
 65
   257
176
     1
 75
     1
176
     1
175
     1
176
     1
 42
1.0
176
     1
 92
        8
176
     1
 66
     7
176
     1
 43
1.0
176
     1
 76
     1
176
     1
 77
     6
176
     1
 78
     2
176
     1
 67
     7
176
     1
 79
     5
176
     1
170
     0
176
     1
171
     0
176
     1
290
     0
176
     1
 93
        1
176
     1
 44
0.0
176
     1
173
     0
176
     1
  0
VISUALSTYLE
  5
36
102
{ACAD_REACTORS
330
2A
102
}
102
{ACAD_XDICTIONARY
360
24D
102
}
330
2A
100
AcDbVisualStyle
  2
Brighten
 70
    12
177
     2
291
     1
 71
     2
176
     1
 72
     2
176
     1
 73
     0
176
     1
 90
        0
176
     1
 40
0.6
176
     1
 41
30.0
176
     1
 62
     5
 63
     7
421
 16777215
176
     1
 74
     1
176
     1
 91
        4
176
     1
 64
     7
176
     1
 65
   257
176
     1
 75
     1
176
     1
175
     1
176
     1
 42
1.0
176
     1
 92
        8
176
     1
 66
     7
176
     1
 43
1.0
176
     1
 76
     1
176
     1
 77
     6
176
     1
 78
     2
176
     1
 67
     7
176
     1
 79
     5
176
     1
170
     0
176
     1
171
     0
176
     1
290
     0
176
     1
 93
        1
176
     1
 44
50.0
176
     1
173
     0
176
     1
  0
VISUALSTYLE
  5
3A
102
{ACAD_REACTORS
330
2A
102
}
102
{ACAD_XDICTIONARY
360
255
102
}
330
2A
100
AcDbVisualStyle
  2
ColorChange
 70
    16
177
     2
291
     1
 71
     2
176
     1
 72
     2
176
     1
 73
     3
176
     1
 90
        0
176
     1
 40
0.6
176
     1
 41
30.0
176
     1
 62
     5
 63
     8
421
  8421504
176
     1
 74
     1
176
     1
 91
        4
176
     1
 64
     7
176
     1
 65
   257
176
     1
 75
     1
176
     1
175
     1
176
     1
 42
1.0
176
     1
 92
        8
176
     1
 66
     8
424
  8421504
176
     1
 43
1.0
176
     1
 76
     1
176
     1
 77
     6
176
     1
 78
     2
176
     1
 67
     7
176
     1
 79
     5
176
     1
170
     0
176
     1
171
     0
176
     1
290
     0
176
     1
 93
        1
176
     1
 44
0.0
176
     1
173
     0
176
     1
  0
VISUALSTYLE
  5
34
102
{ACAD_REACTORS
330
2A
102
}
102
{ACAD_XDICTIONARY
360
249
102
}
330
2A
100
AcDbVisualStyle
  2
Conceptual
 70
     9
177
     2
291
     0
 71
     3
176
     1
 72
     2
176
     1
 73
     0
176
     1
 90
        0
176
     1
 40
0.6
176
     1
 41
30.0
176
     1
 62
     5
 63
     7
421
 16777215
176
     1
 74
     2
176
     1
 91
        2
176
     1
 64
     7
176
     1
 65
   257
176
     1
 75
     1
176
     1
175
     1
176
     1
 42
179.0
176
     1
 92
        8
176
     1
 66
     7
176
     1
 43
1.0
176
     1
 76
     1
176
     1
 77
     6
176
     1
 78
     2
176
     1
 67
     7
176
     1
 79
     3
176
     1
170
     0
176
     1
171
     0
176
     1
290
     0
176
     1
 93
        1
176
     1
 44
0.0
176
     1
173
     0
176
     1
  0
VISUALSTYLE
  5
35
102
{ACAD_REACTORS
330
2A
102
}
102
{ACAD_XDICTIONARY
360
24B
102
}
330
2A
100
AcDbVisualStyle
  2
Dim
 70
    11
177
     2
291
     1
 71
     2
176
     1
 72
     2
176
     1
 73
     0
176
     1
 90
        0
176
     1
 40
0.6
176
     1
 41
30.0
176
     1
 62
     5
 63
     7
421
 16777215
176
     1
 74
     1
176
     1
 91
        4
176
     1
 64
     7
176
     1
 65
   257
176
     1
 75
     1
176
     1
175
     1
176
     1
 42
1.0
176
     1
 92
        8
176
     1
 66
     7
176
     1
 43
1.0
176
     1
 76
     1
176
     1
 77
     6
176
     1
 78
     2
176
     1
 67
     7
176
     1
 79
     5
176
     1
170
     0
176
     1
171
     0
176
     1
290
     0
176
     1
 93
        1
176
     1
 44
-50.0
176
     1
173
     0
176
     1
  0
VISUALSTYLE
  5
3D
102
{ACAD_REACTORS
330
2A
102
}
102
{ACAD_XDICTIONARY
360
25B
102
}
330
2A
100
AcDbVisualStyle
  2
EdgeColorOff
 70
    22
177
     2
291
     1
 71
     2
176
     0
 72
     2
176
     0
 73
     0
176
     0
 90
        0
176
     0
 40
0.6
176
     0
 41
30.0
176
     0
 62
     5
 63
     7
421
 16777215
176
     0
 74
     1
176
     0
 91
        4
176
     0
 64
     7
176
     0
 65
   257
176
     0
 75
     1
176
     0
175
     1
176
     0
 42
1.0
176
     0
 92
        8
176
     2
 66
     7
176
     0
 43
1.0
176
     0
 76
     1
176
     0
 77
     6
176
     0
 78
     2
176
     0
 67
     7
176
     0
 79
     5
176
     0
170
     0
176
     0
171
     0
176
     0
290
     0
176
     0
 93
        1
176
     0
 44
0.0
176
     0
173
     0
176
     0
  0
VISUALSTYLE
  5
39
102
{ACAD_REACTORS
330
2A
102
}
102
{ACAD_XDICTIONARY
360
253
102
}
330
2A
100
AcDbVisualStyle
  2
Facepattern
 70
    15
177
     2
291
     1
 71
     2
176
     1
 72
     2
176
     1
 73
     0
176
     1
 90
        0
176
     1
 40
0.6
176
     1
 41
30.0
176
     1
 62
     5
 63
     7
421
 16777215
176
     1
 74
     1
176
     1
 91
        4
176
     1
 64
     7
176
     1
 65
   257
176
     1
 75
     1
176
     1
175
     1
176
     1
 42
1.0
176
     1
 92
        8
176
     1
 66
     7
176
     1
 43
1.0
176
     1
 76
     1
176
     1
 77
     6
176
     1
 78
     2
176
     1
 67
     7
176
     1
 79
     5
176
     1
170
     0
176
     1
171
     0
176
     1
290
     0
176
     1
 93
        1
176
     1
 44
0.0
176
     1
173
     0
176
     1
  0
VISUALSTYLE
  5
2B
102
{ACAD_REACTORS
330
2A
102
}
102
{ACAD_XDICTIONARY
360
237
102
}
330
2A
100
AcDbVisualStyle
  2
Flat
 70
     0
177
     2
291
     1
 71
     2
176
     1
 72
     1
176
     1
 73
     1
176
     1
 90
        2
176
     1
 40
0.6
176
     1
 41
30.0
176
     1
 62
     5
 63
     7
421
 16777215
176
     1
 74
     0
176
     1
 91
        0
176
     1
 64
     7
176
     1
 65
   257
176
     1
 75
     1
176
     1
175
     1
176
     1
 42
1.0
176
     1
 92
        8
176
     1
 66
     7
176
     1
 43
1.0
176
     1
 76
     1
176
     1
 77
     6
176
     1
 78
     2
176
     1
 67
     7
176
     1
 79
     5
176
     1
170
     0
176
     1
171
     0
176
     1
290
     0
176
     1
 93
       13
176
     1
 44
0.0
176
     1
173
     0
176
     1
  0
VISUALSTYLE
  5
2C
102
{ACAD_REACTORS
330
2A
102
}
102
{ACAD_XDICTIONARY
360
239
102
}
330
2A
100
AcDbVisualStyle
  2
FlatWithEdges
 70
     1
177
     2
291
     1
 71
     2
176
     1
 72
     1
176
     1
 73
     1
176
     1
 90
        2
176
     1
 40
0.6
176
     1
 41
30.0
176
     1
 62
     5
 63
     7
421
 16777215
176
     1
 74
     1
176
     1
 91
        0
176
     1
 64
     7
176
     1
 65
   257
176
     1
 75
     1
176
     1
175
     1
176
     1
 42
1.0
176
     1
 92
        0
176
     1
 66
   257
176
     1
 43
1.0
176
     1
 76
     1
176
     1
 77
     6
176
     1
 78
     2
176
     1
 67
     7
176
     1
 79
     5
176
     1
170
     0
176
     1
171
     0
176
     1
290
     0
176
     1
 93
       13
176
     1
 44
0.0
176
     1
173
     0
176
     1
  0
VISUALSTYLE
  5
2D
102
{ACAD_REACTORS
330
2A
102
}
102
{ACAD_XDICTIONARY
360
23B
102
}
330
2A
100
AcDbVisualStyle
  2
Gouraud
 70
     2
177
     2
291
     1
 71
     2
176
     1
 72
     2
176
     1
 73
     1
176
     1
 90
        2
176
     1
 40
0.6
176
     1
 41
30.0
176
     1
 62
     5
 63
     7
421
 16777215
176
     1
 74
     0
176
     1
 91
        0
176
     1
 64
     7
176
     1
 65
   257
176
     1
 75
     1
176
     1
175
     1
176
     1
 42
1.0
176
     1
 92
        0
176
     1
 66
     7
176
     1
 43
1.0
176
     1
 76
     1
176
     1
 77
     6
176
     1
 78
     2
176
     1
 67
     7
176
     1
 79
     5
176
     1
170
     0
176
     1
171
     0
176
     1
290
     0
176
     1
 93
       13
176
     1
 44
0.0
176
     1
173
     0
176
     1
  0
VISUALSTYLE
  5
2E
102
{ACAD_REACTORS
330
2A
102
}
102
{ACAD_XDICTIONARY
360
23D
102
}
330
2A
100
AcDbVisualStyle
  2
GouraudWithEdges
 70
     3
177
     2
291
     1
 71
     2
176
     1
 72
     2
176
     1
 73
     1
176
     1
 90
        2
176
     1
 40
0.6
176
     1
 41
30.0
176
     1
 62
     5
 63
     7
421
 16777215
176
     1
 74
     1
176
     1
 91
        0
176
     1
 64
     7
176
     1
 65
   257
176
     1
 75
     1
176
     1
175
     1
176
     1
 42
1.0
176
     1
 92
        0
176
     1
 66
   257
176
     1
 43
1.0
176
     1
 76
     1
176
     1
 77
     6
176
     1
 78
     2
176
     1
 67
     7
176
     1
 79
     5
176
     1
170
     0
176
     1
171
     0
176
     1
290
     0
176
     1
 93
       13
176
     1
 44
0.0
176
     1
173
     0
176
     1
  0
VISUALSTYLE
  5
31
102
{ACAD_REACTORS
330
2A
102
}
102
{ACAD_XDICTIONARY
360
243
102
}
330
2A
100
AcDbVisualStyle
  2
Hidden
 70
     6
177
     2
291
     0
 71
     1
176
     1
 72
     2
176
     1
 73
     2
176
     1
 90
        0
176
     1
 40
0.6
176
     1
 41
30.0
176
     1
 62
     5
 63
     7
421
 16777215
176
     1
 74
     2
176
     1
 91
        2
176
     1
 64
     7
176
     1
 65
   257
176
     1
 75
     2
176
     1
175
     1
176
     1
 42
40.0
176
     1
 92
        0
176
     1
 66
   257
176
     1
 43
1.0
176
     1
 76
     1
176
     1
 77
     6
176
     1
 78
     2
176
     1
 67
     7
176
     1
 79
     3
176
     1
170
     0
176
     1
171
     0
176
     1
290
     0
176
     1
 93
        1
176
     1
 44
0.0
176
     1
173
     0
176
     1
  0
VISUALSTYLE
  5
3B
102
{ACAD_REACTORS
330
2A
102
}
102
{ACAD_XDICTIONARY
360
257
102
}
330
2A
100
AcDbVisualStyle
  2
JitterOff
 70
    20
177
     2
291
     1
 71
     2
176
     0
 72
     2
176
     0
 73
     0
176
     0
 90
        0
176
     0
 40
0.6
176
     0
 41
30.0
176
     0
 62
     5
 63
     7
421
 16777215
176
     0
 74
     1
176
     0
 91
        4
176
     0
 64
     7
176
     0
 65
   257
176
     0
 75
     1
176
     0
175
     1
176
     0
 42
1.0
176
     0
 92
       10
176
     2
 66
     7
176
     0
 43
1.0
176
     0
 76
     1
176
     0
 77
     6
176
     0
 78
     2
176
     0
 67
     7
176
     0
 79
     5
176
     0
170
     0
176
     0
171
     0
176
     0
290
     0
176
     0
 93
        1
176
     0
 44
0.0
176
     0
173
     0
176
     0
  0
VISUALSTYLE
  5
38
102
{ACAD_REACTORS
330
2A
102
}
102
{ACAD_XDICTIONARY
360
251
102
}
330
2A
100
AcDbVisualStyle
  2
Linepattern
 70
    14
177
     2
291
     1
 71
     2
176
     1
 72
     2
176
     1
 73
     0
176
     1
 90
        0
176
     1
 40
0.6
176
     1
 41
30.0
176
     1
 62
     5
 63
     7
421
 16777215
176
     1
 74
     1
176
     1
 91
        4
176
     1
 64
     7
176
     1
 65
   257
176
     1
 75
     7
176
     1
175
     7
176
     1
 42
1.0
176
     1
 92
        8
176
     1
 66
     7
176
     1
 43
1.0
176
     1
 76
     1
176
     1
 77
     6
176
     1
 78
     2
176
     1
 67
     7
176
     1
 79
     5
176
     1
170
     0
176
     1
171
     0
176
     1
290
     0
176
     1
 93
        1
176
     1
 44
0.0
176
     1
173
     0
176
     1
  0
VISUALSTYLE
  5
3C
102
{ACAD_REACTORS
330
2A
102
}
102
{ACAD_XDICTIONARY
360
259
102
}
330
2A
100
AcDbVisualStyle
  2
OverhangOff
 70
    21
177
     2
291
     1
 71
     2
176
     0
 72
     2
176
     0
 73
     0
176
     0
 90
        0
176
     0
 40
0.6
176
     0
 41
30.0
176
     0
 62
     5
 63
     7
421
 16777215
176
     0
 74
     1
176
     0
 91
        4
176
     0
 64
     7
176
     0
 65
   257
176
     0
 75
     1
176
     0
175
     1
176
     0
 42
1.0
176
     0
 92
        9
176
     2
 66
     7
176
     0
 43
1.0
176
     0
 76
     1
176
     0
 77
     6
176
     0
 78
     2
176
     0
 67
     7
176
     0
 79
     5
176
     0
170
     0
176
     0
171
     0
176
     0
290
     0
176
     0
 93
        1
176
     0
 44
0.0
176
     0
173
     0
176
     0
  0
VISUALSTYLE
  5
33
102
{ACAD_REACTORS
330
2A
102
}
102
{ACAD_XDICTIONARY
360
247
102
}
330
2A
100
AcDbVisualStyle
  2
Realistic
 70
     8
177
     2
291
     0
 71
     2
176
     1
 72
     3
176
     1
 73
     0
176
     1
 90
        2
176
     1
 40
0.6
176
     1
 41
30.0
176
     1
 62
     5
 63
     7
421
 16777215
176
     1
 74
     0
176
     1
 91
        0
176
     1
 64
     7
176
     1
 65
   257
176
     1
 75
     1
176
     1
175
     1
176
     1
 42
1.0
176
     1
 92
        8
176
     1
 66
   257
176
     1
 43
1.0
176
     1
 76
     1
176
     1
 77
     6
176
     1
 78
     2
176
     1
 67
     7
176
     1
 79
     3
176
     1
170
     0
176
     1
171
     0
176
     1
290
     0
176
     1
 93
       13
176
     1
 44
0.0
176
     1
173
     0
176
     1
  0
VISUALSTYLE
  5
42
102
{ACAD_REACTORS
330
2A
102
}
102
{ACAD_XDICTIONARY
360
265
102
}
330
2A
100
AcDbVisualStyle
  2
Shaded
 70
    27
177
     2
291
     0
 71
     2
176
     1
 72
     2
176
     1
 73
     1
176
     1
 90
        2
176
     1
 40
0.6
176
     1
 41
30.0
176
     1
 62
     5
 63
     7
421
 16777215
176
     1
 74
     0
176
     1
 91
        4
176
     1
 64
     7
176
     1
 65
   257
176
     1
 75
     1
176
     1
175
     1
176
     1
 42
1.0
176
     1
 92
        8
176
     1
 66
   257
176
     1
 43
1.0
176
     1
 76
     1
176
     1
 77
     6
176
     1
 78
     2
176
     1
 67
     8
425
  7895160
176
     1
 79
     3
176
     1
170
     0
176
     1
171
     0
176
     1
290
     0
176
     1
 93
        5
176
     1
 44
0.0
176
     1
173
     0
176
     1
  0
VISUALSTYLE
  5
41
102
{ACAD_REACTORS
330
2A
102
}
102
{ACAD_XDICTIONARY
360
263
102
}
330
2A
100
AcDbVisualStyle
  2
Shaded with edges
 70
    26
177
     2
291
     0
 71
     2
176
     1
 72
     2
176
     1
 73
     1
176
     1
 90
        2
176
     1
 40
0.6
176
     1
 41
30.0
176
     1
 62
     5
 63
     7
421
 16777215
176
     1
 74
     1
176
     1
 91
       10
176
     1
 64
     7
176
     1
 65
   257
176
     1
 75
     2
176
     1
175
     1
176
     1
 42
1.0
176
     1
 92
        8
176
     1
 66
   257
176
     1
 43
1.0
176
     1
 76
     1
176
     1
 77
     6
176
     1
 78
     2
176
     1
 67
     7
176
     1
 79
     3
176
     1
170
     0
176
     1
171
     0
176
     1
290
     0
176
     1
 93
        5
176
     1
 44
0.0
176
     1
173
     0
176
     1
  0
VISUALSTYLE
  5
3E
102
{ACAD_REACTORS
330
2A
102
}
102
{ACAD_XDICTIONARY
360
25D
102
}
330
2A
100
AcDbVisualStyle
  2
Shades of Gray
 70
    23
177
     2
291
     0
 71
     2
176
     1
 72
     2
176
     1
 73
     3
176
     1
 90
        0
176
     1
 40
0.6
176
     1
 41
30.0
176
     1
 62
     5
 63
     7
421
 16777215
176
     1
 74
     2
176
     1
 91
        2
176
     1
 64
     7
176
     1
 65
     7
176
     1
 75
     1
176
     1
175
     1
176
     1
 42
40.0
176
     1
 92
        8
176
     1
 66
     7
176
     1
 43
1.0
176
     1
 76
     1
176
     1
 77
     6
176
     1
 78
     2
176
     1
 67
     7
176
     1
 79
     3
176
     1
170
     0
176
     1
171
     0
176
     1
290
     0
176
     1
 93
        1
176
     1
 44
0.0
176
     1
173
     0
176
     1
  0
VISUALSTYLE
  5
3F
102
{ACAD_REACTORS
330
2A
102
}
102
{ACAD_XDICTIONARY
360
25F
102
}
330
2A
100
AcDbVisualStyle
  2
Sketchy
 70
    24
177
     2
291
     0
 71
     1
176
     1
 72
     2
176
     1
 73
     2
176
     1
 90
        0
176
     1
 40
0.6
176
     1
 41
30.0
176
     1
 62
     5
 63
     7
421
 16777215
176
     1
 74
     2
176
     1
 91
        2
176
     1
 64
     7
176
     1
 65
     7
176
     1
 75
     1
176
     1
175
     1
176
     1
 42
40.0
176
     1
 92
       11
176
     1
 66
     7
176
     1
 43
1.0
176
     1
 76
     1
176
     1
 77
     6
176
     1
 78
     2
176
     1
 67
     7
176
     1
 79
     6
176
     1
170
     0
176
     1
171
     0
176
     1
290
     0
176
     1
 93
        1
176
     1
 44
0.0
176
     1
173
     0
176
     1
  0
VISUALSTYLE
  5
37
102
{ACAD_REACTORS
330
2A
102
}
102
{ACAD_XDICTIONARY
360
24F
102
}
330
2A
100
AcDbVisualStyle
  2
Thicken
 70
    13
177
     2
291
     1
 71
     2
176
     1
 72
     2
176
     1
 73
     0
176
     1
 90
        0
176
     1
 40
0.6
176
     1
 41
30.0
176
     1
 62
     5
 63
     7
421
 16777215
176
     1
 74
     1
176
     1
 91
        4
176
     1
 64
     7
176
     1
 65
   257
176
     1
 75
     1
176
     1
175
     1
176
     1
 42
1.0
176
     1
 92
       12
176
     1
 66
     7
176
     1
 43
1.0
176
     1
 76
     1
176
     1
 77
     6
176
     1
 78
     2
176
     1
 67
     7
176
     1
 79
     5
176
     1
170
     0
176
     1
171
     0
176
     1
290
     0
176
     1
 93
        1
176
     1
 44
0.0
176
     1
173
     0
176
     1
  0
VISUALSTYLE
  5
30
102
{ACAD_REACTORS
330
2A
102
}
102
{ACAD_XDICTIONARY
360
241
102
}
330
2A
100
AcDbVisualStyle
  2
Wireframe
 70
     5
177
     2
291
     0
 71
     0
176
     1
 72
     2
176
     1
 73
     0
176
     1
 90
        0
176
     1
 40
0.6
176
     1
 41
30.0
176
     1
 62
     5
 63
     7
421
 16777215
176
     1
 74
     1
176
     1
 91
        4
176
     1
 64
     7
176
     1
 65
   257
176
     1
 75
     1
176
     1
175
     1
176
     1
 42
1.0
176
     1
 92
        0
176
     1
 66
   257
176
     1
 43
1.0
176
     1
 76
     1
176
     1
 77
     6
176
     1
 78
     2
176
     1
 67
     7
176
     1
 79
     3
176
     1
170
     0
176
     1
171
     0
176
     1
290
     0
176
     1
 93
        1
176
     1
 44
0.0
176
     1
173
     0
176
     1
  0
VISUALSTYLE
  5
40
102
{ACAD_REACTORS
330
2A
102
}
102
{ACAD_XDICTIONARY
360
261
102
}
330
2A
100
AcDbVisualStyle
  2
X-Ray
 70
    25
177
     2
291
     0
 71
     2
176
     1
 72
     2
176
     1
 73
     1
176
     1
 90
        1
176
     1
 40
0.5
176
     1
 41
30.0
176
     1
 62
     5
 63
     7
421
 16777215
176
     1
 74
     1
176
     1
 91
        0
176
     1
 64
     7
176
     1
 65
   257
176
     1
 75
     1
176
     1
175
     1
176
     1
 42
1.0
176
     1
 92
        8
176
     1
 66
     7
176
     1
 43
1.0
176
     1
 76
     1
176
     1
 77
     6
176
     1
 78
     2
176
     1
 67
     7
176
     1
 79
     3
176
     1
170
     0
176
     1
171
     0
176
     1
290
     0
176
     1
 93
       13
176
     1
 44
0.0
176
     1
173
     0
176
     1
  0
DICTIONARYVAR
  5
236
102
{ACAD_REACTORS
330
235
102
}
330
235
100
DictionaryVariables
280
     0
  1
1:1
  0
DICTIONARYVAR
  5
26B
102
{ACAD_REACTORS
330
235
102
}
330
235
100
DictionaryVariables
280
     0
  1
Standard
  0
DICTIONARYVAR
  5
26A
102
{ACAD_REACTORS
330
235
102
}
330
235
100
DictionaryVariables
280
     0
  1
Standard
  0
DICTIONARY
  5
267
330
6A
100
AcDbDictionary
280
     1
281
     1
  3
ACAD_ROUNDTRIP_2008_TABLESTYLE_CELLSTYLEMAP
360
268
  0
DICTIONARY
  5
23F
330
2F
100
AcDbDictionary
280
     1
281
     1
  3
ACAD_XREC_ROUNDTRIP
360
240
  0
DICTIONARY
  5
245
330
32
100
AcDbDictionary
280
     1
281
     1
  3
ACAD_XREC_ROUNDTRIP
360
246
  0
DICTIONARY
  5
24D
330
36
100
AcDbDictionary
280
     1
281
     1
  3
ACAD_XREC_ROUNDTRIP
360
24E
  0
DICTIONARY
  5
255
330
3A
100
AcDbDictionary
280
     1
281
     1
  3
ACAD_XREC_ROUNDTRIP
360
256
  0
DICTIONARY
  5
249
330
34
100
AcDbDictionary
280
     1
281
     1
  3
ACAD_XREC_ROUNDTRIP
360
24A
  0
DICTIONARY
  5
24B
330
35
100
AcDbDictionary
280
     1
281
     1
  3
ACAD_XREC_ROUNDTRIP
360
24C
  0
DICTIONARY
  5
25B
330
3D
100
AcDbDictionary
280
     1
281
     1
  3
ACAD_XREC_ROUNDTRIP
360
25C
  0
DICTIONARY
  5
253
330
39
100
AcDbDictionary
280
     1
281
     1
  3
ACAD_XREC_ROUNDTRIP
360
254
  0
DICTIONARY
  5
237
330
2B
100
AcDbDictionary
280
     1
281
     1
  3
ACAD_XREC_ROUNDTRIP
360
238
  0
DICTIONARY
  5
239
330
2C
100
AcDbDictionary
280
     1
281
     1
  3
ACAD_XREC_ROUNDTRIP
360
23A
  0
DICTIONARY
  5
23B
330
2D
100
AcDbDictionary
280
     1
281
     1
  3
ACAD_XREC_ROUNDTRIP
360
23C
  0
DICTIONARY
  5
23D
330
2E
100
AcDbDictionary
280
     1
281
     1
  3
ACAD_XREC_ROUNDTRIP
360
23E
  0
DICTIONARY
  5
243
330
31
100
AcDbDictionary
280
     1
281
     1
  3
ACAD_XREC_ROUNDTRIP
360
244
  0
DICTIONARY
  5
257
330
3B
100
AcDbDictionary
280
     1
281
     1
  3
ACAD_XREC_ROUNDTRIP
360
258
  0
DICTIONARY
  5
251
330
38
100
AcDbDictionary
280
     1
281
     1
  3
ACAD_XREC_ROUNDTRIP
360
252
  0
DICTIONARY
  5
259
330
3C
100
AcDbDictionary
280
     1
281
     1
  3
ACAD_XREC_ROUNDTRIP
360
25A
  0
DICTIONARY
  5
247
330
33
100
AcDbDictionary
280
     1
281
     1
  3
ACAD_XREC_ROUNDTRIP
360
248
  0
DICTIONARY
  5
265
330
42
100
AcDbDictionary
280
     1
281
     1
  3
ACAD_XREC_ROUNDTRIP
360
266
  0
DICTIONARY
  5
263
330
41
100
AcDbDictionary
280
     1
281
     1
  3
ACAD_XREC_ROUNDTRIP
360
264
  0
DICTIONARY
  5
25D
330
3E
100
AcDbDictionary
280
     1
281
     1
  3
ACAD_XREC_ROUNDTRIP
360
25E
  0
DICTIONARY
  5
25F
330
3F
100
AcDbDictionary
280
     1
281
     1
  3
ACAD_XREC_ROUNDTRIP
360
260
  0
DICTIONARY
  5
24F
330
37
100
AcDbDictionary
280
     1
281
     1
  3
ACAD_XREC_ROUNDTRIP
360
250
  0
DICTIONARY
  5
241
330
30
100
AcDbDictionary
280
     1
281
     1
  3
ACAD_XREC_ROUNDTRIP
360
242
  0
DICTIONARY
  5
261
330
40
100
AcDbDictionary
280
     1
281
     1
  3
ACAD_XREC_ROUNDTRIP
360
262
  0
CELLSTYLEMAP
  5
268
102
{ACAD_REACTORS
330
267
102
}
330
267
100
AcDbCellStyleMap
 90
        3
300
CELLSTYLE
  1
TABLEFORMAT_BEGIN
 90
        5
170
     1
 91
        0
 92
    32768
 62
   257
 93
        1
300
CONTENTFORMAT
  1
CONTENTFORMAT_BEGIN
 90
        0
 91
        0
 92
        4
 93
        0
300

 40
0.0
140
1.0
 94
        5
 62
     0
340
11
144
6.0
309
CONTENTFORMAT_END
171
     1
301
MARGIN
  1
CELLMARGIN_BEGIN
 40
1.5
 40
1.5
 40
1.5
 40
1.5
 40
1.5
 40
1.5
309
CELLMARGIN_END
 94
        6
 95
        1
302
GRIDFORMAT
  1
GRIDFORMAT_BEGIN
 90
        0
 91
        1
 62
     0
 92
       -2
340
14
 93
        0
 40
0.045
309
GRIDFORMAT_END
 95
        2
302
GRIDFORMAT
  1
GRIDFORMAT_BEGIN
 90
        0
 91
        1
 62
     0
 92
       -2
340
14
 93
        0
 40
0.045
309
GRIDFORMAT_END
 95
        4
302
GRIDFORMAT
  1
GRIDFORMAT_BEGIN
 90
        0
 91
        1
 62
     0
 92
       -2
340
14
 93
        0
 40
0.045
309
GRIDFORMAT_END
 95
        8
302
GRIDFORMAT
  1
GRIDFORMAT_BEGIN
 90
        0
 91
        1
 62
     0
 92
       -2
340
14
 93
        0
 40
0.045
309
GRIDFORMAT_END
 95
       16
302
GRIDFORMAT
  1
GRIDFORMAT_BEGIN
 90
        0
 91
        1
 62
     0
 92
       -2
340
14
 93
        0
 40
0.045
309
GRIDFORMAT_END
 95
       32
302
GRIDFORMAT
  1
GRIDFORMAT_BEGIN
 90
        0
 91
        1
 62
     0
 92
       -2
340
14
 93
        0
 40
0.045
309
GRIDFORMAT_END
309
TABLEFORMAT_END
  1
CELLSTYLE_BEGIN
 90
        1
 91
        1
300
_TITLE
309
CELLSTYLE_END
300
CELLSTYLE
  1
TABLEFORMAT_BEGIN
 90
        5
170
     1
 91
        0
 92
        0
 62
   257
 93
        1
300
CONTENTFORMAT
  1
CONTENTFORMAT_BEGIN
 90
        0
 91
        0
 92
        4
 93
        0
300

 40
0.0
140
1.0
 94
        5
 62
     0
340
11
144
4.5
309
CONTENTFORMAT_END
171
     1
301
MARGIN
  1
CELLMARGIN_BEGIN
 40
1.5
 40
1.5
 40
1.5
 40
1.5
 40
1.5
 40
1.5
309
CELLMARGIN_END
 94
        6
 95
        1
302
GRIDFORMAT
  1
GRIDFORMAT_BEGIN
 90
        0
 91
        1
 62
     0
 92
       -2
340
14
 93
        0
 40
0.045
309
GRIDFORMAT_END
 95
        2
302
GRIDFORMAT
  1
GRIDFORMAT_BEGIN
 90
        0
 91
        1
 62
     0
 92
       -2
340
14
 93
        0
 40
0.045
309
GRIDFORMAT_END
 95
        4
302
GRIDFORMAT
  1
GRIDFORMAT_BEGIN
 90
        0
 91
        1
 62
     0
 92
       -2
340
14
 93
        0
 40
0.045
309
GRIDFORMAT_END
 95
        8
302
GRIDFORMAT
  1
GRIDFORMAT_BEGIN
 90
        0
 91
        1
 62
     0
 92
       -2
340
14
 93
        0
 40
0.045
309
GRIDFORMAT_END
 95
       16
302
GRIDFORMAT
  1
GRIDFORMAT_BEGIN
 90
        0
 91
        1
 62
     0
 92
       -2
340
14
 93
        0
 40
0.045
309
GRIDFORMAT_END
 95
       32
302
GRIDFORMAT
  1
GRIDFORMAT_BEGIN
 90
        0
 91
        1
 62
     0
 92
       -2
340
14
 93
        0
 40
0.045
309
GRIDFORMAT_END
309
TABLEFORMAT_END
  1
CELLSTYLE_BEGIN
 90
        2
 91
        1
300
_HEADER
309
CELLSTYLE_END
300
CELLSTYLE
  1
TABLEFORMAT_BEGIN
 90
        5
170
     1
 91
        0
 92
        0
 62
   257
 93
        1
300
CONTENTFORMAT
  1
CONTENTFORMAT_BEGIN
 90
        0
 91
        0
 92
        4
 93
        0
300

 40
0.0
140
1.0
 94
        2
 62
     0
340
11
144
4.5
309
CONTENTFORMAT_END
171
     1
301
MARGIN
  1
CELLMARGIN_BEGIN
 40
1.5
 40
1.5
 40
1.5
 40
1.5
 40
1.5
 40
1.5
309
CELLMARGIN_END
 94
        6
 95
        1
302
GRIDFORMAT
  1
GRIDFORMAT_BEGIN
 90
        0
 91
        1
 62
     0
 92
       -2
340
14
 93
        0
 40
0.045
309
GRIDFORMAT_END
 95
        2
302
GRIDFORMAT
  1
GRIDFORMAT_BEGIN
 90
        0
 91
        1
 62
     0
 92
       -2
340
14
 93
        0
 40
0.045
309
GRIDFORMAT_END
 95
        4
302
GRIDFORMAT
  1
GRIDFORMAT_BEGIN
 90
        0
 91
        1
 62
     0
 92
       -2
340
14
 93
        0
 40
0.045
309
GRIDFORMAT_END
 95
        8
302
GRIDFORMAT
  1
GRIDFORMAT_BEGIN
 90
        0
 91
        1
 62
     0
 92
       -2
340
14
 93
        0
 40
0.045
309
GRIDFORMAT_END
 95
       16
302
GRIDFORMAT
  1
GRIDFORMAT_BEGIN
 90
        0
 91
        1
 62
     0
 92
       -2
340
14
 93
        0
 40
0.045
309
GRIDFORMAT_END
 95
       32
302
GRIDFORMAT
  1
GRIDFORMAT_BEGIN
 90
        0
 91
        1
 62
     0
 92
       -2
340
14
 93
        0
 40
0.045
309
GRIDFORMAT_END
309
TABLEFORMAT_END
  1
CELLSTYLE_BEGIN
 90
        3
 91
        2
300
_DATA
309
CELLSTYLE_END
  0
XRECORD
  5
240
102
{ACAD_REACTORS
330
23F
102
}
330
23F
100
AcDbXrecord
280
     1
102
RTVSPost2010Prop28
280
     1
102
RTVSPost2010PropOp28
 70
     1
102
RTVSPost2010Prop29
280
     1
102
RTVSPost2010PropOp29
 70
     1
102
RTVSPost2010Prop30
280
     0
102
RTVSPost2010PropOp30
 70
     1
102
RTVSPost2010Prop31
280
     0
102
RTVSPost2010PropOp31
 70
     1
102
RTVSPost2010Prop32
280
     0
102
RTVSPost2010PropOp32
 70
     1
102
RTVSPost2010Prop33
280
     0
102
RTVSPost2010PropOp33
 70
     1
102
RTVSPost2010Prop34
280
     0
102
RTVSPost2010PropOp34
 70
     1
102
RTVSPost2010Prop35
280
     0
102
RTVSPost2010PropOp35
 70
     1
102
RTVSPost2010Prop36
280
     0
102
RTVSPost2010PropOp36
 70
     1
102
RTVSPost2010Prop37
 90
       50
102
RTVSPost2010PropOp37
 70
     1
102
RTVSPost2010Prop38
140
0.0
102
RTVSPost2010PropOp38
 70
     1
102
RTVSPost2010Prop39
140
1.0
102
RTVSPost2010PropOp39
 70
     1
102
RTVSPost2010Prop40
 90
        0
102
RTVSPost2010PropOp40
 70
     1
102
RTVSPost2010Prop41ColorIndex
 90
       18
102
RTVSPost2010Prop41ColorRGB
 90
        0
102
RTVSPost2010PropOp41
 70
     1
102
RTVSPost2010Prop42
 90
       50
102
RTVSPost2010PropOp42
 70
     1
102
RTVSPost2010Prop43
 90
        3
102
RTVSPost2010PropOp43
 70
     1
102
RTVSPost2010Prop44ColorIndex
 90
        5
102
RTVSPost2010Prop44ColorRGB
 90
      255
102
RTVSPost2010PropOp44
 70
     1
102
RTVSPost2010Prop45
280
     0
102
RTVSPost2010PropOp45
 70
     1
102
RTVSPost2010Prop46
 90
       50
102
RTVSPost2010PropOp46
 70
     1
102
RTVSPost2010Prop47
 90
       50
102
RTVSPost2010PropOp47
 70
     1
102
RTVSPost2010Prop48
 90
       50
102
RTVSPost2010PropOp48
 70
     1
102
RTVSPost2010Prop49
280
     0
102
RTVSPost2010PropOp49
 70
     1
102
RTVSPost2010Prop50
 90
       50
102
RTVSPost2010PropOp50
 70
     1
102
RTVSPost2010Prop51ColorIndex
 90
      256
102
RTVSPost2010Prop51ColorRGB
 90
-16777216
102
RTVSPost2010PropOp51
 70
     0
102
RTVSPost2010Prop52
140
1.0
102
RTVSPost2010PropOp52
 70
     0
102
RTVSPost2010Prop53
 90
        2
102
RTVSPost2010PropOp53
 70
     1
102
RTVSPost2010Prop54
  1
strokes_ogs.tif
102
RTVSPost2010PropOp54
 70
     1
102
RTVSPost2010Prop55
280
     0
102
RTVSPost2010PropOp55
 70
     1
102
RTVSPost2010Prop56
140
1.0
102
RTVSPost2010PropOp56
 70
     1
102
RTVSPost2010Prop57
140
1.0
102
RTVSPost2010PropOp57
 70
     1
  0
XRECORD
  5
246
102
{ACAD_REACTORS
330
245
102
}
330
245
100
AcDbXrecord
280
     1
102
RTVSPost2010Prop28
280
     0
102
RTVSPost2010PropOp28
 70
     1
102
RTVSPost2010Prop29
280
     1
102
RTVSPost2010PropOp29
 70
     1
102
RTVSPost2010Prop30
280
     1
102
RTVSPost2010PropOp30
 70
     1
102
RTVSPost2010Prop31
280
     0
102
RTVSPost2010PropOp31
 70
     1
102
RTVSPost2010Prop32
280
     0
102
RTVSPost2010PropOp32
 70
     1
102
RTVSPost2010Prop33
280
     0
102
RTVSPost2010PropOp33
 70
     1
102
RTVSPost2010Prop34
280
     0
102
RTVSPost2010PropOp34
 70
     1
102
RTVSPost2010Prop35
280
     0
102
RTVSPost2010PropOp35
 70
     1
102
RTVSPost2010Prop36
280
     0
102
RTVSPost2010PropOp36
 70
     1
102
RTVSPost2010Prop37
 90
       50
102
RTVSPost2010PropOp37
 70
     1
102
RTVSPost2010Prop38
140
0.0
102
RTVSPost2010PropOp38
 70
     1
102
RTVSPost2010Prop39
140
1.0
102
RTVSPost2010PropOp39
 70
     1
102
RTVSPost2010Prop40
 90
        0
102
RTVSPost2010PropOp40
 70
     1
102
RTVSPost2010Prop41ColorIndex
 90
       18
102
RTVSPost2010Prop41ColorRGB
 90
        0
102
RTVSPost2010PropOp41
 70
     1
102
RTVSPost2010Prop42
 90
       50
102
RTVSPost2010PropOp42
 70
     1
102
RTVSPost2010Prop43
 90
        3
102
RTVSPost2010PropOp43
 70
     1
102
RTVSPost2010Prop44ColorIndex
 90
        5
102
RTVSPost2010Prop44ColorRGB
 90
      255
102
RTVSPost2010PropOp44
 70
     1
102
RTVSPost2010Prop45
280
     0
102
RTVSPost2010PropOp45
 70
     1
102
RTVSPost2010Prop46
 90
       50
102
RTVSPost2010PropOp46
 70
     1
102
RTVSPost2010Prop47
 90
       50
102
RTVSPost2010PropOp47
 70
     1
102
RTVSPost2010Prop48
 90
       50
102
RTVSPost2010PropOp48
 70
     1
102
RTVSPost2010Prop49
280
     0
102
RTVSPost2010PropOp49
 70
     1
102
RTVSPost2010Prop50
 90
       50
102
RTVSPost2010PropOp50
 70
     1
102
RTVSPost2010Prop51ColorIndex
 90
      256
102
RTVSPost2010Prop51ColorRGB
 90
-16777216
102
RTVSPost2010PropOp51
 70
     0
102
RTVSPost2010Prop52
140
1.0
102
RTVSPost2010PropOp52
 70
     0
102
RTVSPost2010Prop53
 90
        2
102
RTVSPost2010PropOp53
 70
     1
102
RTVSPost2010Prop54
  1
strokes_ogs.tif
102
RTVSPost2010PropOp54
 70
     1
102
RTVSPost2010Prop55
280
     0
102
RTVSPost2010PropOp55
 70
     1
102
RTVSPost2010Prop56
140
1.0
102
RTVSPost2010PropOp56
 70
     1
102
RTVSPost2010Prop57
140
1.0
102
RTVSPost2010PropOp57
 70
     1
  0
XRECORD
  5
24E
102
{ACAD_REACTORS
330
24D
102
}
330
24D
100
AcDbXrecord
280
     1
102
RTVSPost2010Prop28
280
     0
102
RTVSPost2010PropOp28
 70
     1
102
RTVSPost2010Prop29
280
     1
102
RTVSPost2010PropOp29
 70
     1
102
RTVSPost2010Prop30
280
     1
102
RTVSPost2010PropOp30
 70
     1
102
RTVSPost2010Prop31
280
     0
102
RTVSPost2010PropOp31
 70
     1
102
RTVSPost2010Prop32
280
     0
102
RTVSPost2010PropOp32
 70
     1
102
RTVSPost2010Prop33
280
     0
102
RTVSPost2010PropOp33
 70
     1
102
RTVSPost2010Prop34
280
     0
102
RTVSPost2010PropOp34
 70
     1
102
RTVSPost2010Prop35
280
     0
102
RTVSPost2010PropOp35
 70
     1
102
RTVSPost2010Prop36
280
     0
102
RTVSPost2010PropOp36
 70
     1
102
RTVSPost2010Prop37
 90
       50
102
RTVSPost2010PropOp37
 70
     1
102
RTVSPost2010Prop38
140
0.0
102
RTVSPost2010PropOp38
 70
     1
102
RTVSPost2010Prop39
140
1.0
102
RTVSPost2010PropOp39
 70
     1
102
RTVSPost2010Prop40
 90
        0
102
RTVSPost2010PropOp40
 70
     1
102
RTVSPost2010Prop41ColorIndex
 90
       18
102
RTVSPost2010Prop41ColorRGB
 90
        0
102
RTVSPost2010PropOp41
 70
     1
102
RTVSPost2010Prop42
 90
       50
102
RTVSPost2010PropOp42
 70
     1
102
RTVSPost2010Prop43
 90
        3
102
RTVSPost2010PropOp43
 70
     1
102
RTVSPost2010Prop44ColorIndex
 90
        5
102
RTVSPost2010Prop44ColorRGB
 90
      255
102
RTVSPost2010PropOp44
 70
     1
102
RTVSPost2010Prop45
280
     0
102
RTVSPost2010PropOp45
 70
     1
102
RTVSPost2010Prop46
 90
       50
102
RTVSPost2010PropOp46
 70
     1
102
RTVSPost2010Prop47
 90
       50
102
RTVSPost2010PropOp47
 70
     1
102
RTVSPost2010Prop48
 90
       50
102
RTVSPost2010PropOp48
 70
     1
102
RTVSPost2010Prop49
280
     0
102
RTVSPost2010PropOp49
 70
     1
102
RTVSPost2010Prop50
 90
       50
102
RTVSPost2010PropOp50
 70
     1
102
RTVSPost2010Prop51ColorIndex
 90
      256
102
RTVSPost2010Prop51ColorRGB
 90
-16777216
102
RTVSPost2010PropOp51
 70
     0
102
RTVSPost2010Prop52
140
1.0
102
RTVSPost2010PropOp52
 70
     0
102
RTVSPost2010Prop53
 90
        2
102
RTVSPost2010PropOp53
 70
     1
102
RTVSPost2010Prop54
  1
strokes_ogs.tif
102
RTVSPost2010PropOp54
 70
     1
102
RTVSPost2010Prop55
280
     0
102
RTVSPost2010PropOp55
 70
     1
102
RTVSPost2010Prop56
140
1.0
102
RTVSPost2010PropOp56
 70
     1
102
RTVSPost2010Prop57
140
1.0
102
RTVSPost2010PropOp57
 70
     1
  0
XRECORD
  5
256
102
{ACAD_REACTORS
330
255
102
}
330
255
100
AcDbXrecord
280
     1
102
RTVSPost2010Prop28
280
     0
102
RTVSPost2010PropOp28
 70
     1
102
RTVSPost2010Prop29
280
     1
102
RTVSPost2010PropOp29
 70
     1
102
RTVSPost2010Prop30
280
     1
102
RTVSPost2010PropOp30
 70
     1
102
RTVSPost2010Prop31
280
     0
102
RTVSPost2010PropOp31
 70
     1
102
RTVSPost2010Prop32
280
     0
102
RTVSPost2010PropOp32
 70
     1
102
RTVSPost2010Prop33
280
     0
102
RTVSPost2010PropOp33
 70
     1
102
RTVSPost2010Prop34
280
     0
102
RTVSPost2010PropOp34
 70
     1
102
RTVSPost2010Prop35
280
     0
102
RTVSPost2010PropOp35
 70
     1
102
RTVSPost2010Prop36
280
     0
102
RTVSPost2010PropOp36
 70
     1
102
RTVSPost2010Prop37
 90
       50
102
RTVSPost2010PropOp37
 70
     1
102
RTVSPost2010Prop38
140
0.0
102
RTVSPost2010PropOp38
 70
     1
102
RTVSPost2010Prop39
140
1.0
102
RTVSPost2010PropOp39
 70
     1
102
RTVSPost2010Prop40
 90
        0
102
RTVSPost2010PropOp40
 70
     1
102
RTVSPost2010Prop41ColorIndex
 90
       18
102
RTVSPost2010Prop41ColorRGB
 90
        0
102
RTVSPost2010PropOp41
 70
     1
102
RTVSPost2010Prop42
 90
       50
102
RTVSPost2010PropOp42
 70
     1
102
RTVSPost2010Prop43
 90
        3
102
RTVSPost2010PropOp43
 70
     1
102
RTVSPost2010Prop44ColorIndex
 90
        5
102
RTVSPost2010Prop44ColorRGB
 90
      255
102
RTVSPost2010PropOp44
 70
     1
102
RTVSPost2010Prop45
280
     0
102
RTVSPost2010PropOp45
 70
     1
102
RTVSPost2010Prop46
 90
       50
102
RTVSPost2010PropOp46
 70
     1
102
RTVSPost2010Prop47
 90
       50
102
RTVSPost2010PropOp47
 70
     1
102
RTVSPost2010Prop48
 90
       50
102
RTVSPost2010PropOp48
 70
     1
102
RTVSPost2010Prop49
280
     0
102
RTVSPost2010PropOp49
 70
     1
102
RTVSPost2010Prop50
 90
       50
102
RTVSPost2010PropOp50
 70
     1
102
RTVSPost2010Prop51ColorIndex
 90
      256
102
RTVSPost2010Prop51ColorRGB
 90
-16777216
102
RTVSPost2010PropOp51
 70
     0
102
RTVSPost2010Prop52
140
1.0
102
RTVSPost2010PropOp52
 70
     0
102
RTVSPost2010Prop53
 90
        2
102
RTVSPost2010PropOp53
 70
     1
102
RTVSPost2010Prop54
  1
strokes_ogs.tif
102
RTVSPost2010PropOp54
 70
     1
102
RTVSPost2010Prop55
280
     0
102
RTVSPost2010PropOp55
 70
     1
102
RTVSPost2010Prop56
140
1.0
102
RTVSPost2010PropOp56
 70
     1
102
RTVSPost2010Prop57
140
1.0
102
RTVSPost2010PropOp57
 70
     1
  0
XRECORD
  5
24A
102
{ACAD_REACTORS
330
249
102
}
330
249
100
AcDbXrecord
280
     1
102
RTVSPost2010Prop28
280
     0
102
RTVSPost2010PropOp28
 70
     1
102
RTVSPost2010Prop29
280
     1
102
RTVSPost2010PropOp29
 70
     1
102
RTVSPost2010Prop30
280
     1
102
RTVSPost2010PropOp30
 70
     1
102
RTVSPost2010Prop31
280
     0
102
RTVSPost2010PropOp31
 70
     1
102
RTVSPost2010Prop32
280
     0
102
RTVSPost2010PropOp32
 70
     1
102
RTVSPost2010Prop33
280
     0
102
RTVSPost2010PropOp33
 70
     1
102
RTVSPost2010Prop34
280
     0
102
RTVSPost2010PropOp34
 70
     1
102
RTVSPost2010Prop35
280
     0
102
RTVSPost2010PropOp35
 70
     1
102
RTVSPost2010Prop36
280
     0
102
RTVSPost2010PropOp36
 70
     1
102
RTVSPost2010Prop37
 90
       50
102
RTVSPost2010PropOp37
 70
     1
102
RTVSPost2010Prop38
140
0.0
102
RTVSPost2010PropOp38
 70
     1
102
RTVSPost2010Prop39
140
1.0
102
RTVSPost2010PropOp39
 70
     1
102
RTVSPost2010Prop40
 90
        0
102
RTVSPost2010PropOp40
 70
     1
102
RTVSPost2010Prop41ColorIndex
 90
       18
102
RTVSPost2010Prop41ColorRGB
 90
        0
102
RTVSPost2010PropOp41
 70
     1
102
RTVSPost2010Prop42
 90
       50
102
RTVSPost2010PropOp42
 70
     1
102
RTVSPost2010Prop43
 90
        3
102
RTVSPost2010PropOp43
 70
     1
102
RTVSPost2010Prop44ColorIndex
 90
        5
102
RTVSPost2010Prop44ColorRGB
 90
      255
102
RTVSPost2010PropOp44
 70
     1
102
RTVSPost2010Prop45
280
     0
102
RTVSPost2010PropOp45
 70
     1
102
RTVSPost2010Prop46
 90
       50
102
RTVSPost2010PropOp46
 70
     1
102
RTVSPost2010Prop47
 90
       50
102
RTVSPost2010PropOp47
 70
     1
102
RTVSPost2010Prop48
 90
       50
102
RTVSPost2010PropOp48
 70
     1
102
RTVSPost2010Prop49
280
     0
102
RTVSPost2010PropOp49
 70
     1
102
RTVSPost2010Prop50
 90
       50
102
RTVSPost2010PropOp50
 70
     1
102
RTVSPost2010Prop51ColorIndex
 90
      256
102
RTVSPost2010Prop51ColorRGB
 90
-16777216
102
RTVSPost2010PropOp51
 70
     0
102
RTVSPost2010Prop52
140
1.0
102
RTVSPost2010PropOp52
 70
     0
102
RTVSPost2010Prop53
 90
        2
102
RTVSPost2010PropOp53
 70
     1
102
RTVSPost2010Prop54
  1
strokes_ogs.tif
102
RTVSPost2010PropOp54
 70
     1
102
RTVSPost2010Prop55
280
     0
102
RTVSPost2010PropOp55
 70
     1
102
RTVSPost2010Prop56
140
1.0
102
RTVSPost2010PropOp56
 70
     1
102
RTVSPost2010Prop57
140
1.0
102
RTVSPost2010PropOp57
 70
     1
  0
XRECORD
  5
24C
102
{ACAD_REACTORS
330
24B
102
}
330
24B
100
AcDbXrecord
280
     1
102
RTVSPost2010Prop28
280
     0
102
RTVSPost2010PropOp28
 70
     1
102
RTVSPost2010Prop29
280
     1
102
RTVSPost2010PropOp29
 70
     1
102
RTVSPost2010Prop30
280
     1
102
RTVSPost2010PropOp30
 70
     1
102
RTVSPost2010Prop31
280
     0
102
RTVSPost2010PropOp31
 70
     1
102
RTVSPost2010Prop32
280
     0
102
RTVSPost2010PropOp32
 70
     1
102
RTVSPost2010Prop33
280
     0
102
RTVSPost2010PropOp33
 70
     1
102
RTVSPost2010Prop34
280
     0
102
RTVSPost2010PropOp34
 70
     1
102
RTVSPost2010Prop35
280
     0
102
RTVSPost2010PropOp35
 70
     1
102
RTVSPost2010Prop36
280
     0
102
RTVSPost2010PropOp36
 70
     1
102
RTVSPost2010Prop37
 90
       50
102
RTVSPost2010PropOp37
 70
     1
102
RTVSPost2010Prop38
140
0.0
102
RTVSPost2010PropOp38
 70
     1
102
RTVSPost2010Prop39
140
1.0
102
RTVSPost2010PropOp39
 70
     1
102
RTVSPost2010Prop40
 90
        0
102
RTVSPost2010PropOp40
 70
     1
102
RTVSPost2010Prop41ColorIndex
 90
       18
102
RTVSPost2010Prop41ColorRGB
 90
        0
102
RTVSPost2010PropOp41
 70
     1
102
RTVSPost2010Prop42
 90
       50
102
RTVSPost2010PropOp42
 70
     1
102
RTVSPost2010Prop43
 90
        3
102
RTVSPost2010PropOp43
 70
     1
102
RTVSPost2010Prop44ColorIndex
 90
        5
102
RTVSPost2010Prop44ColorRGB
 90
      255
102
RTVSPost2010PropOp44
 70
     1
102
RTVSPost2010Prop45
280
     0
102
RTVSPost2010PropOp45
 70
     1
102
RTVSPost2010Prop46
 90
       50
102
RTVSPost2010PropOp46
 70
     1
102
RTVSPost2010Prop47
 90
       50
102
RTVSPost2010PropOp47
 70
     1
102
RTVSPost2010Prop48
 90
       50
102
RTVSPost2010PropOp48
 70
     1
102
RTVSPost2010Prop49
280
     0
102
RTVSPost2010PropOp49
 70
     1
102
RTVSPost2010Prop50
 90
       50
102
RTVSPost2010PropOp50
 70
     1
102
RTVSPost2010Prop51ColorIndex
 90
      256
102
RTVSPost2010Prop51ColorRGB
 90
-16777216
102
RTVSPost2010PropOp51
 70
     0
102
RTVSPost2010Prop52
140
1.0
102
RTVSPost2010PropOp52
 70
     0
102
RTVSPost2010Prop53
 90
        2
102
RTVSPost2010PropOp53
 70
     1
102
RTVSPost2010Prop54
  1
strokes_ogs.tif
102
RTVSPost2010PropOp54
 70
     1
102
RTVSPost2010Prop55
280
     0
102
RTVSPost2010PropOp55
 70
     1
102
RTVSPost2010Prop56
140
1.0
102
RTVSPost2010PropOp56
 70
     1
102
RTVSPost2010Prop57
140
1.0
102
RTVSPost2010PropOp57
 70
     1
  0
XRECORD
  5
25C
102
{ACAD_REACTORS
330
25B
102
}
330
25B
100
AcDbXrecord
280
     1
102
RTVSPost2010Prop28
280
     0
102
RTVSPost2010PropOp28
 70
     0
102
RTVSPost2010Prop29
280
     1
102
RTVSPost2010PropOp29
 70
     0
102
RTVSPost2010Prop30
280
     1
102
RTVSPost2010PropOp30
 70
     0
102
RTVSPost2010Prop31
280
     0
102
RTVSPost2010PropOp31
 70
     0
102
RTVSPost2010Prop32
280
     0
102
RTVSPost2010PropOp32
 70
     0
102
RTVSPost2010Prop33
280
     0
102
RTVSPost2010PropOp33
 70
     0
102
RTVSPost2010Prop34
280
     0
102
RTVSPost2010PropOp34
 70
     0
102
RTVSPost2010Prop35
280
     0
102
RTVSPost2010PropOp35
 70
     0
102
RTVSPost2010Prop36
280
     0
102
RTVSPost2010PropOp36
 70
     0
102
RTVSPost2010Prop37
 90
       50
102
RTVSPost2010PropOp37
 70
     0
102
RTVSPost2010Prop38
140
0.0
102
RTVSPost2010PropOp38
 70
     0
102
RTVSPost2010Prop39
140
1.0
102
RTVSPost2010PropOp39
 70
     0
102
RTVSPost2010Prop40
 90
        0
102
RTVSPost2010PropOp40
 70
     0
102
RTVSPost2010Prop41ColorIndex
 90
       18
102
RTVSPost2010Prop41ColorRGB
 90
        0
102
RTVSPost2010PropOp41
 70
     0
102
RTVSPost2010Prop42
 90
       50
102
RTVSPost2010PropOp42
 70
     0
102
RTVSPost2010Prop43
 90
        3
102
RTVSPost2010PropOp43
 70
     0
102
RTVSPost2010Prop44ColorIndex
 90
        5
102
RTVSPost2010Prop44ColorRGB
 90
      255
102
RTVSPost2010PropOp44
 70
     0
102
RTVSPost2010Prop45
280
     0
102
RTVSPost2010PropOp45
 70
     0
102
RTVSPost2010Prop46
 90
       50
102
RTVSPost2010PropOp46
 70
     0
102
RTVSPost2010Prop47
 90
       50
102
RTVSPost2010PropOp47
 70
     0
102
RTVSPost2010Prop48
 90
       50
102
RTVSPost2010PropOp48
 70
     0
102
RTVSPost2010Prop49
280
     0
102
RTVSPost2010PropOp49
 70
     0
102
RTVSPost2010Prop50
 90
       50
102
RTVSPost2010PropOp50
 70
     0
102
RTVSPost2010Prop51ColorIndex
 90
      256
102
RTVSPost2010Prop51ColorRGB
 90
-16777216
102
RTVSPost2010PropOp51
 70
     0
102
RTVSPost2010Prop52
140
1.0
102
RTVSPost2010PropOp52
 70
     0
102
RTVSPost2010Prop53
 90
        2
102
RTVSPost2010PropOp53
 70
     0
102
RTVSPost2010Prop54
  1
strokes_ogs.tif
102
RTVSPost2010PropOp54
 70
     0
102
RTVSPost2010Prop55
280
     0
102
RTVSPost2010PropOp55
 70
     0
102
RTVSPost2010Prop56
140
1.0
102
RTVSPost2010PropOp56
 70
     0
102
RTVSPost2010Prop57
140
1.0
102
RTVSPost2010PropOp57
 70
     0
  0
XRECORD
  5
254
102
{ACAD_REACTORS
330
253
102
}
330
253
100
AcDbXrecord
280
     1
102
RTVSPost2010Prop28
280
     0
102
RTVSPost2010PropOp28
 70
     1
102
RTVSPost2010Prop29
280
     1
102
RTVSPost2010PropOp29
 70
     1
102
RTVSPost2010Prop30
280
     1
102
RTVSPost2010PropOp30
 70
     1
102
RTVSPost2010Prop31
280
     0
102
RTVSPost2010PropOp31
 70
     1
102
RTVSPost2010Prop32
280
     0
102
RTVSPost2010PropOp32
 70
     1
102
RTVSPost2010Prop33
280
     0
102
RTVSPost2010PropOp33
 70
     1
102
RTVSPost2010Prop34
280
     0
102
RTVSPost2010PropOp34
 70
     1
102
RTVSPost2010Prop35
280
     0
102
RTVSPost2010PropOp35
 70
     1
102
RTVSPost2010Prop36
280
     0
102
RTVSPost2010PropOp36
 70
     1
102
RTVSPost2010Prop37
 90
       50
102
RTVSPost2010PropOp37
 70
     1
102
RTVSPost2010Prop38
140
0.0
102
RTVSPost2010PropOp38
 70
     1
102
RTVSPost2010Prop39
140
1.0
102
RTVSPost2010PropOp39
 70
     1
102
RTVSPost2010Prop40
 90
        0
102
RTVSPost2010PropOp40
 70
     1
102
RTVSPost2010Prop41ColorIndex
 90
       18
102
RTVSPost2010Prop41ColorRGB
 90
        0
102
RTVSPost2010PropOp41
 70
     1
102
RTVSPost2010Prop42
 90
       50
102
RTVSPost2010PropOp42
 70
     1
102
RTVSPost2010Prop43
 90
        3
102
RTVSPost2010PropOp43
 70
     1
102
RTVSPost2010Prop44ColorIndex
 90
        5
102
RTVSPost2010Prop44ColorRGB
 90
      255
102
RTVSPost2010PropOp44
 70
     1
102
RTVSPost2010Prop45
280
     0
102
RTVSPost2010PropOp45
 70
     1
102
RTVSPost2010Prop46
 90
       50
102
RTVSPost2010PropOp46
 70
     1
102
RTVSPost2010Prop47
 90
       50
102
RTVSPost2010PropOp47
 70
     1
102
RTVSPost2010Prop48
 90
       50
102
RTVSPost2010PropOp48
 70
     1
102
RTVSPost2010Prop49
280
     0
102
RTVSPost2010PropOp49
 70
     1
102
RTVSPost2010Prop50
 90
       50
102
RTVSPost2010PropOp50
 70
     1
102
RTVSPost2010Prop51ColorIndex
 90
      256
102
RTVSPost2010Prop51ColorRGB
 90
-16777216
102
RTVSPost2010PropOp51
 70
     0
102
RTVSPost2010Prop52
140
1.0
102
RTVSPost2010PropOp52
 70
     0
102
RTVSPost2010Prop53
 90
        2
102
RTVSPost2010PropOp53
 70
     1
102
RTVSPost2010Prop54
  1
strokes_ogs.tif
102
RTVSPost2010PropOp54
 70
     1
102
RTVSPost2010Prop55
280
     0
102
RTVSPost2010PropOp55
 70
     1
102
RTVSPost2010Prop56
140
1.0
102
RTVSPost2010PropOp56
 70
     1
102
RTVSPost2010Prop57
140
1.0
102
RTVSPost2010PropOp57
 70
     1
  0
XRECORD
  5
238
102
{ACAD_REACTORS
330
237
102
}
330
237
100
AcDbXrecord
280
     1
102
RTVSPost2010Prop28
280
     0
102
RTVSPost2010PropOp28
 70
     1
102
RTVSPost2010Prop29
280
     1
102
RTVSPost2010PropOp29
 70
     1
102
RTVSPost2010Prop30
280
     1
102
RTVSPost2010PropOp30
 70
     1
102
RTVSPost2010Prop31
280
     0
102
RTVSPost2010PropOp31
 70
     1
102
RTVSPost2010Prop32
280
     0
102
RTVSPost2010PropOp32
 70
     1
102
RTVSPost2010Prop33
280
     0
102
RTVSPost2010PropOp33
 70
     1
102
RTVSPost2010Prop34
280
     0
102
RTVSPost2010PropOp34
 70
     1
102
RTVSPost2010Prop35
280
     0
102
RTVSPost2010PropOp35
 70
     1
102
RTVSPost2010Prop36
280
     0
102
RTVSPost2010PropOp36
 70
     1
102
RTVSPost2010Prop37
 90
       50
102
RTVSPost2010PropOp37
 70
     1
102
RTVSPost2010Prop38
140
0.0
102
RTVSPost2010PropOp38
 70
     1
102
RTVSPost2010Prop39
140
1.0
102
RTVSPost2010PropOp39
 70
     1
102
RTVSPost2010Prop40
 90
        0
102
RTVSPost2010PropOp40
 70
     1
102
RTVSPost2010Prop41ColorIndex
 90
       18
102
RTVSPost2010Prop41ColorRGB
 90
        0
102
RTVSPost2010PropOp41
 70
     1
102
RTVSPost2010Prop42
 90
       50
102
RTVSPost2010PropOp42
 70
     1
102
RTVSPost2010Prop43
 90
        3
102
RTVSPost2010PropOp43
 70
     1
102
RTVSPost2010Prop44ColorIndex
 90
        5
102
RTVSPost2010Prop44ColorRGB
 90
      255
102
RTVSPost2010PropOp44
 70
     1
102
RTVSPost2010Prop45
280
     0
102
RTVSPost2010PropOp45
 70
     1
102
RTVSPost2010Prop46
 90
       50
102
RTVSPost2010PropOp46
 70
     1
102
RTVSPost2010Prop47
 90
       50
102
RTVSPost2010PropOp47
 70
     1
102
RTVSPost2010Prop48
 90
       50
102
RTVSPost2010PropOp48
 70
     1
102
RTVSPost2010Prop49
280
     0
102
RTVSPost2010PropOp49
 70
     1
102
RTVSPost2010Prop50
 90
       50
102
RTVSPost2010PropOp50
 70
     1
102
RTVSPost2010Prop51ColorIndex
 90
      256
102
RTVSPost2010Prop51ColorRGB
 90
-16777216
102
RTVSPost2010PropOp51
 70
     0
102
RTVSPost2010Prop52
140
1.0
102
RTVSPost2010PropOp52
 70
     0
102
RTVSPost2010Prop53
 90
        2
102
RTVSPost2010PropOp53
 70
     1
102
RTVSPost2010Prop54
  1
strokes_ogs.tif
102
RTVSPost2010PropOp54
 70
     1
102
RTVSPost2010Prop55
280
     0
102
RTVSPost2010PropOp55
 70
     1
102
RTVSPost2010Prop56
140
1.0
102
RTVSPost2010PropOp56
 70
     1
102
RTVSPost2010Prop57
140
1.0
102
RTVSPost2010PropOp57
 70
     1
  0
XRECORD
  5
23A
102
{ACAD_REACTORS
330
239
102
}
330
239
100
AcDbXrecord
280
     1
102
RTVSPost2010Prop28
280
     0
102
RTVSPost2010PropOp28
 70
     1
102
RTVSPost2010Prop29
280
     1
102
RTVSPost2010PropOp29
 70
     1
102
RTVSPost2010Prop30
280
     1
102
RTVSPost2010PropOp30
 70
     1
102
RTVSPost2010Prop31
280
     0
102
RTVSPost2010PropOp31
 70
     1
102
RTVSPost2010Prop32
280
     0
102
RTVSPost2010PropOp32
 70
     1
102
RTVSPost2010Prop33
280
     0
102
RTVSPost2010PropOp33
 70
     1
102
RTVSPost2010Prop34
280
     0
102
RTVSPost2010PropOp34
 70
     1
102
RTVSPost2010Prop35
280
     0
102
RTVSPost2010PropOp35
 70
     1
102
RTVSPost2010Prop36
280
     0
102
RTVSPost2010PropOp36
 70
     1
102
RTVSPost2010Prop37
 90
       50
102
RTVSPost2010PropOp37
 70
     1
102
RTVSPost2010Prop38
140
0.0
102
RTVSPost2010PropOp38
 70
     1
102
RTVSPost2010Prop39
140
1.0
102
RTVSPost2010PropOp39
 70
     1
102
RTVSPost2010Prop40
 90
        0
102
RTVSPost2010PropOp40
 70
     1
102
RTVSPost2010Prop41ColorIndex
 90
       18
102
RTVSPost2010Prop41ColorRGB
 90
        0
102
RTVSPost2010PropOp41
 70
     1
102
RTVSPost2010Prop42
 90
       50
102
RTVSPost2010PropOp42
 70
     1
102
RTVSPost2010Prop43
 90
        3
102
RTVSPost2010PropOp43
 70
     1
102
RTVSPost2010Prop44ColorIndex
 90
        5
102
RTVSPost2010Prop44ColorRGB
 90
      255
102
RTVSPost2010PropOp44
 70
     1
102
RTVSPost2010Prop45
280
     0
102
RTVSPost2010PropOp45
 70
     1
102
RTVSPost2010Prop46
 90
       50
102
RTVSPost2010PropOp46
 70
     1
102
RTVSPost2010Prop47
 90
       50
102
RTVSPost2010PropOp47
 70
     1
102
RTVSPost2010Prop48
 90
       50
102
RTVSPost2010PropOp48
 70
     1
102
RTVSPost2010Prop49
280
     0
102
RTVSPost2010PropOp49
 70
     1
102
RTVSPost2010Prop50
 90
       50
102
RTVSPost2010PropOp50
 70
     1
102
RTVSPost2010Prop51ColorIndex
 90
      256
102
RTVSPost2010Prop51ColorRGB
 90
-16777216
102
RTVSPost2010PropOp51
 70
     0
102
RTVSPost2010Prop52
140
1.0
102
RTVSPost2010PropOp52
 70
     0
102
RTVSPost2010Prop53
 90
        2
102
RTVSPost2010PropOp53
 70
     1
102
RTVSPost2010Prop54
  1
strokes_ogs.tif
102
RTVSPost2010PropOp54
 70
     1
102
RTVSPost2010Prop55
280
     0
102
RTVSPost2010PropOp55
 70
     1
102
RTVSPost2010Prop56
140
1.0
102
RTVSPost2010PropOp56
 70
     1
102
RTVSPost2010Prop57
140
1.0
102
RTVSPost2010PropOp57
 70
     1
  0
XRECORD
  5
23C
102
{ACAD_REACTORS
330
23B
102
}
330
23B
100
AcDbXrecord
280
     1
102
RTVSPost2010Prop28
280
     0
102
RTVSPost2010PropOp28
 70
     1
102
RTVSPost2010Prop29
280
     1
102
RTVSPost2010PropOp29
 70
     1
102
RTVSPost2010Prop30
280
     1
102
RTVSPost2010PropOp30
 70
     1
102
RTVSPost2010Prop31
280
     0
102
RTVSPost2010PropOp31
 70
     1
102
RTVSPost2010Prop32
280
     0
102
RTVSPost2010PropOp32
 70
     1
102
RTVSPost2010Prop33
280
     0
102
RTVSPost2010PropOp33
 70
     1
102
RTVSPost2010Prop34
280
     0
102
RTVSPost2010PropOp34
 70
     1
102
RTVSPost2010Prop35
280
     0
102
RTVSPost2010PropOp35
 70
     1
102
RTVSPost2010Prop36
280
     0
102
RTVSPost2010PropOp36
 70
     1
102
RTVSPost2010Prop37
 90
       50
102
RTVSPost2010PropOp37
 70
     1
102
RTVSPost2010Prop38
140
0.0
102
RTVSPost2010PropOp38
 70
     1
102
RTVSPost2010Prop39
140
1.0
102
RTVSPost2010PropOp39
 70
     1
102
RTVSPost2010Prop40
 90
        0
102
RTVSPost2010PropOp40
 70
     1
102
RTVSPost2010Prop41ColorIndex
 90
       18
102
RTVSPost2010Prop41ColorRGB
 90
        0
102
RTVSPost2010PropOp41
 70
     1
102
RTVSPost2010Prop42
 90
       50
102
RTVSPost2010PropOp42
 70
     1
102
RTVSPost2010Prop43
 90
        3
102
RTVSPost2010PropOp43
 70
     1
102
RTVSPost2010Prop44ColorIndex
 90
        5
102
RTVSPost2010Prop44ColorRGB
 90
      255
102
RTVSPost2010PropOp44
 70
     1
102
RTVSPost2010Prop45
280
     0
102
RTVSPost2010PropOp45
 70
     1
102
RTVSPost2010Prop46
 90
       50
102
RTVSPost2010PropOp46
 70
     1
102
RTVSPost2010Prop47
 90
       50
102
RTVSPost2010PropOp47
 70
     1
102
RTVSPost2010Prop48
 90
       50
102
RTVSPost2010PropOp48
 70
     1
102
RTVSPost2010Prop49
280
     0
102
RTVSPost2010PropOp49
 70
     1
102
RTVSPost2010Prop50
 90
       50
102
RTVSPost2010PropOp50
 70
     1
102
RTVSPost2010Prop51ColorIndex
 90
      256
102
RTVSPost2010Prop51ColorRGB
 90
-16777216
102
RTVSPost2010PropOp51
 70
     0
102
RTVSPost2010Prop52
140
1.0
102
RTVSPost2010PropOp52
 70
     0
102
RTVSPost2010Prop53
 90
        2
102
RTVSPost2010PropOp53
 70
     1
102
RTVSPost2010Prop54
  1
strokes_ogs.tif
102
RTVSPost2010PropOp54
 70
     1
102
RTVSPost2010Prop55
280
     0
102
RTVSPost2010PropOp55
 70
     1
102
RTVSPost2010Prop56
140
1.0
102
RTVSPost2010PropOp56
 70
     1
102
RTVSPost2010Prop57
140
1.0
102
RTVSPost2010PropOp57
 70
     1
  0
XRECORD
  5
23E
102
{ACAD_REACTORS
330
23D
102
}
330
23D
100
AcDbXrecord
280
     1
102
RTVSPost2010Prop28
280
     0
102
RTVSPost2010PropOp28
 70
     1
102
RTVSPost2010Prop29
280
     1
102
RTVSPost2010PropOp29
 70
     1
102
RTVSPost2010Prop30
280
     1
102
RTVSPost2010PropOp30
 70
     1
102
RTVSPost2010Prop31
280
     0
102
RTVSPost2010PropOp31
 70
     1
102
RTVSPost2010Prop32
280
     0
102
RTVSPost2010PropOp32
 70
     1
102
RTVSPost2010Prop33
280
     0
102
RTVSPost2010PropOp33
 70
     1
102
RTVSPost2010Prop34
280
     0
102
RTVSPost2010PropOp34
 70
     1
102
RTVSPost2010Prop35
280
     0
102
RTVSPost2010PropOp35
 70
     1
102
RTVSPost2010Prop36
280
     0
102
RTVSPost2010PropOp36
 70
     1
102
RTVSPost2010Prop37
 90
       50
102
RTVSPost2010PropOp37
 70
     1
102
RTVSPost2010Prop38
140
0.0
102
RTVSPost2010PropOp38
 70
     1
102
RTVSPost2010Prop39
140
1.0
102
RTVSPost2010PropOp39
 70
     1
102
RTVSPost2010Prop40
 90
        0
102
RTVSPost2010PropOp40
 70
     1
102
RTVSPost2010Prop41ColorIndex
 90
       18
102
RTVSPost2010Prop41ColorRGB
 90
        0
102
RTVSPost2010PropOp41
 70
     1
102
RTVSPost2010Prop42
 90
       50
102
RTVSPost2010PropOp42
 70
     1
102
RTVSPost2010Prop43
 90
        3
102
RTVSPost2010PropOp43
 70
     1
102
RTVSPost2010Prop44ColorIndex
 90
        5
102
RTVSPost2010Prop44ColorRGB
 90
      255
102
RTVSPost2010PropOp44
 70
     1
102
RTVSPost2010Prop45
280
     0
102
RTVSPost2010PropOp45
 70
     1
102
RTVSPost2010Prop46
 90
       50
102
RTVSPost2010PropOp46
 70
     1
102
RTVSPost2010Prop47
 90
       50
102
RTVSPost2010PropOp47
 70
     1
102
RTVSPost2010Prop48
 90
       50
102
RTVSPost2010PropOp48
 70
     1
102
RTVSPost2010Prop49
280
     0
102
RTVSPost2010PropOp49
 70
     1
102
RTVSPost2010Prop50
 90
       50
102
RTVSPost2010PropOp50
 70
     1
102
RTVSPost2010Prop51ColorIndex
 90
      256
102
RTVSPost2010Prop51ColorRGB
 90
-16777216
102
RTVSPost2010PropOp51
 70
     0
102
RTVSPost2010Prop52
140
1.0
102
RTVSPost2010PropOp52
 70
     0
102
RTVSPost2010Prop53
 90
        2
102
RTVSPost2010PropOp53
 70
     1
102
RTVSPost2010Prop54
  1
strokes_ogs.tif
102
RTVSPost2010PropOp54
 70
     1
102
RTVSPost2010Prop55
280
     0
102
RTVSPost2010PropOp55
 70
     1
102
RTVSPost2010Prop56
140
1.0
102
RTVSPost2010PropOp56
 70
     1
102
RTVSPost2010Prop57
140
1.0
102
RTVSPost2010PropOp57
 70
     1
  0
XRECORD
  5
244
102
{ACAD_REACTORS
330
243
102
}
330
243
100
AcDbXrecord
280
     1
102
RTVSPost2010Prop28
280
     0
102
RTVSPost2010PropOp28
 70
     1
102
RTVSPost2010Prop29
280
     1
102
RTVSPost2010PropOp29
 70
     1
102
RTVSPost2010Prop30
280
     1
102
RTVSPost2010PropOp30
 70
     1
102
RTVSPost2010Prop31
280
     0
102
RTVSPost2010PropOp31
 70
     1
102
RTVSPost2010Prop32
280
     0
102
RTVSPost2010PropOp32
 70
     1
102
RTVSPost2010Prop33
280
     0
102
RTVSPost2010PropOp33
 70
     1
102
RTVSPost2010Prop34
280
     0
102
RTVSPost2010PropOp34
 70
     1
102
RTVSPost2010Prop35
280
     0
102
RTVSPost2010PropOp35
 70
     1
102
RTVSPost2010Prop36
280
     0
102
RTVSPost2010PropOp36
 70
     1
102
RTVSPost2010Prop37
 90
       50
102
RTVSPost2010PropOp37
 70
     1
102
RTVSPost2010Prop38
140
0.0
102
RTVSPost2010PropOp38
 70
     1
102
RTVSPost2010Prop39
140
1.0
102
RTVSPost2010PropOp39
 70
     1
102
RTVSPost2010Prop40
 90
        0
102
RTVSPost2010PropOp40
 70
     1
102
RTVSPost2010Prop41ColorIndex
 90
       18
102
RTVSPost2010Prop41ColorRGB
 90
        0
102
RTVSPost2010PropOp41
 70
     1
102
RTVSPost2010Prop42
 90
       50
102
RTVSPost2010PropOp42
 70
     1
102
RTVSPost2010Prop43
 90
        3
102
RTVSPost2010PropOp43
 70
     1
102
RTVSPost2010Prop44ColorIndex
 90
        5
102
RTVSPost2010Prop44ColorRGB
 90
      255
102
RTVSPost2010PropOp44
 70
     1
102
RTVSPost2010Prop45
280
     0
102
RTVSPost2010PropOp45
 70
     1
102
RTVSPost2010Prop46
 90
       50
102
RTVSPost2010PropOp46
 70
     1
102
RTVSPost2010Prop47
 90
       50
102
RTVSPost2010PropOp47
 70
     1
102
RTVSPost2010Prop48
 90
       50
102
RTVSPost2010PropOp48
 70
     1
102
RTVSPost2010Prop49
280
     0
102
RTVSPost2010PropOp49
 70
     1
102
RTVSPost2010Prop50
 90
       50
102
RTVSPost2010PropOp50
 70
     1
102
RTVSPost2010Prop51ColorIndex
 90
      256
102
RTVSPost2010Prop51ColorRGB
 90
-16777216
102
RTVSPost2010PropOp51
 70
     0
102
RTVSPost2010Prop52
140
1.0
102
RTVSPost2010PropOp52
 70
     0
102
RTVSPost2010Prop53
 90
        2
102
RTVSPost2010PropOp53
 70
     1
102
RTVSPost2010Prop54
  1
strokes_ogs.tif
102
RTVSPost2010PropOp54
 70
     1
102
RTVSPost2010Prop55
280
     0
102
RTVSPost2010PropOp55
 70
     1
102
RTVSPost2010Prop56
140
1.0
102
RTVSPost2010PropOp56
 70
     1
102
RTVSPost2010Prop57
140
1.0
102
RTVSPost2010PropOp57
 70
     1
  0
XRECORD
  5
258
102
{ACAD_REACTORS
330
257
102
}
330
257
100
AcDbXrecord
280
     1
102
RTVSPost2010Prop28
280
     0
102
RTVSPost2010PropOp28
 70
     0
102
RTVSPost2010Prop29
280
     1
102
RTVSPost2010PropOp29
 70
     0
102
RTVSPost2010Prop30
280
     1
102
RTVSPost2010PropOp30
 70
     0
102
RTVSPost2010Prop31
280
     0
102
RTVSPost2010PropOp31
 70
     0
102
RTVSPost2010Prop32
280
     0
102
RTVSPost2010PropOp32
 70
     0
102
RTVSPost2010Prop33
280
     0
102
RTVSPost2010PropOp33
 70
     0
102
RTVSPost2010Prop34
280
     0
102
RTVSPost2010PropOp34
 70
     0
102
RTVSPost2010Prop35
280
     0
102
RTVSPost2010PropOp35
 70
     0
102
RTVSPost2010Prop36
280
     0
102
RTVSPost2010PropOp36
 70
     0
102
RTVSPost2010Prop37
 90
       50
102
RTVSPost2010PropOp37
 70
     0
102
RTVSPost2010Prop38
140
0.0
102
RTVSPost2010PropOp38
 70
     0
102
RTVSPost2010Prop39
140
1.0
102
RTVSPost2010PropOp39
 70
     0
102
RTVSPost2010Prop40
 90
        0
102
RTVSPost2010PropOp40
 70
     0
102
RTVSPost2010Prop41ColorIndex
 90
       18
102
RTVSPost2010Prop41ColorRGB
 90
        0
102
RTVSPost2010PropOp41
 70
     0
102
RTVSPost2010Prop42
 90
       50
102
RTVSPost2010PropOp42
 70
     0
102
RTVSPost2010Prop43
 90
        3
102
RTVSPost2010PropOp43
 70
     0
102
RTVSPost2010Prop44ColorIndex
 90
        5
102
RTVSPost2010Prop44ColorRGB
 90
      255
102
RTVSPost2010PropOp44
 70
     0
102
RTVSPost2010Prop45
280
     0
102
RTVSPost2010PropOp45
 70
     0
102
RTVSPost2010Prop46
 90
       50
102
RTVSPost2010PropOp46
 70
     0
102
RTVSPost2010Prop47
 90
       50
102
RTVSPost2010PropOp47
 70
     0
102
RTVSPost2010Prop48
 90
       50
102
RTVSPost2010PropOp48
 70
     0
102
RTVSPost2010Prop49
280
     0
102
RTVSPost2010PropOp49
 70
     0
102
RTVSPost2010Prop50
 90
       50
102
RTVSPost2010PropOp50
 70
     0
102
RTVSPost2010Prop51ColorIndex
 90
      256
102
RTVSPost2010Prop51ColorRGB
 90
-16777216
102
RTVSPost2010PropOp51
 70
     0
102
RTVSPost2010Prop52
140
1.0
102
RTVSPost2010PropOp52
 70
     0
102
RTVSPost2010Prop53
 90
        2
102
RTVSPost2010PropOp53
 70
     0
102
RTVSPost2010Prop54
  1
strokes_ogs.tif
102
RTVSPost2010PropOp54
 70
     0
102
RTVSPost2010Prop55
280
     0
102
RTVSPost2010PropOp55
 70
     0
102
RTVSPost2010Prop56
140
1.0
102
RTVSPost2010PropOp56
 70
     0
102
RTVSPost2010Prop57
140
1.0
102
RTVSPost2010PropOp57
 70
     0
  0
XRECORD
  5
252
102
{ACAD_REACTORS
330
251
102
}
330
251
100
AcDbXrecord
280
     1
102
RTVSPost2010Prop28
280
     0
102
RTVSPost2010PropOp28
 70
     1
102
RTVSPost2010Prop29
280
     1
102
RTVSPost2010PropOp29
 70
     1
102
RTVSPost2010Prop30
280
     1
102
RTVSPost2010PropOp30
 70
     1
102
RTVSPost2010Prop31
280
     0
102
RTVSPost2010PropOp31
 70
     1
102
RTVSPost2010Prop32
280
     0
102
RTVSPost2010PropOp32
 70
     1
102
RTVSPost2010Prop33
280
     0
102
RTVSPost2010PropOp33
 70
     1
102
RTVSPost2010Prop34
280
     0
102
RTVSPost2010PropOp34
 70
     1
102
RTVSPost2010Prop35
280
     0
102
RTVSPost2010PropOp35
 70
     1
102
RTVSPost2010Prop36
280
     0
102
RTVSPost2010PropOp36
 70
     1
102
RTVSPost2010Prop37
 90
       50
102
RTVSPost2010PropOp37
 70
     1
102
RTVSPost2010Prop38
140
0.0
102
RTVSPost2010PropOp38
 70
     1
102
RTVSPost2010Prop39
140
1.0
102
RTVSPost2010PropOp39
 70
     1
102
RTVSPost2010Prop40
 90
        0
102
RTVSPost2010PropOp40
 70
     1
102
RTVSPost2010Prop41ColorIndex
 90
       18
102
RTVSPost2010Prop41ColorRGB
 90
        0
102
RTVSPost2010PropOp41
 70
     1
102
RTVSPost2010Prop42
 90
       50
102
RTVSPost2010PropOp42
 70
     1
102
RTVSPost2010Prop43
 90
        3
102
RTVSPost2010PropOp43
 70
     1
102
RTVSPost2010Prop44ColorIndex
 90
        5
102
RTVSPost2010Prop44ColorRGB
 90
      255
102
RTVSPost2010PropOp44
 70
     1
102
RTVSPost2010Prop45
280
     0
102
RTVSPost2010PropOp45
 70
     1
102
RTVSPost2010Prop46
 90
       50
102
RTVSPost2010PropOp46
 70
     1
102
RTVSPost2010Prop47
 90
       50
102
RTVSPost2010PropOp47
 70
     1
102
RTVSPost2010Prop48
 90
       50
102
RTVSPost2010PropOp48
 70
     1
102
RTVSPost2010Prop49
280
     0
102
RTVSPost2010PropOp49
 70
     1
102
RTVSPost2010Prop50
 90
       50
102
RTVSPost2010PropOp50
 70
     1
102
RTVSPost2010Prop51ColorIndex
 90
      256
102
RTVSPost2010Prop51ColorRGB
 90
-16777216
102
RTVSPost2010PropOp51
 70
     0
102
RTVSPost2010Prop52
140
1.0
102
RTVSPost2010PropOp52
 70
     0
102
RTVSPost2010Prop53
 90
        2
102
RTVSPost2010PropOp53
 70
     1
102
RTVSPost2010Prop54
  1
strokes_ogs.tif
102
RTVSPost2010PropOp54
 70
     1
102
RTVSPost2010Prop55
280
     0
102
RTVSPost2010PropOp55
 70
     1
102
RTVSPost2010Prop56
140
1.0
102
RTVSPost2010PropOp56
 70
     1
102
RTVSPost2010Prop57
140
1.0
102
RTVSPost2010PropOp57
 70
     1
  0
XRECORD
  5
25A
102
{ACAD_REACTORS
330
259
102
}
330
259
100
AcDbXrecord
280
     1
102
RTVSPost2010Prop28
280
     0
102
RTVSPost2010PropOp28
 70
     0
102
RTVSPost2010Prop29
280
     1
102
RTVSPost2010PropOp29
 70
     0
102
RTVSPost2010Prop30
280
     1
102
RTVSPost2010PropOp30
 70
     0
102
RTVSPost2010Prop31
280
     0
102
RTVSPost2010PropOp31
 70
     0
102
RTVSPost2010Prop32
280
     0
102
RTVSPost2010PropOp32
 70
     0
102
RTVSPost2010Prop33
280
     0
102
RTVSPost2010PropOp33
 70
     0
102
RTVSPost2010Prop34
280
     0
102
RTVSPost2010PropOp34
 70
     0
102
RTVSPost2010Prop35
280
     0
102
RTVSPost2010PropOp35
 70
     0
102
RTVSPost2010Prop36
280
     0
102
RTVSPost2010PropOp36
 70
     0
102
RTVSPost2010Prop37
 90
       50
102
RTVSPost2010PropOp37
 70
     0
102
RTVSPost2010Prop38
140
0.0
102
RTVSPost2010PropOp38
 70
     0
102
RTVSPost2010Prop39
140
1.0
102
RTVSPost2010PropOp39
 70
     0
102
RTVSPost2010Prop40
 90
        0
102
RTVSPost2010PropOp40
 70
     0
102
RTVSPost2010Prop41ColorIndex
 90
       18
102
RTVSPost2010Prop41ColorRGB
 90
        0
102
RTVSPost2010PropOp41
 70
     0
102
RTVSPost2010Prop42
 90
       50
102
RTVSPost2010PropOp42
 70
     0
102
RTVSPost2010Prop43
 90
        3
102
RTVSPost2010PropOp43
 70
     0
102
RTVSPost2010Prop44ColorIndex
 90
        5
102
RTVSPost2010Prop44ColorRGB
 90
      255
102
RTVSPost2010PropOp44
 70
     0
102
RTVSPost2010Prop45
280
     0
102
RTVSPost2010PropOp45
 70
     0
102
RTVSPost2010Prop46
 90
       50
102
RTVSPost2010PropOp46
 70
     0
102
RTVSPost2010Prop47
 90
       50
102
RTVSPost2010PropOp47
 70
     0
102
RTVSPost2010Prop48
 90
       50
102
RTVSPost2010PropOp48
 70
     0
102
RTVSPost2010Prop49
280
     0
102
RTVSPost2010PropOp49
 70
     0
102
RTVSPost2010Prop50
 90
       50
102
RTVSPost2010PropOp50
 70
     0
102
RTVSPost2010Prop51ColorIndex
 90
      256
102
RTVSPost2010Prop51ColorRGB
 90
-16777216
102
RTVSPost2010PropOp51
 70
     0
102
RTVSPost2010Prop52
140
1.0
102
RTVSPost2010PropOp52
 70
     0
102
RTVSPost2010Prop53
 90
        2
102
RTVSPost2010PropOp53
 70
     0
102
RTVSPost2010Prop54
  1
strokes_ogs.tif
102
RTVSPost2010PropOp54
 70
     0
102
RTVSPost2010Prop55
280
     0
102
RTVSPost2010PropOp55
 70
     0
102
RTVSPost2010Prop56
140
1.0
102
RTVSPost2010PropOp56
 70
     0
102
RTVSPost2010Prop57
140
1.0
102
RTVSPost2010PropOp57
 70
     0
  0
XRECORD
  5
248
102
{ACAD_REACTORS
330
247
102
}
330
247
100
AcDbXrecord
280
     1
102
RTVSPost2010Prop28
280
     0
102
RTVSPost2010PropOp28
 70
     1
102
RTVSPost2010Prop29
280
     1
102
RTVSPost2010PropOp29
 70
     1
102
RTVSPost2010Prop30
280
     1
102
RTVSPost2010PropOp30
 70
     1
102
RTVSPost2010Prop31
280
     0
102
RTVSPost2010PropOp31
 70
     1
102
RTVSPost2010Prop32
280
     0
102
RTVSPost2010PropOp32
 70
     1
102
RTVSPost2010Prop33
280
     0
102
RTVSPost2010PropOp33
 70
     1
102
RTVSPost2010Prop34
280
     0
102
RTVSPost2010PropOp34
 70
     1
102
RTVSPost2010Prop35
280
     0
102
RTVSPost2010PropOp35
 70
     1
102
RTVSPost2010Prop36
280
     0
102
RTVSPost2010PropOp36
 70
     1
102
RTVSPost2010Prop37
 90
       50
102
RTVSPost2010PropOp37
 70
     1
102
RTVSPost2010Prop38
140
0.0
102
RTVSPost2010PropOp38
 70
     1
102
RTVSPost2010Prop39
140
1.0
102
RTVSPost2010PropOp39
 70
     1
102
RTVSPost2010Prop40
 90
        0
102
RTVSPost2010PropOp40
 70
     1
102
RTVSPost2010Prop41ColorIndex
 90
       18
102
RTVSPost2010Prop41ColorRGB
 90
        0
102
RTVSPost2010PropOp41
 70
     1
102
RTVSPost2010Prop42
 90
       50
102
RTVSPost2010PropOp42
 70
     1
102
RTVSPost2010Prop43
 90
        3
102
RTVSPost2010PropOp43
 70
     1
102
RTVSPost2010Prop44ColorIndex
 90
        5
102
RTVSPost2010Prop44ColorRGB
 90
      255
102
RTVSPost2010PropOp44
 70
     1
102
RTVSPost2010Prop45
280
     0
102
RTVSPost2010PropOp45
 70
     1
102
RTVSPost2010Prop46
 90
       50
102
RTVSPost2010PropOp46
 70
     1
102
RTVSPost2010Prop47
 90
       50
102
RTVSPost2010PropOp47
 70
     1
102
RTVSPost2010Prop48
 90
       50
102
RTVSPost2010PropOp48
 70
     1
102
RTVSPost2010Prop49
280
     0
102
RTVSPost2010PropOp49
 70
     1
102
RTVSPost2010Prop50
 90
       50
102
RTVSPost2010PropOp50
 70
     1
102
RTVSPost2010Prop51ColorIndex
 90
      256
102
RTVSPost2010Prop51ColorRGB
 90
-16777216
102
RTVSPost2010PropOp51
 70
     0
102
RTVSPost2010Prop52
140
1.0
102
RTVSPost2010PropOp52
 70
     0
102
RTVSPost2010Prop53
 90
        2
102
RTVSPost2010PropOp53
 70
     1
102
RTVSPost2010Prop54
  1
strokes_ogs.tif
102
RTVSPost2010PropOp54
 70
     1
102
RTVSPost2010Prop55
280
     0
102
RTVSPost2010PropOp55
 70
     1
102
RTVSPost2010Prop56
140
1.0
102
RTVSPost2010PropOp56
 70
     1
102
RTVSPost2010Prop57
140
1.0
102
RTVSPost2010PropOp57
 70
     1
  0
XRECORD
  5
266
102
{ACAD_REACTORS
330
265
102
}
330
265
100
AcDbXrecord
280
     1
102
RTVSPost2010Prop28
280
     0
102
RTVSPost2010PropOp28
 70
     1
102
RTVSPost2010Prop29
280
     1
102
RTVSPost2010PropOp29
 70
     1
102
RTVSPost2010Prop30
280
     1
102
RTVSPost2010PropOp30
 70
     1
102
RTVSPost2010Prop31
280
     0
102
RTVSPost2010PropOp31
 70
     1
102
RTVSPost2010Prop32
280
     0
102
RTVSPost2010PropOp32
 70
     1
102
RTVSPost2010Prop33
280
     0
102
RTVSPost2010PropOp33
 70
     1
102
RTVSPost2010Prop34
280
     0
102
RTVSPost2010PropOp34
 70
     1
102
RTVSPost2010Prop35
280
     0
102
RTVSPost2010PropOp35
 70
     1
102
RTVSPost2010Prop36
280
     0
102
RTVSPost2010PropOp36
 70
     1
102
RTVSPost2010Prop37
 90
       50
102
RTVSPost2010PropOp37
 70
     1
102
RTVSPost2010Prop38
140
0.0
102
RTVSPost2010PropOp38
 70
     1
102
RTVSPost2010Prop39
140
1.0
102
RTVSPost2010PropOp39
 70
     1
102
RTVSPost2010Prop40
 90
        0
102
RTVSPost2010PropOp40
 70
     1
102
RTVSPost2010Prop41ColorIndex
 90
       18
102
RTVSPost2010Prop41ColorRGB
 90
        0
102
RTVSPost2010PropOp41
 70
     1
102
RTVSPost2010Prop42
 90
       50
102
RTVSPost2010PropOp42
 70
     1
102
RTVSPost2010Prop43
 90
        3
102
RTVSPost2010PropOp43
 70
     1
102
RTVSPost2010Prop44ColorIndex
 90
        5
102
RTVSPost2010Prop44ColorRGB
 90
      255
102
RTVSPost2010PropOp44
 70
     1
102
RTVSPost2010Prop45
280
     0
102
RTVSPost2010PropOp45
 70
     1
102
RTVSPost2010Prop46
 90
       50
102
RTVSPost2010PropOp46
 70
     1
102
RTVSPost2010Prop47
 90
       50
102
RTVSPost2010PropOp47
 70
     1
102
RTVSPost2010Prop48
 90
       50
102
RTVSPost2010PropOp48
 70
     1
102
RTVSPost2010Prop49
280
     0
102
RTVSPost2010PropOp49
 70
     1
102
RTVSPost2010Prop50
 90
       50
102
RTVSPost2010PropOp50
 70
     1
102
RTVSPost2010Prop51ColorIndex
 90
      256
102
RTVSPost2010Prop51ColorRGB
 90
-16777216
102
RTVSPost2010PropOp51
 70
     0
102
RTVSPost2010Prop52
140
1.0
102
RTVSPost2010PropOp52
 70
     0
102
RTVSPost2010Prop53
 90
        2
102
RTVSPost2010PropOp53
 70
     1
102
RTVSPost2010Prop54
  1
strokes_ogs.tif
102
RTVSPost2010PropOp54
 70
     1
102
RTVSPost2010Prop55
280
     0
102
RTVSPost2010PropOp55
 70
     1
102
RTVSPost2010Prop56
140
1.0
102
RTVSPost2010PropOp56
 70
     1
102
RTVSPost2010Prop57
140
1.0
102
RTVSPost2010PropOp57
 70
     1
  0
XRECORD
  5
264
102
{ACAD_REACTORS
330
263
102
}
330
263
100
AcDbXrecord
280
     1
102
RTVSPost2010Prop28
280
     0
102
RTVSPost2010PropOp28
 70
     1
102
RTVSPost2010Prop29
280
     1
102
RTVSPost2010PropOp29
 70
     1
102
RTVSPost2010Prop30
280
     1
102
RTVSPost2010PropOp30
 70
     1
102
RTVSPost2010Prop31
280
     0
102
RTVSPost2010PropOp31
 70
     1
102
RTVSPost2010Prop32
280
     0
102
RTVSPost2010PropOp32
 70
     1
102
RTVSPost2010Prop33
280
     0
102
RTVSPost2010PropOp33
 70
     1
102
RTVSPost2010Prop34
280
     0
102
RTVSPost2010PropOp34
 70
     1
102
RTVSPost2010Prop35
280
     0
102
RTVSPost2010PropOp35
 70
     1
102
RTVSPost2010Prop36
280
     0
102
RTVSPost2010PropOp36
 70
     1
102
RTVSPost2010Prop37
 90
       50
102
RTVSPost2010PropOp37
 70
     1
102
RTVSPost2010Prop38
140
0.0
102
RTVSPost2010PropOp38
 70
     1
102
RTVSPost2010Prop39
140
1.0
102
RTVSPost2010PropOp39
 70
     1
102
RTVSPost2010Prop40
 90
        0
102
RTVSPost2010PropOp40
 70
     1
102
RTVSPost2010Prop41ColorIndex
 90
       18
102
RTVSPost2010Prop41ColorRGB
 90
        0
102
RTVSPost2010PropOp41
 70
     1
102
RTVSPost2010Prop42
 90
       50
102
RTVSPost2010PropOp42
 70
     1
102
RTVSPost2010Prop43
 90
        3
102
RTVSPost2010PropOp43
 70
     1
102
RTVSPost2010Prop44ColorIndex
 90
        5
102
RTVSPost2010Prop44ColorRGB
 90
      255
102
RTVSPost2010PropOp44
 70
     1
102
RTVSPost2010Prop45
280
     0
102
RTVSPost2010PropOp45
 70
     1
102
RTVSPost2010Prop46
 90
       50
102
RTVSPost2010PropOp46
 70
     1
102
RTVSPost2010Prop47
 90
       50
102
RTVSPost2010PropOp47
 70
     1
102
RTVSPost2010Prop48
 90
       50
102
RTVSPost2010PropOp48
 70
     1
102
RTVSPost2010Prop49
280
     0
102
RTVSPost2010PropOp49
 70
     1
102
RTVSPost2010Prop50
 90
       50
102
RTVSPost2010PropOp50
 70
     1
102
RTVSPost2010Prop51ColorIndex
 90
      256
102
RTVSPost2010Prop51ColorRGB
 90
-16777216
102
RTVSPost2010PropOp51
 70
     0
102
RTVSPost2010Prop52
140
1.0
102
RTVSPost2010PropOp52
 70
     0
102
RTVSPost2010Prop53
 90
        2
102
RTVSPost2010PropOp53
 70
     1
102
RTVSPost2010Prop54
  1
strokes_ogs.tif
102
RTVSPost2010PropOp54
 70
     1
102
RTVSPost2010Prop55
280
     0
102
RTVSPost2010PropOp55
 70
     1
102
RTVSPost2010Prop56
140
1.0
102
RTVSPost2010PropOp56
 70
     1
102
RTVSPost2010Prop57
140
1.0
102
RTVSPost2010PropOp57
 70
     1
  0
XRECORD
  5
25E
102
{ACAD_REACTORS
330
25D
102
}
330
25D
100
AcDbXrecord
280
     1
102
RTVSPost2010Prop28
280
     0
102
RTVSPost2010PropOp28
 70
     1
102
RTVSPost2010Prop29
280
     1
102
RTVSPost2010PropOp29
 70
     1
102
RTVSPost2010Prop30
280
     1
102
RTVSPost2010PropOp30
 70
     1
102
RTVSPost2010Prop31
280
     0
102
RTVSPost2010PropOp31
 70
     1
102
RTVSPost2010Prop32
280
     0
102
RTVSPost2010PropOp32
 70
     1
102
RTVSPost2010Prop33
280
     0
102
RTVSPost2010PropOp33
 70
     1
102
RTVSPost2010Prop34
280
     0
102
RTVSPost2010PropOp34
 70
     1
102
RTVSPost2010Prop35
280
     0
102
RTVSPost2010PropOp35
 70
     1
102
RTVSPost2010Prop36
280
     0
102
RTVSPost2010PropOp36
 70
     1
102
RTVSPost2010Prop37
 90
       50
102
RTVSPost2010PropOp37
 70
     1
102
RTVSPost2010Prop38
140
0.0
102
RTVSPost2010PropOp38
 70
     1
102
RTVSPost2010Prop39
140
1.0
102
RTVSPost2010PropOp39
 70
     1
102
RTVSPost2010Prop40
 90
        0
102
RTVSPost2010PropOp40
 70
     1
102
RTVSPost2010Prop41ColorIndex
 90
       18
102
RTVSPost2010Prop41ColorRGB
 90
        0
102
RTVSPost2010PropOp41
 70
     1
102
RTVSPost2010Prop42
 90
       50
102
RTVSPost2010PropOp42
 70
     1
102
RTVSPost2010Prop43
 90
        3
102
RTVSPost2010PropOp43
 70
     1
102
RTVSPost2010Prop44ColorIndex
 90
        5
102
RTVSPost2010Prop44ColorRGB
 90
      255
102
RTVSPost2010PropOp44
 70
     1
102
RTVSPost2010Prop45
280
     0
102
RTVSPost2010PropOp45
 70
     1
102
RTVSPost2010Prop46
 90
       50
102
RTVSPost2010PropOp46
 70
     1
102
RTVSPost2010Prop47
 90
       50
102
RTVSPost2010PropOp47
 70
     1
102
RTVSPost2010Prop48
 90
       50
102
RTVSPost2010PropOp48
 70
     1
102
RTVSPost2010Prop49
280
     0
102
RTVSPost2010PropOp49
 70
     1
102
RTVSPost2010Prop50
 90
       50
102
RTVSPost2010PropOp50
 70
     1
102
RTVSPost2010Prop51ColorIndex
 90
      256
102
RTVSPost2010Prop51ColorRGB
 90
-16777216
102
RTVSPost2010PropOp51
 70
     0
102
RTVSPost2010Prop52
140
1.0
102
RTVSPost2010PropOp52
 70
     0
102
RTVSPost2010Prop53
 90
        2
102
RTVSPost2010PropOp53
 70
     1
102
RTVSPost2010Prop54
  1
strokes_ogs.tif
102
RTVSPost2010PropOp54
 70
     1
102
RTVSPost2010Prop55
280
     0
102
RTVSPost2010PropOp55
 70
     1
102
RTVSPost2010Prop56
140
1.0
102
RTVSPost2010PropOp56
 70
     1
102
RTVSPost2010Prop57
140
1.0
102
RTVSPost2010PropOp57
 70
     1
  0
XRECORD
  5
260
102
{ACAD_REACTORS
330
25F
102
}
330
25F
100
AcDbXrecord
280
     1
102
RTVSPost2010Prop28
280
     0
102
RTVSPost2010PropOp28
 70
     1
102
RTVSPost2010Prop29
280
     1
102
RTVSPost2010PropOp29
 70
     1
102
RTVSPost2010Prop30
280
     1
102
RTVSPost2010PropOp30
 70
     1
102
RTVSPost2010Prop31
280
     0
102
RTVSPost2010PropOp31
 70
     1
102
RTVSPost2010Prop32
280
     0
102
RTVSPost2010PropOp32
 70
     1
102
RTVSPost2010Prop33
280
     0
102
RTVSPost2010PropOp33
 70
     1
102
RTVSPost2010Prop34
280
     0
102
RTVSPost2010PropOp34
 70
     1
102
RTVSPost2010Prop35
280
     0
102
RTVSPost2010PropOp35
 70
     1
102
RTVSPost2010Prop36
280
     0
102
RTVSPost2010PropOp36
 70
     1
102
RTVSPost2010Prop37
 90
       50
102
RTVSPost2010PropOp37
 70
     1
102
RTVSPost2010Prop38
140
0.0
102
RTVSPost2010PropOp38
 70
     1
102
RTVSPost2010Prop39
140
1.0
102
RTVSPost2010PropOp39
 70
     1
102
RTVSPost2010Prop40
 90
        0
102
RTVSPost2010PropOp40
 70
     1
102
RTVSPost2010Prop41ColorIndex
 90
       18
102
RTVSPost2010Prop41ColorRGB
 90
        0
102
RTVSPost2010PropOp41
 70
     1
102
RTVSPost2010Prop42
 90
       50
102
RTVSPost2010PropOp42
 70
     1
102
RTVSPost2010Prop43
 90
        3
102
RTVSPost2010PropOp43
 70
     1
102
RTVSPost2010Prop44ColorIndex
 90
        5
102
RTVSPost2010Prop44ColorRGB
 90
      255
102
RTVSPost2010PropOp44
 70
     1
102
RTVSPost2010Prop45
280
     0
102
RTVSPost2010PropOp45
 70
     1
102
RTVSPost2010Prop46
 90
       50
102
RTVSPost2010PropOp46
 70
     1
102
RTVSPost2010Prop47
 90
       50
102
RTVSPost2010PropOp47
 70
     1
102
RTVSPost2010Prop48
 90
       50
102
RTVSPost2010PropOp48
 70
     1
102
RTVSPost2010Prop49
280
     0
102
RTVSPost2010PropOp49
 70
     1
102
RTVSPost2010Prop50
 90
       50
102
RTVSPost2010PropOp50
 70
     1
102
RTVSPost2010Prop51ColorIndex
 90
      256
102
RTVSPost2010Prop51ColorRGB
 90
-16777216
102
RTVSPost2010PropOp51
 70
     0
102
RTVSPost2010Prop52
140
1.0
102
RTVSPost2010PropOp52
 70
     0
102
RTVSPost2010Prop53
 90
        2
102
RTVSPost2010PropOp53
 70
     1
102
RTVSPost2010Prop54
  1
strokes_ogs.tif
102
RTVSPost2010PropOp54
 70
     1
102
RTVSPost2010Prop55
280
     0
102
RTVSPost2010PropOp55
 70
     1
102
RTVSPost2010Prop56
140
1.0
102
RTVSPost2010PropOp56
 70
     1
102
RTVSPost2010Prop57
140
1.0
102
RTVSPost2010PropOp57
 70
     1
  0
XRECORD
  5
250
102
{ACAD_REACTORS
330
24F
102
}
330
24F
100
AcDbXrecord
280
     1
102
RTVSPost2010Prop28
280
     0
102
RTVSPost2010PropOp28
 70
     1
102
RTVSPost2010Prop29
280
     1
102
RTVSPost2010PropOp29
 70
     1
102
RTVSPost2010Prop30
280
     1
102
RTVSPost2010PropOp30
 70
     1
102
RTVSPost2010Prop31
280
     0
102
RTVSPost2010PropOp31
 70
     1
102
RTVSPost2010Prop32
280
     0
102
RTVSPost2010PropOp32
 70
     1
102
RTVSPost2010Prop33
280
     0
102
RTVSPost2010PropOp33
 70
     1
102
RTVSPost2010Prop34
280
     0
102
RTVSPost2010PropOp34
 70
     1
102
RTVSPost2010Prop35
280
     0
102
RTVSPost2010PropOp35
 70
     1
102
RTVSPost2010Prop36
280
     0
102
RTVSPost2010PropOp36
 70
     1
102
RTVSPost2010Prop37
 90
       50
102
RTVSPost2010PropOp37
 70
     1
102
RTVSPost2010Prop38
140
0.0
102
RTVSPost2010PropOp38
 70
     1
102
RTVSPost2010Prop39
140
1.0
102
RTVSPost2010PropOp39
 70
     1
102
RTVSPost2010Prop40
 90
        0
102
RTVSPost2010PropOp40
 70
     1
102
RTVSPost2010Prop41ColorIndex
 90
       18
102
RTVSPost2010Prop41ColorRGB
 90
        0
102
RTVSPost2010PropOp41
 70
     1
102
RTVSPost2010Prop42
 90
       50
102
RTVSPost2010PropOp42
 70
     1
102
RTVSPost2010Prop43
 90
        3
102
RTVSPost2010PropOp43
 70
     1
102
RTVSPost2010Prop44ColorIndex
 90
        5
102
RTVSPost2010Prop44ColorRGB
 90
      255
102
RTVSPost2010PropOp44
 70
     1
102
RTVSPost2010Prop45
280
     0
102
RTVSPost2010PropOp45
 70
     1
102
RTVSPost2010Prop46
 90
       50
102
RTVSPost2010PropOp46
 70
     1
102
RTVSPost2010Prop47
 90
       50
102
RTVSPost2010PropOp47
 70
     1
102
RTVSPost2010Prop48
 90
       50
102
RTVSPost2010PropOp48
 70
     1
102
RTVSPost2010Prop49
280
     0
102
RTVSPost2010PropOp49
 70
     1
102
RTVSPost2010Prop50
 90
       50
102
RTVSPost2010PropOp50
 70
     1
102
RTVSPost2010Prop51ColorIndex
 90
      256
102
RTVSPost2010Prop51ColorRGB
 90
-16777216
102
RTVSPost2010PropOp51
 70
     0
102
RTVSPost2010Prop52
140
1.0
102
RTVSPost2010PropOp52
 70
     0
102
RTVSPost2010Prop53
 90
        2
102
RTVSPost2010PropOp53
 70
     1
102
RTVSPost2010Prop54
  1
strokes_ogs.tif
102
RTVSPost2010PropOp54
 70
     1
102
RTVSPost2010Prop55
280
     0
102
RTVSPost2010PropOp55
 70
     1
102
RTVSPost2010Prop56
140
1.0
102
RTVSPost2010PropOp56
 70
     1
102
RTVSPost2010Prop57
140
1.0
102
RTVSPost2010PropOp57
 70
     1
  0
XRECORD
  5
242
102
{ACAD_REACTORS
330
241
102
}
330
241
100
AcDbXrecord
280
     1
102
RTVSPost2010Prop28
280
     0
102
RTVSPost2010PropOp28
 70
     1
102
RTVSPost2010Prop29
280
     1
102
RTVSPost2010PropOp29
 70
     1
102
RTVSPost2010Prop30
280
     1
102
RTVSPost2010PropOp30
 70
     1
102
RTVSPost2010Prop31
280
     0
102
RTVSPost2010PropOp31
 70
     1
102
RTVSPost2010Prop32
280
     0
102
RTVSPost2010PropOp32
 70
     1
102
RTVSPost2010Prop33
280
     0
102
RTVSPost2010PropOp33
 70
     1
102
RTVSPost2010Prop34
280
     0
102
RTVSPost2010PropOp34
 70
     1
102
RTVSPost2010Prop35
280
     0
102
RTVSPost2010PropOp35
 70
     1
102
RTVSPost2010Prop36
280
     0
102
RTVSPost2010PropOp36
 70
     1
102
RTVSPost2010Prop37
 90
       50
102
RTVSPost2010PropOp37
 70
     1
102
RTVSPost2010Prop38
140
0.0
102
RTVSPost2010PropOp38
 70
     1
102
RTVSPost2010Prop39
140
1.0
102
RTVSPost2010PropOp39
 70
     1
102
RTVSPost2010Prop40
 90
        0
102
RTVSPost2010PropOp40
 70
     1
102
RTVSPost2010Prop41ColorIndex
 90
       18
102
RTVSPost2010Prop41ColorRGB
 90
        0
102
RTVSPost2010PropOp41
 70
     1
102
RTVSPost2010Prop42
 90
       50
102
RTVSPost2010PropOp42
 70
     1
102
RTVSPost2010Prop43
 90
        3
102
RTVSPost2010PropOp43
 70
     1
102
RTVSPost2010Prop44ColorIndex
 90
        5
102
RTVSPost2010Prop44ColorRGB
 90
      255
102
RTVSPost2010PropOp44
 70
     1
102
RTVSPost2010Prop45
280
     0
102
RTVSPost2010PropOp45
 70
     1
102
RTVSPost2010Prop46
 90
       50
102
RTVSPost2010PropOp46
 70
     1
102
RTVSPost2010Prop47
 90
       50
102
RTVSPost2010PropOp47
 70
     1
102
RTVSPost2010Prop48
 90
       50
102
RTVSPost2010PropOp48
 70
     1
102
RTVSPost2010Prop49
280
     0
102
RTVSPost2010PropOp49
 70
     1
102
RTVSPost2010Prop50
 90
       50
102
RTVSPost2010PropOp50
 70
     1
102
RTVSPost2010Prop51ColorIndex
 90
      256
102
RTVSPost2010Prop51ColorRGB
 90
-16777216
102
RTVSPost2010PropOp51
 70
     0
102
RTVSPost2010Prop52
140
1.0
102
RTVSPost2010PropOp52
 70
     0
102
RTVSPost2010Prop53
 90
        2
102
RTVSPost2010PropOp53
 70
     1
102
RTVSPost2010Prop54
  1
strokes_ogs.tif
102
RTVSPost2010PropOp54
 70
     1
102
RTVSPost2010Prop55
280
     0
102
RTVSPost2010PropOp55
 70
     1
102
RTVSPost2010Prop56
140
1.0
102
RTVSPost2010PropOp56
 70
     1
102
RTVSPost2010Prop57
140
1.0
102
RTVSPost2010PropOp57
 70
     1
  0
XRECORD
  5
262
102
{ACAD_REACTORS
330
261
102
}
330
261
100
AcDbXrecord
280
     1
102
RTVSPost2010Prop28
280
     0
102
RTVSPost2010PropOp28
 70
     1
102
RTVSPost2010Prop29
280
     1
102
RTVSPost2010PropOp29
 70
     1
102
RTVSPost2010Prop30
280
     1
102
RTVSPost2010PropOp30
 70
     1
102
RTVSPost2010Prop31
280
     0
102
RTVSPost2010PropOp31
 70
     1
102
RTVSPost2010Prop32
280
     0
102
RTVSPost2010PropOp32
 70
     1
102
RTVSPost2010Prop33
280
     0
102
RTVSPost2010PropOp33
 70
     1
102
RTVSPost2010Prop34
280
     0
102
RTVSPost2010PropOp34
 70
     1
102
RTVSPost2010Prop35
280
     0
102
RTVSPost2010PropOp35
 70
     1
102
RTVSPost2010Prop36
280
     0
102
RTVSPost2010PropOp36
 70
     1
102
RTVSPost2010Prop37
 90
       50
102
RTVSPost2010PropOp37
 70
     1
102
RTVSPost2010Prop38
140
0.0
102
RTVSPost2010PropOp38
 70
     1
102
RTVSPost2010Prop39
140
1.0
102
RTVSPost2010PropOp39
 70
     1
102
RTVSPost2010Prop40
 90
        0
102
RTVSPost2010PropOp40
 70
     1
102
RTVSPost2010Prop41ColorIndex
 90
       18
102
RTVSPost2010Prop41ColorRGB
 90
        0
102
RTVSPost2010PropOp41
 70
     1
102
RTVSPost2010Prop42
 90
       50
102
RTVSPost2010PropOp42
 70
     1
102
RTVSPost2010Prop43
 90
        3
102
RTVSPost2010PropOp43
 70
     1
102
RTVSPost2010Prop44ColorIndex
 90
        5
102
RTVSPost2010Prop44ColorRGB
 90
      255
102
RTVSPost2010PropOp44
 70
     1
102
RTVSPost2010Prop45
280
     0
102
RTVSPost2010PropOp45
 70
     1
102
RTVSPost2010Prop46
 90
       50
102
RTVSPost2010PropOp46
 70
     1
102
RTVSPost2010Prop47
 90
       50
102
RTVSPost2010PropOp47
 70
     1
102
RTVSPost2010Prop48
 90
       50
102
RTVSPost2010PropOp48
 70
     1
102
RTVSPost2010Prop49
280
     0
102
RTVSPost2010PropOp49
 70
     1
102
RTVSPost2010Prop50
 90
       50
102
RTVSPost2010PropOp50
 70
     1
102
RTVSPost2010Prop51ColorIndex
 90
      256
102
RTVSPost2010Prop51ColorRGB
 90
-16777216
102
RTVSPost2010PropOp51
 70
     0
102
RTVSPost2010Prop52
140
1.0
102
RTVSPost2010PropOp52
 70
     0
102
RTVSPost2010Prop53
 90
        2
102
RTVSPost2010PropOp53
 70
     1
102
RTVSPost2010Prop54
  1
strokes_ogs.tif
102
RTVSPost2010PropOp54
 70
     1
102
RTVSPost2010Prop55
280
     0
102
RTVSPost2010PropOp55
 70
     1
102
RTVSPost2010Prop56
140
1.0
102
RTVSPost2010PropOp56
 70
     1
102
RTVSPost2010Prop57
140
1.0
102
RTVSPost2010PropOp57
 70
     1
  0
ENDSEC
  0
EOF
