  0
SECTION
  2
HEADER
  9
$ACADVER
  1
AC1015
  9
$ACADMAINTVER
 70
     6
  9
$DWGCODEPAGE
  3
ANSI_1252
  9
$INSBASE
 10
0.0
 20
0.0
 30
0.0
  9
$EXTMIN
 10
-188.902573
 20
0.0
 30
0.0
  9
$EXTMAX
 10
360.772614
 20
1181.791504
 30
0.0
  9
$LIMMIN
 10
-188.902573
 20
0.0
  9
$LIMMAX
 10
360.772614
 20
1181.791504
  9
$ORTHOMODE
 70
     0
  9
$REGENMODE
 70
     1
  9
$FILLMODE
 70
     1
  9
$QTEXTMODE
 70
     0
  9
$MIRRTEXT
 70
     1
  9
$LTSCALE
 40
1.0
  9
$ATTMODE
 70
     1
  9
$TEXTSIZE
 40
2.5
  9
$TRACEWID
 40
1.0
  9
$TEXTSTYLE
  7
Standard
  9
$CLAYER
  8
0
  9
$CELTYPE
  6
ByLayer
  9
$CECOLOR
 62
   256
  9
$CELTSCALE
 40
1.0
  9
$DISPSILH
 70
     0
  9
$DIMSCALE
 40
1.0
  9
$DIMASZ
 40
2.5
  9
$DIMEXO
 40
0.625
  9
$DIMDLI
 40
3.75
  9
$DIMRND
 40
0.0
  9
$DIMDLE
 40
0.0
  9
$DIMEXE
 40
1.25
  9
$DIMTP
 40
0.0
  9
$DIMTM
 40
0.0
  9
$DIMTXT
 40
2.5
  9
$DIMCEN
 40
2.5
  9
$DIMTSZ
 40
0.0
  9
$DIMTOL
 70
     0
  9
$DIMLIM
 70
     0
  9
$DIMTIH
 70
     0
  9
$DIMTOH
 70
     0
  9
$DIMSE1
 70
     0
  9
$DIMSE2
 70
     0
  9
$DIMTAD
 70
     1
  9
$DIMZIN
 70
     8
  9
$DIMBLK
  1

  9
$DIMASO
 70
     1
  9
$DIMSHO
 70
     1
  9
$DIMPOST
  1

  9
$DIMAPOST
  1

  9
$DIMALT
 70
     0
  9
$DIMALTD
 70
     3
  9
$DIMALTF
 40
0.03937
  9
$DIMLFAC
 40
1.0
  9
$DIMTOFL
 70
     1
  9
$DIMTVP
 40
0.0
  9
$DIMTIX
 70
     0
  9
$DIMSOXD
 70
     0
  9
$DIMSAH
 70
     0
  9
$DIMBLK1
  1

  9
$DIMBLK2
  1

  9
$DIMSTYLE
  2
ISO-25
  9
$DIMCLRD
 70
     0
  9
$DIMCLRE
 70
     0
  9
$DIMCLRT
 70
     0
  9
$DIMTFAC
 40
1.0
  9
$DIMGAP
 40
0.625
  9
$DIMJUST
 70
     0
  9
$DIMSD1
 70
     0
  9
$DIMSD2
 70
     0
  9
$DIMTOLJ
 70
     0
  9
$DIMTZIN
 70
     8
  9
$DIMALTZ
 70
     0
  9
$DIMALTTZ
 70
     0
  9
$DIMUPT
 70
     0
  9
$DIMDEC
 70
     2
  9
$DIMTDEC
 70
     2
  9
$DIMALTU
 70
     2
  9
$DIMALTTD
 70
     3
  9
$DIMTXSTY
  7
Standard
  9
$DIMAUNIT
 70
     0
  9
$DIMADEC
 70
     0
  9
$DIMALTRND
 40
0.0
  9
$DIMAZIN
 70
     0
  9
$DIMDSEP
 70
    44
  9
$DIMATFIT
 70
     3
  9
$DIMFRAC
 70
     0
  9
$DIMLDRBLK
  1

  9
$DIMLUNIT
 70
     2
  9
$DIMLWD
 70
    -2
  9
$DIMLWE
 70
    -2
  9
$DIMTMOVE
 70
     0
  9
$LUNITS
 70
     2
  9
$LUPREC
 70
     4
  9
$SKETCHINC
 40
1.0
  9
$FILLETRAD
 40
10.0
  9
$AUNITS
 70
     0
  9
$AUPREC
 70
     0
  9
$MENU
  1
.
  9
$ELEVATION
 40
0.0
  9
$PELEVATION
 40
0.0
  9
$THICKNESS
 40
0.0
  9
$LIMCHECK
 70
     0
  9
$CHAMFERA
 40
0.0
  9
$CHAMFERB
 40
0.0
  9
$CHAMFERC
 40
0.0
  9
$CHAMFERD
 40
0.0
  9
$SKPOLY
 70
     0
  9
$TDCREATE
 40
2459018.459246945
  9
$TDUCREATE
 40
2459018.375913611
  9
$TDUPDATE
 40
2459018.459247754
  9
$TDUUPDATE
 40
2459018.375914421
  9
$TDINDWG
 40
0.0000000116
  9
$TDUSRTIMER
 40
0.0000000116
  9
$USRTIMER
 70
     1
  9
$ANGBASE
 50
0.0
  9
$ANGDIR
 70
     0
  9
$PDMODE
 70
     0
  9
$PDSIZE
 40
0.0
  9
$PLINEWID
 40
0.0
  9
$SPLFRAME
 70
     0
  9
$SPLINETYPE
 70
     6
  9
$SPLINESEGS
 70
     8
  9
$HANDSEED
  5
2EB
  9
$SURFTAB1
 70
     6
  9
$SURFTAB2
 70
     6
  9
$SURFTYPE
 70
     6
  9
$SURFU
 70
     6
  9
$SURFV
 70
     6
  9
$UCSBASE
  2

  9
$UCSNAME
  2

  9
$UCSORG
 10
0.0
 20
0.0
 30
0.0
  9
$UCSXDIR
 10
1.0
 20
0.0
 30
0.0
  9
$UCSYDIR
 10
0.0
 20
1.0
 30
0.0
  9
$UCSORTHOREF
  2

  9
$UCSORTHOVIEW
 70
     0
  9
$UCSORGTOP
 10
0.0
 20
0.0
 30
0.0
  9
$UCSORGBOTTOM
 10
0.0
 20
0.0
 30
0.0
  9
$UCSORGLEFT
 10
0.0
 20
0.0
 30
0.0
  9
$UCSORGRIGHT
 10
0.0
 20
0.0
 30
0.0
  9
$UCSORGFRONT
 10
0.0
 20
0.0
 30
0.0
  9
$UCSORGBACK
 10
0.0
 20
0.0
 30
0.0
  9
$PUCSBASE
  2

  9
$PUCSNAME
  2

  9
$PUCSORG
 10
0.0
 20
0.0
 30
0.0
  9
$PUCSXDIR
 10
1.0
 20
0.0
 30
0.0
  9
$PUCSYDIR
 10
0.0
 20
1.0
 30
0.0
  9
$PUCSORTHOREF
  2

  9
$PUCSORTHOVIEW
 70
     0
  9
$PUCSORGTOP
 10
0.0
 20
0.0
 30
0.0
  9
$PUCSORGBOTTOM
 10
0.0
 20
0.0
 30
0.0
  9
$PUCSORGLEFT
 10
0.0
 20
0.0
 30
0.0
  9
$PUCSORGRIGHT
 10
0.0
 20
0.0
 30
0.0
  9
$PUCSORGFRONT
 10
0.0
 20
0.0
 30
0.0
  9
$PUCSORGBACK
 10
0.0
 20
0.0
 30
0.0
  9
$USERI1
 70
     0
  9
$USERI2
 70
     0
  9
$USERI3
 70
     0
  9
$USERI4
 70
     0
  9
$USERI5
 70
     0
  9
$USERR1
 40
0.0
  9
$USERR2
 40
0.0
  9
$USERR3
 40
0.0
  9
$USERR4
 40
0.0
  9
$USERR5
 40
0.0
  9
$WORLDVIEW
 70
     1
  9
$SHADEDGE
 70
     3
  9
$SHADEDIF
 70
    70
  9
$TILEMODE
 70
     1
  9
$MAXACTVP
 70
    64
  9
$PINSBASE
 10
0.0
 20
0.0
 30
0.0
  9
$PLIMCHECK
 70
     0
  9
$PEXTMIN
 10
1.000000E+20
 20
1.000000E+20
 30
1.000000E+20
  9
$PEXTMAX
 10
-1.000000E+20
 20
-1.000000E+20
 30
-1.000000E+20
  9
$PLIMMIN
 10
0.0
 20
0.0
  9
$PLIMMAX
 10
420.0
 20
297.0
  9
$UNITMODE
 70
     0
  9
$VISRETAIN
 70
     1
  9
$PLINEGEN
 70
     0
  9
$PSLTSCALE
 70
     1
  9
$TREEDEPTH
 70
  3020
  9
$CMLSTYLE
  2
Standard
  9
$CMLJUST
 70
     0
  9
$CMLSCALE
 40
20.0
  9
$PROXYGRAPHICS
 70
     1
  9
$MEASUREMENT
 70
     1
  9
$CELWEIGHT
370
    -1
  9
$ENDCAPS
280
     0
  9
$JOINSTYLE
280
     0
  9
$LWDISPLAY
290
     0
  9
$INSUNITS
 70
     4
  9
$HYPERLINKBASE
  1

  9
$STYLESHEET
  1

  9
$XEDIT
290
     1
  9
$CEPSNTYPE
380
     0
  9
$PSTYLEMODE
290
     1
  9
$FINGERPRINTGUID
  2
{ec1a1493-81f2-4c9f-97ac-d08828b1fc0e}
  9
$VERSIONGUID
  2
{FAEB1C32-E019-11D5-929B-00C0DF256EC4}
  9
$EXTNAMES
290
     1
  9
$PSVPSCALE
 40
0.0
  9
$OLESTARTUP
290
     0
  0
ENDSEC
  0
SECTION
  2
CLASSES
  0
CLASS
  1
ACDBDICTIONARYWDFLT
  2
AcDbDictionaryWithDefault
  3
ObjectDBX Classes
 90
        0
280
     0
281
     0
  0
CLASS
  1
VISUALSTYLE
  2
AcDbVisualStyle
  3
ObjectDBX Classes
 90
     4095
280
     0
281
     0
  0
CLASS
  1
MATERIAL
  2
AcDbMaterial
  3
ObjectDBX Classes
 90
     1153
280
     0
281
     0
  0
CLASS
  1
SCALE
  2
AcDbScale
  3
ObjectDBX Classes
 90
     1153
280
     0
281
     0
  0
CLASS
  1
TABLESTYLE
  2
AcDbTableStyle
  3
ObjectDBX Classes
 90
     4095
280
     0
281
     0
  0
CLASS
  1
MLEADERSTYLE
  2
AcDbMLeaderStyle
  3
ACDB_MLEADERSTYLE_CLASS
 90
     4095
280
     0
281
     0
  0
CLASS
  1
SUN
  2
AcDbSun
  3
SCENEOE
 90
     1153
280
     0
281
     0
  0
CLASS
  1
DICTIONARYVAR
  2
AcDbDictionaryVar
  3
ObjectDBX Classes
 90
        0
280
     0
281
     0
  0
CLASS
  1
ACDBPLACEHOLDER
  2
AcDbPlaceHolder
  3
ObjectDBX Classes
 90
        0
280
     0
281
     0
  0
CLASS
  1
LAYOUT
  2
AcDbLayout
  3
ObjectDBX Classes
 90
        0
280
     0
281
     0
  0
ENDSEC
  0
SECTION
  2
TABLES
  0
TABLE
  2
VPORT
  5
8
102
{ACAD_XDICTIONARY
360
2AE
102
}
330
0
100
AcDbSymbolTable
 70
     1
  0
VPORT
  5
29
330
8
100
AcDbSymbolTableRecord
100
AcDbViewportTableRecord
  2
*Active
 70
     0
 10
0.0
 20
0.0
 11
1.0
 21
1.0
 12
344.186916
 22
148.5
 13
0.0
 23
0.0
 14
10.0
 24
10.0
 15
10.0
 25
10.0
 16
0.0
 26
0.0
 36
1.0
 17
0.0
 27
0.0
 37
0.0
 40
297.0
 41
1.972973
 42
50.0
 43
0.0
 44
0.0
 50
0.0
 51
0.0
 71
     0
 72
   100
 73
     1
 74
     3
 75
     0
 76
     0
 77
     0
 78
     0
281
     0
 65
     1
110
0.0
120
0.0
130
0.0
111
1.0
121
0.0
131
0.0
112
0.0
122
1.0
132
0.0
 79
     0
146
0.0
  0
ENDTAB
  0
TABLE
  2
LTYPE
  5
5
330
0
100
AcDbSymbolTable
 70
     1
  0
LTYPE
  5
14
330
5
100
AcDbSymbolTableRecord
100
AcDbLinetypeTableRecord
  2
ByBlock
 70
     0
  3

 72
    65
 73
     0
 40
0.0
  0
LTYPE
  5
15
330
5
100
AcDbSymbolTableRecord
100
AcDbLinetypeTableRecord
  2
ByLayer
 70
     0
  3

 72
    65
 73
     0
 40
0.0
  0
LTYPE
  5
16
330
5
100
AcDbSymbolTableRecord
100
AcDbLinetypeTableRecord
  2
Continuous
 70
     0
  3
Solid line
 72
    65
 73
     0
 40
0.0
  0
ENDTAB
  0
TABLE
  2
LAYER
  5
2
330
0
100
AcDbSymbolTable
 70
     1
  0
LAYER
  5
10
330
2
100
AcDbSymbolTableRecord
100
AcDbLayerTableRecord
  2
0
 70
     0
 62
   106
  6
Continuous
370
     0
390
F
  0
ENDTAB
  0
TABLE
  2
STYLE
  5
3
330
0
100
AcDbSymbolTable
 70
     4
  0
STYLE
  5
11
330
3
100
AcDbSymbolTableRecord
100
AcDbTextStyleTableRecord
  2
Standard
 70
     0
 40
0.0
 41
1.0
 50
0.0
 71
     0
 42
2.5
  3
txt
  4

  0
STYLE
  5
6E
330
3
100
AcDbSymbolTableRecord
100
AcDbTextStyleTableRecord
  2
Default
 70
     0
 40
0.0
 41
1.0
 50
0.0
 71
     0
 42
2.5
  3

  4

1001
ACAD
1000
txt
1071
        0
  0
STYLE
  5
6F
330
3
100
AcDbSymbolTableRecord
100
AcDbTextStyleTableRecord
  2
ISO
 70
     0
 40
0.0
 41
1.0
 50
0.0
 71
     0
 42
2.5
  3

  4

1001
ACAD
1000
txt
1071
        0
  0
STYLE
  5
70
330
3
100
AcDbSymbolTableRecord
100
AcDbTextStyleTableRecord
  2
GIANLU
 70
     0
 40
0.0
 41
1.0
 50
0.0
 71
     0
 42
2.5
  3

  4

1001
ACAD
1000
Arial
1071
 33554432
  0
ENDTAB
  0
TABLE
  2
VIEW
  5
6
330
0
100
AcDbSymbolTable
 70
     0
  0
ENDTAB
  0
TABLE
  2
UCS
  5
7
330
0
100
AcDbSymbolTable
 70
     0
  0
ENDTAB
  0
TABLE
  2
APPID
  5
9
330
0
100
AcDbSymbolTable
 70
     2
  0
APPID
  5
12
330
9
100
AcDbSymbolTableRecord
100
AcDbRegAppTableRecord
  2
ACAD
 70
     0
  0
APPID
  5
2E8
330
9
100
AcDbSymbolTableRecord
100
AcDbRegAppTableRecord
  2
ACAD_MLEADERVER
 70
     0
  0
ENDTAB
  0
TABLE
  2
DIMSTYLE
  5
A
330
0
100
AcDbSymbolTable
 70
     4
100
AcDbDimStyleTable
  0
DIMSTYLE
105
27
330
A
100
AcDbSymbolTableRecord
100
AcDbDimStyleTableRecord
  2
ISO-25
 70
     0
 41
2.5
 42
0.625
 43
3.75
 44
1.25
 73
     0
 74
     0
 77
     1
 78
     8
140
2.5
141
2.5
143
0.03937
147
0.625
171
     3
172
     1
178
     0
271
     2
272
     2
274
     3
278
    44
283
     0
284
     8
340
11
  0
DIMSTYLE
105
71
330
A
100
AcDbSymbolTableRecord
100
AcDbDimStyleTableRecord
  2
Default
 70
     0
  3
<>
 41
4.375
 42
1.05
 44
2.1
 73
     0
 74
     0
 77
     1
 78
     8
140
3.5
146
0.4
147
1.75
172
     1
271
     2
178
     3
271
     2
272
     3
284
     8
340
6E
341
72
342
72
  0
DIMSTYLE
105
79
330
A
100
AcDbSymbolTableRecord
100
AcDbDimStyleTableRecord
  2
ISO
 70
     0
  3
<>
 41
4.375
 42
1.05
 44
2.1
 73
     0
 74
     0
 77
     1
 78
     8
140
3.5
146
0.4
147
1.75
172
     1
271
     2
178
     3
271
     2
272
     3
284
     8
340
6F
341
72
342
72
  0
DIMSTYLE
105
7A
330
A
100
AcDbSymbolTableRecord
100
AcDbDimStyleTableRecord
  2
zucchetti_unico
 70
     0
  3
<>
 41
3.5
 42
1.05
 44
2.1
 73
     0
 74
     0
 77
     1
 78
     8
140
3.5
146
0.6
147
1.75
172
     1
176
     3
177
     3
271
     2
178
     3
271
     2
272
     2
284
     8
340
6E
  0
ENDTAB
  0
TABLE
  2
BLOCK_RECORD
  5
1
330
0
100
AcDbSymbolTable
 70
     6
  0
BLOCK_RECORD
  5
1F
330
1
100
AcDbSymbolTableRecord
100
AcDbBlockTableRecord
  2
*Model_Space
340
22
  0
BLOCK_RECORD
  5
1B
330
1
100
AcDbSymbolTableRecord
100
AcDbBlockTableRecord
  2
*Paper_Space
340
1E
  0
BLOCK_RECORD
  5
23
330
1
100
AcDbSymbolTableRecord
100
AcDbBlockTableRecord
  2
*Paper_Space0
340
26
  0
BLOCK_RECORD
  5
72
330
1
100
AcDbSymbolTableRecord
100
AcDbBlockTableRecord
  2
_Closed
340
0
  0
BLOCK_RECORD
  5
7B
330
1
100
AcDbSymbolTableRecord
100
AcDbBlockTableRecord
  2
a
340
0
102
{BLKREFS
331
FA
102
}
  0
BLOCK_RECORD
  5
FB
330
1
100
AcDbSymbolTableRecord
100
AcDbBlockTableRecord
  2
b
340
0
102
{BLKREFS
331
132
102
}
  0
BLOCK_RECORD
  5
133
330
1
100
AcDbSymbolTableRecord
100
AcDbBlockTableRecord
  2
c
340
0
102
{BLKREFS
331
1EA
102
}
  0
BLOCK_RECORD
  5
1EB
330
1
100
AcDbSymbolTableRecord
100
AcDbBlockTableRecord
  2
d
340
0
102
{BLKREFS
331
2A2
102
}
  0
ENDTAB
  0
ENDSEC
  0
SECTION
  2
BLOCKS
  0
BLOCK
  5
20
330
1F
100
AcDbEntity
  8
0
100
AcDbBlockBegin
  2
*Model_Space
 70
     0
 10
0.0
 20
0.0
 30
0.0
  3
*Model_Space
  1

  0
ENDBLK
  5
21
330
1F
100
AcDbEntity
  8
0
100
AcDbBlockEnd
  0
BLOCK
  5
1C
330
1B
100
AcDbEntity
 67
     1
  8
0
100
AcDbBlockBegin
  2
*Paper_Space
 70
     0
 10
0.0
 20
0.0
 30
0.0
  3
*Paper_Space
  1

  0
ENDBLK
  5
1D
330
1B
100
AcDbEntity
 67
     1
  8
0
100
AcDbBlockEnd
  0
BLOCK
  5
24
330
23
100
AcDbEntity
  8
0
100
AcDbBlockBegin
  2
*Paper_Space0
 70
     0
 10
0.0
 20
0.0
 30
0.0
  3
*Paper_Space0
  1

  0
ENDBLK
  5
25
330
23
100
AcDbEntity
  8
0
100
AcDbBlockEnd
  0
BLOCK
  5
73
330
72
100
AcDbEntity
  8
0
100
AcDbBlockBegin
  2
_Closed
 70
     0
 10
0.0
 20
0.0
 30
0.0
  3
_Closed
  1

  0
LINE
  5
75
330
72
100
AcDbEntity
  8
0
  6
ByBlock
 62
     0
370
    -2
100
AcDbLine
 10
-1.0
 20
0.166667
 30
0.0
 11
0.0
 21
0.0
 31
0.0
  0
LINE
  5
76
330
72
100
AcDbEntity
  8
0
  6
ByBlock
 62
     0
370
    -2
100
AcDbLine
 10
0.0
 20
0.0
 30
0.0
 11
-1.0
 21
-0.166667
 31
0.0
  0
LINE
  5
77
330
72
100
AcDbEntity
  8
0
  6
ByBlock
 62
     0
370
    -2
100
AcDbLine
 10
-1.0
 20
0.166667
 30
0.0
 11
-1.0
 21
-0.166667
 31
0.0
  0
LINE
  5
78
330
72
100
AcDbEntity
  8
0
  6
ByBlock
 62
     0
370
    -2
100
AcDbLine
 10
0.0
 20
0.0
 30
0.0
 11
-1.0
 21
0.0
 31
0.0
  0
ENDBLK
  5
74
330
72
100
AcDbEntity
  8
0
100
AcDbBlockEnd
  0
BLOCK
  5
F8
330
7B
100
AcDbEntity
  8
0
100
AcDbBlockBegin
  2
a
 70
     0
 10
20.147503
 20
106.89016
 30
0.0
  3
a
  1

  0
ARC
  5
7C
330
7B
100
AcDbEntity
  8
0
  6
Continuous
 62
     0
370
    30
100
AcDbCircle
 10
103.327244
 20
846.693604
 30
0.0
 40
27.50000013113517
100
AcDbArc
 50
69.168008
 51
82.687973
  0
ARC
  5
7D
330
7B
100
AcDbEntity
  8
0
  6
Continuous
 62
     0
370
    30
100
AcDbCircle
 10
103.327244
 20
846.693604
 30
0.0
 40
27.50000013113434
100
AcDbArc
 50
97.312017
 51
172.687981
  0
ARC
  5
7E
330
7B
100
AcDbEntity
  8
0
  6
Continuous
 62
     0
370
    30
100
AcDbCircle
 10
103.327244
 20
846.693604
 30
0.0
 40
27.50000013113431
100
AcDbArc
 50
187.312025
 51
249.168008
  0
ARC
  5
7F
330
7B
100
AcDbEntity
  8
0
  6
Continuous
 62
     0
370
    30
100
AcDbCircle
 10
103.327244
 20
846.693604
 30
0.0
 40
27.50000013113532
100
AcDbArc
 50
249.168008
 51
262.688033
  0
ARC
  5
80
330
7B
100
AcDbEntity
  8
0
  6
Continuous
 62
     0
370
    30
100
AcDbCircle
 10
103.327244
 20
846.693604
 30
0.0
 40
27.50000013113441
100
AcDbArc
 50
277.312077
 51
352.687972
  0
ARC
  5
81
330
7B
100
AcDbEntity
  8
0
  6
Continuous
 62
     0
370
    30
100
AcDbCircle
 10
103.327244
 20
846.693604
 30
0.0
 40
27.50000013113441
100
AcDbArc
 50
7.312016
 51
69.168008
  0
ARC
  5
82
330
7B
100
AcDbEntity
  8
0
  6
Continuous
 62
     0
370
    30
100
AcDbCircle
 10
103.326554
 20
846.692987
 30
0.0
 40
16.00074043880407
100
AcDbArc
 50
12.637283
 51
77.36243
  0
ARC
  5
83
330
7B
100
AcDbEntity
  8
0
  6
Continuous
 62
     0
370
    30
100
AcDbCircle
 10
103.326554
 20
846.694214
 30
0.0
 40
16.00074045549722
100
AcDbArc
 50
282.637657
 51
347.362717
  0
ARC
  5
84
330
7B
100
AcDbEntity
  8
0
  6
Continuous
 62
     0
370
    30
100
AcDbCircle
 10
103.327933
 20
846.694214
 30
0.0
 40
16.00074041751738
100
AcDbArc
 50
192.637278
 51
257.362535
  0
ARC
  5
85
330
7B
100
AcDbEntity
  8
0
  6
Continuous
 62
     0
370
    30
100
AcDbCircle
 10
103.327933
 20
846.692987
 30
0.0
 40
16.00074043647989
100
AcDbArc
 50
102.637552
 51
167.362712
  0
ARC
  5
86
330
7B
100
AcDbEntity
  8
0
  6
Continuous
 62
     0
370
    30
100
AcDbCircle
 10
103.327244
 20
846.693603
 30
0.0
 40
11.0
100
AcDbArc
 50
270.0
 51
90.0
  0
ARC
  5
87
330
7B
100
AcDbEntity
  8
0
  6
Continuous
 62
     0
370
    30
100
AcDbCircle
 10
103.327244
 20
846.693603
 30
0.0
 40
11.0
100
AcDbArc
 50
90.0
 51
270.0
  0
LWPOLYLINE
  5
88
330
7B
100
AcDbEntity
  8
0
  6
Continuous
 62
     0
370
    30
100
AcDbPolyline
 90
        3
 70
     0
 43
0.0
 10
106.827255
 20
811.593628
 10
106.823761
 20
811.593628
 10
106.760231
 20
811.593628
  0
LINE
  5
89
330
7B
100
AcDbEntity
  8
0
  6
Continuous
 62
     0
370
    30
100
AcDbLine
 10
106.760234
 20
811.593598
 30
0.0
 11
99.827285
 21
811.593598
 31
0.0
  0
LWPOLYLINE
  5
8A
330
7B
100
AcDbEntity
  8
0
  6
Continuous
 62
     0
370
    30
100
AcDbPolyline
 90
        5
 70
     0
 43
0.0
 10
138.427246
 20
850.193604
 10
138.427246
 20
850.162903
 10
138.427246
 20
850.07135
 10
138.427246
 20
849.920227
 10
138.427246
 20
849.678833
  0
LINE
  5
8B
330
7B
100
AcDbEntity
  8
0
  6
Continuous
 62
     0
370
    30
100
AcDbLine
 10
138.42724
 20
849.678849
 30
0.0
 11
138.42724
 21
843.193605
 31
0.0
  0
LWPOLYLINE
  5
8C
330
7B
100
AcDbEntity
  8
0
  6
Continuous
 62
     0
370
    30
100
AcDbPolyline
 90
        9
 70
     0
 43
0.0
 10
68.227203
 20
843.193604
 10
68.227203
 20
843.229065
 10
68.227203
 20
843.335022
 10
68.227203
 20
843.509216
 10
68.227203
 20
843.748108
 10
68.227203
 20
844.046936
 10
68.227203
 20
844.399536
 10
68.227203
 20
844.798828
 10
68.227203
 20
845.264709
  0
LINE
  5
8D
330
7B
100
AcDbEntity
  8
0
  6
Continuous
 62
     0
370
    30
100
AcDbLine
 10
68.227206
 20
845.264739
 30
0.0
 11
68.227206
 21
850.193577
 31
0.0
  0
LINE
  5
8E
330
7B
100
AcDbEntity
  8
0
  6
Continuous
 62
     0
370
    30
100
AcDbLine
 10
99.827238
 20
881.793634
 30
0.0
 11
101.455906
 21
881.793634
 31
0.0
  0
LINE
  5
8F
330
7B
100
AcDbEntity
  8
0
  6
Continuous
 62
     0
370
    30
100
AcDbLine
 10
101.455906
 20
881.793634
 30
0.0
 11
106.827255
 21
881.793634
 31
0.0
  0
LINE
  5
90
330
7B
100
AcDbEntity
  8
0
  6
Continuous
 62
     0
370
    30
100
AcDbLine
 10
99.827246
 20
881.793634
 30
0.0
 11
99.827246
 21
857.121928
 31
0.0
  0
LINE
  5
91
330
7B
100
AcDbEntity
  8
0
  6
Continuous
 62
     0
370
    30
100
AcDbLine
 10
106.827246
 20
857.121993
 30
0.0
 11
106.827246
 21
881.793634
 31
0.0
  0
LINE
  5
92
330
7B
100
AcDbEntity
  8
0
  6
Continuous
 62
     0
370
    30
100
AcDbLine
 10
68.227206
 20
843.193602
 30
0.0
 11
92.898885
 21
843.193602
 31
0.0
  0
LINE
  5
93
330
7B
100
AcDbEntity
  8
0
  6
Continuous
 62
     0
370
    30
100
AcDbLine
 10
92.89892
 20
850.193602
 30
0.0
 11
68.227206
 21
850.193602
 31
0.0
  0
LINE
  5
94
330
7B
100
AcDbEntity
  8
0
  6
Continuous
 62
     0
370
    30
100
AcDbLine
 10
138.42724
 20
850.193601
 30
0.0
 11
113.755617
 21
850.193601
 31
0.0
  0
LINE
  5
95
330
7B
100
AcDbEntity
  8
0
  6
Continuous
 62
     0
370
    30
100
AcDbLine
 10
113.7556
 20
843.193601
 30
0.0
 11
138.42724
 21
843.193601
 31
0.0
  0
LINE
  5
96
330
7B
100
AcDbEntity
  8
0
  6
Continuous
 62
     0
370
    30
100
AcDbLine
 10
106.82727
 20
811.593598
 30
0.0
 11
106.82727
 21
836.265281
 31
0.0
  0
LINE
  5
97
330
7B
100
AcDbEntity
  8
0
  6
Continuous
 62
     0
370
    30
100
AcDbLine
 10
99.82727
 20
836.265261
 30
0.0
 11
99.82727
 21
811.593598
 31
0.0
  0
ARC
  5
98
330
7B
100
AcDbEntity
  8
0
  6
Continuous
 62
     0
370
    30
100
AcDbCircle
 10
103.328487
 20
726.695076
 30
0.0
 40
54.99999999999958
100
AcDbArc
 50
90.0
 51
270.0
  0
ARC
  5
99
330
7B
100
AcDbEntity
  8
0
  6
Continuous
 62
     0
370
    30
100
AcDbCircle
 10
103.328487
 20
726.695076
 30
0.0
 40
54.99999999999959
100
AcDbArc
 50
270.0
 51
90.0
  0
ARC
  5
9A
330
7B
100
AcDbEntity
  8
0
  6
Continuous
 62
     0
370
    30
100
AcDbCircle
 10
103.328188
 20
726.695076
 30
0.0
 40
22.00000922099402
100
AcDbArc
 50
89.99922
 51
270.00078
  0
ARC
  5
9B
330
7B
100
AcDbEntity
  8
0
  6
Continuous
 62
     0
370
    30
100
AcDbCircle
 10
103.328787
 20
726.695076
 30
0.0
 40
22.00000922099402
100
AcDbArc
 50
269.99922
 51
90.00078
  0
LINE
  5
9C
330
7B
100
AcDbEntity
  8
0
  6
Continuous
 62
     0
370
    30
100
AcDbLine
 10
103.328487
 20
756.345085
 30
0.0
 11
99.828487
 21
756.345085
 31
0.0
  0
LINE
  5
9D
330
7B
100
AcDbEntity
  8
0
  6
Continuous
 62
     0
370
    30
100
AcDbLine
 10
106.828487
 20
756.345085
 30
0.0
 11
103.328487
 21
756.345085
 31
0.0
  0
LINE
  5
9E
330
7B
100
AcDbEntity
  8
0
  6
Continuous
 62
     0
370
    30
100
AcDbLine
 10
103.328487
 20
756.545085
 30
0.0
 11
100.030261
 21
756.543022
 31
0.0
  0
LINE
  5
9F
330
7B
100
AcDbEntity
  8
0
  6
Continuous
 62
     0
370
    30
100
AcDbLine
 10
106.626714
 20
756.543022
 30
0.0
 11
103.328487
 21
756.545085
 31
0.0
  0
LINE
  5
A0
330
7B
100
AcDbEntity
  8
0
  6
Continuous
 62
     0
370
    30
100
AcDbLine
 10
106.828487
 20
756.345105
 30
0.0
 11
106.62868
 21
756.54491
 31
0.0
  0
LINE
  5
A1
330
7B
100
AcDbEntity
  8
0
  6
Continuous
 62
     0
370
    30
100
AcDbLine
 10
99.828488
 20
756.345105
 30
0.0
 11
100.028294
 21
756.54491
 31
0.0
  0
LINE
  5
A2
330
7B
100
AcDbEntity
  8
0
  6
Continuous
 62
     0
370
    30
100
AcDbLine
 10
99.828487
 20
756.345085
 30
0.0
 11
99.828487
 21
748.414916
 31
0.0
  0
LINE
  5
A3
330
7B
100
AcDbEntity
  8
0
  6
Continuous
 62
     0
370
    30
100
AcDbLine
 10
106.828487
 20
756.345085
 30
0.0
 11
106.828487
 21
748.414916
 31
0.0
  0
ARC
  5
A4
330
7B
100
AcDbEntity
  8
0
  6
Continuous
 62
     0
370
    30
100
AcDbCircle
 10
103.326754
 20
946.693166
 30
0.0
 40
27.50000013113128
100
AcDbArc
 50
69.168008
 51
82.687973
  0
ARC
  5
A5
330
7B
100
AcDbEntity
  8
0
  6
Continuous
 62
     0
370
    30
100
AcDbCircle
 10
103.326754
 20
946.693166
 30
0.0
 40
27.50000013113416
100
AcDbArc
 50
97.312017
 51
172.687981
  0
ARC
  5
A6
330
7B
100
AcDbEntity
  8
0
  6
Continuous
 62
     0
370
    30
100
AcDbCircle
 10
103.326754
 20
946.693166
 30
0.0
 40
27.50000013113438
100
AcDbArc
 50
187.312025
 51
249.168008
  0
ARC
  5
A7
330
7B
100
AcDbEntity
  8
0
  6
Continuous
 62
     0
370
    30
100
AcDbCircle
 10
103.326754
 20
946.693166
 30
0.0
 40
27.50000013113226
100
AcDbArc
 50
249.168008
 51
262.688033
  0
ARC
  5
A8
330
7B
100
AcDbEntity
  8
0
  6
Continuous
 62
     0
370
    30
100
AcDbCircle
 10
103.326754
 20
946.693166
 30
0.0
 40
27.50000013113411
100
AcDbArc
 50
277.312077
 51
352.687972
  0
ARC
  5
A9
330
7B
100
AcDbEntity
  8
0
  6
Continuous
 62
     0
370
    30
100
AcDbCircle
 10
103.326754
 20
946.693166
 30
0.0
 40
27.50000013113408
100
AcDbArc
 50
7.312016
 51
69.168008
  0
ARC
  5
AA
330
7B
100
AcDbEntity
  8
0
  6
Continuous
 62
     0
370
    30
100
AcDbCircle
 10
103.326064
 20
946.69255
 30
0.0
 40
16.00074043880358
100
AcDbArc
 50
12.637283
 51
77.36243
  0
ARC
  5
AB
330
7B
100
AcDbEntity
  8
0
  6
Continuous
 62
     0
370
    30
100
AcDbCircle
 10
103.326064
 20
946.693777
 30
0.0
 40
16.00074045549702
100
AcDbArc
 50
282.637657
 51
347.362717
  0
ARC
  5
AC
330
7B
100
AcDbEntity
  8
0
  6
Continuous
 62
     0
370
    30
100
AcDbCircle
 10
103.327443
 20
946.693777
 30
0.0
 40
16.00074041751663
100
AcDbArc
 50
192.637278
 51
257.362535
  0
ARC
  5
AD
330
7B
100
AcDbEntity
  8
0
  6
Continuous
 62
     0
370
    30
100
AcDbCircle
 10
103.327443
 20
946.69255
 30
0.0
 40
16.0007404364791
100
AcDbArc
 50
102.637552
 51
167.362712
  0
ARC
  5
AE
330
7B
100
AcDbEntity
  8
0
  6
Continuous
 62
     0
370
    30
100
AcDbCircle
 10
103.326754
 20
946.693165
 30
0.0
 40
11.0
100
AcDbArc
 50
270.0
 51
90.0
  0
ARC
  5
AF
330
7B
100
AcDbEntity
  8
0
  6
Continuous
 62
     0
370
    30
100
AcDbCircle
 10
103.326754
 20
946.693165
 30
0.0
 40
11.0
100
AcDbArc
 50
90.0
 51
270.0
  0
LWPOLYLINE
  5
B0
330
7B
100
AcDbEntity
  8
0
  6
Continuous
 62
     0
370
    30
100
AcDbPolyline
 90
        3
 70
     0
 43
0.0
 10
106.826767
 20
911.59314
 10
106.823273
 20
911.59314
 10
106.759743
 20
911.59314
  0
LINE
  5
B1
330
7B
100
AcDbEntity
  8
0
  6
Continuous
 62
     0
370
    30
100
AcDbLine
 10
106.759743
 20
911.593161
 30
0.0
 11
99.826795
 21
911.593161
 31
0.0
  0
LWPOLYLINE
  5
B2
330
7B
100
AcDbEntity
  8
0
  6
Continuous
 62
     0
370
    30
100
AcDbPolyline
 90
        5
 70
     0
 43
0.0
 10
138.426743
 20
950.193176
 10
138.426743
 20
950.162476
 10
138.426743
 20
950.070862
 10
138.426743
 20
949.919739
 10
138.426743
 20
949.678406
  0
LINE
  5
B3
330
7B
100
AcDbEntity
  8
0
  6
Continuous
 62
     0
370
    30
100
AcDbLine
 10
138.42675
 20
949.678412
 30
0.0
 11
138.42675
 21
943.193168
 31
0.0
  0
LWPOLYLINE
  5
B4
330
7B
100
AcDbEntity
  8
0
  6
Continuous
 62
     0
370
    30
100
AcDbPolyline
 90
        9
 70
     0
 43
0.0
 10
68.226715
 20
943.193176
 10
68.226715
 20
943.228638
 10
68.226715
 20
943.334534
 10
68.226715
 20
943.508789
 10
68.226715
 20
943.747681
 10
68.226715
 20
944.046509
 10
68.226715
 20
944.399048
 10
68.226715
 20
944.79834
 10
68.226715
 20
945.264282
  0
LINE
  5
B5
330
7B
100
AcDbEntity
  8
0
  6
Continuous
 62
     0
370
    30
100
AcDbLine
 10
68.226715
 20
945.264302
 30
0.0
 11
68.226715
 21
950.19314
 31
0.0
  0
LINE
  5
B6
330
7B
100
AcDbEntity
  8
0
  6
Continuous
 62
     0
370
    30
100
AcDbLine
 10
99.826748
 20
981.793196
 30
0.0
 11
101.455416
 21
981.793196
 31
0.0
  0
LINE
  5
B7
330
7B
100
AcDbEntity
  8
0
  6
Continuous
 62
     0
370
    30
100
AcDbLine
 10
101.455416
 20
981.793196
 30
0.0
 11
106.826764
 21
981.793196
 31
0.0
  0
LINE
  5
B8
330
7B
100
AcDbEntity
  8
0
  6
Continuous
 62
     0
370
    30
100
AcDbLine
 10
99.826756
 20
981.793196
 30
0.0
 11
99.826756
 21
957.121491
 31
0.0
  0
LINE
  5
B9
330
7B
100
AcDbEntity
  8
0
  6
Continuous
 62
     0
370
    30
100
AcDbLine
 10
106.826756
 20
957.121556
 30
0.0
 11
106.826756
 21
981.793196
 31
0.0
  0
LINE
  5
BA
330
7B
100
AcDbEntity
  8
0
  6
Continuous
 62
     0
370
    30
100
AcDbLine
 10
68.226715
 20
943.193165
 30
0.0
 11
92.898395
 21
943.193165
 31
0.0
  0
LINE
  5
BB
330
7B
100
AcDbEntity
  8
0
  6
Continuous
 62
     0
370
    30
100
AcDbLine
 10
92.89843
 20
950.193165
 30
0.0
 11
68.226715
 21
950.193165
 31
0.0
  0
LINE
  5
BC
330
7B
100
AcDbEntity
  8
0
  6
Continuous
 62
     0
370
    30
100
AcDbLine
 10
138.42675
 20
950.193164
 30
0.0
 11
113.755127
 21
950.193164
 31
0.0
  0
LINE
  5
BD
330
7B
100
AcDbEntity
  8
0
  6
Continuous
 62
     0
370
    30
100
AcDbLine
 10
113.75511
 20
943.193164
 30
0.0
 11
138.42675
 21
943.193164
 31
0.0
  0
LINE
  5
BE
330
7B
100
AcDbEntity
  8
0
  6
Continuous
 62
     0
370
    30
100
AcDbLine
 10
106.82678
 20
911.593161
 30
0.0
 11
106.82678
 21
936.264844
 31
0.0
  0
LINE
  5
BF
330
7B
100
AcDbEntity
  8
0
  6
Continuous
 62
     0
370
    30
100
AcDbLine
 10
99.82678
 20
936.264824
 30
0.0
 11
99.82678
 21
911.593161
 31
0.0
  0
ARC
  5
C0
330
7B
100
AcDbEntity
  8
0
  6
Continuous
 62
     0
370
    30
100
AcDbCircle
 10
103.326263
 20
1046.692298
 30
0.0
 40
27.50000013111848
100
AcDbArc
 50
69.168008
 51
82.687973
  0
ARC
  5
C1
330
7B
100
AcDbEntity
  8
0
  6
Continuous
 62
     0
370
    30
100
AcDbCircle
 10
103.326263
 20
1046.692298
 30
0.0
 40
27.50000013113493
100
AcDbArc
 50
97.312017
 51
172.687981
  0
ARC
  5
C2
330
7B
100
AcDbEntity
  8
0
  6
Continuous
 62
     0
370
    30
100
AcDbCircle
 10
103.326263
 20
1046.692298
 30
0.0
 40
27.50000013113488
100
AcDbArc
 50
187.312025
 51
249.168008
  0
ARC
  5
C3
330
7B
100
AcDbEntity
  8
0
  6
Continuous
 62
     0
370
    30
100
AcDbCircle
 10
103.326263
 20
1046.692298
 30
0.0
 40
27.50000013113315
100
AcDbArc
 50
249.168008
 51
262.688033
  0
ARC
  5
C4
330
7B
100
AcDbEntity
  8
0
  6
Continuous
 62
     0
370
    30
100
AcDbCircle
 10
103.326263
 20
1046.692298
 30
0.0
 40
27.5000001311348
100
AcDbArc
 50
277.312077
 51
352.687972
  0
ARC
  5
C5
330
7B
100
AcDbEntity
  8
0
  6
Continuous
 62
     0
370
    30
100
AcDbCircle
 10
103.326263
 20
1046.692298
 30
0.0
 40
27.50000013113418
100
AcDbArc
 50
7.312016
 51
69.168008
  0
ARC
  5
C6
330
7B
100
AcDbEntity
  8
0
  6
Continuous
 62
     0
370
    30
100
AcDbCircle
 10
103.325574
 20
1046.691682
 30
0.0
 40
16.00074043880149
100
AcDbArc
 50
12.637283
 51
77.36243
  0
ARC
  5
C7
330
7B
100
AcDbEntity
  8
0
  6
Continuous
 62
     0
370
    30
100
AcDbCircle
 10
103.325574
 20
1046.692909
 30
0.0
 40
16.00074045549749
100
AcDbArc
 50
282.637657
 51
347.362717
  0
ARC
  5
C8
330
7B
100
AcDbEntity
  8
0
  6
Continuous
 62
     0
370
    30
100
AcDbCircle
 10
103.326953
 20
1046.692909
 30
0.0
 40
16.00074041751613
100
AcDbArc
 50
192.637278
 51
257.362535
  0
ARC
  5
C9
330
7B
100
AcDbEntity
  8
0
  6
Continuous
 62
     0
370
    30
100
AcDbCircle
 10
103.326953
 20
1046.691682
 30
0.0
 40
16.00074043648001
100
AcDbArc
 50
102.637552
 51
167.362712
  0
ARC
  5
CA
330
7B
100
AcDbEntity
  8
0
  6
Continuous
 62
     0
370
    30
100
AcDbCircle
 10
103.326263
 20
1046.692297
 30
0.0
 40
11.0
100
AcDbArc
 50
270.0
 51
90.0
  0
ARC
  5
CB
330
7B
100
AcDbEntity
  8
0
  6
Continuous
 62
     0
370
    30
100
AcDbCircle
 10
103.326263
 20
1046.692297
 30
0.0
 40
11.0
100
AcDbArc
 50
90.0
 51
270.0
  0
LWPOLYLINE
  5
CC
330
7B
100
AcDbEntity
  8
0
  6
Continuous
 62
     0
370
    30
100
AcDbPolyline
 90
        3
 70
     0
 43
0.0
 10
106.826271
 20
1011.592285
 10
106.822784
 20
1011.592285
 10
106.759254
 20
1011.592285
  0
LINE
  5
CD
330
7B
100
AcDbEntity
  8
0
  6
Continuous
 62
     0
370
    30
100
AcDbLine
 10
106.759253
 20
1011.592293
 30
0.0
 11
99.826304
 21
1011.592293
 31
0.0
  0
LWPOLYLINE
  5
CE
330
7B
100
AcDbEntity
  8
0
  6
Continuous
 62
     0
370
    30
100
AcDbPolyline
 90
        5
 70
     0
 43
0.0
 10
138.426254
 20
1050.192261
 10
138.426254
 20
1050.161621
 10
138.426254
 20
1050.070068
 10
138.426254
 20
1049.918945
 10
138.426254
 20
1049.67749
  0
LINE
  5
CF
330
7B
100
AcDbEntity
  8
0
  6
Continuous
 62
     0
370
    30
100
AcDbLine
 10
138.426259
 20
1049.677544
 30
0.0
 11
138.426259
 21
1043.1923
 31
0.0
  0
LWPOLYLINE
  5
D0
330
7B
100
AcDbEntity
  8
0
  6
Continuous
 62
     0
370
    30
100
AcDbPolyline
 90
        9
 70
     0
 43
0.0
 10
68.226227
 20
1043.192261
 10
68.226227
 20
1043.227783
 10
68.226227
 20
1043.33374
 10
68.226227
 20
1043.507935
 10
68.226227
 20
1043.746826
 10
68.226227
 20
1044.045654
 10
68.226227
 20
1044.398193
 10
68.226227
 20
1044.797485
 10
68.226227
 20
1045.263428
  0
LINE
  5
D1
330
7B
100
AcDbEntity
  8
0
  6
Continuous
 62
     0
370
    30
100
AcDbLine
 10
68.226225
 20
1045.263434
 30
0.0
 11
68.226225
 21
1050.192272
 31
0.0
  0
LINE
  5
D2
330
7B
100
AcDbEntity
  8
0
  6
Continuous
 62
     0
370
    30
100
AcDbLine
 10
99.826257
 20
1081.792328
 30
0.0
 11
101.454925
 21
1081.792328
 31
0.0
  0
LINE
  5
D3
330
7B
100
AcDbEntity
  8
0
  6
Continuous
 62
     0
370
    30
100
AcDbLine
 10
101.454925
 20
1081.792328
 30
0.0
 11
106.826274
 21
1081.792328
 31
0.0
  0
LINE
  5
D4
330
7B
100
AcDbEntity
  8
0
  6
Continuous
 62
     0
370
    30
100
AcDbLine
 10
99.826265
 20
1081.792328
 30
0.0
 11
99.826265
 21
1057.120623
 31
0.0
  0
LINE
  5
D5
330
7B
100
AcDbEntity
  8
0
  6
Continuous
 62
     0
370
    30
100
AcDbLine
 10
106.826265
 20
1057.120688
 30
0.0
 11
106.826265
 21
1081.792328
 31
0.0
  0
LINE
  5
D6
330
7B
100
AcDbEntity
  8
0
  6
Continuous
 62
     0
370
    30
100
AcDbLine
 10
68.226225
 20
1043.192297
 30
0.0
 11
92.897904
 21
1043.192297
 31
0.0
  0
LINE
  5
D7
330
7B
100
AcDbEntity
  8
0
  6
Continuous
 62
     0
370
    30
100
AcDbLine
 10
92.897939
 20
1050.192297
 30
0.0
 11
68.226225
 21
1050.192297
 31
0.0
  0
LINE
  5
D8
330
7B
100
AcDbEntity
  8
0
  6
Continuous
 62
     0
370
    30
100
AcDbLine
 10
138.426259
 20
1050.192296
 30
0.0
 11
113.754636
 21
1050.192296
 31
0.0
  0
LINE
  5
D9
330
7B
100
AcDbEntity
  8
0
  6
Continuous
 62
     0
370
    30
100
AcDbLine
 10
113.754619
 20
1043.192296
 30
0.0
 11
138.426259
 21
1043.192296
 31
0.0
  0
LINE
  5
DA
330
7B
100
AcDbEntity
  8
0
  6
Continuous
 62
     0
370
    30
100
AcDbLine
 10
106.826289
 20
1011.592293
 30
0.0
 11
106.826289
 21
1036.263976
 31
0.0
  0
LINE
  5
DB
330
7B
100
AcDbEntity
  8
0
  6
Continuous
 62
     0
370
    30
100
AcDbLine
 10
99.826289
 20
1036.263956
 30
0.0
 11
99.826289
 21
1011.592293
 31
0.0
  0
ARC
  5
DC
330
7B
100
AcDbEntity
  8
0
  6
Continuous
 62
     0
370
    30
100
AcDbCircle
 10
103.325773
 20
1146.69143
 30
0.0
 40
27.50000013115828
100
AcDbArc
 50
69.168008
 51
82.687973
  0
ARC
  5
DD
330
7B
100
AcDbEntity
  8
0
  6
Continuous
 62
     0
370
    30
100
AcDbCircle
 10
103.325773
 20
1146.69143
 30
0.0
 40
27.50000013113519
100
AcDbArc
 50
97.312017
 51
172.687981
  0
ARC
  5
DE
330
7B
100
AcDbEntity
  8
0
  6
Continuous
 62
     0
370
    30
100
AcDbCircle
 10
103.325773
 20
1146.69143
 30
0.0
 40
27.50000013113658
100
AcDbArc
 50
187.312025
 51
249.168008
  0
ARC
  5
DF
330
7B
100
AcDbEntity
  8
0
  6
Continuous
 62
     0
370
    30
100
AcDbCircle
 10
103.325773
 20
1146.69143
 30
0.0
 40
27.50000013111747
100
AcDbArc
 50
249.168008
 51
262.688033
  0
ARC
  5
E0
330
7B
100
AcDbEntity
  8
0
  6
Continuous
 62
     0
370
    30
100
AcDbCircle
 10
103.325773
 20
1146.69143
 30
0.0
 40
27.50000013113468
100
AcDbArc
 50
277.312077
 51
352.687972
  0
ARC
  5
E1
330
7B
100
AcDbEntity
  8
0
  6
Continuous
 62
     0
370
    30
100
AcDbCircle
 10
103.325773
 20
1146.69143
 30
0.0
 40
27.50000013113391
100
AcDbArc
 50
7.312016
 51
69.168008
  0
ARC
  5
E2
330
7B
100
AcDbEntity
  8
0
  6
Continuous
 62
     0
370
    30
100
AcDbCircle
 10
103.325083
 20
1146.690814
 30
0.0
 40
16.00074043880232
100
AcDbArc
 50
12.637283
 51
77.36243
  0
ARC
  5
E3
330
7B
100
AcDbEntity
  8
0
  6
Continuous
 62
     0
370
    30
100
AcDbCircle
 10
103.325083
 20
1146.692041
 30
0.0
 40
16.00074045549688
100
AcDbArc
 50
282.637657
 51
347.362717
  0
ARC
  5
E4
330
7B
100
AcDbEntity
  8
0
  6
Continuous
 62
     0
370
    30
100
AcDbCircle
 10
103.326462
 20
1146.692041
 30
0.0
 40
16.00074041751701
100
AcDbArc
 50
192.637278
 51
257.362535
  0
ARC
  5
E5
330
7B
100
AcDbEntity
  8
0
  6
Continuous
 62
     0
370
    30
100
AcDbCircle
 10
103.326462
 20
1146.690814
 30
0.0
 40
16.00074043648385
100
AcDbArc
 50
102.637552
 51
167.362712
  0
ARC
  5
E6
330
7B
100
AcDbEntity
  8
0
  6
Continuous
 62
     0
370
    30
100
AcDbCircle
 10
103.325773
 20
1146.691429
 30
0.0
 40
11.0
100
AcDbArc
 50
270.0
 51
90.0
  0
ARC
  5
E7
330
7B
100
AcDbEntity
  8
0
  6
Continuous
 62
     0
370
    30
100
AcDbCircle
 10
103.325773
 20
1146.691429
 30
0.0
 40
11.0
100
AcDbArc
 50
90.0
 51
270.0
  0
LWPOLYLINE
  5
E8
330
7B
100
AcDbEntity
  8
0
  6
Continuous
 62
     0
370
    30
100
AcDbPolyline
 90
        3
 70
     0
 43
0.0
 10
106.825783
 20
1111.591431
 10
106.822289
 20
1111.591431
 10
106.758766
 20
1111.591431
  0
LINE
  5
E9
330
7B
100
AcDbEntity
  8
0
  6
Continuous
 62
     0
370
    30
100
AcDbLine
 10
106.758763
 20
1111.591425
 30
0.0
 11
99.825814
 21
1111.591425
 31
0.0
  0
LWPOLYLINE
  5
EA
330
7B
100
AcDbEntity
  8
0
  6
Continuous
 62
     0
370
    30
100
AcDbPolyline
 90
        5
 70
     0
 43
0.0
 10
138.425766
 20
1150.191406
 10
138.425766
 20
1150.160767
 10
138.425766
 20
1150.069092
 10
138.425766
 20
1149.917969
 10
138.425766
 20
1149.676636
  0
LINE
  5
EB
330
7B
100
AcDbEntity
  8
0
  6
Continuous
 62
     0
370
    30
100
AcDbLine
 10
138.425769
 20
1149.676676
 30
0.0
 11
138.425769
 21
1143.191432
 31
0.0
  0
LWPOLYLINE
  5
EC
330
7B
100
AcDbEntity
  8
0
  6
Continuous
 62
     0
370
    30
100
AcDbPolyline
 90
        9
 70
     0
 43
0.0
 10
68.225731
 20
1143.191406
 10
68.225731
 20
1143.226929
 10
68.225731
 20
1143.332764
 10
68.225731
 20
1143.50708
 10
68.225731
 20
1143.745972
 10
68.225731
 20
1144.0448
 10
68.225731
 20
1144.397339
 10
68.225731
 20
1144.796631
 10
68.225731
 20
1145.262573
  0
LINE
  5
ED
330
7B
100
AcDbEntity
  8
0
  6
Continuous
 62
     0
370
    30
100
AcDbLine
 10
68.225734
 20
1145.262566
 30
0.0
 11
68.225734
 21
1150.191404
 31
0.0
  0
LINE
  5
EE
330
7B
100
AcDbEntity
  8
0
  6
Continuous
 62
     0
370
    30
100
AcDbLine
 10
99.825767
 20
1181.79146
 30
0.0
 11
101.454435
 21
1181.79146
 31
0.0
  0
LINE
  5
EF
330
7B
100
AcDbEntity
  8
0
  6
Continuous
 62
     0
370
    30
100
AcDbLine
 10
101.454435
 20
1181.79146
 30
0.0
 11
106.825783
 21
1181.79146
 31
0.0
  0
LINE
  5
F0
330
7B
100
AcDbEntity
  8
0
  6
Continuous
 62
     0
370
    30
100
AcDbLine
 10
99.825775
 20
1181.79146
 30
0.0
 11
99.825775
 21
1157.119755
 31
0.0
  0
LINE
  5
F1
330
7B
100
AcDbEntity
  8
0
  6
Continuous
 62
     0
370
    30
100
AcDbLine
 10
106.825775
 20
1157.11982
 30
0.0
 11
106.825775
 21
1181.79146
 31
0.0
  0
LINE
  5
F2
330
7B
100
AcDbEntity
  8
0
  6
Continuous
 62
     0
370
    30
100
AcDbLine
 10
68.225734
 20
1143.191429
 30
0.0
 11
92.897414
 21
1143.191429
 31
0.0
  0
LINE
  5
F3
330
7B
100
AcDbEntity
  8
0
  6
Continuous
 62
     0
370
    30
100
AcDbLine
 10
92.897449
 20
1150.191429
 30
0.0
 11
68.225734
 21
1150.191429
 31
0.0
  0
LINE
  5
F4
330
7B
100
AcDbEntity
  8
0
  6
Continuous
 62
     0
370
    30
100
AcDbLine
 10
138.425769
 20
1150.191428
 30
0.0
 11
113.754146
 21
1150.191428
 31
0.0
  0
LINE
  5
F5
330
7B
100
AcDbEntity
  8
0
  6
Continuous
 62
     0
370
    30
100
AcDbLine
 10
113.754129
 20
1143.191428
 30
0.0
 11
138.425769
 21
1143.191428
 31
0.0
  0
LINE
  5
F6
330
7B
100
AcDbEntity
  8
0
  6
Continuous
 62
     0
370
    30
100
AcDbLine
 10
106.825799
 20
1111.591425
 30
0.0
 11
106.825799
 21
1136.263108
 31
0.0
  0
LINE
  5
F7
330
7B
100
AcDbEntity
  8
0
  6
Continuous
 62
     0
370
    30
100
AcDbLine
 10
99.825799
 20
1136.263088
 30
0.0
 11
99.825799
 21
1111.591425
 31
0.0
  0
ENDBLK
  5
F9
330
7B
100
AcDbEntity
  8
0
100
AcDbBlockEnd
  0
BLOCK
  5
130
330
FB
100
AcDbEntity
  8
0
100
AcDbBlockBegin
  2
b
 70
     0
 10
20.147503
 20
493.169121
 30
0.0
  3
b
  1

  0
LINE
  5
FC
330
FB
100
AcDbEntity
  8
0
  6
Continuous
 62
     0
370
    30
100
AcDbLine
 10
48.327739
 20
539.416588
 30
0.0
 11
75.825773
 21
539.416586
 31
0.0
  0
LINE
  5
FD
330
FB
100
AcDbEntity
  8
0
  6
Continuous
 62
     0
370
    30
100
AcDbLine
 10
130.825773
 20
539.416586
 30
0.0
 11
158.329236
 21
539.416588
 31
0.0
  0
LINE
  5
FE
330
FB
100
AcDbEntity
  8
0
  6
Continuous
 62
     0
370
    30
100
AcDbLine
 10
48.328487
 20
535.416587
 30
0.0
 11
75.825773
 21
535.416585
 31
0.0
  0
LINE
  5
FF
330
FB
100
AcDbEntity
  8
0
  6
Continuous
 62
     0
370
    30
100
AcDbLine
 10
130.825773
 20
535.416585
 30
0.0
 11
158.328487
 21
535.416587
 31
0.0
  0
LINE
  5
100
330
FB
100
AcDbEntity
  8
0
  6
Continuous
 62
     0
370
    30
100
AcDbLine
 10
87.325773
 20
533.216586
 30
0.0
 11
81.328478
 21
533.216587
 31
0.0
  0
LINE
  5
101
330
FB
100
AcDbEntity
  8
0
  6
Continuous
 62
     0
370
    30
100
AcDbLine
 10
125.328497
 20
533.216587
 30
0.0
 11
119.325773
 21
533.216586
 31
0.0
  0
LINE
  5
102
330
FB
100
AcDbEntity
  8
0
  6
Continuous
 62
     0
370
    30
100
AcDbLine
 10
125.328497
 20
484.016443
 30
0.0
 11
125.328497
 21
533.216587
 31
0.0
  0
LINE
  5
103
330
FB
100
AcDbEntity
  8
0
  6
Continuous
 62
     0
370
    30
100
AcDbLine
 10
81.328478
 20
484.016443
 30
0.0
 11
81.328478
 21
533.216587
 31
0.0
  0
LINE
  5
104
330
FB
100
AcDbEntity
  8
0
  6
Continuous
 62
     0
370
    30
100
AcDbLine
 10
123.228487
 20
535.416588
 30
0.0
 11
123.228487
 21
533.216587
 31
0.0
  0
LINE
  5
105
330
FB
100
AcDbEntity
  8
0
  6
Continuous
 62
     0
370
    30
100
AcDbLine
 10
83.428487
 20
533.216587
 30
0.0
 11
83.428487
 21
535.416588
 31
0.0
  0
LINE
  5
106
330
FB
100
AcDbEntity
  8
0
  6
Continuous
 62
     0
370
    30
100
AcDbLine
 10
48.328487
 20
539.416588
 30
0.0
 11
48.328487
 21
535.416587
 31
0.0
  0
LINE
  5
107
330
FB
100
AcDbEntity
  8
0
  6
Continuous
 62
     0
370
    30
100
AcDbLine
 10
158.328487
 20
535.416587
 30
0.0
 11
158.328487
 21
539.416588
 31
0.0
  0
LWPOLYLINE
  5
108
330
FB
100
AcDbEntity
  8
0
  6
Continuous
 62
     0
370
    30
100
AcDbPolyline
 90
       37
 70
     0
 43
0.0
 10
75.825775
 20
535.416443
 10
75.866295
 20
535.416443
 10
75.985634
 20
535.416443
 10
76.180077
 20
535.416443
 10
76.445442
 20
535.416443
 10
76.777199
 20
535.416443
 10
77.170532
 20
535.416443
 10
77.620461
 20
535.416443
 10
78.132599
 20
535.416443
 10
78.717499
 20
535.416443
 10
79.37677
 20
535.416443
 10
80.11145
 20
535.416443
 10
80.921974
 20
535.416443
 10
81.808121
 20
535.416443
 10
82.768906
 20
535.416443
 10
83.802635
 20
535.416443
 10
84.906799
 20
535.416443
 10
86.078125
 20
535.416443
 10
87.312561
 20
535.416443
 10
88.605324
 20
535.416443
 10
89.950966
 20
535.416443
 10
91.343414
 20
535.416443
 10
92.776093
 20
535.416443
 10
94.241989
 20
535.416443
 10
95.73381
 20
535.416443
 10
97.24408
 20
535.416443
 10
98.765251
 20
535.416443
 10
100.289848
 20
535.416443
 10
101.810585
 20
535.416443
 10
103.32045
 20
535.416443
 10
104.812805
 20
535.416443
 10
106.281487
 20
535.416443
 10
107.720856
 20
535.416443
 10
109.125854
 20
535.416443
 10
110.492004
 20
535.416443
 10
111.815483
 20
535.416443
 10
113.105568
 20
535.416443
  0
LINE
  5
109
330
FB
100
AcDbEntity
  8
0
  6
Continuous
 62
     0
370
    30
100
AcDbLine
 10
113.105567
 20
535.416421
 30
0.0
 11
130.825773
 21
535.416422
 31
0.0
  0
LINE
  5
10A
330
FB
100
AcDbEntity
  8
0
  6
Continuous
 62
     0
370
    30
100
AcDbLine
 10
130.825773
 20
539.416422
 30
0.0
 11
113.105567
 21
539.416421
 31
0.0
  0
LINE
  5
10B
330
FB
100
AcDbEntity
  8
0
  6
Continuous
 62
     0
370
    30
100
AcDbLine
 10
113.105567
 20
539.416421
 30
0.0
 11
75.825773
 21
539.416422
 31
0.0
  0
LINE
  5
10C
330
FB
100
AcDbEntity
  8
0
  6
Continuous
 62
     0
370
    30
100
AcDbLine
 10
119.32599
 20
508.416422
 30
0.0
 11
103.325773
 21
508.41642
 31
0.0
  0
LINE
  5
10D
330
FB
100
AcDbEntity
  8
0
  6
Continuous
 62
     0
370
    30
100
AcDbLine
 10
103.325773
 20
508.41642
 30
0.0
 11
87.325555
 21
508.416422
 31
0.0
  0
LINE
  5
10E
330
FB
100
AcDbEntity
  8
0
  6
Continuous
 62
     0
370
    30
100
AcDbLine
 10
103.325773
 20
503.51642
 30
0.0
 11
114.325922
 21
503.516421
 31
0.0
  0
LINE
  5
10F
330
FB
100
AcDbEntity
  8
0
  6
Continuous
 62
     0
370
    30
100
AcDbLine
 10
92.325623
 20
503.516421
 30
0.0
 11
103.325773
 21
503.51642
 31
0.0
  0
LWPOLYLINE
  5
110
330
FB
100
AcDbEntity
  8
0
  6
Continuous
 62
     0
370
     0
100
AcDbPolyline
 90
       23
 70
     0
 43
0.0
 10
103.325775
 20
476.916412
 10
102.811012
 20
476.952789
 10
102.306198
 20
477.065063
 10
101.824059
 20
477.244965
 10
101.375053
 20
477.489227
 10
100.968056
 20
477.795776
 10
100.608604
 20
478.156281
 10
100.302025
 20
478.562683
 10
100.055428
 20
479.01123
 10
99.874352
 20
479.493439
 10
99.763535
 20
479.99826
 10
99.726295
 20
480.514587
 10
99.763016
 20
481.030975
 10
99.873322
 20
481.53595
 10
100.053909
 20
482.018341
 10
100.300079
 20
482.467163
 10
100.606285
 20
482.87384
 10
100.965363
 20
483.234711
 10
101.372009
 20
483.541718
 10
101.820755
 20
483.786407
 10
102.302711
 20
483.966736
 10
102.807411
 20
484.079468
 10
103.325775
 20
484.116425
  0
LWPOLYLINE
  5
111
330
FB
100
AcDbEntity
  8
0
  6
Continuous
 62
     0
370
     0
100
AcDbPolyline
 90
       23
 70
     0
 43
0.0
 10
103.325775
 20
484.116425
 10
103.84053
 20
484.080017
 10
104.345345
 20
483.967773
 10
104.827499
 20
483.787903
 10
105.276512
 20
483.54364
 10
105.683479
 20
483.237061
 10
106.042908
 20
482.876526
 10
106.34951
 20
482.470184
 10
106.596123
 20
482.021637
 10
106.777191
 20
481.539429
 10
106.888008
 20
481.034576
 10
106.925247
 20
480.51825
 10
106.888535
 20
480.001892
 10
106.778221
 20
479.496918
 10
106.597626
 20
479.014526
 10
106.351471
 20
478.565674
 10
106.045296
 20
478.158997
 10
105.686188
 20
477.798157
 10
105.27951
 20
477.49118
 10
104.830772
 20
477.24646
 10
104.348839
 20
477.066101
 10
103.844139
 20
476.953339
 10
103.325775
 20
476.916412
  0
LINE
  5
112
330
FB
100
AcDbEntity
  8
0
  6
Continuous
 62
     0
370
    30
100
AcDbLine
 10
103.325773
 20
473.01642
 30
0.0
 11
114.325773
 21
473.016421
 31
0.0
  0
LINE
  5
113
330
FB
100
AcDbEntity
  8
0
  6
Continuous
 62
     0
370
    30
100
AcDbLine
 10
92.325773
 20
473.016421
 30
0.0
 11
103.325773
 21
473.01642
 31
0.0
  0
LWPOLYLINE
  5
114
330
FB
100
AcDbEntity
  8
0
  6
Continuous
 62
     0
370
     0
100
AcDbPolyline
 90
       24
 70
     0
 43
0.0
 10
92.325775
 20
484.116425
 10
92.336975
 20
484.083252
 10
92.369217
 20
483.980499
 10
92.42041
 20
483.81543
 10
92.486633
 20
483.591492
 10
92.562843
 20
483.309967
 10
92.643913
 20
482.977142
 10
92.724472
 20
482.601135
 10
92.798416
 20
482.185425
 10
92.860138
 20
481.735596
 10
92.904839
 20
481.261078
 10
92.928108
 20
480.771515
 10
92.928467
 20
480.276794
 10
92.905907
 20
479.786926
 10
92.861816
 20
479.311798
 10
92.800552
 20
478.861053
 10
92.726921
 20
478.444122
 10
92.646477
 20
478.066833
 10
92.565338
 20
477.732544
 10
92.488884
 20
477.449341
 10
92.422279
 20
477.223572
 10
92.370544
 20
477.056671
 10
92.337669
 20
476.951813
 10
92.325775
 20
476.916412
  0
LWPOLYLINE
  5
115
330
FB
100
AcDbEntity
  8
0
  6
Continuous
 62
     0
370
     0
100
AcDbPolyline
 90
       24
 70
     0
 43
0.0
 10
114.325775
 20
476.916412
 10
114.314606
 20
476.949493
 10
114.282387
 20
477.052216
 10
114.231209
 20
477.217224
 10
114.164993
 20
477.441162
 10
114.088768
 20
477.722626
 10
114.007683
 20
478.05545
 10
113.927124
 20
478.431519
 10
113.853172
 20
478.847321
 10
113.79142
 20
479.29718
 10
113.746696
 20
479.771729
 10
113.723419
 20
480.261353
 10
113.723076
 20
480.756165
 10
113.745651
 20
481.246124
 10
113.789764
 20
481.721313
 10
113.851036
 20
482.172119
 10
113.92469
 20
482.58905
 10
114.005157
 20
482.96637
 10
114.086304
 20
483.300659
 10
114.16275
 20
483.583893
 10
114.229355
 20
483.809631
 10
114.281067
 20
483.97644
 10
114.313911
 20
484.081177
 10
114.325775
 20
484.116425
  0
LWPOLYLINE
  5
116
330
FB
100
AcDbEntity
  8
0
  6
Continuous
 62
     0
370
    30
100
AcDbPolyline
 90
       20
 70
     0
 43
0.0
 10
92.325775
 20
477.016418
 10
92.337234
 20
477.052612
 10
92.370705
 20
477.160278
 10
92.423347
 20
477.336334
 10
92.491013
 20
477.576691
 10
92.568405
 20
477.876099
 10
92.649368
 20
478.228302
 10
92.727615
 20
478.62674
 10
92.79689
 20
479.064758
 10
92.851257
 20
479.534149
 10
92.885887
 20
480.025299
 10
92.897415
 20
480.527649
 10
92.884819
 20
481.029755
 10
92.84922
 20
481.520142
 10
92.794044
 20
481.988251
 10
92.724274
 20
482.424835
 10
92.645714
 20
482.821564
 10
92.564781
 20
483.171448
 10
92.48774
 20
483.468201
 10
92.418968
 20
483.711487
  0
LWPOLYLINE
  5
117
330
FB
100
AcDbEntity
  8
0
  6
Continuous
 62
     0
370
    30
100
AcDbPolyline
 90
        4
 70
     0
 43
0.0
 10
92.418968
 20
483.711487
 10
92.369606
 20
483.876099
 10
92.337814
 20
483.978516
 10
92.325775
 20
484.016418
  0
LWPOLYLINE
  5
118
330
FB
100
AcDbEntity
  8
0
  6
Continuous
 62
     0
370
    30
100
AcDbPolyline
 90
       23
 70
     0
 43
0.0
 10
114.325768
 20
484.016418
 10
114.314346
 20
483.980408
 10
114.281128
 20
483.873474
 10
114.228783
 20
483.698486
 10
114.161499
 20
483.459778
 10
114.084572
 20
483.162354
 10
114.003922
 20
482.812103
 10
113.925774
 20
482.415924
 10
113.856377
 20
481.98056
 10
113.801674
 20
481.513672
 10
113.766502
 20
481.02475
 10
113.75412
 20
480.524445
 10
113.765724
 20
480.023895
 10
113.800232
 20
479.534485
 10
113.854401
 20
479.066772
 10
113.923347
 20
478.630005
 10
114.00132
 20
478.2323
 10
114.082008
 20
477.880768
 10
114.159172
 20
477.581696
 10
114.22683
 20
477.341003
 10
114.279724
 20
477.16394
 10
114.313637
 20
477.054749
 10
114.325775
 20
477.016418
  0
LINE
  5
119
330
FB
100
AcDbEntity
  8
0
  6
Continuous
 62
     0
370
    30
100
AcDbLine
 10
138.425769
 20
484.01642
 30
0.0
 11
138.425769
 21
478.689325
 31
0.0
  0
LINE
  5
11A
330
FB
100
AcDbEntity
  8
0
  6
Continuous
 62
     0
370
    30
100
AcDbLine
 10
138.425769
 20
478.689325
 30
0.0
 11
138.425769
 21
477.01643
 31
0.0
  0
LINE
  5
11B
330
FB
100
AcDbEntity
  8
0
  6
Continuous
 62
     0
370
    30
100
AcDbLine
 10
68.225734
 20
483.711476
 30
0.0
 11
68.225734
 21
484.016391
 31
0.0
  0
LWPOLYLINE
  5
11C
330
FB
100
AcDbEntity
  8
0
  6
Continuous
 62
     0
370
    30
100
AcDbPolyline
 90
       19
 70
     0
 43
0.0
 10
68.225731
 20
477.016449
 10
68.225731
 20
477.056213
 10
68.225731
 20
477.174957
 10
68.225731
 20
477.369843
 10
68.225731
 20
477.636475
 10
68.225731
 20
477.968811
 10
68.225731
 20
478.359192
 10
68.225731
 20
478.798828
 10
68.225731
 20
479.277557
 10
68.225731
 20
479.784607
 10
68.225731
 20
480.308258
 10
68.225731
 20
480.836731
 10
68.225731
 20
481.35788
 10
68.225731
 20
481.859802
 10
68.225731
 20
482.331177
 10
68.225731
 20
482.761047
 10
68.225731
 20
483.139893
 10
68.225731
 20
483.458771
 10
68.225731
 20
483.711487
  0
ARC
  5
11D
330
FB
100
AcDbEntity
  8
0
  6
Continuous
 62
     0
370
    30
100
AcDbCircle
 10
103.325734
 20
480.516449
 30
0.0
 40
3.500000000331925
100
AcDbArc
 50
57.677766
 51
237.679344
  0
ARC
  5
11E
330
FB
100
AcDbEntity
  8
0
  6
Continuous
 62
     0
370
    30
100
AcDbCircle
 10
103.325815
 20
480.516398
 30
0.0
 40
3.500000000324047
100
AcDbArc
 50
237.677775
 51
57.679335
  0
LINE
  5
11F
330
FB
100
AcDbEntity
  8
0
  6
Continuous
 62
     0
370
    30
100
AcDbLine
 10
68.225734
 20
484.016425
 30
0.0
 11
92.325765
 21
484.016425
 31
0.0
  0
LINE
  5
120
330
FB
100
AcDbEntity
  8
0
  6
Continuous
 62
     0
370
    30
100
AcDbLine
 10
92.325804
 20
477.016425
 30
0.0
 11
68.225734
 21
477.016425
 31
0.0
  0
LINE
  5
121
330
FB
100
AcDbEntity
  8
0
  6
Continuous
 62
     0
370
    30
100
AcDbLine
 10
138.425769
 20
484.016425
 30
0.0
 11
114.325726
 21
484.016425
 31
0.0
  0
LINE
  5
122
330
FB
100
AcDbEntity
  8
0
  6
Continuous
 62
     0
370
    30
100
AcDbLine
 10
114.325774
 20
477.016425
 30
0.0
 11
138.425769
 21
477.016425
 31
0.0
  0
LINE
  5
123
330
FB
100
AcDbEntity
  8
0
  6
Continuous
 62
     0
370
    30
100
AcDbLine
 10
114.325773
 20
476.916421
 30
0.0
 11
114.325773
 21
477.016445
 31
0.0
  0
LINE
  5
124
330
FB
100
AcDbEntity
  8
0
  6
Continuous
 62
     0
370
    30
100
AcDbLine
 10
114.325773
 20
484.015978
 30
0.0
 11
114.325773
 21
484.116428
 31
0.0
  0
LINE
  5
125
330
FB
100
AcDbEntity
  8
0
  6
Continuous
 62
     0
370
    30
100
AcDbLine
 10
92.325773
 20
476.916421
 30
0.0
 11
92.325773
 21
477.016738
 31
0.0
  0
LINE
  5
126
330
FB
100
AcDbEntity
  8
0
  6
Continuous
 62
     0
370
    30
100
AcDbLine
 10
92.325773
 20
503.516421
 30
0.0
 11
92.325773
 21
484.839061
 31
0.0
  0
LINE
  5
127
330
FB
100
AcDbEntity
  8
0
  6
Continuous
 62
     0
370
    30
100
AcDbLine
 10
114.325773
 20
503.516421
 30
0.0
 11
114.325773
 21
484.839061
 31
0.0
  0
LINE
  5
128
330
FB
100
AcDbEntity
  8
0
  6
Continuous
 62
     0
370
    30
100
AcDbLine
 10
114.325773
 20
473.016421
 30
0.0
 11
114.325773
 21
476.916421
 31
0.0
  0
LINE
  5
129
330
FB
100
AcDbEntity
  8
0
  6
Continuous
 62
     0
370
    30
100
AcDbLine
 10
92.325773
 20
473.016421
 30
0.0
 11
92.325773
 21
476.916421
 31
0.0
  0
LINE
  5
12A
330
FB
100
AcDbEntity
  8
0
  6
Continuous
 62
     0
370
    30
100
AcDbLine
 10
109.075773
 20
503.516421
 30
0.0
 11
109.075773
 21
508.416422
 31
0.0
  0
LINE
  5
12B
330
FB
100
AcDbEntity
  8
0
  6
Continuous
 62
     0
370
    30
100
AcDbLine
 10
97.575773
 20
503.516421
 30
0.0
 11
97.575773
 21
508.416422
 31
0.0
  0
LINE
  5
12C
330
FB
100
AcDbEntity
  8
0
  6
Continuous
 62
     0
370
    30
100
AcDbLine
 10
87.325773
 20
508.416422
 30
0.0
 11
87.325773
 21
535.416435
 31
0.0
  0
LINE
  5
12D
330
FB
100
AcDbEntity
  8
0
  6
Continuous
 62
     0
370
    30
100
AcDbLine
 10
119.325773
 20
508.416422
 30
0.0
 11
119.325773
 21
535.416435
 31
0.0
  0
LINE
  5
12E
330
FB
100
AcDbEntity
  8
0
  6
Continuous
 62
     0
370
    30
100
AcDbLine
 10
75.825773
 20
535.416422
 30
0.0
 11
75.825773
 21
539.416422
 31
0.0
  0
LINE
  5
12F
330
FB
100
AcDbEntity
  8
0
  6
Continuous
 62
     0
370
    30
100
AcDbLine
 10
130.825773
 20
535.416422
 30
0.0
 11
130.825773
 21
539.416422
 31
0.0
  0
ENDBLK
  5
131
330
FB
100
AcDbEntity
  8
0
100
AcDbBlockEnd
  0
BLOCK
  5
1E8
330
133
100
AcDbEntity
  8
0
100
AcDbBlockBegin
  2
c
 70
     0
 10
68.586803
 20
106.89016
 30
0.0
  3
c
  1

  0
LINE
  5
134
330
133
100
AcDbEntity
  8
0
  6
Continuous
 62
     0
370
    30
100
AcDbLine
 10
298.37249
 20
820.991354
 30
0.0
 11
298.37249
 21
874.193604
 31
0.0
  0
LWPOLYLINE
  5
135
330
133
100
AcDbEntity
  8
0
  6
Continuous
 62
     0
370
    30
100
AcDbPolyline
 90
        9
 70
     0
 43
0.0
 10
298.372498
 20
819.193604
 10
298.372498
 20
819.223572
 10
298.372498
 20
819.312134
 10
298.372498
 20
819.456909
 10
298.372498
 20
819.655457
 10
298.372498
 20
819.904907
 10
298.372498
 20
820.202393
 10
298.372498
 20
820.544739
 10
298.372498
 20
820.991333
  0
LINE
  5
136
330
133
100
AcDbEntity
  8
0
  6
Continuous
 62
     0
370
    30
100
AcDbLine
 10
294.37249
 20
820.991354
 30
0.0
 11
294.37249
 21
819.193603
 31
0.0
  0
LINE
  5
137
330
133
100
AcDbEntity
  8
0
  6
Continuous
 62
     0
370
    30
100
AcDbLine
 10
294.37249
 20
874.193604
 30
0.0
 11
294.37249
 21
820.991354
 31
0.0
  0
LWPOLYLINE
  5
138
330
133
100
AcDbEntity
  8
0
  6
Continuous
 62
     0
370
    30
100
AcDbPolyline
 90
       46
 70
     0
 43
0.0
 10
325.372498
 20
862.693604
 10
325.372498
 20
862.654663
 10
325.372498
 20
862.537903
 10
325.372498
 20
862.344177
 10
325.372498
 20
862.074402
 10
325.372498
 20
861.729492
 10
325.372498
 20
861.311157
 10
325.372498
 20
860.821899
 10
325.372498
 20
860.264038
 10
325.372498
 20
859.640198
 10
325.372498
 20
858.952942
 10
325.372498
 20
858.205994
 10
325.372498
 20
857.403137
 10
325.372498
 20
856.54834
 10
325.372498
 20
855.645386
 10
325.372498
 20
854.69873
 10
325.372498
 20
853.713135
 10
325.372498
 20
852.693542
 10
325.372498
 20
851.644714
 10
325.372498
 20
850.571716
 10
325.372498
 20
849.479797
 10
325.372498
 20
848.374329
 10
325.372498
 20
847.260681
 10
325.372498
 20
846.144348
 10
325.372498
 20
845.030701
 10
325.372498
 20
843.925049
 10
325.372498
 20
842.832825
 10
325.372498
 20
841.75946
 10
325.372498
 20
840.710266
 10
325.372498
 20
839.690125
 10
325.372498
 20
838.703979
 10
325.372498
 20
837.756653
 10
325.372498
 20
836.852966
 10
325.372498
 20
835.997375
 10
325.372498
 20
835.193665
 10
325.372498
 20
834.44574
 10
325.372498
 20
833.757568
 10
325.372498
 20
833.132629
 10
325.372498
 20
832.57373
 10
325.372498
 20
832.083313
 10
325.372498
 20
831.663818
 10
325.372498
 20
831.317749
 10
325.372498
 20
831.046753
 10
325.372498
 20
830.851807
 10
325.372498
 20
830.733765
 10
325.372498
 20
830.693604
  0
LINE
  5
139
330
133
100
AcDbEntity
  8
0
  6
Continuous
 62
     0
370
    30
100
AcDbLine
 10
325.372489
 20
830.693601
 30
0.0
 11
298.372476
 21
830.693603
 31
0.0
  0
LINE
  5
13A
330
133
100
AcDbEntity
  8
0
  6
Continuous
 62
     0
370
    30
100
AcDbLine
 10
325.37249
 20
852.443603
 30
0.0
 11
330.272491
 21
852.443603
 31
0.0
  0
LWPOLYLINE
  5
13B
330
133
100
AcDbEntity
  8
0
  6
Continuous
 62
     0
370
    30
100
AcDbPolyline
 90
       38
 70
     0
 43
0.0
 10
330.272491
 20
835.693604
 10
330.272491
 20
835.733215
 10
330.272491
 20
835.851807
 10
330.272491
 20
836.04834
 10
330.272491
 20
836.321594
 10
330.272491
 20
836.6698
 10
330.272491
 20
837.090027
 10
330.272491
 20
837.579163
 10
330.272491
 20
838.134216
 10
330.272491
 20
838.750977
 10
330.272491
 20
839.424866
 10
330.272491
 20
840.15094
 10
330.272491
 20
840.924316
 10
330.272491
 20
841.739258
 10
330.272491
 20
842.589783
 10
330.272491
 20
843.469849
 10
330.272491
 20
844.37323
 10
330.272491
 20
845.293335
 10
330.272491
 20
846.22345
 10
330.272491
 20
847.156921
 10
330.272491
 20
848.087097
 10
330.272491
 20
849.007263
 10
330.272491
 20
849.910767
 10
330.272491
 20
850.791016
 10
330.272491
 20
851.641785
 10
330.272491
 20
852.457031
 10
330.272491
 20
853.230774
 10
330.272491
 20
853.957214
 10
330.272491
 20
854.63147
 10
330.272491
 20
855.248718
 10
330.272491
 20
855.804199
 10
330.272491
 20
856.293823
 10
330.272491
 20
856.7146
 10
330.272491
 20
857.063293
 10
330.272491
 20
857.337158
 10
330.272491
 20
857.534241
 10
330.272491
 20
857.653381
 10
330.272491
 20
857.693604
  0
LINE
  5
13C
330
133
100
AcDbEntity
  8
0
  6
Continuous
 62
     0
370
    30
100
AcDbLine
 10
360.772491
 20
857.693603
 30
0.0
 11
356.872491
 21
857.693603
 31
0.0
  0
LWPOLYLINE
  5
13D
330
133
100
AcDbEntity
  8
0
  6
Continuous
 62
     0
370
     0
100
AcDbPolyline
 90
       24
 70
     0
 43
0.0
 10
356.872498
 20
857.693604
 10
356.839417
 20
857.682434
 10
356.736694
 20
857.650208
 10
356.571747
 20
857.59906
 10
356.347839
 20
857.532837
 10
356.066437
 20
857.456604
 10
355.733643
 20
857.375549
 10
355.357635
 20
857.294983
 10
354.941925
 20
857.221008
 10
354.492096
 20
857.159302
 10
354.017578
 20
857.114563
 10
353.527985
 20
857.091309
 10
353.033234
 20
857.090881
 10
352.543304
 20
857.113464
 10
352.068115
 20
857.157532
 10
351.61734
 20
857.218811
 10
351.200378
 20
857.292419
 10
350.823059
 20
857.372864
 10
350.488708
 20
857.454041
 10
350.205414
 20
857.530457
 10
349.979645
 20
857.597107
 10
349.812744
 20
857.648804
 10
349.707916
 20
857.681702
 10
349.672485
 20
857.693604
  0
LINE
  5
13E
330
133
100
AcDbEntity
  8
0
  6
Continuous
 62
     0
370
    30
100
AcDbLine
 10
349.672491
 20
857.693603
 30
0.0
 11
330.272491
 21
857.693603
 31
0.0
  0
LINE
  5
13F
330
133
100
AcDbEntity
  8
0
  6
Continuous
 62
     0
370
    30
100
AcDbLine
 10
360.772491
 20
835.693603
 30
0.0
 11
360.772491
 21
857.693603
 31
0.0
  0
LWPOLYLINE
  5
140
330
133
100
AcDbEntity
  8
0
  6
Continuous
 62
     0
370
     0
100
AcDbPolyline
 90
       24
 70
     0
 43
0.0
 10
349.672485
 20
835.693604
 10
349.705658
 20
835.704834
 10
349.808411
 20
835.737061
 10
349.97348
 20
835.788269
 10
350.197418
 20
835.854431
 10
350.478943
 20
835.930664
 10
350.811768
 20
836.011719
 10
351.187775
 20
836.092285
 10
351.603485
 20
836.16626
 10
352.053314
 20
836.227966
 10
352.527832
 20
836.272644
 10
353.017395
 20
836.295959
 10
353.512115
 20
836.296326
 10
354.001984
 20
836.273743
 10
354.477112
 20
836.229675
 10
354.927856
 20
836.168396
 10
355.344788
 20
836.094727
 10
355.722076
 20
836.014282
 10
356.056366
 20
835.933167
 10
356.339569
 20
835.856689
 10
356.565338
 20
835.7901
 10
356.732239
 20
835.738403
 10
356.837097
 20
835.705505
 10
356.872498
 20
835.693604
  0
LWPOLYLINE
  5
141
330
133
100
AcDbEntity
  8
0
  6
Continuous
 62
     0
370
     0
100
AcDbPolyline
 90
       23
 70
     0
 43
0.0
 10
356.872498
 20
846.693604
 10
356.836121
 20
846.178772
 10
356.723846
 20
845.67395
 10
356.543884
 20
845.191772
 10
356.299561
 20
844.742737
 10
355.992981
 20
844.335754
 10
355.632416
 20
843.976318
 10
355.225952
 20
843.669739
 10
354.777344
 20
843.423157
 10
354.295105
 20
843.242065
 10
353.790222
 20
843.131226
 10
353.273865
 20
843.094116
 10
352.757446
 20
843.13092
 10
352.252441
 20
843.241333
 10
351.77002
 20
843.421997
 10
351.321228
 20
843.668274
 10
350.914581
 20
843.974548
 10
350.553741
 20
844.33374
 10
350.246796
 20
844.740479
 10
350.002136
 20
845.18927
 10
349.821869
 20
845.671326
 10
349.709259
 20
846.176086
 10
349.672485
 20
846.694458
  0
LWPOLYLINE
  5
142
330
133
100
AcDbEntity
  8
0
  6
Continuous
 62
     0
370
     0
100
AcDbPolyline
 90
       23
 70
     0
 43
0.0
 10
349.672485
 20
846.694458
 10
349.708954
 20
847.209167
 10
349.821289
 20
847.713928
 10
350.001251
 20
848.195984
 10
350.245636
 20
848.644897
 10
350.552246
 20
849.051758
 10
350.912811
 20
849.411133
 10
351.319183
 20
849.717651
 10
351.767731
 20
849.964172
 10
352.249939
 20
850.145142
 10
352.754761
 20
850.25592
 10
353.271057
 20
850.293091
 10
353.787384
 20
850.256287
 10
354.292297
 20
850.145935
 10
354.774628
 20
849.965332
 10
355.223419
 20
849.719177
 10
355.630066
 20
849.413025
 10
355.990875
 20
849.053894
 10
356.297791
 20
848.647217
 10
356.54248
 20
848.198547
 10
356.722839
 20
847.716614
 10
356.835571
 20
847.211975
 10
356.872498
 20
846.693604
  0
ARC
  5
143
330
133
100
AcDbEntity
  8
0
  6
Continuous
 62
     0
370
    30
100
AcDbCircle
 10
347.672518
 20
823.093659
 30
0.0
 40
12.63747726868468
100
AcDbArc
 50
85.583039
 51
94.416961
  0
LWPOLYLINE
  5
144
330
133
100
AcDbEntity
  8
0
  6
Continuous
 62
     0
370
    30
100
AcDbPolyline
 90
       14
 70
     0
 43
0.0
 10
356.772461
 20
835.693604
 10
356.740234
 20
835.703857
 10
356.644379
 20
835.733704
 10
356.487244
 20
835.781006
 10
356.272308
 20
835.842407
 10
356.003906
 20
835.913513
 10
355.686951
 20
835.989441
 10
355.326447
 20
836.06488
 10
354.92804
 20
836.134399
 10
354.498749
 20
836.193237
 10
354.045898
 20
836.236633
 10
353.577332
 20
836.260742
 10
353.102325
 20
836.263855
 10
352.590759
 20
836.242981
  0
LWPOLYLINE
  5
145
330
133
100
AcDbEntity
  8
0
  6
Continuous
 62
     0
370
    30
100
AcDbPolyline
 90
       11
 70
     0
 43
0.0
 10
352.590759
 20
836.242981
 10
352.128418
 20
836.202698
 10
351.688843
 20
836.145691
 10
351.280151
 20
836.07666
 10
350.909027
 20
836.000793
 10
350.581543
 20
835.923706
 10
350.303162
 20
835.850769
 10
350.078949
 20
835.787231
 10
349.913544
 20
835.737671
 10
349.810608
 20
835.705688
 10
349.772491
 20
835.693604
  0
LWPOLYLINE
  5
146
330
133
100
AcDbEntity
  8
0
  6
Continuous
 62
     0
370
    30
100
AcDbPolyline
 90
       23
 70
     0
 43
0.0
 10
349.772491
 20
857.693604
 10
349.808472
 20
857.68219
 10
349.915344
 20
857.648987
 10
350.090332
 20
857.596619
 10
350.329041
 20
857.529358
 10
350.626343
 20
857.452393
 10
350.976624
 20
857.371765
 10
351.373077
 20
857.29364
 10
351.808472
 20
857.224243
 10
352.27533
 20
857.169495
 10
352.764313
 20
857.134338
 10
353.264709
 20
857.121948
 10
353.765289
 20
857.133545
 10
354.254791
 20
857.168091
 10
354.722412
 20
857.22229
 10
355.158905
 20
857.291382
 10
355.556763
 20
857.369324
 10
355.908569
 20
857.44989
 10
356.20755
 20
857.5271
 10
356.448181
 20
857.594727
 10
356.625183
 20
857.647644
 10
356.734253
 20
857.681519
 10
356.772522
 20
857.693604
  0
LINE
  5
147
330
133
100
AcDbEntity
  8
0
  6
Continuous
 62
     0
370
    30
100
AcDbLine
 10
352.590754
 20
811.593598
 30
0.0
 11
349.772519
 21
811.593598
 31
0.0
  0
LWPOLYLINE
  5
148
330
133
100
AcDbEntity
  8
0
  6
Continuous
 62
     0
370
    30
100
AcDbPolyline
 90
       13
 70
     0
 43
0.0
 10
356.772461
 20
811.593628
 10
356.734924
 20
811.593628
 10
356.622742
 20
811.593628
 10
356.438507
 20
811.593628
 10
356.186127
 20
811.593628
 10
355.870972
 20
811.593628
 10
355.499939
 20
811.593628
 10
355.080902
 20
811.593628
 10
354.622986
 20
811.593628
 10
354.135925
 20
811.593628
 10
353.630341
 20
811.593628
 10
353.117035
 20
811.593628
 10
352.590759
 20
811.593628
  0
ARC
  5
149
330
133
100
AcDbEntity
  8
0
  6
Continuous
 62
     0
370
    30
100
AcDbCircle
 10
353.27247
 20
846.693559
 30
0.0
 40
3.500000000324038
100
AcDbArc
 50
155.904487
 51
335.906047
  0
ARC
  5
14A
330
133
100
AcDbEntity
  8
0
  6
Continuous
 62
     0
370
    30
100
AcDbCircle
 10
353.272509
 20
846.693646
 30
0.0
 40
3.50000000033191
100
AcDbArc
 50
335.904478
 51
155.906056
  0
LINE
  5
14B
330
133
100
AcDbEntity
  8
0
  6
Continuous
 62
     0
370
    30
100
AcDbLine
 10
349.772478
 20
881.793634
 30
0.0
 11
356.230204
 21
881.793634
 31
0.0
  0
LINE
  5
14C
330
133
100
AcDbEntity
  8
0
  6
Continuous
 62
     0
370
    30
100
AcDbLine
 10
356.230204
 20
881.793634
 30
0.0
 11
356.772498
 21
881.793634
 31
0.0
  0
LINE
  5
14D
330
133
100
AcDbEntity
  8
0
  6
Continuous
 62
     0
370
    30
100
AcDbLine
 10
349.772488
 20
881.793634
 30
0.0
 11
349.772488
 21
857.693555
 31
0.0
  0
LINE
  5
14E
330
133
100
AcDbEntity
  8
0
  6
Continuous
 62
     0
370
    30
100
AcDbLine
 10
356.772488
 20
857.69356
 30
0.0
 11
356.772488
 21
881.793634
 31
0.0
  0
LINE
  5
14F
330
133
100
AcDbEntity
  8
0
  6
Continuous
 62
     0
370
    30
100
AcDbLine
 10
349.772488
 20
811.593598
 30
0.0
 11
349.772488
 21
835.693604
 31
0.0
  0
LINE
  5
150
330
133
100
AcDbEntity
  8
0
  6
Continuous
 62
     0
370
    30
100
AcDbLine
 10
356.772488
 20
835.693603
 30
0.0
 11
356.772488
 21
811.593598
 31
0.0
  0
LINE
  5
151
330
133
100
AcDbEntity
  8
0
  6
Continuous
 62
     0
370
    30
100
AcDbLine
 10
356.872491
 20
857.693603
 30
0.0
 11
356.772296
 21
857.693603
 31
0.0
  0
LINE
  5
152
330
133
100
AcDbEntity
  8
0
  6
Continuous
 62
     0
370
    30
100
AcDbLine
 10
349.672491
 20
857.693603
 30
0.0
 11
349.772749
 21
857.693603
 31
0.0
  0
LINE
  5
153
330
133
100
AcDbEntity
  8
0
  6
Continuous
 62
     0
370
    30
100
AcDbLine
 10
356.872491
 20
835.693603
 30
0.0
 11
356.772308
 21
835.693603
 31
0.0
  0
LINE
  5
154
330
133
100
AcDbEntity
  8
0
  6
Continuous
 62
     0
370
    30
100
AcDbLine
 10
330.272491
 20
835.693603
 30
0.0
 11
346.699253
 21
835.693603
 31
0.0
  0
LINE
  5
155
330
133
100
AcDbEntity
  8
0
  6
Continuous
 62
     0
370
    30
100
AcDbLine
 10
360.772491
 20
835.693603
 30
0.0
 11
356.872491
 21
835.693603
 31
0.0
  0
LINE
  5
156
330
133
100
AcDbEntity
  8
0
  6
Continuous
 62
     0
370
    30
100
AcDbLine
 10
349.672484
 20
835.693603
 30
0.0
 11
348.645783
 21
835.693603
 31
0.0
  0
LINE
  5
157
330
133
100
AcDbEntity
  8
0
  6
Continuous
 62
     0
370
    30
100
AcDbLine
 10
330.272491
 20
840.943603
 30
0.0
 11
325.37249
 21
840.943603
 31
0.0
  0
LINE
  5
158
330
133
100
AcDbEntity
  8
0
  6
Continuous
 62
     0
370
    30
100
AcDbLine
 10
325.372491
 20
862.693601
 30
0.0
 11
298.372479
 21
862.693603
 31
0.0
  0
LINE
  5
159
330
133
100
AcDbEntity
  8
0
  6
Continuous
 62
     0
370
    30
100
AcDbLine
 10
298.37249
 20
874.193604
 30
0.0
 11
294.37249
 21
874.193604
 31
0.0
  0
LINE
  5
15A
330
133
100
AcDbEntity
  8
0
  6
Continuous
 62
     0
370
    30
100
AcDbLine
 10
298.37249
 20
819.193603
 30
0.0
 11
294.37249
 21
819.193603
 31
0.0
  0
LWPOLYLINE
  5
15B
330
133
100
AcDbEntity
  8
0
  6
Continuous
 62
     0
370
    30
100
AcDbPolyline
 90
       84
 70
     0
 43
0.0
 10
294.372467
 20
671.695068
 10
294.372467
 20
671.734192
 10
294.372467
 20
671.852478
 10
294.372467
 20
672.049377
 10
294.372467
 20
672.324402
 10
294.372467
 20
672.677124
 10
294.372467
 20
673.106934
 10
294.372467
 20
673.613403
 10
294.372467
 20
674.196045
 10
294.372467
 20
674.854248
 10
294.372467
 20
675.587036
 10
294.372467
 20
676.393005
 10
294.372467
 20
677.270813
 10
294.372467
 20
678.219116
 10
294.372467
 20
679.236572
 10
294.372467
 20
680.321838
 10
294.372467
 20
681.473511
 10
294.372467
 20
682.690308
 10
294.372467
 20
683.970459
 10
294.372467
 20
685.311951
 10
294.372467
 20
686.712646
 10
294.372467
 20
688.17041
 10
294.372467
 20
689.683167
 10
294.372467
 20
691.248657
 10
294.372467
 20
692.864929
 10
294.372467
 20
694.529785
 10
294.372467
 20
696.240967
 10
294.372467
 20
697.995972
 10
294.372467
 20
699.791992
 10
294.372467
 20
701.626465
 10
294.372467
 20
703.496704
 10
294.372467
 20
705.400024
 10
294.372467
 20
707.33374
 10
294.372467
 20
709.295227
 10
294.372467
 20
711.281799
 10
294.372467
 20
713.290527
 10
294.372467
 20
715.318542
 10
294.372467
 20
717.362793
 10
294.372467
 20
719.420349
 10
294.372467
 20
721.488342
 10
294.372467
 20
723.56366
 10
294.372467
 20
725.643494
 10
294.372467
 20
727.724792
 10
294.372467
 20
729.804626
 10
294.372467
 20
731.880066
 10
294.372467
 20
733.94812
 10
294.372467
 20
736.005798
 10
294.372467
 20
738.050232
 10
294.372467
 20
740.078369
 10
294.372467
 20
742.087341
 10
294.372467
 20
744.074158
 10
294.372467
 20
746.03595
 10
294.372467
 20
747.969971
 10
294.372467
 20
749.873596
 10
294.372467
 20
751.744202
 10
294.372467
 20
753.579041
 10
294.372467
 20
755.375549
 10
294.372467
 20
757.13092
 10
294.372467
 20
758.84259
 10
294.372467
 20
760.507935
 10
294.372467
 20
762.124756
 10
294.372467
 20
763.690796
 10
294.372467
 20
765.204102
 10
294.372467
 20
766.662476
 10
294.372467
 20
768.063721
 10
294.372467
 20
769.405884
 10
294.372467
 20
770.686707
 10
294.372467
 20
771.904175
 10
294.372467
 20
773.056519
 10
294.372467
 20
774.142517
 10
294.372467
 20
775.160706
 10
294.372467
 20
776.109741
 10
294.372467
 20
776.988281
 10
294.372467
 20
777.795044
 10
294.372467
 20
778.528564
 10
294.372467
 20
779.187561
 10
294.372467
 20
779.770996
 10
294.372467
 20
780.278259
 10
294.372467
 20
780.708923
 10
294.372467
 20
781.062439
 10
294.372467
 20
781.338318
 10
294.372467
 20
781.536011
 10
294.372467
 20
781.65509
 10
294.372467
 20
781.695068
  0
LINE
  5
15C
330
133
100
AcDbEntity
  8
0
  6
Continuous
 62
     0
370
    30
100
AcDbLine
 10
294.372475
 20
671.695076
 30
0.0
 11
298.372475
 21
671.695076
 31
0.0
  0
LINE
  5
15D
330
133
100
AcDbEntity
  8
0
  6
Continuous
 62
     0
370
    30
100
AcDbLine
 10
298.372475
 20
671.695076
 30
0.0
 11
298.372475
 21
781.695076
 31
0.0
  0
LWPOLYLINE
  5
15E
330
133
100
AcDbEntity
  8
0
  6
Continuous
 62
     0
370
    30
100
AcDbPolyline
 90
       53
 70
     0
 43
0.0
 10
350.572479
 20
748.695068
 10
350.572479
 20
748.655029
 10
350.572479
 20
748.534607
 10
350.572479
 20
748.334595
 10
350.572479
 20
748.055908
 10
350.572479
 20
747.699219
 10
350.572479
 20
747.265625
 10
350.572479
 20
746.756775
 10
350.572479
 20
746.174927
 10
350.572479
 20
745.522278
 10
350.572479
 20
744.801086
 10
350.572479
 20
744.013489
 10
350.572479
 20
743.162476
 10
350.572479
 20
742.251465
 10
350.572479
 20
741.283936
 10
350.572479
 20
740.263245
 10
350.572479
 20
739.192932
 10
350.572479
 20
738.076843
 10
350.572479
 20
736.919189
 10
350.572479
 20
735.724426
 10
350.572479
 20
734.496826
 10
350.572479
 20
733.240723
 10
350.572479
 20
731.960571
 10
350.572479
 20
730.661194
 10
350.572479
 20
729.347351
 10
350.572479
 20
728.023926
 10
350.572479
 20
726.695679
 10
350.572479
 20
725.367432
 10
350.572479
 20
724.043945
 10
350.572479
 20
722.730164
 10
350.572479
 20
721.430725
 10
350.572479
 20
720.150574
 10
350.572479
 20
718.89447
 10
350.572479
 20
717.666809
 10
350.572479
 20
716.471985
 10
350.572479
 20
715.314331
 10
350.572479
 20
714.198181
 10
350.572479
 20
713.127808
 10
350.572479
 20
712.107117
 10
350.572479
 20
711.139526
 10
350.572479
 20
710.228455
 10
350.572479
 20
709.37738
 10
350.572479
 20
708.589722
 10
350.572479
 20
707.868469
 10
350.572479
 20
707.215759
 10
350.572479
 20
706.63385
 10
350.572479
 20
706.125
 10
350.572479
 20
705.691284
 10
350.572479
 20
705.334534
 10
350.572479
 20
705.055725
 10
350.572479
 20
704.855713
 10
350.572479
 20
704.735229
 10
350.572479
 20
704.695068
  0
LINE
  5
15F
330
133
100
AcDbEntity
  8
0
  6
Continuous
 62
     0
370
    30
100
AcDbLine
 10
350.572475
 20
748.695085
 30
0.0
 11
345.122495
 21
748.695085
 31
0.0
  0
LINE
  5
160
330
133
100
AcDbEntity
  8
0
  6
Continuous
 62
     0
370
    30
100
AcDbLine
 10
338.022495
 20
748.695085
 30
0.0
 11
300.572475
 21
748.695085
 31
0.0
  0
LINE
  5
161
330
133
100
AcDbEntity
  8
0
  6
Continuous
 62
     0
370
    30
100
AcDbLine
 10
300.572475
 20
748.695085
 30
0.0
 11
300.572475
 21
704.695067
 31
0.0
  0
LWPOLYLINE
  5
162
330
133
100
AcDbEntity
  8
0
  6
Continuous
 62
     0
370
     0
100
AcDbPolyline
 90
       23
 70
     0
 43
0.0
 10
345.122498
 20
748.695068
 10
345.086517
 20
748.68927
 10
344.978424
 20
748.672363
 10
344.801483
 20
748.645752
 10
344.561554
 20
748.611389
 10
344.259552
 20
748.572327
 10
343.901062
 20
748.531555
 10
343.498138
 20
748.492065
 10
343.056
 20
748.457336
 10
342.582581
 20
748.430298
 10
342.08847
 20
748.412964
 10
341.583771
 20
748.406677
 10
341.078857
 20
748.412476
 10
340.584015
 20
748.42926
 10
340.109375
 20
748.455933
 10
339.665649
 20
748.490356
 10
339.260956
 20
748.529724
 10
338.900269
 20
748.570496
 10
338.59549
 20
748.609741
 10
338.352875
 20
748.644348
 10
338.173096
 20
748.671387
 10
338.061829
 20
748.688782
 10
338.022491
 20
748.695068
  0
LWPOLYLINE
  5
163
330
133
100
AcDbEntity
  8
0
  6
Continuous
 62
     0
370
     0
100
AcDbPolyline
 90
       18
 70
     0
 43
0.0
 10
339.422516
 20
704.695068
 10
339.45993
 20
704.698669
 10
339.567963
 20
704.70874
 10
339.742737
 20
704.724182
 10
339.980988
 20
704.742615
 10
340.272644
 20
704.761719
 10
340.607025
 20
704.779114
 10
340.976196
 20
704.792236
 10
341.365814
 20
704.799316
 10
341.761963
 20
704.7995
 10
342.152069
 20
704.792664
 10
342.5224
 20
704.779785
 10
342.858673
 20
704.762573
 10
343.152252
 20
704.743408
 10
343.393005
 20
704.724915
 10
343.570831
 20
704.709351
 10
343.682007
 20
704.698975
 10
343.722473
 20
704.695068
  0
LWPOLYLINE
  5
164
330
133
100
AcDbEntity
  8
0
  6
Continuous
 62
     0
370
    30
100
AcDbPolyline
 90
       23
 70
     0
 43
0.0
 10
345.072479
 20
756.345093
 10
345.042236
 20
756.345093
 10
344.946289
 20
756.345093
 10
344.779205
 20
756.345093
 10
344.539398
 20
756.345093
 10
344.230042
 20
756.345093
 10
343.859222
 20
756.345093
 10
343.439301
 20
756.345093
 10
342.985626
 20
756.345093
 10
342.51474
 20
756.345093
 10
342.042511
 20
756.345093
 10
341.582794
 20
756.345093
 10
341.123901
 20
756.345093
 10
340.651978
 20
756.345093
 10
340.180695
 20
756.345093
 10
339.725861
 20
756.345093
 10
339.304047
 20
756.345093
 10
338.930664
 20
756.345093
 10
338.618286
 20
756.345093
 10
338.375183
 20
756.345093
 10
338.204773
 20
756.345093
 10
338.105682
 20
756.345093
 10
338.072479
 20
756.345093
  0
LINE
  5
165
330
133
100
AcDbEntity
  8
0
  6
Continuous
 62
     0
370
    30
100
AcDbLine
 10
344.872495
 20
756.545085
 30
0.0
 11
345.072495
 21
756.345085
 31
0.0
  0
LWPOLYLINE
  5
166
330
133
100
AcDbEntity
  8
0
  6
Continuous
 62
     0
370
    30
100
AcDbPolyline
 90
       22
 70
     0
 43
0.0
 10
344.872498
 20
756.545105
 10
344.835815
 20
756.544983
 10
344.726898
 20
756.544983
 10
344.547882
 20
756.544861
 10
344.30191
 20
756.544617
 10
343.995209
 20
756.544128
 10
343.634827
 20
756.543457
 10
343.228302
 20
756.542725
 10
342.785187
 20
756.542114
 10
342.315338
 20
756.541992
 10
341.828918
 20
756.542542
 10
341.336731
 20
756.543518
 10
340.849762
 20
756.544434
 10
340.378906
 20
756.544983
 10
339.934479
 20
756.545105
 10
339.526703
 20
756.5448
 10
339.165222
 20
756.544067
 10
338.857086
 20
756.543396
 10
338.608734
 20
756.543213
 10
338.426147
 20
756.543762
 10
338.313019
 20
756.544617
 10
338.272491
 20
756.545105
  0
LINE
  5
167
330
133
100
AcDbEntity
  8
0
  6
Continuous
 62
     0
370
    30
100
AcDbLine
 10
345.072495
 20
748.695053
 30
0.0
 11
345.072495
 21
756.345085
 31
0.0
  0
LWPOLYLINE
  5
168
330
133
100
AcDbEntity
  8
0
  6
Continuous
 62
     0
370
    30
100
AcDbPolyline
 90
       22
 70
     0
 43
0.0
 10
338.07251
 20
748.695068
 10
338.112
 20
748.68866
 10
338.228546
 20
748.670654
 10
338.419464
 20
748.642578
 10
338.680878
 20
748.606506
 10
339.00647
 20
748.565918
 10
339.38913
 20
748.524353
 10
339.82074
 20
748.485535
 10
340.291565
 20
748.452698
 10
340.79129
 20
748.428955
 10
341.309052
 20
748.416687
 10
341.832886
 20
748.416565
 10
342.350525
 20
748.428894
 10
342.850403
 20
748.452637
 10
343.321625
 20
748.485291
 10
343.753418
 20
748.524109
 10
344.136414
 20
748.565674
 10
344.462341
 20
748.606323
 10
344.724091
 20
748.642334
 10
344.91568
 20
748.670593
 10
345.032837
 20
748.688782
 10
345.072479
 20
748.695068
  0
LINE
  5
169
330
133
100
AcDbEntity
  8
0
  6
Continuous
 62
     0
370
    30
100
AcDbLine
 10
338.072495
 20
756.345085
 30
0.0
 11
338.272495
 21
756.545085
 31
0.0
  0
LINE
  5
16A
330
133
100
AcDbEntity
  8
0
  6
Continuous
 62
     0
370
    30
100
AcDbLine
 10
338.072495
 20
756.345085
 30
0.0
 11
338.072495
 21
748.695053
 31
0.0
  0
LWPOLYLINE
  5
16B
330
133
100
AcDbEntity
  8
0
  6
Continuous
 62
     0
370
    30
100
AcDbPolyline
 90
        3
 70
     0
 43
0.0
 10
343.722473
 20
704.695068
 10
341.633942
 20
704.683411
 10
339.422516
 20
704.695068
  0
LINE
  5
16C
330
133
100
AcDbEntity
  8
0
  6
Continuous
 62
     0
370
    30
100
AcDbLine
 10
338.022495
 20
748.695085
 30
0.0
 11
338.072496
 21
748.695053
 31
0.0
  0
LINE
  5
16D
330
133
100
AcDbEntity
  8
0
  6
Continuous
 62
     0
370
    30
100
AcDbLine
 10
345.122495
 20
748.695085
 30
0.0
 11
345.072495
 21
748.695053
 31
0.0
  0
LINE
  5
16E
330
133
100
AcDbEntity
  8
0
  6
Continuous
 62
     0
370
    30
100
AcDbLine
 10
350.572475
 20
704.695067
 30
0.0
 11
343.722476
 21
704.695067
 31
0.0
  0
LINE
  5
16F
330
133
100
AcDbEntity
  8
0
  6
Continuous
 62
     0
370
    30
100
AcDbLine
 10
300.572475
 20
704.695067
 30
0.0
 11
339.422503
 21
704.695067
 31
0.0
  0
LINE
  5
170
330
133
100
AcDbEntity
  8
0
  6
Continuous
 62
     0
370
    30
100
AcDbLine
 10
298.372475
 20
706.795076
 30
0.0
 11
300.572475
 21
706.795076
 31
0.0
  0
LINE
  5
171
330
133
100
AcDbEntity
  8
0
  6
Continuous
 62
     0
370
    30
100
AcDbLine
 10
300.572475
 20
746.595076
 30
0.0
 11
298.372475
 21
746.595076
 31
0.0
  0
LINE
  5
172
330
133
100
AcDbEntity
  8
0
  6
Continuous
 62
     0
370
    30
100
AcDbLine
 10
298.372475
 20
781.695076
 30
0.0
 11
294.372475
 21
781.695076
 31
0.0
  0
LINE
  5
173
330
133
100
AcDbEntity
  8
0
  6
Continuous
 62
     0
370
    30
100
AcDbLine
 10
298.372533
 20
920.990917
 30
0.0
 11
298.372533
 21
974.193166
 31
0.0
  0
LWPOLYLINE
  5
174
330
133
100
AcDbEntity
  8
0
  6
Continuous
 62
     0
370
    30
100
AcDbPolyline
 90
        9
 70
     0
 43
0.0
 10
298.372528
 20
919.193176
 10
298.372528
 20
919.223145
 10
298.372528
 20
919.311707
 10
298.372528
 20
919.456482
 10
298.372528
 20
919.655029
 10
298.372528
 20
919.90448
 10
298.372528
 20
920.201965
 10
298.372528
 20
920.544312
 10
298.372528
 20
920.990906
  0
LINE
  5
175
330
133
100
AcDbEntity
  8
0
  6
Continuous
 62
     0
370
    30
100
AcDbLine
 10
294.372533
 20
920.990917
 30
0.0
 11
294.372533
 21
919.193166
 31
0.0
  0
LINE
  5
176
330
133
100
AcDbEntity
  8
0
  6
Continuous
 62
     0
370
    30
100
AcDbLine
 10
294.372533
 20
974.193166
 30
0.0
 11
294.372533
 21
920.990917
 31
0.0
  0
LWPOLYLINE
  5
177
330
133
100
AcDbEntity
  8
0
  6
Continuous
 62
     0
370
    30
100
AcDbPolyline
 90
       46
 70
     0
 43
0.0
 10
325.372528
 20
962.693176
 10
325.372528
 20
962.654236
 10
325.372528
 20
962.537476
 10
325.372528
 20
962.34375
 10
325.372528
 20
962.073975
 10
325.372528
 20
961.729065
 10
325.372528
 20
961.31073
 10
325.372528
 20
960.821411
 10
325.372528
 20
960.263611
 10
325.372528
 20
959.639709
 10
325.372528
 20
958.952515
 10
325.372528
 20
958.205505
 10
325.372528
 20
957.40271
 10
325.372528
 20
956.547852
 10
325.372528
 20
955.644958
 10
325.372528
 20
954.698303
 10
325.372528
 20
953.712708
 10
325.372528
 20
952.693115
 10
325.372528
 20
951.644287
 10
325.372528
 20
950.571289
 10
325.372528
 20
949.479309
 10
325.372528
 20
948.37384
 10
325.372528
 20
947.260254
 10
325.372528
 20
946.143921
 10
325.372528
 20
945.030212
 10
325.372528
 20
943.924622
 10
325.372528
 20
942.832397
 10
325.372528
 20
941.759033
 10
325.372528
 20
940.709839
 10
325.372528
 20
939.689697
 10
325.372528
 20
938.703552
 10
325.372528
 20
937.756226
 10
325.372528
 20
936.852539
 10
325.372528
 20
935.996887
 10
325.372528
 20
935.193237
 10
325.372528
 20
934.445312
 10
325.372528
 20
933.75708
 10
325.372528
 20
933.132202
 10
325.372528
 20
932.573303
 10
325.372528
 20
932.082886
 10
325.372528
 20
931.663391
 10
325.372528
 20
931.317322
 10
325.372528
 20
931.046326
 10
325.372528
 20
930.851379
 10
325.372528
 20
930.733337
 10
325.372528
 20
930.693176
  0
LINE
  5
178
330
133
100
AcDbEntity
  8
0
  6
Continuous
 62
     0
370
    30
100
AcDbLine
 10
325.372531
 20
930.693164
 30
0.0
 11
298.372519
 21
930.693166
 31
0.0
  0
LINE
  5
179
330
133
100
AcDbEntity
  8
0
  6
Continuous
 62
     0
370
    30
100
AcDbLine
 10
325.372533
 20
952.443165
 30
0.0
 11
330.272534
 21
952.443165
 31
0.0
  0
LWPOLYLINE
  5
17A
330
133
100
AcDbEntity
  8
0
  6
Continuous
 62
     0
370
    30
100
AcDbPolyline
 90
       38
 70
     0
 43
0.0
 10
330.272522
 20
935.693176
 10
330.272522
 20
935.732788
 10
330.272522
 20
935.851379
 10
330.272522
 20
936.047913
 10
330.272522
 20
936.321167
 10
330.272522
 20
936.669373
 10
330.272522
 20
937.0896
 10
330.272522
 20
937.578735
 10
330.272522
 20
938.133728
 10
330.272522
 20
938.750549
 10
330.272522
 20
939.424377
 10
330.272522
 20
940.150513
 10
330.272522
 20
940.923889
 10
330.272522
 20
941.738831
 10
330.272522
 20
942.589355
 10
330.272522
 20
943.469421
 10
330.272522
 20
944.372803
 10
330.272522
 20
945.292847
 10
330.272522
 20
946.223022
 10
330.272522
 20
947.156494
 10
330.272522
 20
948.08667
 10
330.272522
 20
949.006836
 10
330.272522
 20
949.910339
 10
330.272522
 20
950.790588
 10
330.272522
 20
951.641357
 10
330.272522
 20
952.456604
 10
330.272522
 20
953.230347
 10
330.272522
 20
953.956787
 10
330.272522
 20
954.631042
 10
330.272522
 20
955.248291
 10
330.272522
 20
955.803772
 10
330.272522
 20
956.293396
 10
330.272522
 20
956.714111
 10
330.272522
 20
957.062866
 10
330.272522
 20
957.33667
 10
330.272522
 20
957.533752
 10
330.272522
 20
957.652954
 10
330.272522
 20
957.693176
  0
LINE
  5
17B
330
133
100
AcDbEntity
  8
0
  6
Continuous
 62
     0
370
    30
100
AcDbLine
 10
360.772534
 20
957.693165
 30
0.0
 11
356.872534
 21
957.693165
 31
0.0
  0
LWPOLYLINE
  5
17C
330
133
100
AcDbEntity
  8
0
  6
Continuous
 62
     0
370
     0
100
AcDbPolyline
 90
       24
 70
     0
 43
0.0
 10
356.872528
 20
957.693176
 10
356.839478
 20
957.682007
 10
356.736755
 20
957.64978
 10
356.571777
 20
957.598633
 10
356.3479
 20
957.53241
 10
356.066467
 20
957.456177
 10
355.733704
 20
957.375122
 10
355.357697
 20
957.294556
 10
354.941986
 20
957.220581
 10
354.492157
 20
957.158875
 10
354.017609
 20
957.114136
 10
353.528015
 20
957.09082
 10
353.033264
 20
957.090454
 10
352.543335
 20
957.112976
 10
352.068176
 20
957.157104
 10
351.617371
 20
957.218323
 10
351.200439
 20
957.291992
 10
350.82309
 20
957.372437
 10
350.488739
 20
957.453552
 10
350.205475
 20
957.530029
 10
349.979675
 20
957.596619
 10
349.812805
 20
957.648376
 10
349.707947
 20
957.681274
 10
349.672546
 20
957.693176
  0
LINE
  5
17D
330
133
100
AcDbEntity
  8
0
  6
Continuous
 62
     0
370
    30
100
AcDbLine
 10
349.672534
 20
957.693165
 30
0.0
 11
330.272534
 21
957.693165
 31
0.0
  0
LINE
  5
17E
330
133
100
AcDbEntity
  8
0
  6
Continuous
 62
     0
370
    30
100
AcDbLine
 10
360.772534
 20
935.693165
 30
0.0
 11
360.772534
 21
957.693165
 31
0.0
  0
LWPOLYLINE
  5
17F
330
133
100
AcDbEntity
  8
0
  6
Continuous
 62
     0
370
     0
100
AcDbPolyline
 90
       24
 70
     0
 43
0.0
 10
349.672546
 20
935.693176
 10
349.705688
 20
935.704346
 10
349.808472
 20
935.736633
 10
349.973511
 20
935.787781
 10
350.197479
 20
935.854004
 10
350.478973
 20
935.930237
 10
350.811829
 20
936.011292
 10
351.187836
 20
936.091858
 10
351.603546
 20
936.165833
 10
352.053375
 20
936.227539
 10
352.527893
 20
936.272217
 10
353.017456
 20
936.295471
 10
353.512177
 20
936.295837
 10
354.002045
 20
936.273315
 10
354.477173
 20
936.229187
 10
354.927917
 20
936.167969
 10
355.344818
 20
936.094299
 10
355.722137
 20
936.013855
 10
356.056396
 20
935.932739
 10
356.3396
 20
935.856262
 10
356.565369
 20
935.789673
 10
356.7323
 20
935.737915
 10
356.837158
 20
935.705078
 10
356.872528
 20
935.693176
  0
LWPOLYLINE
  5
180
330
133
100
AcDbEntity
  8
0
  6
Continuous
 62
     0
370
     0
100
AcDbPolyline
 90
       23
 70
     0
 43
0.0
 10
356.872528
 20
946.693176
 10
356.836151
 20
946.178345
 10
356.723877
 20
945.673523
 10
356.543915
 20
945.191345
 10
356.299622
 20
944.74231
 10
355.993011
 20
944.335266
 10
355.632446
 20
943.97583
 10
355.225983
 20
943.669312
 10
354.777374
 20
943.422729
 10
354.295135
 20
943.241638
 10
353.790253
 20
943.130798
 10
353.273895
 20
943.093628
 10
352.757477
 20
943.130493
 10
352.252502
 20
943.240906
 10
351.770081
 20
943.42157
 10
351.321259
 20
943.667786
 10
350.914612
 20
943.974121
 10
350.553772
 20
944.333313
 10
350.246826
 20
944.740051
 10
350.002167
 20
945.188843
 10
349.82193
 20
945.670898
 10
349.70929
 20
946.175659
 10
349.672546
 20
946.69397
  0
LWPOLYLINE
  5
181
330
133
100
AcDbEntity
  8
0
  6
Continuous
 62
     0
370
     0
100
AcDbPolyline
 90
       23
 70
     0
 43
0.0
 10
349.672546
 20
946.69397
 10
349.708984
 20
947.20874
 10
349.82132
 20
947.713501
 10
350.001312
 20
948.195557
 10
350.245667
 20
948.64447
 10
350.552307
 20
949.051331
 10
350.912842
 20
949.410706
 10
351.319244
 20
949.717224
 10
351.767792
 20
949.963745
 10
352.249969
 20
950.144714
 10
352.754791
 20
950.255493
 10
353.271088
 20
950.292664
 10
353.787415
 20
950.255859
 10
354.292328
 20
950.145508
 10
354.774689
 20
949.964905
 10
355.22345
 20
949.71875
 10
355.630096
 20
949.412537
 10
355.990906
 20
949.053467
 10
356.297821
 20
948.64679
 10
356.542511
 20
948.19812
 10
356.72287
 20
947.716187
 10
356.835632
 20
947.211548
 10
356.872528
 20
946.693176
  0
ARC
  5
182
330
133
100
AcDbEntity
  8
0
  6
Continuous
 62
     0
370
    30
100
AcDbCircle
 10
347.67256
 20
923.093221
 30
0.0
 40
12.63747726875805
100
AcDbArc
 50
85.583039
 51
94.416961
  0
LWPOLYLINE
  5
183
330
133
100
AcDbEntity
  8
0
  6
Continuous
 62
     0
370
    30
100
AcDbPolyline
 90
       14
 70
     0
 43
0.0
 10
356.772522
 20
935.693176
 10
356.740265
 20
935.703369
 10
356.64444
 20
935.733276
 10
356.487305
 20
935.780579
 10
356.272339
 20
935.84198
 10
356.003967
 20
935.913025
 10
355.686981
 20
935.989014
 10
355.326477
 20
936.064453
 10
354.928101
 20
936.133972
 10
354.49881
 20
936.192749
 10
354.045959
 20
936.236206
 10
353.577393
 20
936.260315
 10
353.102356
 20
936.263428
 10
352.59079
 20
936.242554
  0
LWPOLYLINE
  5
184
330
133
100
AcDbEntity
  8
0
  6
Continuous
 62
     0
370
    30
100
AcDbPolyline
 90
       11
 70
     0
 43
0.0
 10
352.59079
 20
936.242554
 10
352.128448
 20
936.202271
 10
351.688873
 20
936.145264
 10
351.280182
 20
936.076233
 10
350.909058
 20
936.000366
 10
350.581573
 20
935.923279
 10
350.303192
 20
935.850342
 10
350.07901
 20
935.786804
 10
349.913574
 20
935.737244
 10
349.810638
 20
935.705261
 10
349.772522
 20
935.693176
  0
LWPOLYLINE
  5
185
330
133
100
AcDbEntity
  8
0
  6
Continuous
 62
     0
370
    30
100
AcDbPolyline
 90
       23
 70
     0
 43
0.0
 10
349.772522
 20
957.693176
 10
349.808502
 20
957.681763
 10
349.915405
 20
957.64856
 10
350.090393
 20
957.596191
 10
350.329102
 20
957.528931
 10
350.626404
 20
957.451965
 10
350.976685
 20
957.371338
 10
351.373108
 20
957.293213
 10
351.808502
 20
957.223755
 10
352.275391
 20
957.169067
 10
352.764343
 20
957.133911
 10
353.26474
 20
957.121521
 10
353.76532
 20
957.133118
 10
354.254822
 20
957.167664
 10
354.722443
 20
957.221863
 10
355.158936
 20
957.290955
 10
355.556793
 20
957.368896
 10
355.9086
 20
957.449463
 10
356.207611
 20
957.526672
 10
356.448212
 20
957.594299
 10
356.625244
 20
957.647156
 10
356.734314
 20
957.68103
 10
356.772552
 20
957.693176
  0
LINE
  5
186
330
133
100
AcDbEntity
  8
0
  6
Continuous
 62
     0
370
    30
100
AcDbLine
 10
352.590797
 20
911.593161
 30
0.0
 11
349.772562
 21
911.593161
 31
0.0
  0
LWPOLYLINE
  5
187
330
133
100
AcDbEntity
  8
0
  6
Continuous
 62
     0
370
    30
100
AcDbPolyline
 90
       13
 70
     0
 43
0.0
 10
356.772491
 20
911.59314
 10
356.734955
 20
911.59314
 10
356.622803
 20
911.59314
 10
356.438568
 20
911.59314
 10
356.186157
 20
911.59314
 10
355.871002
 20
911.59314
 10
355.499969
 20
911.59314
 10
355.080933
 20
911.59314
 10
354.623016
 20
911.59314
 10
354.135986
 20
911.59314
 10
353.630402
 20
911.59314
 10
353.117065
 20
911.59314
 10
352.59079
 20
911.59314
  0
ARC
  5
188
330
133
100
AcDbEntity
  8
0
  6
Continuous
 62
     0
370
    30
100
AcDbCircle
 10
353.272512
 20
946.693121
 30
0.0
 40
3.500000000324035
100
AcDbArc
 50
155.904487
 51
335.906047
  0
ARC
  5
189
330
133
100
AcDbEntity
  8
0
  6
Continuous
 62
     0
370
    30
100
AcDbCircle
 10
353.272552
 20
946.693209
 30
0.0
 40
3.500000000331907
100
AcDbArc
 50
335.904478
 51
155.906056
  0
LINE
  5
18A
330
133
100
AcDbEntity
  8
0
  6
Continuous
 62
     0
370
    30
100
AcDbLine
 10
349.77252
 20
981.793196
 30
0.0
 11
356.230247
 21
981.793196
 31
0.0
  0
LINE
  5
18B
330
133
100
AcDbEntity
  8
0
  6
Continuous
 62
     0
370
    30
100
AcDbLine
 10
356.230247
 20
981.793196
 30
0.0
 11
356.77254
 21
981.793196
 31
0.0
  0
LINE
  5
18C
330
133
100
AcDbEntity
  8
0
  6
Continuous
 62
     0
370
    30
100
AcDbLine
 10
349.77253
 20
981.793196
 30
0.0
 11
349.77253
 21
957.693118
 31
0.0
  0
LINE
  5
18D
330
133
100
AcDbEntity
  8
0
  6
Continuous
 62
     0
370
    30
100
AcDbLine
 10
356.77253
 20
957.693123
 30
0.0
 11
356.77253
 21
981.793196
 31
0.0
  0
LINE
  5
18E
330
133
100
AcDbEntity
  8
0
  6
Continuous
 62
     0
370
    30
100
AcDbLine
 10
349.77253
 20
911.593161
 30
0.0
 11
349.77253
 21
935.693167
 31
0.0
  0
LINE
  5
18F
330
133
100
AcDbEntity
  8
0
  6
Continuous
 62
     0
370
    30
100
AcDbLine
 10
356.77253
 20
935.693165
 30
0.0
 11
356.77253
 21
911.593161
 31
0.0
  0
LINE
  5
190
330
133
100
AcDbEntity
  8
0
  6
Continuous
 62
     0
370
    30
100
AcDbLine
 10
356.872534
 20
957.693165
 30
0.0
 11
356.772339
 21
957.693165
 31
0.0
  0
LINE
  5
191
330
133
100
AcDbEntity
  8
0
  6
Continuous
 62
     0
370
    30
100
AcDbLine
 10
349.672534
 20
957.693165
 30
0.0
 11
349.772791
 21
957.693165
 31
0.0
  0
LINE
  5
192
330
133
100
AcDbEntity
  8
0
  6
Continuous
 62
     0
370
    30
100
AcDbLine
 10
356.872534
 20
935.693165
 30
0.0
 11
356.772351
 21
935.693165
 31
0.0
  0
LINE
  5
193
330
133
100
AcDbEntity
  8
0
  6
Continuous
 62
     0
370
    30
100
AcDbLine
 10
330.272534
 20
935.693165
 30
0.0
 11
346.699295
 21
935.693165
 31
0.0
  0
LINE
  5
194
330
133
100
AcDbEntity
  8
0
  6
Continuous
 62
     0
370
    30
100
AcDbLine
 10
360.772534
 20
935.693165
 30
0.0
 11
356.872534
 21
935.693165
 31
0.0
  0
LINE
  5
195
330
133
100
AcDbEntity
  8
0
  6
Continuous
 62
     0
370
    30
100
AcDbLine
 10
349.672527
 20
935.693165
 30
0.0
 11
348.645825
 21
935.693165
 31
0.0
  0
LINE
  5
196
330
133
100
AcDbEntity
  8
0
  6
Continuous
 62
     0
370
    30
100
AcDbLine
 10
330.272534
 20
940.943165
 30
0.0
 11
325.372533
 21
940.943165
 31
0.0
  0
LINE
  5
197
330
133
100
AcDbEntity
  8
0
  6
Continuous
 62
     0
370
    30
100
AcDbLine
 10
325.372534
 20
962.693164
 30
0.0
 11
298.372522
 21
962.693166
 31
0.0
  0
LINE
  5
198
330
133
100
AcDbEntity
  8
0
  6
Continuous
 62
     0
370
    30
100
AcDbLine
 10
298.372533
 20
974.193166
 30
0.0
 11
294.372533
 21
974.193166
 31
0.0
  0
LINE
  5
199
330
133
100
AcDbEntity
  8
0
  6
Continuous
 62
     0
370
    30
100
AcDbLine
 10
298.372533
 20
919.193166
 30
0.0
 11
294.372533
 21
919.193166
 31
0.0
  0
LINE
  5
19A
330
133
100
AcDbEntity
  8
0
  6
Continuous
 62
     0
370
    30
100
AcDbLine
 10
298.372578
 20
1020.990049
 30
0.0
 11
298.372577
 21
1074.192298
 31
0.0
  0
LWPOLYLINE
  5
19B
330
133
100
AcDbEntity
  8
0
  6
Continuous
 62
     0
370
    30
100
AcDbPolyline
 90
        9
 70
     0
 43
0.0
 10
298.372589
 20
1019.192322
 10
298.372589
 20
1019.22229
 10
298.372589
 20
1019.310791
 10
298.372589
 20
1019.455627
 10
298.372589
 20
1019.654175
 10
298.372589
 20
1019.903625
 10
298.372589
 20
1020.20105
 10
298.372589
 20
1020.543457
 10
298.372589
 20
1020.990051
  0
LINE
  5
19C
330
133
100
AcDbEntity
  8
0
  6
Continuous
 62
     0
370
    30
100
AcDbLine
 10
294.372578
 20
1020.990049
 30
0.0
 11
294.372577
 21
1019.192298
 31
0.0
  0
LINE
  5
19D
330
133
100
AcDbEntity
  8
0
  6
Continuous
 62
     0
370
    30
100
AcDbLine
 10
294.372577
 20
1074.192298
 30
0.0
 11
294.372578
 21
1020.990049
 31
0.0
  0
LWPOLYLINE
  5
19E
330
133
100
AcDbEntity
  8
0
  6
Continuous
 62
     0
370
    30
100
AcDbPolyline
 90
       46
 70
     0
 43
0.0
 10
325.372589
 20
1062.692261
 10
325.372589
 20
1062.653442
 10
325.372589
 20
1062.536621
 10
325.372589
 20
1062.342896
 10
325.372589
 20
1062.07312
 10
325.372589
 20
1061.728149
 10
325.372589
 20
1061.309814
 10
325.372589
 20
1060.820557
 10
325.372589
 20
1060.262695
 10
325.372589
 20
1059.638916
 10
325.372589
 20
1058.95166
 10
325.372589
 20
1058.204712
 10
325.372589
 20
1057.401855
 10
325.372589
 20
1056.546997
 10
325.372589
 20
1055.644043
 10
325.372589
 20
1054.697388
 10
325.372589
 20
1053.711792
 10
325.372589
 20
1052.692261
 10
325.372589
 20
1051.643433
 10
325.372589
 20
1050.570435
 10
325.372589
 20
1049.478516
 10
325.372589
 20
1048.373047
 10
325.372589
 20
1047.259399
 10
325.372589
 20
1046.143066
 10
325.372589
 20
1045.029419
 10
325.372589
 20
1043.923706
 10
325.372589
 20
1042.831543
 10
325.372589
 20
1041.758179
 10
325.372589
 20
1040.708984
 10
325.372589
 20
1039.688843
 10
325.372589
 20
1038.702637
 10
325.372589
 20
1037.755371
 10
325.372589
 20
1036.851685
 10
325.372589
 20
1035.996094
 10
325.372589
 20
1035.192383
 10
325.372589
 20
1034.444458
 10
325.372589
 20
1033.756226
 10
325.372589
 20
1033.131348
 10
325.372589
 20
1032.572388
 10
325.372589
 20
1032.082031
 10
325.372589
 20
1031.662476
 10
325.372589
 20
1031.316406
 10
325.372589
 20
1031.04541
 10
325.372589
 20
1030.850464
 10
325.372589
 20
1030.732422
 10
325.372589
 20
1030.692261
  0
LINE
  5
19F
330
133
100
AcDbEntity
  8
0
  6
Continuous
 62
     0
370
    30
100
AcDbLine
 10
325.372576
 20
1030.692296
 30
0.0
 11
298.372564
 21
1030.692298
 31
0.0
  0
LINE
  5
1A0
330
133
100
AcDbEntity
  8
0
  6
Continuous
 62
     0
370
    30
100
AcDbLine
 10
325.372578
 20
1052.442297
 30
0.0
 11
330.272579
 21
1052.442297
 31
0.0
  0
LWPOLYLINE
  5
1A1
330
133
100
AcDbEntity
  8
0
  6
Continuous
 62
     0
370
    30
100
AcDbPolyline
 90
       38
 70
     0
 43
0.0
 10
330.272583
 20
1035.692261
 10
330.272583
 20
1035.731934
 10
330.272583
 20
1035.850586
 10
330.272583
 20
1036.046997
 10
330.272583
 20
1036.320312
 10
330.272583
 20
1036.668457
 10
330.272583
 20
1037.088745
 10
330.272583
 20
1037.577881
 10
330.272583
 20
1038.132935
 10
330.272583
 20
1038.749634
 10
330.272583
 20
1039.423584
 10
330.272583
 20
1040.149658
 10
330.272583
 20
1040.922974
 10
330.272583
 20
1041.738037
 10
330.272583
 20
1042.588501
 10
330.272583
 20
1043.468506
 10
330.272583
 20
1044.371948
 10
330.272583
 20
1045.291992
 10
330.272583
 20
1046.222168
 10
330.272583
 20
1047.15564
 10
330.272583
 20
1048.085815
 10
330.272583
 20
1049.005981
 10
330.272583
 20
1049.909546
 10
330.272583
 20
1050.789673
 10
330.272583
 20
1051.640503
 10
330.272583
 20
1052.455688
 10
330.272583
 20
1053.229492
 10
330.272583
 20
1053.955933
 10
330.272583
 20
1054.630127
 10
330.272583
 20
1055.247437
 10
330.272583
 20
1055.802856
 10
330.272583
 20
1056.29248
 10
330.272583
 20
1056.713257
 10
330.272583
 20
1057.062012
 10
330.272583
 20
1057.335815
 10
330.272583
 20
1057.532959
 10
330.272583
 20
1057.6521
 10
330.272583
 20
1057.692261
  0
LINE
  5
1A2
330
133
100
AcDbEntity
  8
0
  6
Continuous
 62
     0
370
    30
100
AcDbLine
 10
360.772579
 20
1057.692297
 30
0.0
 11
356.872579
 21
1057.692297
 31
0.0
  0
LWPOLYLINE
  5
1A3
330
133
100
AcDbEntity
  8
0
  6
Continuous
 62
     0
370
     0
100
AcDbPolyline
 90
       24
 70
     0
 43
0.0
 10
356.872589
 20
1057.692261
 10
356.839508
 20
1057.681152
 10
356.736786
 20
1057.648926
 10
356.571808
 20
1057.597778
 10
356.347931
 20
1057.531494
 10
356.066528
 20
1057.455322
 10
355.733734
 20
1057.374268
 10
355.357727
 20
1057.293701
 10
354.942017
 20
1057.219727
 10
354.492188
 20
1057.157959
 10
354.01767
 20
1057.113281
 10
353.528076
 20
1057.089966
 10
353.033325
 20
1057.0896
 10
352.543396
 20
1057.112183
 10
352.068207
 20
1057.15625
 10
351.617432
 20
1057.217529
 10
351.20047
 20
1057.291138
 10
350.823151
 20
1057.371582
 10
350.4888
 20
1057.452759
 10
350.205505
 20
1057.529175
 10
349.979736
 20
1057.595825
 10
349.812836
 20
1057.647583
 10
349.708008
 20
1057.68042
 10
349.672577
 20
1057.692261
  0
LINE
  5
1A4
330
133
100
AcDbEntity
  8
0
  6
Continuous
 62
     0
370
    30
100
AcDbLine
 10
349.672579
 20
1057.692297
 30
0.0
 11
330.272579
 21
1057.692297
 31
0.0
  0
LINE
  5
1A5
330
133
100
AcDbEntity
  8
0
  6
Continuous
 62
     0
370
    30
100
AcDbLine
 10
360.772579
 20
1035.692297
 30
0.0
 11
360.772579
 21
1057.692297
 31
0.0
  0
LWPOLYLINE
  5
1A6
330
133
100
AcDbEntity
  8
0
  6
Continuous
 62
     0
370
     0
100
AcDbPolyline
 90
       24
 70
     0
 43
0.0
 10
349.672577
 20
1035.692261
 10
349.705719
 20
1035.703491
 10
349.808502
 20
1035.735718
 10
349.973541
 20
1035.786987
 10
350.19751
 20
1035.853149
 10
350.479004
 20
1035.929321
 10
350.811859
 20
1036.010498
 10
351.187866
 20
1036.090942
 10
351.603577
 20
1036.164917
 10
352.053406
 20
1036.226685
 10
352.527924
 20
1036.271362
 10
353.017487
 20
1036.294678
 10
353.512207
 20
1036.295044
 10
354.002075
 20
1036.272461
 10
354.477203
 20
1036.228394
 10
354.927948
 20
1036.167114
 10
355.344879
 20
1036.093506
 10
355.722168
 20
1036.013062
 10
356.056427
 20
1035.931885
 10
356.339661
 20
1035.855469
 10
356.56543
 20
1035.788818
 10
356.73233
 20
1035.737061
 10
356.837189
 20
1035.704224
 10
356.872589
 20
1035.692261
  0
LWPOLYLINE
  5
1A7
330
133
100
AcDbEntity
  8
0
  6
Continuous
 62
     0
370
     0
100
AcDbPolyline
 90
       23
 70
     0
 43
0.0
 10
356.872589
 20
1046.692261
 10
356.836212
 20
1046.17749
 10
356.723907
 20
1045.672607
 10
356.543976
 20
1045.19043
 10
356.299652
 20
1044.741455
 10
355.993073
 20
1044.334473
 10
355.632507
 20
1043.974976
 10
355.226044
 20
1043.668457
 10
354.777405
 20
1043.421875
 10
354.295197
 20
1043.240723
 10
353.790314
 20
1043.129883
 10
353.273926
 20
1043.092773
 10
352.757538
 20
1043.129639
 10
352.252533
 20
1043.23999
 10
351.770111
 20
1043.420654
 10
351.32132
 20
1043.666992
 10
350.914642
 20
1043.973267
 10
350.553833
 20
1044.332397
 10
350.246887
 20
1044.739136
 10
350.002228
 20
1045.187988
 10
349.82196
 20
1045.670044
 10
349.709351
 20
1046.174805
 10
349.672577
 20
1046.693115
  0
LWPOLYLINE
  5
1A8
330
133
100
AcDbEntity
  8
0
  6
Continuous
 62
     0
370
     0
100
AcDbPolyline
 90
       23
 70
     0
 43
0.0
 10
349.672577
 20
1046.693115
 10
349.709045
 20
1047.207886
 10
349.821381
 20
1047.712646
 10
350.001343
 20
1048.194702
 10
350.245697
 20
1048.643555
 10
350.552338
 20
1049.050415
 10
350.912903
 20
1049.40979
 10
351.319275
 20
1049.716309
 10
351.767822
 20
1049.962891
 10
352.250031
 20
1050.143799
 10
352.754852
 20
1050.254639
 10
353.271149
 20
1050.291748
 10
353.787476
 20
1050.255005
 10
354.292389
 20
1050.144653
 10
354.774719
 20
1049.963989
 10
355.223511
 20
1049.717896
 10
355.630157
 20
1049.411743
 10
355.990967
 20
1049.052612
 10
356.297882
 20
1048.645996
 10
356.542572
 20
1048.197266
 10
356.722931
 20
1047.715332
 10
356.835663
 20
1047.210693
 10
356.872589
 20
1046.692261
  0
ARC
  5
1A9
330
133
100
AcDbEntity
  8
0
  6
Continuous
 62
     0
370
    30
100
AcDbCircle
 10
347.672605
 20
1023.092353
 30
0.0
 40
12.63747726862473
100
AcDbArc
 50
85.583039
 51
94.416961
  0
LWPOLYLINE
  5
1AA
330
133
100
AcDbEntity
  8
0
  6
Continuous
 62
     0
370
    30
100
AcDbPolyline
 90
       14
 70
     0
 43
0.0
 10
356.772552
 20
1035.692261
 10
356.740326
 20
1035.702515
 10
356.64447
 20
1035.732422
 10
356.487335
 20
1035.779663
 10
356.272369
 20
1035.841064
 10
356.003998
 20
1035.912231
 10
355.687012
 20
1035.988159
 10
355.326538
 20
1036.063599
 10
354.928131
 20
1036.133179
 10
354.49884
 20
1036.191895
 10
354.04599
 20
1036.235352
 10
353.577423
 20
1036.259521
 10
353.102417
 20
1036.262573
 10
352.590851
 20
1036.241699
  0
LWPOLYLINE
  5
1AB
330
133
100
AcDbEntity
  8
0
  6
Continuous
 62
     0
370
    30
100
AcDbPolyline
 90
       11
 70
     0
 43
0.0
 10
352.590851
 20
1036.241699
 10
352.128479
 20
1036.201416
 10
351.688934
 20
1036.144409
 10
351.280243
 20
1036.075317
 10
350.909119
 20
1035.999512
 10
350.581635
 20
1035.922363
 10
350.303223
 20
1035.849487
 10
350.079041
 20
1035.785889
 10
349.913635
 20
1035.736328
 10
349.810699
 20
1035.704346
 10
349.772583
 20
1035.692261
  0
LWPOLYLINE
  5
1AC
330
133
100
AcDbEntity
  8
0
  6
Continuous
 62
     0
370
    30
100
AcDbPolyline
 90
       23
 70
     0
 43
0.0
 10
349.772583
 20
1057.692261
 10
349.808563
 20
1057.680908
 10
349.915436
 20
1057.647705
 10
350.090424
 20
1057.595337
 10
350.329132
 20
1057.528076
 10
350.626434
 20
1057.45105
 10
350.976715
 20
1057.370483
 10
351.373169
 20
1057.292358
 10
351.808533
 20
1057.2229
 10
352.275421
 20
1057.168213
 10
352.764404
 20
1057.133057
 10
353.264801
 20
1057.120605
 10
353.765381
 20
1057.132324
 10
354.254883
 20
1057.166748
 10
354.722504
 20
1057.220947
 10
355.158997
 20
1057.290039
 10
355.556824
 20
1057.368042
 10
355.908661
 20
1057.448608
 10
356.207642
 20
1057.525757
 10
356.448273
 20
1057.593384
 10
356.625275
 20
1057.646362
 10
356.734344
 20
1057.680176
 10
356.772583
 20
1057.692383
  0
LINE
  5
1AD
330
133
100
AcDbEntity
  8
0
  6
Continuous
 62
     0
370
    30
100
AcDbLine
 10
352.590842
 20
1011.592293
 30
0.0
 11
349.772606
 21
1011.592293
 31
0.0
  0
LWPOLYLINE
  5
1AE
330
133
100
AcDbEntity
  8
0
  6
Continuous
 62
     0
370
    30
100
AcDbPolyline
 90
       13
 70
     0
 43
0.0
 10
356.772552
 20
1011.592285
 10
356.735016
 20
1011.592285
 10
356.622833
 20
1011.592285
 10
356.438599
 20
1011.592285
 10
356.186188
 20
1011.592285
 10
355.871063
 20
1011.592285
 10
355.500031
 20
1011.592285
 10
355.080963
 20
1011.592285
 10
354.623077
 20
1011.592285
 10
354.136017
 20
1011.592285
 10
353.630432
 20
1011.592285
 10
353.117126
 20
1011.592285
 10
352.590851
 20
1011.592285
  0
ARC
  5
1AF
330
133
100
AcDbEntity
  8
0
  6
Continuous
 62
     0
370
    30
100
AcDbCircle
 10
353.272557
 20
1046.692253
 30
0.0
 40
3.500000000324036
100
AcDbArc
 50
155.904487
 51
335.906047
  0
ARC
  5
1B0
330
133
100
AcDbEntity
  8
0
  6
Continuous
 62
     0
370
    30
100
AcDbCircle
 10
353.272596
 20
1046.692341
 30
0.0
 40
3.500000000331913
100
AcDbArc
 50
335.904478
 51
155.906056
  0
LINE
  5
1B1
330
133
100
AcDbEntity
  8
0
  6
Continuous
 62
     0
370
    30
100
AcDbLine
 10
349.772565
 20
1081.792328
 30
0.0
 11
356.230291
 21
1081.792328
 31
0.0
  0
LINE
  5
1B2
330
133
100
AcDbEntity
  8
0
  6
Continuous
 62
     0
370
    30
100
AcDbLine
 10
356.230291
 20
1081.792328
 30
0.0
 11
356.772585
 21
1081.792328
 31
0.0
  0
LINE
  5
1B3
330
133
100
AcDbEntity
  8
0
  6
Continuous
 62
     0
370
    30
100
AcDbLine
 10
349.772575
 20
1081.792328
 30
0.0
 11
349.772575
 21
1057.69225
 31
0.0
  0
LINE
  5
1B4
330
133
100
AcDbEntity
  8
0
  6
Continuous
 62
     0
370
    30
100
AcDbLine
 10
356.772575
 20
1057.692255
 30
0.0
 11
356.772575
 21
1081.792328
 31
0.0
  0
LINE
  5
1B5
330
133
100
AcDbEntity
  8
0
  6
Continuous
 62
     0
370
    30
100
AcDbLine
 10
349.772575
 20
1011.592293
 30
0.0
 11
349.772575
 21
1035.692299
 31
0.0
  0
LINE
  5
1B6
330
133
100
AcDbEntity
  8
0
  6
Continuous
 62
     0
370
    30
100
AcDbLine
 10
356.772575
 20
1035.692297
 30
0.0
 11
356.772575
 21
1011.592293
 31
0.0
  0
LINE
  5
1B7
330
133
100
AcDbEntity
  8
0
  6
Continuous
 62
     0
370
    30
100
AcDbLine
 10
356.872579
 20
1057.692297
 30
0.0
 11
356.772383
 21
1057.692297
 31
0.0
  0
LINE
  5
1B8
330
133
100
AcDbEntity
  8
0
  6
Continuous
 62
     0
370
    30
100
AcDbLine
 10
349.672579
 20
1057.692297
 30
0.0
 11
349.772836
 21
1057.692297
 31
0.0
  0
LINE
  5
1B9
330
133
100
AcDbEntity
  8
0
  6
Continuous
 62
     0
370
    30
100
AcDbLine
 10
356.872579
 20
1035.692297
 30
0.0
 11
356.772396
 21
1035.692297
 31
0.0
  0
LINE
  5
1BA
330
133
100
AcDbEntity
  8
0
  6
Continuous
 62
     0
370
    30
100
AcDbLine
 10
330.272579
 20
1035.692297
 30
0.0
 11
346.69934
 21
1035.692297
 31
0.0
  0
LINE
  5
1BB
330
133
100
AcDbEntity
  8
0
  6
Continuous
 62
     0
370
    30
100
AcDbLine
 10
360.772579
 20
1035.692297
 30
0.0
 11
356.872579
 21
1035.692297
 31
0.0
  0
LINE
  5
1BC
330
133
100
AcDbEntity
  8
0
  6
Continuous
 62
     0
370
    30
100
AcDbLine
 10
349.672571
 20
1035.692297
 30
0.0
 11
348.64587
 21
1035.692297
 31
0.0
  0
LINE
  5
1BD
330
133
100
AcDbEntity
  8
0
  6
Continuous
 62
     0
370
    30
100
AcDbLine
 10
330.272579
 20
1040.942297
 30
0.0
 11
325.372578
 21
1040.942297
 31
0.0
  0
LINE
  5
1BE
330
133
100
AcDbEntity
  8
0
  6
Continuous
 62
     0
370
    30
100
AcDbLine
 10
325.372579
 20
1062.692296
 30
0.0
 11
298.372566
 21
1062.692298
 31
0.0
  0
LINE
  5
1BF
330
133
100
AcDbEntity
  8
0
  6
Continuous
 62
     0
370
    30
100
AcDbLine
 10
298.372577
 20
1074.192298
 30
0.0
 11
294.372577
 21
1074.192298
 31
0.0
  0
LINE
  5
1C0
330
133
100
AcDbEntity
  8
0
  6
Continuous
 62
     0
370
    30
100
AcDbLine
 10
298.372577
 20
1019.192298
 30
0.0
 11
294.372577
 21
1019.192298
 31
0.0
  0
LINE
  5
1C1
330
133
100
AcDbEntity
  8
0
  6
Continuous
 62
     0
370
    30
100
AcDbLine
 10
298.372622
 20
1120.989181
 30
0.0
 11
298.372622
 21
1174.19143
 31
0.0
  0
LWPOLYLINE
  5
1C2
330
133
100
AcDbEntity
  8
0
  6
Continuous
 62
     0
370
    30
100
AcDbPolyline
 90
        9
 70
     0
 43
0.0
 10
298.37262
 20
1119.191406
 10
298.37262
 20
1119.221436
 10
298.37262
 20
1119.309937
 10
298.37262
 20
1119.454712
 10
298.37262
 20
1119.65332
 10
298.37262
 20
1119.90271
 10
298.37262
 20
1120.200195
 10
298.37262
 20
1120.542603
 10
298.37262
 20
1120.989136
  0
LINE
  5
1C3
330
133
100
AcDbEntity
  8
0
  6
Continuous
 62
     0
370
    30
100
AcDbLine
 10
294.372622
 20
1120.989181
 30
0.0
 11
294.372622
 21
1119.19143
 31
0.0
  0
LINE
  5
1C4
330
133
100
AcDbEntity
  8
0
  6
Continuous
 62
     0
370
    30
100
AcDbLine
 10
294.372622
 20
1174.19143
 30
0.0
 11
294.372622
 21
1120.989181
 31
0.0
  0
LWPOLYLINE
  5
1C5
330
133
100
AcDbEntity
  8
0
  6
Continuous
 62
     0
370
    30
100
AcDbPolyline
 90
       46
 70
     0
 43
0.0
 10
325.37262
 20
1162.691406
 10
325.37262
 20
1162.652466
 10
325.37262
 20
1162.535767
 10
325.37262
 20
1162.342041
 10
325.37262
 20
1162.072266
 10
325.37262
 20
1161.727295
 10
325.37262
 20
1161.30896
 10
325.37262
 20
1160.819702
 10
325.37262
 20
1160.261841
 10
325.37262
 20
1159.638062
 10
325.37262
 20
1158.950806
 10
325.37262
 20
1158.203735
 10
325.37262
 20
1157.401001
 10
325.37262
 20
1156.546143
 10
325.37262
 20
1155.643188
 10
325.37262
 20
1154.696533
 10
325.37262
 20
1153.710938
 10
325.37262
 20
1152.691406
 10
325.37262
 20
1151.642578
 10
325.37262
 20
1150.56958
 10
325.37262
 20
1149.477661
 10
325.37262
 20
1148.372192
 10
325.37262
 20
1147.258545
 10
325.37262
 20
1146.142212
 10
325.37262
 20
1145.028442
 10
325.37262
 20
1143.922852
 10
325.37262
 20
1142.830688
 10
325.37262
 20
1141.757324
 10
325.37262
 20
1140.70813
 10
325.37262
 20
1139.687988
 10
325.37262
 20
1138.701782
 10
325.37262
 20
1137.754517
 10
325.37262
 20
1136.85083
 10
325.37262
 20
1135.995117
 10
325.37262
 20
1135.191528
 10
325.37262
 20
1134.443604
 10
325.37262
 20
1133.755371
 10
325.37262
 20
1133.130493
 10
325.37262
 20
1132.571533
 10
325.37262
 20
1132.081177
 10
325.37262
 20
1131.661621
 10
325.37262
 20
1131.315552
 10
325.37262
 20
1131.044556
 10
325.37262
 20
1130.849609
 10
325.37262
 20
1130.731567
 10
325.37262
 20
1130.691406
  0
LINE
  5
1C6
330
133
100
AcDbEntity
  8
0
  6
Continuous
 62
     0
370
    30
100
AcDbLine
 10
325.37262
 20
1130.691428
 30
0.0
 11
298.372608
 21
1130.69143
 31
0.0
  0
LINE
  5
1C7
330
133
100
AcDbEntity
  8
0
  6
Continuous
 62
     0
370
    30
100
AcDbLine
 10
325.372622
 20
1152.441429
 30
0.0
 11
330.272623
 21
1152.441429
 31
0.0
  0
LWPOLYLINE
  5
1C8
330
133
100
AcDbEntity
  8
0
  6
Continuous
 62
     0
370
    30
100
AcDbPolyline
 90
       38
 70
     0
 43
0.0
 10
330.272614
 20
1135.691406
 10
330.272614
 20
1135.731079
 10
330.272614
 20
1135.849609
 10
330.272614
 20
1136.046143
 10
330.272614
 20
1136.319458
 10
330.272614
 20
1136.667603
 10
330.272614
 20
1137.087891
 10
330.272614
 20
1137.577026
 10
330.272614
 20
1138.131958
 10
330.272614
 20
1138.748779
 10
330.272614
 20
1139.422607
 10
330.272614
 20
1140.148804
 10
330.272614
 20
1140.922119
 10
330.272614
 20
1141.737061
 10
330.272614
 20
1142.587646
 10
330.272614
 20
1143.467651
 10
330.272614
 20
1144.371094
 10
330.272614
 20
1145.291138
 10
330.272614
 20
1146.221313
 10
330.272614
 20
1147.154785
 10
330.272614
 20
1148.084961
 10
330.272614
 20
1149.005127
 10
330.272614
 20
1149.908569
 10
330.272614
 20
1150.788818
 10
330.272614
 20
1151.639648
 10
330.272614
 20
1152.454834
 10
330.272614
 20
1153.228638
 10
330.272614
 20
1153.955078
 10
330.272614
 20
1154.629272
 10
330.272614
 20
1155.246582
 10
330.272614
 20
1155.802002
 10
330.272614
 20
1156.291626
 10
330.272614
 20
1156.712402
 10
330.272614
 20
1157.061157
 10
330.272614
 20
1157.334961
 10
330.272614
 20
1157.531982
 10
330.272614
 20
1157.651245
 10
330.272614
 20
1157.691406
  0
LINE
  5
1C9
330
133
100
AcDbEntity
  8
0
  6
Continuous
 62
     0
370
    30
100
AcDbLine
 10
360.772623
 20
1157.691429
 30
0.0
 11
356.872623
 21
1157.691429
 31
0.0
  0
LWPOLYLINE
  5
1CA
330
133
100
AcDbEntity
  8
0
  6
Continuous
 62
     0
370
     0
100
AcDbPolyline
 90
       24
 70
     0
 43
0.0
 10
356.87262
 20
1157.691406
 10
356.839539
 20
1157.680298
 10
356.736847
 20
1157.648071
 10
356.571869
 20
1157.596924
 10
356.347992
 20
1157.53064
 10
356.066559
 20
1157.454468
 10
355.733795
 20
1157.373413
 10
355.357788
 20
1157.292847
 10
354.942078
 20
1157.218872
 10
354.492249
 20
1157.157104
 10
354.0177
 20
1157.112427
 10
353.528107
 20
1157.089111
 10
353.033356
 20
1157.088745
 10
352.543427
 20
1157.111328
 10
352.068268
 20
1157.155396
 10
351.617462
 20
1157.216553
 10
351.200531
 20
1157.290283
 10
350.823181
 20
1157.370728
 10
350.488831
 20
1157.451904
 10
350.205566
 20
1157.52832
 10
349.979767
 20
1157.594971
 10
349.812897
 20
1157.646606
 10
349.708038
 20
1157.679565
 10
349.672638
 20
1157.691406
  0
LINE
  5
1CB
330
133
100
AcDbEntity
  8
0
  6
Continuous
 62
     0
370
    30
100
AcDbLine
 10
349.672623
 20
1157.691429
 30
0.0
 11
330.272623
 21
1157.691429
 31
0.0
  0
LINE
  5
1CC
330
133
100
AcDbEntity
  8
0
  6
Continuous
 62
     0
370
    30
100
AcDbLine
 10
360.772623
 20
1135.691429
 30
0.0
 11
360.772623
 21
1157.691429
 31
0.0
  0
LWPOLYLINE
  5
1CD
330
133
100
AcDbEntity
  8
0
  6
Continuous
 62
     0
370
     0
100
AcDbPolyline
 90
       24
 70
     0
 43
0.0
 10
349.672638
 20
1135.691406
 10
349.70578
 20
1135.702637
 10
349.808563
 20
1135.734863
 10
349.973602
 20
1135.786011
 10
350.197571
 20
1135.852295
 10
350.479065
 20
1135.928467
 10
350.81189
 20
1136.009521
 10
351.187927
 20
1136.090088
 10
351.603638
 20
1136.164062
 10
352.053436
 20
1136.22583
 10
352.527954
 20
1136.270508
 10
353.017517
 20
1136.293823
 10
353.512268
 20
1136.294067
 10
354.002136
 20
1136.271606
 10
354.477264
 20
1136.227417
 10
354.928009
 20
1136.16626
 10
355.34491
 20
1136.092529
 10
355.722229
 20
1136.012085
 10
356.056488
 20
1135.93103
 10
356.339691
 20
1135.854492
 10
356.56546
 20
1135.787964
 10
356.732391
 20
1135.736206
 10
356.83725
 20
1135.703369
 10
356.87262
 20
1135.691406
  0
LWPOLYLINE
  5
1CE
330
133
100
AcDbEntity
  8
0
  6
Continuous
 62
     0
370
     0
100
AcDbPolyline
 90
       23
 70
     0
 43
0.0
 10
356.87262
 20
1146.691406
 10
356.836243
 20
1146.176636
 10
356.723969
 20
1145.671753
 10
356.544006
 20
1145.189575
 10
356.299713
 20
1144.740601
 10
355.993103
 20
1144.333618
 10
355.632538
 20
1143.974121
 10
355.226074
 20
1143.667603
 10
354.777466
 20
1143.421021
 10
354.295227
 20
1143.239868
 10
353.790344
 20
1143.129028
 10
353.273987
 20
1143.091919
 10
352.757568
 20
1143.128784
 10
352.252563
 20
1143.239136
 10
351.770172
 20
1143.4198
 10
351.32135
 20
1143.666016
 10
350.914703
 20
1143.972412
 10
350.553864
 20
1144.331543
 10
350.246918
 20
1144.738281
 10
350.002258
 20
1145.187134
 10
349.822021
 20
1145.669189
 10
349.709381
 20
1146.17395
 10
349.672638
 20
1146.692261
  0
LWPOLYLINE
  5
1CF
330
133
100
AcDbEntity
  8
0
  6
Continuous
 62
     0
370
     0
100
AcDbPolyline
 90
       23
 70
     0
 43
0.0
 10
349.672638
 20
1146.692261
 10
349.709076
 20
1147.207031
 10
349.821411
 20
1147.711792
 10
350.001404
 20
1148.193848
 10
350.245758
 20
1148.6427
 10
350.552399
 20
1149.049561
 10
350.912933
 20
1149.408936
 10
351.319336
 20
1149.715454
 10
351.767883
 20
1149.962036
 10
352.250061
 20
1150.142944
 10
352.754883
 20
1150.253784
 10
353.271179
 20
1150.290894
 10
353.787506
 20
1150.25415
 10
354.292419
 20
1150.143799
 10
354.77478
 20
1149.963135
 10
355.223541
 20
1149.717041
 10
355.630188
 20
1149.410767
 10
355.990997
 20
1149.051758
 10
356.297913
 20
1148.64502
 10
356.542603
 20
1148.196411
 10
356.722961
 20
1147.714478
 10
356.835724
 20
1147.209839
 10
356.87262
 20
1146.691406
  0
ARC
  5
1D0
330
133
100
AcDbEntity
  8
0
  6
Continuous
 62
     0
370
    30
100
AcDbCircle
 10
347.67265
 20
1123.091485
 30
0.0
 40
12.63747726869235
100
AcDbArc
 50
85.583039
 51
94.416961
  0
LWPOLYLINE
  5
1D1
330
133
100
AcDbEntity
  8
0
  6
Continuous
 62
     0
370
    30
100
AcDbPolyline
 90
       14
 70
     0
 43
0.0
 10
356.772614
 20
1135.691406
 10
356.740356
 20
1135.70166
 10
356.644531
 20
1135.731567
 10
356.487396
 20
1135.778809
 10
356.27243
 20
1135.84021
 10
356.004028
 20
1135.911377
 10
355.687073
 20
1135.987305
 10
355.326569
 20
1136.062744
 10
354.928192
 20
1136.132202
 10
354.498901
 20
1136.19104
 10
354.046051
 20
1136.234497
 10
353.577454
 20
1136.258545
 10
353.102448
 20
1136.261719
 10
352.590881
 20
1136.240845
  0
LWPOLYLINE
  5
1D2
330
133
100
AcDbEntity
  8
0
  6
Continuous
 62
     0
370
    30
100
AcDbPolyline
 90
       11
 70
     0
 43
0.0
 10
352.590881
 20
1136.240845
 10
352.12854
 20
1136.200562
 10
351.688965
 20
1136.143555
 10
351.280273
 20
1136.074463
 10
350.909149
 20
1135.998657
 10
350.581665
 20
1135.921509
 10
350.303284
 20
1135.848633
 10
350.079071
 20
1135.785034
 10
349.913666
 20
1135.735474
 10
349.81073
 20
1135.703491
 10
349.772614
 20
1135.691406
  0
LWPOLYLINE
  5
1D3
330
133
100
AcDbEntity
  8
0
  6
Continuous
 62
     0
370
    30
100
AcDbPolyline
 90
       23
 70
     0
 43
0.0
 10
349.772614
 20
1157.691406
 10
349.808594
 20
1157.680054
 10
349.915497
 20
1157.646851
 10
350.090485
 20
1157.594482
 10
350.329163
 20
1157.527222
 10
350.626495
 20
1157.450195
 10
350.976776
 20
1157.369629
 10
351.373199
 20
1157.291504
 10
351.808594
 20
1157.222046
 10
352.275482
 20
1157.167358
 10
352.764435
 20
1157.132202
 10
353.264832
 20
1157.119751
 10
353.765411
 20
1157.131348
 10
354.254913
 20
1157.165894
 10
354.722534
 20
1157.220093
 10
355.159027
 20
1157.289185
 10
355.556885
 20
1157.367188
 10
355.908691
 20
1157.447754
 10
356.207703
 20
1157.524902
 10
356.448303
 20
1157.592529
 10
356.625336
 20
1157.645386
 10
356.734375
 20
1157.679321
 10
356.772644
 20
1157.691406
  0
LINE
  5
1D4
330
133
100
AcDbEntity
  8
0
  6
Continuous
 62
     0
370
    30
100
AcDbLine
 10
352.590886
 20
1111.591425
 30
0.0
 11
349.772651
 21
1111.591425
 31
0.0
  0
LWPOLYLINE
  5
1D5
330
133
100
AcDbEntity
  8
0
  6
Continuous
 62
     0
370
    30
100
AcDbPolyline
 90
       13
 70
     0
 43
0.0
 10
356.772583
 20
1111.591431
 10
356.735046
 20
1111.591431
 10
356.622894
 20
1111.591431
 10
356.43866
 20
1111.591431
 10
356.186249
 20
1111.591431
 10
355.871094
 20
1111.591431
 10
355.500061
 20
1111.591431
 10
355.081024
 20
1111.591431
 10
354.623108
 20
1111.591431
 10
354.136078
 20
1111.591431
 10
353.630493
 20
1111.591431
 10
353.117157
 20
1111.591431
 10
352.590881
 20
1111.591431
  0
ARC
  5
1D6
330
133
100
AcDbEntity
  8
0
  6
Continuous
 62
     0
370
    30
100
AcDbCircle
 10
353.272602
 20
1146.691385
 30
0.0
 40
3.500000000324036
100
AcDbArc
 50
155.904487
 51
335.906047
  0
ARC
  5
1D7
330
133
100
AcDbEntity
  8
0
  6
Continuous
 62
     0
370
    30
100
AcDbCircle
 10
353.272641
 20
1146.691473
 30
0.0
 40
3.500000000331913
100
AcDbArc
 50
335.904478
 51
155.906056
  0
LINE
  5
1D8
330
133
100
AcDbEntity
  8
0
  6
Continuous
 62
     0
370
    30
100
AcDbLine
 10
349.772609
 20
1181.79146
 30
0.0
 11
356.230336
 21
1181.79146
 31
0.0
  0
LINE
  5
1D9
330
133
100
AcDbEntity
  8
0
  6
Continuous
 62
     0
370
    30
100
AcDbLine
 10
356.230336
 20
1181.79146
 30
0.0
 11
356.77263
 21
1181.79146
 31
0.0
  0
LINE
  5
1DA
330
133
100
AcDbEntity
  8
0
  6
Continuous
 62
     0
370
    30
100
AcDbLine
 10
349.772619
 20
1181.79146
 30
0.0
 11
349.772619
 21
1157.691382
 31
0.0
  0
LINE
  5
1DB
330
133
100
AcDbEntity
  8
0
  6
Continuous
 62
     0
370
    30
100
AcDbLine
 10
356.772619
 20
1157.691387
 30
0.0
 11
356.772619
 21
1181.79146
 31
0.0
  0
LINE
  5
1DC
330
133
100
AcDbEntity
  8
0
  6
Continuous
 62
     0
370
    30
100
AcDbLine
 10
349.772619
 20
1111.591425
 30
0.0
 11
349.772619
 21
1135.691431
 31
0.0
  0
LINE
  5
1DD
330
133
100
AcDbEntity
  8
0
  6
Continuous
 62
     0
370
    30
100
AcDbLine
 10
356.772619
 20
1135.691429
 30
0.0
 11
356.772619
 21
1111.591425
 31
0.0
  0
LINE
  5
1DE
330
133
100
AcDbEntity
  8
0
  6
Continuous
 62
     0
370
    30
100
AcDbLine
 10
356.872623
 20
1157.691429
 30
0.0
 11
356.772428
 21
1157.691429
 31
0.0
  0
LINE
  5
1DF
330
133
100
AcDbEntity
  8
0
  6
Continuous
 62
     0
370
    30
100
AcDbLine
 10
349.672623
 20
1157.691429
 30
0.0
 11
349.772881
 21
1157.691429
 31
0.0
  0
LINE
  5
1E0
330
133
100
AcDbEntity
  8
0
  6
Continuous
 62
     0
370
    30
100
AcDbLine
 10
356.872623
 20
1135.691429
 30
0.0
 11
356.77244
 21
1135.691429
 31
0.0
  0
LINE
  5
1E1
330
133
100
AcDbEntity
  8
0
  6
Continuous
 62
     0
370
    30
100
AcDbLine
 10
330.272623
 20
1135.691429
 30
0.0
 11
346.699384
 21
1135.691429
 31
0.0
  0
LINE
  5
1E2
330
133
100
AcDbEntity
  8
0
  6
Continuous
 62
     0
370
    30
100
AcDbLine
 10
360.772623
 20
1135.691429
 30
0.0
 11
356.872623
 21
1135.691429
 31
0.0
  0
LINE
  5
1E3
330
133
100
AcDbEntity
  8
0
  6
Continuous
 62
     0
370
    30
100
AcDbLine
 10
349.672616
 20
1135.691429
 30
0.0
 11
348.645915
 21
1135.691429
 31
0.0
  0
LINE
  5
1E4
330
133
100
AcDbEntity
  8
0
  6
Continuous
 62
     0
370
    30
100
AcDbLine
 10
330.272623
 20
1140.941429
 30
0.0
 11
325.372622
 21
1140.941429
 31
0.0
  0
LINE
  5
1E5
330
133
100
AcDbEntity
  8
0
  6
Continuous
 62
     0
370
    30
100
AcDbLine
 10
325.372623
 20
1162.691428
 30
0.0
 11
298.372611
 21
1162.69143
 31
0.0
  0
LINE
  5
1E6
330
133
100
AcDbEntity
  8
0
  6
Continuous
 62
     0
370
    30
100
AcDbLine
 10
298.372622
 20
1174.19143
 30
0.0
 11
294.372622
 21
1174.19143
 31
0.0
  0
LINE
  5
1E7
330
133
100
AcDbEntity
  8
0
  6
Continuous
 62
     0
370
    30
100
AcDbLine
 10
298.372622
 20
1119.19143
 30
0.0
 11
294.372622
 21
1119.19143
 31
0.0
  0
ENDBLK
  5
1E9
330
133
100
AcDbEntity
  8
0
100
AcDbBlockEnd
  0
BLOCK
  5
2A0
330
1EB
100
AcDbEntity
  8
0
100
AcDbBlockBegin
  2
d
 70
     0
 10
-81.071518
 20
0.0
 30
0.0
  3
d
  1

  0
LWPOLYLINE
  5
1EC
330
1EB
100
AcDbEntity
  8
0
  6
Continuous
 62
     0
370
    30
100
AcDbPolyline
 90
        9
 70
     0
 43
0.0
 10
-126.502441
 20
874.193604
 10
-126.502441
 20
874.163635
 10
-126.502441
 20
874.075073
 10
-126.502441
 20
873.930298
 10
-126.502441
 20
873.73175
 10
-126.502441
 20
873.4823
 10
-126.502441
 20
873.184814
 10
-126.502441
 20
872.842468
 10
-126.502441
 20
872.395874
  0
LINE
  5
1ED
330
1EB
100
AcDbEntity
  8
0
  6
Continuous
 62
     0
370
    30
100
AcDbLine
 10
-126.502442
 20
872.395853
 30
0.0
 11
-126.502441
 21
819.193603
 31
0.0
  0
LWPOLYLINE
  5
1EE
330
1EB
100
AcDbEntity
  8
0
  6
Continuous
 62
     0
370
    30
100
AcDbPolyline
 90
       55
 70
     0
 43
0.0
 10
-122.502441
 20
819.193604
 10
-122.502441
 20
819.230591
 10
-122.502441
 20
819.342773
 10
-122.502441
 20
819.53186
 10
-122.502441
 20
819.798828
 10
-122.502441
 20
820.143982
 10
-122.502441
 20
820.567017
 10
-122.502441
 20
821.066833
 10
-122.502441
 20
821.641846
 10
-122.502441
 20
822.289673
 10
-122.502441
 20
823.007202
 10
-122.502441
 20
823.791016
 10
-122.502441
 20
824.636841
 10
-122.502441
 20
825.540222
 10
-122.502441
 20
826.496216
 10
-122.502441
 20
827.499451
 10
-122.502441
 20
828.544556
 10
-122.502441
 20
829.625854
 10
-122.502441
 20
830.737732
 10
-122.502441
 20
831.874573
 10
-122.502441
 20
833.030823
 10
-122.502441
 20
834.201111
 10
-122.502441
 20
835.38031
 10
-122.502441
 20
836.563538
 10
-122.502441
 20
837.757568
 10
-122.502441
 20
838.991455
 10
-122.502441
 20
840.264587
 10
-122.502441
 20
841.573975
 10
-122.502441
 20
842.916138
 10
-122.502441
 20
844.287109
 10
-122.502441
 20
845.682312
 10
-122.502441
 20
847.096985
 10
-122.502441
 20
848.525696
 10
-122.502441
 20
849.96283
 10
-122.502441
 20
851.402405
 10
-122.502441
 20
852.838318
 10
-122.502441
 20
854.264221
 10
-122.502441
 20
855.673828
 10
-122.502441
 20
857.06073
 10
-122.502441
 20
858.418762
 10
-122.502441
 20
859.742126
 10
-122.502441
 20
861.025024
 10
-122.502441
 20
862.26239
 10
-122.502441
 20
863.449341
 10
-122.502441
 20
864.581604
 10
-122.502441
 20
865.65564
 10
-122.502441
 20
866.668274
 10
-122.502441
 20
867.617004
 10
-122.502441
 20
868.500122
 10
-122.502441
 20
869.316284
 10
-122.502441
 20
870.064941
 10
-122.502441
 20
870.745972
 10
-122.502441
 20
871.359863
 10
-122.502441
 20
871.907532
 10
-122.502441
 20
872.395874
  0
LINE
  5
1EF
330
1EB
100
AcDbEntity
  8
0
  6
Continuous
 62
     0
370
    30
100
AcDbLine
 10
-122.502442
 20
872.395853
 30
0.0
 11
-122.502441
 21
874.193604
 31
0.0
  0
LWPOLYLINE
  5
1F0
330
1EB
100
AcDbEntity
  8
0
  6
Continuous
 62
     0
370
    30
100
AcDbPolyline
 90
       46
 70
     0
 43
0.0
 10
-153.502441
 20
830.693604
 10
-153.502441
 20
830.732483
 10
-153.502441
 20
830.849304
 10
-153.502441
 20
831.04303
 10
-153.502441
 20
831.312805
 10
-153.502441
 20
831.657715
 10
-153.502441
 20
832.07605
 10
-153.502441
 20
832.565308
 10
-153.502441
 20
833.123169
 10
-153.502441
 20
833.747009
 10
-153.502441
 20
834.434265
 10
-153.502441
 20
835.181213
 10
-153.502441
 20
835.98407
 10
-153.502441
 20
836.838867
 10
-153.502441
 20
837.741821
 10
-153.502441
 20
838.688477
 10
-153.502441
 20
839.674072
 10
-153.502441
 20
840.693665
 10
-153.502441
 20
841.742493
 10
-153.502441
 20
842.815491
 10
-153.502441
 20
843.90741
 10
-153.502441
 20
845.012878
 10
-153.502441
 20
846.126526
 10
-153.502441
 20
847.242859
 10
-153.502441
 20
848.356506
 10
-153.502441
 20
849.462158
 10
-153.502441
 20
850.554382
 10
-153.502441
 20
851.627747
 10
-153.502441
 20
852.676941
 10
-153.502441
 20
853.697083
 10
-153.502441
 20
854.683228
 10
-153.502441
 20
855.630554
 10
-153.502441
 20
856.534241
 10
-153.502441
 20
857.389832
 10
-153.502441
 20
858.193542
 10
-153.502441
 20
858.941467
 10
-153.502441
 20
859.629639
 10
-153.502441
 20
860.254578
 10
-153.502441
 20
860.813477
 10
-153.502441
 20
861.303894
 10
-153.502441
 20
861.723389
 10
-153.502441
 20
862.069458
 10
-153.502441
 20
862.340454
 10
-153.502441
 20
862.5354
 10
-153.502441
 20
862.653442
 10
-153.502441
 20
862.693604
  0
LINE
  5
1F1
330
1EB
100
AcDbEntity
  8
0
  6
Continuous
 62
     0
370
    30
100
AcDbLine
 10
-153.50244
 20
830.693601
 30
0.0
 11
-126.502428
 21
830.693603
 31
0.0
  0
LINE
  5
1F2
330
1EB
100
AcDbEntity
  8
0
  6
Continuous
 62
     0
370
    30
100
AcDbLine
 10
-153.502442
 20
852.443603
 30
0.0
 11
-158.402443
 21
852.443603
 31
0.0
  0
LWPOLYLINE
  5
1F3
330
1EB
100
AcDbEntity
  8
0
  6
Continuous
 62
     0
370
    30
100
AcDbPolyline
 90
       38
 70
     0
 43
0.0
 10
-158.402435
 20
857.693604
 10
-158.402451
 20
857.653992
 10
-158.402451
 20
857.5354
 10
-158.402451
 20
857.338867
 10
-158.402451
 20
857.065613
 10
-158.402451
 20
856.717407
 10
-158.402451
 20
856.29718
 10
-158.402451
 20
855.808044
 10
-158.402451
 20
855.252991
 10
-158.402451
 20
854.63623
 10
-158.402451
 20
853.962341
 10
-158.402451
 20
853.236267
 10
-158.402451
 20
852.462891
 10
-158.402451
 20
851.647949
 10
-158.402451
 20
850.797424
 10
-158.402451
 20
849.917358
 10
-158.402451
 20
849.013977
 10
-158.402451
 20
848.093872
 10
-158.402451
 20
847.163757
 10
-158.402451
 20
846.230286
 10
-158.402451
 20
845.30011
 10
-158.402451
 20
844.379944
 10
-158.402451
 20
843.47644
 10
-158.402451
 20
842.596191
 10
-158.402451
 20
841.745422
 10
-158.402451
 20
840.930176
 10
-158.402451
 20
840.156433
 10
-158.402451
 20
839.429993
 10
-158.402451
 20
838.755737
 10
-158.402451
 20
838.138489
 10
-158.402451
 20
837.583008
 10
-158.402451
 20
837.093384
 10
-158.402451
 20
836.672607
 10
-158.402451
 20
836.323914
 10
-158.402451
 20
836.050049
 10
-158.402451
 20
835.852966
 10
-158.402451
 20
835.733826
 10
-158.402435
 20
835.693604
  0
LINE
  5
1F4
330
1EB
100
AcDbEntity
  8
0
  6
Continuous
 62
     0
370
    30
100
AcDbLine
 10
-188.902443
 20
857.693603
 30
0.0
 11
-185.002443
 21
857.693603
 31
0.0
  0
LINE
  5
1F5
330
1EB
100
AcDbEntity
  8
0
  6
Continuous
 62
     0
370
    30
100
AcDbLine
 10
-177.802443
 20
857.693603
 30
0.0
 11
-158.402443
 21
857.693603
 31
0.0
  0
LWPOLYLINE
  5
1F6
330
1EB
100
AcDbEntity
  8
0
  6
Continuous
 62
     0
370
     0
100
AcDbPolyline
 90
       24
 70
     0
 43
0.0
 10
-177.802444
 20
857.693604
 10
-177.835556
 20
857.682434
 10
-177.938232
 20
857.650208
 10
-178.103165
 20
857.59906
 10
-178.327026
 20
857.532837
 10
-178.608475
 20
857.456604
 10
-178.941299
 20
857.375549
 10
-179.317291
 20
857.294983
 10
-179.732986
 20
857.221008
 10
-180.182816
 20
857.159302
 10
-180.657349
 20
857.114563
 10
-181.146942
 20
857.091309
 10
-181.641708
 20
857.090881
 10
-182.131622
 20
857.113464
 10
-182.606796
 20
857.157532
 10
-183.057587
 20
857.218811
 10
-183.474548
 20
857.292419
 10
-183.851898
 20
857.372864
 10
-184.186218
 20
857.454041
 10
-184.469452
 20
857.530457
 10
-184.695251
 20
857.597107
 10
-184.862183
 20
857.648804
 10
-184.967056
 20
857.681702
 10
-185.002441
 20
857.693604
  0
LINE
  5
1F7
330
1EB
100
AcDbEntity
  8
0
  6
Continuous
 62
     0
370
    30
100
AcDbLine
 10
-188.902443
 20
857.693603
 30
0.0
 11
-188.902443
 21
835.693603
 31
0.0
  0
LWPOLYLINE
  5
1F8
330
1EB
100
AcDbEntity
  8
0
  6
Continuous
 62
     0
370
     0
100
AcDbPolyline
 90
       24
 70
     0
 43
0.0
 10
-185.002441
 20
835.693604
 10
-184.969376
 20
835.704773
 10
-184.866638
 20
835.737
 10
-184.70163
 20
835.788147
 10
-184.477707
 20
835.85437
 10
-184.196259
 20
835.930603
 10
-183.863419
 20
836.011719
 10
-183.487335
 20
836.092224
 10
-183.071548
 20
836.166199
 10
-182.621689
 20
836.227966
 10
-182.147125
 20
836.272705
 10
-181.657501
 20
836.295959
 10
-181.162704
 20
836.296326
 10
-180.672745
 20
836.273743
 10
-180.19754
 20
836.229614
 10
-179.746735
 20
836.168335
 10
-179.329803
 20
836.094666
 10
-178.952499
 20
836.014221
 10
-178.618195
 20
835.933044
 10
-178.334976
 20
835.856628
 10
-178.109238
 20
835.790039
 10
-177.942413
 20
835.738281
 10
-177.837677
 20
835.705444
 10
-177.802444
 20
835.693604
  0
LWPOLYLINE
  5
1F9
330
1EB
100
AcDbEntity
  8
0
  6
Continuous
 62
     0
370
     0
100
AcDbPolyline
 90
       23
 70
     0
 43
0.0
 10
-185.002441
 20
846.693604
 10
-184.966064
 20
847.208435
 10
-184.85379
 20
847.713257
 10
-184.673843
 20
848.195435
 10
-184.42952
 20
848.64447
 10
-184.12294
 20
849.051453
 10
-183.76236
 20
849.410889
 10
-183.355896
 20
849.717468
 10
-182.907288
 20
849.96405
 10
-182.425049
 20
850.145142
 10
-181.920166
 20
850.255981
 10
-181.403809
 20
850.293091
 10
-180.88739
 20
850.256287
 10
-180.382401
 20
850.145874
 10
-179.899979
 20
849.96521
 10
-179.451172
 20
849.718933
 10
-179.044525
 20
849.412659
 10
-178.683685
 20
849.053467
 10
-178.37674
 20
848.646729
 10
-178.132095
 20
848.197937
 10
-177.951828
 20
847.715881
 10
-177.839203
 20
847.211121
 10
-177.802444
 20
846.692749
  0
LWPOLYLINE
  5
1FA
330
1EB
100
AcDbEntity
  8
0
  6
Continuous
 62
     0
370
     0
100
AcDbPolyline
 90
       23
 70
     0
 43
0.0
 10
-177.802444
 20
846.692749
 10
-177.838898
 20
846.17804
 10
-177.951233
 20
845.673279
 10
-178.13121
 20
845.191223
 10
-178.37558
 20
844.74231
 10
-178.682205
 20
844.335449
 10
-179.042755
 20
843.976074
 10
-179.449142
 20
843.669556
 10
-179.89769
 20
843.423035
 10
-180.379883
 20
843.242065
 10
-180.88472
 20
843.131287
 10
-181.401001
 20
843.094116
 10
-181.917328
 20
843.13092
 10
-182.422241
 20
843.241211
 10
-182.904587
 20
843.421875
 10
-183.353363
 20
843.66803
 10
-183.76001
 20
843.974182
 10
-184.120819
 20
844.333313
 10
-184.427734
 20
844.73999
 10
-184.67244
 20
845.18866
 10
-184.852783
 20
845.670593
 10
-184.96553
 20
846.175232
 10
-185.002441
 20
846.693604
  0
ARC
  5
1FB
330
1EB
100
AcDbEntity
  8
0
  6
Continuous
 62
     0
370
    30
100
AcDbCircle
 10
-175.802469
 20
823.092403
 30
0.0
 40
12.63872873023561
100
AcDbArc
 50
85.583477
 51
94.416523
  0
LWPOLYLINE
  5
1FC
330
1EB
100
AcDbEntity
  8
0
  6
Continuous
 62
     0
370
    30
100
AcDbPolyline
 90
       23
 70
     0
 43
0.0
 10
-177.902451
 20
835.693604
 10
-177.938431
 20
835.705017
 10
-178.045334
 20
835.73822
 10
-178.220322
 20
835.790588
 10
-178.459061
 20
835.857849
 10
-178.756363
 20
835.934814
 10
-179.106369
 20
836.015503
 10
-179.502747
 20
836.093628
 10
-179.938385
 20
836.163025
 10
-180.405334
 20
836.217712
 10
-180.894272
 20
836.252869
 10
-181.394653
 20
836.265259
 10
-181.895218
 20
836.253662
 10
-182.38472
 20
836.219116
 10
-182.85231
 20
836.164917
 10
-183.288818
 20
836.095825
 10
-183.686691
 20
836.017944
 10
-184.038483
 20
835.937317
 10
-184.337463
 20
835.860107
 10
-184.578079
 20
835.79248
 10
-184.755127
 20
835.739563
 10
-184.864197
 20
835.705688
 10
-184.90242
 20
835.693604
  0
LWPOLYLINE
  5
1FD
330
1EB
100
AcDbEntity
  8
0
  6
Continuous
 62
     0
370
    30
100
AcDbPolyline
 90
       19
 70
     0
 43
0.0
 10
-184.902466
 20
857.693604
 10
-184.866043
 20
857.682007
 10
-184.758255
 20
857.648376
 10
-184.582321
 20
857.595947
 10
-184.341965
 20
857.52832
 10
-184.042694
 20
857.450928
 10
-183.690598
 20
857.369995
 10
-183.291901
 20
857.291748
 10
-182.853775
 20
857.222473
 10
-182.38443
 20
857.168091
 10
-181.89325
 20
857.133484
 10
-181.390915
 20
857.121948
 10
-180.88884
 20
857.134583
 10
-180.398468
 20
857.170166
 10
-179.930313
 20
857.225342
 10
-179.493896
 20
857.295166
 10
-179.097214
 20
857.373718
 10
-178.747162
 20
857.454651
 10
-178.444717
 20
857.533264
  0
LWPOLYLINE
  5
1FE
330
1EB
100
AcDbEntity
  8
0
  6
Continuous
 62
     0
370
    30
100
AcDbPolyline
 90
        5
 70
     0
 43
0.0
 10
-178.444717
 20
857.533264
 10
-178.214905
 20
857.598206
 10
-178.045532
 20
857.648865
 10
-177.940521
 20
857.681519
 10
-177.902435
 20
857.693604
  0
LINE
  5
1FF
330
1EB
100
AcDbEntity
  8
0
  6
Continuous
 62
     0
370
    30
100
AcDbLine
 10
-177.90247
 20
811.593598
 30
0.0
 11
-182.084173
 21
811.593598
 31
0.0
  0
LINE
  5
200
330
1EB
100
AcDbEntity
  8
0
  6
Continuous
 62
     0
370
    30
100
AcDbLine
 10
-182.084173
 20
811.593598
 30
0.0
 11
-184.902408
 21
811.593598
 31
0.0
  0
ARC
  5
201
330
1EB
100
AcDbEntity
  8
0
  6
Continuous
 62
     0
370
    30
100
AcDbCircle
 10
-181.4024
 20
846.693626
 30
0.0
 40
3.500000000324051
100
AcDbArc
 50
301.467639
 51
121.469198
  0
ARC
  5
202
330
1EB
100
AcDbEntity
  8
0
  6
Continuous
 62
     0
370
    30
100
AcDbCircle
 10
-181.402481
 20
846.693576
 30
0.0
 40
3.500000000324044
100
AcDbArc
 50
121.467639
 51
301.469198
  0
LINE
  5
203
330
1EB
100
AcDbEntity
  8
0
  6
Continuous
 62
     0
370
    30
100
AcDbLine
 10
-178.444723
 20
881.793634
 30
0.0
 11
-177.902429
 21
881.793634
 31
0.0
  0
LWPOLYLINE
  5
204
330
1EB
100
AcDbEntity
  8
0
  6
Continuous
 62
     0
370
    30
100
AcDbPolyline
 90
       19
 70
     0
 43
0.0
 10
-184.902451
 20
881.79364
 10
-184.866714
 20
881.79364
 10
-184.760544
 20
881.79364
 10
-184.586121
 20
881.79364
 10
-184.346878
 20
881.79364
 10
-184.047897
 20
881.79364
 10
-183.694977
 20
881.79364
 10
-183.295563
 20
881.79364
 10
-182.857559
 20
881.79364
 10
-182.39003
 20
881.79364
 10
-181.90239
 20
881.79364
 10
-181.404587
 20
881.79364
 10
-180.906754
 20
881.79364
 10
-180.418961
 20
881.79364
 10
-179.951202
 20
881.79364
 10
-179.51297
 20
881.79364
 10
-179.113083
 20
881.79364
 10
-178.759842
 20
881.79364
 10
-178.444717
 20
881.79364
  0
LINE
  5
205
330
1EB
100
AcDbEntity
  8
0
  6
Continuous
 62
     0
370
    30
100
AcDbLine
 10
-177.902439
 20
881.793634
 30
0.0
 11
-177.902439
 21
857.693555
 31
0.0
  0
LINE
  5
206
330
1EB
100
AcDbEntity
  8
0
  6
Continuous
 62
     0
370
    30
100
AcDbLine
 10
-184.902439
 20
857.69356
 30
0.0
 11
-184.902439
 21
881.793634
 31
0.0
  0
LINE
  5
207
330
1EB
100
AcDbEntity
  8
0
  6
Continuous
 62
     0
370
    30
100
AcDbLine
 10
-177.902439
 20
811.593598
 30
0.0
 11
-177.902439
 21
835.693604
 31
0.0
  0
LINE
  5
208
330
1EB
100
AcDbEntity
  8
0
  6
Continuous
 62
     0
370
    30
100
AcDbLine
 10
-184.902439
 20
835.693603
 30
0.0
 11
-184.902439
 21
811.593598
 31
0.0
  0
LINE
  5
209
330
1EB
100
AcDbEntity
  8
0
  6
Continuous
 62
     0
370
    30
100
AcDbLine
 10
-185.002443
 20
857.693603
 30
0.0
 11
-184.902247
 21
857.693603
 31
0.0
  0
LINE
  5
20A
330
1EB
100
AcDbEntity
  8
0
  6
Continuous
 62
     0
370
    30
100
AcDbLine
 10
-177.802443
 20
857.693603
 30
0.0
 11
-177.9027
 21
857.693603
 31
0.0
  0
LINE
  5
20B
330
1EB
100
AcDbEntity
  8
0
  6
Continuous
 62
     0
370
    30
100
AcDbLine
 10
-185.002443
 20
835.693603
 30
0.0
 11
-184.90226
 21
835.693603
 31
0.0
  0
LINE
  5
20C
330
1EB
100
AcDbEntity
  8
0
  6
Continuous
 62
     0
370
    30
100
AcDbLine
 10
-158.402443
 20
835.693603
 30
0.0
 11
-174.829204
 21
835.693603
 31
0.0
  0
LINE
  5
20D
330
1EB
100
AcDbEntity
  8
0
  6
Continuous
 62
     0
370
    30
100
AcDbLine
 10
-188.902443
 20
835.693603
 30
0.0
 11
-185.002443
 21
835.693603
 31
0.0
  0
LINE
  5
20E
330
1EB
100
AcDbEntity
  8
0
  6
Continuous
 62
     0
370
    30
100
AcDbLine
 10
-177.802435
 20
835.693603
 30
0.0
 11
-176.775734
 21
835.693603
 31
0.0
  0
LINE
  5
20F
330
1EB
100
AcDbEntity
  8
0
  6
Continuous
 62
     0
370
    30
100
AcDbLine
 10
-158.402443
 20
840.943603
 30
0.0
 11
-153.502442
 21
840.943603
 31
0.0
  0
LINE
  5
210
330
1EB
100
AcDbEntity
  8
0
  6
Continuous
 62
     0
370
    30
100
AcDbLine
 10
-153.502443
 20
862.693601
 30
0.0
 11
-126.50243
 21
862.693603
 31
0.0
  0
LINE
  5
211
330
1EB
100
AcDbEntity
  8
0
  6
Continuous
 62
     0
370
    30
100
AcDbLine
 10
-126.502441
 20
874.193604
 30
0.0
 11
-122.502441
 21
874.193604
 31
0.0
  0
LINE
  5
212
330
1EB
100
AcDbEntity
  8
0
  6
Continuous
 62
     0
370
    30
100
AcDbLine
 10
-126.502441
 20
819.193603
 30
0.0
 11
-122.502441
 21
819.193603
 31
0.0
  0
LWPOLYLINE
  5
213
330
1EB
100
AcDbEntity
  8
0
  6
Continuous
 62
     0
370
    30
100
AcDbPolyline
 90
       84
 70
     0
 43
0.0
 10
-122.502426
 20
781.695068
 10
-122.502426
 20
781.655945
 10
-122.502426
 20
781.537659
 10
-122.502426
 20
781.340759
 10
-122.502426
 20
781.065735
 10
-122.502426
 20
780.713013
 10
-122.502426
 20
780.283203
 10
-122.502426
 20
779.776733
 10
-122.502426
 20
779.194092
 10
-122.502426
 20
778.535889
 10
-122.502426
 20
777.803101
 10
-122.502426
 20
776.997131
 10
-122.502426
 20
776.119324
 10
-122.502426
 20
775.171021
 10
-122.502426
 20
774.153564
 10
-122.502426
 20
773.068298
 10
-122.502426
 20
771.916626
 10
-122.502426
 20
770.699829
 10
-122.502426
 20
769.419678
 10
-122.502426
 20
768.078186
 10
-122.502426
 20
766.67749
 10
-122.502426
 20
765.219727
 10
-122.502426
 20
763.707031
 10
-122.502426
 20
762.141479
 10
-122.502426
 20
760.525208
 10
-122.502426
 20
758.860352
 10
-122.502426
 20
757.14917
 10
-122.502426
 20
755.394226
 10
-122.502426
 20
753.598145
 10
-122.502426
 20
751.763672
 10
-122.502426
 20
749.893494
 10
-122.502426
 20
747.990173
 10
-122.502426
 20
746.056396
 10
-122.502426
 20
744.09491
 10
-122.502426
 20
742.108398
 10
-122.502426
 20
740.099609
 10
-122.502426
 20
738.071655
 10
-122.502426
 20
736.027405
 10
-122.502426
 20
733.969788
 10
-122.502426
 20
731.901855
 10
-122.502426
 20
729.826477
 10
-122.502426
 20
727.746643
 10
-122.502426
 20
725.665344
 10
-122.502426
 20
723.58551
 10
-122.502426
 20
721.510132
 10
-122.502426
 20
719.442078
 10
-122.502426
 20
717.384338
 10
-122.502426
 20
715.339905
 10
-122.502426
 20
713.311768
 10
-122.502426
 20
711.302795
 10
-122.502426
 20
709.315979
 10
-122.502426
 20
707.354187
 10
-122.502426
 20
705.420166
 10
-122.502426
 20
703.516541
 10
-122.502426
 20
701.645935
 10
-122.502426
 20
699.811096
 10
-122.502426
 20
698.014648
 10
-122.502426
 20
696.259216
 10
-122.502426
 20
694.547546
 10
-122.502426
 20
692.882202
 10
-122.502426
 20
691.265442
 10
-122.502426
 20
689.699341
 10
-122.502426
 20
688.186035
 10
-122.502426
 20
686.727722
 10
-122.502426
 20
685.326416
 10
-122.502426
 20
683.984253
 10
-122.502426
 20
682.70343
 10
-122.502426
 20
681.485962
 10
-122.502426
 20
680.333618
 10
-122.502426
 20
679.24762
 10
-122.502426
 20
678.229492
 10
-122.502426
 20
677.280457
 10
-122.502426
 20
676.401855
 10
-122.502426
 20
675.595154
 10
-122.502426
 20
674.861572
 10
-122.502426
 20
674.202576
 10
-122.502426
 20
673.619141
 10
-122.502426
 20
673.111877
 10
-122.502426
 20
672.681213
 10
-122.502426
 20
672.327759
 10
-122.502426
 20
672.05188
 10
-122.502426
 20
671.854126
 10
-122.502426
 20
671.735046
 10
-122.502426
 20
671.695068
  0
LINE
  5
214
330
1EB
100
AcDbEntity
  8
0
  6
Continuous
 62
     0
370
    30
100
AcDbLine
 10
-122.502426
 20
671.695076
 30
0.0
 11
-126.502427
 21
671.695076
 31
0.0
  0
LINE
  5
215
330
1EB
100
AcDbEntity
  8
0
  6
Continuous
 62
     0
370
    30
100
AcDbLine
 10
-126.502427
 20
781.695076
 30
0.0
 11
-126.502427
 21
671.695076
 31
0.0
  0
LWPOLYLINE
  5
216
330
1EB
100
AcDbEntity
  8
0
  6
Continuous
 62
     0
370
    30
100
AcDbPolyline
 90
       53
 70
     0
 43
0.0
 10
-178.702423
 20
704.695068
 10
-178.702423
 20
704.735107
 10
-178.702423
 20
704.85553
 10
-178.702423
 20
705.055542
 10
-178.702423
 20
705.334229
 10
-178.702423
 20
705.690918
 10
-178.702423
 20
706.124573
 10
-178.702423
 20
706.633362
 10
-178.702423
 20
707.21521
 10
-178.702423
 20
707.867859
 10
-178.702423
 20
708.58905
 10
-178.702423
 20
709.376648
 10
-178.702423
 20
710.227661
 10
-178.702423
 20
711.138672
 10
-178.702423
 20
712.106262
 10
-178.702423
 20
713.126892
 10
-178.702423
 20
714.197205
 10
-178.702423
 20
715.313293
 10
-178.702423
 20
716.470947
 10
-178.702423
 20
717.66571
 10
-178.702423
 20
718.893372
 10
-178.702423
 20
720.149475
 10
-178.702423
 20
721.429565
 10
-178.702423
 20
722.728943
 10
-178.702423
 20
724.042786
 10
-178.702423
 20
725.366211
 10
-178.702423
 20
726.694458
 10
-178.702423
 20
728.022705
 10
-178.702423
 20
729.346191
 10
-178.702423
 20
730.660034
 10
-178.702423
 20
731.959412
 10
-178.702423
 20
733.239563
 10
-178.702423
 20
734.495667
 10
-178.702423
 20
735.723328
 10
-178.702423
 20
736.918152
 10
-178.702423
 20
738.075806
 10
-178.702423
 20
739.191956
 10
-178.702423
 20
740.262329
 10
-178.702423
 20
741.28302
 10
-178.702423
 20
742.25061
 10
-178.702423
 20
743.161682
 10
-178.702423
 20
744.012756
 10
-178.702423
 20
744.800415
 10
-178.702423
 20
745.521667
 10
-178.702423
 20
746.174377
 10
-178.702423
 20
746.756287
 10
-178.702423
 20
747.265198
 10
-178.702423
 20
747.698914
 10
-178.702423
 20
748.055603
 10
-178.702423
 20
748.334412
 10
-178.702423
 20
748.534424
 10
-178.702423
 20
748.654968
 10
-178.702423
 20
748.695068
  0
LINE
  5
217
330
1EB
100
AcDbEntity
  8
0
  6
Continuous
 62
     0
370
    30
100
AcDbLine
 10
-178.702427
 20
748.695085
 30
0.0
 11
-173.252446
 21
748.695085
 31
0.0
  0
LINE
  5
218
330
1EB
100
AcDbEntity
  8
0
  6
Continuous
 62
     0
370
    30
100
AcDbLine
 10
-166.152446
 20
748.695085
 30
0.0
 11
-128.702427
 21
748.695085
 31
0.0
  0
LINE
  5
219
330
1EB
100
AcDbEntity
  8
0
  6
Continuous
 62
     0
370
    30
100
AcDbLine
 10
-128.702427
 20
704.695067
 30
0.0
 11
-128.702427
 21
748.695085
 31
0.0
  0
LWPOLYLINE
  5
21A
330
1EB
100
AcDbEntity
  8
0
  6
Continuous
 62
     0
370
     0
100
AcDbPolyline
 90
       23
 70
     0
 43
0.0
 10
-166.152451
 20
748.695068
 10
-166.188492
 20
748.68927
 10
-166.29657
 20
748.672363
 10
-166.473404
 20
748.645752
 10
-166.713272
 20
748.611389
 10
-167.015274
 20
748.572327
 10
-167.373764
 20
748.531555
 10
-167.776596
 20
748.492065
 10
-168.218719
 20
748.457275
 10
-168.692215
 20
748.430298
 10
-169.186356
 20
748.412964
 10
-169.69104
 20
748.406738
 10
-170.195953
 20
748.412415
 10
-170.690765
 20
748.42926
 10
-171.165344
 20
748.455933
 10
-171.6091
 20
748.490417
 10
-172.013855
 20
748.529724
 10
-172.374542
 20
748.570496
 10
-172.679321
 20
748.609741
 10
-172.922012
 20
748.644348
 10
-173.101898
 20
748.671387
 10
-173.213181
 20
748.688782
 10
-173.252441
 20
748.695068
  0
LWPOLYLINE
  5
21B
330
1EB
100
AcDbEntity
  8
0
  6
Continuous
 62
     0
370
     0
100
AcDbPolyline
 90
       18
 70
     0
 43
0.0
 10
-171.852432
 20
704.695068
 10
-171.815186
 20
704.698669
 10
-171.707062
 20
704.70874
 10
-171.532196
 20
704.724121
 10
-171.294022
 20
704.742615
 10
-171.002411
 20
704.761719
 10
-170.667984
 20
704.779114
 10
-170.298889
 20
704.792236
 10
-169.909363
 20
704.799316
 10
-169.51326
 20
704.7995
 10
-169.123077
 20
704.792664
 10
-168.752686
 20
704.779785
 10
-168.416611
 20
704.762573
 10
-168.12294
 20
704.743469
 10
-167.882019
 20
704.724915
 10
-167.70433
 20
704.709351
 10
-167.593216
 20
704.698975
 10
-167.55246
 20
704.695068
  0
LINE
  5
21C
330
1EB
100
AcDbEntity
  8
0
  6
Continuous
 62
     0
370
    30
100
AcDbLine
 10
-166.202446
 20
756.345085
 30
0.0
 11
-173.202446
 21
756.345085
 31
0.0
  0
LINE
  5
21D
330
1EB
100
AcDbEntity
  8
0
  6
Continuous
 62
     0
370
    30
100
AcDbLine
 10
-173.002446
 20
756.545085
 30
0.0
 11
-173.202446
 21
756.345085
 31
0.0
  0
LINE
  5
21E
330
1EB
100
AcDbEntity
  8
0
  6
Continuous
 62
     0
370
    30
100
AcDbLine
 10
-166.402446
 20
756.545085
 30
0.0
 11
-173.002446
 21
756.545085
 31
0.0
  0
LINE
  5
21F
330
1EB
100
AcDbEntity
  8
0
  6
Continuous
 62
     0
370
    30
100
AcDbLine
 10
-173.202446
 20
748.695053
 30
0.0
 11
-173.202446
 21
756.345085
 31
0.0
  0
LWPOLYLINE
  5
220
330
1EB
100
AcDbEntity
  8
0
  6
Continuous
 62
     0
370
    30
100
AcDbPolyline
 90
       22
 70
     0
 43
0.0
 10
-173.202438
 20
748.695068
 10
-173.163269
 20
748.688843
 10
-173.04657
 20
748.670776
 10
-172.855423
 20
748.642517
 10
-172.594055
 20
748.606506
 10
-172.268478
 20
748.565918
 10
-171.885818
 20
748.524353
 10
-171.454315
 20
748.485474
 10
-170.983307
 20
748.45282
 10
-170.483551
 20
748.429016
 10
-169.965973
 20
748.416626
 10
-169.442154
 20
748.416687
 10
-168.924316
 20
748.428833
 10
-168.424515
 20
748.452576
 10
-167.953506
 20
748.485352
 10
-167.521561
 20
748.524109
 10
-167.13858
 20
748.565674
 10
-166.812607
 20
748.606262
 10
-166.550812
 20
748.642334
 10
-166.35936
 20
748.670593
 10
-166.242325
 20
748.68866
 10
-166.202454
 20
748.695068
  0
LINE
  5
221
330
1EB
100
AcDbEntity
  8
0
  6
Continuous
 62
     0
370
    30
100
AcDbLine
 10
-166.202446
 20
756.345085
 30
0.0
 11
-166.402446
 21
756.545085
 31
0.0
  0
LINE
  5
222
330
1EB
100
AcDbEntity
  8
0
  6
Continuous
 62
     0
370
    30
100
AcDbLine
 10
-166.202446
 20
756.345085
 30
0.0
 11
-166.202446
 21
748.695053
 31
0.0
  0
LWPOLYLINE
  5
223
330
1EB
100
AcDbEntity
  8
0
  6
Continuous
 62
     0
370
    30
100
AcDbPolyline
 90
        3
 70
     0
 43
0.0
 10
-171.852432
 20
704.695068
 10
-169.763885
 20
704.683411
 10
-167.55246
 20
704.695068
  0
LINE
  5
224
330
1EB
100
AcDbEntity
  8
0
  6
Continuous
 62
     0
370
    30
100
AcDbLine
 10
-166.152446
 20
748.695085
 30
0.0
 11
-166.202447
 21
748.695053
 31
0.0
  0
LINE
  5
225
330
1EB
100
AcDbEntity
  8
0
  6
Continuous
 62
     0
370
    30
100
AcDbLine
 10
-173.252446
 20
748.695085
 30
0.0
 11
-173.202446
 21
748.695053
 31
0.0
  0
LINE
  5
226
330
1EB
100
AcDbEntity
  8
0
  6
Continuous
 62
     0
370
    30
100
AcDbLine
 10
-178.702427
 20
704.695067
 30
0.0
 11
-171.852427
 21
704.695067
 31
0.0
  0
LINE
  5
227
330
1EB
100
AcDbEntity
  8
0
  6
Continuous
 62
     0
370
    30
100
AcDbLine
 10
-128.702427
 20
704.695067
 30
0.0
 11
-167.552455
 21
704.695067
 31
0.0
  0
LINE
  5
228
330
1EB
100
AcDbEntity
  8
0
  6
Continuous
 62
     0
370
    30
100
AcDbLine
 10
-126.502426
 20
706.795076
 30
0.0
 11
-128.702427
 21
706.795076
 31
0.0
  0
LINE
  5
229
330
1EB
100
AcDbEntity
  8
0
  6
Continuous
 62
     0
370
    30
100
AcDbLine
 10
-128.702427
 20
746.595076
 30
0.0
 11
-126.502426
 21
746.595076
 31
0.0
  0
LINE
  5
22A
330
1EB
100
AcDbEntity
  8
0
  6
Continuous
 62
     0
370
    30
100
AcDbLine
 10
-126.502427
 20
781.695076
 30
0.0
 11
-122.502426
 21
781.695076
 31
0.0
  0
LWPOLYLINE
  5
22B
330
1EB
100
AcDbEntity
  8
0
  6
Continuous
 62
     0
370
    30
100
AcDbPolyline
 90
        9
 70
     0
 43
0.0
 10
-126.502487
 20
974.193176
 10
-126.502487
 20
974.163208
 10
-126.502487
 20
974.074646
 10
-126.502487
 20
973.929871
 10
-126.502487
 20
973.731323
 10
-126.502487
 20
973.481873
 10
-126.502487
 20
973.184387
 10
-126.502487
 20
972.842041
 10
-126.502487
 20
972.395386
  0
LINE
  5
22C
330
1EB
100
AcDbEntity
  8
0
  6
Continuous
 62
     0
370
    30
100
AcDbLine
 10
-126.502485
 20
972.395416
 30
0.0
 11
-126.502484
 21
919.193166
 31
0.0
  0
LWPOLYLINE
  5
22D
330
1EB
100
AcDbEntity
  8
0
  6
Continuous
 62
     0
370
    30
100
AcDbPolyline
 90
       55
 70
     0
 43
0.0
 10
-122.502487
 20
919.193176
 10
-122.502487
 20
919.230103
 10
-122.502487
 20
919.342346
 10
-122.502487
 20
919.531433
 10
-122.502487
 20
919.798401
 10
-122.502487
 20
920.143555
 10
-122.502487
 20
920.566589
 10
-122.502487
 20
921.066406
 10
-122.502487
 20
921.641418
 10
-122.502487
 20
922.289185
 10
-122.502487
 20
923.006775
 10
-122.502487
 20
923.790527
 10
-122.502487
 20
924.636414
 10
-122.502487
 20
925.539795
 10
-122.502487
 20
926.495728
 10
-122.502487
 20
927.499023
 10
-122.502487
 20
928.544128
 10
-122.502487
 20
929.625427
 10
-122.502487
 20
930.737305
 10
-122.502487
 20
931.874146
 10
-122.502487
 20
933.030334
 10
-122.502487
 20
934.200623
 10
-122.502487
 20
935.379883
 10
-122.502487
 20
936.56311
 10
-122.502487
 20
937.757141
 10
-122.502487
 20
938.991028
 10
-122.502487
 20
940.26416
 10
-122.502487
 20
941.573547
 10
-122.502487
 20
942.91571
 10
-122.502487
 20
944.286621
 10
-122.502487
 20
945.681885
 10
-122.502487
 20
947.096497
 10
-122.502487
 20
948.525269
 10
-122.502487
 20
949.962402
 10
-122.502487
 20
951.401978
 10
-122.502487
 20
952.837891
 10
-122.502487
 20
954.263794
 10
-122.502487
 20
955.67334
 10
-122.502487
 20
957.060242
 10
-122.502487
 20
958.418335
 10
-122.502487
 20
959.741699
 10
-122.502487
 20
961.024597
 10
-122.502487
 20
962.261963
 10
-122.502487
 20
963.448853
 10
-122.502487
 20
964.581177
 10
-122.502487
 20
965.655212
 10
-122.502487
 20
966.667786
 10
-122.502487
 20
967.616577
 10
-122.502487
 20
968.499695
 10
-122.502487
 20
969.315857
 10
-122.502487
 20
970.064453
 10
-122.502487
 20
970.745544
 10
-122.502487
 20
971.359436
 10
-122.502487
 20
971.907104
 10
-122.502487
 20
972.395386
  0
LINE
  5
22E
330
1EB
100
AcDbEntity
  8
0
  6
Continuous
 62
     0
370
    30
100
AcDbLine
 10
-122.502485
 20
972.395416
 30
0.0
 11
-122.502484
 21
974.193166
 31
0.0
  0
LWPOLYLINE
  5
22F
330
1EB
100
AcDbEntity
  8
0
  6
Continuous
 62
     0
370
    30
100
AcDbPolyline
 90
       46
 70
     0
 43
0.0
 10
-153.502487
 20
930.693176
 10
-153.502487
 20
930.732056
 10
-153.502487
 20
930.848877
 10
-153.502487
 20
931.042603
 10
-153.502487
 20
931.312378
 10
-153.502487
 20
931.657288
 10
-153.502487
 20
932.075562
 10
-153.502487
 20
932.56488
 10
-153.502487
 20
933.122681
 10
-153.502487
 20
933.746582
 10
-153.502487
 20
934.433838
 10
-153.502487
 20
935.180786
 10
-153.502487
 20
935.983643
 10
-153.502487
 20
936.83844
 10
-153.502487
 20
937.741394
 10
-153.502487
 20
938.688049
 10
-153.502487
 20
939.673645
 10
-153.502487
 20
940.693237
 10
-153.502487
 20
941.742004
 10
-153.502487
 20
942.815063
 10
-153.502487
 20
943.906982
 10
-153.502487
 20
945.012451
 10
-153.502487
 20
946.126038
 10
-153.502487
 20
947.242432
 10
-153.502487
 20
948.356079
 10
-153.502487
 20
949.461731
 10
-153.502487
 20
950.553955
 10
-153.502487
 20
951.627319
 10
-153.502487
 20
952.676514
 10
-153.502487
 20
953.696655
 10
-153.502487
 20
954.6828
 10
-153.502487
 20
955.630127
 10
-153.502487
 20
956.533813
 10
-153.502487
 20
957.389404
 10
-153.502487
 20
958.193115
 10
-153.502487
 20
958.940979
 10
-153.502487
 20
959.629211
 10
-153.502487
 20
960.25415
 10
-153.502487
 20
960.813049
 10
-153.502487
 20
961.303467
 10
-153.502487
 20
961.7229
 10
-153.502487
 20
962.069031
 10
-153.502487
 20
962.340027
 10
-153.502487
 20
962.534973
 10
-153.502487
 20
962.653015
 10
-153.502487
 20
962.693176
  0
LINE
  5
230
330
1EB
100
AcDbEntity
  8
0
  6
Continuous
 62
     0
370
    30
100
AcDbLine
 10
-153.502483
 20
930.693164
 30
0.0
 11
-126.50247
 21
930.693166
 31
0.0
  0
LINE
  5
231
330
1EB
100
AcDbEntity
  8
0
  6
Continuous
 62
     0
370
    30
100
AcDbLine
 10
-153.502485
 20
952.443165
 30
0.0
 11
-158.402486
 21
952.443165
 31
0.0
  0
LWPOLYLINE
  5
232
330
1EB
100
AcDbEntity
  8
0
  6
Continuous
 62
     0
370
    30
100
AcDbPolyline
 90
       38
 70
     0
 43
0.0
 10
-158.402481
 20
957.693176
 10
-158.402481
 20
957.653564
 10
-158.402481
 20
957.534912
 10
-158.402481
 20
957.33844
 10
-158.402481
 20
957.065186
 10
-158.402481
 20
956.71698
 10
-158.402481
 20
956.296753
 10
-158.402481
 20
955.807617
 10
-158.402481
 20
955.252563
 10
-158.402481
 20
954.635742
 10
-158.402481
 20
953.961914
 10
-158.402481
 20
953.23584
 10
-158.402481
 20
952.462463
 10
-158.402481
 20
951.647461
 10
-158.402481
 20
950.796997
 10
-158.402481
 20
949.916931
 10
-158.402481
 20
949.01355
 10
-158.402481
 20
948.093445
 10
-158.402481
 20
947.16333
 10
-158.402481
 20
946.229858
 10
-158.402481
 20
945.299683
 10
-158.402481
 20
944.379517
 10
-158.402481
 20
943.475952
 10
-158.402481
 20
942.595703
 10
-158.402481
 20
941.744995
 10
-158.402481
 20
940.929749
 10
-158.402481
 20
940.156006
 10
-158.402481
 20
939.429565
 10
-158.402481
 20
938.75531
 10
-158.402481
 20
938.138062
 10
-158.402481
 20
937.582581
 10
-158.402481
 20
937.092896
 10
-158.402481
 20
936.67218
 10
-158.402481
 20
936.323425
 10
-158.402481
 20
936.049622
 10
-158.402481
 20
935.852539
 10
-158.402481
 20
935.733337
 10
-158.402481
 20
935.693176
  0
LINE
  5
233
330
1EB
100
AcDbEntity
  8
0
  6
Continuous
 62
     0
370
    30
100
AcDbLine
 10
-188.902486
 20
957.693165
 30
0.0
 11
-185.002486
 21
957.693165
 31
0.0
  0
LINE
  5
234
330
1EB
100
AcDbEntity
  8
0
  6
Continuous
 62
     0
370
    30
100
AcDbLine
 10
-177.802486
 20
957.693165
 30
0.0
 11
-158.402486
 21
957.693165
 31
0.0
  0
LWPOLYLINE
  5
235
330
1EB
100
AcDbEntity
  8
0
  6
Continuous
 62
     0
370
     0
100
AcDbPolyline
 90
       24
 70
     0
 43
0.0
 10
-177.80249
 20
957.693176
 10
-177.835602
 20
957.682007
 10
-177.938278
 20
957.64978
 10
-178.10321
 20
957.598633
 10
-178.327072
 20
957.53241
 10
-178.608521
 20
957.456177
 10
-178.941345
 20
957.375122
 10
-179.317337
 20
957.294556
 10
-179.733032
 20
957.220581
 10
-180.182861
 20
957.158875
 10
-180.657394
 20
957.114136
 10
-181.146988
 20
957.09082
 10
-181.641739
 20
957.090454
 10
-182.131668
 20
957.112976
 10
-182.606842
 20
957.157104
 10
-183.057632
 20
957.218323
 10
-183.474594
 20
957.291992
 10
-183.851944
 20
957.372437
 10
-184.186249
 20
957.453552
 10
-184.469498
 20
957.530029
 10
-184.695297
 20
957.59668
 10
-184.862228
 20
957.648376
 10
-184.967102
 20
957.681274
 10
-185.002487
 20
957.693176
  0
LINE
  5
236
330
1EB
100
AcDbEntity
  8
0
  6
Continuous
 62
     0
370
    30
100
AcDbLine
 10
-188.902486
 20
957.693165
 30
0.0
 11
-188.902486
 21
935.693165
 31
0.0
  0
LWPOLYLINE
  5
237
330
1EB
100
AcDbEntity
  8
0
  6
Continuous
 62
     0
370
     0
100
AcDbPolyline
 90
       24
 70
     0
 43
0.0
 10
-185.002487
 20
935.693176
 10
-184.969406
 20
935.704346
 10
-184.866684
 20
935.736572
 10
-184.701675
 20
935.78772
 10
-184.477753
 20
935.853943
 10
-184.196289
 20
935.930176
 10
-183.863464
 20
936.01123
 10
-183.487381
 20
936.091797
 10
-183.071594
 20
936.165771
 10
-182.621719
 20
936.227539
 10
-182.147171
 20
936.272217
 10
-181.657547
 20
936.295532
 10
-181.162735
 20
936.295837
 10
-180.672791
 20
936.273254
 10
-180.197586
 20
936.229187
 10
-179.74678
 20
936.167908
 10
-179.329849
 20
936.094238
 10
-178.952545
 20
936.013794
 10
-178.61824
 20
935.932617
 10
-178.335022
 20
935.856201
 10
-178.109283
 20
935.789612
 10
-177.942459
 20
935.737854
 10
-177.837723
 20
935.705017
 10
-177.80249
 20
935.693176
  0
LWPOLYLINE
  5
238
330
1EB
100
AcDbEntity
  8
0
  6
Continuous
 62
     0
370
     0
100
AcDbPolyline
 90
       23
 70
     0
 43
0.0
 10
-185.002487
 20
946.693176
 10
-184.96611
 20
947.207947
 10
-184.853821
 20
947.71283
 10
-184.673874
 20
948.195007
 10
-184.429565
 20
948.644043
 10
-184.122971
 20
949.051025
 10
-183.762405
 20
949.410461
 10
-183.355942
 20
949.717041
 10
-182.907333
 20
949.963623
 10
-182.425095
 20
950.144714
 10
-181.920212
 20
950.255493
 10
-181.403854
 20
950.292664
 10
-180.887436
 20
950.255859
 10
-180.382446
 20
950.145447
 10
-179.900024
 20
949.964783
 10
-179.451218
 20
949.718506
 10
-179.044556
 20
949.412231
 10
-178.683731
 20
949.05304
 10
-178.376785
 20
948.646301
 10
-178.132126
 20
948.197449
 10
-177.951874
 20
947.715454
 10
-177.839249
 20
947.210693
 10
-177.80249
 20
946.692322
  0
LWPOLYLINE
  5
239
330
1EB
100
AcDbEntity
  8
0
  6
Continuous
 62
     0
370
     0
100
AcDbPolyline
 90
       23
 70
     0
 43
0.0
 10
-177.80249
 20
946.692322
 10
-177.838943
 20
946.177612
 10
-177.951279
 20
945.672852
 10
-178.131256
 20
945.190796
 10
-178.375626
 20
944.741882
 10
-178.682251
 20
944.335022
 10
-179.042801
 20
943.975647
 10
-179.449188
 20
943.669128
 10
-179.897736
 20
943.422607
 10
-180.379929
 20
943.241638
 10
-180.88475
 20
943.130859
 10
-181.401047
 20
943.093689
 10
-181.917374
 20
943.130432
 10
-182.422287
 20
943.240784
 10
-182.904633
 20
943.421448
 10
-183.353409
 20
943.667603
 10
-183.760056
 20
943.973755
 10
-184.120865
 20
944.332886
 10
-184.42778
 20
944.739502
 10
-184.67247
 20
945.188232
 10
-184.852829
 20
945.670166
 10
-184.965576
 20
946.174805
 10
-185.002487
 20
946.693176
  0
ARC
  5
23A
330
1EB
100
AcDbEntity
  8
0
  6
Continuous
 62
     0
370
    30
100
AcDbCircle
 10
-175.802512
 20
923.091966
 30
0.0
 40
12.63872873019698
100
AcDbArc
 50
85.583477
 51
94.416523
  0
LWPOLYLINE
  5
23B
330
1EB
100
AcDbEntity
  8
0
  6
Continuous
 62
     0
370
    30
100
AcDbPolyline
 90
       23
 70
     0
 43
0.0
 10
-177.902481
 20
935.693176
 10
-177.938477
 20
935.70459
 10
-178.04538
 20
935.737793
 10
-178.220352
 20
935.790161
 10
-178.459106
 20
935.857422
 10
-178.756393
 20
935.934387
 10
-179.106415
 20
936.015076
 10
-179.502792
 20
936.093201
 10
-179.938431
 20
936.162598
 10
-180.40538
 20
936.217285
 10
-180.894302
 20
936.252441
 10
-181.394684
 20
936.264832
 10
-181.895264
 20
936.253174
 10
-182.38475
 20
936.218689
 10
-182.852341
 20
936.16449
 10
-183.288849
 20
936.095398
 10
-183.686737
 20
936.017456
 10
-184.038528
 20
935.93689
 10
-184.337509
 20
935.85968
 10
-184.578125
 20
935.792053
 10
-184.755173
 20
935.739136
 10
-184.864243
 20
935.705261
 10
-184.902466
 20
935.693176
  0
LWPOLYLINE
  5
23C
330
1EB
100
AcDbEntity
  8
0
  6
Continuous
 62
     0
370
    30
100
AcDbPolyline
 90
       19
 70
     0
 43
0.0
 10
-184.902512
 20
957.693176
 10
-184.866089
 20
957.681519
 10
-184.758301
 20
957.647949
 10
-184.582367
 20
957.59552
 10
-184.34201
 20
957.527832
 10
-184.042725
 20
957.4505
 10
-183.690628
 20
957.369568
 10
-183.291946
 20
957.291321
 10
-182.853806
 20
957.221985
 10
-182.38446
 20
957.167603
 10
-181.893295
 20
957.133057
 10
-181.390961
 20
957.121521
 10
-180.888885
 20
957.134155
 10
-180.398514
 20
957.169739
 10
-179.930359
 20
957.224854
 10
-179.493942
 20
957.294739
 10
-179.09726
 20
957.373291
 10
-178.747208
 20
957.454224
 10
-178.444763
 20
957.532837
  0
LWPOLYLINE
  5
23D
330
1EB
100
AcDbEntity
  8
0
  6
Continuous
 62
     0
370
    30
100
AcDbPolyline
 90
        5
 70
     0
 43
0.0
 10
-178.444763
 20
957.532837
 10
-178.214951
 20
957.597778
 10
-178.045578
 20
957.648438
 10
-177.940567
 20
957.681091
 10
-177.902481
 20
957.693176
  0
LINE
  5
23E
330
1EB
100
AcDbEntity
  8
0
  6
Continuous
 62
     0
370
    30
100
AcDbLine
 10
-177.902513
 20
911.593161
 30
0.0
 11
-182.084215
 21
911.593161
 31
0.0
  0
LINE
  5
23F
330
1EB
100
AcDbEntity
  8
0
  6
Continuous
 62
     0
370
    30
100
AcDbLine
 10
-182.084215
 20
911.593161
 30
0.0
 11
-184.902451
 21
911.593161
 31
0.0
  0
ARC
  5
240
330
1EB
100
AcDbEntity
  8
0
  6
Continuous
 62
     0
370
    30
100
AcDbCircle
 10
-181.402443
 20
946.693188
 30
0.0
 40
3.500000000324053
100
AcDbArc
 50
301.467639
 51
121.469198
  0
ARC
  5
241
330
1EB
100
AcDbEntity
  8
0
  6
Continuous
 62
     0
370
    30
100
AcDbCircle
 10
-181.402524
 20
946.693139
 30
0.0
 40
3.500000000324038
100
AcDbArc
 50
121.467639
 51
301.469198
  0
LINE
  5
242
330
1EB
100
AcDbEntity
  8
0
  6
Continuous
 62
     0
370
    30
100
AcDbLine
 10
-178.444766
 20
981.793196
 30
0.0
 11
-177.902472
 21
981.793196
 31
0.0
  0
LWPOLYLINE
  5
243
330
1EB
100
AcDbEntity
  8
0
  6
Continuous
 62
     0
370
    30
100
AcDbPolyline
 90
       19
 70
     0
 43
0.0
 10
-184.902496
 20
981.793213
 10
-184.86676
 20
981.793213
 10
-184.760574
 20
981.793213
 10
-184.586166
 20
981.793213
 10
-184.346924
 20
981.793213
 10
-184.047943
 20
981.793213
 10
-183.695023
 20
981.793213
 10
-183.295609
 20
981.793213
 10
-182.857605
 20
981.793213
 10
-182.390076
 20
981.793213
 10
-181.902435
 20
981.793213
 10
-181.404617
 20
981.793213
 10
-180.906799
 20
981.793213
 10
-180.419006
 20
981.793213
 10
-179.951248
 20
981.793213
 10
-179.513016
 20
981.793213
 10
-179.113129
 20
981.793213
 10
-178.759888
 20
981.793213
 10
-178.444763
 20
981.793213
  0
LINE
  5
244
330
1EB
100
AcDbEntity
  8
0
  6
Continuous
 62
     0
370
    30
100
AcDbLine
 10
-177.902482
 20
981.793196
 30
0.0
 11
-177.902482
 21
957.693118
 31
0.0
  0
LINE
  5
245
330
1EB
100
AcDbEntity
  8
0
  6
Continuous
 62
     0
370
    30
100
AcDbLine
 10
-184.902482
 20
957.693123
 30
0.0
 11
-184.902482
 21
981.793196
 31
0.0
  0
LINE
  5
246
330
1EB
100
AcDbEntity
  8
0
  6
Continuous
 62
     0
370
    30
100
AcDbLine
 10
-177.902482
 20
911.593161
 30
0.0
 11
-177.902482
 21
935.693167
 31
0.0
  0
LINE
  5
247
330
1EB
100
AcDbEntity
  8
0
  6
Continuous
 62
     0
370
    30
100
AcDbLine
 10
-184.902482
 20
935.693165
 30
0.0
 11
-184.902482
 21
911.593161
 31
0.0
  0
LINE
  5
248
330
1EB
100
AcDbEntity
  8
0
  6
Continuous
 62
     0
370
    30
100
AcDbLine
 10
-185.002486
 20
957.693165
 30
0.0
 11
-184.90229
 21
957.693165
 31
0.0
  0
LINE
  5
249
330
1EB
100
AcDbEntity
  8
0
  6
Continuous
 62
     0
370
    30
100
AcDbLine
 10
-177.802486
 20
957.693165
 30
0.0
 11
-177.902743
 21
957.693165
 31
0.0
  0
LINE
  5
24A
330
1EB
100
AcDbEntity
  8
0
  6
Continuous
 62
     0
370
    30
100
AcDbLine
 10
-185.002486
 20
935.693165
 30
0.0
 11
-184.902303
 21
935.693165
 31
0.0
  0
LINE
  5
24B
330
1EB
100
AcDbEntity
  8
0
  6
Continuous
 62
     0
370
    30
100
AcDbLine
 10
-158.402486
 20
935.693165
 30
0.0
 11
-174.829247
 21
935.693165
 31
0.0
  0
LINE
  5
24C
330
1EB
100
AcDbEntity
  8
0
  6
Continuous
 62
     0
370
    30
100
AcDbLine
 10
-188.902486
 20
935.693165
 30
0.0
 11
-185.002486
 21
935.693165
 31
0.0
  0
LINE
  5
24D
330
1EB
100
AcDbEntity
  8
0
  6
Continuous
 62
     0
370
    30
100
AcDbLine
 10
-177.802478
 20
935.693165
 30
0.0
 11
-176.775777
 21
935.693165
 31
0.0
  0
LINE
  5
24E
330
1EB
100
AcDbEntity
  8
0
  6
Continuous
 62
     0
370
    30
100
AcDbLine
 10
-158.402486
 20
940.943165
 30
0.0
 11
-153.502485
 21
940.943165
 31
0.0
  0
LINE
  5
24F
330
1EB
100
AcDbEntity
  8
0
  6
Continuous
 62
     0
370
    30
100
AcDbLine
 10
-153.502486
 20
962.693164
 30
0.0
 11
-126.502473
 21
962.693166
 31
0.0
  0
LINE
  5
250
330
1EB
100
AcDbEntity
  8
0
  6
Continuous
 62
     0
370
    30
100
AcDbLine
 10
-126.502484
 20
974.193166
 30
0.0
 11
-122.502484
 21
974.193166
 31
0.0
  0
LINE
  5
251
330
1EB
100
AcDbEntity
  8
0
  6
Continuous
 62
     0
370
    30
100
AcDbLine
 10
-126.502484
 20
919.193166
 30
0.0
 11
-122.502484
 21
919.193166
 31
0.0
  0
LWPOLYLINE
  5
252
330
1EB
100
AcDbEntity
  8
0
  6
Continuous
 62
     0
370
    30
100
AcDbPolyline
 90
        9
 70
     0
 43
0.0
 10
-126.502525
 20
1074.192261
 10
-126.502525
 20
1074.162354
 10
-126.502525
 20
1074.07373
 10
-126.502525
 20
1073.928955
 10
-126.502525
 20
1073.730469
 10
-126.502525
 20
1073.480957
 10
-126.502525
 20
1073.183472
 10
-126.502525
 20
1072.841187
 10
-126.502533
 20
1072.394531
  0
LINE
  5
253
330
1EB
100
AcDbEntity
  8
0
  6
Continuous
 62
     0
370
    30
100
AcDbLine
 10
-126.502529
 20
1072.394548
 30
0.0
 11
-126.502529
 21
1019.192298
 31
0.0
  0
LWPOLYLINE
  5
254
330
1EB
100
AcDbEntity
  8
0
  6
Continuous
 62
     0
370
    30
100
AcDbPolyline
 90
       55
 70
     0
 43
0.0
 10
-122.502525
 20
1019.192322
 10
-122.502525
 20
1019.229248
 10
-122.502525
 20
1019.341492
 10
-122.502525
 20
1019.530579
 10
-122.502525
 20
1019.797546
 10
-122.502525
 20
1020.1427
 10
-122.502525
 20
1020.565674
 10
-122.502533
 20
1021.065552
 10
-122.502533
 20
1021.640564
 10
-122.502533
 20
1022.28833
 10
-122.502533
 20
1023.00592
 10
-122.502533
 20
1023.789673
 10
-122.502533
 20
1024.635498
 10
-122.502533
 20
1025.53894
 10
-122.502533
 20
1026.494873
 10
-122.502533
 20
1027.498169
 10
-122.502533
 20
1028.543213
 10
-122.502533
 20
1029.624512
 10
-122.502533
 20
1030.73645
 10
-122.502533
 20
1031.873291
 10
-122.502533
 20
1033.029541
 10
-122.502533
 20
1034.199829
 10
-122.502533
 20
1035.379028
 10
-122.502533
 20
1036.562256
 10
-122.502533
 20
1037.756226
 10
-122.502533
 20
1038.990112
 10
-122.502533
 20
1040.263306
 10
-122.502533
 20
1041.572632
 10
-122.502533
 20
1042.914795
 10
-122.502533
 20
1044.285767
 10
-122.502533
 20
1045.68103
 10
-122.502533
 20
1047.095703
 10
-122.502533
 20
1048.524414
 10
-122.502533
 20
1049.961548
 10
-122.502533
 20
1051.401123
 10
-122.502533
 20
1052.837036
 10
-122.502533
 20
1054.262939
 10
-122.502533
 20
1055.672485
 10
-122.502533
 20
1057.059448
 10
-122.502533
 20
1058.41748
 10
-122.502533
 20
1059.740845
 10
-122.502533
 20
1061.023804
 10
-122.502533
 20
1062.261108
 10
-122.502533
 20
1063.447998
 10
-122.502533
 20
1064.580322
 10
-122.502533
 20
1065.654297
 10
-122.502533
 20
1066.666992
 10
-122.502533
 20
1067.615723
 10
-122.502533
 20
1068.498779
 10
-122.502533
 20
1069.314941
 10
-122.502533
 20
1070.063599
 10
-122.502533
 20
1070.744629
 10
-122.502533
 20
1071.358521
 10
-122.502533
 20
1071.90625
 10
-122.502533
 20
1072.394531
  0
LINE
  5
255
330
1EB
100
AcDbEntity
  8
0
  6
Continuous
 62
     0
370
    30
100
AcDbLine
 10
-122.502529
 20
1072.394548
 30
0.0
 11
-122.502529
 21
1074.192298
 31
0.0
  0
LWPOLYLINE
  5
256
330
1EB
100
AcDbEntity
  8
0
  6
Continuous
 62
     0
370
    30
100
AcDbPolyline
 90
       46
 70
     0
 43
0.0
 10
-153.502533
 20
1030.692261
 10
-153.502533
 20
1030.731201
 10
-153.502533
 20
1030.848022
 10
-153.502533
 20
1031.041748
 10
-153.502533
 20
1031.311523
 10
-153.502533
 20
1031.656372
 10
-153.502533
 20
1032.074707
 10
-153.502533
 20
1032.563965
 10
-153.502533
 20
1033.121826
 10
-153.502533
 20
1033.745728
 10
-153.502533
 20
1034.432983
 10
-153.502533
 20
1035.179932
 10
-153.502533
 20
1035.982788
 10
-153.502533
 20
1036.837524
 10
-153.502533
 20
1037.740479
 10
-153.502533
 20
1038.687134
 10
-153.502533
 20
1039.672729
 10
-153.502533
 20
1040.692383
 10
-153.502533
 20
1041.741211
 10
-153.502533
 20
1042.814209
 10
-153.502533
 20
1043.906128
 10
-153.502533
 20
1045.011597
 10
-153.502533
 20
1046.125244
 10
-153.502533
 20
1047.241577
 10
-153.502533
 20
1048.355225
 10
-153.502533
 20
1049.460815
 10
-153.502533
 20
1050.553101
 10
-153.502533
 20
1051.626465
 10
-153.502533
 20
1052.675659
 10
-153.502533
 20
1053.695801
 10
-153.502533
 20
1054.681885
 10
-153.502533
 20
1055.629272
 10
-153.502533
 20
1056.532959
 10
-153.502533
 20
1057.38855
 10
-153.502533
 20
1058.192261
 10
-153.502533
 20
1058.940186
 10
-153.502533
 20
1059.628418
 10
-153.502533
 20
1060.253296
 10
-153.502533
 20
1060.812134
 10
-153.502533
 20
1061.302612
 10
-153.502533
 20
1061.722046
 10
-153.502533
 20
1062.068115
 10
-153.502533
 20
1062.339111
 10
-153.502533
 20
1062.534058
 10
-153.502533
 20
1062.6521
 10
-153.502533
 20
1062.692261
  0
LINE
  5
257
330
1EB
100
AcDbEntity
  8
0
  6
Continuous
 62
     0
370
    30
100
AcDbLine
 10
-153.502527
 20
1030.692296
 30
0.0
 11
-126.502515
 21
1030.692298
 31
0.0
  0
LINE
  5
258
330
1EB
100
AcDbEntity
  8
0
  6
Continuous
 62
     0
370
    30
100
AcDbLine
 10
-153.502529
 20
1052.442297
 30
0.0
 11
-158.40253
 21
1052.442297
 31
0.0
  0
LWPOLYLINE
  5
259
330
1EB
100
AcDbEntity
  8
0
  6
Continuous
 62
     0
370
    30
100
AcDbPolyline
 90
       38
 70
     0
 43
0.0
 10
-158.402527
 20
1057.692261
 10
-158.402527
 20
1057.65271
 10
-158.402527
 20
1057.534058
 10
-158.402527
 20
1057.337524
 10
-158.402527
 20
1057.064331
 10
-158.402527
 20
1056.716064
 10
-158.402527
 20
1056.295898
 10
-158.402527
 20
1055.806763
 10
-158.402527
 20
1055.251709
 10
-158.402527
 20
1054.634888
 10
-158.402527
 20
1053.96106
 10
-158.402527
 20
1053.234985
 10
-158.402527
 20
1052.461548
 10
-158.402527
 20
1051.646606
 10
-158.402527
 20
1050.796143
 10
-158.402527
 20
1049.916016
 10
-158.402527
 20
1049.012695
 10
-158.402527
 20
1048.092651
 10
-158.402527
 20
1047.162476
 10
-158.402527
 20
1046.229004
 10
-158.402527
 20
1045.298828
 10
-158.402527
 20
1044.378662
 10
-158.402527
 20
1043.475098
 10
-158.402527
 20
1042.594849
 10
-158.402527
 20
1041.744141
 10
-158.402527
 20
1040.928833
 10
-158.402527
 20
1040.155151
 10
-158.402527
 20
1039.428711
 10
-158.402527
 20
1038.754395
 10
-158.402527
 20
1038.137207
 10
-158.402527
 20
1037.581665
 10
-158.402527
 20
1037.092041
 10
-158.402527
 20
1036.671387
 10
-158.402527
 20
1036.322632
 10
-158.402527
 20
1036.048706
 10
-158.402527
 20
1035.851685
 10
-158.402527
 20
1035.732544
 10
-158.402527
 20
1035.692261
  0
LINE
  5
25A
330
1EB
100
AcDbEntity
  8
0
  6
Continuous
 62
     0
370
    30
100
AcDbLine
 10
-188.90253
 20
1057.692297
 30
0.0
 11
-185.00253
 21
1057.692297
 31
0.0
  0
LINE
  5
25B
330
1EB
100
AcDbEntity
  8
0
  6
Continuous
 62
     0
370
    30
100
AcDbLine
 10
-177.80253
 20
1057.692297
 30
0.0
 11
-158.40253
 21
1057.692297
 31
0.0
  0
LWPOLYLINE
  5
25C
330
1EB
100
AcDbEntity
  8
0
  6
Continuous
 62
     0
370
     0
100
AcDbPolyline
 90
       24
 70
     0
 43
0.0
 10
-177.802536
 20
1057.692261
 10
-177.835648
 20
1057.681152
 10
-177.938324
 20
1057.648926
 10
-178.103256
 20
1057.597778
 10
-178.327118
 20
1057.531494
 10
-178.608566
 20
1057.455322
 10
-178.941391
 20
1057.374268
 10
-179.317383
 20
1057.293701
 10
-179.733078
 20
1057.219727
 10
-180.182907
 20
1057.157959
 10
-180.65744
 20
1057.113281
 10
-181.147034
 20
1057.089966
 10
-181.641785
 20
1057.0896
 10
-182.131714
 20
1057.112183
 10
-182.606888
 20
1057.15625
 10
-183.057678
 20
1057.217529
 10
-183.47464
 20
1057.291138
 10
-183.85199
 20
1057.371582
 10
-184.186295
 20
1057.452759
 10
-184.469543
 20
1057.529175
 10
-184.695343
 20
1057.595825
 10
-184.862274
 20
1057.647583
 10
-184.967148
 20
1057.68042
 10
-185.002533
 20
1057.692261
  0
LINE
  5
25D
330
1EB
100
AcDbEntity
  8
0
  6
Continuous
 62
     0
370
    30
100
AcDbLine
 10
-188.90253
 20
1057.692297
 30
0.0
 11
-188.90253
 21
1035.692297
 31
0.0
  0
LWPOLYLINE
  5
25E
330
1EB
100
AcDbEntity
  8
0
  6
Continuous
 62
     0
370
     0
100
AcDbPolyline
 90
       24
 70
     0
 43
0.0
 10
-185.002533
 20
1035.692261
 10
-184.969452
 20
1035.703491
 10
-184.86673
 20
1035.735718
 10
-184.701721
 20
1035.786865
 10
-184.477798
 20
1035.853027
 10
-184.196335
 20
1035.929321
 10
-183.86351
 20
1036.010376
 10
-183.487427
 20
1036.090942
 10
-183.07164
 20
1036.164917
 10
-182.621765
 20
1036.226685
 10
-182.147217
 20
1036.271362
 10
-181.657593
 20
1036.294678
 10
-181.162781
 20
1036.295044
 10
-180.672836
 20
1036.272461
 10
-180.197632
 20
1036.228271
 10
-179.746826
 20
1036.166992
 10
-179.329895
 20
1036.093384
 10
-178.952591
 20
1036.012939
 10
-178.618286
 20
1035.931763
 10
-178.335068
 20
1035.855347
 10
-178.109329
 20
1035.788696
 10
-177.942505
 20
1035.737061
 10
-177.837769
 20
1035.704102
 10
-177.802536
 20
1035.692261
  0
LWPOLYLINE
  5
25F
330
1EB
100
AcDbEntity
  8
0
  6
Continuous
 62
     0
370
     0
100
AcDbPolyline
 90
       23
 70
     0
 43
0.0
 10
-185.002533
 20
1046.692261
 10
-184.966156
 20
1047.207153
 10
-184.853867
 20
1047.711914
 10
-184.67392
 20
1048.194092
 10
-184.429611
 20
1048.643188
 10
-184.123016
 20
1049.050171
 10
-183.762451
 20
1049.409668
 10
-183.355988
 20
1049.716187
 10
-182.907364
 20
1049.962769
 10
-182.42514
 20
1050.143799
 10
-181.920258
 20
1050.254639
 10
-181.403885
 20
1050.291748
 10
-180.887482
 20
1050.255005
 10
-180.382492
 20
1050.144531
 10
-179.90007
 20
1049.963867
 10
-179.451263
 20
1049.717651
 10
-179.044601
 20
1049.411377
 10
-178.683777
 20
1049.052124
 10
-178.376831
 20
1048.645386
 10
-178.132172
 20
1048.196655
 10
-177.95192
 20
1047.7146
 10
-177.839294
 20
1047.209839
 10
-177.802536
 20
1046.691406
  0
LWPOLYLINE
  5
260
330
1EB
100
AcDbEntity
  8
0
  6
Continuous
 62
     0
370
     0
100
AcDbPolyline
 90
       23
 70
     0
 43
0.0
 10
-177.802536
 20
1046.691406
 10
-177.838989
 20
1046.176758
 10
-177.951324
 20
1045.671997
 10
-178.131302
 20
1045.189941
 10
-178.375656
 20
1044.740967
 10
-178.682297
 20
1044.334106
 10
-179.042847
 20
1043.974731
 10
-179.449234
 20
1043.668213
 10
-179.897781
 20
1043.421753
 10
-180.379974
 20
1043.240723
 10
-180.884796
 20
1043.130005
 10
-181.401093
 20
1043.092773
 10
-181.917419
 20
1043.129639
 10
-182.422333
 20
1043.23999
 10
-182.904678
 20
1043.420532
 10
-183.353455
 20
1043.666748
 10
-183.760101
 20
1043.9729
 10
-184.120911
 20
1044.332031
 10
-184.427826
 20
1044.738647
 10
-184.672516
 20
1045.187378
 10
-184.852875
 20
1045.669312
 10
-184.965622
 20
1046.17395
 10
-185.002533
 20
1046.692261
  0
ARC
  5
261
330
1EB
100
AcDbEntity
  8
0
  6
Continuous
 62
     0
370
    30
100
AcDbCircle
 10
-175.802556
 20
1023.091098
 30
0.0
 40
12.63872873033363
100
AcDbArc
 50
85.583477
 51
94.416523
  0
LWPOLYLINE
  5
262
330
1EB
100
AcDbEntity
  8
0
  6
Continuous
 62
     0
370
    30
100
AcDbPolyline
 90
       23
 70
     0
 43
0.0
 10
-177.902527
 20
1035.692261
 10
-177.938522
 20
1035.703735
 10
-178.04541
 20
1035.736938
 10
-178.220398
 20
1035.789307
 10
-178.459152
 20
1035.856567
 10
-178.756439
 20
1035.933472
 10
-179.106461
 20
1036.01416
 10
-179.502838
 20
1036.092285
 10
-179.938477
 20
1036.161743
 10
-180.405426
 20
1036.216431
 10
-180.894348
 20
1036.251587
 10
-181.39473
 20
1036.263916
 10
-181.895309
 20
1036.252319
 10
-182.384796
 20
1036.217773
 10
-182.852386
 20
1036.163574
 10
-183.288895
 20
1036.094482
 10
-183.686768
 20
1036.016602
 10
-184.038574
 20
1035.936035
 10
-184.337555
 20
1035.858765
 10
-184.578171
 20
1035.791138
 10
-184.755219
 20
1035.738281
 10
-184.864288
 20
1035.704468
 10
-184.902512
 20
1035.692261
  0
LWPOLYLINE
  5
263
330
1EB
100
AcDbEntity
  8
0
  6
Continuous
 62
     0
370
    30
100
AcDbPolyline
 90
       19
 70
     0
 43
0.0
 10
-184.902542
 20
1057.692383
 10
-184.866135
 20
1057.680664
 10
-184.758347
 20
1057.647095
 10
-184.582413
 20
1057.594604
 10
-184.342056
 20
1057.526978
 10
-184.04277
 20
1057.449585
 10
-183.690674
 20
1057.368652
 10
-183.291992
 20
1057.290405
 10
-182.853851
 20
1057.221191
 10
-182.384506
 20
1057.166748
 10
-181.893341
 20
1057.132202
 10
-181.391006
 20
1057.120605
 10
-180.888931
 20
1057.133301
 10
-180.398544
 20
1057.168823
 10
-179.930389
 20
1057.223999
 10
-179.493988
 20
1057.293823
 10
-179.097305
 20
1057.372437
 10
-178.747253
 20
1057.453369
 10
-178.444809
 20
1057.531982
  0
LWPOLYLINE
  5
264
330
1EB
100
AcDbEntity
  8
0
  6
Continuous
 62
     0
370
    30
100
AcDbPolyline
 90
        5
 70
     0
 43
0.0
 10
-178.444809
 20
1057.531982
 10
-178.214996
 20
1057.596924
 10
-178.045624
 20
1057.647583
 10
-177.940613
 20
1057.680176
 10
-177.902527
 20
1057.692261
  0
LINE
  5
265
330
1EB
100
AcDbEntity
  8
0
  6
Continuous
 62
     0
370
    30
100
AcDbLine
 10
-177.902558
 20
1011.592293
 30
0.0
 11
-182.08426
 21
1011.592293
 31
0.0
  0
LINE
  5
266
330
1EB
100
AcDbEntity
  8
0
  6
Continuous
 62
     0
370
    30
100
AcDbLine
 10
-182.08426
 20
1011.592293
 30
0.0
 11
-184.902495
 21
1011.592293
 31
0.0
  0
ARC
  5
267
330
1EB
100
AcDbEntity
  8
0
  6
Continuous
 62
     0
370
    30
100
AcDbCircle
 10
-181.402487
 20
1046.69232
 30
0.0
 40
3.500000000324053
100
AcDbArc
 50
301.467639
 51
121.469198
  0
ARC
  5
268
330
1EB
100
AcDbEntity
  8
0
  6
Continuous
 62
     0
370
    30
100
AcDbCircle
 10
-181.402569
 20
1046.692271
 30
0.0
 40
3.500000000324053
100
AcDbArc
 50
121.467639
 51
301.469198
  0
LINE
  5
269
330
1EB
100
AcDbEntity
  8
0
  6
Continuous
 62
     0
370
    30
100
AcDbLine
 10
-178.44481
 20
1081.792328
 30
0.0
 11
-177.902516
 21
1081.792328
 31
0.0
  0
LWPOLYLINE
  5
26A
330
1EB
100
AcDbEntity
  8
0
  6
Continuous
 62
     0
370
    30
100
AcDbPolyline
 90
       19
 70
     0
 43
0.0
 10
-184.902542
 20
1081.792358
 10
-184.866806
 20
1081.792358
 10
-184.76062
 20
1081.792358
 10
-184.586212
 20
1081.792358
 10
-184.34697
 20
1081.792358
 10
-184.047974
 20
1081.792358
 10
-183.695068
 20
1081.792358
 10
-183.295654
 20
1081.792358
 10
-182.857651
 20
1081.792358
 10
-182.390106
 20
1081.792358
 10
-181.902481
 20
1081.792358
 10
-181.404663
 20
1081.792358
 10
-180.90683
 20
1081.792358
 10
-180.419052
 20
1081.792358
 10
-179.951294
 20
1081.792358
 10
-179.513062
 20
1081.792358
 10
-179.113174
 20
1081.792358
 10
-178.759933
 20
1081.792358
 10
-178.444809
 20
1081.792358
  0
LINE
  5
26B
330
1EB
100
AcDbEntity
  8
0
  6
Continuous
 62
     0
370
    30
100
AcDbLine
 10
-177.902526
 20
1081.792328
 30
0.0
 11
-177.902526
 21
1057.69225
 31
0.0
  0
LINE
  5
26C
330
1EB
100
AcDbEntity
  8
0
  6
Continuous
 62
     0
370
    30
100
AcDbLine
 10
-184.902526
 20
1057.692255
 30
0.0
 11
-184.902526
 21
1081.792328
 31
0.0
  0
LINE
  5
26D
330
1EB
100
AcDbEntity
  8
0
  6
Continuous
 62
     0
370
    30
100
AcDbLine
 10
-177.902526
 20
1011.592293
 30
0.0
 11
-177.902526
 21
1035.692299
 31
0.0
  0
LINE
  5
26E
330
1EB
100
AcDbEntity
  8
0
  6
Continuous
 62
     0
370
    30
100
AcDbLine
 10
-184.902526
 20
1035.692297
 30
0.0
 11
-184.902526
 21
1011.592293
 31
0.0
  0
LINE
  5
26F
330
1EB
100
AcDbEntity
  8
0
  6
Continuous
 62
     0
370
    30
100
AcDbLine
 10
-185.00253
 20
1057.692297
 30
0.0
 11
-184.902335
 21
1057.692297
 31
0.0
  0
LINE
  5
270
330
1EB
100
AcDbEntity
  8
0
  6
Continuous
 62
     0
370
    30
100
AcDbLine
 10
-177.80253
 20
1057.692297
 30
0.0
 11
-177.902788
 21
1057.692297
 31
0.0
  0
LINE
  5
271
330
1EB
100
AcDbEntity
  8
0
  6
Continuous
 62
     0
370
    30
100
AcDbLine
 10
-185.00253
 20
1035.692297
 30
0.0
 11
-184.902347
 21
1035.692297
 31
0.0
  0
LINE
  5
272
330
1EB
100
AcDbEntity
  8
0
  6
Continuous
 62
     0
370
    30
100
AcDbLine
 10
-158.40253
 20
1035.692297
 30
0.0
 11
-174.829291
 21
1035.692297
 31
0.0
  0
LINE
  5
273
330
1EB
100
AcDbEntity
  8
0
  6
Continuous
 62
     0
370
    30
100
AcDbLine
 10
-188.90253
 20
1035.692297
 30
0.0
 11
-185.00253
 21
1035.692297
 31
0.0
  0
LINE
  5
274
330
1EB
100
AcDbEntity
  8
0
  6
Continuous
 62
     0
370
    30
100
AcDbLine
 10
-177.802523
 20
1035.692297
 30
0.0
 11
-176.775821
 21
1035.692297
 31
0.0
  0
LINE
  5
275
330
1EB
100
AcDbEntity
  8
0
  6
Continuous
 62
     0
370
    30
100
AcDbLine
 10
-158.40253
 20
1040.942297
 30
0.0
 11
-153.502529
 21
1040.942297
 31
0.0
  0
LINE
  5
276
330
1EB
100
AcDbEntity
  8
0
  6
Continuous
 62
     0
370
    30
100
AcDbLine
 10
-153.50253
 20
1062.692296
 30
0.0
 11
-126.502518
 21
1062.692298
 31
0.0
  0
LINE
  5
277
330
1EB
100
AcDbEntity
  8
0
  6
Continuous
 62
     0
370
    30
100
AcDbLine
 10
-126.502529
 20
1074.192298
 30
0.0
 11
-122.502529
 21
1074.192298
 31
0.0
  0
LINE
  5
278
330
1EB
100
AcDbEntity
  8
0
  6
Continuous
 62
     0
370
    30
100
AcDbLine
 10
-126.502529
 20
1019.192298
 30
0.0
 11
-122.502529
 21
1019.192298
 31
0.0
  0
LWPOLYLINE
  5
279
330
1EB
100
AcDbEntity
  8
0
  6
Continuous
 62
     0
370
    30
100
AcDbPolyline
 90
        9
 70
     0
 43
0.0
 10
-126.502571
 20
1174.191406
 10
-126.502571
 20
1174.161499
 10
-126.502571
 20
1174.072876
 10
-126.502571
 20
1173.928101
 10
-126.502571
 20
1173.729614
 10
-126.502571
 20
1173.480103
 10
-126.502571
 20
1173.182617
 10
-126.502571
 20
1172.840332
 10
-126.502571
 20
1172.393677
  0
LINE
  5
27A
330
1EB
100
AcDbEntity
  8
0
  6
Continuous
 62
     0
370
    30
100
AcDbLine
 10
-126.502574
 20
1172.39368
 30
0.0
 11
-126.502573
 21
1119.19143
 31
0.0
  0
LWPOLYLINE
  5
27B
330
1EB
100
AcDbEntity
  8
0
  6
Continuous
 62
     0
370
    30
100
AcDbPolyline
 90
       55
 70
     0
 43
0.0
 10
-122.502571
 20
1119.191406
 10
-122.502571
 20
1119.228394
 10
-122.502571
 20
1119.340576
 10
-122.502571
 20
1119.529663
 10
-122.502571
 20
1119.796631
 10
-122.502571
 20
1120.141846
 10
-122.502571
 20
1120.564819
 10
-122.502571
 20
1121.064697
 10
-122.502571
 20
1121.639648
 10
-122.502571
 20
1122.287476
 10
-122.502571
 20
1123.005005
 10
-122.502571
 20
1123.788818
 10
-122.502571
 20
1124.634644
 10
-122.502571
 20
1125.538086
 10
-122.502571
 20
1126.494019
 10
-122.502571
 20
1127.497314
 10
-122.502571
 20
1128.542358
 10
-122.502571
 20
1129.623657
 10
-122.502571
 20
1130.735596
 10
-122.502571
 20
1131.872437
 10
-122.502571
 20
1133.028564
 10
-122.502571
 20
1134.198853
 10
-122.502571
 20
1135.378174
 10
-122.502571
 20
1136.561401
 10
-122.502571
 20
1137.755371
 10
-122.502571
 20
1138.989258
 10
-122.502571
 20
1140.262451
 10
-122.502571
 20
1141.571777
 10
-122.502571
 20
1142.91394
 10
-122.502571
 20
1144.284912
 10
-122.502571
 20
1145.680176
 10
-122.502571
 20
1147.094727
 10
-122.502571
 20
1148.52356
 10
-122.502571
 20
1149.960693
 10
-122.502571
 20
1151.400269
 10
-122.502571
 20
1152.836182
 10
-122.502571
 20
1154.262085
 10
-122.502571
 20
1155.671631
 10
-122.502571
 20
1157.058472
 10
-122.502571
 20
1158.416626
 10
-122.502571
 20
1159.73999
 10
-122.502571
 20
1161.022827
 10
-122.502571
 20
1162.260254
 10
-122.502571
 20
1163.447144
 10
-122.502571
 20
1164.579468
 10
-122.502571
 20
1165.653442
 10
-122.502571
 20
1166.666138
 10
-122.502571
 20
1167.614868
 10
-122.502571
 20
1168.497925
 10
-122.502571
 20
1169.314087
 10
-122.502571
 20
1170.062744
 10
-122.502571
 20
1170.743774
 10
-122.502571
 20
1171.357666
 10
-122.502571
 20
1171.905396
 10
-122.502571
 20
1172.393677
  0
LINE
  5
27C
330
1EB
100
AcDbEntity
  8
0
  6
Continuous
 62
     0
370
    30
100
AcDbLine
 10
-122.502574
 20
1172.39368
 30
0.0
 11
-122.502573
 21
1174.19143
 31
0.0
  0
LWPOLYLINE
  5
27D
330
1EB
100
AcDbEntity
  8
0
  6
Continuous
 62
     0
370
    30
100
AcDbPolyline
 90
       46
 70
     0
 43
0.0
 10
-153.502579
 20
1130.691406
 10
-153.502579
 20
1130.730347
 10
-153.502579
 20
1130.847168
 10
-153.502579
 20
1131.040894
 10
-153.502579
 20
1131.310669
 10
-153.502579
 20
1131.655518
 10
-153.502579
 20
1132.073853
 10
-153.502579
 20
1132.56311
 10
-153.502579
 20
1133.120972
 10
-153.502579
 20
1133.744873
 10
-153.502579
 20
1134.432129
 10
-153.502579
 20
1135.179077
 10
-153.502579
 20
1135.981934
 10
-153.502579
 20
1136.83667
 10
-153.502579
 20
1137.739624
 10
-153.502579
 20
1138.686279
 10
-153.502579
 20
1139.671875
 10
-153.502579
 20
1140.691528
 10
-153.502579
 20
1141.740356
 10
-153.502579
 20
1142.813354
 10
-153.502579
 20
1143.905273
 10
-153.502579
 20
1145.010742
 10
-153.502579
 20
1146.124268
 10
-153.502579
 20
1147.240723
 10
-153.502579
 20
1148.35437
 10
-153.502579
 20
1149.459961
 10
-153.502579
 20
1150.552246
 10
-153.502579
 20
1151.62561
 10
-153.502579
 20
1152.674805
 10
-153.502579
 20
1153.694946
 10
-153.502579
 20
1154.68103
 10
-153.502579
 20
1155.628418
 10
-153.502579
 20
1156.532104
 10
-153.502579
 20
1157.387695
 10
-153.502579
 20
1158.191406
 10
-153.502579
 20
1158.939209
 10
-153.502579
 20
1159.627441
 10
-153.502579
 20
1160.252441
 10
-153.502579
 20
1160.811279
 10
-153.502579
 20
1161.301758
 10
-153.502579
 20
1161.721191
 10
-153.502579
 20
1162.067261
 10
-153.502579
 20
1162.338257
 10
-153.502579
 20
1162.533203
 10
-153.502579
 20
1162.651245
 10
-153.502579
 20
1162.691406
  0
LINE
  5
27E
330
1EB
100
AcDbEntity
  8
0
  6
Continuous
 62
     0
370
    30
100
AcDbLine
 10
-153.502572
 20
1130.691428
 30
0.0
 11
-126.50256
 21
1130.69143
 31
0.0
  0
LINE
  5
27F
330
1EB
100
AcDbEntity
  8
0
  6
Continuous
 62
     0
370
    30
100
AcDbLine
 10
-153.502574
 20
1152.441429
 30
0.0
 11
-158.402575
 21
1152.441429
 31
0.0
  0
LWPOLYLINE
  5
280
330
1EB
100
AcDbEntity
  8
0
  6
Continuous
 62
     0
370
    30
100
AcDbPolyline
 90
       38
 70
     0
 43
0.0
 10
-158.402573
 20
1157.691406
 10
-158.402573
 20
1157.651855
 10
-158.402573
 20
1157.533203
 10
-158.402573
 20
1157.33667
 10
-158.402573
 20
1157.063477
 10
-158.402573
 20
1156.71521
 10
-158.402573
 20
1156.295044
 10
-158.402573
 20
1155.805908
 10
-158.402573
 20
1155.250854
 10
-158.402573
 20
1154.634033
 10
-158.402573
 20
1153.960205
 10
-158.402573
 20
1153.234131
 10
-158.402573
 20
1152.460693
 10
-158.402573
 20
1151.645752
 10
-158.402573
 20
1150.795288
 10
-158.402573
 20
1149.915161
 10
-158.402573
 20
1149.011841
 10
-158.402573
 20
1148.091675
 10
-158.402573
 20
1147.161621
 10
-158.402573
 20
1146.228149
 10
-158.402573
 20
1145.297974
 10
-158.402573
 20
1144.377808
 10
-158.402573
 20
1143.474243
 10
-158.402573
 20
1142.593994
 10
-158.402573
 20
1141.743286
 10
-158.402573
 20
1140.927979
 10
-158.402573
 20
1140.154297
 10
-158.402573
 20
1139.427856
 10
-158.402573
 20
1138.75354
 10
-158.402573
 20
1138.136353
 10
-158.402573
 20
1137.580811
 10
-158.402573
 20
1137.091187
 10
-158.402573
 20
1136.67041
 10
-158.402573
 20
1136.321655
 10
-158.402573
 20
1136.047852
 10
-158.402573
 20
1135.85083
 10
-158.402573
 20
1135.731567
 10
-158.402573
 20
1135.691406
  0
LINE
  5
281
330
1EB
100
AcDbEntity
  8
0
  6
Continuous
 62
     0
370
    30
100
AcDbLine
 10
-188.902575
 20
1157.691429
 30
0.0
 11
-185.002575
 21
1157.691429
 31
0.0
  0
LINE
  5
282
330
1EB
100
AcDbEntity
  8
0
  6
Continuous
 62
     0
370
    30
100
AcDbLine
 10
-177.802575
 20
1157.691429
 30
0.0
 11
-158.402575
 21
1157.691429
 31
0.0
  0
LWPOLYLINE
  5
283
330
1EB
100
AcDbEntity
  8
0
  6
Continuous
 62
     0
370
     0
100
AcDbPolyline
 90
       24
 70
     0
 43
0.0
 10
-177.802582
 20
1157.691406
 10
-177.835693
 20
1157.680298
 10
-177.93837
 20
1157.648071
 10
-178.103302
 20
1157.596924
 10
-178.327164
 20
1157.53064
 10
-178.608612
 20
1157.454468
 10
-178.941437
 20
1157.373413
 10
-179.317429
 20
1157.292847
 10
-179.733124
 20
1157.218872
 10
-180.182953
 20
1157.157104
 10
-180.657486
 20
1157.112427
 10
-181.147079
 20
1157.089111
 10
-181.64183
 20
1157.088745
 10
-182.131744
 20
1157.111328
 10
-182.606934
 20
1157.155396
 10
-183.057724
 20
1157.216553
 10
-183.474686
 20
1157.290283
 10
-183.852036
 20
1157.370728
 10
-184.18634
 20
1157.451782
 10
-184.469589
 20
1157.52832
 10
-184.695389
 20
1157.594971
 10
-184.86232
 20
1157.646606
 10
-184.967194
 20
1157.679565
 10
-185.002579
 20
1157.691406
  0
LINE
  5
284
330
1EB
100
AcDbEntity
  8
0
  6
Continuous
 62
     0
370
    30
100
AcDbLine
 10
-188.902575
 20
1157.691429
 30
0.0
 11
-188.902575
 21
1135.691429
 31
0.0
  0
LWPOLYLINE
  5
285
330
1EB
100
AcDbEntity
  8
0
  6
Continuous
 62
     0
370
     0
100
AcDbPolyline
 90
       24
 70
     0
 43
0.0
 10
-185.002579
 20
1135.691406
 10
-184.969498
 20
1135.702637
 10
-184.86676
 20
1135.734863
 10
-184.701767
 20
1135.786011
 10
-184.477844
 20
1135.852173
 10
-184.196381
 20
1135.928467
 10
-183.863556
 20
1136.009521
 10
-183.487473
 20
1136.090088
 10
-183.071686
 20
1136.164062
 10
-182.621811
 20
1136.22583
 10
-182.147263
 20
1136.270508
 10
-181.657639
 20
1136.293823
 10
-181.162827
 20
1136.294067
 10
-180.672882
 20
1136.271606
 10
-180.197678
 20
1136.227417
 10
-179.746872
 20
1136.166138
 10
-179.329941
 20
1136.092529
 10
-178.952621
 20
1136.012085
 10
-178.618332
 20
1135.930908
 10
-178.335114
 20
1135.854492
 10
-178.109375
 20
1135.787842
 10
-177.942551
 20
1135.736084
 10
-177.837814
 20
1135.703247
 10
-177.802582
 20
1135.691406
  0
LWPOLYLINE
  5
286
330
1EB
100
AcDbEntity
  8
0
  6
Continuous
 62
     0
370
     0
100
AcDbPolyline
 90
       23
 70
     0
 43
0.0
 10
-185.002579
 20
1146.691406
 10
-184.966202
 20
1147.206177
 10
-184.853912
 20
1147.71106
 10
-184.673965
 20
1148.193237
 10
-184.429657
 20
1148.642334
 10
-184.123062
 20
1149.049316
 10
-183.762497
 20
1149.408691
 10
-183.356033
 20
1149.715332
 10
-182.90741
 20
1149.961914
 10
-182.425171
 20
1150.142944
 10
-181.920303
 20
1150.253784
 10
-181.403931
 20
1150.290894
 10
-180.887527
 20
1150.25415
 10
-180.382523
 20
1150.143677
 10
-179.900116
 20
1149.963013
 10
-179.451309
 20
1149.716797
 10
-179.044647
 20
1149.410522
 10
-178.683823
 20
1149.05127
 10
-178.376877
 20
1148.644531
 10
-178.132217
 20
1148.195679
 10
-177.951965
 20
1147.713745
 10
-177.83934
 20
1147.208984
 10
-177.802582
 20
1146.690552
  0
LWPOLYLINE
  5
287
330
1EB
100
AcDbEntity
  8
0
  6
Continuous
 62
     0
370
     0
100
AcDbPolyline
 90
       23
 70
     0
 43
0.0
 10
-177.802582
 20
1146.690552
 10
-177.839035
 20
1146.175903
 10
-177.95137
 20
1145.671143
 10
-178.131348
 20
1145.189087
 10
-178.375702
 20
1144.740112
 10
-178.682343
 20
1144.333252
 10
-179.042892
 20
1143.973877
 10
-179.44928
 20
1143.667358
 10
-179.897827
 20
1143.420898
 10
-180.38002
 20
1143.239868
 10
-180.884842
 20
1143.12915
 10
-181.401138
 20
1143.091919
 10
-181.917465
 20
1143.128662
 10
-182.422379
 20
1143.239014
 10
-182.904724
 20
1143.419678
 10
-183.3535
 20
1143.665894
 10
-183.760147
 20
1143.972046
 10
-184.120956
 20
1144.331177
 10
-184.427872
 20
1144.737793
 10
-184.672562
 20
1145.186523
 10
-184.852921
 20
1145.668457
 10
-184.965668
 20
1146.173096
 10
-185.002579
 20
1146.691406
  0
ARC
  5
288
330
1EB
100
AcDbEntity
  8
0
  6
Continuous
 62
     0
370
    30
100
AcDbCircle
 10
-175.802601
 20
1123.09023
 30
0.0
 40
12.6387287300659
100
AcDbArc
 50
85.583477
 51
94.416523
  0
LWPOLYLINE
  5
289
330
1EB
100
AcDbEntity
  8
0
  6
Continuous
 62
     0
370
    30
100
AcDbPolyline
 90
       23
 70
     0
 43
0.0
 10
-177.902573
 20
1135.691406
 10
-177.938568
 20
1135.702881
 10
-178.045456
 20
1135.736084
 10
-178.220444
 20
1135.788452
 10
-178.459198
 20
1135.855713
 10
-178.756485
 20
1135.932617
 10
-179.106506
 20
1136.013306
 10
-179.502869
 20
1136.091431
 10
-179.938522
 20
1136.160889
 10
-180.405457
 20
1136.215576
 10
-180.894394
 20
1136.250732
 10
-181.394775
 20
1136.263062
 10
-181.895355
 20
1136.251465
 10
-182.384842
 20
1136.216919
 10
-182.852432
 20
1136.16272
 10
-183.28894
 20
1136.093628
 10
-183.686813
 20
1136.015747
 10
-184.038605
 20
1135.935181
 10
-184.337601
 20
1135.85791
 10
-184.578201
 20
1135.790283
 10
-184.755264
 20
1135.737427
 10
-184.864334
 20
1135.703491
 10
-184.902557
 20
1135.691406
  0
LWPOLYLINE
  5
28A
330
1EB
100
AcDbEntity
  8
0
  6
Continuous
 62
     0
370
    30
100
AcDbPolyline
 90
       19
 70
     0
 43
0.0
 10
-184.902588
 20
1157.691406
 10
-184.86618
 20
1157.67981
 10
-184.758377
 20
1157.64624
 10
-184.582458
 20
1157.59375
 10
-184.342102
 20
1157.526123
 10
-184.042816
 20
1157.44873
 10
-183.69072
 20
1157.367798
 10
-183.292038
 20
1157.289551
 10
-182.853897
 20
1157.220337
 10
-182.384552
 20
1157.165894
 10
-181.893387
 20
1157.131348
 10
-181.391052
 20
1157.119751
 10
-180.888977
 20
1157.132446
 10
-180.39859
 20
1157.167969
 10
-179.930435
 20
1157.223145
 10
-179.494034
 20
1157.292969
 10
-179.097336
 20
1157.371582
 10
-178.747299
 20
1157.452515
 10
-178.444855
 20
1157.531128
  0
LWPOLYLINE
  5
28B
330
1EB
100
AcDbEntity
  8
0
  6
Continuous
 62
     0
370
    30
100
AcDbPolyline
 90
        5
 70
     0
 43
0.0
 10
-178.444855
 20
1157.531128
 10
-178.215042
 20
1157.596069
 10
-178.045654
 20
1157.646729
 10
-177.940659
 20
1157.679321
 10
-177.902573
 20
1157.691406
  0
LINE
  5
28C
330
1EB
100
AcDbEntity
  8
0
  6
Continuous
 62
     0
370
    30
100
AcDbLine
 10
-177.902602
 20
1111.591425
 30
0.0
 11
-182.084305
 21
1111.591425
 31
0.0
  0
LINE
  5
28D
330
1EB
100
AcDbEntity
  8
0
  6
Continuous
 62
     0
370
    30
100
AcDbLine
 10
-182.084305
 20
1111.591425
 30
0.0
 11
-184.90254
 21
1111.591425
 31
0.0
  0
ARC
  5
28E
330
1EB
100
AcDbEntity
  8
0
  6
Continuous
 62
     0
370
    30
100
AcDbCircle
 10
-181.402532
 20
1146.691452
 30
0.0
 40
3.500000000324049
100
AcDbArc
 50
301.467639
 51
121.469198
  0
ARC
  5
28F
330
1EB
100
AcDbEntity
  8
0
  6
Continuous
 62
     0
370
    30
100
AcDbCircle
 10
-181.402613
 20
1146.691403
 30
0.0
 40
3.500000000324053
100
AcDbArc
 50
121.467639
 51
301.469198
  0
LINE
  5
290
330
1EB
100
AcDbEntity
  8
0
  6
Continuous
 62
     0
370
    30
100
AcDbLine
 10
-178.444855
 20
1181.79146
 30
0.0
 11
-177.902561
 21
1181.79146
 31
0.0
  0
LWPOLYLINE
  5
291
330
1EB
100
AcDbEntity
  8
0
  6
Continuous
 62
     0
370
    30
100
AcDbPolyline
 90
       19
 70
     0
 43
0.0
 10
-184.902588
 20
1181.791504
 10
-184.866852
 20
1181.791504
 10
-184.760666
 20
1181.791504
 10
-184.586258
 20
1181.791504
 10
-184.347015
 20
1181.791504
 10
-184.048019
 20
1181.791504
 10
-183.695114
 20
1181.791504
 10
-183.2957
 20
1181.791504
 10
-182.857697
 20
1181.791504
 10
-182.390152
 20
1181.791504
 10
-181.902527
 20
1181.791504
 10
-181.404709
 20
1181.791504
 10
-180.906876
 20
1181.791504
 10
-180.419098
 20
1181.791504
 10
-179.95134
 20
1181.791504
 10
-179.513107
 20
1181.791504
 10
-179.11322
 20
1181.791504
 10
-178.759979
 20
1181.791504
 10
-178.444855
 20
1181.791504
  0
LINE
  5
292
330
1EB
100
AcDbEntity
  8
0
  6
Continuous
 62
     0
370
    30
100
AcDbLine
 10
-177.902571
 20
1181.79146
 30
0.0
 11
-177.902571
 21
1157.691382
 31
0.0
  0
LINE
  5
293
330
1EB
100
AcDbEntity
  8
0
  6
Continuous
 62
     0
370
    30
100
AcDbLine
 10
-184.902571
 20
1157.691387
 30
0.0
 11
-184.902571
 21
1181.79146
 31
0.0
  0
LINE
  5
294
330
1EB
100
AcDbEntity
  8
0
  6
Continuous
 62
     0
370
    30
100
AcDbLine
 10
-177.902571
 20
1111.591425
 30
0.0
 11
-177.902571
 21
1135.691431
 31
0.0
  0
LINE
  5
295
330
1EB
100
AcDbEntity
  8
0
  6
Continuous
 62
     0
370
    30
100
AcDbLine
 10
-184.902571
 20
1135.691429
 30
0.0
 11
-184.902571
 21
1111.591425
 31
0.0
  0
LINE
  5
296
330
1EB
100
AcDbEntity
  8
0
  6
Continuous
 62
     0
370
    30
100
AcDbLine
 10
-185.002575
 20
1157.691429
 30
0.0
 11
-184.902379
 21
1157.691429
 31
0.0
  0
LINE
  5
297
330
1EB
100
AcDbEntity
  8
0
  6
Continuous
 62
     0
370
    30
100
AcDbLine
 10
-177.802575
 20
1157.691429
 30
0.0
 11
-177.902832
 21
1157.691429
 31
0.0
  0
LINE
  5
298
330
1EB
100
AcDbEntity
  8
0
  6
Continuous
 62
     0
370
    30
100
AcDbLine
 10
-185.002575
 20
1135.691429
 30
0.0
 11
-184.902392
 21
1135.691429
 31
0.0
  0
LINE
  5
299
330
1EB
100
AcDbEntity
  8
0
  6
Continuous
 62
     0
370
    30
100
AcDbLine
 10
-158.402575
 20
1135.691429
 30
0.0
 11
-174.829336
 21
1135.691429
 31
0.0
  0
LINE
  5
29A
330
1EB
100
AcDbEntity
  8
0
  6
Continuous
 62
     0
370
    30
100
AcDbLine
 10
-188.902575
 20
1135.691429
 30
0.0
 11
-185.002575
 21
1135.691429
 31
0.0
  0
LINE
  5
29B
330
1EB
100
AcDbEntity
  8
0
  6
Continuous
 62
     0
370
    30
100
AcDbLine
 10
-177.802567
 20
1135.691429
 30
0.0
 11
-176.775866
 21
1135.691429
 31
0.0
  0
LINE
  5
29C
330
1EB
100
AcDbEntity
  8
0
  6
Continuous
 62
     0
370
    30
100
AcDbLine
 10
-158.402575
 20
1140.941429
 30
0.0
 11
-153.502574
 21
1140.941429
 31
0.0
  0
LINE
  5
29D
330
1EB
100
AcDbEntity
  8
0
  6
Continuous
 62
     0
370
    30
100
AcDbLine
 10
-153.502575
 20
1162.691428
 30
0.0
 11
-126.502562
 21
1162.69143
 31
0.0
  0
LINE
  5
29E
330
1EB
100
AcDbEntity
  8
0
  6
Continuous
 62
     0
370
    30
100
AcDbLine
 10
-126.502573
 20
1174.19143
 30
0.0
 11
-122.502573
 21
1174.19143
 31
0.0
  0
LINE
  5
29F
330
1EB
100
AcDbEntity
  8
0
  6
Continuous
 62
     0
370
    30
100
AcDbLine
 10
-126.502573
 20
1119.19143
 30
0.0
 11
-122.502573
 21
1119.19143
 31
0.0
  0
ENDBLK
  5
2A1
330
1EB
100
AcDbEntity
  8
0
100
AcDbBlockEnd
  0
ENDSEC
  0
SECTION
  2
ENTITIES
  0
INSERT
  5
FA
330
1F
100
AcDbEntity
  8
0
  6
Continuous
 62
     7
370
     0
100
AcDbBlockReference
  2
a
 10
20.147503
 20
106.89016
 30
0.0
  0
INSERT
  5
132
330
1F
100
AcDbEntity
  8
0
  6
Continuous
 62
     7
370
     0
100
AcDbBlockReference
  2
b
 10
20.147503
 20
493.169121
 30
0.0
  0
INSERT
  5
1EA
330
1F
100
AcDbEntity
  8
0
  6
Continuous
 62
     7
370
     0
100
AcDbBlockReference
  2
c
 10
68.586803
 20
106.89016
 30
0.0
  0
INSERT
  5
2A2
330
1F
100
AcDbEntity
  8
0
  6
Continuous
 62
     7
370
     0
100
AcDbBlockReference
  2
d
 10
-81.071518
 20
0.0
 30
0.0
  0
ENDSEC
  0
SECTION
  2
OBJECTS
  0
DICTIONARY
  5
C
330
0
100
AcDbDictionary
281
     1
  3
ACAD_GROUP
350
D
  3
ACAD_LAYOUT
350
1A
  3
ACAD_MATERIAL
350
43
  3
ACAD_MLEADERSTYLE
350
6B
  3
ACAD_MLINESTYLE
350
17
  3
ACAD_PLOTSETTINGS
350
19
  3
ACAD_PLOTSTYLENAME
350
E
  3
ACAD_SCALELIST
350
47
  3
ACAD_TABLESTYLE
350
69
  3
ACAD_VISUALSTYLE
350
2A
  3
AcDbVariableDictionary
350
2A3
  0
DICTIONARY
  5
2AE
330
8
100
AcDbDictionary
280
     1
281
     1
  3
ACAD_XREC_ROUNDTRIP
360
2AF
  0
DICTIONARY
  5
D
102
{ACAD_REACTORS
330
C
102
}
330
C
100
AcDbDictionary
281
     1
  0
DICTIONARY
  5
1A
102
{ACAD_REACTORS
330
C
102
}
330
C
100
AcDbDictionary
281
     1
  3
Layout1
350
1E
  3
Layout2
350
26
  3
Model
350
22
  0
DICTIONARY
  5
43
102
{ACAD_REACTORS
330
C
102
}
330
C
100
AcDbDictionary
281
     1
  3
ByBlock
350
45
  3
ByLayer
350
44
  3
Global
350
46
  0
DICTIONARY
  5
6B
102
{ACAD_REACTORS
330
C
102
}
330
C
100
AcDbDictionary
281
     1
  3
Standard
350
6C
  0
DICTIONARY
  5
17
102
{ACAD_REACTORS
330
C
102
}
330
C
100
AcDbDictionary
281
     1
  3
Standard
350
18
  0
DICTIONARY
  5
19
102
{ACAD_REACTORS
330
C
102
}
330
C
100
AcDbDictionary
281
     1
  0
ACDBDICTIONARYWDFLT
  5
E
102
{ACAD_REACTORS
330
C
102
}
330
C
100
AcDbDictionary
281
     1
  3
Normal
350
F
100
AcDbDictionaryWithDefault
340
F
  0
DICTIONARY
  5
47
102
{ACAD_REACTORS
330
C
102
}
330
C
100
AcDbDictionary
281
     1
  3
A0
350
48
  3
A1
350
49
  3
A2
350
4A
  3
A3
350
4B
  3
A4
350
4C
  3
A5
350
4D
  3
A6
350
4E
  3
A7
350
4F
  3
A8
350
50
  3
A9
350
51
  3
B0
350
52
  3
B1
350
53
  3
B2
350
54
  3
B3
350
55
  3
B4
350
56
  3
B5
350
57
  3
B6
350
58
  3
B7
350
59
  3
B8
350
5A
  3
B9
350
5B
  3
C0
350
5C
  3
C1
350
5D
  3
C2
350
5E
  3
C3
350
5F
  3
C4
350
60
  3
C5
350
61
  3
C6
350
62
  3
C7
350
63
  3
C8
350
64
  3
C9
350
65
  3
D0
350
66
  3
D1
350
67
  3
D2
350
68
  0
DICTIONARY
  5
69
102
{ACAD_REACTORS
330
C
102
}
330
C
100
AcDbDictionary
281
     1
  3
Standard
350
6A
  0
DICTIONARY
  5
2A
102
{ACAD_REACTORS
330
C
102
}
330
C
100
AcDbDictionary
281
     1
  3
2dWireframe
350
2F
  3
Basic
350
32
  3
Brighten
350
36
  3
ColorChange
350
3A
  3
Conceptual
350
34
  3
Dim
350
35
  3
EdgeColorOff
350
3D
  3
Facepattern
350
39
  3
Flat
350
2B
  3
FlatWithEdges
350
2C
  3
Gouraud
350
2D
  3
GouraudWithEdges
350
2E
  3
Hidden
350
31
  3
JitterOff
350
3B
  3
Linepattern
350
38
  3
OverhangOff
350
3C
  3
Realistic
350
33
  3
Shaded
350
42
  3
Shaded with edges
350
41
  3
Shades of Gray
350
3E
  3
Sketchy
350
3F
  3
Thicken
350
37
  3
Wireframe
350
30
  3
X-Ray
350
40
  0
DICTIONARY
  5
2A3
102
{ACAD_REACTORS
330
C
102
}
330
C
100
AcDbDictionary
281
     1
  3
CANNOSCALE
350
2B0
  3
CENTEREXE
350
2AA
  3
CENTERLTYPEFILE
350
2AB
  3
CMLEADERSTYLE
350
2A5
  3
CTABLESTYLE
350
2A4
  3
DIMASSOC
350
2AC
  3
HIDETEXT
350
2AD
  3
MSLTSCALE
350
2B1
  3
PSOLHEIGHT
350
2A7
  3
PSOLWIDTH
350
2A6
  0
XRECORD
  5
2AF
102
{ACAD_REACTORS
330
2AE
102
}
330
2AE
100
AcDbXrecord
280
     1
102
VTR_0.000_0.000_1.000_1.000_VISUALSTYLE
340
2F
102
VTR_0.000_0.000_1.000_1.000_GRIDDISPLAY
 70
     3
102
VTR_0.000_0.000_1.000_1.000_GRIDMAJOR
 70
     5
102
VTR_0.000_0.000_1.000_1.000_DEFAULTLIGHTING
280
     1
102
VTR_0.000_0.000_1.000_1.000_DEFAULTLIGHTINGTYPE
 70
     1
102
VTR_0.000_0.000_1.000_1.000_BRIGHTNESS
141
0.0
102
VTR_0.000_0.000_1.000_1.000_CONTRAST
142
0.0
  0
LAYOUT
  5
1E
102
{ACAD_REACTORS
330
1A
102
}
330
1A
100
AcDbPlotSettings
  1

  2
none_device
  4

  6

 40
0.0
 41
0.0
 42
0.0
 43
0.0
 44
0.0
 45
0.0
 46
0.0
 47
0.0
 48
0.0
 49
0.0
140
0.0
141
0.0
142
1.0
143
1.0
 70
   688
 72
     1
 73
     0
 74
     5
  7

 75
    16
147
1.0
148
0.0
149
0.0
100
AcDbLayout
  1
Layout1
 70
     1
 71
     1
 10
0.0
 20
0.0
 11
420.0
 21
297.0
 12
0.0
 22
0.0
 32
0.0
 14
1.000000E+20
 24
1.000000E+20
 34
1.000000E+20
 15
-1.000000E+20
 25
-1.000000E+20
 35
-1.000000E+20
146
0.0
 13
0.0
 23
0.0
 33
0.0
 16
1.0
 26
0.0
 36
0.0
 17
0.0
 27
1.0
 37
0.0
 76
     0
330
1B
  0
LAYOUT
  5
26
102
{ACAD_REACTORS
330
1A
102
}
330
1A
100
AcDbPlotSettings
  1

  2
none_device
  4

  6

 40
0.0
 41
0.0
 42
0.0
 43
0.0
 44
0.0
 45
0.0
 46
0.0
 47
0.0
 48
0.0
 49
0.0
140
0.0
141
0.0
142
1.0
143
1.0
 70
   688
 72
     1
 73
     0
 74
     5
  7

 75
    16
147
1.0
148
0.0
149
0.0
100
AcDbLayout
  1
Layout2
 70
     1
 71
     2
 10
0.0
 20
0.0
 11
0.0
 21
0.0
 12
0.0
 22
0.0
 32
0.0
 14
0.0
 24
0.0
 34
0.0
 15
0.0
 25
0.0
 35
0.0
146
0.0
 13
0.0
 23
0.0
 33
0.0
 16
1.0
 26
0.0
 36
0.0
 17
0.0
 27
1.0
 37
0.0
 76
     0
330
23
  0
LAYOUT
  5
22
102
{ACAD_REACTORS
330
1A
102
}
330
1A
100
AcDbPlotSettings
  1

  2
none_device
  4
Letter_(8.50_x_11.00_Inches)
  6

 40
6.35
 41
6.35
 42
6.350005
 43
6.350005
 44
215.9
 45
279.4
 46
0.0
 47
0.0
 48
0.0
 49
0.0
140
0.0
141
0.0
142
1.0
143
1.0
 70
  1712
 72
     1
 73
     0
 74
     0
  7

 75
     0
147
1.0
148
0.0
149
0.0
100
AcDbLayout
  1
Model
 70
     1
 71
     0
 10
-188.902573
 20
0.0
 11
360.772614
 21
1181.791504
 12
0.0
 22
0.0
 32
0.0
 14
-188.902573
 24
0.0
 34
0.0
 15
360.772614
 25
1181.791504
 35
0.0
146
0.0
 13
0.0
 23
0.0
 33
0.0
 16
1.0
 26
0.0
 36
0.0
 17
0.0
 27
1.0
 37
0.0
 76
     0
330
1F
331
29
  0
MATERIAL
  5
45
102
{ACAD_REACTORS
330
43
102
}
102
{ACAD_XDICTIONARY
360
2E4
102
}
330
43
100
AcDbMaterial
  1
ByBlock
  0
MATERIAL
  5
44
102
{ACAD_REACTORS
330
43
102
}
102
{ACAD_XDICTIONARY
360
2E2
102
}
330
43
100
AcDbMaterial
  1
ByLayer
  0
MATERIAL
  5
46
102
{ACAD_REACTORS
330
43
102
}
102
{ACAD_XDICTIONARY
360
2E6
102
}
330
43
100
AcDbMaterial
  1
Global
  0
MLEADERSTYLE
  5
6C
102
{ACAD_REACTORS
330
6B
102
}
102
{ACAD_XDICTIONARY
360
2E9
102
}
330
6B
100
AcDbMLeaderStyle
170
     2
171
     1
172
     0
 90
        2
 40
0.0
 41
0.0
173
     1
 91
-1056964608
340
14
 92
       -2
290
     1
 42
2.0
291
     1
 43
8.0
  3
Standard
341
0
 44
4.0
300

342
11
174
     1
178
     6
175
     1
176
     0
 93
-1056964608
 45
4.0
292
     0
297
     0
 46
4.0
343
0
 94
-1056964608
 47
1.0
 49
1.0
140
1.0
293
     1
141
0.0
294
     1
177
     0
142
1.0
295
     0
296
     0
143
3.75
1001
ACAD_MLEADERVER
1070
     2
  0
MLINESTYLE
  5
18
102
{ACAD_REACTORS
330
17
102
}
330
17
100
AcDbMlineStyle
  2
Standard
 70
     0
  3

 62
   256
 51
90.0
 52
90.0
 71
     2
 49
0.5
 62
   256
  6
BYLAYER
 49
-0.5
 62
   256
  6
BYLAYER
  0
ACDBPLACEHOLDER
  5
F
102
{ACAD_REACTORS
330
E
102
}
330
E
  0
SCALE
  5
48
102
{ACAD_REACTORS
330
47
102
}
330
47
100
AcDbScale
 70
     0
300
1:1
140
1.0
141
1.0
290
     1
  0
SCALE
  5
49
102
{ACAD_REACTORS
330
47
102
}
330
47
100
AcDbScale
 70
     0
300
1:2
140
1.0
141
2.0
290
     0
  0
SCALE
  5
4A
102
{ACAD_REACTORS
330
47
102
}
330
47
100
AcDbScale
 70
     0
300
1:4
140
1.0
141
4.0
290
     0
  0
SCALE
  5
4B
102
{ACAD_REACTORS
330
47
102
}
330
47
100
AcDbScale
 70
     0
300
1:5
140
1.0
141
5.0
290
     0
  0
SCALE
  5
4C
102
{ACAD_REACTORS
330
47
102
}
330
47
100
AcDbScale
 70
     0
300
1:8
140
1.0
141
8.0
290
     0
  0
SCALE
  5
4D
102
{ACAD_REACTORS
330
47
102
}
330
47
100
AcDbScale
 70
     0
300
1:10
140
1.0
141
10.0
290
     0
  0
SCALE
  5
4E
102
{ACAD_REACTORS
330
47
102
}
330
47
100
AcDbScale
 70
     0
300
1:16
140
1.0
141
16.0
290
     0
  0
SCALE
  5
4F
102
{ACAD_REACTORS
330
47
102
}
330
47
100
AcDbScale
 70
     0
300
1:20
140
1.0
141
20.0
290
     0
  0
SCALE
  5
50
102
{ACAD_REACTORS
330
47
102
}
330
47
100
AcDbScale
 70
     0
300
1:30
140
1.0
141
30.0
290
     0
  0
SCALE
  5
51
102
{ACAD_REACTORS
330
47
102
}
330
47
100
AcDbScale
 70
     0
300
1:40
140
1.0
141
40.0
290
     0
  0
SCALE
  5
52
102
{ACAD_REACTORS
330
47
102
}
330
47
100
AcDbScale
 70
     0
300
1:50
140
1.0
141
50.0
290
     0
  0
SCALE
  5
53
102
{ACAD_REACTORS
330
47
102
}
330
47
100
AcDbScale
 70
     0
300
1:100
140
1.0
141
100.0
290
     0
  0
SCALE
  5
54
102
{ACAD_REACTORS
330
47
102
}
330
47
100
AcDbScale
 70
     0
300
2:1
140
2.0
141
1.0
290
     0
  0
SCALE
  5
55
102
{ACAD_REACTORS
330
47
102
}
330
47
100
AcDbScale
 70
     0
300
4:1
140
4.0
141
1.0
290
     0
  0
SCALE
  5
56
102
{ACAD_REACTORS
330
47
102
}
330
47
100
AcDbScale
 70
     0
300
8:1
140
8.0
141
1.0
290
     0
  0
SCALE
  5
57
102
{ACAD_REACTORS
330
47
102
}
330
47
100
AcDbScale
 70
     0
300
10:1
140
10.0
141
1.0
290
     0
  0
SCALE
  5
58
102
{ACAD_REACTORS
330
47
102
}
330
47
100
AcDbScale
 70
     0
300
100:1
140
100.0
141
1.0
290
     0
  0
SCALE
  5
59
102
{ACAD_REACTORS
330
47
102
}
330
47
100
AcDbScale
 70
     0
300
1/128" = 1'-0"
140
0.007812
141
12.0
290
     0
  0
SCALE
  5
5A
102
{ACAD_REACTORS
330
47
102
}
330
47
100
AcDbScale
 70
     0
300
1/64" = 1'-0"
140
0.015625
141
12.0
290
     0
  0
SCALE
  5
5B
102
{ACAD_REACTORS
330
47
102
}
330
47
100
AcDbScale
 70
     0
300
1/32" = 1'-0"
140
0.03125
141
12.0
290
     0
  0
SCALE
  5
5C
102
{ACAD_REACTORS
330
47
102
}
330
47
100
AcDbScale
 70
     0
300
1/16" = 1'-0"
140
0.0625
141
12.0
290
     0
  0
SCALE
  5
5D
102
{ACAD_REACTORS
330
47
102
}
330
47
100
AcDbScale
 70
     0
300
3/32" = 1'-0"
140
0.09375
141
12.0
290
     0
  0
SCALE
  5
5E
102
{ACAD_REACTORS
330
47
102
}
330
47
100
AcDbScale
 70
     0
300
1/8" = 1'-0"
140
0.125
141
12.0
290
     0
  0
SCALE
  5
5F
102
{ACAD_REACTORS
330
47
102
}
330
47
100
AcDbScale
 70
     0
300
3/16" = 1'-0"
140
0.1875
141
12.0
290
     0
  0
SCALE
  5
60
102
{ACAD_REACTORS
330
47
102
}
330
47
100
AcDbScale
 70
     0
300
1/4" = 1'-0"
140
0.25
141
12.0
290
     0
  0
SCALE
  5
61
102
{ACAD_REACTORS
330
47
102
}
330
47
100
AcDbScale
 70
     0
300
3/8" = 1'-0"
140
0.375
141
12.0
290
     0
  0
SCALE
  5
62
102
{ACAD_REACTORS
330
47
102
}
330
47
100
AcDbScale
 70
     0
300
1/2" = 1'-0"
140
0.5
141
12.0
290
     0
  0
SCALE
  5
63
102
{ACAD_REACTORS
330
47
102
}
330
47
100
AcDbScale
 70
     0
300
3/4" = 1'-0"
140
0.75
141
12.0
290
     0
  0
SCALE
  5
64
102
{ACAD_REACTORS
330
47
102
}
330
47
100
AcDbScale
 70
     0
300
1" = 1'-0"
140
1.0
141
12.0
290
     0
  0
SCALE
  5
65
102
{ACAD_REACTORS
330
47
102
}
330
47
100
AcDbScale
 70
     0
300
1-1/2" = 1'-0"
140
1.5
141
12.0
290
     0
  0
SCALE
  5
66
102
{ACAD_REACTORS
330
47
102
}
330
47
100
AcDbScale
 70
     0
300
3" = 1'-0"
140
3.0
141
12.0
290
     0
  0
SCALE
  5
67
102
{ACAD_REACTORS
330
47
102
}
330
47
100
AcDbScale
 70
     0
300
6" = 1'-0"
140
6.0
141
12.0
290
     0
  0
SCALE
  5
68
102
{ACAD_REACTORS
330
47
102
}
330
47
100
AcDbScale
 70
     0
300
1'-0" = 1'-0"
140
12.0
141
12.0
290
     0
  0
TABLESTYLE
  5
6A
102
{ACAD_REACTORS
330
69
102
}
330
69
100
AcDbTableStyle
  3
Standard
 70
     0
 71
     0
 40
1.5
 41
1.5
280
     0
281
     0
  7
Standard
140
4.5
170
     2
 62
     0
 63
   257
283
     0
274
    -2
284
     1
 64
     0
275
    -2
285
     1
 65
     0
276
    -2
286
     1
 66
     0
277
    -2
287
     1
 67
     0
278
    -2
288
     1
 68
     0
279
    -2
289
     1
 69
     0
  7
Standard
140
6.0
170
     5
 62
     0
 63
   257
283
     0
274
    -2
284
     1
 64
     0
275
    -2
285
     1
 65
     0
276
    -2
286
     1
 66
     0
277
    -2
287
     1
 67
     0
278
    -2
288
     1
 68
     0
279
    -2
289
     1
 69
     0
  7
Standard
140
4.5
170
     5
 62
     0
 63
   257
283
     0
274
    -2
284
     1
 64
     0
275
    -2
285
     1
 65
     0
276
    -2
286
     1
 66
     0
277
    -2
287
     1
 67
     0
278
    -2
288
     1
 68
     0
279
    -2
289
     1
 69
     0
  0
VISUALSTYLE
  5
2F
102
{ACAD_REACTORS
330
2A
102
}
102
{ACAD_XDICTIONARY
360
2BA
102
}
330
2A
100
AcDbVisualStyle
  2
2dWireframe
 70
     4
 71
     0
 72
     2
 73
     0
 90
        0
 40
0.6
 41
30.0
 62
     5
 63
     7
 74
     1
 91
        4
 64
     7
 65
   257
 75
     1
175
     1
 42
1.0
 92
        0
 66
   257
 43
1.0
 76
     1
 77
     6
 78
     2
 67
     7
 79
     5
170
     0
171
     0
290
     0
174
     0
 93
        1
 44
0.0
173
     0
291
     0
 45
0.0
1001
ACAD
1000
AcDbSavedByObjectVersion
1070
     0
  0
VISUALSTYLE
  5
32
102
{ACAD_REACTORS
330
2A
102
}
102
{ACAD_XDICTIONARY
360
2C0
102
}
330
2A
100
AcDbVisualStyle
  2
Basic
 70
     7
 71
     1
 72
     0
 73
     1
 90
        0
 40
0.6
 41
30.0
 62
     5
 63
     7
 74
     0
 91
        4
 64
     7
 65
   257
 75
     1
175
     1
 42
1.0
 92
        8
 66
     7
 43
1.0
 76
     1
 77
     6
 78
     2
 67
     7
 79
     5
170
     0
171
     0
290
     0
174
     0
 93
        1
 44
0.0
173
     0
291
     1
 45
0.0
1001
ACAD
1000
AcDbSavedByObjectVersion
1070
     0
  0
VISUALSTYLE
  5
36
102
{ACAD_REACTORS
330
2A
102
}
102
{ACAD_XDICTIONARY
360
2C8
102
}
330
2A
100
AcDbVisualStyle
  2
Brighten
 70
    12
 71
     2
 72
     2
 73
     0
 90
        0
 40
0.6
 41
30.0
 62
     5
 63
     7
 74
     1
 91
        4
 64
     7
 65
   257
 75
     1
175
     1
 42
1.0
 92
        8
 66
     7
 43
1.0
 76
     1
 77
     6
 78
     2
 67
     7
 79
     5
170
     0
171
     0
290
     0
174
     0
 93
        1
 44
50.0
173
     0
291
     1
 45
0.0
1001
ACAD
1000
AcDbSavedByObjectVersion
1070
     0
  0
VISUALSTYLE
  5
3A
102
{ACAD_REACTORS
330
2A
102
}
102
{ACAD_XDICTIONARY
360
2D0
102
}
330
2A
100
AcDbVisualStyle
  2
ColorChange
 70
    16
 71
     2
 72
     2
 73
     3
 90
        0
 40
0.6
 41
30.0
 62
     5
 63
     8
 74
     1
 91
        4
 64
     7
 65
   257
 75
     1
175
     1
 42
1.0
 92
        8
 66
     8
 43
1.0
 76
     1
 77
     6
 78
     2
 67
     7
 79
     5
170
     0
171
     0
290
     0
174
     0
 93
        1
 44
0.0
173
     0
291
     1
 45
0.0
1001
ACAD
1000
AcDbSavedByObjectVersion
1070
     0
  0
VISUALSTYLE
  5
34
102
{ACAD_REACTORS
330
2A
102
}
102
{ACAD_XDICTIONARY
360
2C4
102
}
330
2A
100
AcDbVisualStyle
  2
Conceptual
 70
     9
 71
     3
 72
     2
 73
     0
 90
        0
 40
0.6
 41
30.0
 62
     5
 63
     7
 74
     2
 91
        2
 64
     7
 65
   257
 75
     1
175
     1
 42
179.0
 92
        8
 66
     7
 43
1.0
 76
     1
 77
     6
 78
     2
 67
     7
 79
     3
170
     0
171
     0
290
     0
174
     0
 93
        1
 44
0.0
173
     0
291
     0
 45
0.0
1001
ACAD
1000
AcDbSavedByObjectVersion
1070
     0
  0
VISUALSTYLE
  5
35
102
{ACAD_REACTORS
330
2A
102
}
102
{ACAD_XDICTIONARY
360
2C6
102
}
330
2A
100
AcDbVisualStyle
  2
Dim
 70
    11
 71
     2
 72
     2
 73
     0
 90
        0
 40
0.6
 41
30.0
 62
     5
 63
     7
 74
     1
 91
        4
 64
     7
 65
   257
 75
     1
175
     1
 42
1.0
 92
        8
 66
     7
 43
1.0
 76
     1
 77
     6
 78
     2
 67
     7
 79
     5
170
     0
171
     0
290
     0
174
     0
 93
        1
 44
-50.0
173
     0
291
     1
 45
0.0
1001
ACAD
1000
AcDbSavedByObjectVersion
1070
     0
  0
VISUALSTYLE
  5
3D
102
{ACAD_REACTORS
330
2A
102
}
102
{ACAD_XDICTIONARY
360
2D6
102
}
330
2A
100
AcDbVisualStyle
  2
EdgeColorOff
 70
    22
 71
     2
 72
     2
 73
     0
 90
        0
 40
0.6
 41
30.0
 62
     5
 63
     7
 74
     1
 91
        4
 64
     7
 65
   257
 75
     1
175
     1
 42
1.0
 92
        8
 66
     7
 43
1.0
 76
     1
 77
     6
 78
     2
 67
     7
 79
     5
170
     0
171
     0
290
     0
174
     0
 93
        1
 44
0.0
173
     0
291
     1
 45
0.0
1001
ACAD
1000
AcDbSavedByObjectVersion
1070
     0
  0
VISUALSTYLE
  5
39
102
{ACAD_REACTORS
330
2A
102
}
102
{ACAD_XDICTIONARY
360
2CE
102
}
330
2A
100
AcDbVisualStyle
  2
Facepattern
 70
    15
 71
     2
 72
     2
 73
     0
 90
        0
 40
0.6
 41
30.0
 62
     5
 63
     7
 74
     1
 91
        4
 64
     7
 65
   257
 75
     1
175
     1
 42
1.0
 92
        8
 66
     7
 43
1.0
 76
     1
 77
     6
 78
     2
 67
     7
 79
     5
170
     0
171
     0
290
     0
174
     0
 93
        1
 44
0.0
173
     0
291
     1
 45
0.0
1001
ACAD
1000
AcDbSavedByObjectVersion
1070
     0
  0
VISUALSTYLE
  5
2B
102
{ACAD_REACTORS
330
2A
102
}
102
{ACAD_XDICTIONARY
360
2B2
102
}
330
2A
100
AcDbVisualStyle
  2
Flat
 70
     0
 71
     2
 72
     1
 73
     1
 90
        2
 40
0.6
 41
30.0
 62
     5
 63
     7
 74
     0
 91
        0
 64
     7
 65
   257
 75
     1
175
     1
 42
1.0
 92
        8
 66
     7
 43
1.0
 76
     1
 77
     6
 78
     2
 67
     7
 79
     5
170
     0
171
     0
290
     0
174
     0
 93
       13
 44
0.0
173
     0
291
     1
 45
0.0
1001
ACAD
1000
AcDbSavedByObjectVersion
1070
     0
  0
VISUALSTYLE
  5
2C
102
{ACAD_REACTORS
330
2A
102
}
102
{ACAD_XDICTIONARY
360
2B4
102
}
330
2A
100
AcDbVisualStyle
  2
FlatWithEdges
 70
     1
 71
     2
 72
     1
 73
     1
 90
        2
 40
0.6
 41
30.0
 62
     5
 63
     7
 74
     1
 91
        0
 64
     7
 65
   257
 75
     1
175
     1
 42
1.0
 92
        0
 66
   257
 43
1.0
 76
     1
 77
     6
 78
     2
 67
     7
 79
     5
170
     0
171
     0
290
     0
174
     0
 93
       13
 44
0.0
173
     0
291
     1
 45
0.0
1001
ACAD
1000
AcDbSavedByObjectVersion
1070
     0
  0
VISUALSTYLE
  5
2D
102
{ACAD_REACTORS
330
2A
102
}
102
{ACAD_XDICTIONARY
360
2B6
102
}
330
2A
100
AcDbVisualStyle
  2
Gouraud
 70
     2
 71
     2
 72
     2
 73
     1
 90
        2
 40
0.6
 41
30.0
 62
     5
 63
     7
 74
     0
 91
        0
 64
     7
 65
   257
 75
     1
175
     1
 42
1.0
 92
        0
 66
     7
 43
1.0
 76
     1
 77
     6
 78
     2
 67
     7
 79
     5
170
     0
171
     0
290
     0
174
     0
 93
       13
 44
0.0
173
     0
291
     1
 45
0.0
1001
ACAD
1000
AcDbSavedByObjectVersion
1070
     0
  0
VISUALSTYLE
  5
2E
102
{ACAD_REACTORS
330
2A
102
}
102
{ACAD_XDICTIONARY
360
2B8
102
}
330
2A
100
AcDbVisualStyle
  2
GouraudWithEdges
 70
     3
 71
     2
 72
     2
 73
     1
 90
        2
 40
0.6
 41
30.0
 62
     5
 63
     7
 74
     1
 91
        0
 64
     7
 65
   257
 75
     1
175
     1
 42
1.0
 92
        0
 66
   257
 43
1.0
 76
     1
 77
     6
 78
     2
 67
     7
 79
     5
170
     0
171
     0
290
     0
174
     0
 93
       13
 44
0.0
173
     0
291
     1
 45
0.0
1001
ACAD
1000
AcDbSavedByObjectVersion
1070
     0
  0
VISUALSTYLE
  5
31
102
{ACAD_REACTORS
330
2A
102
}
102
{ACAD_XDICTIONARY
360
2BE
102
}
330
2A
100
AcDbVisualStyle
  2
Hidden
 70
     6
 71
     1
 72
     2
 73
     2
 90
        0
 40
0.6
 41
30.0
 62
     5
 63
     7
 74
     2
 91
        2
 64
     7
 65
   257
 75
     2
175
     1
 42
40.0
 92
        0
 66
   257
 43
1.0
 76
     1
 77
     6
 78
     2
 67
     7
 79
     3
170
     0
171
     0
290
     0
174
     0
 93
        1
 44
0.0
173
     0
291
     0
 45
0.0
1001
ACAD
1000
AcDbSavedByObjectVersion
1070
     0
  0
VISUALSTYLE
  5
3B
102
{ACAD_REACTORS
330
2A
102
}
102
{ACAD_XDICTIONARY
360
2D2
102
}
330
2A
100
AcDbVisualStyle
  2
JitterOff
 70
    20
 71
     2
 72
     2
 73
     0
 90
        0
 40
0.6
 41
30.0
 62
     5
 63
     7
 74
     1
 91
        4
 64
     7
 65
   257
 75
     1
175
     1
 42
1.0
 92
       10
 66
     7
 43
1.0
 76
     1
 77
     6
 78
     2
 67
     7
 79
     5
170
     0
171
     0
290
     0
174
     0
 93
        1
 44
0.0
173
     0
291
     1
 45
0.0
1001
ACAD
1000
AcDbSavedByObjectVersion
1070
     0
  0
VISUALSTYLE
  5
38
102
{ACAD_REACTORS
330
2A
102
}
102
{ACAD_XDICTIONARY
360
2CC
102
}
330
2A
100
AcDbVisualStyle
  2
Linepattern
 70
    14
 71
     2
 72
     2
 73
     0
 90
        0
 40
0.6
 41
30.0
 62
     5
 63
     7
 74
     1
 91
        4
 64
     7
 65
   257
 75
     7
175
     7
 42
1.0
 92
        8
 66
     7
 43
1.0
 76
     1
 77
     6
 78
     2
 67
     7
 79
     5
170
     0
171
     0
290
     0
174
     0
 93
        1
 44
0.0
173
     0
291
     1
 45
0.0
1001
ACAD
1000
AcDbSavedByObjectVersion
1070
     0
  0
VISUALSTYLE
  5
3C
102
{ACAD_REACTORS
330
2A
102
}
102
{ACAD_XDICTIONARY
360
2D4
102
}
330
2A
100
AcDbVisualStyle
  2
OverhangOff
 70
    21
 71
     2
 72
     2
 73
     0
 90
        0
 40
0.6
 41
30.0
 62
     5
 63
     7
 74
     1
 91
        4
 64
     7
 65
   257
 75
     1
175
     1
 42
1.0
 92
        9
 66
     7
 43
1.0
 76
     1
 77
     6
 78
     2
 67
     7
 79
     5
170
     0
171
     0
290
     0
174
     0
 93
        1
 44
0.0
173
     0
291
     1
 45
0.0
1001
ACAD
1000
AcDbSavedByObjectVersion
1070
     0
  0
VISUALSTYLE
  5
33
102
{ACAD_REACTORS
330
2A
102
}
102
{ACAD_XDICTIONARY
360
2C2
102
}
330
2A
100
AcDbVisualStyle
  2
Realistic
 70
     8
 71
     2
 72
     3
 73
     0
 90
        2
 40
0.6
 41
30.0
 62
     5
 63
     7
 74
     0
 91
        0
 64
     7
 65
   257
 75
     1
175
     1
 42
1.0
 92
        8
 66
   257
 43
1.0
 76
     1
 77
     6
 78
     2
 67
     7
 79
     3
170
     0
171
     0
290
     0
174
     0
 93
       13
 44
0.0
173
     0
291
     0
 45
0.0
1001
ACAD
1000
AcDbSavedByObjectVersion
1070
     0
  0
VISUALSTYLE
  5
42
102
{ACAD_REACTORS
330
2A
102
}
102
{ACAD_XDICTIONARY
360
2E0
102
}
330
2A
100
AcDbVisualStyle
  2
Shaded
 70
    27
 71
     2
 72
     2
 73
     1
 90
        2
 40
0.6
 41
30.0
 62
     5
 63
     7
 74
     0
 91
        4
 64
     7
 65
   257
 75
     1
175
     1
 42
1.0
 92
        8
 66
   257
 43
1.0
 76
     1
 77
     6
 78
     2
 67
     8
 79
     3
170
     0
171
     0
290
     0
174
     0
 93
        5
 44
0.0
173
     0
291
     0
 45
0.0
1001
ACAD
1000
AcDbSavedByObjectVersion
1070
     0
  0
VISUALSTYLE
  5
41
102
{ACAD_REACTORS
330
2A
102
}
102
{ACAD_XDICTIONARY
360
2DE
102
}
330
2A
100
AcDbVisualStyle
  2
Shaded with edges
 70
    26
 71
     2
 72
     2
 73
     1
 90
        2
 40
0.6
 41
30.0
 62
     5
 63
     7
 74
     1
 91
       10
 64
     7
 65
   257
 75
     2
175
     1
 42
1.0
 92
        8
 66
   257
 43
1.0
 76
     1
 77
     6
 78
     2
 67
     7
 79
     3
170
     0
171
     0
290
     0
174
     0
 93
        5
 44
0.0
173
     0
291
     0
 45
0.0
1001
ACAD
1000
AcDbSavedByObjectVersion
1070
     0
  0
VISUALSTYLE
  5
3E
102
{ACAD_REACTORS
330
2A
102
}
102
{ACAD_XDICTIONARY
360
2D8
102
}
330
2A
100
AcDbVisualStyle
  2
Shades of Gray
 70
    23
 71
     2
 72
     2
 73
     3
 90
        0
 40
0.6
 41
30.0
 62
     5
 63
     7
 74
     2
 91
        2
 64
     7
 65
     7
 75
     1
175
     1
 42
40.0
 92
        8
 66
     7
 43
1.0
 76
     1
 77
     6
 78
     2
 67
     7
 79
     3
170
     0
171
     0
290
     0
174
     0
 93
        1
 44
0.0
173
     0
291
     0
 45
0.0
1001
ACAD
1000
AcDbSavedByObjectVersion
1070
     0
  0
VISUALSTYLE
  5
3F
102
{ACAD_REACTORS
330
2A
102
}
102
{ACAD_XDICTIONARY
360
2DA
102
}
330
2A
100
AcDbVisualStyle
  2
Sketchy
 70
    24
 71
     1
 72
     2
 73
     2
 90
        0
 40
0.6
 41
30.0
 62
     5
 63
     7
 74
     2
 91
        2
 64
     7
 65
     7
 75
     1
175
     1
 42
40.0
 92
       11
 66
     7
 43
1.0
 76
     1
 77
     6
 78
     2
 67
     7
 79
     6
170
     0
171
     0
290
     0
174
     0
 93
        1
 44
0.0
173
     0
291
     0
 45
0.0
1001
ACAD
1000
AcDbSavedByObjectVersion
1070
     0
  0
VISUALSTYLE
  5
37
102
{ACAD_REACTORS
330
2A
102
}
102
{ACAD_XDICTIONARY
360
2CA
102
}
330
2A
100
AcDbVisualStyle
  2
Thicken
 70
    13
 71
     2
 72
     2
 73
     0
 90
        0
 40
0.6
 41
30.0
 62
     5
 63
     7
 74
     1
 91
        4
 64
     7
 65
   257
 75
     1
175
     1
 42
1.0
 92
       12
 66
     7
 43
1.0
 76
     1
 77
     6
 78
     2
 67
     7
 79
     5
170
     0
171
     0
290
     0
174
     0
 93
        1
 44
0.0
173
     0
291
     1
 45
0.0
1001
ACAD
1000
AcDbSavedByObjectVersion
1070
     0
  0
VISUALSTYLE
  5
30
102
{ACAD_REACTORS
330
2A
102
}
102
{ACAD_XDICTIONARY
360
2BC
102
}
330
2A
100
AcDbVisualStyle
  2
Wireframe
 70
     5
 71
     0
 72
     2
 73
     0
 90
        0
 40
0.6
 41
30.0
 62
     5
 63
     7
 74
     1
 91
        4
 64
     7
 65
   257
 75
     1
175
     1
 42
1.0
 92
        0
 66
   257
 43
1.0
 76
     1
 77
     6
 78
     2
 67
     7
 79
     3
170
     0
171
     0
290
     0
174
     0
 93
        1
 44
0.0
173
     0
291
     0
 45
0.0
1001
ACAD
1000
AcDbSavedByObjectVersion
1070
     0
  0
VISUALSTYLE
  5
40
102
{ACAD_REACTORS
330
2A
102
}
102
{ACAD_XDICTIONARY
360
2DC
102
}
330
2A
100
AcDbVisualStyle
  2
X-Ray
 70
    25
 71
     2
 72
     2
 73
     1
 90
        1
 40
0.5
 41
30.0
 62
     5
 63
     7
 74
     1
 91
        0
 64
     7
 65
   257
 75
     1
175
     1
 42
1.0
 92
        8
 66
     7
 43
1.0
 76
     1
 77
     6
 78
     2
 67
     7
 79
     3
170
     0
171
     0
290
     0
174
     0
 93
       13
 44
0.0
173
     0
291
     0
 45
0.0
1001
ACAD
1000
AcDbSavedByObjectVersion
1070
     0
  0
DICTIONARYVAR
  5
2B0
102
{ACAD_REACTORS
330
2A3
102
}
330
2A3
100
DictionaryVariables
280
     0
  1
1:1
  0
DICTIONARYVAR
  5
2AA
102
{ACAD_REACTORS
330
2A3
102
}
330
2A3
100
DictionaryVariables
280
     0
  1
3.500000
  0
DICTIONARYVAR
  5
2AB
102
{ACAD_REACTORS
330
2A3
102
}
330
2A3
100
DictionaryVariables
280
     0
  1
acadiso.lin
  0
DICTIONARYVAR
  5
2A5
102
{ACAD_REACTORS
330
2A3
102
}
330
2A3
100
DictionaryVariables
280
     0
  1
Standard
  0
DICTIONARYVAR
  5
2A4
102
{ACAD_REACTORS
330
2A3
102
}
330
2A3
100
DictionaryVariables
280
     0
  1
Standard
  0
DICTIONARYVAR
  5
2AC
102
{ACAD_REACTORS
330
2A3
102
}
330
2A3
100
DictionaryVariables
280
     0
  1
2
  0
DICTIONARYVAR
  5
2AD
102
{ACAD_REACTORS
330
2A3
102
}
330
2A3
100
DictionaryVariables
280
     0
  1
1
  0
DICTIONARYVAR
  5
2B1
102
{ACAD_REACTORS
330
2A3
102
}
330
2A3
100
DictionaryVariables
280
     0
  1
1
  0
DICTIONARYVAR
  5
2A7
102
{ACAD_REACTORS
330
2A3
102
}
330
2A3
100
DictionaryVariables
280
     0
  1
80.000000
  0
DICTIONARYVAR
  5
2A6
102
{ACAD_REACTORS
330
2A3
102
}
330
2A3
100
DictionaryVariables
280
     0
  1
5.000000
  0
DICTIONARY
  5
2E4
330
45
100
AcDbDictionary
280
     1
281
     1
  3
ACAD_XREC_ROUNDTRIP
360
2E5
  0
DICTIONARY
  5
2E2
330
44
100
AcDbDictionary
280
     1
281
     1
  3
ACAD_XREC_ROUNDTRIP
360
2E3
  0
DICTIONARY
  5
2E6
330
46
100
AcDbDictionary
280
     1
281
     1
  3
ACAD_XREC_ROUNDTRIP
360
2E7
  0
DICTIONARY
  5
2E9
330
6C
100
AcDbDictionary
280
     1
281
     1
  3
ACAD_XREC_ROUNDTRIP
360
2EA
  0
DICTIONARY
  5
2BA
330
2F
100
AcDbDictionary
280
     1
281
     1
  3
ACAD_XREC_ROUNDTRIP
360
2BB
  0
DICTIONARY
  5
2C0
330
32
100
AcDbDictionary
280
     1
281
     1
  3
ACAD_XREC_ROUNDTRIP
360
2C1
  0
DICTIONARY
  5
2C8
330
36
100
AcDbDictionary
280
     1
281
     1
  3
ACAD_XREC_ROUNDTRIP
360
2C9
  0
DICTIONARY
  5
2D0
330
3A
100
AcDbDictionary
280
     1
281
     1
  3
ACAD_XREC_ROUNDTRIP
360
2D1
  0
DICTIONARY
  5
2C4
330
34
100
AcDbDictionary
280
     1
281
     1
  3
ACAD_XREC_ROUNDTRIP
360
2C5
  0
DICTIONARY
  5
2C6
330
35
100
AcDbDictionary
280
     1
281
     1
  3
ACAD_XREC_ROUNDTRIP
360
2C7
  0
DICTIONARY
  5
2D6
330
3D
100
AcDbDictionary
280
     1
281
     1
  3
ACAD_XREC_ROUNDTRIP
360
2D7
  0
DICTIONARY
  5
2CE
330
39
100
AcDbDictionary
280
     1
281
     1
  3
ACAD_XREC_ROUNDTRIP
360
2CF
  0
DICTIONARY
  5
2B2
330
2B
100
AcDbDictionary
280
     1
281
     1
  3
ACAD_XREC_ROUNDTRIP
360
2B3
  0
DICTIONARY
  5
2B4
330
2C
100
AcDbDictionary
280
     1
281
     1
  3
ACAD_XREC_ROUNDTRIP
360
2B5
  0
DICTIONARY
  5
2B6
330
2D
100
AcDbDictionary
280
     1
281
     1
  3
ACAD_XREC_ROUNDTRIP
360
2B7
  0
DICTIONARY
  5
2B8
330
2E
100
AcDbDictionary
280
     1
281
     1
  3
ACAD_XREC_ROUNDTRIP
360
2B9
  0
DICTIONARY
  5
2BE
330
31
100
AcDbDictionary
280
     1
281
     1
  3
ACAD_XREC_ROUNDTRIP
360
2BF
  0
DICTIONARY
  5
2D2
330
3B
100
AcDbDictionary
280
     1
281
     1
  3
ACAD_XREC_ROUNDTRIP
360
2D3
  0
DICTIONARY
  5
2CC
330
38
100
AcDbDictionary
280
     1
281
     1
  3
ACAD_XREC_ROUNDTRIP
360
2CD
  0
DICTIONARY
  5
2D4
330
3C
100
AcDbDictionary
280
     1
281
     1
  3
ACAD_XREC_ROUNDTRIP
360
2D5
  0
DICTIONARY
  5
2C2
330
33
100
AcDbDictionary
280
     1
281
     1
  3
ACAD_XREC_ROUNDTRIP
360
2C3
  0
DICTIONARY
  5
2E0
330
42
100
AcDbDictionary
280
     1
281
     1
  3
ACAD_XREC_ROUNDTRIP
360
2E1
  0
DICTIONARY
  5
2DE
330
41
100
AcDbDictionary
280
     1
281
     1
  3
ACAD_XREC_ROUNDTRIP
360
2DF
  0
DICTIONARY
  5
2D8
330
3E
100
AcDbDictionary
280
     1
281
     1
  3
ACAD_XREC_ROUNDTRIP
360
2D9
  0
DICTIONARY
  5
2DA
330
3F
100
AcDbDictionary
280
     1
281
     1
  3
ACAD_XREC_ROUNDTRIP
360
2DB
  0
DICTIONARY
  5
2CA
330
37
100
AcDbDictionary
280
     1
281
     1
  3
ACAD_XREC_ROUNDTRIP
360
2CB
  0
DICTIONARY
  5
2BC
330
30
100
AcDbDictionary
280
     1
281
     1
  3
ACAD_XREC_ROUNDTRIP
360
2BD
  0
DICTIONARY
  5
2DC
330
40
100
AcDbDictionary
280
     1
281
     1
  3
ACAD_XREC_ROUNDTRIP
360
2DD
  0
XRECORD
  5
2E5
102
{ACAD_REACTORS
330
2E4
102
}
330
2E4
100
AcDbXrecord
280
     1
102
MATERIAL
148
0.0
149
0.0
149
0.0
 93
        0
 94
      127
282
     0
 72
     1
 77
     1
171
     1
175
     1
179
     1
273
     0
  0
XRECORD
  5
2E3
102
{ACAD_REACTORS
330
2E2
102
}
330
2E2
100
AcDbXrecord
280
     1
102
MATERIAL
148
0.0
149
0.0
149
0.0
 93
        0
 94
      127
282
     0
 72
     1
 77
     1
171
     1
175
     1
179
     1
273
     0
  0
XRECORD
  5
2E7
102
{ACAD_REACTORS
330
2E6
102
}
330
2E6
100
AcDbXrecord
280
     1
102
MATERIAL
148
0.0
149
0.0
149
0.0
 93
        0
 94
      127
282
     0
 72
     1
 77
     1
171
     1
175
     1
179
     1
273
     0
  0
XRECORD
  5
2EA
102
{ACAD_REACTORS
330
2E9
102
}
330
2E9
100
AcDbXrecord
280
     1
102
ACAD_ROUNDTRIP_2010_MLEADER_STYLE
  0
XRECORD
  5
2BB
102
{ACAD_REACTORS
330
2BA
102
}
330
2BA
100
AcDbXrecord
280
     1
102
RTVSPropertyOp0
 70
     1
102
RTVSPropertyOp1
 70
     1
102
RTVSPropertyOp2
 70
     1
102
RTVSPropertyOp3
 70
     1
102
RTVSPropertyOp4
 70
     1
102
RTVSPropertyOp5
 70
     1
102
RTVSPropertyOp6
 70
     1
102
RTVSPropertyOp7
 70
     1
102
RTVSPropertyOp8
 70
     1
102
RTVSPropertyOp9
 70
     1
102
RTVSPropertyOp10
 70
     1
102
RTVSPropertyOp11
 70
     1
102
RTVSPropertyOp12
 70
     1
102
RTVSPropertyOp13
 70
     1
102
RTVSPropertyOp14
 70
     1
102
RTVSPropertyOp15
 70
     1
102
RTVSPropertyOp16
 70
     1
102
RTVSPropertyOp17
 70
     1
102
RTVSPropertyOp18
 70
     1
102
RTVSPropertyOp19
 70
     1
102
RTVSPropertyOp20
 70
     1
102
RTVSPropertyOp21
 70
     1
102
RTVSPropertyOp22
 70
     1
102
RTVSPropertyOp23
 70
     1
102
RTVSPropertyOp24
 70
     1
102
RTVSPropertyOp25
 70
     1
102
RTVSPropertyOp26
 70
     1
102
RTVSPropertyOp27
 70
     1
102
RTVSPropertyOp28
 70
     1
102
RTVSPropertyOp29
 70
     1
102
RTVSPropertyOp30
 70
     1
102
RTVSPropertyOp31
 70
     1
102
RTVSPropertyOp32
 70
     1
102
RTVSPropertyOp33
 70
     1
102
RTVSPropertyOp34
 70
     1
102
RTVSPropertyOp35
 70
     1
102
RTVSPropertyOp36
 70
     1
102
RTVSPropertyOp37
 70
     1
102
RTVSPropertyOp38
 70
     1
102
RTVSPropertyOp39
 70
     1
102
RTVSPropertyOp40
 70
     1
102
RTVSPropertyOp41
 70
     1
102
RTVSPropertyOp42
 70
     1
102
RTVSPropertyOp43
 70
     1
102
RTVSPropertyOp44
 70
     1
102
RTVSPropertyOp45
 70
     1
102
RTVSPropertyOp46
 70
     1
102
RTVSPropertyOp47
 70
     1
102
RTVSPropertyOp48
 70
     1
102
RTVSPropertyOp49
 70
     1
102
RTVSPropertyOp50
 70
     1
102
RTVSPropertyOp51
 70
     0
102
RTVSPropertyOp52
 70
     0
102
RTVSPropertyOp53
 70
     1
102
RTVSPropertyOp54
 70
     1
102
RTVSPropertyOp55
 70
     1
102
RTVSPropertyOp56
 70
     1
102
RTVSPropertyOp57
 70
     1
102
RTVSPost2010Prop28
280
     1
102
RTVSPost2010PropOp28
 70
     1
102
RTVSPost2010Prop29
280
     1
102
RTVSPost2010PropOp29
 70
     1
102
RTVSPost2010Prop30
280
     0
102
RTVSPost2010PropOp30
 70
     1
102
RTVSPost2010Prop31
280
     0
102
RTVSPost2010PropOp31
 70
     1
102
RTVSPost2010Prop32
280
     0
102
RTVSPost2010PropOp32
 70
     1
102
RTVSPost2010Prop33
280
     0
102
RTVSPost2010PropOp33
 70
     1
102
RTVSPost2010Prop34
280
     0
102
RTVSPost2010PropOp34
 70
     1
102
RTVSPost2010Prop35
280
     0
102
RTVSPost2010PropOp35
 70
     1
102
RTVSPost2010Prop36
280
     0
102
RTVSPost2010PropOp36
 70
     1
102
RTVSPost2010Prop37
 90
       50
102
RTVSPost2010PropOp37
 70
     1
102
RTVSPost2010Prop38
140
0.0
102
RTVSPost2010PropOp38
 70
     1
102
RTVSPost2010Prop39
140
1.0
102
RTVSPost2010PropOp39
 70
     1
102
RTVSPost2010Prop40
 90
        0
102
RTVSPost2010PropOp40
 70
     1
102
RTVSPost2010Prop41ColorIndex
 90
       18
102
RTVSPost2010Prop41ColorRGB
 90
        0
102
RTVSPost2010PropOp41
 70
     1
102
RTVSPost2010Prop42
 90
       50
102
RTVSPost2010PropOp42
 70
     1
102
RTVSPost2010Prop43
 90
        3
102
RTVSPost2010PropOp43
 70
     1
102
RTVSPost2010Prop44ColorIndex
 90
        5
102
RTVSPost2010Prop44ColorRGB
 90
      255
102
RTVSPost2010PropOp44
 70
     1
102
RTVSPost2010Prop45
280
     0
102
RTVSPost2010PropOp45
 70
     1
102
RTVSPost2010Prop46
 90
       50
102
RTVSPost2010PropOp46
 70
     1
102
RTVSPost2010Prop47
 90
       50
102
RTVSPost2010PropOp47
 70
     1
102
RTVSPost2010Prop48
 90
       50
102
RTVSPost2010PropOp48
 70
     1
102
RTVSPost2010Prop49
280
     0
102
RTVSPost2010PropOp49
 70
     1
102
RTVSPost2010Prop50
 90
       50
102
RTVSPost2010PropOp50
 70
     1
102
RTVSPost2010Prop51ColorIndex
 90
      256
102
RTVSPost2010Prop51ColorRGB
 90
-16777216
102
RTVSPost2010PropOp51
 70
     0
102
RTVSPost2010Prop52
140
1.0
102
RTVSPost2010PropOp52
 70
     0
102
RTVSPost2010Prop53
 90
        2
102
RTVSPost2010PropOp53
 70
     1
102
RTVSPost2010Prop54
  1
strokes_ogs.tif
102
RTVSPost2010PropOp54
 70
     1
102
RTVSPost2010Prop55
280
     0
102
RTVSPost2010PropOp55
 70
     1
102
RTVSPost2010Prop56
140
1.0
102
RTVSPost2010PropOp56
 70
     1
102
RTVSPost2010Prop57
140
1.0
102
RTVSPost2010PropOp57
 70
     1
  0
XRECORD
  5
2C1
102
{ACAD_REACTORS
330
2C0
102
}
330
2C0
100
AcDbXrecord
280
     1
102
RTVSPropertyOp0
 70
     1
102
RTVSPropertyOp1
 70
     1
102
RTVSPropertyOp2
 70
     1
102
RTVSPropertyOp3
 70
     1
102
RTVSPropertyOp4
 70
     1
102
RTVSPropertyOp5
 70
     1
102
RTVSPropertyOp6
 70
     1
102
RTVSPropertyOp7
 70
     1
102
RTVSPropertyOp8
 70
     1
102
RTVSPropertyOp9
 70
     1
102
RTVSPropertyOp10
 70
     1
102
RTVSPropertyOp11
 70
     1
102
RTVSPropertyOp12
 70
     1
102
RTVSPropertyOp13
 70
     1
102
RTVSPropertyOp14
 70
     1
102
RTVSPropertyOp15
 70
     1
102
RTVSPropertyOp16
 70
     1
102
RTVSPropertyOp17
 70
     1
102
RTVSPropertyOp18
 70
     1
102
RTVSPropertyOp19
 70
     1
102
RTVSPropertyOp20
 70
     1
102
RTVSPropertyOp21
 70
     1
102
RTVSPropertyOp22
 70
     1
102
RTVSPropertyOp23
 70
     1
102
RTVSPropertyOp24
 70
     1
102
RTVSPropertyOp25
 70
     1
102
RTVSPropertyOp26
 70
     1
102
RTVSPropertyOp27
 70
     1
102
RTVSPropertyOp28
 70
     1
102
RTVSPropertyOp29
 70
     1
102
RTVSPropertyOp30
 70
     1
102
RTVSPropertyOp31
 70
     1
102
RTVSPropertyOp32
 70
     1
102
RTVSPropertyOp33
 70
     1
102
RTVSPropertyOp34
 70
     1
102
RTVSPropertyOp35
 70
     1
102
RTVSPropertyOp36
 70
     1
102
RTVSPropertyOp37
 70
     1
102
RTVSPropertyOp38
 70
     1
102
RTVSPropertyOp39
 70
     1
102
RTVSPropertyOp40
 70
     1
102
RTVSPropertyOp41
 70
     1
102
RTVSPropertyOp42
 70
     1
102
RTVSPropertyOp43
 70
     1
102
RTVSPropertyOp44
 70
     1
102
RTVSPropertyOp45
 70
     1
102
RTVSPropertyOp46
 70
     1
102
RTVSPropertyOp47
 70
     1
102
RTVSPropertyOp48
 70
     1
102
RTVSPropertyOp49
 70
     1
102
RTVSPropertyOp50
 70
     1
102
RTVSPropertyOp51
 70
     0
102
RTVSPropertyOp52
 70
     0
102
RTVSPropertyOp53
 70
     1
102
RTVSPropertyOp54
 70
     1
102
RTVSPropertyOp55
 70
     1
102
RTVSPropertyOp56
 70
     1
102
RTVSPropertyOp57
 70
     1
102
RTVSPost2010Prop28
280
     0
102
RTVSPost2010PropOp28
 70
     1
102
RTVSPost2010Prop29
280
     1
102
RTVSPost2010PropOp29
 70
     1
102
RTVSPost2010Prop30
280
     1
102
RTVSPost2010PropOp30
 70
     1
102
RTVSPost2010Prop31
280
     0
102
RTVSPost2010PropOp31
 70
     1
102
RTVSPost2010Prop32
280
     0
102
RTVSPost2010PropOp32
 70
     1
102
RTVSPost2010Prop33
280
     0
102
RTVSPost2010PropOp33
 70
     1
102
RTVSPost2010Prop34
280
     0
102
RTVSPost2010PropOp34
 70
     1
102
RTVSPost2010Prop35
280
     0
102
RTVSPost2010PropOp35
 70
     1
102
RTVSPost2010Prop36
280
     0
102
RTVSPost2010PropOp36
 70
     1
102
RTVSPost2010Prop37
 90
       50
102
RTVSPost2010PropOp37
 70
     1
102
RTVSPost2010Prop38
140
0.0
102
RTVSPost2010PropOp38
 70
     1
102
RTVSPost2010Prop39
140
1.0
102
RTVSPost2010PropOp39
 70
     1
102
RTVSPost2010Prop40
 90
        0
102
RTVSPost2010PropOp40
 70
     1
102
RTVSPost2010Prop41ColorIndex
 90
       18
102
RTVSPost2010Prop41ColorRGB
 90
        0
102
RTVSPost2010PropOp41
 70
     1
102
RTVSPost2010Prop42
 90
       50
102
RTVSPost2010PropOp42
 70
     1
102
RTVSPost2010Prop43
 90
        3
102
RTVSPost2010PropOp43
 70
     1
102
RTVSPost2010Prop44ColorIndex
 90
        5
102
RTVSPost2010Prop44ColorRGB
 90
      255
102
RTVSPost2010PropOp44
 70
     1
102
RTVSPost2010Prop45
280
     0
102
RTVSPost2010PropOp45
 70
     1
102
RTVSPost2010Prop46
 90
       50
102
RTVSPost2010PropOp46
 70
     1
102
RTVSPost2010Prop47
 90
       50
102
RTVSPost2010PropOp47
 70
     1
102
RTVSPost2010Prop48
 90
       50
102
RTVSPost2010PropOp48
 70
     1
102
RTVSPost2010Prop49
280
     0
102
RTVSPost2010PropOp49
 70
     1
102
RTVSPost2010Prop50
 90
       50
102
RTVSPost2010PropOp50
 70
     1
102
RTVSPost2010Prop51ColorIndex
 90
      256
102
RTVSPost2010Prop51ColorRGB
 90
-16777216
102
RTVSPost2010PropOp51
 70
     0
102
RTVSPost2010Prop52
140
1.0
102
RTVSPost2010PropOp52
 70
     0
102
RTVSPost2010Prop53
 90
        2
102
RTVSPost2010PropOp53
 70
     1
102
RTVSPost2010Prop54
  1
strokes_ogs.tif
102
RTVSPost2010PropOp54
 70
     1
102
RTVSPost2010Prop55
280
     0
102
RTVSPost2010PropOp55
 70
     1
102
RTVSPost2010Prop56
140
1.0
102
RTVSPost2010PropOp56
 70
     1
102
RTVSPost2010Prop57
140
1.0
102
RTVSPost2010PropOp57
 70
     1
  0
XRECORD
  5
2C9
102
{ACAD_REACTORS
330
2C8
102
}
330
2C8
100
AcDbXrecord
280
     1
102
RTVSPropertyOp0
 70
     1
102
RTVSPropertyOp1
 70
     1
102
RTVSPropertyOp2
 70
     1
102
RTVSPropertyOp3
 70
     1
102
RTVSPropertyOp4
 70
     1
102
RTVSPropertyOp5
 70
     1
102
RTVSPropertyOp6
 70
     1
102
RTVSPropertyOp7
 70
     1
102
RTVSPropertyOp8
 70
     1
102
RTVSPropertyOp9
 70
     1
102
RTVSPropertyOp10
 70
     1
102
RTVSPropertyOp11
 70
     1
102
RTVSPropertyOp12
 70
     1
102
RTVSPropertyOp13
 70
     1
102
RTVSPropertyOp14
 70
     1
102
RTVSPropertyOp15
 70
     1
102
RTVSPropertyOp16
 70
     1
102
RTVSPropertyOp17
 70
     1
102
RTVSPropertyOp18
 70
     1
102
RTVSPropertyOp19
 70
     1
102
RTVSPropertyOp20
 70
     1
102
RTVSPropertyOp21
 70
     1
102
RTVSPropertyOp22
 70
     1
102
RTVSPropertyOp23
 70
     1
102
RTVSPropertyOp24
 70
     1
102
RTVSPropertyOp25
 70
     1
102
RTVSPropertyOp26
 70
     1
102
RTVSPropertyOp27
 70
     1
102
RTVSPropertyOp28
 70
     1
102
RTVSPropertyOp29
 70
     1
102
RTVSPropertyOp30
 70
     1
102
RTVSPropertyOp31
 70
     1
102
RTVSPropertyOp32
 70
     1
102
RTVSPropertyOp33
 70
     1
102
RTVSPropertyOp34
 70
     1
102
RTVSPropertyOp35
 70
     1
102
RTVSPropertyOp36
 70
     1
102
RTVSPropertyOp37
 70
     1
102
RTVSPropertyOp38
 70
     1
102
RTVSPropertyOp39
 70
     1
102
RTVSPropertyOp40
 70
     1
102
RTVSPropertyOp41
 70
     1
102
RTVSPropertyOp42
 70
     1
102
RTVSPropertyOp43
 70
     1
102
RTVSPropertyOp44
 70
     1
102
RTVSPropertyOp45
 70
     1
102
RTVSPropertyOp46
 70
     1
102
RTVSPropertyOp47
 70
     1
102
RTVSPropertyOp48
 70
     1
102
RTVSPropertyOp49
 70
     1
102
RTVSPropertyOp50
 70
     1
102
RTVSPropertyOp51
 70
     0
102
RTVSPropertyOp52
 70
     0
102
RTVSPropertyOp53
 70
     1
102
RTVSPropertyOp54
 70
     1
102
RTVSPropertyOp55
 70
     1
102
RTVSPropertyOp56
 70
     1
102
RTVSPropertyOp57
 70
     1
102
RTVSPost2010Prop28
280
     0
102
RTVSPost2010PropOp28
 70
     1
102
RTVSPost2010Prop29
280
     1
102
RTVSPost2010PropOp29
 70
     1
102
RTVSPost2010Prop30
280
     1
102
RTVSPost2010PropOp30
 70
     1
102
RTVSPost2010Prop31
280
     0
102
RTVSPost2010PropOp31
 70
     1
102
RTVSPost2010Prop32
280
     0
102
RTVSPost2010PropOp32
 70
     1
102
RTVSPost2010Prop33
280
     0
102
RTVSPost2010PropOp33
 70
     1
102
RTVSPost2010Prop34
280
     0
102
RTVSPost2010PropOp34
 70
     1
102
RTVSPost2010Prop35
280
     0
102
RTVSPost2010PropOp35
 70
     1
102
RTVSPost2010Prop36
280
     0
102
RTVSPost2010PropOp36
 70
     1
102
RTVSPost2010Prop37
 90
       50
102
RTVSPost2010PropOp37
 70
     1
102
RTVSPost2010Prop38
140
0.0
102
RTVSPost2010PropOp38
 70
     1
102
RTVSPost2010Prop39
140
1.0
102
RTVSPost2010PropOp39
 70
     1
102
RTVSPost2010Prop40
 90
        0
102
RTVSPost2010PropOp40
 70
     1
102
RTVSPost2010Prop41ColorIndex
 90
       18
102
RTVSPost2010Prop41ColorRGB
 90
        0
102
RTVSPost2010PropOp41
 70
     1
102
RTVSPost2010Prop42
 90
       50
102
RTVSPost2010PropOp42
 70
     1
102
RTVSPost2010Prop43
 90
        3
102
RTVSPost2010PropOp43
 70
     1
102
RTVSPost2010Prop44ColorIndex
 90
        5
102
RTVSPost2010Prop44ColorRGB
 90
      255
102
RTVSPost2010PropOp44
 70
     1
102
RTVSPost2010Prop45
280
     0
102
RTVSPost2010PropOp45
 70
     1
102
RTVSPost2010Prop46
 90
       50
102
RTVSPost2010PropOp46
 70
     1
102
RTVSPost2010Prop47
 90
       50
102
RTVSPost2010PropOp47
 70
     1
102
RTVSPost2010Prop48
 90
       50
102
RTVSPost2010PropOp48
 70
     1
102
RTVSPost2010Prop49
280
     0
102
RTVSPost2010PropOp49
 70
     1
102
RTVSPost2010Prop50
 90
       50
102
RTVSPost2010PropOp50
 70
     1
102
RTVSPost2010Prop51ColorIndex
 90
      256
102
RTVSPost2010Prop51ColorRGB
 90
-16777216
102
RTVSPost2010PropOp51
 70
     0
102
RTVSPost2010Prop52
140
1.0
102
RTVSPost2010PropOp52
 70
     0
102
RTVSPost2010Prop53
 90
        2
102
RTVSPost2010PropOp53
 70
     1
102
RTVSPost2010Prop54
  1
strokes_ogs.tif
102
RTVSPost2010PropOp54
 70
     1
102
RTVSPost2010Prop55
280
     0
102
RTVSPost2010PropOp55
 70
     1
102
RTVSPost2010Prop56
140
1.0
102
RTVSPost2010PropOp56
 70
     1
102
RTVSPost2010Prop57
140
1.0
102
RTVSPost2010PropOp57
 70
     1
  0
XRECORD
  5
2D1
102
{ACAD_REACTORS
330
2D0
102
}
330
2D0
100
AcDbXrecord
280
     1
102
RTVSPropertyOp0
 70
     1
102
RTVSPropertyOp1
 70
     1
102
RTVSPropertyOp2
 70
     1
102
RTVSPropertyOp3
 70
     1
102
RTVSPropertyOp4
 70
     1
102
RTVSPropertyOp5
 70
     1
102
RTVSPropertyOp6
 70
     1
102
RTVSPropertyOp7
 70
     1
102
RTVSPropertyOp8
 70
     1
102
RTVSPropertyOp9
 70
     1
102
RTVSPropertyOp10
 70
     1
102
RTVSPropertyOp11
 70
     1
102
RTVSPropertyOp12
 70
     1
102
RTVSPropertyOp13
 70
     1
102
RTVSPropertyOp14
 70
     1
102
RTVSPropertyOp15
 70
     1
102
RTVSPropertyOp16
 70
     1
102
RTVSPropertyOp17
 70
     1
102
RTVSPropertyOp18
 70
     1
102
RTVSPropertyOp19
 70
     1
102
RTVSPropertyOp20
 70
     1
102
RTVSPropertyOp21
 70
     1
102
RTVSPropertyOp22
 70
     1
102
RTVSPropertyOp23
 70
     1
102
RTVSPropertyOp24
 70
     1
102
RTVSPropertyOp25
 70
     1
102
RTVSPropertyOp26
 70
     1
102
RTVSPropertyOp27
 70
     1
102
RTVSPropertyOp28
 70
     1
102
RTVSPropertyOp29
 70
     1
102
RTVSPropertyOp30
 70
     1
102
RTVSPropertyOp31
 70
     1
102
RTVSPropertyOp32
 70
     1
102
RTVSPropertyOp33
 70
     1
102
RTVSPropertyOp34
 70
     1
102
RTVSPropertyOp35
 70
     1
102
RTVSPropertyOp36
 70
     1
102
RTVSPropertyOp37
 70
     1
102
RTVSPropertyOp38
 70
     1
102
RTVSPropertyOp39
 70
     1
102
RTVSPropertyOp40
 70
     1
102
RTVSPropertyOp41
 70
     1
102
RTVSPropertyOp42
 70
     1
102
RTVSPropertyOp43
 70
     1
102
RTVSPropertyOp44
 70
     1
102
RTVSPropertyOp45
 70
     1
102
RTVSPropertyOp46
 70
     1
102
RTVSPropertyOp47
 70
     1
102
RTVSPropertyOp48
 70
     1
102
RTVSPropertyOp49
 70
     1
102
RTVSPropertyOp50
 70
     1
102
RTVSPropertyOp51
 70
     0
102
RTVSPropertyOp52
 70
     0
102
RTVSPropertyOp53
 70
     1
102
RTVSPropertyOp54
 70
     1
102
RTVSPropertyOp55
 70
     1
102
RTVSPropertyOp56
 70
     1
102
RTVSPropertyOp57
 70
     1
102
RTVSPost2010Prop28
280
     0
102
RTVSPost2010PropOp28
 70
     1
102
RTVSPost2010Prop29
280
     1
102
RTVSPost2010PropOp29
 70
     1
102
RTVSPost2010Prop30
280
     1
102
RTVSPost2010PropOp30
 70
     1
102
RTVSPost2010Prop31
280
     0
102
RTVSPost2010PropOp31
 70
     1
102
RTVSPost2010Prop32
280
     0
102
RTVSPost2010PropOp32
 70
     1
102
RTVSPost2010Prop33
280
     0
102
RTVSPost2010PropOp33
 70
     1
102
RTVSPost2010Prop34
280
     0
102
RTVSPost2010PropOp34
 70
     1
102
RTVSPost2010Prop35
280
     0
102
RTVSPost2010PropOp35
 70
     1
102
RTVSPost2010Prop36
280
     0
102
RTVSPost2010PropOp36
 70
     1
102
RTVSPost2010Prop37
 90
       50
102
RTVSPost2010PropOp37
 70
     1
102
RTVSPost2010Prop38
140
0.0
102
RTVSPost2010PropOp38
 70
     1
102
RTVSPost2010Prop39
140
1.0
102
RTVSPost2010PropOp39
 70
     1
102
RTVSPost2010Prop40
 90
        0
102
RTVSPost2010PropOp40
 70
     1
102
RTVSPost2010Prop41ColorIndex
 90
       18
102
RTVSPost2010Prop41ColorRGB
 90
        0
102
RTVSPost2010PropOp41
 70
     1
102
RTVSPost2010Prop42
 90
       50
102
RTVSPost2010PropOp42
 70
     1
102
RTVSPost2010Prop43
 90
        3
102
RTVSPost2010PropOp43
 70
     1
102
RTVSPost2010Prop44ColorIndex
 90
        5
102
RTVSPost2010Prop44ColorRGB
 90
      255
102
RTVSPost2010PropOp44
 70
     1
102
RTVSPost2010Prop45
280
     0
102
RTVSPost2010PropOp45
 70
     1
102
RTVSPost2010Prop46
 90
       50
102
RTVSPost2010PropOp46
 70
     1
102
RTVSPost2010Prop47
 90
       50
102
RTVSPost2010PropOp47
 70
     1
102
RTVSPost2010Prop48
 90
       50
102
RTVSPost2010PropOp48
 70
     1
102
RTVSPost2010Prop49
280
     0
102
RTVSPost2010PropOp49
 70
     1
102
RTVSPost2010Prop50
 90
       50
102
RTVSPost2010PropOp50
 70
     1
102
RTVSPost2010Prop51ColorIndex
 90
      256
102
RTVSPost2010Prop51ColorRGB
 90
-16777216
102
RTVSPost2010PropOp51
 70
     0
102
RTVSPost2010Prop52
140
1.0
102
RTVSPost2010PropOp52
 70
     0
102
RTVSPost2010Prop53
 90
        2
102
RTVSPost2010PropOp53
 70
     1
102
RTVSPost2010Prop54
  1
strokes_ogs.tif
102
RTVSPost2010PropOp54
 70
     1
102
RTVSPost2010Prop55
280
     0
102
RTVSPost2010PropOp55
 70
     1
102
RTVSPost2010Prop56
140
1.0
102
RTVSPost2010PropOp56
 70
     1
102
RTVSPost2010Prop57
140
1.0
102
RTVSPost2010PropOp57
 70
     1
  0
XRECORD
  5
2C5
102
{ACAD_REACTORS
330
2C4
102
}
330
2C4
100
AcDbXrecord
280
     1
102
RTVSPropertyOp0
 70
     1
102
RTVSPropertyOp1
 70
     1
102
RTVSPropertyOp2
 70
     1
102
RTVSPropertyOp3
 70
     1
102
RTVSPropertyOp4
 70
     1
102
RTVSPropertyOp5
 70
     1
102
RTVSPropertyOp6
 70
     1
102
RTVSPropertyOp7
 70
     1
102
RTVSPropertyOp8
 70
     1
102
RTVSPropertyOp9
 70
     1
102
RTVSPropertyOp10
 70
     1
102
RTVSPropertyOp11
 70
     1
102
RTVSPropertyOp12
 70
     1
102
RTVSPropertyOp13
 70
     1
102
RTVSPropertyOp14
 70
     1
102
RTVSPropertyOp15
 70
     1
102
RTVSPropertyOp16
 70
     1
102
RTVSPropertyOp17
 70
     1
102
RTVSPropertyOp18
 70
     1
102
RTVSPropertyOp19
 70
     1
102
RTVSPropertyOp20
 70
     1
102
RTVSPropertyOp21
 70
     1
102
RTVSPropertyOp22
 70
     1
102
RTVSPropertyOp23
 70
     1
102
RTVSPropertyOp24
 70
     1
102
RTVSPropertyOp25
 70
     1
102
RTVSPropertyOp26
 70
     1
102
RTVSPropertyOp27
 70
     1
102
RTVSPropertyOp28
 70
     1
102
RTVSPropertyOp29
 70
     1
102
RTVSPropertyOp30
 70
     1
102
RTVSPropertyOp31
 70
     1
102
RTVSPropertyOp32
 70
     1
102
RTVSPropertyOp33
 70
     1
102
RTVSPropertyOp34
 70
     1
102
RTVSPropertyOp35
 70
     1
102
RTVSPropertyOp36
 70
     1
102
RTVSPropertyOp37
 70
     1
102
RTVSPropertyOp38
 70
     1
102
RTVSPropertyOp39
 70
     1
102
RTVSPropertyOp40
 70
     1
102
RTVSPropertyOp41
 70
     1
102
RTVSPropertyOp42
 70
     1
102
RTVSPropertyOp43
 70
     1
102
RTVSPropertyOp44
 70
     1
102
RTVSPropertyOp45
 70
     1
102
RTVSPropertyOp46
 70
     1
102
RTVSPropertyOp47
 70
     1
102
RTVSPropertyOp48
 70
     1
102
RTVSPropertyOp49
 70
     1
102
RTVSPropertyOp50
 70
     1
102
RTVSPropertyOp51
 70
     0
102
RTVSPropertyOp52
 70
     0
102
RTVSPropertyOp53
 70
     1
102
RTVSPropertyOp54
 70
     1
102
RTVSPropertyOp55
 70
     1
102
RTVSPropertyOp56
 70
     1
102
RTVSPropertyOp57
 70
     1
102
RTVSPost2010Prop28
280
     0
102
RTVSPost2010PropOp28
 70
     1
102
RTVSPost2010Prop29
280
     1
102
RTVSPost2010PropOp29
 70
     1
102
RTVSPost2010Prop30
280
     1
102
RTVSPost2010PropOp30
 70
     1
102
RTVSPost2010Prop31
280
     0
102
RTVSPost2010PropOp31
 70
     1
102
RTVSPost2010Prop32
280
     0
102
RTVSPost2010PropOp32
 70
     1
102
RTVSPost2010Prop33
280
     0
102
RTVSPost2010PropOp33
 70
     1
102
RTVSPost2010Prop34
280
     0
102
RTVSPost2010PropOp34
 70
     1
102
RTVSPost2010Prop35
280
     0
102
RTVSPost2010PropOp35
 70
     1
102
RTVSPost2010Prop36
280
     0
102
RTVSPost2010PropOp36
 70
     1
102
RTVSPost2010Prop37
 90
       50
102
RTVSPost2010PropOp37
 70
     1
102
RTVSPost2010Prop38
140
0.0
102
RTVSPost2010PropOp38
 70
     1
102
RTVSPost2010Prop39
140
1.0
102
RTVSPost2010PropOp39
 70
     1
102
RTVSPost2010Prop40
 90
        0
102
RTVSPost2010PropOp40
 70
     1
102
RTVSPost2010Prop41ColorIndex
 90
       18
102
RTVSPost2010Prop41ColorRGB
 90
        0
102
RTVSPost2010PropOp41
 70
     1
102
RTVSPost2010Prop42
 90
       50
102
RTVSPost2010PropOp42
 70
     1
102
RTVSPost2010Prop43
 90
        3
102
RTVSPost2010PropOp43
 70
     1
102
RTVSPost2010Prop44ColorIndex
 90
        5
102
RTVSPost2010Prop44ColorRGB
 90
      255
102
RTVSPost2010PropOp44
 70
     1
102
RTVSPost2010Prop45
280
     0
102
RTVSPost2010PropOp45
 70
     1
102
RTVSPost2010Prop46
 90
       50
102
RTVSPost2010PropOp46
 70
     1
102
RTVSPost2010Prop47
 90
       50
102
RTVSPost2010PropOp47
 70
     1
102
RTVSPost2010Prop48
 90
       50
102
RTVSPost2010PropOp48
 70
     1
102
RTVSPost2010Prop49
280
     0
102
RTVSPost2010PropOp49
 70
     1
102
RTVSPost2010Prop50
 90
       50
102
RTVSPost2010PropOp50
 70
     1
102
RTVSPost2010Prop51ColorIndex
 90
      256
102
RTVSPost2010Prop51ColorRGB
 90
-16777216
102
RTVSPost2010PropOp51
 70
     0
102
RTVSPost2010Prop52
140
1.0
102
RTVSPost2010PropOp52
 70
     0
102
RTVSPost2010Prop53
 90
        2
102
RTVSPost2010PropOp53
 70
     1
102
RTVSPost2010Prop54
  1
strokes_ogs.tif
102
RTVSPost2010PropOp54
 70
     1
102
RTVSPost2010Prop55
280
     0
102
RTVSPost2010PropOp55
 70
     1
102
RTVSPost2010Prop56
140
1.0
102
RTVSPost2010PropOp56
 70
     1
102
RTVSPost2010Prop57
140
1.0
102
RTVSPost2010PropOp57
 70
     1
  0
XRECORD
  5
2C7
102
{ACAD_REACTORS
330
2C6
102
}
330
2C6
100
AcDbXrecord
280
     1
102
RTVSPropertyOp0
 70
     1
102
RTVSPropertyOp1
 70
     1
102
RTVSPropertyOp2
 70
     1
102
RTVSPropertyOp3
 70
     1
102
RTVSPropertyOp4
 70
     1
102
RTVSPropertyOp5
 70
     1
102
RTVSPropertyOp6
 70
     1
102
RTVSPropertyOp7
 70
     1
102
RTVSPropertyOp8
 70
     1
102
RTVSPropertyOp9
 70
     1
102
RTVSPropertyOp10
 70
     1
102
RTVSPropertyOp11
 70
     1
102
RTVSPropertyOp12
 70
     1
102
RTVSPropertyOp13
 70
     1
102
RTVSPropertyOp14
 70
     1
102
RTVSPropertyOp15
 70
     1
102
RTVSPropertyOp16
 70
     1
102
RTVSPropertyOp17
 70
     1
102
RTVSPropertyOp18
 70
     1
102
RTVSPropertyOp19
 70
     1
102
RTVSPropertyOp20
 70
     1
102
RTVSPropertyOp21
 70
     1
102
RTVSPropertyOp22
 70
     1
102
RTVSPropertyOp23
 70
     1
102
RTVSPropertyOp24
 70
     1
102
RTVSPropertyOp25
 70
     1
102
RTVSPropertyOp26
 70
     1
102
RTVSPropertyOp27
 70
     1
102
RTVSPropertyOp28
 70
     1
102
RTVSPropertyOp29
 70
     1
102
RTVSPropertyOp30
 70
     1
102
RTVSPropertyOp31
 70
     1
102
RTVSPropertyOp32
 70
     1
102
RTVSPropertyOp33
 70
     1
102
RTVSPropertyOp34
 70
     1
102
RTVSPropertyOp35
 70
     1
102
RTVSPropertyOp36
 70
     1
102
RTVSPropertyOp37
 70
     1
102
RTVSPropertyOp38
 70
     1
102
RTVSPropertyOp39
 70
     1
102
RTVSPropertyOp40
 70
     1
102
RTVSPropertyOp41
 70
     1
102
RTVSPropertyOp42
 70
     1
102
RTVSPropertyOp43
 70
     1
102
RTVSPropertyOp44
 70
     1
102
RTVSPropertyOp45
 70
     1
102
RTVSPropertyOp46
 70
     1
102
RTVSPropertyOp47
 70
     1
102
RTVSPropertyOp48
 70
     1
102
RTVSPropertyOp49
 70
     1
102
RTVSPropertyOp50
 70
     1
102
RTVSPropertyOp51
 70
     0
102
RTVSPropertyOp52
 70
     0
102
RTVSPropertyOp53
 70
     1
102
RTVSPropertyOp54
 70
     1
102
RTVSPropertyOp55
 70
     1
102
RTVSPropertyOp56
 70
     1
102
RTVSPropertyOp57
 70
     1
102
RTVSPost2010Prop28
280
     0
102
RTVSPost2010PropOp28
 70
     1
102
RTVSPost2010Prop29
280
     1
102
RTVSPost2010PropOp29
 70
     1
102
RTVSPost2010Prop30
280
     1
102
RTVSPost2010PropOp30
 70
     1
102
RTVSPost2010Prop31
280
     0
102
RTVSPost2010PropOp31
 70
     1
102
RTVSPost2010Prop32
280
     0
102
RTVSPost2010PropOp32
 70
     1
102
RTVSPost2010Prop33
280
     0
102
RTVSPost2010PropOp33
 70
     1
102
RTVSPost2010Prop34
280
     0
102
RTVSPost2010PropOp34
 70
     1
102
RTVSPost2010Prop35
280
     0
102
RTVSPost2010PropOp35
 70
     1
102
RTVSPost2010Prop36
280
     0
102
RTVSPost2010PropOp36
 70
     1
102
RTVSPost2010Prop37
 90
       50
102
RTVSPost2010PropOp37
 70
     1
102
RTVSPost2010Prop38
140
0.0
102
RTVSPost2010PropOp38
 70
     1
102
RTVSPost2010Prop39
140
1.0
102
RTVSPost2010PropOp39
 70
     1
102
RTVSPost2010Prop40
 90
        0
102
RTVSPost2010PropOp40
 70
     1
102
RTVSPost2010Prop41ColorIndex
 90
       18
102
RTVSPost2010Prop41ColorRGB
 90
        0
102
RTVSPost2010PropOp41
 70
     1
102
RTVSPost2010Prop42
 90
       50
102
RTVSPost2010PropOp42
 70
     1
102
RTVSPost2010Prop43
 90
        3
102
RTVSPost2010PropOp43
 70
     1
102
RTVSPost2010Prop44ColorIndex
 90
        5
102
RTVSPost2010Prop44ColorRGB
 90
      255
102
RTVSPost2010PropOp44
 70
     1
102
RTVSPost2010Prop45
280
     0
102
RTVSPost2010PropOp45
 70
     1
102
RTVSPost2010Prop46
 90
       50
102
RTVSPost2010PropOp46
 70
     1
102
RTVSPost2010Prop47
 90
       50
102
RTVSPost2010PropOp47
 70
     1
102
RTVSPost2010Prop48
 90
       50
102
RTVSPost2010PropOp48
 70
     1
102
RTVSPost2010Prop49
280
     0
102
RTVSPost2010PropOp49
 70
     1
102
RTVSPost2010Prop50
 90
       50
102
RTVSPost2010PropOp50
 70
     1
102
RTVSPost2010Prop51ColorIndex
 90
      256
102
RTVSPost2010Prop51ColorRGB
 90
-16777216
102
RTVSPost2010PropOp51
 70
     0
102
RTVSPost2010Prop52
140
1.0
102
RTVSPost2010PropOp52
 70
     0
102
RTVSPost2010Prop53
 90
        2
102
RTVSPost2010PropOp53
 70
     1
102
RTVSPost2010Prop54
  1
strokes_ogs.tif
102
RTVSPost2010PropOp54
 70
     1
102
RTVSPost2010Prop55
280
     0
102
RTVSPost2010PropOp55
 70
     1
102
RTVSPost2010Prop56
140
1.0
102
RTVSPost2010PropOp56
 70
     1
102
RTVSPost2010Prop57
140
1.0
102
RTVSPost2010PropOp57
 70
     1
  0
XRECORD
  5
2D7
102
{ACAD_REACTORS
330
2D6
102
}
330
2D6
100
AcDbXrecord
280
     1
102
RTVSPropertyOp0
 70
     0
102
RTVSPropertyOp1
 70
     0
102
RTVSPropertyOp2
 70
     0
102
RTVSPropertyOp3
 70
     0
102
RTVSPropertyOp4
 70
     0
102
RTVSPropertyOp5
 70
     0
102
RTVSPropertyOp6
 70
     0
102
RTVSPropertyOp7
 70
     0
102
RTVSPropertyOp8
 70
     0
102
RTVSPropertyOp9
 70
     0
102
RTVSPropertyOp10
 70
     0
102
RTVSPropertyOp11
 70
     0
102
RTVSPropertyOp12
 70
     0
102
RTVSPropertyOp13
 70
     0
102
RTVSPropertyOp14
 70
     2
102
RTVSPropertyOp15
 70
     0
102
RTVSPropertyOp16
 70
     0
102
RTVSPropertyOp17
 70
     0
102
RTVSPropertyOp18
 70
     0
102
RTVSPropertyOp19
 70
     0
102
RTVSPropertyOp20
 70
     0
102
RTVSPropertyOp21
 70
     0
102
RTVSPropertyOp22
 70
     0
102
RTVSPropertyOp23
 70
     0
102
RTVSPropertyOp24
 70
     0
102
RTVSPropertyOp25
 70
     0
102
RTVSPropertyOp26
 70
     0
102
RTVSPropertyOp27
 70
     0
102
RTVSPropertyOp28
 70
     0
102
RTVSPropertyOp29
 70
     0
102
RTVSPropertyOp30
 70
     0
102
RTVSPropertyOp31
 70
     0
102
RTVSPropertyOp32
 70
     0
102
RTVSPropertyOp33
 70
     0
102
RTVSPropertyOp34
 70
     0
102
RTVSPropertyOp35
 70
     0
102
RTVSPropertyOp36
 70
     0
102
RTVSPropertyOp37
 70
     0
102
RTVSPropertyOp38
 70
     0
102
RTVSPropertyOp39
 70
     0
102
RTVSPropertyOp40
 70
     0
102
RTVSPropertyOp41
 70
     0
102
RTVSPropertyOp42
 70
     0
102
RTVSPropertyOp43
 70
     0
102
RTVSPropertyOp44
 70
     0
102
RTVSPropertyOp45
 70
     0
102
RTVSPropertyOp46
 70
     0
102
RTVSPropertyOp47
 70
     0
102
RTVSPropertyOp48
 70
     0
102
RTVSPropertyOp49
 70
     0
102
RTVSPropertyOp50
 70
     0
102
RTVSPropertyOp51
 70
     0
102
RTVSPropertyOp52
 70
     0
102
RTVSPropertyOp53
 70
     0
102
RTVSPropertyOp54
 70
     0
102
RTVSPropertyOp55
 70
     0
102
RTVSPropertyOp56
 70
     0
102
RTVSPropertyOp57
 70
     0
102
RTVSPost2010Prop28
280
     0
102
RTVSPost2010PropOp28
 70
     0
102
RTVSPost2010Prop29
280
     1
102
RTVSPost2010PropOp29
 70
     0
102
RTVSPost2010Prop30
280
     1
102
RTVSPost2010PropOp30
 70
     0
102
RTVSPost2010Prop31
280
     0
102
RTVSPost2010PropOp31
 70
     0
102
RTVSPost2010Prop32
280
     0
102
RTVSPost2010PropOp32
 70
     0
102
RTVSPost2010Prop33
280
     0
102
RTVSPost2010PropOp33
 70
     0
102
RTVSPost2010Prop34
280
     0
102
RTVSPost2010PropOp34
 70
     0
102
RTVSPost2010Prop35
280
     0
102
RTVSPost2010PropOp35
 70
     0
102
RTVSPost2010Prop36
280
     0
102
RTVSPost2010PropOp36
 70
     0
102
RTVSPost2010Prop37
 90
       50
102
RTVSPost2010PropOp37
 70
     0
102
RTVSPost2010Prop38
140
0.0
102
RTVSPost2010PropOp38
 70
     0
102
RTVSPost2010Prop39
140
1.0
102
RTVSPost2010PropOp39
 70
     0
102
RTVSPost2010Prop40
 90
        0
102
RTVSPost2010PropOp40
 70
     0
102
RTVSPost2010Prop41ColorIndex
 90
       18
102
RTVSPost2010Prop41ColorRGB
 90
        0
102
RTVSPost2010PropOp41
 70
     0
102
RTVSPost2010Prop42
 90
       50
102
RTVSPost2010PropOp42
 70
     0
102
RTVSPost2010Prop43
 90
        3
102
RTVSPost2010PropOp43
 70
     0
102
RTVSPost2010Prop44ColorIndex
 90
        5
102
RTVSPost2010Prop44ColorRGB
 90
      255
102
RTVSPost2010PropOp44
 70
     0
102
RTVSPost2010Prop45
280
     0
102
RTVSPost2010PropOp45
 70
     0
102
RTVSPost2010Prop46
 90
       50
102
RTVSPost2010PropOp46
 70
     0
102
RTVSPost2010Prop47
 90
       50
102
RTVSPost2010PropOp47
 70
     0
102
RTVSPost2010Prop48
 90
       50
102
RTVSPost2010PropOp48
 70
     0
102
RTVSPost2010Prop49
280
     0
102
RTVSPost2010PropOp49
 70
     0
102
RTVSPost2010Prop50
 90
       50
102
RTVSPost2010PropOp50
 70
     0
102
RTVSPost2010Prop51ColorIndex
 90
      256
102
RTVSPost2010Prop51ColorRGB
 90
-16777216
102
RTVSPost2010PropOp51
 70
     0
102
RTVSPost2010Prop52
140
1.0
102
RTVSPost2010PropOp52
 70
     0
102
RTVSPost2010Prop53
 90
        2
102
RTVSPost2010PropOp53
 70
     0
102
RTVSPost2010Prop54
  1
strokes_ogs.tif
102
RTVSPost2010PropOp54
 70
     0
102
RTVSPost2010Prop55
280
     0
102
RTVSPost2010PropOp55
 70
     0
102
RTVSPost2010Prop56
140
1.0
102
RTVSPost2010PropOp56
 70
     0
102
RTVSPost2010Prop57
140
1.0
102
RTVSPost2010PropOp57
 70
     0
  0
XRECORD
  5
2CF
102
{ACAD_REACTORS
330
2CE
102
}
330
2CE
100
AcDbXrecord
280
     1
102
RTVSPropertyOp0
 70
     1
102
RTVSPropertyOp1
 70
     1
102
RTVSPropertyOp2
 70
     1
102
RTVSPropertyOp3
 70
     1
102
RTVSPropertyOp4
 70
     1
102
RTVSPropertyOp5
 70
     1
102
RTVSPropertyOp6
 70
     1
102
RTVSPropertyOp7
 70
     1
102
RTVSPropertyOp8
 70
     1
102
RTVSPropertyOp9
 70
     1
102
RTVSPropertyOp10
 70
     1
102
RTVSPropertyOp11
 70
     1
102
RTVSPropertyOp12
 70
     1
102
RTVSPropertyOp13
 70
     1
102
RTVSPropertyOp14
 70
     1
102
RTVSPropertyOp15
 70
     1
102
RTVSPropertyOp16
 70
     1
102
RTVSPropertyOp17
 70
     1
102
RTVSPropertyOp18
 70
     1
102
RTVSPropertyOp19
 70
     1
102
RTVSPropertyOp20
 70
     1
102
RTVSPropertyOp21
 70
     1
102
RTVSPropertyOp22
 70
     1
102
RTVSPropertyOp23
 70
     1
102
RTVSPropertyOp24
 70
     1
102
RTVSPropertyOp25
 70
     1
102
RTVSPropertyOp26
 70
     1
102
RTVSPropertyOp27
 70
     1
102
RTVSPropertyOp28
 70
     1
102
RTVSPropertyOp29
 70
     1
102
RTVSPropertyOp30
 70
     1
102
RTVSPropertyOp31
 70
     1
102
RTVSPropertyOp32
 70
     1
102
RTVSPropertyOp33
 70
     1
102
RTVSPropertyOp34
 70
     1
102
RTVSPropertyOp35
 70
     1
102
RTVSPropertyOp36
 70
     1
102
RTVSPropertyOp37
 70
     1
102
RTVSPropertyOp38
 70
     1
102
RTVSPropertyOp39
 70
     1
102
RTVSPropertyOp40
 70
     1
102
RTVSPropertyOp41
 70
     1
102
RTVSPropertyOp42
 70
     1
102
RTVSPropertyOp43
 70
     1
102
RTVSPropertyOp44
 70
     1
102
RTVSPropertyOp45
 70
     1
102
RTVSPropertyOp46
 70
     1
102
RTVSPropertyOp47
 70
     1
102
RTVSPropertyOp48
 70
     1
102
RTVSPropertyOp49
 70
     1
102
RTVSPropertyOp50
 70
     1
102
RTVSPropertyOp51
 70
     0
102
RTVSPropertyOp52
 70
     0
102
RTVSPropertyOp53
 70
     1
102
RTVSPropertyOp54
 70
     1
102
RTVSPropertyOp55
 70
     1
102
RTVSPropertyOp56
 70
     1
102
RTVSPropertyOp57
 70
     1
102
RTVSPost2010Prop28
280
     0
102
RTVSPost2010PropOp28
 70
     1
102
RTVSPost2010Prop29
280
     1
102
RTVSPost2010PropOp29
 70
     1
102
RTVSPost2010Prop30
280
     1
102
RTVSPost2010PropOp30
 70
     1
102
RTVSPost2010Prop31
280
     0
102
RTVSPost2010PropOp31
 70
     1
102
RTVSPost2010Prop32
280
     0
102
RTVSPost2010PropOp32
 70
     1
102
RTVSPost2010Prop33
280
     0
102
RTVSPost2010PropOp33
 70
     1
102
RTVSPost2010Prop34
280
     0
102
RTVSPost2010PropOp34
 70
     1
102
RTVSPost2010Prop35
280
     0
102
RTVSPost2010PropOp35
 70
     1
102
RTVSPost2010Prop36
280
     0
102
RTVSPost2010PropOp36
 70
     1
102
RTVSPost2010Prop37
 90
       50
102
RTVSPost2010PropOp37
 70
     1
102
RTVSPost2010Prop38
140
0.0
102
RTVSPost2010PropOp38
 70
     1
102
RTVSPost2010Prop39
140
1.0
102
RTVSPost2010PropOp39
 70
     1
102
RTVSPost2010Prop40
 90
        0
102
RTVSPost2010PropOp40
 70
     1
102
RTVSPost2010Prop41ColorIndex
 90
       18
102
RTVSPost2010Prop41ColorRGB
 90
        0
102
RTVSPost2010PropOp41
 70
     1
102
RTVSPost2010Prop42
 90
       50
102
RTVSPost2010PropOp42
 70
     1
102
RTVSPost2010Prop43
 90
        3
102
RTVSPost2010PropOp43
 70
     1
102
RTVSPost2010Prop44ColorIndex
 90
        5
102
RTVSPost2010Prop44ColorRGB
 90
      255
102
RTVSPost2010PropOp44
 70
     1
102
RTVSPost2010Prop45
280
     0
102
RTVSPost2010PropOp45
 70
     1
102
RTVSPost2010Prop46
 90
       50
102
RTVSPost2010PropOp46
 70
     1
102
RTVSPost2010Prop47
 90
       50
102
RTVSPost2010PropOp47
 70
     1
102
RTVSPost2010Prop48
 90
       50
102
RTVSPost2010PropOp48
 70
     1
102
RTVSPost2010Prop49
280
     0
102
RTVSPost2010PropOp49
 70
     1
102
RTVSPost2010Prop50
 90
       50
102
RTVSPost2010PropOp50
 70
     1
102
RTVSPost2010Prop51ColorIndex
 90
      256
102
RTVSPost2010Prop51ColorRGB
 90
-16777216
102
RTVSPost2010PropOp51
 70
     0
102
RTVSPost2010Prop52
140
1.0
102
RTVSPost2010PropOp52
 70
     0
102
RTVSPost2010Prop53
 90
        2
102
RTVSPost2010PropOp53
 70
     1
102
RTVSPost2010Prop54
  1
strokes_ogs.tif
102
RTVSPost2010PropOp54
 70
     1
102
RTVSPost2010Prop55
280
     0
102
RTVSPost2010PropOp55
 70
     1
102
RTVSPost2010Prop56
140
1.0
102
RTVSPost2010PropOp56
 70
     1
102
RTVSPost2010Prop57
140
1.0
102
RTVSPost2010PropOp57
 70
     1
  0
XRECORD
  5
2B3
102
{ACAD_REACTORS
330
2B2
102
}
330
2B2
100
AcDbXrecord
280
     1
102
RTVSPropertyOp0
 70
     1
102
RTVSPropertyOp1
 70
     1
102
RTVSPropertyOp2
 70
     1
102
RTVSPropertyOp3
 70
     1
102
RTVSPropertyOp4
 70
     1
102
RTVSPropertyOp5
 70
     1
102
RTVSPropertyOp6
 70
     1
102
RTVSPropertyOp7
 70
     1
102
RTVSPropertyOp8
 70
     1
102
RTVSPropertyOp9
 70
     1
102
RTVSPropertyOp10
 70
     1
102
RTVSPropertyOp11
 70
     1
102
RTVSPropertyOp12
 70
     1
102
RTVSPropertyOp13
 70
     1
102
RTVSPropertyOp14
 70
     1
102
RTVSPropertyOp15
 70
     1
102
RTVSPropertyOp16
 70
     1
102
RTVSPropertyOp17
 70
     1
102
RTVSPropertyOp18
 70
     1
102
RTVSPropertyOp19
 70
     1
102
RTVSPropertyOp20
 70
     1
102
RTVSPropertyOp21
 70
     1
102
RTVSPropertyOp22
 70
     1
102
RTVSPropertyOp23
 70
     1
102
RTVSPropertyOp24
 70
     1
102
RTVSPropertyOp25
 70
     1
102
RTVSPropertyOp26
 70
     1
102
RTVSPropertyOp27
 70
     1
102
RTVSPropertyOp28
 70
     1
102
RTVSPropertyOp29
 70
     1
102
RTVSPropertyOp30
 70
     1
102
RTVSPropertyOp31
 70
     1
102
RTVSPropertyOp32
 70
     1
102
RTVSPropertyOp33
 70
     1
102
RTVSPropertyOp34
 70
     1
102
RTVSPropertyOp35
 70
     1
102
RTVSPropertyOp36
 70
     1
102
RTVSPropertyOp37
 70
     1
102
RTVSPropertyOp38
 70
     1
102
RTVSPropertyOp39
 70
     1
102
RTVSPropertyOp40
 70
     1
102
RTVSPropertyOp41
 70
     1
102
RTVSPropertyOp42
 70
     1
102
RTVSPropertyOp43
 70
     1
102
RTVSPropertyOp44
 70
     1
102
RTVSPropertyOp45
 70
     1
102
RTVSPropertyOp46
 70
     1
102
RTVSPropertyOp47
 70
     1
102
RTVSPropertyOp48
 70
     1
102
RTVSPropertyOp49
 70
     1
102
RTVSPropertyOp50
 70
     1
102
RTVSPropertyOp51
 70
     0
102
RTVSPropertyOp52
 70
     0
102
RTVSPropertyOp53
 70
     1
102
RTVSPropertyOp54
 70
     1
102
RTVSPropertyOp55
 70
     1
102
RTVSPropertyOp56
 70
     1
102
RTVSPropertyOp57
 70
     1
102
RTVSPost2010Prop28
280
     0
102
RTVSPost2010PropOp28
 70
     1
102
RTVSPost2010Prop29
280
     1
102
RTVSPost2010PropOp29
 70
     1
102
RTVSPost2010Prop30
280
     1
102
RTVSPost2010PropOp30
 70
     1
102
RTVSPost2010Prop31
280
     0
102
RTVSPost2010PropOp31
 70
     1
102
RTVSPost2010Prop32
280
     0
102
RTVSPost2010PropOp32
 70
     1
102
RTVSPost2010Prop33
280
     0
102
RTVSPost2010PropOp33
 70
     1
102
RTVSPost2010Prop34
280
     0
102
RTVSPost2010PropOp34
 70
     1
102
RTVSPost2010Prop35
280
     0
102
RTVSPost2010PropOp35
 70
     1
102
RTVSPost2010Prop36
280
     0
102
RTVSPost2010PropOp36
 70
     1
102
RTVSPost2010Prop37
 90
       50
102
RTVSPost2010PropOp37
 70
     1
102
RTVSPost2010Prop38
140
0.0
102
RTVSPost2010PropOp38
 70
     1
102
RTVSPost2010Prop39
140
1.0
102
RTVSPost2010PropOp39
 70
     1
102
RTVSPost2010Prop40
 90
        0
102
RTVSPost2010PropOp40
 70
     1
102
RTVSPost2010Prop41ColorIndex
 90
       18
102
RTVSPost2010Prop41ColorRGB
 90
        0
102
RTVSPost2010PropOp41
 70
     1
102
RTVSPost2010Prop42
 90
       50
102
RTVSPost2010PropOp42
 70
     1
102
RTVSPost2010Prop43
 90
        3
102
RTVSPost2010PropOp43
 70
     1
102
RTVSPost2010Prop44ColorIndex
 90
        5
102
RTVSPost2010Prop44ColorRGB
 90
      255
102
RTVSPost2010PropOp44
 70
     1
102
RTVSPost2010Prop45
280
     0
102
RTVSPost2010PropOp45
 70
     1
102
RTVSPost2010Prop46
 90
       50
102
RTVSPost2010PropOp46
 70
     1
102
RTVSPost2010Prop47
 90
       50
102
RTVSPost2010PropOp47
 70
     1
102
RTVSPost2010Prop48
 90
       50
102
RTVSPost2010PropOp48
 70
     1
102
RTVSPost2010Prop49
280
     0
102
RTVSPost2010PropOp49
 70
     1
102
RTVSPost2010Prop50
 90
       50
102
RTVSPost2010PropOp50
 70
     1
102
RTVSPost2010Prop51ColorIndex
 90
      256
102
RTVSPost2010Prop51ColorRGB
 90
-16777216
102
RTVSPost2010PropOp51
 70
     0
102
RTVSPost2010Prop52
140
1.0
102
RTVSPost2010PropOp52
 70
     0
102
RTVSPost2010Prop53
 90
        2
102
RTVSPost2010PropOp53
 70
     1
102
RTVSPost2010Prop54
  1
strokes_ogs.tif
102
RTVSPost2010PropOp54
 70
     1
102
RTVSPost2010Prop55
280
     0
102
RTVSPost2010PropOp55
 70
     1
102
RTVSPost2010Prop56
140
1.0
102
RTVSPost2010PropOp56
 70
     1
102
RTVSPost2010Prop57
140
1.0
102
RTVSPost2010PropOp57
 70
     1
  0
XRECORD
  5
2B5
102
{ACAD_REACTORS
330
2B4
102
}
330
2B4
100
AcDbXrecord
280
     1
102
RTVSPropertyOp0
 70
     1
102
RTVSPropertyOp1
 70
     1
102
RTVSPropertyOp2
 70
     1
102
RTVSPropertyOp3
 70
     1
102
RTVSPropertyOp4
 70
     1
102
RTVSPropertyOp5
 70
     1
102
RTVSPropertyOp6
 70
     1
102
RTVSPropertyOp7
 70
     1
102
RTVSPropertyOp8
 70
     1
102
RTVSPropertyOp9
 70
     1
102
RTVSPropertyOp10
 70
     1
102
RTVSPropertyOp11
 70
     1
102
RTVSPropertyOp12
 70
     1
102
RTVSPropertyOp13
 70
     1
102
RTVSPropertyOp14
 70
     1
102
RTVSPropertyOp15
 70
     1
102
RTVSPropertyOp16
 70
     1
102
RTVSPropertyOp17
 70
     1
102
RTVSPropertyOp18
 70
     1
102
RTVSPropertyOp19
 70
     1
102
RTVSPropertyOp20
 70
     1
102
RTVSPropertyOp21
 70
     1
102
RTVSPropertyOp22
 70
     1
102
RTVSPropertyOp23
 70
     1
102
RTVSPropertyOp24
 70
     1
102
RTVSPropertyOp25
 70
     1
102
RTVSPropertyOp26
 70
     1
102
RTVSPropertyOp27
 70
     1
102
RTVSPropertyOp28
 70
     1
102
RTVSPropertyOp29
 70
     1
102
RTVSPropertyOp30
 70
     1
102
RTVSPropertyOp31
 70
     1
102
RTVSPropertyOp32
 70
     1
102
RTVSPropertyOp33
 70
     1
102
RTVSPropertyOp34
 70
     1
102
RTVSPropertyOp35
 70
     1
102
RTVSPropertyOp36
 70
     1
102
RTVSPropertyOp37
 70
     1
102
RTVSPropertyOp38
 70
     1
102
RTVSPropertyOp39
 70
     1
102
RTVSPropertyOp40
 70
     1
102
RTVSPropertyOp41
 70
     1
102
RTVSPropertyOp42
 70
     1
102
RTVSPropertyOp43
 70
     1
102
RTVSPropertyOp44
 70
     1
102
RTVSPropertyOp45
 70
     1
102
RTVSPropertyOp46
 70
     1
102
RTVSPropertyOp47
 70
     1
102
RTVSPropertyOp48
 70
     1
102
RTVSPropertyOp49
 70
     1
102
RTVSPropertyOp50
 70
     1
102
RTVSPropertyOp51
 70
     0
102
RTVSPropertyOp52
 70
     0
102
RTVSPropertyOp53
 70
     1
102
RTVSPropertyOp54
 70
     1
102
RTVSPropertyOp55
 70
     1
102
RTVSPropertyOp56
 70
     1
102
RTVSPropertyOp57
 70
     1
102
RTVSPost2010Prop28
280
     0
102
RTVSPost2010PropOp28
 70
     1
102
RTVSPost2010Prop29
280
     1
102
RTVSPost2010PropOp29
 70
     1
102
RTVSPost2010Prop30
280
     1
102
RTVSPost2010PropOp30
 70
     1
102
RTVSPost2010Prop31
280
     0
102
RTVSPost2010PropOp31
 70
     1
102
RTVSPost2010Prop32
280
     0
102
RTVSPost2010PropOp32
 70
     1
102
RTVSPost2010Prop33
280
     0
102
RTVSPost2010PropOp33
 70
     1
102
RTVSPost2010Prop34
280
     0
102
RTVSPost2010PropOp34
 70
     1
102
RTVSPost2010Prop35
280
     0
102
RTVSPost2010PropOp35
 70
     1
102
RTVSPost2010Prop36
280
     0
102
RTVSPost2010PropOp36
 70
     1
102
RTVSPost2010Prop37
 90
       50
102
RTVSPost2010PropOp37
 70
     1
102
RTVSPost2010Prop38
140
0.0
102
RTVSPost2010PropOp38
 70
     1
102
RTVSPost2010Prop39
140
1.0
102
RTVSPost2010PropOp39
 70
     1
102
RTVSPost2010Prop40
 90
        0
102
RTVSPost2010PropOp40
 70
     1
102
RTVSPost2010Prop41ColorIndex
 90
       18
102
RTVSPost2010Prop41ColorRGB
 90
        0
102
RTVSPost2010PropOp41
 70
     1
102
RTVSPost2010Prop42
 90
       50
102
RTVSPost2010PropOp42
 70
     1
102
RTVSPost2010Prop43
 90
        3
102
RTVSPost2010PropOp43
 70
     1
102
RTVSPost2010Prop44ColorIndex
 90
        5
102
RTVSPost2010Prop44ColorRGB
 90
      255
102
RTVSPost2010PropOp44
 70
     1
102
RTVSPost2010Prop45
280
     0
102
RTVSPost2010PropOp45
 70
     1
102
RTVSPost2010Prop46
 90
       50
102
RTVSPost2010PropOp46
 70
     1
102
RTVSPost2010Prop47
 90
       50
102
RTVSPost2010PropOp47
 70
     1
102
RTVSPost2010Prop48
 90
       50
102
RTVSPost2010PropOp48
 70
     1
102
RTVSPost2010Prop49
280
     0
102
RTVSPost2010PropOp49
 70
     1
102
RTVSPost2010Prop50
 90
       50
102
RTVSPost2010PropOp50
 70
     1
102
RTVSPost2010Prop51ColorIndex
 90
      256
102
RTVSPost2010Prop51ColorRGB
 90
-16777216
102
RTVSPost2010PropOp51
 70
     0
102
RTVSPost2010Prop52
140
1.0
102
RTVSPost2010PropOp52
 70
     0
102
RTVSPost2010Prop53
 90
        2
102
RTVSPost2010PropOp53
 70
     1
102
RTVSPost2010Prop54
  1
strokes_ogs.tif
102
RTVSPost2010PropOp54
 70
     1
102
RTVSPost2010Prop55
280
     0
102
RTVSPost2010PropOp55
 70
     1
102
RTVSPost2010Prop56
140
1.0
102
RTVSPost2010PropOp56
 70
     1
102
RTVSPost2010Prop57
140
1.0
102
RTVSPost2010PropOp57
 70
     1
  0
XRECORD
  5
2B7
102
{ACAD_REACTORS
330
2B6
102
}
330
2B6
100
AcDbXrecord
280
     1
102
RTVSPropertyOp0
 70
     1
102
RTVSPropertyOp1
 70
     1
102
RTVSPropertyOp2
 70
     1
102
RTVSPropertyOp3
 70
     1
102
RTVSPropertyOp4
 70
     1
102
RTVSPropertyOp5
 70
     1
102
RTVSPropertyOp6
 70
     1
102
RTVSPropertyOp7
 70
     1
102
RTVSPropertyOp8
 70
     1
102
RTVSPropertyOp9
 70
     1
102
RTVSPropertyOp10
 70
     1
102
RTVSPropertyOp11
 70
     1
102
RTVSPropertyOp12
 70
     1
102
RTVSPropertyOp13
 70
     1
102
RTVSPropertyOp14
 70
     1
102
RTVSPropertyOp15
 70
     1
102
RTVSPropertyOp16
 70
     1
102
RTVSPropertyOp17
 70
     1
102
RTVSPropertyOp18
 70
     1
102
RTVSPropertyOp19
 70
     1
102
RTVSPropertyOp20
 70
     1
102
RTVSPropertyOp21
 70
     1
102
RTVSPropertyOp22
 70
     1
102
RTVSPropertyOp23
 70
     1
102
RTVSPropertyOp24
 70
     1
102
RTVSPropertyOp25
 70
     1
102
RTVSPropertyOp26
 70
     1
102
RTVSPropertyOp27
 70
     1
102
RTVSPropertyOp28
 70
     1
102
RTVSPropertyOp29
 70
     1
102
RTVSPropertyOp30
 70
     1
102
RTVSPropertyOp31
 70
     1
102
RTVSPropertyOp32
 70
     1
102
RTVSPropertyOp33
 70
     1
102
RTVSPropertyOp34
 70
     1
102
RTVSPropertyOp35
 70
     1
102
RTVSPropertyOp36
 70
     1
102
RTVSPropertyOp37
 70
     1
102
RTVSPropertyOp38
 70
     1
102
RTVSPropertyOp39
 70
     1
102
RTVSPropertyOp40
 70
     1
102
RTVSPropertyOp41
 70
     1
102
RTVSPropertyOp42
 70
     1
102
RTVSPropertyOp43
 70
     1
102
RTVSPropertyOp44
 70
     1
102
RTVSPropertyOp45
 70
     1
102
RTVSPropertyOp46
 70
     1
102
RTVSPropertyOp47
 70
     1
102
RTVSPropertyOp48
 70
     1
102
RTVSPropertyOp49
 70
     1
102
RTVSPropertyOp50
 70
     1
102
RTVSPropertyOp51
 70
     0
102
RTVSPropertyOp52
 70
     0
102
RTVSPropertyOp53
 70
     1
102
RTVSPropertyOp54
 70
     1
102
RTVSPropertyOp55
 70
     1
102
RTVSPropertyOp56
 70
     1
102
RTVSPropertyOp57
 70
     1
102
RTVSPost2010Prop28
280
     0
102
RTVSPost2010PropOp28
 70
     1
102
RTVSPost2010Prop29
280
     1
102
RTVSPost2010PropOp29
 70
     1
102
RTVSPost2010Prop30
280
     1
102
RTVSPost2010PropOp30
 70
     1
102
RTVSPost2010Prop31
280
     0
102
RTVSPost2010PropOp31
 70
     1
102
RTVSPost2010Prop32
280
     0
102
RTVSPost2010PropOp32
 70
     1
102
RTVSPost2010Prop33
280
     0
102
RTVSPost2010PropOp33
 70
     1
102
RTVSPost2010Prop34
280
     0
102
RTVSPost2010PropOp34
 70
     1
102
RTVSPost2010Prop35
280
     0
102
RTVSPost2010PropOp35
 70
     1
102
RTVSPost2010Prop36
280
     0
102
RTVSPost2010PropOp36
 70
     1
102
RTVSPost2010Prop37
 90
       50
102
RTVSPost2010PropOp37
 70
     1
102
RTVSPost2010Prop38
140
0.0
102
RTVSPost2010PropOp38
 70
     1
102
RTVSPost2010Prop39
140
1.0
102
RTVSPost2010PropOp39
 70
     1
102
RTVSPost2010Prop40
 90
        0
102
RTVSPost2010PropOp40
 70
     1
102
RTVSPost2010Prop41ColorIndex
 90
       18
102
RTVSPost2010Prop41ColorRGB
 90
        0
102
RTVSPost2010PropOp41
 70
     1
102
RTVSPost2010Prop42
 90
       50
102
RTVSPost2010PropOp42
 70
     1
102
RTVSPost2010Prop43
 90
        3
102
RTVSPost2010PropOp43
 70
     1
102
RTVSPost2010Prop44ColorIndex
 90
        5
102
RTVSPost2010Prop44ColorRGB
 90
      255
102
RTVSPost2010PropOp44
 70
     1
102
RTVSPost2010Prop45
280
     0
102
RTVSPost2010PropOp45
 70
     1
102
RTVSPost2010Prop46
 90
       50
102
RTVSPost2010PropOp46
 70
     1
102
RTVSPost2010Prop47
 90
       50
102
RTVSPost2010PropOp47
 70
     1
102
RTVSPost2010Prop48
 90
       50
102
RTVSPost2010PropOp48
 70
     1
102
RTVSPost2010Prop49
280
     0
102
RTVSPost2010PropOp49
 70
     1
102
RTVSPost2010Prop50
 90
       50
102
RTVSPost2010PropOp50
 70
     1
102
RTVSPost2010Prop51ColorIndex
 90
      256
102
RTVSPost2010Prop51ColorRGB
 90
-16777216
102
RTVSPost2010PropOp51
 70
     0
102
RTVSPost2010Prop52
140
1.0
102
RTVSPost2010PropOp52
 70
     0
102
RTVSPost2010Prop53
 90
        2
102
RTVSPost2010PropOp53
 70
     1
102
RTVSPost2010Prop54
  1
strokes_ogs.tif
102
RTVSPost2010PropOp54
 70
     1
102
RTVSPost2010Prop55
280
     0
102
RTVSPost2010PropOp55
 70
     1
102
RTVSPost2010Prop56
140
1.0
102
RTVSPost2010PropOp56
 70
     1
102
RTVSPost2010Prop57
140
1.0
102
RTVSPost2010PropOp57
 70
     1
  0
XRECORD
  5
2B9
102
{ACAD_REACTORS
330
2B8
102
}
330
2B8
100
AcDbXrecord
280
     1
102
RTVSPropertyOp0
 70
     1
102
RTVSPropertyOp1
 70
     1
102
RTVSPropertyOp2
 70
     1
102
RTVSPropertyOp3
 70
     1
102
RTVSPropertyOp4
 70
     1
102
RTVSPropertyOp5
 70
     1
102
RTVSPropertyOp6
 70
     1
102
RTVSPropertyOp7
 70
     1
102
RTVSPropertyOp8
 70
     1
102
RTVSPropertyOp9
 70
     1
102
RTVSPropertyOp10
 70
     1
102
RTVSPropertyOp11
 70
     1
102
RTVSPropertyOp12
 70
     1
102
RTVSPropertyOp13
 70
     1
102
RTVSPropertyOp14
 70
     1
102
RTVSPropertyOp15
 70
     1
102
RTVSPropertyOp16
 70
     1
102
RTVSPropertyOp17
 70
     1
102
RTVSPropertyOp18
 70
     1
102
RTVSPropertyOp19
 70
     1
102
RTVSPropertyOp20
 70
     1
102
RTVSPropertyOp21
 70
     1
102
RTVSPropertyOp22
 70
     1
102
RTVSPropertyOp23
 70
     1
102
RTVSPropertyOp24
 70
     1
102
RTVSPropertyOp25
 70
     1
102
RTVSPropertyOp26
 70
     1
102
RTVSPropertyOp27
 70
     1
102
RTVSPropertyOp28
 70
     1
102
RTVSPropertyOp29
 70
     1
102
RTVSPropertyOp30
 70
     1
102
RTVSPropertyOp31
 70
     1
102
RTVSPropertyOp32
 70
     1
102
RTVSPropertyOp33
 70
     1
102
RTVSPropertyOp34
 70
     1
102
RTVSPropertyOp35
 70
     1
102
RTVSPropertyOp36
 70
     1
102
RTVSPropertyOp37
 70
     1
102
RTVSPropertyOp38
 70
     1
102
RTVSPropertyOp39
 70
     1
102
RTVSPropertyOp40
 70
     1
102
RTVSPropertyOp41
 70
     1
102
RTVSPropertyOp42
 70
     1
102
RTVSPropertyOp43
 70
     1
102
RTVSPropertyOp44
 70
     1
102
RTVSPropertyOp45
 70
     1
102
RTVSPropertyOp46
 70
     1
102
RTVSPropertyOp47
 70
     1
102
RTVSPropertyOp48
 70
     1
102
RTVSPropertyOp49
 70
     1
102
RTVSPropertyOp50
 70
     1
102
RTVSPropertyOp51
 70
     0
102
RTVSPropertyOp52
 70
     0
102
RTVSPropertyOp53
 70
     1
102
RTVSPropertyOp54
 70
     1
102
RTVSPropertyOp55
 70
     1
102
RTVSPropertyOp56
 70
     1
102
RTVSPropertyOp57
 70
     1
102
RTVSPost2010Prop28
280
     0
102
RTVSPost2010PropOp28
 70
     1
102
RTVSPost2010Prop29
280
     1
102
RTVSPost2010PropOp29
 70
     1
102
RTVSPost2010Prop30
280
     1
102
RTVSPost2010PropOp30
 70
     1
102
RTVSPost2010Prop31
280
     0
102
RTVSPost2010PropOp31
 70
     1
102
RTVSPost2010Prop32
280
     0
102
RTVSPost2010PropOp32
 70
     1
102
RTVSPost2010Prop33
280
     0
102
RTVSPost2010PropOp33
 70
     1
102
RTVSPost2010Prop34
280
     0
102
RTVSPost2010PropOp34
 70
     1
102
RTVSPost2010Prop35
280
     0
102
RTVSPost2010PropOp35
 70
     1
102
RTVSPost2010Prop36
280
     0
102
RTVSPost2010PropOp36
 70
     1
102
RTVSPost2010Prop37
 90
       50
102
RTVSPost2010PropOp37
 70
     1
102
RTVSPost2010Prop38
140
0.0
102
RTVSPost2010PropOp38
 70
     1
102
RTVSPost2010Prop39
140
1.0
102
RTVSPost2010PropOp39
 70
     1
102
RTVSPost2010Prop40
 90
        0
102
RTVSPost2010PropOp40
 70
     1
102
RTVSPost2010Prop41ColorIndex
 90
       18
102
RTVSPost2010Prop41ColorRGB
 90
        0
102
RTVSPost2010PropOp41
 70
     1
102
RTVSPost2010Prop42
 90
       50
102
RTVSPost2010PropOp42
 70
     1
102
RTVSPost2010Prop43
 90
        3
102
RTVSPost2010PropOp43
 70
     1
102
RTVSPost2010Prop44ColorIndex
 90
        5
102
RTVSPost2010Prop44ColorRGB
 90
      255
102
RTVSPost2010PropOp44
 70
     1
102
RTVSPost2010Prop45
280
     0
102
RTVSPost2010PropOp45
 70
     1
102
RTVSPost2010Prop46
 90
       50
102
RTVSPost2010PropOp46
 70
     1
102
RTVSPost2010Prop47
 90
       50
102
RTVSPost2010PropOp47
 70
     1
102
RTVSPost2010Prop48
 90
       50
102
RTVSPost2010PropOp48
 70
     1
102
RTVSPost2010Prop49
280
     0
102
RTVSPost2010PropOp49
 70
     1
102
RTVSPost2010Prop50
 90
       50
102
RTVSPost2010PropOp50
 70
     1
102
RTVSPost2010Prop51ColorIndex
 90
      256
102
RTVSPost2010Prop51ColorRGB
 90
-16777216
102
RTVSPost2010PropOp51
 70
     0
102
RTVSPost2010Prop52
140
1.0
102
RTVSPost2010PropOp52
 70
     0
102
RTVSPost2010Prop53
 90
        2
102
RTVSPost2010PropOp53
 70
     1
102
RTVSPost2010Prop54
  1
strokes_ogs.tif
102
RTVSPost2010PropOp54
 70
     1
102
RTVSPost2010Prop55
280
     0
102
RTVSPost2010PropOp55
 70
     1
102
RTVSPost2010Prop56
140
1.0
102
RTVSPost2010PropOp56
 70
     1
102
RTVSPost2010Prop57
140
1.0
102
RTVSPost2010PropOp57
 70
     1
  0
XRECORD
  5
2BF
102
{ACAD_REACTORS
330
2BE
102
}
330
2BE
100
AcDbXrecord
280
     1
102
RTVSPropertyOp0
 70
     1
102
RTVSPropertyOp1
 70
     1
102
RTVSPropertyOp2
 70
     1
102
RTVSPropertyOp3
 70
     1
102
RTVSPropertyOp4
 70
     1
102
RTVSPropertyOp5
 70
     1
102
RTVSPropertyOp6
 70
     1
102
RTVSPropertyOp7
 70
     1
102
RTVSPropertyOp8
 70
     1
102
RTVSPropertyOp9
 70
     1
102
RTVSPropertyOp10
 70
     1
102
RTVSPropertyOp11
 70
     1
102
RTVSPropertyOp12
 70
     1
102
RTVSPropertyOp13
 70
     1
102
RTVSPropertyOp14
 70
     1
102
RTVSPropertyOp15
 70
     1
102
RTVSPropertyOp16
 70
     1
102
RTVSPropertyOp17
 70
     1
102
RTVSPropertyOp18
 70
     1
102
RTVSPropertyOp19
 70
     1
102
RTVSPropertyOp20
 70
     1
102
RTVSPropertyOp21
 70
     1
102
RTVSPropertyOp22
 70
     1
102
RTVSPropertyOp23
 70
     1
102
RTVSPropertyOp24
 70
     1
102
RTVSPropertyOp25
 70
     1
102
RTVSPropertyOp26
 70
     1
102
RTVSPropertyOp27
 70
     1
102
RTVSPropertyOp28
 70
     1
102
RTVSPropertyOp29
 70
     1
102
RTVSPropertyOp30
 70
     1
102
RTVSPropertyOp31
 70
     1
102
RTVSPropertyOp32
 70
     1
102
RTVSPropertyOp33
 70
     1
102
RTVSPropertyOp34
 70
     1
102
RTVSPropertyOp35
 70
     1
102
RTVSPropertyOp36
 70
     1
102
RTVSPropertyOp37
 70
     1
102
RTVSPropertyOp38
 70
     1
102
RTVSPropertyOp39
 70
     1
102
RTVSPropertyOp40
 70
     1
102
RTVSPropertyOp41
 70
     1
102
RTVSPropertyOp42
 70
     1
102
RTVSPropertyOp43
 70
     1
102
RTVSPropertyOp44
 70
     1
102
RTVSPropertyOp45
 70
     1
102
RTVSPropertyOp46
 70
     1
102
RTVSPropertyOp47
 70
     1
102
RTVSPropertyOp48
 70
     1
102
RTVSPropertyOp49
 70
     1
102
RTVSPropertyOp50
 70
     1
102
RTVSPropertyOp51
 70
     0
102
RTVSPropertyOp52
 70
     0
102
RTVSPropertyOp53
 70
     1
102
RTVSPropertyOp54
 70
     1
102
RTVSPropertyOp55
 70
     1
102
RTVSPropertyOp56
 70
     1
102
RTVSPropertyOp57
 70
     1
102
RTVSPost2010Prop28
280
     0
102
RTVSPost2010PropOp28
 70
     1
102
RTVSPost2010Prop29
280
     1
102
RTVSPost2010PropOp29
 70
     1
102
RTVSPost2010Prop30
280
     1
102
RTVSPost2010PropOp30
 70
     1
102
RTVSPost2010Prop31
280
     0
102
RTVSPost2010PropOp31
 70
     1
102
RTVSPost2010Prop32
280
     0
102
RTVSPost2010PropOp32
 70
     1
102
RTVSPost2010Prop33
280
     0
102
RTVSPost2010PropOp33
 70
     1
102
RTVSPost2010Prop34
280
     0
102
RTVSPost2010PropOp34
 70
     1
102
RTVSPost2010Prop35
280
     0
102
RTVSPost2010PropOp35
 70
     1
102
RTVSPost2010Prop36
280
     0
102
RTVSPost2010PropOp36
 70
     1
102
RTVSPost2010Prop37
 90
       50
102
RTVSPost2010PropOp37
 70
     1
102
RTVSPost2010Prop38
140
0.0
102
RTVSPost2010PropOp38
 70
     1
102
RTVSPost2010Prop39
140
1.0
102
RTVSPost2010PropOp39
 70
     1
102
RTVSPost2010Prop40
 90
        0
102
RTVSPost2010PropOp40
 70
     1
102
RTVSPost2010Prop41ColorIndex
 90
       18
102
RTVSPost2010Prop41ColorRGB
 90
        0
102
RTVSPost2010PropOp41
 70
     1
102
RTVSPost2010Prop42
 90
       50
102
RTVSPost2010PropOp42
 70
     1
102
RTVSPost2010Prop43
 90
        3
102
RTVSPost2010PropOp43
 70
     1
102
RTVSPost2010Prop44ColorIndex
 90
        5
102
RTVSPost2010Prop44ColorRGB
 90
      255
102
RTVSPost2010PropOp44
 70
     1
102
RTVSPost2010Prop45
280
     0
102
RTVSPost2010PropOp45
 70
     1
102
RTVSPost2010Prop46
 90
       50
102
RTVSPost2010PropOp46
 70
     1
102
RTVSPost2010Prop47
 90
       50
102
RTVSPost2010PropOp47
 70
     1
102
RTVSPost2010Prop48
 90
       50
102
RTVSPost2010PropOp48
 70
     1
102
RTVSPost2010Prop49
280
     0
102
RTVSPost2010PropOp49
 70
     1
102
RTVSPost2010Prop50
 90
       50
102
RTVSPost2010PropOp50
 70
     1
102
RTVSPost2010Prop51ColorIndex
 90
      256
102
RTVSPost2010Prop51ColorRGB
 90
-16777216
102
RTVSPost2010PropOp51
 70
     0
102
RTVSPost2010Prop52
140
1.0
102
RTVSPost2010PropOp52
 70
     0
102
RTVSPost2010Prop53
 90
        2
102
RTVSPost2010PropOp53
 70
     1
102
RTVSPost2010Prop54
  1
strokes_ogs.tif
102
RTVSPost2010PropOp54
 70
     1
102
RTVSPost2010Prop55
280
     0
102
RTVSPost2010PropOp55
 70
     1
102
RTVSPost2010Prop56
140
1.0
102
RTVSPost2010PropOp56
 70
     1
102
RTVSPost2010Prop57
140
1.0
102
RTVSPost2010PropOp57
 70
     1
  0
XRECORD
  5
2D3
102
{ACAD_REACTORS
330
2D2
102
}
330
2D2
100
AcDbXrecord
280
     1
102
RTVSPropertyOp0
 70
     0
102
RTVSPropertyOp1
 70
     0
102
RTVSPropertyOp2
 70
     0
102
RTVSPropertyOp3
 70
     0
102
RTVSPropertyOp4
 70
     0
102
RTVSPropertyOp5
 70
     0
102
RTVSPropertyOp6
 70
     0
102
RTVSPropertyOp7
 70
     0
102
RTVSPropertyOp8
 70
     0
102
RTVSPropertyOp9
 70
     0
102
RTVSPropertyOp10
 70
     0
102
RTVSPropertyOp11
 70
     0
102
RTVSPropertyOp12
 70
     0
102
RTVSPropertyOp13
 70
     0
102
RTVSPropertyOp14
 70
     2
102
RTVSPropertyOp15
 70
     0
102
RTVSPropertyOp16
 70
     0
102
RTVSPropertyOp17
 70
     0
102
RTVSPropertyOp18
 70
     0
102
RTVSPropertyOp19
 70
     0
102
RTVSPropertyOp20
 70
     0
102
RTVSPropertyOp21
 70
     0
102
RTVSPropertyOp22
 70
     0
102
RTVSPropertyOp23
 70
     0
102
RTVSPropertyOp24
 70
     0
102
RTVSPropertyOp25
 70
     0
102
RTVSPropertyOp26
 70
     0
102
RTVSPropertyOp27
 70
     0
102
RTVSPropertyOp28
 70
     0
102
RTVSPropertyOp29
 70
     0
102
RTVSPropertyOp30
 70
     0
102
RTVSPropertyOp31
 70
     0
102
RTVSPropertyOp32
 70
     0
102
RTVSPropertyOp33
 70
     0
102
RTVSPropertyOp34
 70
     0
102
RTVSPropertyOp35
 70
     0
102
RTVSPropertyOp36
 70
     0
102
RTVSPropertyOp37
 70
     0
102
RTVSPropertyOp38
 70
     0
102
RTVSPropertyOp39
 70
     0
102
RTVSPropertyOp40
 70
     0
102
RTVSPropertyOp41
 70
     0
102
RTVSPropertyOp42
 70
     0
102
RTVSPropertyOp43
 70
     0
102
RTVSPropertyOp44
 70
     0
102
RTVSPropertyOp45
 70
     0
102
RTVSPropertyOp46
 70
     0
102
RTVSPropertyOp47
 70
     0
102
RTVSPropertyOp48
 70
     0
102
RTVSPropertyOp49
 70
     0
102
RTVSPropertyOp50
 70
     0
102
RTVSPropertyOp51
 70
     0
102
RTVSPropertyOp52
 70
     0
102
RTVSPropertyOp53
 70
     0
102
RTVSPropertyOp54
 70
     0
102
RTVSPropertyOp55
 70
     0
102
RTVSPropertyOp56
 70
     0
102
RTVSPropertyOp57
 70
     0
102
RTVSPost2010Prop28
280
     0
102
RTVSPost2010PropOp28
 70
     0
102
RTVSPost2010Prop29
280
     1
102
RTVSPost2010PropOp29
 70
     0
102
RTVSPost2010Prop30
280
     1
102
RTVSPost2010PropOp30
 70
     0
102
RTVSPost2010Prop31
280
     0
102
RTVSPost2010PropOp31
 70
     0
102
RTVSPost2010Prop32
280
     0
102
RTVSPost2010PropOp32
 70
     0
102
RTVSPost2010Prop33
280
     0
102
RTVSPost2010PropOp33
 70
     0
102
RTVSPost2010Prop34
280
     0
102
RTVSPost2010PropOp34
 70
     0
102
RTVSPost2010Prop35
280
     0
102
RTVSPost2010PropOp35
 70
     0
102
RTVSPost2010Prop36
280
     0
102
RTVSPost2010PropOp36
 70
     0
102
RTVSPost2010Prop37
 90
       50
102
RTVSPost2010PropOp37
 70
     0
102
RTVSPost2010Prop38
140
0.0
102
RTVSPost2010PropOp38
 70
     0
102
RTVSPost2010Prop39
140
1.0
102
RTVSPost2010PropOp39
 70
     0
102
RTVSPost2010Prop40
 90
        0
102
RTVSPost2010PropOp40
 70
     0
102
RTVSPost2010Prop41ColorIndex
 90
       18
102
RTVSPost2010Prop41ColorRGB
 90
        0
102
RTVSPost2010PropOp41
 70
     0
102
RTVSPost2010Prop42
 90
       50
102
RTVSPost2010PropOp42
 70
     0
102
RTVSPost2010Prop43
 90
        3
102
RTVSPost2010PropOp43
 70
     0
102
RTVSPost2010Prop44ColorIndex
 90
        5
102
RTVSPost2010Prop44ColorRGB
 90
      255
102
RTVSPost2010PropOp44
 70
     0
102
RTVSPost2010Prop45
280
     0
102
RTVSPost2010PropOp45
 70
     0
102
RTVSPost2010Prop46
 90
       50
102
RTVSPost2010PropOp46
 70
     0
102
RTVSPost2010Prop47
 90
       50
102
RTVSPost2010PropOp47
 70
     0
102
RTVSPost2010Prop48
 90
       50
102
RTVSPost2010PropOp48
 70
     0
102
RTVSPost2010Prop49
280
     0
102
RTVSPost2010PropOp49
 70
     0
102
RTVSPost2010Prop50
 90
       50
102
RTVSPost2010PropOp50
 70
     0
102
RTVSPost2010Prop51ColorIndex
 90
      256
102
RTVSPost2010Prop51ColorRGB
 90
-16777216
102
RTVSPost2010PropOp51
 70
     0
102
RTVSPost2010Prop52
140
1.0
102
RTVSPost2010PropOp52
 70
     0
102
RTVSPost2010Prop53
 90
        2
102
RTVSPost2010PropOp53
 70
     0
102
RTVSPost2010Prop54
  1
strokes_ogs.tif
102
RTVSPost2010PropOp54
 70
     0
102
RTVSPost2010Prop55
280
     0
102
RTVSPost2010PropOp55
 70
     0
102
RTVSPost2010Prop56
140
1.0
102
RTVSPost2010PropOp56
 70
     0
102
RTVSPost2010Prop57
140
1.0
102
RTVSPost2010PropOp57
 70
     0
  0
XRECORD
  5
2CD
102
{ACAD_REACTORS
330
2CC
102
}
330
2CC
100
AcDbXrecord
280
     1
102
RTVSPropertyOp0
 70
     1
102
RTVSPropertyOp1
 70
     1
102
RTVSPropertyOp2
 70
     1
102
RTVSPropertyOp3
 70
     1
102
RTVSPropertyOp4
 70
     1
102
RTVSPropertyOp5
 70
     1
102
RTVSPropertyOp6
 70
     1
102
RTVSPropertyOp7
 70
     1
102
RTVSPropertyOp8
 70
     1
102
RTVSPropertyOp9
 70
     1
102
RTVSPropertyOp10
 70
     1
102
RTVSPropertyOp11
 70
     1
102
RTVSPropertyOp12
 70
     1
102
RTVSPropertyOp13
 70
     1
102
RTVSPropertyOp14
 70
     1
102
RTVSPropertyOp15
 70
     1
102
RTVSPropertyOp16
 70
     1
102
RTVSPropertyOp17
 70
     1
102
RTVSPropertyOp18
 70
     1
102
RTVSPropertyOp19
 70
     1
102
RTVSPropertyOp20
 70
     1
102
RTVSPropertyOp21
 70
     1
102
RTVSPropertyOp22
 70
     1
102
RTVSPropertyOp23
 70
     1
102
RTVSPropertyOp24
 70
     1
102
RTVSPropertyOp25
 70
     1
102
RTVSPropertyOp26
 70
     1
102
RTVSPropertyOp27
 70
     1
102
RTVSPropertyOp28
 70
     1
102
RTVSPropertyOp29
 70
     1
102
RTVSPropertyOp30
 70
     1
102
RTVSPropertyOp31
 70
     1
102
RTVSPropertyOp32
 70
     1
102
RTVSPropertyOp33
 70
     1
102
RTVSPropertyOp34
 70
     1
102
RTVSPropertyOp35
 70
     1
102
RTVSPropertyOp36
 70
     1
102
RTVSPropertyOp37
 70
     1
102
RTVSPropertyOp38
 70
     1
102
RTVSPropertyOp39
 70
     1
102
RTVSPropertyOp40
 70
     1
102
RTVSPropertyOp41
 70
     1
102
RTVSPropertyOp42
 70
     1
102
RTVSPropertyOp43
 70
     1
102
RTVSPropertyOp44
 70
     1
102
RTVSPropertyOp45
 70
     1
102
RTVSPropertyOp46
 70
     1
102
RTVSPropertyOp47
 70
     1
102
RTVSPropertyOp48
 70
     1
102
RTVSPropertyOp49
 70
     1
102
RTVSPropertyOp50
 70
     1
102
RTVSPropertyOp51
 70
     0
102
RTVSPropertyOp52
 70
     0
102
RTVSPropertyOp53
 70
     1
102
RTVSPropertyOp54
 70
     1
102
RTVSPropertyOp55
 70
     1
102
RTVSPropertyOp56
 70
     1
102
RTVSPropertyOp57
 70
     1
102
RTVSPost2010Prop28
280
     0
102
RTVSPost2010PropOp28
 70
     1
102
RTVSPost2010Prop29
280
     1
102
RTVSPost2010PropOp29
 70
     1
102
RTVSPost2010Prop30
280
     1
102
RTVSPost2010PropOp30
 70
     1
102
RTVSPost2010Prop31
280
     0
102
RTVSPost2010PropOp31
 70
     1
102
RTVSPost2010Prop32
280
     0
102
RTVSPost2010PropOp32
 70
     1
102
RTVSPost2010Prop33
280
     0
102
RTVSPost2010PropOp33
 70
     1
102
RTVSPost2010Prop34
280
     0
102
RTVSPost2010PropOp34
 70
     1
102
RTVSPost2010Prop35
280
     0
102
RTVSPost2010PropOp35
 70
     1
102
RTVSPost2010Prop36
280
     0
102
RTVSPost2010PropOp36
 70
     1
102
RTVSPost2010Prop37
 90
       50
102
RTVSPost2010PropOp37
 70
     1
102
RTVSPost2010Prop38
140
0.0
102
RTVSPost2010PropOp38
 70
     1
102
RTVSPost2010Prop39
140
1.0
102
RTVSPost2010PropOp39
 70
     1
102
RTVSPost2010Prop40
 90
        0
102
RTVSPost2010PropOp40
 70
     1
102
RTVSPost2010Prop41ColorIndex
 90
       18
102
RTVSPost2010Prop41ColorRGB
 90
        0
102
RTVSPost2010PropOp41
 70
     1
102
RTVSPost2010Prop42
 90
       50
102
RTVSPost2010PropOp42
 70
     1
102
RTVSPost2010Prop43
 90
        3
102
RTVSPost2010PropOp43
 70
     1
102
RTVSPost2010Prop44ColorIndex
 90
        5
102
RTVSPost2010Prop44ColorRGB
 90
      255
102
RTVSPost2010PropOp44
 70
     1
102
RTVSPost2010Prop45
280
     0
102
RTVSPost2010PropOp45
 70
     1
102
RTVSPost2010Prop46
 90
       50
102
RTVSPost2010PropOp46
 70
     1
102
RTVSPost2010Prop47
 90
       50
102
RTVSPost2010PropOp47
 70
     1
102
RTVSPost2010Prop48
 90
       50
102
RTVSPost2010PropOp48
 70
     1
102
RTVSPost2010Prop49
280
     0
102
RTVSPost2010PropOp49
 70
     1
102
RTVSPost2010Prop50
 90
       50
102
RTVSPost2010PropOp50
 70
     1
102
RTVSPost2010Prop51ColorIndex
 90
      256
102
RTVSPost2010Prop51ColorRGB
 90
-16777216
102
RTVSPost2010PropOp51
 70
     0
102
RTVSPost2010Prop52
140
1.0
102
RTVSPost2010PropOp52
 70
     0
102
RTVSPost2010Prop53
 90
        2
102
RTVSPost2010PropOp53
 70
     1
102
RTVSPost2010Prop54
  1
strokes_ogs.tif
102
RTVSPost2010PropOp54
 70
     1
102
RTVSPost2010Prop55
280
     0
102
RTVSPost2010PropOp55
 70
     1
102
RTVSPost2010Prop56
140
1.0
102
RTVSPost2010PropOp56
 70
     1
102
RTVSPost2010Prop57
140
1.0
102
RTVSPost2010PropOp57
 70
     1
  0
XRECORD
  5
2D5
102
{ACAD_REACTORS
330
2D4
102
}
330
2D4
100
AcDbXrecord
280
     1
102
RTVSPropertyOp0
 70
     0
102
RTVSPropertyOp1
 70
     0
102
RTVSPropertyOp2
 70
     0
102
RTVSPropertyOp3
 70
     0
102
RTVSPropertyOp4
 70
     0
102
RTVSPropertyOp5
 70
     0
102
RTVSPropertyOp6
 70
     0
102
RTVSPropertyOp7
 70
     0
102
RTVSPropertyOp8
 70
     0
102
RTVSPropertyOp9
 70
     0
102
RTVSPropertyOp10
 70
     0
102
RTVSPropertyOp11
 70
     0
102
RTVSPropertyOp12
 70
     0
102
RTVSPropertyOp13
 70
     0
102
RTVSPropertyOp14
 70
     2
102
RTVSPropertyOp15
 70
     0
102
RTVSPropertyOp16
 70
     0
102
RTVSPropertyOp17
 70
     0
102
RTVSPropertyOp18
 70
     0
102
RTVSPropertyOp19
 70
     0
102
RTVSPropertyOp20
 70
     0
102
RTVSPropertyOp21
 70
     0
102
RTVSPropertyOp22
 70
     0
102
RTVSPropertyOp23
 70
     0
102
RTVSPropertyOp24
 70
     0
102
RTVSPropertyOp25
 70
     0
102
RTVSPropertyOp26
 70
     0
102
RTVSPropertyOp27
 70
     0
102
RTVSPropertyOp28
 70
     0
102
RTVSPropertyOp29
 70
     0
102
RTVSPropertyOp30
 70
     0
102
RTVSPropertyOp31
 70
     0
102
RTVSPropertyOp32
 70
     0
102
RTVSPropertyOp33
 70
     0
102
RTVSPropertyOp34
 70
     0
102
RTVSPropertyOp35
 70
     0
102
RTVSPropertyOp36
 70
     0
102
RTVSPropertyOp37
 70
     0
102
RTVSPropertyOp38
 70
     0
102
RTVSPropertyOp39
 70
     0
102
RTVSPropertyOp40
 70
     0
102
RTVSPropertyOp41
 70
     0
102
RTVSPropertyOp42
 70
     0
102
RTVSPropertyOp43
 70
     0
102
RTVSPropertyOp44
 70
     0
102
RTVSPropertyOp45
 70
     0
102
RTVSPropertyOp46
 70
     0
102
RTVSPropertyOp47
 70
     0
102
RTVSPropertyOp48
 70
     0
102
RTVSPropertyOp49
 70
     0
102
RTVSPropertyOp50
 70
     0
102
RTVSPropertyOp51
 70
     0
102
RTVSPropertyOp52
 70
     0
102
RTVSPropertyOp53
 70
     0
102
RTVSPropertyOp54
 70
     0
102
RTVSPropertyOp55
 70
     0
102
RTVSPropertyOp56
 70
     0
102
RTVSPropertyOp57
 70
     0
102
RTVSPost2010Prop28
280
     0
102
RTVSPost2010PropOp28
 70
     0
102
RTVSPost2010Prop29
280
     1
102
RTVSPost2010PropOp29
 70
     0
102
RTVSPost2010Prop30
280
     1
102
RTVSPost2010PropOp30
 70
     0
102
RTVSPost2010Prop31
280
     0
102
RTVSPost2010PropOp31
 70
     0
102
RTVSPost2010Prop32
280
     0
102
RTVSPost2010PropOp32
 70
     0
102
RTVSPost2010Prop33
280
     0
102
RTVSPost2010PropOp33
 70
     0
102
RTVSPost2010Prop34
280
     0
102
RTVSPost2010PropOp34
 70
     0
102
RTVSPost2010Prop35
280
     0
102
RTVSPost2010PropOp35
 70
     0
102
RTVSPost2010Prop36
280
     0
102
RTVSPost2010PropOp36
 70
     0
102
RTVSPost2010Prop37
 90
       50
102
RTVSPost2010PropOp37
 70
     0
102
RTVSPost2010Prop38
140
0.0
102
RTVSPost2010PropOp38
 70
     0
102
RTVSPost2010Prop39
140
1.0
102
RTVSPost2010PropOp39
 70
     0
102
RTVSPost2010Prop40
 90
        0
102
RTVSPost2010PropOp40
 70
     0
102
RTVSPost2010Prop41ColorIndex
 90
       18
102
RTVSPost2010Prop41ColorRGB
 90
        0
102
RTVSPost2010PropOp41
 70
     0
102
RTVSPost2010Prop42
 90
       50
102
RTVSPost2010PropOp42
 70
     0
102
RTVSPost2010Prop43
 90
        3
102
RTVSPost2010PropOp43
 70
     0
102
RTVSPost2010Prop44ColorIndex
 90
        5
102
RTVSPost2010Prop44ColorRGB
 90
      255
102
RTVSPost2010PropOp44
 70
     0
102
RTVSPost2010Prop45
280
     0
102
RTVSPost2010PropOp45
 70
     0
102
RTVSPost2010Prop46
 90
       50
102
RTVSPost2010PropOp46
 70
     0
102
RTVSPost2010Prop47
 90
       50
102
RTVSPost2010PropOp47
 70
     0
102
RTVSPost2010Prop48
 90
       50
102
RTVSPost2010PropOp48
 70
     0
102
RTVSPost2010Prop49
280
     0
102
RTVSPost2010PropOp49
 70
     0
102
RTVSPost2010Prop50
 90
       50
102
RTVSPost2010PropOp50
 70
     0
102
RTVSPost2010Prop51ColorIndex
 90
      256
102
RTVSPost2010Prop51ColorRGB
 90
-16777216
102
RTVSPost2010PropOp51
 70
     0
102
RTVSPost2010Prop52
140
1.0
102
RTVSPost2010PropOp52
 70
     0
102
RTVSPost2010Prop53
 90
        2
102
RTVSPost2010PropOp53
 70
     0
102
RTVSPost2010Prop54
  1
strokes_ogs.tif
102
RTVSPost2010PropOp54
 70
     0
102
RTVSPost2010Prop55
280
     0
102
RTVSPost2010PropOp55
 70
     0
102
RTVSPost2010Prop56
140
1.0
102
RTVSPost2010PropOp56
 70
     0
102
RTVSPost2010Prop57
140
1.0
102
RTVSPost2010PropOp57
 70
     0
  0
XRECORD
  5
2C3
102
{ACAD_REACTORS
330
2C2
102
}
330
2C2
100
AcDbXrecord
280
     1
102
RTVSPropertyOp0
 70
     1
102
RTVSPropertyOp1
 70
     1
102
RTVSPropertyOp2
 70
     1
102
RTVSPropertyOp3
 70
     1
102
RTVSPropertyOp4
 70
     1
102
RTVSPropertyOp5
 70
     1
102
RTVSPropertyOp6
 70
     1
102
RTVSPropertyOp7
 70
     1
102
RTVSPropertyOp8
 70
     1
102
RTVSPropertyOp9
 70
     1
102
RTVSPropertyOp10
 70
     1
102
RTVSPropertyOp11
 70
     1
102
RTVSPropertyOp12
 70
     1
102
RTVSPropertyOp13
 70
     1
102
RTVSPropertyOp14
 70
     1
102
RTVSPropertyOp15
 70
     1
102
RTVSPropertyOp16
 70
     1
102
RTVSPropertyOp17
 70
     1
102
RTVSPropertyOp18
 70
     1
102
RTVSPropertyOp19
 70
     1
102
RTVSPropertyOp20
 70
     1
102
RTVSPropertyOp21
 70
     1
102
RTVSPropertyOp22
 70
     1
102
RTVSPropertyOp23
 70
     1
102
RTVSPropertyOp24
 70
     1
102
RTVSPropertyOp25
 70
     1
102
RTVSPropertyOp26
 70
     1
102
RTVSPropertyOp27
 70
     1
102
RTVSPropertyOp28
 70
     1
102
RTVSPropertyOp29
 70
     1
102
RTVSPropertyOp30
 70
     1
102
RTVSPropertyOp31
 70
     1
102
RTVSPropertyOp32
 70
     1
102
RTVSPropertyOp33
 70
     1
102
RTVSPropertyOp34
 70
     1
102
RTVSPropertyOp35
 70
     1
102
RTVSPropertyOp36
 70
     1
102
RTVSPropertyOp37
 70
     1
102
RTVSPropertyOp38
 70
     1
102
RTVSPropertyOp39
 70
     1
102
RTVSPropertyOp40
 70
     1
102
RTVSPropertyOp41
 70
     1
102
RTVSPropertyOp42
 70
     1
102
RTVSPropertyOp43
 70
     1
102
RTVSPropertyOp44
 70
     1
102
RTVSPropertyOp45
 70
     1
102
RTVSPropertyOp46
 70
     1
102
RTVSPropertyOp47
 70
     1
102
RTVSPropertyOp48
 70
     1
102
RTVSPropertyOp49
 70
     1
102
RTVSPropertyOp50
 70
     1
102
RTVSPropertyOp51
 70
     0
102
RTVSPropertyOp52
 70
     0
102
RTVSPropertyOp53
 70
     1
102
RTVSPropertyOp54
 70
     1
102
RTVSPropertyOp55
 70
     1
102
RTVSPropertyOp56
 70
     1
102
RTVSPropertyOp57
 70
     1
102
RTVSPost2010Prop28
280
     0
102
RTVSPost2010PropOp28
 70
     1
102
RTVSPost2010Prop29
280
     1
102
RTVSPost2010PropOp29
 70
     1
102
RTVSPost2010Prop30
280
     1
102
RTVSPost2010PropOp30
 70
     1
102
RTVSPost2010Prop31
280
     0
102
RTVSPost2010PropOp31
 70
     1
102
RTVSPost2010Prop32
280
     0
102
RTVSPost2010PropOp32
 70
     1
102
RTVSPost2010Prop33
280
     0
102
RTVSPost2010PropOp33
 70
     1
102
RTVSPost2010Prop34
280
     0
102
RTVSPost2010PropOp34
 70
     1
102
RTVSPost2010Prop35
280
     0
102
RTVSPost2010PropOp35
 70
     1
102
RTVSPost2010Prop36
280
     0
102
RTVSPost2010PropOp36
 70
     1
102
RTVSPost2010Prop37
 90
       50
102
RTVSPost2010PropOp37
 70
     1
102
RTVSPost2010Prop38
140
0.0
102
RTVSPost2010PropOp38
 70
     1
102
RTVSPost2010Prop39
140
1.0
102
RTVSPost2010PropOp39
 70
     1
102
RTVSPost2010Prop40
 90
        0
102
RTVSPost2010PropOp40
 70
     1
102
RTVSPost2010Prop41ColorIndex
 90
       18
102
RTVSPost2010Prop41ColorRGB
 90
        0
102
RTVSPost2010PropOp41
 70
     1
102
RTVSPost2010Prop42
 90
       50
102
RTVSPost2010PropOp42
 70
     1
102
RTVSPost2010Prop43
 90
        3
102
RTVSPost2010PropOp43
 70
     1
102
RTVSPost2010Prop44ColorIndex
 90
        5
102
RTVSPost2010Prop44ColorRGB
 90
      255
102
RTVSPost2010PropOp44
 70
     1
102
RTVSPost2010Prop45
280
     0
102
RTVSPost2010PropOp45
 70
     1
102
RTVSPost2010Prop46
 90
       50
102
RTVSPost2010PropOp46
 70
     1
102
RTVSPost2010Prop47
 90
       50
102
RTVSPost2010PropOp47
 70
     1
102
RTVSPost2010Prop48
 90
       50
102
RTVSPost2010PropOp48
 70
     1
102
RTVSPost2010Prop49
280
     0
102
RTVSPost2010PropOp49
 70
     1
102
RTVSPost2010Prop50
 90
       50
102
RTVSPost2010PropOp50
 70
     1
102
RTVSPost2010Prop51ColorIndex
 90
      256
102
RTVSPost2010Prop51ColorRGB
 90
-16777216
102
RTVSPost2010PropOp51
 70
     0
102
RTVSPost2010Prop52
140
1.0
102
RTVSPost2010PropOp52
 70
     0
102
RTVSPost2010Prop53
 90
        2
102
RTVSPost2010PropOp53
 70
     1
102
RTVSPost2010Prop54
  1
strokes_ogs.tif
102
RTVSPost2010PropOp54
 70
     1
102
RTVSPost2010Prop55
280
     0
102
RTVSPost2010PropOp55
 70
     1
102
RTVSPost2010Prop56
140
1.0
102
RTVSPost2010PropOp56
 70
     1
102
RTVSPost2010Prop57
140
1.0
102
RTVSPost2010PropOp57
 70
     1
  0
XRECORD
  5
2E1
102
{ACAD_REACTORS
330
2E0
102
}
330
2E0
100
AcDbXrecord
280
     1
102
RTVSPropertyOp0
 70
     1
102
RTVSPropertyOp1
 70
     1
102
RTVSPropertyOp2
 70
     1
102
RTVSPropertyOp3
 70
     1
102
RTVSPropertyOp4
 70
     1
102
RTVSPropertyOp5
 70
     1
102
RTVSPropertyOp6
 70
     1
102
RTVSPropertyOp7
 70
     1
102
RTVSPropertyOp8
 70
     1
102
RTVSPropertyOp9
 70
     1
102
RTVSPropertyOp10
 70
     1
102
RTVSPropertyOp11
 70
     1
102
RTVSPropertyOp12
 70
     1
102
RTVSPropertyOp13
 70
     1
102
RTVSPropertyOp14
 70
     1
102
RTVSPropertyOp15
 70
     1
102
RTVSPropertyOp16
 70
     1
102
RTVSPropertyOp17
 70
     1
102
RTVSPropertyOp18
 70
     1
102
RTVSPropertyOp19
 70
     1
102
RTVSPropertyOp20
 70
     1
102
RTVSPropertyOp21
 70
     1
102
RTVSPropertyOp22
 70
     1
102
RTVSPropertyOp23
 70
     1
102
RTVSPropertyOp24
 70
     1
102
RTVSPropertyOp25
 70
     1
102
RTVSPropertyOp26
 70
     1
102
RTVSPropertyOp27
 70
     1
102
RTVSPropertyOp28
 70
     1
102
RTVSPropertyOp29
 70
     1
102
RTVSPropertyOp30
 70
     1
102
RTVSPropertyOp31
 70
     1
102
RTVSPropertyOp32
 70
     1
102
RTVSPropertyOp33
 70
     1
102
RTVSPropertyOp34
 70
     1
102
RTVSPropertyOp35
 70
     1
102
RTVSPropertyOp36
 70
     1
102
RTVSPropertyOp37
 70
     1
102
RTVSPropertyOp38
 70
     1
102
RTVSPropertyOp39
 70
     1
102
RTVSPropertyOp40
 70
     1
102
RTVSPropertyOp41
 70
     1
102
RTVSPropertyOp42
 70
     1
102
RTVSPropertyOp43
 70
     1
102
RTVSPropertyOp44
 70
     1
102
RTVSPropertyOp45
 70
     1
102
RTVSPropertyOp46
 70
     1
102
RTVSPropertyOp47
 70
     1
102
RTVSPropertyOp48
 70
     1
102
RTVSPropertyOp49
 70
     1
102
RTVSPropertyOp50
 70
     1
102
RTVSPropertyOp51
 70
     0
102
RTVSPropertyOp52
 70
     0
102
RTVSPropertyOp53
 70
     1
102
RTVSPropertyOp54
 70
     1
102
RTVSPropertyOp55
 70
     1
102
RTVSPropertyOp56
 70
     1
102
RTVSPropertyOp57
 70
     1
102
RTVSPost2010Prop28
280
     0
102
RTVSPost2010PropOp28
 70
     1
102
RTVSPost2010Prop29
280
     1
102
RTVSPost2010PropOp29
 70
     1
102
RTVSPost2010Prop30
280
     1
102
RTVSPost2010PropOp30
 70
     1
102
RTVSPost2010Prop31
280
     0
102
RTVSPost2010PropOp31
 70
     1
102
RTVSPost2010Prop32
280
     0
102
RTVSPost2010PropOp32
 70
     1
102
RTVSPost2010Prop33
280
     0
102
RTVSPost2010PropOp33
 70
     1
102
RTVSPost2010Prop34
280
     0
102
RTVSPost2010PropOp34
 70
     1
102
RTVSPost2010Prop35
280
     0
102
RTVSPost2010PropOp35
 70
     1
102
RTVSPost2010Prop36
280
     0
102
RTVSPost2010PropOp36
 70
     1
102
RTVSPost2010Prop37
 90
       50
102
RTVSPost2010PropOp37
 70
     1
102
RTVSPost2010Prop38
140
0.0
102
RTVSPost2010PropOp38
 70
     1
102
RTVSPost2010Prop39
140
1.0
102
RTVSPost2010PropOp39
 70
     1
102
RTVSPost2010Prop40
 90
        0
102
RTVSPost2010PropOp40
 70
     1
102
RTVSPost2010Prop41ColorIndex
 90
       18
102
RTVSPost2010Prop41ColorRGB
 90
        0
102
RTVSPost2010PropOp41
 70
     1
102
RTVSPost2010Prop42
 90
       50
102
RTVSPost2010PropOp42
 70
     1
102
RTVSPost2010Prop43
 90
        3
102
RTVSPost2010PropOp43
 70
     1
102
RTVSPost2010Prop44ColorIndex
 90
        5
102
RTVSPost2010Prop44ColorRGB
 90
      255
102
RTVSPost2010PropOp44
 70
     1
102
RTVSPost2010Prop45
280
     0
102
RTVSPost2010PropOp45
 70
     1
102
RTVSPost2010Prop46
 90
       50
102
RTVSPost2010PropOp46
 70
     1
102
RTVSPost2010Prop47
 90
       50
102
RTVSPost2010PropOp47
 70
     1
102
RTVSPost2010Prop48
 90
       50
102
RTVSPost2010PropOp48
 70
     1
102
RTVSPost2010Prop49
280
     0
102
RTVSPost2010PropOp49
 70
     1
102
RTVSPost2010Prop50
 90
       50
102
RTVSPost2010PropOp50
 70
     1
102
RTVSPost2010Prop51ColorIndex
 90
      256
102
RTVSPost2010Prop51ColorRGB
 90
-16777216
102
RTVSPost2010PropOp51
 70
     0
102
RTVSPost2010Prop52
140
1.0
102
RTVSPost2010PropOp52
 70
     0
102
RTVSPost2010Prop53
 90
        2
102
RTVSPost2010PropOp53
 70
     1
102
RTVSPost2010Prop54
  1
strokes_ogs.tif
102
RTVSPost2010PropOp54
 70
     1
102
RTVSPost2010Prop55
280
     0
102
RTVSPost2010PropOp55
 70
     1
102
RTVSPost2010Prop56
140
1.0
102
RTVSPost2010PropOp56
 70
     1
102
RTVSPost2010Prop57
140
1.0
102
RTVSPost2010PropOp57
 70
     1
  0
XRECORD
  5
2DF
102
{ACAD_REACTORS
330
2DE
102
}
330
2DE
100
AcDbXrecord
280
     1
102
RTVSPropertyOp0
 70
     1
102
RTVSPropertyOp1
 70
     1
102
RTVSPropertyOp2
 70
     1
102
RTVSPropertyOp3
 70
     1
102
RTVSPropertyOp4
 70
     1
102
RTVSPropertyOp5
 70
     1
102
RTVSPropertyOp6
 70
     1
102
RTVSPropertyOp7
 70
     1
102
RTVSPropertyOp8
 70
     1
102
RTVSPropertyOp9
 70
     1
102
RTVSPropertyOp10
 70
     1
102
RTVSPropertyOp11
 70
     1
102
RTVSPropertyOp12
 70
     1
102
RTVSPropertyOp13
 70
     1
102
RTVSPropertyOp14
 70
     1
102
RTVSPropertyOp15
 70
     1
102
RTVSPropertyOp16
 70
     1
102
RTVSPropertyOp17
 70
     1
102
RTVSPropertyOp18
 70
     1
102
RTVSPropertyOp19
 70
     1
102
RTVSPropertyOp20
 70
     1
102
RTVSPropertyOp21
 70
     1
102
RTVSPropertyOp22
 70
     1
102
RTVSPropertyOp23
 70
     1
102
RTVSPropertyOp24
 70
     1
102
RTVSPropertyOp25
 70
     1
102
RTVSPropertyOp26
 70
     1
102
RTVSPropertyOp27
 70
     1
102
RTVSPropertyOp28
 70
     1
102
RTVSPropertyOp29
 70
     1
102
RTVSPropertyOp30
 70
     1
102
RTVSPropertyOp31
 70
     1
102
RTVSPropertyOp32
 70
     1
102
RTVSPropertyOp33
 70
     1
102
RTVSPropertyOp34
 70
     1
102
RTVSPropertyOp35
 70
     1
102
RTVSPropertyOp36
 70
     1
102
RTVSPropertyOp37
 70
     1
102
RTVSPropertyOp38
 70
     1
102
RTVSPropertyOp39
 70
     1
102
RTVSPropertyOp40
 70
     1
102
RTVSPropertyOp41
 70
     1
102
RTVSPropertyOp42
 70
     1
102
RTVSPropertyOp43
 70
     1
102
RTVSPropertyOp44
 70
     1
102
RTVSPropertyOp45
 70
     1
102
RTVSPropertyOp46
 70
     1
102
RTVSPropertyOp47
 70
     1
102
RTVSPropertyOp48
 70
     1
102
RTVSPropertyOp49
 70
     1
102
RTVSPropertyOp50
 70
     1
102
RTVSPropertyOp51
 70
     0
102
RTVSPropertyOp52
 70
     0
102
RTVSPropertyOp53
 70
     1
102
RTVSPropertyOp54
 70
     1
102
RTVSPropertyOp55
 70
     1
102
RTVSPropertyOp56
 70
     1
102
RTVSPropertyOp57
 70
     1
102
RTVSPost2010Prop28
280
     0
102
RTVSPost2010PropOp28
 70
     1
102
RTVSPost2010Prop29
280
     1
102
RTVSPost2010PropOp29
 70
     1
102
RTVSPost2010Prop30
280
     1
102
RTVSPost2010PropOp30
 70
     1
102
RTVSPost2010Prop31
280
     0
102
RTVSPost2010PropOp31
 70
     1
102
RTVSPost2010Prop32
280
     0
102
RTVSPost2010PropOp32
 70
     1
102
RTVSPost2010Prop33
280
     0
102
RTVSPost2010PropOp33
 70
     1
102
RTVSPost2010Prop34
280
     0
102
RTVSPost2010PropOp34
 70
     1
102
RTVSPost2010Prop35
280
     0
102
RTVSPost2010PropOp35
 70
     1
102
RTVSPost2010Prop36
280
     0
102
RTVSPost2010PropOp36
 70
     1
102
RTVSPost2010Prop37
 90
       50
102
RTVSPost2010PropOp37
 70
     1
102
RTVSPost2010Prop38
140
0.0
102
RTVSPost2010PropOp38
 70
     1
102
RTVSPost2010Prop39
140
1.0
102
RTVSPost2010PropOp39
 70
     1
102
RTVSPost2010Prop40
 90
        0
102
RTVSPost2010PropOp40
 70
     1
102
RTVSPost2010Prop41ColorIndex
 90
       18
102
RTVSPost2010Prop41ColorRGB
 90
        0
102
RTVSPost2010PropOp41
 70
     1
102
RTVSPost2010Prop42
 90
       50
102
RTVSPost2010PropOp42
 70
     1
102
RTVSPost2010Prop43
 90
        3
102
RTVSPost2010PropOp43
 70
     1
102
RTVSPost2010Prop44ColorIndex
 90
        5
102
RTVSPost2010Prop44ColorRGB
 90
      255
102
RTVSPost2010PropOp44
 70
     1
102
RTVSPost2010Prop45
280
     0
102
RTVSPost2010PropOp45
 70
     1
102
RTVSPost2010Prop46
 90
       50
102
RTVSPost2010PropOp46
 70
     1
102
RTVSPost2010Prop47
 90
       50
102
RTVSPost2010PropOp47
 70
     1
102
RTVSPost2010Prop48
 90
       50
102
RTVSPost2010PropOp48
 70
     1
102
RTVSPost2010Prop49
280
     0
102
RTVSPost2010PropOp49
 70
     1
102
RTVSPost2010Prop50
 90
       50
102
RTVSPost2010PropOp50
 70
     1
102
RTVSPost2010Prop51ColorIndex
 90
      256
102
RTVSPost2010Prop51ColorRGB
 90
-16777216
102
RTVSPost2010PropOp51
 70
     0
102
RTVSPost2010Prop52
140
1.0
102
RTVSPost2010PropOp52
 70
     0
102
RTVSPost2010Prop53
 90
        2
102
RTVSPost2010PropOp53
 70
     1
102
RTVSPost2010Prop54
  1
strokes_ogs.tif
102
RTVSPost2010PropOp54
 70
     1
102
RTVSPost2010Prop55
280
     0
102
RTVSPost2010PropOp55
 70
     1
102
RTVSPost2010Prop56
140
1.0
102
RTVSPost2010PropOp56
 70
     1
102
RTVSPost2010Prop57
140
1.0
102
RTVSPost2010PropOp57
 70
     1
  0
XRECORD
  5
2D9
102
{ACAD_REACTORS
330
2D8
102
}
330
2D8
100
AcDbXrecord
280
     1
102
RTVSPropertyOp0
 70
     1
102
RTVSPropertyOp1
 70
     1
102
RTVSPropertyOp2
 70
     1
102
RTVSPropertyOp3
 70
     1
102
RTVSPropertyOp4
 70
     1
102
RTVSPropertyOp5
 70
     1
102
RTVSPropertyOp6
 70
     1
102
RTVSPropertyOp7
 70
     1
102
RTVSPropertyOp8
 70
     1
102
RTVSPropertyOp9
 70
     1
102
RTVSPropertyOp10
 70
     1
102
RTVSPropertyOp11
 70
     1
102
RTVSPropertyOp12
 70
     1
102
RTVSPropertyOp13
 70
     1
102
RTVSPropertyOp14
 70
     1
102
RTVSPropertyOp15
 70
     1
102
RTVSPropertyOp16
 70
     1
102
RTVSPropertyOp17
 70
     1
102
RTVSPropertyOp18
 70
     1
102
RTVSPropertyOp19
 70
     1
102
RTVSPropertyOp20
 70
     1
102
RTVSPropertyOp21
 70
     1
102
RTVSPropertyOp22
 70
     1
102
RTVSPropertyOp23
 70
     1
102
RTVSPropertyOp24
 70
     1
102
RTVSPropertyOp25
 70
     1
102
RTVSPropertyOp26
 70
     1
102
RTVSPropertyOp27
 70
     1
102
RTVSPropertyOp28
 70
     1
102
RTVSPropertyOp29
 70
     1
102
RTVSPropertyOp30
 70
     1
102
RTVSPropertyOp31
 70
     1
102
RTVSPropertyOp32
 70
     1
102
RTVSPropertyOp33
 70
     1
102
RTVSPropertyOp34
 70
     1
102
RTVSPropertyOp35
 70
     1
102
RTVSPropertyOp36
 70
     1
102
RTVSPropertyOp37
 70
     1
102
RTVSPropertyOp38
 70
     1
102
RTVSPropertyOp39
 70
     1
102
RTVSPropertyOp40
 70
     1
102
RTVSPropertyOp41
 70
     1
102
RTVSPropertyOp42
 70
     1
102
RTVSPropertyOp43
 70
     1
102
RTVSPropertyOp44
 70
     1
102
RTVSPropertyOp45
 70
     1
102
RTVSPropertyOp46
 70
     1
102
RTVSPropertyOp47
 70
     1
102
RTVSPropertyOp48
 70
     1
102
RTVSPropertyOp49
 70
     1
102
RTVSPropertyOp50
 70
     1
102
RTVSPropertyOp51
 70
     0
102
RTVSPropertyOp52
 70
     0
102
RTVSPropertyOp53
 70
     1
102
RTVSPropertyOp54
 70
     1
102
RTVSPropertyOp55
 70
     1
102
RTVSPropertyOp56
 70
     1
102
RTVSPropertyOp57
 70
     1
102
RTVSPost2010Prop28
280
     0
102
RTVSPost2010PropOp28
 70
     1
102
RTVSPost2010Prop29
280
     1
102
RTVSPost2010PropOp29
 70
     1
102
RTVSPost2010Prop30
280
     1
102
RTVSPost2010PropOp30
 70
     1
102
RTVSPost2010Prop31
280
     0
102
RTVSPost2010PropOp31
 70
     1
102
RTVSPost2010Prop32
280
     0
102
RTVSPost2010PropOp32
 70
     1
102
RTVSPost2010Prop33
280
     0
102
RTVSPost2010PropOp33
 70
     1
102
RTVSPost2010Prop34
280
     0
102
RTVSPost2010PropOp34
 70
     1
102
RTVSPost2010Prop35
280
     0
102
RTVSPost2010PropOp35
 70
     1
102
RTVSPost2010Prop36
280
     0
102
RTVSPost2010PropOp36
 70
     1
102
RTVSPost2010Prop37
 90
       50
102
RTVSPost2010PropOp37
 70
     1
102
RTVSPost2010Prop38
140
0.0
102
RTVSPost2010PropOp38
 70
     1
102
RTVSPost2010Prop39
140
1.0
102
RTVSPost2010PropOp39
 70
     1
102
RTVSPost2010Prop40
 90
        0
102
RTVSPost2010PropOp40
 70
     1
102
RTVSPost2010Prop41ColorIndex
 90
       18
102
RTVSPost2010Prop41ColorRGB
 90
        0
102
RTVSPost2010PropOp41
 70
     1
102
RTVSPost2010Prop42
 90
       50
102
RTVSPost2010PropOp42
 70
     1
102
RTVSPost2010Prop43
 90
        3
102
RTVSPost2010PropOp43
 70
     1
102
RTVSPost2010Prop44ColorIndex
 90
        5
102
RTVSPost2010Prop44ColorRGB
 90
      255
102
RTVSPost2010PropOp44
 70
     1
102
RTVSPost2010Prop45
280
     0
102
RTVSPost2010PropOp45
 70
     1
102
RTVSPost2010Prop46
 90
       50
102
RTVSPost2010PropOp46
 70
     1
102
RTVSPost2010Prop47
 90
       50
102
RTVSPost2010PropOp47
 70
     1
102
RTVSPost2010Prop48
 90
       50
102
RTVSPost2010PropOp48
 70
     1
102
RTVSPost2010Prop49
280
     0
102
RTVSPost2010PropOp49
 70
     1
102
RTVSPost2010Prop50
 90
       50
102
RTVSPost2010PropOp50
 70
     1
102
RTVSPost2010Prop51ColorIndex
 90
      256
102
RTVSPost2010Prop51ColorRGB
 90
-16777216
102
RTVSPost2010PropOp51
 70
     0
102
RTVSPost2010Prop52
140
1.0
102
RTVSPost2010PropOp52
 70
     0
102
RTVSPost2010Prop53
 90
        2
102
RTVSPost2010PropOp53
 70
     1
102
RTVSPost2010Prop54
  1
strokes_ogs.tif
102
RTVSPost2010PropOp54
 70
     1
102
RTVSPost2010Prop55
280
     0
102
RTVSPost2010PropOp55
 70
     1
102
RTVSPost2010Prop56
140
1.0
102
RTVSPost2010PropOp56
 70
     1
102
RTVSPost2010Prop57
140
1.0
102
RTVSPost2010PropOp57
 70
     1
  0
XRECORD
  5
2DB
102
{ACAD_REACTORS
330
2DA
102
}
330
2DA
100
AcDbXrecord
280
     1
102
RTVSPropertyOp0
 70
     1
102
RTVSPropertyOp1
 70
     1
102
RTVSPropertyOp2
 70
     1
102
RTVSPropertyOp3
 70
     1
102
RTVSPropertyOp4
 70
     1
102
RTVSPropertyOp5
 70
     1
102
RTVSPropertyOp6
 70
     1
102
RTVSPropertyOp7
 70
     1
102
RTVSPropertyOp8
 70
     1
102
RTVSPropertyOp9
 70
     1
102
RTVSPropertyOp10
 70
     1
102
RTVSPropertyOp11
 70
     1
102
RTVSPropertyOp12
 70
     1
102
RTVSPropertyOp13
 70
     1
102
RTVSPropertyOp14
 70
     1
102
RTVSPropertyOp15
 70
     1
102
RTVSPropertyOp16
 70
     1
102
RTVSPropertyOp17
 70
     1
102
RTVSPropertyOp18
 70
     1
102
RTVSPropertyOp19
 70
     1
102
RTVSPropertyOp20
 70
     1
102
RTVSPropertyOp21
 70
     1
102
RTVSPropertyOp22
 70
     1
102
RTVSPropertyOp23
 70
     1
102
RTVSPropertyOp24
 70
     1
102
RTVSPropertyOp25
 70
     1
102
RTVSPropertyOp26
 70
     1
102
RTVSPropertyOp27
 70
     1
102
RTVSPropertyOp28
 70
     1
102
RTVSPropertyOp29
 70
     1
102
RTVSPropertyOp30
 70
     1
102
RTVSPropertyOp31
 70
     1
102
RTVSPropertyOp32
 70
     1
102
RTVSPropertyOp33
 70
     1
102
RTVSPropertyOp34
 70
     1
102
RTVSPropertyOp35
 70
     1
102
RTVSPropertyOp36
 70
     1
102
RTVSPropertyOp37
 70
     1
102
RTVSPropertyOp38
 70
     1
102
RTVSPropertyOp39
 70
     1
102
RTVSPropertyOp40
 70
     1
102
RTVSPropertyOp41
 70
     1
102
RTVSPropertyOp42
 70
     1
102
RTVSPropertyOp43
 70
     1
102
RTVSPropertyOp44
 70
     1
102
RTVSPropertyOp45
 70
     1
102
RTVSPropertyOp46
 70
     1
102
RTVSPropertyOp47
 70
     1
102
RTVSPropertyOp48
 70
     1
102
RTVSPropertyOp49
 70
     1
102
RTVSPropertyOp50
 70
     1
102
RTVSPropertyOp51
 70
     0
102
RTVSPropertyOp52
 70
     0
102
RTVSPropertyOp53
 70
     1
102
RTVSPropertyOp54
 70
     1
102
RTVSPropertyOp55
 70
     1
102
RTVSPropertyOp56
 70
     1
102
RTVSPropertyOp57
 70
     1
102
RTVSPost2010Prop28
280
     0
102
RTVSPost2010PropOp28
 70
     1
102
RTVSPost2010Prop29
280
     1
102
RTVSPost2010PropOp29
 70
     1
102
RTVSPost2010Prop30
280
     1
102
RTVSPost2010PropOp30
 70
     1
102
RTVSPost2010Prop31
280
     0
102
RTVSPost2010PropOp31
 70
     1
102
RTVSPost2010Prop32
280
     0
102
RTVSPost2010PropOp32
 70
     1
102
RTVSPost2010Prop33
280
     0
102
RTVSPost2010PropOp33
 70
     1
102
RTVSPost2010Prop34
280
     0
102
RTVSPost2010PropOp34
 70
     1
102
RTVSPost2010Prop35
280
     0
102
RTVSPost2010PropOp35
 70
     1
102
RTVSPost2010Prop36
280
     0
102
RTVSPost2010PropOp36
 70
     1
102
RTVSPost2010Prop37
 90
       50
102
RTVSPost2010PropOp37
 70
     1
102
RTVSPost2010Prop38
140
0.0
102
RTVSPost2010PropOp38
 70
     1
102
RTVSPost2010Prop39
140
1.0
102
RTVSPost2010PropOp39
 70
     1
102
RTVSPost2010Prop40
 90
        0
102
RTVSPost2010PropOp40
 70
     1
102
RTVSPost2010Prop41ColorIndex
 90
       18
102
RTVSPost2010Prop41ColorRGB
 90
        0
102
RTVSPost2010PropOp41
 70
     1
102
RTVSPost2010Prop42
 90
       50
102
RTVSPost2010PropOp42
 70
     1
102
RTVSPost2010Prop43
 90
        3
102
RTVSPost2010PropOp43
 70
     1
102
RTVSPost2010Prop44ColorIndex
 90
        5
102
RTVSPost2010Prop44ColorRGB
 90
      255
102
RTVSPost2010PropOp44
 70
     1
102
RTVSPost2010Prop45
280
     0
102
RTVSPost2010PropOp45
 70
     1
102
RTVSPost2010Prop46
 90
       50
102
RTVSPost2010PropOp46
 70
     1
102
RTVSPost2010Prop47
 90
       50
102
RTVSPost2010PropOp47
 70
     1
102
RTVSPost2010Prop48
 90
       50
102
RTVSPost2010PropOp48
 70
     1
102
RTVSPost2010Prop49
280
     0
102
RTVSPost2010PropOp49
 70
     1
102
RTVSPost2010Prop50
 90
       50
102
RTVSPost2010PropOp50
 70
     1
102
RTVSPost2010Prop51ColorIndex
 90
      256
102
RTVSPost2010Prop51ColorRGB
 90
-16777216
102
RTVSPost2010PropOp51
 70
     0
102
RTVSPost2010Prop52
140
1.0
102
RTVSPost2010PropOp52
 70
     0
102
RTVSPost2010Prop53
 90
        2
102
RTVSPost2010PropOp53
 70
     1
102
RTVSPost2010Prop54
  1
strokes_ogs.tif
102
RTVSPost2010PropOp54
 70
     1
102
RTVSPost2010Prop55
280
     0
102
RTVSPost2010PropOp55
 70
     1
102
RTVSPost2010Prop56
140
1.0
102
RTVSPost2010PropOp56
 70
     1
102
RTVSPost2010Prop57
140
1.0
102
RTVSPost2010PropOp57
 70
     1
  0
XRECORD
  5
2CB
102
{ACAD_REACTORS
330
2CA
102
}
330
2CA
100
AcDbXrecord
280
     1
102
RTVSPropertyOp0
 70
     1
102
RTVSPropertyOp1
 70
     1
102
RTVSPropertyOp2
 70
     1
102
RTVSPropertyOp3
 70
     1
102
RTVSPropertyOp4
 70
     1
102
RTVSPropertyOp5
 70
     1
102
RTVSPropertyOp6
 70
     1
102
RTVSPropertyOp7
 70
     1
102
RTVSPropertyOp8
 70
     1
102
RTVSPropertyOp9
 70
     1
102
RTVSPropertyOp10
 70
     1
102
RTVSPropertyOp11
 70
     1
102
RTVSPropertyOp12
 70
     1
102
RTVSPropertyOp13
 70
     1
102
RTVSPropertyOp14
 70
     1
102
RTVSPropertyOp15
 70
     1
102
RTVSPropertyOp16
 70
     1
102
RTVSPropertyOp17
 70
     1
102
RTVSPropertyOp18
 70
     1
102
RTVSPropertyOp19
 70
     1
102
RTVSPropertyOp20
 70
     1
102
RTVSPropertyOp21
 70
     1
102
RTVSPropertyOp22
 70
     1
102
RTVSPropertyOp23
 70
     1
102
RTVSPropertyOp24
 70
     1
102
RTVSPropertyOp25
 70
     1
102
RTVSPropertyOp26
 70
     1
102
RTVSPropertyOp27
 70
     1
102
RTVSPropertyOp28
 70
     1
102
RTVSPropertyOp29
 70
     1
102
RTVSPropertyOp30
 70
     1
102
RTVSPropertyOp31
 70
     1
102
RTVSPropertyOp32
 70
     1
102
RTVSPropertyOp33
 70
     1
102
RTVSPropertyOp34
 70
     1
102
RTVSPropertyOp35
 70
     1
102
RTVSPropertyOp36
 70
     1
102
RTVSPropertyOp37
 70
     1
102
RTVSPropertyOp38
 70
     1
102
RTVSPropertyOp39
 70
     1
102
RTVSPropertyOp40
 70
     1
102
RTVSPropertyOp41
 70
     1
102
RTVSPropertyOp42
 70
     1
102
RTVSPropertyOp43
 70
     1
102
RTVSPropertyOp44
 70
     1
102
RTVSPropertyOp45
 70
     1
102
RTVSPropertyOp46
 70
     1
102
RTVSPropertyOp47
 70
     1
102
RTVSPropertyOp48
 70
     1
102
RTVSPropertyOp49
 70
     1
102
RTVSPropertyOp50
 70
     1
102
RTVSPropertyOp51
 70
     0
102
RTVSPropertyOp52
 70
     0
102
RTVSPropertyOp53
 70
     1
102
RTVSPropertyOp54
 70
     1
102
RTVSPropertyOp55
 70
     1
102
RTVSPropertyOp56
 70
     1
102
RTVSPropertyOp57
 70
     1
102
RTVSPost2010Prop28
280
     0
102
RTVSPost2010PropOp28
 70
     1
102
RTVSPost2010Prop29
280
     1
102
RTVSPost2010PropOp29
 70
     1
102
RTVSPost2010Prop30
280
     1
102
RTVSPost2010PropOp30
 70
     1
102
RTVSPost2010Prop31
280
     0
102
RTVSPost2010PropOp31
 70
     1
102
RTVSPost2010Prop32
280
     0
102
RTVSPost2010PropOp32
 70
     1
102
RTVSPost2010Prop33
280
     0
102
RTVSPost2010PropOp33
 70
     1
102
RTVSPost2010Prop34
280
     0
102
RTVSPost2010PropOp34
 70
     1
102
RTVSPost2010Prop35
280
     0
102
RTVSPost2010PropOp35
 70
     1
102
RTVSPost2010Prop36
280
     0
102
RTVSPost2010PropOp36
 70
     1
102
RTVSPost2010Prop37
 90
       50
102
RTVSPost2010PropOp37
 70
     1
102
RTVSPost2010Prop38
140
0.0
102
RTVSPost2010PropOp38
 70
     1
102
RTVSPost2010Prop39
140
1.0
102
RTVSPost2010PropOp39
 70
     1
102
RTVSPost2010Prop40
 90
        0
102
RTVSPost2010PropOp40
 70
     1
102
RTVSPost2010Prop41ColorIndex
 90
       18
102
RTVSPost2010Prop41ColorRGB
 90
        0
102
RTVSPost2010PropOp41
 70
     1
102
RTVSPost2010Prop42
 90
       50
102
RTVSPost2010PropOp42
 70
     1
102
RTVSPost2010Prop43
 90
        3
102
RTVSPost2010PropOp43
 70
     1
102
RTVSPost2010Prop44ColorIndex
 90
        5
102
RTVSPost2010Prop44ColorRGB
 90
      255
102
RTVSPost2010PropOp44
 70
     1
102
RTVSPost2010Prop45
280
     0
102
RTVSPost2010PropOp45
 70
     1
102
RTVSPost2010Prop46
 90
       50
102
RTVSPost2010PropOp46
 70
     1
102
RTVSPost2010Prop47
 90
       50
102
RTVSPost2010PropOp47
 70
     1
102
RTVSPost2010Prop48
 90
       50
102
RTVSPost2010PropOp48
 70
     1
102
RTVSPost2010Prop49
280
     0
102
RTVSPost2010PropOp49
 70
     1
102
RTVSPost2010Prop50
 90
       50
102
RTVSPost2010PropOp50
 70
     1
102
RTVSPost2010Prop51ColorIndex
 90
      256
102
RTVSPost2010Prop51ColorRGB
 90
-16777216
102
RTVSPost2010PropOp51
 70
     0
102
RTVSPost2010Prop52
140
1.0
102
RTVSPost2010PropOp52
 70
     0
102
RTVSPost2010Prop53
 90
        2
102
RTVSPost2010PropOp53
 70
     1
102
RTVSPost2010Prop54
  1
strokes_ogs.tif
102
RTVSPost2010PropOp54
 70
     1
102
RTVSPost2010Prop55
280
     0
102
RTVSPost2010PropOp55
 70
     1
102
RTVSPost2010Prop56
140
1.0
102
RTVSPost2010PropOp56
 70
     1
102
RTVSPost2010Prop57
140
1.0
102
RTVSPost2010PropOp57
 70
     1
  0
XRECORD
  5
2BD
102
{ACAD_REACTORS
330
2BC
102
}
330
2BC
100
AcDbXrecord
280
     1
102
RTVSPropertyOp0
 70
     1
102
RTVSPropertyOp1
 70
     1
102
RTVSPropertyOp2
 70
     1
102
RTVSPropertyOp3
 70
     1
102
RTVSPropertyOp4
 70
     1
102
RTVSPropertyOp5
 70
     1
102
RTVSPropertyOp6
 70
     1
102
RTVSPropertyOp7
 70
     1
102
RTVSPropertyOp8
 70
     1
102
RTVSPropertyOp9
 70
     1
102
RTVSPropertyOp10
 70
     1
102
RTVSPropertyOp11
 70
     1
102
RTVSPropertyOp12
 70
     1
102
RTVSPropertyOp13
 70
     1
102
RTVSPropertyOp14
 70
     1
102
RTVSPropertyOp15
 70
     1
102
RTVSPropertyOp16
 70
     1
102
RTVSPropertyOp17
 70
     1
102
RTVSPropertyOp18
 70
     1
102
RTVSPropertyOp19
 70
     1
102
RTVSPropertyOp20
 70
     1
102
RTVSPropertyOp21
 70
     1
102
RTVSPropertyOp22
 70
     1
102
RTVSPropertyOp23
 70
     1
102
RTVSPropertyOp24
 70
     1
102
RTVSPropertyOp25
 70
     1
102
RTVSPropertyOp26
 70
     1
102
RTVSPropertyOp27
 70
     1
102
RTVSPropertyOp28
 70
     1
102
RTVSPropertyOp29
 70
     1
102
RTVSPropertyOp30
 70
     1
102
RTVSPropertyOp31
 70
     1
102
RTVSPropertyOp32
 70
     1
102
RTVSPropertyOp33
 70
     1
102
RTVSPropertyOp34
 70
     1
102
RTVSPropertyOp35
 70
     1
102
RTVSPropertyOp36
 70
     1
102
RTVSPropertyOp37
 70
     1
102
RTVSPropertyOp38
 70
     1
102
RTVSPropertyOp39
 70
     1
102
RTVSPropertyOp40
 70
     1
102
RTVSPropertyOp41
 70
     1
102
RTVSPropertyOp42
 70
     1
102
RTVSPropertyOp43
 70
     1
102
RTVSPropertyOp44
 70
     1
102
RTVSPropertyOp45
 70
     1
102
RTVSPropertyOp46
 70
     1
102
RTVSPropertyOp47
 70
     1
102
RTVSPropertyOp48
 70
     1
102
RTVSPropertyOp49
 70
     1
102
RTVSPropertyOp50
 70
     1
102
RTVSPropertyOp51
 70
     0
102
RTVSPropertyOp52
 70
     0
102
RTVSPropertyOp53
 70
     1
102
RTVSPropertyOp54
 70
     1
102
RTVSPropertyOp55
 70
     1
102
RTVSPropertyOp56
 70
     1
102
RTVSPropertyOp57
 70
     1
102
RTVSPost2010Prop28
280
     0
102
RTVSPost2010PropOp28
 70
     1
102
RTVSPost2010Prop29
280
     1
102
RTVSPost2010PropOp29
 70
     1
102
RTVSPost2010Prop30
280
     1
102
RTVSPost2010PropOp30
 70
     1
102
RTVSPost2010Prop31
280
     0
102
RTVSPost2010PropOp31
 70
     1
102
RTVSPost2010Prop32
280
     0
102
RTVSPost2010PropOp32
 70
     1
102
RTVSPost2010Prop33
280
     0
102
RTVSPost2010PropOp33
 70
     1
102
RTVSPost2010Prop34
280
     0
102
RTVSPost2010PropOp34
 70
     1
102
RTVSPost2010Prop35
280
     0
102
RTVSPost2010PropOp35
 70
     1
102
RTVSPost2010Prop36
280
     0
102
RTVSPost2010PropOp36
 70
     1
102
RTVSPost2010Prop37
 90
       50
102
RTVSPost2010PropOp37
 70
     1
102
RTVSPost2010Prop38
140
0.0
102
RTVSPost2010PropOp38
 70
     1
102
RTVSPost2010Prop39
140
1.0
102
RTVSPost2010PropOp39
 70
     1
102
RTVSPost2010Prop40
 90
        0
102
RTVSPost2010PropOp40
 70
     1
102
RTVSPost2010Prop41ColorIndex
 90
       18
102
RTVSPost2010Prop41ColorRGB
 90
        0
102
RTVSPost2010PropOp41
 70
     1
102
RTVSPost2010Prop42
 90
       50
102
RTVSPost2010PropOp42
 70
     1
102
RTVSPost2010Prop43
 90
        3
102
RTVSPost2010PropOp43
 70
     1
102
RTVSPost2010Prop44ColorIndex
 90
        5
102
RTVSPost2010Prop44ColorRGB
 90
      255
102
RTVSPost2010PropOp44
 70
     1
102
RTVSPost2010Prop45
280
     0
102
RTVSPost2010PropOp45
 70
     1
102
RTVSPost2010Prop46
 90
       50
102
RTVSPost2010PropOp46
 70
     1
102
RTVSPost2010Prop47
 90
       50
102
RTVSPost2010PropOp47
 70
     1
102
RTVSPost2010Prop48
 90
       50
102
RTVSPost2010PropOp48
 70
     1
102
RTVSPost2010Prop49
280
     0
102
RTVSPost2010PropOp49
 70
     1
102
RTVSPost2010Prop50
 90
       50
102
RTVSPost2010PropOp50
 70
     1
102
RTVSPost2010Prop51ColorIndex
 90
      256
102
RTVSPost2010Prop51ColorRGB
 90
-16777216
102
RTVSPost2010PropOp51
 70
     0
102
RTVSPost2010Prop52
140
1.0
102
RTVSPost2010PropOp52
 70
     0
102
RTVSPost2010Prop53
 90
        2
102
RTVSPost2010PropOp53
 70
     1
102
RTVSPost2010Prop54
  1
strokes_ogs.tif
102
RTVSPost2010PropOp54
 70
     1
102
RTVSPost2010Prop55
280
     0
102
RTVSPost2010PropOp55
 70
     1
102
RTVSPost2010Prop56
140
1.0
102
RTVSPost2010PropOp56
 70
     1
102
RTVSPost2010Prop57
140
1.0
102
RTVSPost2010PropOp57
 70
     1
  0
XRECORD
  5
2DD
102
{ACAD_REACTORS
330
2DC
102
}
330
2DC
100
AcDbXrecord
280
     1
102
RTVSPropertyOp0
 70
     1
102
RTVSPropertyOp1
 70
     1
102
RTVSPropertyOp2
 70
     1
102
RTVSPropertyOp3
 70
     1
102
RTVSPropertyOp4
 70
     1
102
RTVSPropertyOp5
 70
     1
102
RTVSPropertyOp6
 70
     1
102
RTVSPropertyOp7
 70
     1
102
RTVSPropertyOp8
 70
     1
102
RTVSPropertyOp9
 70
     1
102
RTVSPropertyOp10
 70
     1
102
RTVSPropertyOp11
 70
     1
102
RTVSPropertyOp12
 70
     1
102
RTVSPropertyOp13
 70
     1
102
RTVSPropertyOp14
 70
     1
102
RTVSPropertyOp15
 70
     1
102
RTVSPropertyOp16
 70
     1
102
RTVSPropertyOp17
 70
     1
102
RTVSPropertyOp18
 70
     1
102
RTVSPropertyOp19
 70
     1
102
RTVSPropertyOp20
 70
     1
102
RTVSPropertyOp21
 70
     1
102
RTVSPropertyOp22
 70
     1
102
RTVSPropertyOp23
 70
     1
102
RTVSPropertyOp24
 70
     1
102
RTVSPropertyOp25
 70
     1
102
RTVSPropertyOp26
 70
     1
102
RTVSPropertyOp27
 70
     1
102
RTVSPropertyOp28
 70
     1
102
RTVSPropertyOp29
 70
     1
102
RTVSPropertyOp30
 70
     1
102
RTVSPropertyOp31
 70
     1
102
RTVSPropertyOp32
 70
     1
102
RTVSPropertyOp33
 70
     1
102
RTVSPropertyOp34
 70
     1
102
RTVSPropertyOp35
 70
     1
102
RTVSPropertyOp36
 70
     1
102
RTVSPropertyOp37
 70
     1
102
RTVSPropertyOp38
 70
     1
102
RTVSPropertyOp39
 70
     1
102
RTVSPropertyOp40
 70
     1
102
RTVSPropertyOp41
 70
     1
102
RTVSPropertyOp42
 70
     1
102
RTVSPropertyOp43
 70
     1
102
RTVSPropertyOp44
 70
     1
102
RTVSPropertyOp45
 70
     1
102
RTVSPropertyOp46
 70
     1
102
RTVSPropertyOp47
 70
     1
102
RTVSPropertyOp48
 70
     1
102
RTVSPropertyOp49
 70
     1
102
RTVSPropertyOp50
 70
     1
102
RTVSPropertyOp51
 70
     0
102
RTVSPropertyOp52
 70
     0
102
RTVSPropertyOp53
 70
     1
102
RTVSPropertyOp54
 70
     1
102
RTVSPropertyOp55
 70
     1
102
RTVSPropertyOp56
 70
     1
102
RTVSPropertyOp57
 70
     1
102
RTVSPost2010Prop28
280
     0
102
RTVSPost2010PropOp28
 70
     1
102
RTVSPost2010Prop29
280
     1
102
RTVSPost2010PropOp29
 70
     1
102
RTVSPost2010Prop30
280
     1
102
RTVSPost2010PropOp30
 70
     1
102
RTVSPost2010Prop31
280
     0
102
RTVSPost2010PropOp31
 70
     1
102
RTVSPost2010Prop32
280
     0
102
RTVSPost2010PropOp32
 70
     1
102
RTVSPost2010Prop33
280
     0
102
RTVSPost2010PropOp33
 70
     1
102
RTVSPost2010Prop34
280
     0
102
RTVSPost2010PropOp34
 70
     1
102
RTVSPost2010Prop35
280
     0
102
RTVSPost2010PropOp35
 70
     1
102
RTVSPost2010Prop36
280
     0
102
RTVSPost2010PropOp36
 70
     1
102
RTVSPost2010Prop37
 90
       50
102
RTVSPost2010PropOp37
 70
     1
102
RTVSPost2010Prop38
140
0.0
102
RTVSPost2010PropOp38
 70
     1
102
RTVSPost2010Prop39
140
1.0
102
RTVSPost2010PropOp39
 70
     1
102
RTVSPost2010Prop40
 90
        0
102
RTVSPost2010PropOp40
 70
     1
102
RTVSPost2010Prop41ColorIndex
 90
       18
102
RTVSPost2010Prop41ColorRGB
 90
        0
102
RTVSPost2010PropOp41
 70
     1
102
RTVSPost2010Prop42
 90
       50
102
RTVSPost2010PropOp42
 70
     1
102
RTVSPost2010Prop43
 90
        3
102
RTVSPost2010PropOp43
 70
     1
102
RTVSPost2010Prop44ColorIndex
 90
        5
102
RTVSPost2010Prop44ColorRGB
 90
      255
102
RTVSPost2010PropOp44
 70
     1
102
RTVSPost2010Prop45
280
     0
102
RTVSPost2010PropOp45
 70
     1
102
RTVSPost2010Prop46
 90
       50
102
RTVSPost2010PropOp46
 70
     1
102
RTVSPost2010Prop47
 90
       50
102
RTVSPost2010PropOp47
 70
     1
102
RTVSPost2010Prop48
 90
       50
102
RTVSPost2010PropOp48
 70
     1
102
RTVSPost2010Prop49
280
     0
102
RTVSPost2010PropOp49
 70
     1
102
RTVSPost2010Prop50
 90
       50
102
RTVSPost2010PropOp50
 70
     1
102
RTVSPost2010Prop51ColorIndex
 90
      256
102
RTVSPost2010Prop51ColorRGB
 90
-16777216
102
RTVSPost2010PropOp51
 70
     0
102
RTVSPost2010Prop52
140
1.0
102
RTVSPost2010PropOp52
 70
     0
102
RTVSPost2010Prop53
 90
        2
102
RTVSPost2010PropOp53
 70
     1
102
RTVSPost2010Prop54
  1
strokes_ogs.tif
102
RTVSPost2010PropOp54
 70
     1
102
RTVSPost2010Prop55
280
     0
102
RTVSPost2010PropOp55
 70
     1
102
RTVSPost2010Prop56
140
1.0
102
RTVSPost2010PropOp56
 70
     1
102
RTVSPost2010Prop57
140
1.0
102
RTVSPost2010PropOp57
 70
     1
  0
ENDSEC
  0
EOF
