  0
SECTION
  2
HEADER
  9
$ACADVER
  1
AC1015
  9
$ACADMAINTVER
 70
     6
  9
$DWGCODEPAGE
  3
ANSI_1252
  9
$INSBASE
 10
0.0
 20
0.0
 30
0.0
  9
$EXTMIN
 10
-188.045578
 20
0.0
 30
0.0
  9
$EXTMAX
 10
347.202118
 20
970.26709
 30
0.0
  9
$LIMMIN
 10
-188.045578
 20
0.0
  9
$LIMMAX
 10
347.202118
 20
970.26709
  9
$ORTHOMODE
 70
     0
  9
$REGENMODE
 70
     1
  9
$FILLMODE
 70
     1
  9
$QTEXTMODE
 70
     0
  9
$MIRRTEXT
 70
     1
  9
$LTSCALE
 40
1.0
  9
$ATTMODE
 70
     1
  9
$TEXTSIZE
 40
2.5
  9
$TRACEWID
 40
1.0
  9
$TEXTSTYLE
  7
Standard
  9
$CLAYER
  8
0
  9
$CELTYPE
  6
ByLayer
  9
$CECOLOR
 62
   256
  9
$CELTSCALE
 40
1.0
  9
$DISPSILH
 70
     0
  9
$DIMSCALE
 40
1.0
  9
$DIMASZ
 40
2.5
  9
$DIMEXO
 40
0.625
  9
$DIMDLI
 40
3.75
  9
$DIMRND
 40
0.0
  9
$DIMDLE
 40
0.0
  9
$DIMEXE
 40
1.25
  9
$DIMTP
 40
0.0
  9
$DIMTM
 40
0.0
  9
$DIMTXT
 40
2.5
  9
$DIMCEN
 40
2.5
  9
$DIMTSZ
 40
0.0
  9
$DIMTOL
 70
     0
  9
$DIMLIM
 70
     0
  9
$DIMTIH
 70
     0
  9
$DIMTOH
 70
     0
  9
$DIMSE1
 70
     0
  9
$DIMSE2
 70
     0
  9
$DIMTAD
 70
     1
  9
$DIMZIN
 70
     8
  9
$DIMBLK
  1

  9
$DIMASO
 70
     1
  9
$DIMSHO
 70
     1
  9
$DIMPOST
  1

  9
$DIMAPOST
  1

  9
$DIMALT
 70
     0
  9
$DIMALTD
 70
     3
  9
$DIMALTF
 40
0.03937
  9
$DIMLFAC
 40
1.0
  9
$DIMTOFL
 70
     1
  9
$DIMTVP
 40
0.0
  9
$DIMTIX
 70
     0
  9
$DIMSOXD
 70
     0
  9
$DIMSAH
 70
     0
  9
$DIMBLK1
  1

  9
$DIMBLK2
  1

  9
$DIMSTYLE
  2
ISO-25
  9
$DIMCLRD
 70
     0
  9
$DIMCLRE
 70
     0
  9
$DIMCLRT
 70
     0
  9
$DIMTFAC
 40
1.0
  9
$DIMGAP
 40
0.625
  9
$DIMJUST
 70
     0
  9
$DIMSD1
 70
     0
  9
$DIMSD2
 70
     0
  9
$DIMTOLJ
 70
     0
  9
$DIMTZIN
 70
     8
  9
$DIMALTZ
 70
     0
  9
$DIMALTTZ
 70
     0
  9
$DIMUPT
 70
     0
  9
$DIMDEC
 70
     2
  9
$DIMTDEC
 70
     2
  9
$DIMALTU
 70
     2
  9
$DIMALTTD
 70
     3
  9
$DIMTXSTY
  7
Standard
  9
$DIMAUNIT
 70
     0
  9
$DIMADEC
 70
     0
  9
$DIMALTRND
 40
0.0
  9
$DIMAZIN
 70
     0
  9
$DIMDSEP
 70
    44
  9
$DIMATFIT
 70
     3
  9
$DIMFRAC
 70
     0
  9
$DIMLDRBLK
  1

  9
$DIMLUNIT
 70
     2
  9
$DIMLWD
 70
    -2
  9
$DIMLWE
 70
    -2
  9
$DIMTMOVE
 70
     0
  9
$LUNITS
 70
     2
  9
$LUPREC
 70
     4
  9
$SKETCHINC
 40
1.0
  9
$FILLETRAD
 40
10.0
  9
$AUNITS
 70
     0
  9
$AUPREC
 70
     0
  9
$MENU
  1
.
  9
$ELEVATION
 40
0.0
  9
$PELEVATION
 40
0.0
  9
$THICKNESS
 40
0.0
  9
$LIMCHECK
 70
     0
  9
$CHAMFERA
 40
0.0
  9
$CHAMFERB
 40
0.0
  9
$CHAMFERC
 40
0.0
  9
$CHAMFERD
 40
0.0
  9
$SKPOLY
 70
     0
  9
$TDCREATE
 40
2459018.453911238
  9
$TDUCREATE
 40
2459018.370577905
  9
$TDUPDATE
 40
2459018.45391228
  9
$TDUUPDATE
 40
2459018.370578947
  9
$TDINDWG
 40
0.0000000116
  9
$TDUSRTIMER
 40
0.0000000116
  9
$USRTIMER
 70
     1
  9
$ANGBASE
 50
0.0
  9
$ANGDIR
 70
     0
  9
$PDMODE
 70
     0
  9
$PDSIZE
 40
0.0
  9
$PLINEWID
 40
0.0
  9
$SPLFRAME
 70
     0
  9
$SPLINETYPE
 70
     6
  9
$SPLINESEGS
 70
     8
  9
$HANDSEED
  5
281
  9
$SURFTAB1
 70
     6
  9
$SURFTAB2
 70
     6
  9
$SURFTYPE
 70
     6
  9
$SURFU
 70
     6
  9
$SURFV
 70
     6
  9
$UCSBASE
  2

  9
$UCSNAME
  2

  9
$UCSORG
 10
0.0
 20
0.0
 30
0.0
  9
$UCSXDIR
 10
1.0
 20
0.0
 30
0.0
  9
$UCSYDIR
 10
0.0
 20
1.0
 30
0.0
  9
$UCSORTHOREF
  2

  9
$UCSORTHOVIEW
 70
     0
  9
$UCSORGTOP
 10
0.0
 20
0.0
 30
0.0
  9
$UCSORGBOTTOM
 10
0.0
 20
0.0
 30
0.0
  9
$UCSORGLEFT
 10
0.0
 20
0.0
 30
0.0
  9
$UCSORGRIGHT
 10
0.0
 20
0.0
 30
0.0
  9
$UCSORGFRONT
 10
0.0
 20
0.0
 30
0.0
  9
$UCSORGBACK
 10
0.0
 20
0.0
 30
0.0
  9
$PUCSBASE
  2

  9
$PUCSNAME
  2

  9
$PUCSORG
 10
0.0
 20
0.0
 30
0.0
  9
$PUCSXDIR
 10
1.0
 20
0.0
 30
0.0
  9
$PUCSYDIR
 10
0.0
 20
1.0
 30
0.0
  9
$PUCSORTHOREF
  2

  9
$PUCSORTHOVIEW
 70
     0
  9
$PUCSORGTOP
 10
0.0
 20
0.0
 30
0.0
  9
$PUCSORGBOTTOM
 10
0.0
 20
0.0
 30
0.0
  9
$PUCSORGLEFT
 10
0.0
 20
0.0
 30
0.0
  9
$PUCSORGRIGHT
 10
0.0
 20
0.0
 30
0.0
  9
$PUCSORGFRONT
 10
0.0
 20
0.0
 30
0.0
  9
$PUCSORGBACK
 10
0.0
 20
0.0
 30
0.0
  9
$USERI1
 70
     0
  9
$USERI2
 70
     0
  9
$USERI3
 70
     0
  9
$USERI4
 70
     0
  9
$USERI5
 70
     0
  9
$USERR1
 40
0.0
  9
$USERR2
 40
0.0
  9
$USERR3
 40
0.0
  9
$USERR4
 40
0.0
  9
$USERR5
 40
0.0
  9
$WORLDVIEW
 70
     1
  9
$SHADEDGE
 70
     3
  9
$SHADEDIF
 70
    70
  9
$TILEMODE
 70
     1
  9
$MAXACTVP
 70
    64
  9
$PINSBASE
 10
0.0
 20
0.0
 30
0.0
  9
$PLIMCHECK
 70
     0
  9
$PEXTMIN
 10
1.000000E+20
 20
1.000000E+20
 30
1.000000E+20
  9
$PEXTMAX
 10
-1.000000E+20
 20
-1.000000E+20
 30
-1.000000E+20
  9
$PLIMMIN
 10
0.0
 20
0.0
  9
$PLIMMAX
 10
420.0
 20
297.0
  9
$UNITMODE
 70
     0
  9
$VISRETAIN
 70
     1
  9
$PLINEGEN
 70
     0
  9
$PSLTSCALE
 70
     1
  9
$TREEDEPTH
 70
  3020
  9
$CMLSTYLE
  2
Standard
  9
$CMLJUST
 70
     0
  9
$CMLSCALE
 40
20.0
  9
$PROXYGRAPHICS
 70
     1
  9
$MEASUREMENT
 70
     1
  9
$CELWEIGHT
370
    -1
  9
$ENDCAPS
280
     0
  9
$JOINSTYLE
280
     0
  9
$LWDISPLAY
290
     0
  9
$INSUNITS
 70
     4
  9
$HYPERLINKBASE
  1

  9
$STYLESHEET
  1

  9
$XEDIT
290
     1
  9
$CEPSNTYPE
380
     0
  9
$PSTYLEMODE
290
     1
  9
$FINGERPRINTGUID
  2
{6ee10a36-3e70-478f-bcf7-c2b0ca11ae49}
  9
$VERSIONGUID
  2
{FAEB1C32-E019-11D5-929B-00C0DF256EC4}
  9
$EXTNAMES
290
     1
  9
$PSVPSCALE
 40
0.0
  9
$OLESTARTUP
290
     0
  0
ENDSEC
  0
SECTION
  2
CLASSES
  0
CLASS
  1
ACDBDICTIONARYWDFLT
  2
AcDbDictionaryWithDefault
  3
ObjectDBX Classes
 90
        0
280
     0
281
     0
  0
CLASS
  1
VISUALSTYLE
  2
AcDbVisualStyle
  3
ObjectDBX Classes
 90
     4095
280
     0
281
     0
  0
CLASS
  1
MATERIAL
  2
AcDbMaterial
  3
ObjectDBX Classes
 90
     1153
280
     0
281
     0
  0
CLASS
  1
SCALE
  2
AcDbScale
  3
ObjectDBX Classes
 90
     1153
280
     0
281
     0
  0
CLASS
  1
TABLESTYLE
  2
AcDbTableStyle
  3
ObjectDBX Classes
 90
     4095
280
     0
281
     0
  0
CLASS
  1
MLEADERSTYLE
  2
AcDbMLeaderStyle
  3
ACDB_MLEADERSTYLE_CLASS
 90
     4095
280
     0
281
     0
  0
CLASS
  1
SUN
  2
AcDbSun
  3
SCENEOE
 90
     1153
280
     0
281
     0
  0
CLASS
  1
DICTIONARYVAR
  2
AcDbDictionaryVar
  3
ObjectDBX Classes
 90
        0
280
     0
281
     0
  0
CLASS
  1
ACDBPLACEHOLDER
  2
AcDbPlaceHolder
  3
ObjectDBX Classes
 90
        0
280
     0
281
     0
  0
CLASS
  1
LAYOUT
  2
AcDbLayout
  3
ObjectDBX Classes
 90
        0
280
     0
281
     0
  0
ENDSEC
  0
SECTION
  2
TABLES
  0
TABLE
  2
VPORT
  5
8
102
{ACAD_XDICTIONARY
360
244
102
}
330
0
100
AcDbSymbolTable
 70
     1
  0
VPORT
  5
29
330
8
100
AcDbSymbolTableRecord
100
AcDbViewportTableRecord
  2
*Active
 70
     0
 10
0.0
 20
0.0
 11
1.0
 21
1.0
 12
344.186916
 22
148.5
 13
0.0
 23
0.0
 14
10.0
 24
10.0
 15
10.0
 25
10.0
 16
0.0
 26
0.0
 36
1.0
 17
0.0
 27
0.0
 37
0.0
 40
297.0
 41
1.972973
 42
50.0
 43
0.0
 44
0.0
 50
0.0
 51
0.0
 71
     0
 72
   100
 73
     1
 74
     3
 75
     0
 76
     0
 77
     0
 78
     0
281
     0
 65
     1
110
0.0
120
0.0
130
0.0
111
1.0
121
0.0
131
0.0
112
0.0
122
1.0
132
0.0
 79
     0
146
0.0
  0
ENDTAB
  0
TABLE
  2
LTYPE
  5
5
330
0
100
AcDbSymbolTable
 70
     1
  0
LTYPE
  5
14
330
5
100
AcDbSymbolTableRecord
100
AcDbLinetypeTableRecord
  2
ByBlock
 70
     0
  3

 72
    65
 73
     0
 40
0.0
  0
LTYPE
  5
15
330
5
100
AcDbSymbolTableRecord
100
AcDbLinetypeTableRecord
  2
ByLayer
 70
     0
  3

 72
    65
 73
     0
 40
0.0
  0
LTYPE
  5
16
330
5
100
AcDbSymbolTableRecord
100
AcDbLinetypeTableRecord
  2
Continuous
 70
     0
  3
Solid line
 72
    65
 73
     0
 40
0.0
  0
ENDTAB
  0
TABLE
  2
LAYER
  5
2
330
0
100
AcDbSymbolTable
 70
     1
  0
LAYER
  5
10
330
2
100
AcDbSymbolTableRecord
100
AcDbLayerTableRecord
  2
0
 70
     0
 62
   106
  6
Continuous
370
     0
390
F
  0
ENDTAB
  0
TABLE
  2
STYLE
  5
3
330
0
100
AcDbSymbolTable
 70
     4
  0
STYLE
  5
11
330
3
100
AcDbSymbolTableRecord
100
AcDbTextStyleTableRecord
  2
Standard
 70
     0
 40
0.0
 41
1.0
 50
0.0
 71
     0
 42
2.5
  3
txt
  4

  0
STYLE
  5
6E
330
3
100
AcDbSymbolTableRecord
100
AcDbTextStyleTableRecord
  2
Default
 70
     0
 40
0.0
 41
1.0
 50
0.0
 71
     0
 42
2.5
  3

  4

1001
ACAD
1000
txt
1071
        0
  0
STYLE
  5
6F
330
3
100
AcDbSymbolTableRecord
100
AcDbTextStyleTableRecord
  2
ISO
 70
     0
 40
0.0
 41
1.0
 50
0.0
 71
     0
 42
2.5
  3

  4

1001
ACAD
1000
txt
1071
        0
  0
STYLE
  5
70
330
3
100
AcDbSymbolTableRecord
100
AcDbTextStyleTableRecord
  2
GIANLU
 70
     0
 40
0.0
 41
1.0
 50
0.0
 71
     0
 42
2.5
  3

  4

1001
ACAD
1000
Arial
1071
 33554432
  0
ENDTAB
  0
TABLE
  2
VIEW
  5
6
330
0
100
AcDbSymbolTable
 70
     0
  0
ENDTAB
  0
TABLE
  2
UCS
  5
7
330
0
100
AcDbSymbolTable
 70
     0
  0
ENDTAB
  0
TABLE
  2
APPID
  5
9
330
0
100
AcDbSymbolTable
 70
     2
  0
APPID
  5
12
330
9
100
AcDbSymbolTableRecord
100
AcDbRegAppTableRecord
  2
ACAD
 70
     0
  0
APPID
  5
27E
330
9
100
AcDbSymbolTableRecord
100
AcDbRegAppTableRecord
  2
ACAD_MLEADERVER
 70
     0
  0
ENDTAB
  0
TABLE
  2
DIMSTYLE
  5
A
330
0
100
AcDbSymbolTable
 70
     4
100
AcDbDimStyleTable
  0
DIMSTYLE
105
27
330
A
100
AcDbSymbolTableRecord
100
AcDbDimStyleTableRecord
  2
ISO-25
 70
     0
 41
2.5
 42
0.625
 43
3.75
 44
1.25
 73
     0
 74
     0
 77
     1
 78
     8
140
2.5
141
2.5
143
0.03937
147
0.625
171
     3
172
     1
178
     0
271
     2
272
     2
274
     3
278
    44
283
     0
284
     8
340
11
  0
DIMSTYLE
105
71
330
A
100
AcDbSymbolTableRecord
100
AcDbDimStyleTableRecord
  2
Default
 70
     0
  3
<>
 41
4.375
 42
1.05
 44
2.1
 73
     0
 74
     0
 77
     1
 78
     8
140
3.5
146
0.4
147
1.75
172
     1
271
     2
178
     3
271
     2
272
     3
284
     8
340
6E
341
72
342
72
  0
DIMSTYLE
105
79
330
A
100
AcDbSymbolTableRecord
100
AcDbDimStyleTableRecord
  2
ISO
 70
     0
  3
<>
 41
4.375
 42
1.05
 44
2.1
 73
     0
 74
     0
 77
     1
 78
     8
140
3.5
146
0.4
147
1.75
172
     1
271
     2
178
     3
271
     2
272
     3
284
     8
340
6F
341
72
342
72
  0
DIMSTYLE
105
7A
330
A
100
AcDbSymbolTableRecord
100
AcDbDimStyleTableRecord
  2
zucchetti_unico
 70
     0
  3
<>
 41
3.5
 42
1.05
 44
2.1
 73
     0
 74
     0
 77
     1
 78
     8
140
3.5
146
0.6
147
1.75
172
     1
176
     3
177
     3
271
     2
178
     3
271
     2
272
     2
284
     8
340
6E
  0
ENDTAB
  0
TABLE
  2
BLOCK_RECORD
  5
1
330
0
100
AcDbSymbolTable
 70
     6
  0
BLOCK_RECORD
  5
1F
330
1
100
AcDbSymbolTableRecord
100
AcDbBlockTableRecord
  2
*Model_Space
340
22
  0
BLOCK_RECORD
  5
1B
330
1
100
AcDbSymbolTableRecord
100
AcDbBlockTableRecord
  2
*Paper_Space
340
1E
  0
BLOCK_RECORD
  5
23
330
1
100
AcDbSymbolTableRecord
100
AcDbBlockTableRecord
  2
*Paper_Space0
340
26
  0
BLOCK_RECORD
  5
72
330
1
100
AcDbSymbolTableRecord
100
AcDbBlockTableRecord
  2
_Closed
340
0
  0
BLOCK_RECORD
  5
7B
330
1
100
AcDbSymbolTableRecord
100
AcDbBlockTableRecord
  2
a
340
0
102
{BLKREFS
331
DE
102
}
  0
BLOCK_RECORD
  5
DF
330
1
100
AcDbSymbolTableRecord
100
AcDbBlockTableRecord
  2
b
340
0
102
{BLKREFS
331
116
102
}
  0
BLOCK_RECORD
  5
117
330
1
100
AcDbSymbolTableRecord
100
AcDbBlockTableRecord
  2
c
340
0
102
{BLKREFS
331
1A7
102
}
  0
BLOCK_RECORD
  5
1A8
330
1
100
AcDbSymbolTableRecord
100
AcDbBlockTableRecord
  2
d
340
0
102
{BLKREFS
331
238
102
}
  0
ENDTAB
  0
ENDSEC
  0
SECTION
  2
BLOCKS
  0
BLOCK
  5
20
330
1F
100
AcDbEntity
  8
0
100
AcDbBlockBegin
  2
*Model_Space
 70
     0
 10
0.0
 20
0.0
 30
0.0
  3
*Model_Space
  1

  0
ENDBLK
  5
21
330
1F
100
AcDbEntity
  8
0
100
AcDbBlockEnd
  0
BLOCK
  5
1C
330
1B
100
AcDbEntity
 67
     1
  8
0
100
AcDbBlockBegin
  2
*Paper_Space
 70
     0
 10
0.0
 20
0.0
 30
0.0
  3
*Paper_Space
  1

  0
ENDBLK
  5
1D
330
1B
100
AcDbEntity
 67
     1
  8
0
100
AcDbBlockEnd
  0
BLOCK
  5
24
330
23
100
AcDbEntity
  8
0
100
AcDbBlockBegin
  2
*Paper_Space0
 70
     0
 10
0.0
 20
0.0
 30
0.0
  3
*Paper_Space0
  1

  0
ENDBLK
  5
25
330
23
100
AcDbEntity
  8
0
100
AcDbBlockEnd
  0
BLOCK
  5
73
330
72
100
AcDbEntity
  8
0
100
AcDbBlockBegin
  2
_Closed
 70
     0
 10
0.0
 20
0.0
 30
0.0
  3
_Closed
  1

  0
LINE
  5
75
330
72
100
AcDbEntity
  8
0
  6
ByBlock
 62
     0
370
    -2
100
AcDbLine
 10
-1.0
 20
0.166667
 30
0.0
 11
0.0
 21
0.0
 31
0.0
  0
LINE
  5
76
330
72
100
AcDbEntity
  8
0
  6
ByBlock
 62
     0
370
    -2
100
AcDbLine
 10
0.0
 20
0.0
 30
0.0
 11
-1.0
 21
-0.166667
 31
0.0
  0
LINE
  5
77
330
72
100
AcDbEntity
  8
0
  6
ByBlock
 62
     0
370
    -2
100
AcDbLine
 10
-1.0
 20
0.166667
 30
0.0
 11
-1.0
 21
-0.166667
 31
0.0
  0
LINE
  5
78
330
72
100
AcDbEntity
  8
0
  6
ByBlock
 62
     0
370
    -2
100
AcDbLine
 10
0.0
 20
0.0
 30
0.0
 11
-1.0
 21
0.0
 31
0.0
  0
ENDBLK
  5
74
330
72
100
AcDbEntity
  8
0
100
AcDbBlockEnd
  0
BLOCK
  5
DC
330
7B
100
AcDbEntity
  8
0
100
AcDbBlockBegin
  2
a
 70
     0
 10
14.163387
 20
94.761726
 30
0.0
  3
a
  1

  0
ARC
  5
7C
330
7B
100
AcDbEntity
  8
0
  6
Continuous
 62
     0
370
    30
100
AcDbCircle
 10
97.343129
 20
735.16835
 30
0.0
 40
27.50000013113517
100
AcDbArc
 50
69.168008
 51
82.687973
  0
ARC
  5
7D
330
7B
100
AcDbEntity
  8
0
  6
Continuous
 62
     0
370
    30
100
AcDbCircle
 10
97.343129
 20
735.16835
 30
0.0
 40
27.50000013113434
100
AcDbArc
 50
97.312017
 51
172.687981
  0
ARC
  5
7E
330
7B
100
AcDbEntity
  8
0
  6
Continuous
 62
     0
370
    30
100
AcDbCircle
 10
97.343129
 20
735.16835
 30
0.0
 40
27.50000013113431
100
AcDbArc
 50
187.312025
 51
249.168008
  0
ARC
  5
7F
330
7B
100
AcDbEntity
  8
0
  6
Continuous
 62
     0
370
    30
100
AcDbCircle
 10
97.343129
 20
735.16835
 30
0.0
 40
27.50000013113532
100
AcDbArc
 50
249.168008
 51
262.688033
  0
ARC
  5
80
330
7B
100
AcDbEntity
  8
0
  6
Continuous
 62
     0
370
    30
100
AcDbCircle
 10
97.343129
 20
735.16835
 30
0.0
 40
27.50000013113441
100
AcDbArc
 50
277.312077
 51
352.687972
  0
ARC
  5
81
330
7B
100
AcDbEntity
  8
0
  6
Continuous
 62
     0
370
    30
100
AcDbCircle
 10
97.343129
 20
735.16835
 30
0.0
 40
27.50000013113441
100
AcDbArc
 50
7.312016
 51
69.168008
  0
ARC
  5
82
330
7B
100
AcDbEntity
  8
0
  6
Continuous
 62
     0
370
    30
100
AcDbCircle
 10
97.342439
 20
735.167734
 30
0.0
 40
16.00074043880407
100
AcDbArc
 50
12.637283
 51
77.36243
  0
ARC
  5
83
330
7B
100
AcDbEntity
  8
0
  6
Continuous
 62
     0
370
    30
100
AcDbCircle
 10
97.342439
 20
735.168961
 30
0.0
 40
16.00074045549722
100
AcDbArc
 50
282.637657
 51
347.362717
  0
ARC
  5
84
330
7B
100
AcDbEntity
  8
0
  6
Continuous
 62
     0
370
    30
100
AcDbCircle
 10
97.343818
 20
735.168961
 30
0.0
 40
16.00074041751738
100
AcDbArc
 50
192.637278
 51
257.362535
  0
ARC
  5
85
330
7B
100
AcDbEntity
  8
0
  6
Continuous
 62
     0
370
    30
100
AcDbCircle
 10
97.343818
 20
735.167734
 30
0.0
 40
16.00074043647989
100
AcDbArc
 50
102.637552
 51
167.362712
  0
ARC
  5
86
330
7B
100
AcDbEntity
  8
0
  6
Continuous
 62
     0
370
    30
100
AcDbCircle
 10
97.343128
 20
735.168349
 30
0.0
 40
11.0
100
AcDbArc
 50
270.0
 51
90.0
  0
ARC
  5
87
330
7B
100
AcDbEntity
  8
0
  6
Continuous
 62
     0
370
    30
100
AcDbCircle
 10
97.343128
 20
735.168349
 30
0.0
 40
11.0
100
AcDbArc
 50
90.0
 51
270.0
  0
LWPOLYLINE
  5
88
330
7B
100
AcDbEntity
  8
0
  6
Continuous
 62
     0
370
    30
100
AcDbPolyline
 90
        3
 70
     0
 43
0.0
 10
100.84314
 20
700.068359
 10
100.839645
 20
700.068359
 10
100.776115
 20
700.068359
  0
LINE
  5
89
330
7B
100
AcDbEntity
  8
0
  6
Continuous
 62
     0
370
    30
100
AcDbLine
 10
100.776118
 20
700.068345
 30
0.0
 11
93.843169
 21
700.068345
 31
0.0
  0
LWPOLYLINE
  5
8A
330
7B
100
AcDbEntity
  8
0
  6
Continuous
 62
     0
370
    30
100
AcDbPolyline
 90
        5
 70
     0
 43
0.0
 10
132.44313
 20
738.668335
 10
132.44313
 20
738.637634
 10
132.44313
 20
738.546082
 10
132.44313
 20
738.394958
 10
132.44313
 20
738.153625
  0
LINE
  5
8B
330
7B
100
AcDbEntity
  8
0
  6
Continuous
 62
     0
370
    30
100
AcDbLine
 10
132.443125
 20
738.153596
 30
0.0
 11
132.443125
 21
731.668352
 31
0.0
  0
LWPOLYLINE
  5
8C
330
7B
100
AcDbEntity
  8
0
  6
Continuous
 62
     0
370
    30
100
AcDbPolyline
 90
        9
 70
     0
 43
0.0
 10
62.243092
 20
731.668396
 10
62.243092
 20
731.703796
 10
62.243092
 20
731.809753
 10
62.243092
 20
731.983948
 10
62.243092
 20
732.222839
 10
62.243092
 20
732.521729
 10
62.243092
 20
732.874268
 10
62.243092
 20
733.27356
 10
62.243092
 20
733.739502
  0
LINE
  5
8D
330
7B
100
AcDbEntity
  8
0
  6
Continuous
 62
     0
370
    30
100
AcDbLine
 10
62.24309
 20
733.739486
 30
0.0
 11
62.24309
 21
738.668324
 31
0.0
  0
LINE
  5
8E
330
7B
100
AcDbEntity
  8
0
  6
Continuous
 62
     0
370
    30
100
AcDbLine
 10
93.843122
 20
770.26838
 30
0.0
 11
95.47179
 21
770.26838
 31
0.0
  0
LINE
  5
8F
330
7B
100
AcDbEntity
  8
0
  6
Continuous
 62
     0
370
    30
100
AcDbLine
 10
95.47179
 20
770.26838
 30
0.0
 11
100.843139
 21
770.26838
 31
0.0
  0
LINE
  5
90
330
7B
100
AcDbEntity
  8
0
  6
Continuous
 62
     0
370
    30
100
AcDbLine
 10
93.843131
 20
770.26838
 30
0.0
 11
93.843131
 21
745.596675
 31
0.0
  0
LINE
  5
91
330
7B
100
AcDbEntity
  8
0
  6
Continuous
 62
     0
370
    30
100
AcDbLine
 10
100.843131
 20
745.59674
 30
0.0
 11
100.843131
 21
770.26838
 31
0.0
  0
LINE
  5
92
330
7B
100
AcDbEntity
  8
0
  6
Continuous
 62
     0
370
    30
100
AcDbLine
 10
62.24309
 20
731.668349
 30
0.0
 11
86.91477
 21
731.668349
 31
0.0
  0
LINE
  5
93
330
7B
100
AcDbEntity
  8
0
  6
Continuous
 62
     0
370
    30
100
AcDbLine
 10
86.914805
 20
738.668349
 30
0.0
 11
62.24309
 21
738.668349
 31
0.0
  0
LINE
  5
94
330
7B
100
AcDbEntity
  8
0
  6
Continuous
 62
     0
370
    30
100
AcDbLine
 10
132.443125
 20
738.668347
 30
0.0
 11
107.771501
 21
738.668347
 31
0.0
  0
LINE
  5
95
330
7B
100
AcDbEntity
  8
0
  6
Continuous
 62
     0
370
    30
100
AcDbLine
 10
107.771485
 20
731.668347
 30
0.0
 11
132.443125
 21
731.668347
 31
0.0
  0
LINE
  5
96
330
7B
100
AcDbEntity
  8
0
  6
Continuous
 62
     0
370
    30
100
AcDbLine
 10
100.843155
 20
700.068345
 30
0.0
 11
100.843155
 21
724.740028
 31
0.0
  0
LINE
  5
97
330
7B
100
AcDbEntity
  8
0
  6
Continuous
 62
     0
370
    30
100
AcDbLine
 10
93.843155
 20
724.740008
 30
0.0
 11
93.843155
 21
700.068345
 31
0.0
  0
ARC
  5
98
330
7B
100
AcDbEntity
  8
0
  6
Continuous
 62
     0
370
    30
100
AcDbCircle
 10
97.344372
 20
615.169823
 30
0.0
 40
54.99999999999958
100
AcDbArc
 50
90.0
 51
270.0
  0
ARC
  5
99
330
7B
100
AcDbEntity
  8
0
  6
Continuous
 62
     0
370
    30
100
AcDbCircle
 10
97.344372
 20
615.169823
 30
0.0
 40
54.99999999999959
100
AcDbArc
 50
270.0
 51
90.0
  0
ARC
  5
9A
330
7B
100
AcDbEntity
  8
0
  6
Continuous
 62
     0
370
    30
100
AcDbCircle
 10
97.344072
 20
615.169823
 30
0.0
 40
22.00000922099402
100
AcDbArc
 50
89.99922
 51
270.00078
  0
ARC
  5
9B
330
7B
100
AcDbEntity
  8
0
  6
Continuous
 62
     0
370
    30
100
AcDbCircle
 10
97.344671
 20
615.169823
 30
0.0
 40
22.00000922099402
100
AcDbArc
 50
269.99922
 51
90.00078
  0
LINE
  5
9C
330
7B
100
AcDbEntity
  8
0
  6
Continuous
 62
     0
370
    30
100
AcDbLine
 10
97.344372
 20
644.819832
 30
0.0
 11
93.844372
 21
644.819832
 31
0.0
  0
LINE
  5
9D
330
7B
100
AcDbEntity
  8
0
  6
Continuous
 62
     0
370
    30
100
AcDbLine
 10
100.844372
 20
644.819832
 30
0.0
 11
97.344372
 21
644.819832
 31
0.0
  0
LINE
  5
9E
330
7B
100
AcDbEntity
  8
0
  6
Continuous
 62
     0
370
    30
100
AcDbLine
 10
97.344372
 20
645.019832
 30
0.0
 11
94.046145
 21
645.017768
 31
0.0
  0
LINE
  5
9F
330
7B
100
AcDbEntity
  8
0
  6
Continuous
 62
     0
370
    30
100
AcDbLine
 10
100.642598
 20
645.017768
 30
0.0
 11
97.344372
 21
645.019832
 31
0.0
  0
LINE
  5
A0
330
7B
100
AcDbEntity
  8
0
  6
Continuous
 62
     0
370
    30
100
AcDbLine
 10
100.844371
 20
644.819852
 30
0.0
 11
100.644565
 21
645.019657
 31
0.0
  0
LINE
  5
A1
330
7B
100
AcDbEntity
  8
0
  6
Continuous
 62
     0
370
    30
100
AcDbLine
 10
93.844373
 20
644.819852
 30
0.0
 11
94.044179
 21
645.019657
 31
0.0
  0
LINE
  5
A2
330
7B
100
AcDbEntity
  8
0
  6
Continuous
 62
     0
370
    30
100
AcDbLine
 10
93.844372
 20
644.819832
 30
0.0
 11
93.844372
 21
636.889663
 31
0.0
  0
LINE
  5
A3
330
7B
100
AcDbEntity
  8
0
  6
Continuous
 62
     0
370
    30
100
AcDbLine
 10
100.844372
 20
644.819832
 30
0.0
 11
100.844372
 21
636.889662
 31
0.0
  0
ARC
  5
A4
330
7B
100
AcDbEntity
  8
0
  6
Continuous
 62
     0
370
    30
100
AcDbCircle
 10
97.342638
 20
835.167913
 30
0.0
 40
27.50000013113128
100
AcDbArc
 50
69.168008
 51
82.687973
  0
ARC
  5
A5
330
7B
100
AcDbEntity
  8
0
  6
Continuous
 62
     0
370
    30
100
AcDbCircle
 10
97.342638
 20
835.167913
 30
0.0
 40
27.50000013113416
100
AcDbArc
 50
97.312017
 51
172.687981
  0
ARC
  5
A6
330
7B
100
AcDbEntity
  8
0
  6
Continuous
 62
     0
370
    30
100
AcDbCircle
 10
97.342638
 20
835.167913
 30
0.0
 40
27.50000013113438
100
AcDbArc
 50
187.312025
 51
249.168008
  0
ARC
  5
A7
330
7B
100
AcDbEntity
  8
0
  6
Continuous
 62
     0
370
    30
100
AcDbCircle
 10
97.342638
 20
835.167913
 30
0.0
 40
27.50000013113226
100
AcDbArc
 50
249.168008
 51
262.688033
  0
ARC
  5
A8
330
7B
100
AcDbEntity
  8
0
  6
Continuous
 62
     0
370
    30
100
AcDbCircle
 10
97.342638
 20
835.167913
 30
0.0
 40
27.50000013113411
100
AcDbArc
 50
277.312077
 51
352.687972
  0
ARC
  5
A9
330
7B
100
AcDbEntity
  8
0
  6
Continuous
 62
     0
370
    30
100
AcDbCircle
 10
97.342638
 20
835.167913
 30
0.0
 40
27.50000013113408
100
AcDbArc
 50
7.312016
 51
69.168008
  0
ARC
  5
AA
330
7B
100
AcDbEntity
  8
0
  6
Continuous
 62
     0
370
    30
100
AcDbCircle
 10
97.341948
 20
835.167296
 30
0.0
 40
16.00074043880358
100
AcDbArc
 50
12.637283
 51
77.36243
  0
ARC
  5
AB
330
7B
100
AcDbEntity
  8
0
  6
Continuous
 62
     0
370
    30
100
AcDbCircle
 10
97.341948
 20
835.168524
 30
0.0
 40
16.00074045549702
100
AcDbArc
 50
282.637657
 51
347.362717
  0
ARC
  5
AC
330
7B
100
AcDbEntity
  8
0
  6
Continuous
 62
     0
370
    30
100
AcDbCircle
 10
97.343327
 20
835.168524
 30
0.0
 40
16.00074041751663
100
AcDbArc
 50
192.637278
 51
257.362535
  0
ARC
  5
AD
330
7B
100
AcDbEntity
  8
0
  6
Continuous
 62
     0
370
    30
100
AcDbCircle
 10
97.343327
 20
835.167296
 30
0.0
 40
16.0007404364791
100
AcDbArc
 50
102.637552
 51
167.362712
  0
ARC
  5
AE
330
7B
100
AcDbEntity
  8
0
  6
Continuous
 62
     0
370
    30
100
AcDbCircle
 10
97.342638
 20
835.167912
 30
0.0
 40
11.0
100
AcDbArc
 50
270.0
 51
90.0
  0
ARC
  5
AF
330
7B
100
AcDbEntity
  8
0
  6
Continuous
 62
     0
370
    30
100
AcDbCircle
 10
97.342638
 20
835.167912
 30
0.0
 40
11.0
100
AcDbArc
 50
90.0
 51
270.0
  0
LWPOLYLINE
  5
B0
330
7B
100
AcDbEntity
  8
0
  6
Continuous
 62
     0
370
    30
100
AcDbPolyline
 90
        3
 70
     0
 43
0.0
 10
100.842651
 20
800.067932
 10
100.839157
 20
800.067932
 10
100.775627
 20
800.067932
  0
LINE
  5
B1
330
7B
100
AcDbEntity
  8
0
  6
Continuous
 62
     0
370
    30
100
AcDbLine
 10
100.775628
 20
800.067908
 30
0.0
 11
93.842679
 21
800.067908
 31
0.0
  0
LWPOLYLINE
  5
B2
330
7B
100
AcDbEntity
  8
0
  6
Continuous
 62
     0
370
    30
100
AcDbPolyline
 90
        5
 70
     0
 43
0.0
 10
132.442627
 20
838.667908
 10
132.442627
 20
838.637207
 10
132.442627
 20
838.545654
 10
132.442627
 20
838.394531
 10
132.442627
 20
838.153137
  0
LINE
  5
B3
330
7B
100
AcDbEntity
  8
0
  6
Continuous
 62
     0
370
    30
100
AcDbLine
 10
132.442634
 20
838.153158
 30
0.0
 11
132.442634
 21
831.667915
 31
0.0
  0
LWPOLYLINE
  5
B4
330
7B
100
AcDbEntity
  8
0
  6
Continuous
 62
     0
370
    30
100
AcDbPolyline
 90
        9
 70
     0
 43
0.0
 10
62.242599
 20
831.667908
 10
62.242599
 20
831.703369
 10
62.242599
 20
831.809326
 10
62.242599
 20
831.983521
 10
62.242599
 20
832.222412
 10
62.242599
 20
832.52124
 10
62.242599
 20
832.87384
 10
62.242599
 20
833.273132
 10
62.242599
 20
833.739075
  0
LINE
  5
B5
330
7B
100
AcDbEntity
  8
0
  6
Continuous
 62
     0
370
    30
100
AcDbLine
 10
62.2426
 20
833.739049
 30
0.0
 11
62.2426
 21
838.667887
 31
0.0
  0
LINE
  5
B6
330
7B
100
AcDbEntity
  8
0
  6
Continuous
 62
     0
370
    30
100
AcDbLine
 10
93.842632
 20
870.267943
 30
0.0
 11
95.4713
 21
870.267943
 31
0.0
  0
LINE
  5
B7
330
7B
100
AcDbEntity
  8
0
  6
Continuous
 62
     0
370
    30
100
AcDbLine
 10
95.4713
 20
870.267943
 30
0.0
 11
100.842649
 21
870.267943
 31
0.0
  0
LINE
  5
B8
330
7B
100
AcDbEntity
  8
0
  6
Continuous
 62
     0
370
    30
100
AcDbLine
 10
93.84264
 20
870.267943
 30
0.0
 11
93.84264
 21
845.596238
 31
0.0
  0
LINE
  5
B9
330
7B
100
AcDbEntity
  8
0
  6
Continuous
 62
     0
370
    30
100
AcDbLine
 10
100.84264
 20
845.596303
 30
0.0
 11
100.84264
 21
870.267943
 31
0.0
  0
LINE
  5
BA
330
7B
100
AcDbEntity
  8
0
  6
Continuous
 62
     0
370
    30
100
AcDbLine
 10
62.2426
 20
831.667912
 30
0.0
 11
86.914279
 21
831.667912
 31
0.0
  0
LINE
  5
BB
330
7B
100
AcDbEntity
  8
0
  6
Continuous
 62
     0
370
    30
100
AcDbLine
 10
86.914314
 20
838.667912
 30
0.0
 11
62.2426
 21
838.667912
 31
0.0
  0
LINE
  5
BC
330
7B
100
AcDbEntity
  8
0
  6
Continuous
 62
     0
370
    30
100
AcDbLine
 10
132.442634
 20
838.66791
 30
0.0
 11
107.771011
 21
838.66791
 31
0.0
  0
LINE
  5
BD
330
7B
100
AcDbEntity
  8
0
  6
Continuous
 62
     0
370
    30
100
AcDbLine
 10
107.770994
 20
831.66791
 30
0.0
 11
132.442634
 21
831.66791
 31
0.0
  0
LINE
  5
BE
330
7B
100
AcDbEntity
  8
0
  6
Continuous
 62
     0
370
    30
100
AcDbLine
 10
100.842664
 20
800.067908
 30
0.0
 11
100.842664
 21
824.739591
 31
0.0
  0
LINE
  5
BF
330
7B
100
AcDbEntity
  8
0
  6
Continuous
 62
     0
370
    30
100
AcDbLine
 10
93.842664
 20
824.739571
 30
0.0
 11
93.842664
 21
800.067908
 31
0.0
  0
ARC
  5
C0
330
7B
100
AcDbEntity
  8
0
  6
Continuous
 62
     0
370
    30
100
AcDbCircle
 10
97.342148
 20
935.167045
 30
0.0
 40
27.50000013111848
100
AcDbArc
 50
69.168008
 51
82.687973
  0
ARC
  5
C1
330
7B
100
AcDbEntity
  8
0
  6
Continuous
 62
     0
370
    30
100
AcDbCircle
 10
97.342148
 20
935.167045
 30
0.0
 40
27.50000013113493
100
AcDbArc
 50
97.312017
 51
172.687981
  0
ARC
  5
C2
330
7B
100
AcDbEntity
  8
0
  6
Continuous
 62
     0
370
    30
100
AcDbCircle
 10
97.342148
 20
935.167045
 30
0.0
 40
27.50000013113488
100
AcDbArc
 50
187.312025
 51
249.168008
  0
ARC
  5
C3
330
7B
100
AcDbEntity
  8
0
  6
Continuous
 62
     0
370
    30
100
AcDbCircle
 10
97.342148
 20
935.167045
 30
0.0
 40
27.50000013113315
100
AcDbArc
 50
249.168008
 51
262.688033
  0
ARC
  5
C4
330
7B
100
AcDbEntity
  8
0
  6
Continuous
 62
     0
370
    30
100
AcDbCircle
 10
97.342148
 20
935.167045
 30
0.0
 40
27.5000001311348
100
AcDbArc
 50
277.312077
 51
352.687972
  0
ARC
  5
C5
330
7B
100
AcDbEntity
  8
0
  6
Continuous
 62
     0
370
    30
100
AcDbCircle
 10
97.342148
 20
935.167045
 30
0.0
 40
27.50000013113418
100
AcDbArc
 50
7.312016
 51
69.168008
  0
ARC
  5
C6
330
7B
100
AcDbEntity
  8
0
  6
Continuous
 62
     0
370
    30
100
AcDbCircle
 10
97.341458
 20
935.166428
 30
0.0
 40
16.00074043880149
100
AcDbArc
 50
12.637283
 51
77.36243
  0
ARC
  5
C7
330
7B
100
AcDbEntity
  8
0
  6
Continuous
 62
     0
370
    30
100
AcDbCircle
 10
97.341458
 20
935.167656
 30
0.0
 40
16.00074045549749
100
AcDbArc
 50
282.637657
 51
347.362717
  0
ARC
  5
C8
330
7B
100
AcDbEntity
  8
0
  6
Continuous
 62
     0
370
    30
100
AcDbCircle
 10
97.342837
 20
935.167656
 30
0.0
 40
16.00074041751613
100
AcDbArc
 50
192.637278
 51
257.362535
  0
ARC
  5
C9
330
7B
100
AcDbEntity
  8
0
  6
Continuous
 62
     0
370
    30
100
AcDbCircle
 10
97.342837
 20
935.166428
 30
0.0
 40
16.00074043648001
100
AcDbArc
 50
102.637552
 51
167.362712
  0
ARC
  5
CA
330
7B
100
AcDbEntity
  8
0
  6
Continuous
 62
     0
370
    30
100
AcDbCircle
 10
97.342147
 20
935.167044
 30
0.0
 40
11.0
100
AcDbArc
 50
270.0
 51
90.0
  0
ARC
  5
CB
330
7B
100
AcDbEntity
  8
0
  6
Continuous
 62
     0
370
    30
100
AcDbCircle
 10
97.342147
 20
935.167044
 30
0.0
 40
11.0
100
AcDbArc
 50
90.0
 51
270.0
  0
LWPOLYLINE
  5
CC
330
7B
100
AcDbEntity
  8
0
  6
Continuous
 62
     0
370
    30
100
AcDbPolyline
 90
        3
 70
     0
 43
0.0
 10
100.842155
 20
900.067017
 10
100.838669
 20
900.067017
 10
100.775139
 20
900.067017
  0
LINE
  5
CD
330
7B
100
AcDbEntity
  8
0
  6
Continuous
 62
     0
370
    30
100
AcDbLine
 10
100.775137
 20
900.06704
 30
0.0
 11
93.842189
 21
900.06704
 31
0.0
  0
LWPOLYLINE
  5
CE
330
7B
100
AcDbEntity
  8
0
  6
Continuous
 62
     0
370
    30
100
AcDbPolyline
 90
        5
 70
     0
 43
0.0
 10
132.442139
 20
938.667053
 10
132.442139
 20
938.636353
 10
132.442139
 20
938.544739
 10
132.442139
 20
938.393616
 10
132.442139
 20
938.152283
  0
LINE
  5
CF
330
7B
100
AcDbEntity
  8
0
  6
Continuous
 62
     0
370
    30
100
AcDbLine
 10
132.442144
 20
938.15229
 30
0.0
 11
132.442144
 21
931.667047
 31
0.0
  0
LWPOLYLINE
  5
D0
330
7B
100
AcDbEntity
  8
0
  6
Continuous
 62
     0
370
    30
100
AcDbPolyline
 90
        9
 70
     0
 43
0.0
 10
62.242107
 20
931.667053
 10
62.242107
 20
931.702515
 10
62.242107
 20
931.808411
 10
62.242107
 20
931.982666
 10
62.242107
 20
932.221558
 10
62.242107
 20
932.520386
 10
62.242107
 20
932.872925
 10
62.242107
 20
933.272217
 10
62.242107
 20
933.738159
  0
LINE
  5
D1
330
7B
100
AcDbEntity
  8
0
  6
Continuous
 62
     0
370
    30
100
AcDbLine
 10
62.242109
 20
933.738181
 30
0.0
 11
62.242109
 21
938.667019
 31
0.0
  0
LINE
  5
D2
330
7B
100
AcDbEntity
  8
0
  6
Continuous
 62
     0
370
    30
100
AcDbLine
 10
93.842142
 20
970.267075
 30
0.0
 11
95.47081
 21
970.267075
 31
0.0
  0
LINE
  5
D3
330
7B
100
AcDbEntity
  8
0
  6
Continuous
 62
     0
370
    30
100
AcDbLine
 10
95.47081
 20
970.267075
 30
0.0
 11
100.842158
 21
970.267075
 31
0.0
  0
LINE
  5
D4
330
7B
100
AcDbEntity
  8
0
  6
Continuous
 62
     0
370
    30
100
AcDbLine
 10
93.84215
 20
970.267075
 30
0.0
 11
93.84215
 21
945.59537
 31
0.0
  0
LINE
  5
D5
330
7B
100
AcDbEntity
  8
0
  6
Continuous
 62
     0
370
    30
100
AcDbLine
 10
100.84215
 20
945.595435
 30
0.0
 11
100.84215
 21
970.267075
 31
0.0
  0
LINE
  5
D6
330
7B
100
AcDbEntity
  8
0
  6
Continuous
 62
     0
370
    30
100
AcDbLine
 10
62.242109
 20
931.667044
 30
0.0
 11
86.913789
 21
931.667044
 31
0.0
  0
LINE
  5
D7
330
7B
100
AcDbEntity
  8
0
  6
Continuous
 62
     0
370
    30
100
AcDbLine
 10
86.913824
 20
938.667044
 30
0.0
 11
62.242109
 21
938.667044
 31
0.0
  0
LINE
  5
D8
330
7B
100
AcDbEntity
  8
0
  6
Continuous
 62
     0
370
    30
100
AcDbLine
 10
132.442144
 20
938.667042
 30
0.0
 11
107.770521
 21
938.667042
 31
0.0
  0
LINE
  5
D9
330
7B
100
AcDbEntity
  8
0
  6
Continuous
 62
     0
370
    30
100
AcDbLine
 10
107.770504
 20
931.667042
 30
0.0
 11
132.442144
 21
931.667042
 31
0.0
  0
LINE
  5
DA
330
7B
100
AcDbEntity
  8
0
  6
Continuous
 62
     0
370
    30
100
AcDbLine
 10
100.842174
 20
900.06704
 30
0.0
 11
100.842174
 21
924.738723
 31
0.0
  0
LINE
  5
DB
330
7B
100
AcDbEntity
  8
0
  6
Continuous
 62
     0
370
    30
100
AcDbLine
 10
93.842174
 20
924.738703
 30
0.0
 11
93.842174
 21
900.06704
 31
0.0
  0
ENDBLK
  5
DD
330
7B
100
AcDbEntity
  8
0
100
AcDbBlockEnd
  0
BLOCK
  5
114
330
DF
100
AcDbEntity
  8
0
100
AcDbBlockBegin
  2
b
 70
     0
 10
14.163387
 20
354.288826
 30
0.0
  3
b
  1

  0
LINE
  5
E0
330
DF
100
AcDbEntity
  8
0
  6
Continuous
 62
     0
370
    30
100
AcDbLine
 10
42.343623
 20
406.680641
 30
0.0
 11
69.842148
 21
406.680639
 31
0.0
  0
LINE
  5
E1
330
DF
100
AcDbEntity
  8
0
  6
Continuous
 62
     0
370
    30
100
AcDbLine
 10
124.842148
 20
406.680639
 30
0.0
 11
152.34512
 21
406.680641
 31
0.0
  0
LINE
  5
E2
330
DF
100
AcDbEntity
  8
0
  6
Continuous
 62
     0
370
    30
100
AcDbLine
 10
42.344372
 20
402.680641
 30
0.0
 11
69.842148
 21
402.680639
 31
0.0
  0
LINE
  5
E3
330
DF
100
AcDbEntity
  8
0
  6
Continuous
 62
     0
370
    30
100
AcDbLine
 10
124.842148
 20
402.680639
 30
0.0
 11
152.344372
 21
402.680641
 31
0.0
  0
LINE
  5
E4
330
DF
100
AcDbEntity
  8
0
  6
Continuous
 62
     0
370
    30
100
AcDbLine
 10
81.342147
 20
400.48064
 30
0.0
 11
75.344363
 21
400.48064
 31
0.0
  0
LINE
  5
E5
330
DF
100
AcDbEntity
  8
0
  6
Continuous
 62
     0
370
    30
100
AcDbLine
 10
119.344381
 20
400.48064
 30
0.0
 11
113.342147
 21
400.48064
 31
0.0
  0
LINE
  5
E6
330
DF
100
AcDbEntity
  8
0
  6
Continuous
 62
     0
370
    30
100
AcDbLine
 10
119.344381
 20
351.280541
 30
0.0
 11
119.344381
 21
400.48064
 31
0.0
  0
LINE
  5
E7
330
DF
100
AcDbEntity
  8
0
  6
Continuous
 62
     0
370
    30
100
AcDbLine
 10
75.344363
 20
351.280541
 30
0.0
 11
75.344363
 21
400.48064
 31
0.0
  0
LINE
  5
E8
330
DF
100
AcDbEntity
  8
0
  6
Continuous
 62
     0
370
    30
100
AcDbLine
 10
117.244372
 20
402.680641
 30
0.0
 11
117.244372
 21
400.48064
 31
0.0
  0
LINE
  5
E9
330
DF
100
AcDbEntity
  8
0
  6
Continuous
 62
     0
370
    30
100
AcDbLine
 10
77.444372
 20
400.48064
 30
0.0
 11
77.444372
 21
402.680641
 31
0.0
  0
LINE
  5
EA
330
DF
100
AcDbEntity
  8
0
  6
Continuous
 62
     0
370
    30
100
AcDbLine
 10
42.344372
 20
406.680641
 30
0.0
 11
42.344372
 21
402.680641
 31
0.0
  0
LINE
  5
EB
330
DF
100
AcDbEntity
  8
0
  6
Continuous
 62
     0
370
    30
100
AcDbLine
 10
152.344372
 20
402.680641
 30
0.0
 11
152.344372
 21
406.680641
 31
0.0
  0
LWPOLYLINE
  5
EC
330
DF
100
AcDbEntity
  8
0
  6
Continuous
 62
     0
370
    30
100
AcDbPolyline
 90
       37
 70
     0
 43
0.0
 10
69.842148
 20
402.680511
 10
69.882668
 20
402.680511
 10
70.002007
 20
402.680511
 10
70.196449
 20
402.680511
 10
70.461823
 20
402.680511
 10
70.793571
 20
402.680511
 10
71.186913
 20
402.680511
 10
71.636841
 20
402.680511
 10
72.148972
 20
402.680511
 10
72.733879
 20
402.680511
 10
73.393143
 20
402.680511
 10
74.127823
 20
402.680511
 10
74.938354
 20
402.680511
 10
75.824493
 20
402.680511
 10
76.785286
 20
402.680511
 10
77.819008
 20
402.680511
 10
78.923172
 20
402.680511
 10
80.094498
 20
402.680511
 10
81.328934
 20
402.680511
 10
82.621704
 20
402.680511
 10
83.967339
 20
402.680511
 10
85.359795
 20
402.680511
 10
86.792465
 20
402.680511
 10
88.258362
 20
402.680511
 10
89.750183
 20
402.680511
 10
91.260452
 20
402.680511
 10
92.781624
 20
402.680511
 10
94.306229
 20
402.680511
 10
95.826958
 20
402.680511
 10
97.336823
 20
402.680511
 10
98.829178
 20
402.680511
 10
100.297859
 20
402.680511
 10
101.737236
 20
402.680511
 10
103.142227
 20
402.680511
 10
104.508385
 20
402.680511
 10
105.831863
 20
402.680511
 10
107.121941
 20
402.680511
  0
LINE
  5
ED
330
DF
100
AcDbEntity
  8
0
  6
Continuous
 62
     0
370
    30
100
AcDbLine
 10
107.121942
 20
402.680523
 30
0.0
 11
124.842148
 21
402.680525
 31
0.0
  0
LINE
  5
EE
330
DF
100
AcDbEntity
  8
0
  6
Continuous
 62
     0
370
    30
100
AcDbLine
 10
124.842148
 20
406.680525
 30
0.0
 11
107.121942
 21
406.680523
 31
0.0
  0
LINE
  5
EF
330
DF
100
AcDbEntity
  8
0
  6
Continuous
 62
     0
370
    30
100
AcDbLine
 10
107.121942
 20
406.680523
 30
0.0
 11
69.842148
 21
406.680525
 31
0.0
  0
LINE
  5
F0
330
DF
100
AcDbEntity
  8
0
  6
Continuous
 62
     0
370
    30
100
AcDbLine
 10
113.342365
 20
375.680525
 30
0.0
 11
97.342147
 21
375.680522
 31
0.0
  0
LINE
  5
F1
330
DF
100
AcDbEntity
  8
0
  6
Continuous
 62
     0
370
    30
100
AcDbLine
 10
97.342147
 20
375.680522
 30
0.0
 11
81.34193
 21
375.680525
 31
0.0
  0
LINE
  5
F2
330
DF
100
AcDbEntity
  8
0
  6
Continuous
 62
     0
370
    30
100
AcDbLine
 10
97.342147
 20
370.780523
 30
0.0
 11
108.342297
 21
370.780523
 31
0.0
  0
LINE
  5
F3
330
DF
100
AcDbEntity
  8
0
  6
Continuous
 62
     0
370
    30
100
AcDbLine
 10
86.341998
 20
370.780523
 30
0.0
 11
97.342147
 21
370.780523
 31
0.0
  0
LWPOLYLINE
  5
F4
330
DF
100
AcDbEntity
  8
0
  6
Continuous
 62
     0
370
     0
100
AcDbPolyline
 90
       23
 70
     0
 43
0.0
 10
97.342148
 20
344.180511
 10
96.827385
 20
344.216888
 10
96.322571
 20
344.329163
 10
95.840431
 20
344.509064
 10
95.391434
 20
344.753357
 10
94.984428
 20
345.059875
 10
94.624977
 20
345.42038
 10
94.318405
 20
345.826782
 10
94.0718
 20
346.27533
 10
93.890732
 20
346.757538
 10
93.779907
 20
347.26239
 10
93.742668
 20
347.778687
 10
93.779388
 20
348.295074
 10
93.889694
 20
348.800049
 10
94.070282
 20
349.28244
 10
94.31646
 20
349.731262
 10
94.622658
 20
350.137939
 10
94.981743
 20
350.49881
 10
95.38839
 20
350.805817
 10
95.837128
 20
351.050507
 10
96.319084
 20
351.230835
 10
96.823784
 20
351.343567
 10
97.342148
 20
351.380524
  0
LWPOLYLINE
  5
F5
330
DF
100
AcDbEntity
  8
0
  6
Continuous
 62
     0
370
     0
100
AcDbPolyline
 90
       23
 70
     0
 43
0.0
 10
97.342148
 20
351.380524
 10
97.856903
 20
351.344116
 10
98.361725
 20
351.231873
 10
98.84388
 20
351.052002
 10
99.292885
 20
350.807739
 10
99.699852
 20
350.50116
 10
100.05928
 20
350.140625
 10
100.365883
 20
349.734283
 10
100.612503
 20
349.285736
 10
100.793571
 20
348.803528
 10
100.904388
 20
348.298676
 10
100.941628
 20
347.782349
 10
100.904907
 20
347.265991
 10
100.794594
 20
346.761017
 10
100.614006
 20
346.278625
 10
100.367844
 20
345.829803
 10
100.061668
 20
345.423096
 10
99.702568
 20
345.062256
 10
99.295883
 20
344.75528
 10
98.847153
 20
344.510559
 10
98.365211
 20
344.3302
 10
97.860512
 20
344.217438
 10
97.342148
 20
344.180511
  0
LINE
  5
F6
330
DF
100
AcDbEntity
  8
0
  6
Continuous
 62
     0
370
    30
100
AcDbLine
 10
97.342147
 20
340.280523
 30
0.0
 11
108.342147
 21
340.280523
 31
0.0
  0
LINE
  5
F7
330
DF
100
AcDbEntity
  8
0
  6
Continuous
 62
     0
370
    30
100
AcDbLine
 10
86.342147
 20
340.280523
 30
0.0
 11
97.342147
 21
340.280523
 31
0.0
  0
LWPOLYLINE
  5
F8
330
DF
100
AcDbEntity
  8
0
  6
Continuous
 62
     0
370
     0
100
AcDbPolyline
 90
       24
 70
     0
 43
0.0
 10
86.342148
 20
351.380524
 10
86.353348
 20
351.347382
 10
86.38559
 20
351.244598
 10
86.436783
 20
351.079559
 10
86.503006
 20
350.855591
 10
86.579216
 20
350.574097
 10
86.660286
 20
350.241241
 10
86.740845
 20
349.865234
 10
86.814789
 20
349.449524
 10
86.876511
 20
348.999695
 10
86.921211
 20
348.525177
 10
86.944481
 20
348.035614
 10
86.944839
 20
347.540894
 10
86.922287
 20
347.051025
 10
86.878189
 20
346.575897
 10
86.816933
 20
346.125153
 10
86.743294
 20
345.708221
 10
86.662857
 20
345.330933
 10
86.581711
 20
344.996674
 10
86.505257
 20
344.71344
 10
86.438652
 20
344.487671
 10
86.386917
 20
344.32077
 10
86.35405
 20
344.215912
 10
86.342148
 20
344.180511
  0
LWPOLYLINE
  5
F9
330
DF
100
AcDbEntity
  8
0
  6
Continuous
 62
     0
370
     0
100
AcDbPolyline
 90
       24
 70
     0
 43
0.0
 10
108.342148
 20
344.180511
 10
108.330978
 20
344.213593
 10
108.298759
 20
344.316345
 10
108.247581
 20
344.481323
 10
108.181366
 20
344.705261
 10
108.105141
 20
344.986725
 10
108.024063
 20
345.31955
 10
107.943504
 20
345.695618
 10
107.869553
 20
346.11142
 10
107.8078
 20
346.561279
 10
107.763069
 20
347.035828
 10
107.739799
 20
347.525452
 10
107.739456
 20
348.020264
 10
107.762032
 20
348.510223
 10
107.806137
 20
348.985413
 10
107.867416
 20
349.436218
 10
107.941063
 20
349.853149
 10
108.02153
 20
350.230469
 10
108.102676
 20
350.564758
 10
108.179123
 20
350.847992
 10
108.245728
 20
351.07373
 10
108.297447
 20
351.24054
 10
108.330284
 20
351.345276
 10
108.342148
 20
351.380524
  0
LWPOLYLINE
  5
FA
330
DF
100
AcDbEntity
  8
0
  6
Continuous
 62
     0
370
    30
100
AcDbPolyline
 90
       20
 70
     0
 43
0.0
 10
86.342148
 20
344.280518
 10
86.353615
 20
344.316711
 10
86.387085
 20
344.424377
 10
86.439728
 20
344.600433
 10
86.507393
 20
344.84079
 10
86.584778
 20
345.140228
 10
86.665749
 20
345.492401
 10
86.743988
 20
345.890839
 10
86.813263
 20
346.328857
 10
86.867638
 20
346.798279
 10
86.90226
 20
347.289398
 10
86.913795
 20
347.791748
 10
86.901192
 20
348.293854
 10
86.865601
 20
348.784241
 10
86.810417
 20
349.25235
 10
86.740646
 20
349.688934
 10
86.662086
 20
350.085663
 10
86.581154
 20
350.435547
 10
86.504112
 20
350.7323
 10
86.435341
 20
350.975586
  0
LWPOLYLINE
  5
FB
330
DF
100
AcDbEntity
  8
0
  6
Continuous
 62
     0
370
    30
100
AcDbPolyline
 90
        4
 70
     0
 43
0.0
 10
86.435341
 20
350.975586
 10
86.385986
 20
351.140228
 10
86.354187
 20
351.242615
 10
86.342148
 20
351.280518
  0
LWPOLYLINE
  5
FC
330
DF
100
AcDbEntity
  8
0
  6
Continuous
 62
     0
370
    30
100
AcDbPolyline
 90
       23
 70
     0
 43
0.0
 10
108.34214
 20
351.280518
 10
108.330719
 20
351.244507
 10
108.297501
 20
351.137573
 10
108.245155
 20
350.962616
 10
108.177872
 20
350.723907
 10
108.100952
 20
350.426453
 10
108.020294
 20
350.076202
 10
107.942146
 20
349.680023
 10
107.872757
 20
349.24469
 10
107.818047
 20
348.777771
 10
107.782883
 20
348.288879
 10
107.7705
 20
347.788544
 10
107.782097
 20
347.287994
 10
107.816612
 20
346.798584
 10
107.870773
 20
346.330872
 10
107.93972
 20
345.894104
 10
108.017693
 20
345.496429
 10
108.098389
 20
345.144867
 10
108.175552
 20
344.845795
 10
108.243202
 20
344.605103
 10
108.296097
 20
344.42804
 10
108.330009
 20
344.318878
 10
108.342148
 20
344.280518
  0
LINE
  5
FD
330
DF
100
AcDbEntity
  8
0
  6
Continuous
 62
     0
370
    30
100
AcDbLine
 10
132.442144
 20
351.280522
 30
0.0
 11
132.442144
 21
345.953427
 31
0.0
  0
LINE
  5
FE
330
DF
100
AcDbEntity
  8
0
  6
Continuous
 62
     0
370
    30
100
AcDbLine
 10
132.442144
 20
345.953427
 30
0.0
 11
132.442144
 21
344.280532
 31
0.0
  0
LINE
  5
FF
330
DF
100
AcDbEntity
  8
0
  6
Continuous
 62
     0
370
    30
100
AcDbLine
 10
62.242109
 20
350.975578
 30
0.0
 11
62.242109
 21
351.280493
 31
0.0
  0
LWPOLYLINE
  5
100
330
DF
100
AcDbEntity
  8
0
  6
Continuous
 62
     0
370
    30
100
AcDbPolyline
 90
       19
 70
     0
 43
0.0
 10
62.242107
 20
344.280548
 10
62.242107
 20
344.320312
 10
62.242107
 20
344.439056
 10
62.242107
 20
344.633942
 10
62.242107
 20
344.900604
 10
62.242107
 20
345.23291
 10
62.242107
 20
345.623291
 10
62.242107
 20
346.062927
 10
62.242107
 20
346.541656
 10
62.242107
 20
347.048706
 10
62.242107
 20
347.572388
 10
62.242107
 20
348.10083
 10
62.242107
 20
348.621979
 10
62.242107
 20
349.123901
 10
62.242107
 20
349.595276
 10
62.242107
 20
350.025146
 10
62.242107
 20
350.403992
 10
62.242107
 20
350.72287
 10
62.242107
 20
350.975586
  0
ARC
  5
101
330
DF
100
AcDbEntity
  8
0
  6
Continuous
 62
     0
370
    30
100
AcDbCircle
 10
97.342109
 20
347.780551
 30
0.0
 40
3.500000000331918
100
AcDbArc
 50
57.677766
 51
237.679344
  0
ARC
  5
102
330
DF
100
AcDbEntity
  8
0
  6
Continuous
 62
     0
370
    30
100
AcDbCircle
 10
97.34219
 20
347.7805
 30
0.0
 40
3.500000000324047
100
AcDbArc
 50
237.677775
 51
57.679335
  0
LINE
  5
103
330
DF
100
AcDbEntity
  8
0
  6
Continuous
 62
     0
370
    30
100
AcDbLine
 10
62.242109
 20
351.280527
 30
0.0
 11
86.34214
 21
351.280527
 31
0.0
  0
LINE
  5
104
330
DF
100
AcDbEntity
  8
0
  6
Continuous
 62
     0
370
    30
100
AcDbLine
 10
86.342179
 20
344.280527
 30
0.0
 11
62.242109
 21
344.280527
 31
0.0
  0
LINE
  5
105
330
DF
100
AcDbEntity
  8
0
  6
Continuous
 62
     0
370
    30
100
AcDbLine
 10
132.442144
 20
351.280527
 30
0.0
 11
108.342101
 21
351.280527
 31
0.0
  0
LINE
  5
106
330
DF
100
AcDbEntity
  8
0
  6
Continuous
 62
     0
370
    30
100
AcDbLine
 10
108.342149
 20
344.280527
 30
0.0
 11
132.442144
 21
344.280527
 31
0.0
  0
LINE
  5
107
330
DF
100
AcDbEntity
  8
0
  6
Continuous
 62
     0
370
    30
100
AcDbLine
 10
108.342147
 20
344.180523
 30
0.0
 11
108.342147
 21
344.280548
 31
0.0
  0
LINE
  5
108
330
DF
100
AcDbEntity
  8
0
  6
Continuous
 62
     0
370
    30
100
AcDbLine
 10
108.342147
 20
351.280081
 30
0.0
 11
108.342147
 21
351.380531
 31
0.0
  0
LINE
  5
109
330
DF
100
AcDbEntity
  8
0
  6
Continuous
 62
     0
370
    30
100
AcDbLine
 10
86.342147
 20
344.180523
 30
0.0
 11
86.342147
 21
344.280841
 31
0.0
  0
LINE
  5
10A
330
DF
100
AcDbEntity
  8
0
  6
Continuous
 62
     0
370
    30
100
AcDbLine
 10
86.342147
 20
370.780523
 30
0.0
 11
86.342147
 21
352.103163
 31
0.0
  0
LINE
  5
10B
330
DF
100
AcDbEntity
  8
0
  6
Continuous
 62
     0
370
    30
100
AcDbLine
 10
108.342147
 20
370.780523
 30
0.0
 11
108.342147
 21
352.103163
 31
0.0
  0
LINE
  5
10C
330
DF
100
AcDbEntity
  8
0
  6
Continuous
 62
     0
370
    30
100
AcDbLine
 10
108.342147
 20
340.280523
 30
0.0
 11
108.342147
 21
344.180523
 31
0.0
  0
LINE
  5
10D
330
DF
100
AcDbEntity
  8
0
  6
Continuous
 62
     0
370
    30
100
AcDbLine
 10
86.342147
 20
340.280523
 30
0.0
 11
86.342147
 21
344.180523
 31
0.0
  0
LINE
  5
10E
330
DF
100
AcDbEntity
  8
0
  6
Continuous
 62
     0
370
    30
100
AcDbLine
 10
103.092147
 20
370.780523
 30
0.0
 11
103.092147
 21
375.680524
 31
0.0
  0
LINE
  5
10F
330
DF
100
AcDbEntity
  8
0
  6
Continuous
 62
     0
370
    30
100
AcDbLine
 10
91.592147
 20
370.780523
 30
0.0
 11
91.592147
 21
375.680524
 31
0.0
  0
LINE
  5
110
330
DF
100
AcDbEntity
  8
0
  6
Continuous
 62
     0
370
    30
100
AcDbLine
 10
81.342147
 20
375.680525
 30
0.0
 11
81.342147
 21
402.680537
 31
0.0
  0
LINE
  5
111
330
DF
100
AcDbEntity
  8
0
  6
Continuous
 62
     0
370
    30
100
AcDbLine
 10
113.342147
 20
375.680525
 30
0.0
 11
113.342147
 21
402.680537
 31
0.0
  0
LINE
  5
112
330
DF
100
AcDbEntity
  8
0
  6
Continuous
 62
     0
370
    30
100
AcDbLine
 10
69.842148
 20
402.680525
 30
0.0
 11
69.842148
 21
406.680525
 31
0.0
  0
LINE
  5
113
330
DF
100
AcDbEntity
  8
0
  6
Continuous
 62
     0
370
    30
100
AcDbLine
 10
124.842148
 20
402.680525
 30
0.0
 11
124.842148
 21
406.680525
 31
0.0
  0
ENDBLK
  5
115
330
DF
100
AcDbEntity
  8
0
100
AcDbBlockEnd
  0
BLOCK
  5
1A5
330
117
100
AcDbEntity
  8
0
100
AcDbBlockBegin
  2
c
 70
     0
 10
61.59399
 20
94.761726
 30
0.0
  3
c
  1

  0
LINE
  5
118
330
117
100
AcDbEntity
  8
0
  6
Continuous
 62
     0
370
    30
100
AcDbLine
 10
284.802025
 20
709.466101
 30
0.0
 11
284.802025
 21
762.66835
 31
0.0
  0
LWPOLYLINE
  5
119
330
117
100
AcDbEntity
  8
0
  6
Continuous
 62
     0
370
    30
100
AcDbPolyline
 90
        9
 70
     0
 43
0.0
 10
284.802032
 20
707.668335
 10
284.802032
 20
707.698303
 10
284.802032
 20
707.786865
 10
284.802032
 20
707.931702
 10
284.802032
 20
708.130188
 10
284.802032
 20
708.3797
 10
284.802032
 20
708.677124
 10
284.802032
 20
709.01947
 10
284.802032
 20
709.466125
  0
LINE
  5
11A
330
117
100
AcDbEntity
  8
0
  6
Continuous
 62
     0
370
    30
100
AcDbLine
 10
280.802025
 20
709.466101
 30
0.0
 11
280.802025
 21
707.66835
 31
0.0
  0
LINE
  5
11B
330
117
100
AcDbEntity
  8
0
  6
Continuous
 62
     0
370
    30
100
AcDbLine
 10
280.802025
 20
762.66835
 30
0.0
 11
280.802025
 21
709.466101
 31
0.0
  0
LWPOLYLINE
  5
11C
330
117
100
AcDbEntity
  8
0
  6
Continuous
 62
     0
370
    30
100
AcDbPolyline
 90
       46
 70
     0
 43
0.0
 10
311.802032
 20
751.168335
 10
311.802032
 20
751.129456
 10
311.802032
 20
751.012634
 10
311.802032
 20
750.818909
 10
311.802032
 20
750.549133
 10
311.802032
 20
750.204224
 10
311.802032
 20
749.78595
 10
311.802032
 20
749.296631
 10
311.802032
 20
748.738831
 10
311.802032
 20
748.114929
 10
311.802032
 20
747.427673
 10
311.802032
 20
746.680725
 10
311.802032
 20
745.877869
 10
311.802032
 20
745.023071
 10
311.802032
 20
744.120117
 10
311.802032
 20
743.173462
 10
311.802032
 20
742.187866
 10
311.802032
 20
741.168274
 10
311.802032
 20
740.119507
 10
311.802032
 20
739.046448
 10
311.802032
 20
737.954529
 10
311.802032
 20
736.84906
 10
311.802032
 20
735.735474
 10
311.802032
 20
734.61908
 10
311.802032
 20
733.505432
 10
311.802032
 20
732.39978
 10
311.802032
 20
731.307556
 10
311.802032
 20
730.234192
 10
311.802032
 20
729.184998
 10
311.802032
 20
728.164856
 10
311.802032
 20
727.178711
 10
311.802032
 20
726.231384
 10
311.802032
 20
725.327698
 10
311.802032
 20
724.472107
 10
311.802032
 20
723.668396
 10
311.802032
 20
722.920532
 10
311.802032
 20
722.2323
 10
311.802032
 20
721.607361
 10
311.802032
 20
721.048462
 10
311.802032
 20
720.558044
 10
311.802032
 20
720.138611
 10
311.802032
 20
719.79248
 10
311.802032
 20
719.521484
 10
311.802032
 20
719.326538
 10
311.802032
 20
719.208496
 10
311.802032
 20
719.168335
  0
LINE
  5
11D
330
117
100
AcDbEntity
  8
0
  6
Continuous
 62
     0
370
    30
100
AcDbLine
 10
311.802023
 20
719.168347
 30
0.0
 11
284.802011
 21
719.16835
 31
0.0
  0
LINE
  5
11E
330
117
100
AcDbEntity
  8
0
  6
Continuous
 62
     0
370
    30
100
AcDbLine
 10
311.802025
 20
740.918349
 30
0.0
 11
316.702026
 21
740.918349
 31
0.0
  0
LWPOLYLINE
  5
11F
330
117
100
AcDbEntity
  8
0
  6
Continuous
 62
     0
370
    30
100
AcDbPolyline
 90
       38
 70
     0
 43
0.0
 10
316.702026
 20
724.168335
 10
316.702026
 20
724.207947
 10
316.702026
 20
724.326599
 10
316.702026
 20
724.523071
 10
316.702026
 20
724.796326
 10
316.702026
 20
725.144531
 10
316.702026
 20
725.564758
 10
316.702026
 20
726.053955
 10
316.702026
 20
726.608948
 10
316.702026
 20
727.225769
 10
316.702026
 20
727.899597
 10
316.702026
 20
728.625671
 10
316.702026
 20
729.399048
 10
316.702026
 20
730.21405
 10
316.702026
 20
731.064575
 10
316.702026
 20
731.94458
 10
316.702026
 20
732.847961
 10
316.702026
 20
733.768066
 10
316.702026
 20
734.698181
 10
316.702026
 20
735.631653
 10
316.702026
 20
736.561829
 10
316.702026
 20
737.481995
 10
316.702026
 20
738.385559
 10
316.702026
 20
739.265808
 10
316.702026
 20
740.116516
 10
316.702026
 20
740.931763
 10
316.702026
 20
741.705505
 10
316.702026
 20
742.431946
 10
316.702026
 20
743.106201
 10
316.702026
 20
743.72345
 10
316.702026
 20
744.278931
 10
316.702026
 20
744.768616
 10
316.702026
 20
745.189331
 10
316.702026
 20
745.538086
 10
316.702026
 20
745.81189
 10
316.702026
 20
746.008972
 10
316.702026
 20
746.128174
 10
316.702026
 20
746.168335
  0
LINE
  5
120
330
117
100
AcDbEntity
  8
0
  6
Continuous
 62
     0
370
    30
100
AcDbLine
 10
347.202026
 20
746.168349
 30
0.0
 11
343.302026
 21
746.168349
 31
0.0
  0
LWPOLYLINE
  5
121
330
117
100
AcDbEntity
  8
0
  6
Continuous
 62
     0
370
     0
100
AcDbPolyline
 90
       24
 70
     0
 43
0.0
 10
343.302032
 20
746.168335
 10
343.268951
 20
746.157166
 10
343.166229
 20
746.124939
 10
343.001282
 20
746.073792
 10
342.777374
 20
746.007568
 10
342.495972
 20
745.931396
 10
342.163177
 20
745.850281
 10
341.78717
 20
745.769714
 10
341.37146
 20
745.695801
 10
340.921631
 20
745.634033
 10
340.447113
 20
745.589294
 10
339.95752
 20
745.56604
 10
339.462769
 20
745.565674
 10
338.972839
 20
745.588196
 10
338.49765
 20
745.632263
 10
338.046875
 20
745.693542
 10
337.629913
 20
745.767151
 10
337.252594
 20
745.847595
 10
336.918243
 20
745.928772
 10
336.634949
 20
746.005188
 10
336.40918
 20
746.071838
 10
336.242279
 20
746.123596
 10
336.137451
 20
746.156433
 10
336.10202
 20
746.168335
  0
LINE
  5
122
330
117
100
AcDbEntity
  8
0
  6
Continuous
 62
     0
370
    30
100
AcDbLine
 10
336.102026
 20
746.168349
 30
0.0
 11
316.702026
 21
746.168349
 31
0.0
  0
LINE
  5
123
330
117
100
AcDbEntity
  8
0
  6
Continuous
 62
     0
370
    30
100
AcDbLine
 10
347.202026
 20
724.168349
 30
0.0
 11
347.202026
 21
746.168349
 31
0.0
  0
LWPOLYLINE
  5
124
330
117
100
AcDbEntity
  8
0
  6
Continuous
 62
     0
370
     0
100
AcDbPolyline
 90
       24
 70
     0
 43
0.0
 10
336.10202
 20
724.168335
 10
336.135193
 20
724.179565
 10
336.237946
 20
724.211792
 10
336.403015
 20
724.263
 10
336.626953
 20
724.329224
 10
336.908478
 20
724.405396
 10
337.241302
 20
724.486511
 10
337.61731
 20
724.567078
 10
338.03302
 20
724.640991
 10
338.482849
 20
724.702698
 10
338.957367
 20
724.747437
 10
339.44693
 20
724.770691
 10
339.94165
 20
724.771057
 10
340.431519
 20
724.748474
 10
340.906647
 20
724.704407
 10
341.357391
 20
724.643127
 10
341.774323
 20
724.569519
 10
342.151611
 20
724.489075
 10
342.485901
 20
724.407898
 10
342.769104
 20
724.331482
 10
342.994873
 20
724.264832
 10
343.161774
 20
724.213135
 10
343.266632
 20
724.180237
 10
343.302032
 20
724.168335
  0
LWPOLYLINE
  5
125
330
117
100
AcDbEntity
  8
0
  6
Continuous
 62
     0
370
     0
100
AcDbPolyline
 90
       23
 70
     0
 43
0.0
 10
343.302032
 20
735.168335
 10
343.265656
 20
734.653564
 10
343.153381
 20
734.148682
 10
342.973419
 20
733.666504
 10
342.729095
 20
733.217468
 10
342.422516
 20
732.810486
 10
342.061951
 20
732.45105
 10
341.655487
 20
732.144531
 10
341.206879
 20
731.897888
 10
340.72464
 20
731.716797
 10
340.219757
 20
731.606018
 10
339.7034
 20
731.568848
 10
339.186981
 20
731.605652
 10
338.681976
 20
731.716064
 10
338.199554
 20
731.896729
 10
337.750763
 20
732.143005
 10
337.344116
 20
732.44928
 10
336.983276
 20
732.808472
 10
336.676331
 20
733.21521
 10
336.431671
 20
733.664062
 10
336.251404
 20
734.146057
 10
336.138794
 20
734.650818
 10
336.10202
 20
735.169189
  0
LWPOLYLINE
  5
126
330
117
100
AcDbEntity
  8
0
  6
Continuous
 62
     0
370
     0
100
AcDbPolyline
 90
       23
 70
     0
 43
0.0
 10
336.10202
 20
735.169189
 10
336.138489
 20
735.683899
 10
336.250824
 20
736.18866
 10
336.430786
 20
736.670715
 10
336.675171
 20
737.119629
 10
336.981781
 20
737.526489
 10
337.342346
 20
737.885864
 10
337.748718
 20
738.192383
 10
338.197266
 20
738.438904
 10
338.679474
 20
738.619873
 10
339.184296
 20
738.730652
 10
339.700592
 20
738.767822
 10
340.216919
 20
738.731079
 10
340.721832
 20
738.620728
 10
341.204163
 20
738.440063
 10
341.652954
 20
738.193909
 10
342.059601
 20
737.887756
 10
342.42041
 20
737.528625
 10
342.727325
 20
737.122009
 10
342.972015
 20
736.673279
 10
343.152374
 20
736.191345
 10
343.265106
 20
735.686707
 10
343.302032
 20
735.168335
  0
ARC
  5
127
330
117
100
AcDbEntity
  8
0
  6
Continuous
 62
     0
370
    30
100
AcDbCircle
 10
334.102053
 20
711.568405
 30
0.0
 40
12.63747726868468
100
AcDbArc
 50
85.583039
 51
94.416961
  0
LWPOLYLINE
  5
128
330
117
100
AcDbEntity
  8
0
  6
Continuous
 62
     0
370
    30
100
AcDbPolyline
 90
       14
 70
     0
 43
0.0
 10
343.201996
 20
724.168335
 10
343.169769
 20
724.178589
 10
343.073914
 20
724.208435
 10
342.916779
 20
724.255737
 10
342.701843
 20
724.317139
 10
342.433441
 20
724.388245
 10
342.116486
 20
724.464172
 10
341.755981
 20
724.539673
 10
341.357574
 20
724.609192
 10
340.928284
 20
724.667969
 10
340.475433
 20
724.711365
 10
340.006866
 20
724.735535
 10
339.53186
 20
724.738647
 10
339.020294
 20
724.717773
  0
LWPOLYLINE
  5
129
330
117
100
AcDbEntity
  8
0
  6
Continuous
 62
     0
370
    30
100
AcDbPolyline
 90
       11
 70
     0
 43
0.0
 10
339.020294
 20
724.717773
 10
338.557953
 20
724.677429
 10
338.118378
 20
724.620422
 10
337.709686
 20
724.551392
 10
337.338562
 20
724.475525
 10
337.011078
 20
724.398438
 10
336.732697
 20
724.3255
 10
336.508484
 20
724.261963
 10
336.343079
 20
724.212402
 10
336.240143
 20
724.18042
 10
336.202026
 20
724.168335
  0
LWPOLYLINE
  5
12A
330
117
100
AcDbEntity
  8
0
  6
Continuous
 62
     0
370
    30
100
AcDbPolyline
 90
       23
 70
     0
 43
0.0
 10
336.202026
 20
746.168335
 10
336.238007
 20
746.156921
 10
336.344879
 20
746.123718
 10
336.519867
 20
746.07135
 10
336.758575
 20
746.004089
 10
337.055878
 20
745.927124
 10
337.406158
 20
745.846558
 10
337.802612
 20
745.768433
 10
338.238007
 20
745.698975
 10
338.704865
 20
745.644226
 10
339.193848
 20
745.60907
 10
339.694244
 20
745.59668
 10
340.194824
 20
745.608337
 10
340.684326
 20
745.642822
 10
341.151947
 20
745.697083
 10
341.58844
 20
745.766113
 10
341.986298
 20
745.844055
 10
342.338104
 20
745.924683
 10
342.637085
 20
746.001831
 10
342.877716
 20
746.069519
 10
343.054718
 20
746.122375
 10
343.163788
 20
746.15625
 10
343.202057
 20
746.168396
  0
LINE
  5
12B
330
117
100
AcDbEntity
  8
0
  6
Continuous
 62
     0
370
    30
100
AcDbLine
 10
339.020289
 20
700.068345
 30
0.0
 11
336.202054
 21
700.068345
 31
0.0
  0
LWPOLYLINE
  5
12C
330
117
100
AcDbEntity
  8
0
  6
Continuous
 62
     0
370
    30
100
AcDbPolyline
 90
       13
 70
     0
 43
0.0
 10
343.201996
 20
700.068359
 10
343.164459
 20
700.068359
 10
343.052277
 20
700.068359
 10
342.868042
 20
700.068359
 10
342.615662
 20
700.068359
 10
342.300507
 20
700.068359
 10
341.929474
 20
700.068359
 10
341.510437
 20
700.068359
 10
341.052521
 20
700.068359
 10
340.56546
 20
700.068359
 10
340.059875
 20
700.068359
 10
339.54657
 20
700.068359
 10
339.020294
 20
700.068359
  0
ARC
  5
12D
330
117
100
AcDbEntity
  8
0
  6
Continuous
 62
     0
370
    30
100
AcDbCircle
 10
339.702005
 20
735.168305
 30
0.0
 40
3.500000000324038
100
AcDbArc
 50
155.904487
 51
335.906047
  0
ARC
  5
12E
330
117
100
AcDbEntity
  8
0
  6
Continuous
 62
     0
370
    30
100
AcDbCircle
 10
339.702044
 20
735.168393
 30
0.0
 40
3.50000000033191
100
AcDbArc
 50
335.904478
 51
155.906056
  0
LINE
  5
12F
330
117
100
AcDbEntity
  8
0
  6
Continuous
 62
     0
370
    30
100
AcDbLine
 10
336.202013
 20
770.26838
 30
0.0
 11
342.659739
 21
770.26838
 31
0.0
  0
LINE
  5
130
330
117
100
AcDbEntity
  8
0
  6
Continuous
 62
     0
370
    30
100
AcDbLine
 10
342.659739
 20
770.26838
 30
0.0
 11
343.202033
 21
770.26838
 31
0.0
  0
LINE
  5
131
330
117
100
AcDbEntity
  8
0
  6
Continuous
 62
     0
370
    30
100
AcDbLine
 10
336.202023
 20
770.26838
 30
0.0
 11
336.202023
 21
746.168302
 31
0.0
  0
LINE
  5
132
330
117
100
AcDbEntity
  8
0
  6
Continuous
 62
     0
370
    30
100
AcDbLine
 10
343.202023
 20
746.168307
 30
0.0
 11
343.202023
 21
770.26838
 31
0.0
  0
LINE
  5
133
330
117
100
AcDbEntity
  8
0
  6
Continuous
 62
     0
370
    30
100
AcDbLine
 10
336.202023
 20
700.068345
 30
0.0
 11
336.202023
 21
724.168351
 31
0.0
  0
LINE
  5
134
330
117
100
AcDbEntity
  8
0
  6
Continuous
 62
     0
370
    30
100
AcDbLine
 10
343.202023
 20
724.168349
 30
0.0
 11
343.202023
 21
700.068345
 31
0.0
  0
LINE
  5
135
330
117
100
AcDbEntity
  8
0
  6
Continuous
 62
     0
370
    30
100
AcDbLine
 10
343.302026
 20
746.168349
 30
0.0
 11
343.201831
 21
746.168349
 31
0.0
  0
LINE
  5
136
330
117
100
AcDbEntity
  8
0
  6
Continuous
 62
     0
370
    30
100
AcDbLine
 10
336.102026
 20
746.168349
 30
0.0
 11
336.202284
 21
746.168349
 31
0.0
  0
LINE
  5
137
330
117
100
AcDbEntity
  8
0
  6
Continuous
 62
     0
370
    30
100
AcDbLine
 10
343.302026
 20
724.168349
 30
0.0
 11
343.201843
 21
724.168349
 31
0.0
  0
LINE
  5
138
330
117
100
AcDbEntity
  8
0
  6
Continuous
 62
     0
370
    30
100
AcDbLine
 10
316.702026
 20
724.168349
 30
0.0
 11
333.128787
 21
724.168349
 31
0.0
  0
LINE
  5
139
330
117
100
AcDbEntity
  8
0
  6
Continuous
 62
     0
370
    30
100
AcDbLine
 10
347.202026
 20
724.168349
 30
0.0
 11
343.302026
 21
724.168349
 31
0.0
  0
LINE
  5
13A
330
117
100
AcDbEntity
  8
0
  6
Continuous
 62
     0
370
    30
100
AcDbLine
 10
336.102019
 20
724.168349
 30
0.0
 11
335.075318
 21
724.168349
 31
0.0
  0
LINE
  5
13B
330
117
100
AcDbEntity
  8
0
  6
Continuous
 62
     0
370
    30
100
AcDbLine
 10
316.702026
 20
729.418349
 30
0.0
 11
311.802025
 21
729.418349
 31
0.0
  0
LINE
  5
13C
330
117
100
AcDbEntity
  8
0
  6
Continuous
 62
     0
370
    30
100
AcDbLine
 10
311.802026
 20
751.168347
 30
0.0
 11
284.802014
 21
751.16835
 31
0.0
  0
LINE
  5
13D
330
117
100
AcDbEntity
  8
0
  6
Continuous
 62
     0
370
    30
100
AcDbLine
 10
284.802025
 20
762.66835
 30
0.0
 11
280.802025
 21
762.66835
 31
0.0
  0
LINE
  5
13E
330
117
100
AcDbEntity
  8
0
  6
Continuous
 62
     0
370
    30
100
AcDbLine
 10
284.802025
 20
707.66835
 30
0.0
 11
280.802025
 21
707.66835
 31
0.0
  0
LWPOLYLINE
  5
13F
330
117
100
AcDbEntity
  8
0
  6
Continuous
 62
     0
370
    30
100
AcDbPolyline
 90
       84
 70
     0
 43
0.0
 10
280.802002
 20
560.1698
 10
280.802002
 20
560.208923
 10
280.802002
 20
560.327209
 10
280.802002
 20
560.524109
 10
280.802002
 20
560.799194
 10
280.802002
 20
561.151855
 10
280.802002
 20
561.581726
 10
280.802002
 20
562.088196
 10
280.802002
 20
562.670776
 10
280.802002
 20
563.329041
 10
280.802002
 20
564.061768
 10
280.802002
 20
564.867737
 10
280.802002
 20
565.745544
 10
280.802002
 20
566.693909
 10
280.802002
 20
567.711365
 10
280.802002
 20
568.79657
 10
280.802002
 20
569.948303
 10
280.802002
 20
571.165039
 10
280.802002
 20
572.445251
 10
280.802002
 20
573.786743
 10
280.802002
 20
575.187439
 10
280.802002
 20
576.645142
 10
280.802002
 20
578.157898
 10
280.802002
 20
579.72345
 10
280.802002
 20
581.339661
 10
280.802002
 20
583.004517
 10
280.802002
 20
584.715759
 10
280.802002
 20
586.470703
 10
280.802002
 20
588.266724
 10
280.802002
 20
590.101196
 10
280.802002
 20
591.971436
 10
280.802002
 20
593.874756
 10
280.802002
 20
595.808472
 10
280.802002
 20
597.769958
 10
280.802002
 20
599.756531
 10
280.802002
 20
601.765259
 10
280.802002
 20
603.793274
 10
280.802002
 20
605.837524
 10
280.802002
 20
607.895081
 10
280.802002
 20
609.963074
 10
280.802002
 20
612.038391
 10
280.802002
 20
614.118225
 10
280.802002
 20
616.199524
 10
280.802002
 20
618.279358
 10
280.802002
 20
620.354797
 10
280.802002
 20
622.422852
 10
280.802002
 20
624.48053
 10
280.802002
 20
626.524963
 10
280.802002
 20
628.553162
 10
280.802002
 20
630.562134
 10
280.802002
 20
632.548889
 10
280.802002
 20
634.510681
 10
280.802002
 20
636.444702
 10
280.802002
 20
638.348389
 10
280.802002
 20
640.218933
 10
280.802002
 20
642.053833
 10
280.802002
 20
643.850281
 10
280.802002
 20
645.605652
 10
280.802002
 20
647.317322
 10
280.802002
 20
648.982727
 10
280.802002
 20
650.599487
 10
280.802002
 20
652.165588
 10
280.802002
 20
653.678833
 10
280.802002
 20
655.137207
 10
280.802002
 20
656.538513
 10
280.802002
 20
657.880615
 10
280.802002
 20
659.161438
 10
280.802002
 20
660.378906
 10
280.802002
 20
661.531311
 10
280.802002
 20
662.617249
 10
280.802002
 20
663.635437
 10
280.802002
 20
664.584473
 10
280.802002
 20
665.463013
 10
280.802002
 20
666.269775
 10
280.802002
 20
667.003296
 10
280.802002
 20
667.662292
 10
280.802002
 20
668.245728
 10
280.802002
 20
668.752991
 10
280.802002
 20
669.183655
 10
280.802002
 20
669.53717
 10
280.802002
 20
669.813049
 10
280.802002
 20
670.010742
 10
280.802002
 20
670.129883
 10
280.802002
 20
670.1698
  0
LINE
  5
140
330
117
100
AcDbEntity
  8
0
  6
Continuous
 62
     0
370
    30
100
AcDbLine
 10
280.80201
 20
560.169823
 30
0.0
 11
284.80201
 21
560.169823
 31
0.0
  0
LINE
  5
141
330
117
100
AcDbEntity
  8
0
  6
Continuous
 62
     0
370
    30
100
AcDbLine
 10
284.80201
 20
560.169823
 30
0.0
 11
284.80201
 21
670.169823
 31
0.0
  0
LWPOLYLINE
  5
142
330
117
100
AcDbEntity
  8
0
  6
Continuous
 62
     0
370
    30
100
AcDbPolyline
 90
       53
 70
     0
 43
0.0
 10
337.002014
 20
637.169861
 10
337.002014
 20
637.129761
 10
337.002014
 20
637.009338
 10
337.002014
 20
636.809387
 10
337.002014
 20
636.53064
 10
337.002014
 20
636.174011
 10
337.002014
 20
635.740356
 10
337.002014
 20
635.231506
 10
337.002014
 20
634.649658
 10
337.002014
 20
633.99707
 10
337.002014
 20
633.275818
 10
337.002014
 20
632.48822
 10
337.002014
 20
631.637207
 10
337.002014
 20
630.726196
 10
337.002014
 20
629.758667
 10
337.002014
 20
628.737976
 10
337.002014
 20
627.667725
 10
337.002014
 20
626.551575
 10
337.002014
 20
625.393982
 10
337.002014
 20
624.199158
 10
337.002014
 20
622.971558
 10
337.002014
 20
621.715454
 10
337.002014
 20
620.435303
 10
337.002014
 20
619.135925
 10
337.002014
 20
617.822144
 10
337.002014
 20
616.498657
 10
337.002014
 20
615.17041
 10
337.002014
 20
613.842163
 10
337.002014
 20
612.518738
 10
337.002014
 20
611.204895
 10
337.002014
 20
609.905518
 10
337.002014
 20
608.625366
 10
337.002014
 20
607.369202
 10
337.002014
 20
606.141541
 10
337.002014
 20
604.946716
 10
337.002014
 20
603.789062
 10
337.002014
 20
602.672913
 10
337.002014
 20
601.6026
 10
337.002014
 20
600.581848
 10
337.002014
 20
599.614258
 10
337.002014
 20
598.703186
 10
337.002014
 20
597.852112
 10
337.002014
 20
597.064514
 10
337.002014
 20
596.343201
 10
337.002014
 20
595.690552
 10
337.002014
 20
595.108643
 10
337.002014
 20
594.599731
 10
337.002014
 20
594.166016
 10
337.002014
 20
593.809265
 10
337.002014
 20
593.530518
 10
337.002014
 20
593.330444
 10
337.002014
 20
593.209961
 10
337.002014
 20
593.1698
  0
LINE
  5
143
330
117
100
AcDbEntity
  8
0
  6
Continuous
 62
     0
370
    30
100
AcDbLine
 10
337.00201
 20
637.169832
 30
0.0
 11
331.552029
 21
637.169832
 31
0.0
  0
LINE
  5
144
330
117
100
AcDbEntity
  8
0
  6
Continuous
 62
     0
370
    30
100
AcDbLine
 10
324.452029
 20
637.169832
 30
0.0
 11
287.00201
 21
637.169832
 31
0.0
  0
LINE
  5
145
330
117
100
AcDbEntity
  8
0
  6
Continuous
 62
     0
370
    30
100
AcDbLine
 10
287.00201
 20
637.169832
 30
0.0
 11
287.00201
 21
593.169813
 31
0.0
  0
LWPOLYLINE
  5
146
330
117
100
AcDbEntity
  8
0
  6
Continuous
 62
     0
370
     0
100
AcDbPolyline
 90
       23
 70
     0
 43
0.0
 10
331.552032
 20
637.169861
 10
331.516052
 20
637.164001
 10
331.407959
 20
637.147095
 10
331.231018
 20
637.120483
 10
330.991089
 20
637.086121
 10
330.689087
 20
637.047058
 10
330.330597
 20
637.006287
 10
329.927673
 20
636.966858
 10
329.485535
 20
636.932068
 10
329.012115
 20
636.905029
 10
328.518005
 20
636.887695
 10
328.013306
 20
636.88147
 10
327.508392
 20
636.887207
 10
327.01355
 20
636.904053
 10
326.53891
 20
636.930664
 10
326.095184
 20
636.965149
 10
325.690491
 20
637.004517
 10
325.329803
 20
637.045227
 10
325.025024
 20
637.084473
 10
324.78241
 20
637.11908
 10
324.602631
 20
637.146118
 10
324.491364
 20
637.163513
 10
324.452026
 20
637.169861
  0
LWPOLYLINE
  5
147
330
117
100
AcDbEntity
  8
0
  6
Continuous
 62
     0
370
     0
100
AcDbPolyline
 90
       18
 70
     0
 43
0.0
 10
325.852051
 20
593.1698
 10
325.889465
 20
593.173401
 10
325.997498
 20
593.183472
 10
326.172272
 20
593.198914
 10
326.410522
 20
593.217346
 10
326.702179
 20
593.236511
 10
327.03656
 20
593.253845
 10
327.405731
 20
593.266968
 10
327.795349
 20
593.274109
 10
328.191498
 20
593.274231
 10
328.581604
 20
593.267395
 10
328.951935
 20
593.254517
 10
329.288208
 20
593.237305
 10
329.581787
 20
593.218201
 10
329.82254
 20
593.199646
 10
330.000366
 20
593.184082
 10
330.111542
 20
593.173706
 10
330.152008
 20
593.1698
  0
LWPOLYLINE
  5
148
330
117
100
AcDbEntity
  8
0
  6
Continuous
 62
     0
370
    30
100
AcDbPolyline
 90
       23
 70
     0
 43
0.0
 10
331.502014
 20
644.819824
 10
331.471771
 20
644.819824
 10
331.375824
 20
644.819824
 10
331.20874
 20
644.819824
 10
330.968933
 20
644.819824
 10
330.659576
 20
644.819824
 10
330.288757
 20
644.819824
 10
329.868835
 20
644.819824
 10
329.415161
 20
644.819824
 10
328.944275
 20
644.819824
 10
328.472046
 20
644.819824
 10
328.012329
 20
644.819824
 10
327.553436
 20
644.819824
 10
327.081512
 20
644.819824
 10
326.610229
 20
644.819824
 10
326.155396
 20
644.819824
 10
325.733582
 20
644.819824
 10
325.360199
 20
644.819824
 10
325.047821
 20
644.819824
 10
324.804718
 20
644.819824
 10
324.634308
 20
644.819824
 10
324.535217
 20
644.819824
 10
324.502014
 20
644.819824
  0
LINE
  5
149
330
117
100
AcDbEntity
  8
0
  6
Continuous
 62
     0
370
    30
100
AcDbLine
 10
331.302029
 20
645.019832
 30
0.0
 11
331.502029
 21
644.819832
 31
0.0
  0
LWPOLYLINE
  5
14A
330
117
100
AcDbEntity
  8
0
  6
Continuous
 62
     0
370
    30
100
AcDbPolyline
 90
       22
 70
     0
 43
0.0
 10
331.302032
 20
645.019836
 10
331.26535
 20
645.019714
 10
331.156433
 20
645.019714
 10
330.977417
 20
645.019592
 10
330.731445
 20
645.019348
 10
330.424744
 20
645.01886
 10
330.064362
 20
645.018188
 10
329.657837
 20
645.017456
 10
329.214722
 20
645.016846
 10
328.744873
 20
645.016724
 10
328.258453
 20
645.017273
 10
327.766266
 20
645.01825
 10
327.279297
 20
645.019165
 10
326.808441
 20
645.019714
 10
326.364014
 20
645.019836
 10
325.956238
 20
645.019531
 10
325.594757
 20
645.01886
 10
325.286621
 20
645.018127
 10
325.038269
 20
645.017944
 10
324.855682
 20
645.018494
 10
324.742554
 20
645.019348
 10
324.702026
 20
645.019836
  0
LINE
  5
14B
330
117
100
AcDbEntity
  8
0
  6
Continuous
 62
     0
370
    30
100
AcDbLine
 10
331.502029
 20
637.169799
 30
0.0
 11
331.502029
 21
644.819832
 31
0.0
  0
LWPOLYLINE
  5
14C
330
117
100
AcDbEntity
  8
0
  6
Continuous
 62
     0
370
    30
100
AcDbPolyline
 90
       22
 70
     0
 43
0.0
 10
324.502045
 20
637.1698
 10
324.541534
 20
637.163391
 10
324.658081
 20
637.145386
 10
324.848999
 20
637.11731
 10
325.110413
 20
637.081299
 10
325.436005
 20
637.040649
 10
325.818665
 20
636.999084
 10
326.250275
 20
636.960266
 10
326.7211
 20
636.92749
 10
327.220825
 20
636.903748
 10
327.738586
 20
636.891418
 10
328.262421
 20
636.891296
 10
328.78006
 20
636.903625
 10
329.279938
 20
636.927429
 10
329.75116
 20
636.960022
 10
330.182953
 20
636.99884
 10
330.565948
 20
637.040405
 10
330.891876
 20
637.081055
 10
331.153625
 20
637.117065
 10
331.345215
 20
637.145386
 10
331.462372
 20
637.163513
 10
331.502014
 20
637.1698
  0
LINE
  5
14D
330
117
100
AcDbEntity
  8
0
  6
Continuous
 62
     0
370
    30
100
AcDbLine
 10
324.502029
 20
644.819832
 30
0.0
 11
324.702029
 21
645.019832
 31
0.0
  0
LINE
  5
14E
330
117
100
AcDbEntity
  8
0
  6
Continuous
 62
     0
370
    30
100
AcDbLine
 10
324.502029
 20
644.819832
 30
0.0
 11
324.502029
 21
637.169799
 31
0.0
  0
LWPOLYLINE
  5
14F
330
117
100
AcDbEntity
  8
0
  6
Continuous
 62
     0
370
    30
100
AcDbPolyline
 90
        3
 70
     0
 43
0.0
 10
330.152008
 20
593.1698
 10
328.063477
 20
593.158142
 10
325.852051
 20
593.1698
  0
LINE
  5
150
330
117
100
AcDbEntity
  8
0
  6
Continuous
 62
     0
370
    30
100
AcDbLine
 10
324.452029
 20
637.169832
 30
0.0
 11
324.502031
 21
637.169799
 31
0.0
  0
LINE
  5
151
330
117
100
AcDbEntity
  8
0
  6
Continuous
 62
     0
370
    30
100
AcDbLine
 10
331.552029
 20
637.169832
 30
0.0
 11
331.502029
 21
637.169799
 31
0.0
  0
LINE
  5
152
330
117
100
AcDbEntity
  8
0
  6
Continuous
 62
     0
370
    30
100
AcDbLine
 10
337.00201
 20
593.169813
 30
0.0
 11
330.152011
 21
593.169813
 31
0.0
  0
LINE
  5
153
330
117
100
AcDbEntity
  8
0
  6
Continuous
 62
     0
370
    30
100
AcDbLine
 10
287.00201
 20
593.169813
 30
0.0
 11
325.852038
 21
593.169813
 31
0.0
  0
LINE
  5
154
330
117
100
AcDbEntity
  8
0
  6
Continuous
 62
     0
370
    30
100
AcDbLine
 10
284.80201
 20
595.269823
 30
0.0
 11
287.00201
 21
595.269823
 31
0.0
  0
LINE
  5
155
330
117
100
AcDbEntity
  8
0
  6
Continuous
 62
     0
370
    30
100
AcDbLine
 10
287.00201
 20
635.069823
 30
0.0
 11
284.80201
 21
635.069823
 31
0.0
  0
LINE
  5
156
330
117
100
AcDbEntity
  8
0
  6
Continuous
 62
     0
370
    30
100
AcDbLine
 10
284.80201
 20
670.169823
 30
0.0
 11
280.80201
 21
670.169823
 31
0.0
  0
LINE
  5
157
330
117
100
AcDbEntity
  8
0
  6
Continuous
 62
     0
370
    30
100
AcDbLine
 10
284.802068
 20
809.465664
 30
0.0
 11
284.802068
 21
862.667913
 31
0.0
  0
LWPOLYLINE
  5
158
330
117
100
AcDbEntity
  8
0
  6
Continuous
 62
     0
370
    30
100
AcDbPolyline
 90
        9
 70
     0
 43
0.0
 10
284.802063
 20
807.667908
 10
284.802063
 20
807.697876
 10
284.802063
 20
807.786438
 10
284.802063
 20
807.931213
 10
284.802063
 20
808.129761
 10
284.802063
 20
808.379211
 10
284.802063
 20
808.676697
 10
284.802063
 20
809.019043
 10
284.802063
 20
809.465637
  0
LINE
  5
159
330
117
100
AcDbEntity
  8
0
  6
Continuous
 62
     0
370
    30
100
AcDbLine
 10
280.802068
 20
809.465664
 30
0.0
 11
280.802068
 21
807.667913
 31
0.0
  0
LINE
  5
15A
330
117
100
AcDbEntity
  8
0
  6
Continuous
 62
     0
370
    30
100
AcDbLine
 10
280.802068
 20
862.667913
 30
0.0
 11
280.802068
 21
809.465664
 31
0.0
  0
LWPOLYLINE
  5
15B
330
117
100
AcDbEntity
  8
0
  6
Continuous
 62
     0
370
    30
100
AcDbPolyline
 90
       46
 70
     0
 43
0.0
 10
311.802063
 20
851.167908
 10
311.802063
 20
851.129028
 10
311.802063
 20
851.012207
 10
311.802063
 20
850.818481
 10
311.802063
 20
850.548706
 10
311.802063
 20
850.203796
 10
311.802063
 20
849.785461
 10
311.802063
 20
849.296204
 10
311.802063
 20
848.738342
 10
311.802063
 20
848.114502
 10
311.802063
 20
847.427246
 10
311.802063
 20
846.680298
 10
311.802063
 20
845.877441
 10
311.802063
 20
845.022644
 10
311.802063
 20
844.11969
 10
311.802063
 20
843.173035
 10
311.802063
 20
842.187439
 10
311.802063
 20
841.167847
 10
311.802063
 20
840.119019
 10
311.802063
 20
839.046021
 10
311.802063
 20
837.954102
 10
311.802063
 20
836.848633
 10
311.802063
 20
835.734985
 10
311.802063
 20
834.618652
 10
311.802063
 20
833.505005
 10
311.802063
 20
832.399353
 10
311.802063
 20
831.307129
 10
311.802063
 20
830.233765
 10
311.802063
 20
829.18457
 10
311.802063
 20
828.164429
 10
311.802063
 20
827.178284
 10
311.802063
 20
826.230957
 10
311.802063
 20
825.327271
 10
311.802063
 20
824.47168
 10
311.802063
 20
823.667969
 10
311.802063
 20
822.920044
 10
311.802063
 20
822.231873
 10
311.802063
 20
821.606934
 10
311.802063
 20
821.048035
 10
311.802063
 20
820.557617
 10
311.802063
 20
820.138123
 10
311.802063
 20
819.792053
 10
311.802063
 20
819.521057
 10
311.802063
 20
819.326111
 10
311.802063
 20
819.208069
 10
311.802063
 20
819.167908
  0
LINE
  5
15C
330
117
100
AcDbEntity
  8
0
  6
Continuous
 62
     0
370
    30
100
AcDbLine
 10
311.802066
 20
819.16791
 30
0.0
 11
284.802054
 21
819.167913
 31
0.0
  0
LINE
  5
15D
330
117
100
AcDbEntity
  8
0
  6
Continuous
 62
     0
370
    30
100
AcDbLine
 10
311.802068
 20
840.917912
 30
0.0
 11
316.702069
 21
840.917912
 31
0.0
  0
LWPOLYLINE
  5
15E
330
117
100
AcDbEntity
  8
0
  6
Continuous
 62
     0
370
    30
100
AcDbPolyline
 90
       38
 70
     0
 43
0.0
 10
316.702057
 20
824.167908
 10
316.702057
 20
824.20752
 10
316.702057
 20
824.326172
 10
316.702057
 20
824.522644
 10
316.702057
 20
824.795898
 10
316.702057
 20
825.144104
 10
316.702057
 20
825.564331
 10
316.702057
 20
826.053467
 10
316.702057
 20
826.608521
 10
316.702057
 20
827.225281
 10
316.702057
 20
827.89917
 10
316.702057
 20
828.625244
 10
316.702057
 20
829.398621
 10
316.702057
 20
830.213623
 10
316.702057
 20
831.064087
 10
316.702057
 20
831.944153
 10
316.702057
 20
832.847534
 10
316.702057
 20
833.767639
 10
316.702057
 20
834.697754
 10
316.702057
 20
835.631226
 10
316.702057
 20
836.561401
 10
316.702057
 20
837.481567
 10
316.702057
 20
838.385132
 10
316.702057
 20
839.26532
 10
316.702057
 20
840.116089
 10
316.702057
 20
840.931335
 10
316.702057
 20
841.705078
 10
316.702057
 20
842.431519
 10
316.702057
 20
843.105774
 10
316.702057
 20
843.723022
 10
316.702057
 20
844.278503
 10
316.702057
 20
844.768127
 10
316.702057
 20
845.188904
 10
316.702057
 20
845.537598
 10
316.702057
 20
845.811462
 10
316.702057
 20
846.008545
 10
316.702057
 20
846.127747
 10
316.702057
 20
846.167908
  0
LINE
  5
15F
330
117
100
AcDbEntity
  8
0
  6
Continuous
 62
     0
370
    30
100
AcDbLine
 10
347.202069
 20
846.167912
 30
0.0
 11
343.302069
 21
846.167912
 31
0.0
  0
LWPOLYLINE
  5
160
330
117
100
AcDbEntity
  8
0
  6
Continuous
 62
     0
370
     0
100
AcDbPolyline
 90
       24
 70
     0
 43
0.0
 10
343.302063
 20
846.167908
 10
343.269012
 20
846.156738
 10
343.16629
 20
846.124512
 10
343.001312
 20
846.073364
 10
342.777435
 20
846.007141
 10
342.496002
 20
845.930969
 10
342.163239
 20
845.849854
 10
341.787231
 20
845.769287
 10
341.371521
 20
845.695374
 10
340.921692
 20
845.633606
 10
340.447144
 20
845.588867
 10
339.95755
 20
845.565613
 10
339.462799
 20
845.565186
 10
338.97287
 20
845.587769
 10
338.497711
 20
845.631836
 10
338.046906
 20
845.693115
 10
337.629974
 20
845.766724
 10
337.252625
 20
845.847168
 10
336.918274
 20
845.928345
 10
336.63501
 20
846.004761
 10
336.40921
 20
846.071411
 10
336.24234
 20
846.123108
 10
336.137482
 20
846.156006
 10
336.102081
 20
846.167908
  0
LINE
  5
161
330
117
100
AcDbEntity
  8
0
  6
Continuous
 62
     0
370
    30
100
AcDbLine
 10
336.102069
 20
846.167912
 30
0.0
 11
316.702069
 21
846.167912
 31
0.0
  0
LINE
  5
162
330
117
100
AcDbEntity
  8
0
  6
Continuous
 62
     0
370
    30
100
AcDbLine
 10
347.202069
 20
824.167912
 30
0.0
 11
347.202069
 21
846.167912
 31
0.0
  0
LWPOLYLINE
  5
163
330
117
100
AcDbEntity
  8
0
  6
Continuous
 62
     0
370
     0
100
AcDbPolyline
 90
       24
 70
     0
 43
0.0
 10
336.102081
 20
824.167908
 10
336.135223
 20
824.179138
 10
336.238007
 20
824.211365
 10
336.403046
 20
824.262573
 10
336.627014
 20
824.328796
 10
336.908508
 20
824.404968
 10
337.241364
 20
824.486023
 10
337.617371
 20
824.566589
 10
338.033081
 20
824.640564
 10
338.48291
 20
824.702271
 10
338.957428
 20
824.746948
 10
339.446991
 20
824.770264
 10
339.941711
 20
824.77063
 10
340.43158
 20
824.748047
 10
340.906708
 20
824.703979
 10
341.357452
 20
824.6427
 10
341.774353
 20
824.569092
 10
342.151672
 20
824.488647
 10
342.485931
 20
824.407471
 10
342.769135
 20
824.331055
 10
342.994904
 20
824.264404
 10
343.161835
 20
824.212708
 10
343.266693
 20
824.17981
 10
343.302063
 20
824.167908
  0
LWPOLYLINE
  5
164
330
117
100
AcDbEntity
  8
0
  6
Continuous
 62
     0
370
     0
100
AcDbPolyline
 90
       23
 70
     0
 43
0.0
 10
343.302063
 20
835.167908
 10
343.265686
 20
834.653137
 10
343.153412
 20
834.148254
 10
342.97345
 20
833.666077
 10
342.729156
 20
833.217041
 10
342.422546
 20
832.810059
 10
342.061981
 20
832.450623
 10
341.655518
 20
832.144043
 10
341.206909
 20
831.897461
 10
340.72467
 20
831.71637
 10
340.219788
 20
831.60553
 10
339.70343
 20
831.56842
 10
339.187012
 20
831.605225
 10
338.682037
 20
831.715637
 10
338.199615
 20
831.896301
 10
337.750793
 20
832.142578
 10
337.344147
 20
832.448853
 10
336.983307
 20
832.808044
 10
336.676361
 20
833.214783
 10
336.431702
 20
833.663574
 10
336.251465
 20
834.14563
 10
336.138824
 20
834.650391
 10
336.102081
 20
835.168762
  0
LWPOLYLINE
  5
165
330
117
100
AcDbEntity
  8
0
  6
Continuous
 62
     0
370
     0
100
AcDbPolyline
 90
       23
 70
     0
 43
0.0
 10
336.102081
 20
835.168762
 10
336.138519
 20
835.683472
 10
336.250854
 20
836.188232
 10
336.430847
 20
836.670288
 10
336.675201
 20
837.119202
 10
336.981842
 20
837.526062
 10
337.342377
 20
837.885437
 10
337.748779
 20
838.191956
 10
338.197327
 20
838.438477
 10
338.679504
 20
838.619446
 10
339.184326
 20
838.730225
 10
339.700623
 20
838.767395
 10
340.216949
 20
838.730652
 10
340.721863
 20
838.6203
 10
341.204224
 20
838.439636
 10
341.652985
 20
838.193481
 10
342.059631
 20
837.887329
 10
342.420441
 20
837.528198
 10
342.727356
 20
837.121582
 10
342.972046
 20
836.672852
 10
343.152405
 20
836.190918
 10
343.265167
 20
835.686279
 10
343.302063
 20
835.167908
  0
ARC
  5
166
330
117
100
AcDbEntity
  8
0
  6
Continuous
 62
     0
370
    30
100
AcDbCircle
 10
334.102095
 20
811.567968
 30
0.0
 40
12.63747726875805
100
AcDbArc
 50
85.583039
 51
94.416961
  0
LWPOLYLINE
  5
167
330
117
100
AcDbEntity
  8
0
  6
Continuous
 62
     0
370
    30
100
AcDbPolyline
 90
       14
 70
     0
 43
0.0
 10
343.202057
 20
824.167908
 10
343.1698
 20
824.178162
 10
343.073975
 20
824.208008
 10
342.91684
 20
824.25531
 10
342.701874
 20
824.316711
 10
342.433502
 20
824.387817
 10
342.116516
 20
824.463745
 10
341.756012
 20
824.539246
 10
341.357635
 20
824.608704
 10
340.928345
 20
824.667542
 10
340.475494
 20
824.710938
 10
340.006927
 20
824.735107
 10
339.531891
 20
824.738159
 10
339.020325
 20
824.717346
  0
LWPOLYLINE
  5
168
330
117
100
AcDbEntity
  8
0
  6
Continuous
 62
     0
370
    30
100
AcDbPolyline
 90
       11
 70
     0
 43
0.0
 10
339.020325
 20
824.717346
 10
338.557983
 20
824.677002
 10
338.118408
 20
824.619995
 10
337.709717
 20
824.550964
 10
337.338593
 20
824.475098
 10
337.011108
 20
824.39801
 10
336.732727
 20
824.325073
 10
336.508545
 20
824.261536
 10
336.343109
 20
824.211975
 10
336.240173
 20
824.179993
 10
336.202057
 20
824.167908
  0
LWPOLYLINE
  5
169
330
117
100
AcDbEntity
  8
0
  6
Continuous
 62
     0
370
    30
100
AcDbPolyline
 90
       23
 70
     0
 43
0.0
 10
336.202057
 20
846.167908
 10
336.238037
 20
846.156494
 10
336.34494
 20
846.123291
 10
336.519928
 20
846.070923
 10
336.758636
 20
846.003662
 10
337.055939
 20
845.926697
 10
337.406219
 20
845.846069
 10
337.802643
 20
845.767944
 10
338.238037
 20
845.698547
 10
338.704926
 20
845.643799
 10
339.193878
 20
845.608643
 10
339.694275
 20
845.596252
 10
340.194855
 20
845.60791
 10
340.684357
 20
845.642395
 10
341.151978
 20
845.696594
 10
341.58847
 20
845.765686
 10
341.986328
 20
845.843628
 10
342.338135
 20
845.924255
 10
342.637146
 20
846.001404
 10
342.877747
 20
846.069031
 10
343.054779
 20
846.121948
 10
343.163849
 20
846.155823
 10
343.202087
 20
846.167908
  0
LINE
  5
16A
330
117
100
AcDbEntity
  8
0
  6
Continuous
 62
     0
370
    30
100
AcDbLine
 10
339.020332
 20
800.067908
 30
0.0
 11
336.202096
 21
800.067908
 31
0.0
  0
LWPOLYLINE
  5
16B
330
117
100
AcDbEntity
  8
0
  6
Continuous
 62
     0
370
    30
100
AcDbPolyline
 90
       13
 70
     0
 43
0.0
 10
343.202026
 20
800.067932
 10
343.16449
 20
800.067932
 10
343.052338
 20
800.067932
 10
342.868103
 20
800.067932
 10
342.615692
 20
800.067932
 10
342.300537
 20
800.067932
 10
341.929504
 20
800.067932
 10
341.510468
 20
800.067932
 10
341.052551
 20
800.067932
 10
340.565521
 20
800.067932
 10
340.059937
 20
800.067932
 10
339.5466
 20
800.067932
 10
339.020325
 20
800.067932
  0
ARC
  5
16C
330
117
100
AcDbEntity
  8
0
  6
Continuous
 62
     0
370
    30
100
AcDbCircle
 10
339.702047
 20
835.167868
 30
0.0
 40
3.500000000324035
100
AcDbArc
 50
155.904487
 51
335.906047
  0
ARC
  5
16D
330
117
100
AcDbEntity
  8
0
  6
Continuous
 62
     0
370
    30
100
AcDbCircle
 10
339.702086
 20
835.167956
 30
0.0
 40
3.500000000331907
100
AcDbArc
 50
335.904478
 51
155.906056
  0
LINE
  5
16E
330
117
100
AcDbEntity
  8
0
  6
Continuous
 62
     0
370
    30
100
AcDbLine
 10
336.202055
 20
870.267943
 30
0.0
 11
342.659782
 21
870.267943
 31
0.0
  0
LINE
  5
16F
330
117
100
AcDbEntity
  8
0
  6
Continuous
 62
     0
370
    30
100
AcDbLine
 10
342.659782
 20
870.267943
 30
0.0
 11
343.202075
 21
870.267943
 31
0.0
  0
LINE
  5
170
330
117
100
AcDbEntity
  8
0
  6
Continuous
 62
     0
370
    30
100
AcDbLine
 10
336.202065
 20
870.267943
 30
0.0
 11
336.202065
 21
846.167865
 31
0.0
  0
LINE
  5
171
330
117
100
AcDbEntity
  8
0
  6
Continuous
 62
     0
370
    30
100
AcDbLine
 10
343.202065
 20
846.16787
 30
0.0
 11
343.202065
 21
870.267943
 31
0.0
  0
LINE
  5
172
330
117
100
AcDbEntity
  8
0
  6
Continuous
 62
     0
370
    30
100
AcDbLine
 10
336.202065
 20
800.067908
 30
0.0
 11
336.202065
 21
824.167913
 31
0.0
  0
LINE
  5
173
330
117
100
AcDbEntity
  8
0
  6
Continuous
 62
     0
370
    30
100
AcDbLine
 10
343.202065
 20
824.167912
 30
0.0
 11
343.202065
 21
800.067908
 31
0.0
  0
LINE
  5
174
330
117
100
AcDbEntity
  8
0
  6
Continuous
 62
     0
370
    30
100
AcDbLine
 10
343.302069
 20
846.167912
 30
0.0
 11
343.201874
 21
846.167912
 31
0.0
  0
LINE
  5
175
330
117
100
AcDbEntity
  8
0
  6
Continuous
 62
     0
370
    30
100
AcDbLine
 10
336.102069
 20
846.167912
 30
0.0
 11
336.202326
 21
846.167912
 31
0.0
  0
LINE
  5
176
330
117
100
AcDbEntity
  8
0
  6
Continuous
 62
     0
370
    30
100
AcDbLine
 10
343.302069
 20
824.167912
 30
0.0
 11
343.201886
 21
824.167912
 31
0.0
  0
LINE
  5
177
330
117
100
AcDbEntity
  8
0
  6
Continuous
 62
     0
370
    30
100
AcDbLine
 10
316.702069
 20
824.167912
 30
0.0
 11
333.12883
 21
824.167912
 31
0.0
  0
LINE
  5
178
330
117
100
AcDbEntity
  8
0
  6
Continuous
 62
     0
370
    30
100
AcDbLine
 10
347.202069
 20
824.167912
 30
0.0
 11
343.302069
 21
824.167912
 31
0.0
  0
LINE
  5
179
330
117
100
AcDbEntity
  8
0
  6
Continuous
 62
     0
370
    30
100
AcDbLine
 10
336.102062
 20
824.167912
 30
0.0
 11
335.07536
 21
824.167912
 31
0.0
  0
LINE
  5
17A
330
117
100
AcDbEntity
  8
0
  6
Continuous
 62
     0
370
    30
100
AcDbLine
 10
316.702069
 20
829.417912
 30
0.0
 11
311.802068
 21
829.417912
 31
0.0
  0
LINE
  5
17B
330
117
100
AcDbEntity
  8
0
  6
Continuous
 62
     0
370
    30
100
AcDbLine
 10
311.802069
 20
851.16791
 30
0.0
 11
284.802057
 21
851.167913
 31
0.0
  0
LINE
  5
17C
330
117
100
AcDbEntity
  8
0
  6
Continuous
 62
     0
370
    30
100
AcDbLine
 10
284.802068
 20
862.667913
 30
0.0
 11
280.802068
 21
862.667913
 31
0.0
  0
LINE
  5
17D
330
117
100
AcDbEntity
  8
0
  6
Continuous
 62
     0
370
    30
100
AcDbLine
 10
284.802068
 20
807.667913
 30
0.0
 11
280.802068
 21
807.667913
 31
0.0
  0
LINE
  5
17E
330
117
100
AcDbEntity
  8
0
  6
Continuous
 62
     0
370
    30
100
AcDbLine
 10
284.802113
 20
909.464796
 30
0.0
 11
284.802112
 21
962.667045
 31
0.0
  0
LWPOLYLINE
  5
17F
330
117
100
AcDbEntity
  8
0
  6
Continuous
 62
     0
370
    30
100
AcDbPolyline
 90
        9
 70
     0
 43
0.0
 10
284.802124
 20
907.667053
 10
284.802124
 20
907.697021
 10
284.802124
 20
907.785583
 10
284.802124
 20
907.930359
 10
284.802124
 20
908.128906
 10
284.802124
 20
908.378357
 10
284.802124
 20
908.675842
 10
284.802124
 20
909.018188
 10
284.802124
 20
909.464783
  0
LINE
  5
180
330
117
100
AcDbEntity
  8
0
  6
Continuous
 62
     0
370
    30
100
AcDbLine
 10
280.802113
 20
909.464796
 30
0.0
 11
280.802112
 21
907.667045
 31
0.0
  0
LINE
  5
181
330
117
100
AcDbEntity
  8
0
  6
Continuous
 62
     0
370
    30
100
AcDbLine
 10
280.802112
 20
962.667045
 30
0.0
 11
280.802113
 21
909.464796
 31
0.0
  0
LWPOLYLINE
  5
182
330
117
100
AcDbEntity
  8
0
  6
Continuous
 62
     0
370
    30
100
AcDbPolyline
 90
       46
 70
     0
 43
0.0
 10
311.802124
 20
951.167053
 10
311.802124
 20
951.128113
 10
311.802124
 20
951.011353
 10
311.802124
 20
950.817627
 10
311.802124
 20
950.547852
 10
311.802124
 20
950.202942
 10
311.802124
 20
949.784607
 10
311.802124
 20
949.295288
 10
311.802124
 20
948.737488
 10
311.802124
 20
948.113586
 10
311.802124
 20
947.426392
 10
311.802124
 20
946.679382
 10
311.802124
 20
945.876587
 10
311.802124
 20
945.02179
 10
311.802124
 20
944.118835
 10
311.802124
 20
943.17218
 10
311.802124
 20
942.186584
 10
311.802124
 20
941.166992
 10
311.802124
 20
940.118164
 10
311.802124
 20
939.045166
 10
311.802124
 20
937.953186
 10
311.802124
 20
936.847717
 10
311.802124
 20
935.734131
 10
311.802124
 20
934.617798
 10
311.802124
 20
933.504089
 10
311.802124
 20
932.398499
 10
311.802124
 20
931.306274
 10
311.802124
 20
930.23291
 10
311.802124
 20
929.183716
 10
311.802124
 20
928.163574
 10
311.802124
 20
927.177429
 10
311.802124
 20
926.230103
 10
311.802124
 20
925.326416
 10
311.802124
 20
924.470764
 10
311.802124
 20
923.667114
 10
311.802124
 20
922.919189
 10
311.802124
 20
922.230957
 10
311.802124
 20
921.606079
 10
311.802124
 20
921.04718
 10
311.802124
 20
920.556763
 10
311.802124
 20
920.137268
 10
311.802124
 20
919.791199
 10
311.802124
 20
919.520203
 10
311.802124
 20
919.325256
 10
311.802124
 20
919.207214
 10
311.802124
 20
919.167053
  0
LINE
  5
183
330
117
100
AcDbEntity
  8
0
  6
Continuous
 62
     0
370
    30
100
AcDbLine
 10
311.802111
 20
919.167042
 30
0.0
 11
284.802098
 21
919.167045
 31
0.0
  0
LINE
  5
184
330
117
100
AcDbEntity
  8
0
  6
Continuous
 62
     0
370
    30
100
AcDbLine
 10
311.802113
 20
940.917044
 30
0.0
 11
316.702114
 21
940.917044
 31
0.0
  0
LWPOLYLINE
  5
185
330
117
100
AcDbEntity
  8
0
  6
Continuous
 62
     0
370
    30
100
AcDbPolyline
 90
       38
 70
     0
 43
0.0
 10
316.702118
 20
924.167053
 10
316.702118
 20
924.206665
 10
316.702118
 20
924.325256
 10
316.702118
 20
924.52179
 10
316.702118
 20
924.795044
 10
316.702118
 20
925.14325
 10
316.702118
 20
925.563477
 10
316.702118
 20
926.052612
 10
316.702118
 20
926.607605
 10
316.702118
 20
927.224426
 10
316.702118
 20
927.898254
 10
316.702118
 20
928.62439
 10
316.702118
 20
929.397766
 10
316.702118
 20
930.212708
 10
316.702118
 20
931.063232
 10
316.702118
 20
931.943298
 10
316.702118
 20
932.84668
 10
316.702118
 20
933.766724
 10
316.702118
 20
934.696899
 10
316.702118
 20
935.630371
 10
316.702118
 20
936.560547
 10
316.702118
 20
937.480713
 10
316.702118
 20
938.384216
 10
316.702118
 20
939.264465
 10
316.702118
 20
940.115234
 10
316.702118
 20
940.930481
 10
316.702118
 20
941.704224
 10
316.702118
 20
942.430664
 10
316.702118
 20
943.104919
 10
316.702118
 20
943.722168
 10
316.702118
 20
944.277649
 10
316.702118
 20
944.767273
 10
316.702118
 20
945.187988
 10
316.702118
 20
945.536743
 10
316.702118
 20
945.810547
 10
316.702118
 20
946.007629
 10
316.702118
 20
946.126831
 10
316.702118
 20
946.167053
  0
LINE
  5
186
330
117
100
AcDbEntity
  8
0
  6
Continuous
 62
     0
370
    30
100
AcDbLine
 10
347.202114
 20
946.167044
 30
0.0
 11
343.302114
 21
946.167044
 31
0.0
  0
LWPOLYLINE
  5
187
330
117
100
AcDbEntity
  8
0
  6
Continuous
 62
     0
370
     0
100
AcDbPolyline
 90
       24
 70
     0
 43
0.0
 10
343.302124
 20
946.167053
 10
343.269043
 20
946.155884
 10
343.166321
 20
946.123657
 10
343.001343
 20
946.07251
 10
342.777466
 20
946.006287
 10
342.496063
 20
945.930054
 10
342.163269
 20
945.848999
 10
341.787262
 20
945.768433
 10
341.371552
 20
945.694458
 10
340.921722
 20
945.632751
 10
340.447205
 20
945.588013
 10
339.957611
 20
945.564697
 10
339.46286
 20
945.564331
 10
338.972931
 20
945.586914
 10
338.497742
 20
945.630981
 10
338.046967
 20
945.6922
 10
337.630005
 20
945.765869
 10
337.252686
 20
945.846313
 10
336.918335
 20
945.927429
 10
336.63504
 20
946.003906
 10
336.409271
 20
946.070557
 10
336.242371
 20
946.122253
 10
336.137543
 20
946.155151
 10
336.102112
 20
946.167053
  0
LINE
  5
188
330
117
100
AcDbEntity
  8
0
  6
Continuous
 62
     0
370
    30
100
AcDbLine
 10
336.102114
 20
946.167044
 30
0.0
 11
316.702114
 21
946.167044
 31
0.0
  0
LINE
  5
189
330
117
100
AcDbEntity
  8
0
  6
Continuous
 62
     0
370
    30
100
AcDbLine
 10
347.202114
 20
924.167044
 30
0.0
 11
347.202114
 21
946.167044
 31
0.0
  0
LWPOLYLINE
  5
18A
330
117
100
AcDbEntity
  8
0
  6
Continuous
 62
     0
370
     0
100
AcDbPolyline
 90
       24
 70
     0
 43
0.0
 10
336.102112
 20
924.167053
 10
336.135254
 20
924.178223
 10
336.238037
 20
924.21051
 10
336.403076
 20
924.261658
 10
336.627045
 20
924.327881
 10
336.908539
 20
924.404114
 10
337.241394
 20
924.485168
 10
337.617401
 20
924.565735
 10
338.033112
 20
924.639709
 10
338.482941
 20
924.701416
 10
338.957458
 20
924.746094
 10
339.447021
 20
924.769348
 10
339.941742
 20
924.769714
 10
340.43161
 20
924.747192
 10
340.906738
 20
924.703064
 10
341.357483
 20
924.641846
 10
341.774414
 20
924.568176
 10
342.151703
 20
924.487732
 10
342.485962
 20
924.406616
 10
342.769196
 20
924.330139
 10
342.994965
 20
924.26355
 10
343.161865
 20
924.211792
 10
343.266724
 20
924.178955
 10
343.302124
 20
924.167053
  0
LWPOLYLINE
  5
18B
330
117
100
AcDbEntity
  8
0
  6
Continuous
 62
     0
370
     0
100
AcDbPolyline
 90
       23
 70
     0
 43
0.0
 10
343.302124
 20
935.167053
 10
343.265747
 20
934.652222
 10
343.153442
 20
934.1474
 10
342.973511
 20
933.665222
 10
342.729187
 20
933.216187
 10
342.422607
 20
932.809143
 10
342.062042
 20
932.449707
 10
341.655579
 20
932.143188
 10
341.20694
 20
931.896606
 10
340.724731
 20
931.715515
 10
340.219849
 20
931.604675
 10
339.703461
 20
931.567505
 10
339.187073
 20
931.60437
 10
338.682068
 20
931.714783
 10
338.199646
 20
931.895447
 10
337.750854
 20
932.141663
 10
337.344177
 20
932.447998
 10
336.983368
 20
932.80719
 10
336.676422
 20
933.213928
 10
336.431763
 20
933.66272
 10
336.251495
 20
934.144775
 10
336.138885
 20
934.649536
 10
336.102112
 20
935.167908
  0
LWPOLYLINE
  5
18C
330
117
100
AcDbEntity
  8
0
  6
Continuous
 62
     0
370
     0
100
AcDbPolyline
 90
       23
 70
     0
 43
0.0
 10
336.102112
 20
935.167908
 10
336.13858
 20
935.682617
 10
336.250916
 20
936.187378
 10
336.430878
 20
936.669434
 10
336.675232
 20
937.118347
 10
336.981873
 20
937.525208
 10
337.342438
 20
937.884583
 10
337.74881
 20
938.191101
 10
338.197357
 20
938.437622
 10
338.679565
 20
938.618591
 10
339.184387
 20
938.72937
 10
339.700684
 20
938.766541
 10
340.21701
 20
938.729736
 10
340.721924
 20
938.619385
 10
341.204254
 20
938.438782
 10
341.653046
 20
938.192627
 10
342.059692
 20
937.886414
 10
342.420502
 20
937.527344
 10
342.727417
 20
937.120667
 10
342.972107
 20
936.671997
 10
343.152466
 20
936.190063
 10
343.265198
 20
935.685425
 10
343.302124
 20
935.167053
  0
ARC
  5
18D
330
117
100
AcDbEntity
  8
0
  6
Continuous
 62
     0
370
    30
100
AcDbCircle
 10
334.10214
 20
911.5671
 30
0.0
 40
12.63747726862473
100
AcDbArc
 50
85.583039
 51
94.416961
  0
LWPOLYLINE
  5
18E
330
117
100
AcDbEntity
  8
0
  6
Continuous
 62
     0
370
    30
100
AcDbPolyline
 90
       14
 70
     0
 43
0.0
 10
343.202087
 20
924.167053
 10
343.169861
 20
924.177246
 10
343.074005
 20
924.207153
 10
342.91687
 20
924.254456
 10
342.701904
 20
924.315857
 10
342.433533
 20
924.386902
 10
342.116547
 20
924.462891
 10
341.756073
 20
924.53833
 10
341.357666
 20
924.607849
 10
340.928375
 20
924.666626
 10
340.475525
 20
924.710083
 10
340.006958
 20
924.734192
 10
339.531952
 20
924.737305
 10
339.020386
 20
924.716431
  0
LWPOLYLINE
  5
18F
330
117
100
AcDbEntity
  8
0
  6
Continuous
 62
     0
370
    30
100
AcDbPolyline
 90
       11
 70
     0
 43
0.0
 10
339.020386
 20
924.716431
 10
338.558014
 20
924.676147
 10
338.118469
 20
924.619141
 10
337.709778
 20
924.55011
 10
337.338654
 20
924.474243
 10
337.011169
 20
924.397156
 10
336.732758
 20
924.324219
 10
336.508575
 20
924.260681
 10
336.34317
 20
924.211121
 10
336.240234
 20
924.179138
 10
336.202118
 20
924.167053
  0
LWPOLYLINE
  5
190
330
117
100
AcDbEntity
  8
0
  6
Continuous
 62
     0
370
    30
100
AcDbPolyline
 90
       23
 70
     0
 43
0.0
 10
336.202118
 20
946.167053
 10
336.238098
 20
946.15564
 10
336.344971
 20
946.122437
 10
336.519958
 20
946.070068
 10
336.758667
 20
946.002808
 10
337.055969
 20
945.925842
 10
337.40625
 20
945.845215
 10
337.802704
 20
945.76709
 10
338.238068
 20
945.697632
 10
338.704956
 20
945.642944
 10
339.193939
 20
945.607788
 10
339.694336
 20
945.595398
 10
340.194916
 20
945.606995
 10
340.684418
 20
945.641541
 10
341.152039
 20
945.69574
 10
341.588531
 20
945.764832
 10
341.986359
 20
945.842773
 10
342.338196
 20
945.92334
 10
342.637177
 20
946.000549
 10
342.877808
 20
946.068176
 10
343.05481
 20
946.121033
 10
343.163879
 20
946.154907
 10
343.202118
 20
946.167053
  0
LINE
  5
191
330
117
100
AcDbEntity
  8
0
  6
Continuous
 62
     0
370
    30
100
AcDbLine
 10
339.020377
 20
900.06704
 30
0.0
 11
336.202141
 21
900.06704
 31
0.0
  0
LWPOLYLINE
  5
192
330
117
100
AcDbEntity
  8
0
  6
Continuous
 62
     0
370
    30
100
AcDbPolyline
 90
       13
 70
     0
 43
0.0
 10
343.202087
 20
900.067017
 10
343.164551
 20
900.067017
 10
343.052368
 20
900.067017
 10
342.868134
 20
900.067017
 10
342.615723
 20
900.067017
 10
342.300598
 20
900.067017
 10
341.929565
 20
900.067017
 10
341.510498
 20
900.067017
 10
341.052612
 20
900.067017
 10
340.565552
 20
900.067017
 10
340.059967
 20
900.067017
 10
339.546661
 20
900.067017
 10
339.020386
 20
900.067017
  0
ARC
  5
193
330
117
100
AcDbEntity
  8
0
  6
Continuous
 62
     0
370
    30
100
AcDbCircle
 10
339.702092
 20
935.167
 30
0.0
 40
3.500000000324036
100
AcDbArc
 50
155.904487
 51
335.906047
  0
ARC
  5
194
330
117
100
AcDbEntity
  8
0
  6
Continuous
 62
     0
370
    30
100
AcDbCircle
 10
339.702131
 20
935.167088
 30
0.0
 40
3.500000000331913
100
AcDbArc
 50
335.904478
 51
155.906056
  0
LINE
  5
195
330
117
100
AcDbEntity
  8
0
  6
Continuous
 62
     0
370
    30
100
AcDbLine
 10
336.2021
 20
970.267075
 30
0.0
 11
342.659826
 21
970.267075
 31
0.0
  0
LINE
  5
196
330
117
100
AcDbEntity
  8
0
  6
Continuous
 62
     0
370
    30
100
AcDbLine
 10
342.659826
 20
970.267075
 30
0.0
 11
343.20212
 21
970.267075
 31
0.0
  0
LINE
  5
197
330
117
100
AcDbEntity
  8
0
  6
Continuous
 62
     0
370
    30
100
AcDbLine
 10
336.20211
 20
970.267075
 30
0.0
 11
336.20211
 21
946.166997
 31
0.0
  0
LINE
  5
198
330
117
100
AcDbEntity
  8
0
  6
Continuous
 62
     0
370
    30
100
AcDbLine
 10
343.20211
 20
946.167002
 30
0.0
 11
343.20211
 21
970.267075
 31
0.0
  0
LINE
  5
199
330
117
100
AcDbEntity
  8
0
  6
Continuous
 62
     0
370
    30
100
AcDbLine
 10
336.20211
 20
900.06704
 30
0.0
 11
336.20211
 21
924.167045
 31
0.0
  0
LINE
  5
19A
330
117
100
AcDbEntity
  8
0
  6
Continuous
 62
     0
370
    30
100
AcDbLine
 10
343.20211
 20
924.167044
 30
0.0
 11
343.20211
 21
900.06704
 31
0.0
  0
LINE
  5
19B
330
117
100
AcDbEntity
  8
0
  6
Continuous
 62
     0
370
    30
100
AcDbLine
 10
343.302114
 20
946.167044
 30
0.0
 11
343.201918
 21
946.167044
 31
0.0
  0
LINE
  5
19C
330
117
100
AcDbEntity
  8
0
  6
Continuous
 62
     0
370
    30
100
AcDbLine
 10
336.102114
 20
946.167044
 30
0.0
 11
336.202371
 21
946.167044
 31
0.0
  0
LINE
  5
19D
330
117
100
AcDbEntity
  8
0
  6
Continuous
 62
     0
370
    30
100
AcDbLine
 10
343.302114
 20
924.167044
 30
0.0
 11
343.201931
 21
924.167044
 31
0.0
  0
LINE
  5
19E
330
117
100
AcDbEntity
  8
0
  6
Continuous
 62
     0
370
    30
100
AcDbLine
 10
316.702114
 20
924.167044
 30
0.0
 11
333.128875
 21
924.167044
 31
0.0
  0
LINE
  5
19F
330
117
100
AcDbEntity
  8
0
  6
Continuous
 62
     0
370
    30
100
AcDbLine
 10
347.202114
 20
924.167044
 30
0.0
 11
343.302114
 21
924.167044
 31
0.0
  0
LINE
  5
1A0
330
117
100
AcDbEntity
  8
0
  6
Continuous
 62
     0
370
    30
100
AcDbLine
 10
336.102106
 20
924.167044
 30
0.0
 11
335.075405
 21
924.167044
 31
0.0
  0
LINE
  5
1A1
330
117
100
AcDbEntity
  8
0
  6
Continuous
 62
     0
370
    30
100
AcDbLine
 10
316.702114
 20
929.417044
 30
0.0
 11
311.802113
 21
929.417044
 31
0.0
  0
LINE
  5
1A2
330
117
100
AcDbEntity
  8
0
  6
Continuous
 62
     0
370
    30
100
AcDbLine
 10
311.802114
 20
951.167042
 30
0.0
 11
284.802101
 21
951.167045
 31
0.0
  0
LINE
  5
1A3
330
117
100
AcDbEntity
  8
0
  6
Continuous
 62
     0
370
    30
100
AcDbLine
 10
284.802112
 20
962.667045
 30
0.0
 11
280.802112
 21
962.667045
 31
0.0
  0
LINE
  5
1A4
330
117
100
AcDbEntity
  8
0
  6
Continuous
 62
     0
370
    30
100
AcDbLine
 10
284.802112
 20
907.667045
 30
0.0
 11
280.802112
 21
907.667045
 31
0.0
  0
ENDBLK
  5
1A6
330
117
100
AcDbEntity
  8
0
100
AcDbBlockEnd
  0
BLOCK
  5
236
330
1A8
100
AcDbEntity
  8
0
100
AcDbBlockBegin
  2
d
 70
     0
 10
-87.047127
 20
0.0
 30
0.0
  3
d
  1

  0
LWPOLYLINE
  5
1A9
330
1A8
100
AcDbEntity
  8
0
  6
Continuous
 62
     0
370
    30
100
AcDbPolyline
 90
        9
 70
     0
 43
0.0
 10
-125.645485
 20
762.668335
 10
-125.645485
 20
762.638367
 10
-125.645485
 20
762.549866
 10
-125.645485
 20
762.405029
 10
-125.645485
 20
762.206482
 10
-125.645485
 20
761.957031
 10
-125.645485
 20
761.659546
 10
-125.645485
 20
761.3172
 10
-125.645485
 20
760.870605
  0
LINE
  5
1AA
330
1A8
100
AcDbEntity
  8
0
  6
Continuous
 62
     0
370
    30
100
AcDbLine
 10
-125.645485
 20
760.8706
 30
0.0
 11
-125.645485
 21
707.66835
 31
0.0
  0
LWPOLYLINE
  5
1AB
330
1A8
100
AcDbEntity
  8
0
  6
Continuous
 62
     0
370
    30
100
AcDbPolyline
 90
       55
 70
     0
 43
0.0
 10
-121.645485
 20
707.668335
 10
-121.645485
 20
707.705322
 10
-121.645485
 20
707.817566
 10
-121.645485
 20
708.006653
 10
-121.645485
 20
708.27356
 10
-121.645485
 20
708.618713
 10
-121.645485
 20
709.041748
 10
-121.645485
 20
709.541626
 10
-121.645485
 20
710.116577
 10
-121.645485
 20
710.764404
 10
-121.645485
 20
711.481934
 10
-121.645485
 20
712.265747
 10
-121.645485
 20
713.111572
 10
-121.645485
 20
714.015015
 10
-121.645485
 20
714.970947
 10
-121.645485
 20
715.974182
 10
-121.645485
 20
717.019287
 10
-121.645485
 20
718.100586
 10
-121.645485
 20
719.212463
 10
-121.645485
 20
720.349304
 10
-121.645485
 20
721.505554
 10
-121.645485
 20
722.675842
 10
-121.645485
 20
723.855042
 10
-121.645485
 20
725.038269
 10
-121.645485
 20
726.232361
 10
-121.645485
 20
727.466187
 10
-121.645485
 20
728.739319
 10
-121.645485
 20
730.048706
 10
-121.645485
 20
731.390869
 10
-121.645485
 20
732.761841
 10
-121.645485
 20
734.157043
 10
-121.645485
 20
735.571716
 10
-121.645485
 20
737.000427
 10
-121.645485
 20
738.437561
 10
-121.645485
 20
739.877197
 10
-121.645485
 20
741.31311
 10
-121.645485
 20
742.739014
 10
-121.645485
 20
744.14856
 10
-121.645485
 20
745.535461
 10
-121.645485
 20
746.893555
 10
-121.645485
 20
748.216858
 10
-121.645485
 20
749.499817
 10
-121.645485
 20
750.737122
 10
-121.645485
 20
751.924072
 10
-121.645485
 20
753.056396
 10
-121.645485
 20
754.130371
 10
-121.645485
 20
755.143005
 10
-121.645485
 20
756.091736
 10
-121.645485
 20
756.974854
 10
-121.645485
 20
757.791016
 10
-121.645485
 20
758.539673
 10
-121.645485
 20
759.220703
 10
-121.645485
 20
759.834595
 10
-121.645485
 20
760.382324
 10
-121.645485
 20
760.870605
  0
LINE
  5
1AC
330
1A8
100
AcDbEntity
  8
0
  6
Continuous
 62
     0
370
    30
100
AcDbLine
 10
-121.645485
 20
760.8706
 30
0.0
 11
-121.645485
 21
762.66835
 31
0.0
  0
LWPOLYLINE
  5
1AD
330
1A8
100
AcDbEntity
  8
0
  6
Continuous
 62
     0
370
    30
100
AcDbPolyline
 90
       46
 70
     0
 43
0.0
 10
-152.645477
 20
719.168335
 10
-152.645477
 20
719.207275
 10
-152.645477
 20
719.324036
 10
-152.645477
 20
719.517761
 10
-152.645477
 20
719.787537
 10
-152.645477
 20
720.132446
 10
-152.645477
 20
720.550781
 10
-152.645477
 20
721.0401
 10
-152.645477
 20
721.5979
 10
-152.645477
 20
722.221802
 10
-152.645477
 20
722.908997
 10
-152.645477
 20
723.656006
 10
-152.645477
 20
724.458801
 10
-152.645477
 20
725.31366
 10
-152.645477
 20
726.216553
 10
-152.645477
 20
727.163208
 10
-152.645493
 20
728.148804
 10
-152.645493
 20
729.168396
 10
-152.645493
 20
730.217224
 10
-152.645493
 20
731.290222
 10
-152.645493
 20
732.382202
 10
-152.645493
 20
733.487671
 10
-152.645493
 20
734.601257
 10
-152.645493
 20
735.71759
 10
-152.645493
 20
736.831299
 10
-152.645493
 20
737.93689
 10
-152.645493
 20
739.029114
 10
-152.645493
 20
740.102478
 10
-152.645493
 20
741.151672
 10
-152.645493
 20
742.171814
 10
-152.645493
 20
743.157959
 10
-152.645493
 20
744.105286
 10
-152.645493
 20
745.008972
 10
-152.645493
 20
745.864624
 10
-152.645493
 20
746.668274
 10
-152.645493
 20
747.416199
 10
-152.645493
 20
748.104431
 10
-152.645493
 20
748.729309
 10
-152.645493
 20
749.288208
 10
-152.645493
 20
749.778625
 10
-152.645493
 20
750.19812
 10
-152.645493
 20
750.544189
 10
-152.645493
 20
750.815186
 10
-152.645493
 20
751.010132
 10
-152.645493
 20
751.128174
 10
-152.645493
 20
751.168335
  0
LINE
  5
1AE
330
1A8
100
AcDbEntity
  8
0
  6
Continuous
 62
     0
370
    30
100
AcDbLine
 10
-152.645484
 20
719.168347
 30
0.0
 11
-125.645471
 21
719.16835
 31
0.0
  0
LINE
  5
1AF
330
1A8
100
AcDbEntity
  8
0
  6
Continuous
 62
     0
370
    30
100
AcDbLine
 10
-152.645485
 20
740.918349
 30
0.0
 11
-157.545486
 21
740.918349
 31
0.0
  0
LWPOLYLINE
  5
1B0
330
1A8
100
AcDbEntity
  8
0
  6
Continuous
 62
     0
370
    30
100
AcDbPolyline
 90
       38
 70
     0
 43
0.0
 10
-157.545486
 20
746.168335
 10
-157.545486
 20
746.128723
 10
-157.545486
 20
746.010132
 10
-157.545486
 20
745.813599
 10
-157.545486
 20
745.540344
 10
-157.545486
 20
745.192139
 10
-157.545486
 20
744.771912
 10
-157.545486
 20
744.282776
 10
-157.545486
 20
743.727783
 10
-157.545486
 20
743.110962
 10
-157.545486
 20
742.437134
 10
-157.545486
 20
741.71106
 10
-157.545486
 20
740.937622
 10
-157.545486
 20
740.122681
 10
-157.545486
 20
739.272156
 10
-157.545486
 20
738.39209
 10
-157.545486
 20
737.488708
 10
-157.545486
 20
736.568665
 10
-157.545486
 20
735.63855
 10
-157.545486
 20
734.705017
 10
-157.545486
 20
733.774841
 10
-157.545486
 20
732.854675
 10
-157.545486
 20
731.951172
 10
-157.545486
 20
731.070923
 10
-157.545486
 20
730.220154
 10
-157.545486
 20
729.404907
 10
-157.545486
 20
728.631165
 10
-157.545486
 20
727.904724
 10
-157.545486
 20
727.230469
 10
-157.545486
 20
726.613281
 10
-157.545486
 20
726.0578
 10
-157.545486
 20
725.568115
 10
-157.545486
 20
725.1474
 10
-157.545486
 20
724.798645
 10
-157.545486
 20
724.524841
 10
-157.545486
 20
724.327759
 10
-157.545486
 20
724.208557
 10
-157.545486
 20
724.168335
  0
LINE
  5
1B1
330
1A8
100
AcDbEntity
  8
0
  6
Continuous
 62
     0
370
    30
100
AcDbLine
 10
-188.045486
 20
746.168349
 30
0.0
 11
-184.145486
 21
746.168349
 31
0.0
  0
LINE
  5
1B2
330
1A8
100
AcDbEntity
  8
0
  6
Continuous
 62
     0
370
    30
100
AcDbLine
 10
-176.945486
 20
746.168349
 30
0.0
 11
-157.545486
 21
746.168349
 31
0.0
  0
LWPOLYLINE
  5
1B3
330
1A8
100
AcDbEntity
  8
0
  6
Continuous
 62
     0
370
     0
100
AcDbPolyline
 90
       24
 70
     0
 43
0.0
 10
-176.94548
 20
746.168335
 10
-176.978592
 20
746.157166
 10
-177.081284
 20
746.125
 10
-177.246216
 20
746.073792
 10
-177.470078
 20
746.007568
 10
-177.751526
 20
745.931396
 10
-178.084351
 20
745.850281
 10
-178.460342
 20
745.769714
 10
-178.876038
 20
745.695801
 10
-179.325867
 20
745.634033
 10
-179.8004
 20
745.589294
 10
-180.289993
 20
745.56604
 10
-180.784744
 20
745.565674
 10
-181.274658
 20
745.588196
 10
-181.749847
 20
745.632263
 10
-182.200638
 20
745.693542
 10
-182.617599
 20
745.767151
 10
-182.994949
 20
745.847595
 10
-183.329254
 20
745.928772
 10
-183.612503
 20
746.005249
 10
-183.838303
 20
746.071838
 10
-184.005234
 20
746.123596
 10
-184.110107
 20
746.156433
 10
-184.145493
 20
746.168335
  0
LINE
  5
1B4
330
1A8
100
AcDbEntity
  8
0
  6
Continuous
 62
     0
370
    30
100
AcDbLine
 10
-188.045486
 20
746.168349
 30
0.0
 11
-188.045486
 21
724.168349
 31
0.0
  0
LWPOLYLINE
  5
1B5
330
1A8
100
AcDbEntity
  8
0
  6
Continuous
 62
     0
370
     0
100
AcDbPolyline
 90
       24
 70
     0
 43
0.0
 10
-184.145493
 20
724.168335
 10
-184.112411
 20
724.179504
 10
-184.009674
 20
724.211731
 10
-183.844666
 20
724.262939
 10
-183.620758
 20
724.329102
 10
-183.339294
 20
724.405334
 10
-183.006454
 20
724.48645
 10
-182.630371
 20
724.567017
 10
-182.2146
 20
724.64093
 10
-181.764725
 20
724.702698
 10
-181.290161
 20
724.747437
 10
-180.800537
 20
724.770691
 10
-180.30574
 20
724.771057
 10
-179.815781
 20
724.748474
 10
-179.340576
 20
724.704346
 10
-178.889786
 20
724.643066
 10
-178.472855
 20
724.569458
 10
-178.095535
 20
724.488953
 10
-177.761246
 20
724.407837
 10
-177.478012
 20
724.33136
 10
-177.252289
 20
724.264771
 10
-177.085464
 20
724.213074
 10
-176.980728
 20
724.180237
 10
-176.94548
 20
724.168335
  0
LWPOLYLINE
  5
1B6
330
1A8
100
AcDbEntity
  8
0
  6
Continuous
 62
     0
370
     0
100
AcDbPolyline
 90
       23
 70
     0
 43
0.0
 10
-184.145493
 20
735.168335
 10
-184.109116
 20
735.683167
 10
-183.996826
 20
736.187988
 10
-183.816879
 20
736.670166
 10
-183.572571
 20
737.119202
 10
-183.265976
 20
737.526245
 10
-182.905411
 20
737.885681
 10
-182.498947
 20
738.1922
 10
-182.050323
 20
738.438782
 10
-181.568085
 20
738.619873
 10
-181.063217
 20
738.730713
 10
-180.546844
 20
738.767883
 10
-180.030441
 20
738.731018
 10
-179.525436
 20
738.620605
 10
-179.04303
 20
738.439941
 10
-178.594223
 20
738.193726
 10
-178.187561
 20
737.88739
 10
-177.826736
 20
737.528198
 10
-177.519791
 20
737.12146
 10
-177.275131
 20
736.672668
 10
-177.094864
 20
736.190613
 10
-176.982254
 20
735.685852
 10
-176.94548
 20
735.167542
  0
LWPOLYLINE
  5
1B7
330
1A8
100
AcDbEntity
  8
0
  6
Continuous
 62
     0
370
     0
100
AcDbPolyline
 90
       23
 70
     0
 43
0.0
 10
-176.94548
 20
735.167542
 10
-176.981949
 20
734.652771
 10
-177.094269
 20
734.148071
 10
-177.274261
 20
733.665955
 10
-177.518616
 20
733.217041
 10
-177.825256
 20
732.810181
 10
-178.185806
 20
732.450806
 10
-178.592194
 20
732.144348
 10
-179.040741
 20
731.897766
 10
-179.522934
 20
731.716797
 10
-180.027756
 20
731.606079
 10
-180.544052
 20
731.568848
 10
-181.060379
 20
731.605652
 10
-181.565292
 20
731.716003
 10
-182.047638
 20
731.896606
 10
-182.496414
 20
732.142761
 10
-182.903061
 20
732.448975
 10
-183.263855
 20
732.808044
 10
-183.570786
 20
733.214722
 10
-183.815475
 20
733.663391
 10
-183.995819
 20
734.145325
 10
-184.108582
 20
734.649963
 10
-184.145493
 20
735.168335
  0
ARC
  5
1B8
330
1A8
100
AcDbEntity
  8
0
  6
Continuous
 62
     0
370
    30
100
AcDbCircle
 10
-174.945513
 20
711.56715
 30
0.0
 40
12.63872873023561
100
AcDbArc
 50
85.583477
 51
94.416523
  0
LWPOLYLINE
  5
1B9
330
1A8
100
AcDbEntity
  8
0
  6
Continuous
 62
     0
370
    30
100
AcDbPolyline
 90
       23
 70
     0
 43
0.0
 10
-177.045486
 20
724.168335
 10
-177.081482
 20
724.179749
 10
-177.18837
 20
724.212952
 10
-177.363358
 20
724.26532
 10
-177.602097
 20
724.332581
 10
-177.899399
 20
724.409546
 10
-178.249405
 20
724.490234
 10
-178.645782
 20
724.56842
 10
-179.081436
 20
724.637756
 10
-179.54837
 20
724.692444
 10
-180.037308
 20
724.727661
 10
-180.537689
 20
724.740051
 10
-181.038269
 20
724.728394
 10
-181.527756
 20
724.693909
 10
-181.995346
 20
724.639648
 10
-182.431854
 20
724.570557
 10
-182.829727
 20
724.492676
 10
-183.181519
 20
724.412048
 10
-183.480515
 20
724.3349
 10
-183.721115
 20
724.267212
 10
-183.898163
 20
724.214355
 10
-184.007248
 20
724.180481
 10
-184.045471
 20
724.168335
  0
LWPOLYLINE
  5
1BA
330
1A8
100
AcDbEntity
  8
0
  6
Continuous
 62
     0
370
    30
100
AcDbPolyline
 90
       19
 70
     0
 43
0.0
 10
-184.045502
 20
746.168396
 10
-184.009094
 20
746.156738
 10
-183.901291
 20
746.123108
 10
-183.725372
 20
746.070679
 10
-183.485016
 20
746.003052
 10
-183.18573
 20
745.925659
 10
-182.833633
 20
745.844727
 10
-182.434937
 20
745.766479
 10
-181.996811
 20
745.697205
 10
-181.527466
 20
745.642822
 10
-181.036301
 20
745.608215
 10
-180.533966
 20
745.59668
 10
-180.031891
 20
745.609314
 10
-179.541504
 20
745.644897
 10
-179.073349
 20
745.700073
 10
-178.636948
 20
745.769897
 10
-178.24025
 20
745.84845
 10
-177.890198
 20
745.929382
 10
-177.587769
 20
746.007996
  0
LWPOLYLINE
  5
1BB
330
1A8
100
AcDbEntity
  8
0
  6
Continuous
 62
     0
370
    30
100
AcDbPolyline
 90
        5
 70
     0
 43
0.0
 10
-177.587769
 20
746.007996
 10
-177.357956
 20
746.072937
 10
-177.188568
 20
746.123596
 10
-177.083572
 20
746.15625
 10
-177.045486
 20
746.168335
  0
LINE
  5
1BC
330
1A8
100
AcDbEntity
  8
0
  6
Continuous
 62
     0
370
    30
100
AcDbLine
 10
-177.045514
 20
700.068345
 30
0.0
 11
-181.227216
 21
700.068345
 31
0.0
  0
LINE
  5
1BD
330
1A8
100
AcDbEntity
  8
0
  6
Continuous
 62
     0
370
    30
100
AcDbLine
 10
-181.227216
 20
700.068345
 30
0.0
 11
-184.045452
 21
700.068345
 31
0.0
  0
ARC
  5
1BE
330
1A8
100
AcDbEntity
  8
0
  6
Continuous
 62
     0
370
    30
100
AcDbCircle
 10
-180.545444
 20
735.168372
 30
0.0
 40
3.500000000324051
100
AcDbArc
 50
301.467639
 51
121.469198
  0
ARC
  5
1BF
330
1A8
100
AcDbEntity
  8
0
  6
Continuous
 62
     0
370
    30
100
AcDbCircle
 10
-180.545525
 20
735.168323
 30
0.0
 40
3.500000000324044
100
AcDbArc
 50
121.467639
 51
301.469198
  0
LINE
  5
1C0
330
1A8
100
AcDbEntity
  8
0
  6
Continuous
 62
     0
370
    30
100
AcDbLine
 10
-177.587766
 20
770.26838
 30
0.0
 11
-177.045473
 21
770.26838
 31
0.0
  0
LWPOLYLINE
  5
1C1
330
1A8
100
AcDbEntity
  8
0
  6
Continuous
 62
     0
370
    30
100
AcDbPolyline
 90
       19
 70
     0
 43
0.0
 10
-184.045486
 20
770.268372
 10
-184.009766
 20
770.268372
 10
-183.90358
 20
770.268372
 10
-183.729172
 20
770.268372
 10
-183.489929
 20
770.268372
 10
-183.190933
 20
770.268372
 10
-182.838028
 20
770.268372
 10
-182.438599
 20
770.268372
 10
-182.00061
 20
770.268372
 10
-181.533066
 20
770.268372
 10
-181.045441
 20
770.268372
 10
-180.547623
 20
770.268372
 10
-180.049789
 20
770.268372
 10
-179.562012
 20
770.268372
 10
-179.094254
 20
770.268372
 10
-178.656006
 20
770.268372
 10
-178.256134
 20
770.268372
 10
-177.902893
 20
770.268372
 10
-177.587769
 20
770.268372
  0
LINE
  5
1C2
330
1A8
100
AcDbEntity
  8
0
  6
Continuous
 62
     0
370
    30
100
AcDbLine
 10
-177.045483
 20
770.26838
 30
0.0
 11
-177.045483
 21
746.168302
 31
0.0
  0
LINE
  5
1C3
330
1A8
100
AcDbEntity
  8
0
  6
Continuous
 62
     0
370
    30
100
AcDbLine
 10
-184.045483
 20
746.168307
 30
0.0
 11
-184.045483
 21
770.26838
 31
0.0
  0
LINE
  5
1C4
330
1A8
100
AcDbEntity
  8
0
  6
Continuous
 62
     0
370
    30
100
AcDbLine
 10
-177.045483
 20
700.068345
 30
0.0
 11
-177.045483
 21
724.168351
 31
0.0
  0
LINE
  5
1C5
330
1A8
100
AcDbEntity
  8
0
  6
Continuous
 62
     0
370
    30
100
AcDbLine
 10
-184.045483
 20
724.168349
 30
0.0
 11
-184.045483
 21
700.068345
 31
0.0
  0
LINE
  5
1C6
330
1A8
100
AcDbEntity
  8
0
  6
Continuous
 62
     0
370
    30
100
AcDbLine
 10
-184.145486
 20
746.168349
 30
0.0
 11
-184.045291
 21
746.168349
 31
0.0
  0
LINE
  5
1C7
330
1A8
100
AcDbEntity
  8
0
  6
Continuous
 62
     0
370
    30
100
AcDbLine
 10
-176.945486
 20
746.168349
 30
0.0
 11
-177.045744
 21
746.168349
 31
0.0
  0
LINE
  5
1C8
330
1A8
100
AcDbEntity
  8
0
  6
Continuous
 62
     0
370
    30
100
AcDbLine
 10
-184.145486
 20
724.168349
 30
0.0
 11
-184.045303
 21
724.168349
 31
0.0
  0
LINE
  5
1C9
330
1A8
100
AcDbEntity
  8
0
  6
Continuous
 62
     0
370
    30
100
AcDbLine
 10
-157.545486
 20
724.168349
 30
0.0
 11
-173.972248
 21
724.168349
 31
0.0
  0
LINE
  5
1CA
330
1A8
100
AcDbEntity
  8
0
  6
Continuous
 62
     0
370
    30
100
AcDbLine
 10
-188.045486
 20
724.168349
 30
0.0
 11
-184.145486
 21
724.168349
 31
0.0
  0
LINE
  5
1CB
330
1A8
100
AcDbEntity
  8
0
  6
Continuous
 62
     0
370
    30
100
AcDbLine
 10
-176.945479
 20
724.168349
 30
0.0
 11
-175.918778
 21
724.168349
 31
0.0
  0
LINE
  5
1CC
330
1A8
100
AcDbEntity
  8
0
  6
Continuous
 62
     0
370
    30
100
AcDbLine
 10
-157.545486
 20
729.418349
 30
0.0
 11
-152.645485
 21
729.418349
 31
0.0
  0
LINE
  5
1CD
330
1A8
100
AcDbEntity
  8
0
  6
Continuous
 62
     0
370
    30
100
AcDbLine
 10
-152.645486
 20
751.168347
 30
0.0
 11
-125.645474
 21
751.16835
 31
0.0
  0
LINE
  5
1CE
330
1A8
100
AcDbEntity
  8
0
  6
Continuous
 62
     0
370
    30
100
AcDbLine
 10
-125.645485
 20
762.66835
 30
0.0
 11
-121.645485
 21
762.66835
 31
0.0
  0
LINE
  5
1CF
330
1A8
100
AcDbEntity
  8
0
  6
Continuous
 62
     0
370
    30
100
AcDbLine
 10
-125.645485
 20
707.66835
 30
0.0
 11
-121.645485
 21
707.66835
 31
0.0
  0
LWPOLYLINE
  5
1D0
330
1A8
100
AcDbEntity
  8
0
  6
Continuous
 62
     0
370
    30
100
AcDbPolyline
 90
       84
 70
     0
 43
0.0
 10
-121.64547
 20
670.1698
 10
-121.64547
 20
670.130676
 10
-121.64547
 20
670.012451
 10
-121.64547
 20
669.815491
 10
-121.64547
 20
669.540466
 10
-121.64547
 20
669.187805
 10
-121.64547
 20
668.757935
 10
-121.64547
 20
668.251465
 10
-121.64547
 20
667.668823
 10
-121.64547
 20
667.01062
 10
-121.64547
 20
666.277832
 10
-121.64547
 20
665.471863
 10
-121.64547
 20
664.594055
 10
-121.64547
 20
663.645752
 10
-121.64547
 20
662.628296
 10
-121.64547
 20
661.54303
 10
-121.64547
 20
660.391357
 10
-121.64547
 20
659.174622
 10
-121.64547
 20
657.894409
 10
-121.64547
 20
656.552917
 10
-121.64547
 20
655.152222
 10
-121.64547
 20
653.694458
 10
-121.64547
 20
652.181763
 10
-121.64547
 20
650.616211
 10
-121.64547
 20
648.999939
 10
-121.64547
 20
647.335083
 10
-121.64547
 20
645.623901
 10
-121.64547
 20
643.868958
 10
-121.64547
 20
642.072876
 10
-121.64547
 20
640.238403
 10
-121.64547
 20
638.368225
 10
-121.64547
 20
636.464905
 10
-121.64547
 20
634.531189
 10
-121.64547
 20
632.569702
 10
-121.64547
 20
630.58313
 10
-121.64547
 20
628.574341
 10
-121.64547
 20
626.546387
 10
-121.64547
 20
624.502136
 10
-121.64547
 20
622.444519
 10
-121.64547
 20
620.376587
 10
-121.64547
 20
618.301208
 10
-121.64547
 20
616.221436
 10
-121.64547
 20
614.140137
 10
-121.64547
 20
612.060242
 10
-121.64547
 20
609.984863
 10
-121.64547
 20
607.916809
 10
-121.64547
 20
605.85907
 10
-121.64547
 20
603.814697
 10
-121.64547
 20
601.786499
 10
-121.64547
 20
599.777527
 10
-121.64547
 20
597.79071
 10
-121.64547
 20
595.828979
 10
-121.64547
 20
593.894897
 10
-121.64547
 20
591.991272
 10
-121.64547
 20
590.120667
 10
-121.64547
 20
588.285828
 10
-121.64547
 20
586.48938
 10
-121.64547
 20
584.733948
 10
-121.64547
 20
583.022278
 10
-121.64547
 20
581.356934
 10
-121.64547
 20
579.740173
 10
-121.64547
 20
578.174072
 10
-121.64547
 20
576.660767
 10
-121.64547
 20
575.202454
 10
-121.64547
 20
573.801147
 10
-121.64547
 20
572.459045
 10
-121.64547
 20
571.178162
 10
-121.64547
 20
569.960754
 10
-121.64547
 20
568.80835
 10
-121.64547
 20
567.722412
 10
-121.64547
 20
566.704224
 10
-121.64547
 20
565.755188
 10
-121.64547
 20
564.876587
 10
-121.64547
 20
564.069885
 10
-121.64547
 20
563.336365
 10
-121.64547
 20
562.677307
 10
-121.64547
 20
562.093933
 10
-121.64547
 20
561.586609
 10
-121.64547
 20
561.156006
 10
-121.64547
 20
560.80249
 10
-121.64547
 20
560.526611
 10
-121.64547
 20
560.328857
 10
-121.64547
 20
560.209778
 10
-121.64547
 20
560.1698
  0
LINE
  5
1D1
330
1A8
100
AcDbEntity
  8
0
  6
Continuous
 62
     0
370
    30
100
AcDbLine
 10
-121.64547
 20
560.169823
 30
0.0
 11
-125.64547
 21
560.169823
 31
0.0
  0
LINE
  5
1D2
330
1A8
100
AcDbEntity
  8
0
  6
Continuous
 62
     0
370
    30
100
AcDbLine
 10
-125.64547
 20
670.169823
 30
0.0
 11
-125.64547
 21
560.169823
 31
0.0
  0
LWPOLYLINE
  5
1D3
330
1A8
100
AcDbEntity
  8
0
  6
Continuous
 62
     0
370
    30
100
AcDbPolyline
 90
       53
 70
     0
 43
0.0
 10
-177.845474
 20
593.1698
 10
-177.845474
 20
593.2099
 10
-177.845474
 20
593.330322
 10
-177.845474
 20
593.530273
 10
-177.845474
 20
593.809021
 10
-177.845474
 20
594.165649
 10
-177.845474
 20
594.599304
 10
-177.845474
 20
595.108154
 10
-177.845474
 20
595.689941
 10
-177.845474
 20
596.34259
 10
-177.845474
 20
597.063843
 10
-177.845474
 20
597.851379
 10
-177.845474
 20
598.702393
 10
-177.845474
 20
599.613403
 10
-177.845474
 20
600.580994
 10
-177.845474
 20
601.601624
 10
-177.845474
 20
602.671936
 10
-177.845474
 20
603.788086
 10
-177.845474
 20
604.945679
 10
-177.845474
 20
606.140442
 10
-177.845474
 20
607.368103
 10
-177.845474
 20
608.624207
 10
-177.845474
 20
609.904358
 10
-177.845474
 20
611.203735
 10
-177.845474
 20
612.517517
 10
-177.845474
 20
613.840942
 10
-177.845474
 20
615.16925
 10
-177.845474
 20
616.497498
 10
-177.845474
 20
617.820923
 10
-177.845474
 20
619.134766
 10
-177.845474
 20
620.434143
 10
-177.845474
 20
621.714294
 10
-177.845474
 20
622.970459
 10
-177.845474
 20
624.198059
 10
-177.845474
 20
625.392883
 10
-177.845474
 20
626.550537
 10
-177.845474
 20
627.666687
 10
-177.845474
 20
628.737061
 10
-177.845474
 20
629.757751
 10
-177.845474
 20
630.725403
 10
-177.845474
 20
631.636414
 10
-177.845474
 20
632.487488
 10
-177.845474
 20
633.275146
 10
-177.845474
 20
633.99646
 10
-177.845474
 20
634.649109
 10
-177.845474
 20
635.231018
 10
-177.845474
 20
635.739929
 10
-177.845474
 20
636.173645
 10
-177.845474
 20
636.530334
 10
-177.845474
 20
636.809143
 10
-177.845474
 20
637.009216
 10
-177.845474
 20
637.1297
 10
-177.845474
 20
637.169861
  0
LINE
  5
1D4
330
1A8
100
AcDbEntity
  8
0
  6
Continuous
 62
     0
370
    30
100
AcDbLine
 10
-177.84547
 20
637.169832
 30
0.0
 11
-172.39549
 21
637.169832
 31
0.0
  0
LINE
  5
1D5
330
1A8
100
AcDbEntity
  8
0
  6
Continuous
 62
     0
370
    30
100
AcDbLine
 10
-165.29549
 20
637.169832
 30
0.0
 11
-127.84547
 21
637.169832
 31
0.0
  0
LINE
  5
1D6
330
1A8
100
AcDbEntity
  8
0
  6
Continuous
 62
     0
370
    30
100
AcDbLine
 10
-127.84547
 20
593.169813
 30
0.0
 11
-127.84547
 21
637.169832
 31
0.0
  0
LWPOLYLINE
  5
1D7
330
1A8
100
AcDbEntity
  8
0
  6
Continuous
 62
     0
370
     0
100
AcDbPolyline
 90
       23
 70
     0
 43
0.0
 10
-165.295486
 20
637.169861
 10
-165.331528
 20
637.164001
 10
-165.439621
 20
637.147095
 10
-165.61644
 20
637.120483
 10
-165.856308
 20
637.086121
 10
-166.158325
 20
637.047058
 10
-166.5168
 20
637.006287
 10
-166.919647
 20
636.966797
 10
-167.361755
 20
636.932068
 10
-167.835251
 20
636.905029
 10
-168.329391
 20
636.887756
 10
-168.834076
 20
636.88147
 10
-169.339005
 20
636.887207
 10
-169.833801
 20
636.904053
 10
-170.30838
 20
636.930664
 10
-170.752136
 20
636.965149
 10
-171.156906
 20
637.004517
 10
-171.517593
 20
637.045227
 10
-171.822357
 20
637.084473
 10
-172.065048
 20
637.11908
 10
-172.244934
 20
637.146118
 10
-172.356232
 20
637.163513
 10
-172.395493
 20
637.169861
  0
LWPOLYLINE
  5
1D8
330
1A8
100
AcDbEntity
  8
0
  6
Continuous
 62
     0
370
     0
100
AcDbPolyline
 90
       18
 70
     0
 43
0.0
 10
-170.995468
 20
593.1698
 10
-170.958221
 20
593.173401
 10
-170.850113
 20
593.183472
 10
-170.675232
 20
593.198914
 10
-170.437057
 20
593.217346
 10
-170.145447
 20
593.236511
 10
-169.81102
 20
593.253845
 10
-169.441925
 20
593.266968
 10
-169.052414
 20
593.274109
 10
-168.656296
 20
593.274231
 10
-168.266113
 20
593.267395
 10
-167.895737
 20
593.254517
 10
-167.559647
 20
593.237305
 10
-167.265976
 20
593.218201
 10
-167.025055
 20
593.199646
 10
-166.847366
 20
593.184082
 10
-166.736252
 20
593.173706
 10
-166.695496
 20
593.1698
  0
LINE
  5
1D9
330
1A8
100
AcDbEntity
  8
0
  6
Continuous
 62
     0
370
    30
100
AcDbLine
 10
-165.34549
 20
644.819832
 30
0.0
 11
-172.34549
 21
644.819832
 31
0.0
  0
LINE
  5
1DA
330
1A8
100
AcDbEntity
  8
0
  6
Continuous
 62
     0
370
    30
100
AcDbLine
 10
-172.145489
 20
645.019832
 30
0.0
 11
-172.34549
 21
644.819832
 31
0.0
  0
LINE
  5
1DB
330
1A8
100
AcDbEntity
  8
0
  6
Continuous
 62
     0
370
    30
100
AcDbLine
 10
-165.54549
 20
645.019832
 30
0.0
 11
-172.145489
 21
645.019832
 31
0.0
  0
LINE
  5
1DC
330
1A8
100
AcDbEntity
  8
0
  6
Continuous
 62
     0
370
    30
100
AcDbLine
 10
-172.34549
 20
637.169799
 30
0.0
 11
-172.34549
 21
644.819832
 31
0.0
  0
LWPOLYLINE
  5
1DD
330
1A8
100
AcDbEntity
  8
0
  6
Continuous
 62
     0
370
    30
100
AcDbPolyline
 90
       22
 70
     0
 43
0.0
 10
-172.34549
 20
637.1698
 10
-172.306305
 20
637.163574
 10
-172.189621
 20
637.145508
 10
-171.998459
 20
637.117249
 10
-171.737106
 20
637.081299
 10
-171.41153
 20
637.04071
 10
-171.02887
 20
636.999084
 10
-170.597366
 20
636.960266
 10
-170.126358
 20
636.927551
 10
-169.626602
 20
636.903748
 10
-169.109009
 20
636.891357
 10
-168.58519
 20
636.891418
 10
-168.067352
 20
636.903625
 10
-167.567551
 20
636.927307
 10
-167.096558
 20
636.960083
 10
-166.664612
 20
636.99884
 10
-166.281616
 20
637.040405
 10
-165.955658
 20
637.081055
 10
-165.693848
 20
637.117126
 10
-165.502396
 20
637.145325
 10
-165.385376
 20
637.163391
 10
-165.34549
 20
637.1698
  0
LINE
  5
1DE
330
1A8
100
AcDbEntity
  8
0
  6
Continuous
 62
     0
370
    30
100
AcDbLine
 10
-165.34549
 20
644.819832
 30
0.0
 11
-165.54549
 21
645.019832
 31
0.0
  0
LINE
  5
1DF
330
1A8
100
AcDbEntity
  8
0
  6
Continuous
 62
     0
370
    30
100
AcDbLine
 10
-165.34549
 20
644.819832
 30
0.0
 11
-165.34549
 21
637.169799
 31
0.0
  0
LWPOLYLINE
  5
1E0
330
1A8
100
AcDbEntity
  8
0
  6
Continuous
 62
     0
370
    30
100
AcDbPolyline
 90
        3
 70
     0
 43
0.0
 10
-170.995468
 20
593.1698
 10
-168.906921
 20
593.158142
 10
-166.695496
 20
593.1698
  0
LINE
  5
1E1
330
1A8
100
AcDbEntity
  8
0
  6
Continuous
 62
     0
370
    30
100
AcDbLine
 10
-165.29549
 20
637.169832
 30
0.0
 11
-165.345491
 21
637.169799
 31
0.0
  0
LINE
  5
1E2
330
1A8
100
AcDbEntity
  8
0
  6
Continuous
 62
     0
370
    30
100
AcDbLine
 10
-172.39549
 20
637.169832
 30
0.0
 11
-172.34549
 21
637.169799
 31
0.0
  0
LINE
  5
1E3
330
1A8
100
AcDbEntity
  8
0
  6
Continuous
 62
     0
370
    30
100
AcDbLine
 10
-177.84547
 20
593.169813
 30
0.0
 11
-170.995471
 21
593.169813
 31
0.0
  0
LINE
  5
1E4
330
1A8
100
AcDbEntity
  8
0
  6
Continuous
 62
     0
370
    30
100
AcDbLine
 10
-127.84547
 20
593.169813
 30
0.0
 11
-166.695498
 21
593.169813
 31
0.0
  0
LINE
  5
1E5
330
1A8
100
AcDbEntity
  8
0
  6
Continuous
 62
     0
370
    30
100
AcDbLine
 10
-125.64547
 20
595.269823
 30
0.0
 11
-127.84547
 21
595.269823
 31
0.0
  0
LINE
  5
1E6
330
1A8
100
AcDbEntity
  8
0
  6
Continuous
 62
     0
370
    30
100
AcDbLine
 10
-127.84547
 20
635.069823
 30
0.0
 11
-125.64547
 21
635.069823
 31
0.0
  0
LINE
  5
1E7
330
1A8
100
AcDbEntity
  8
0
  6
Continuous
 62
     0
370
    30
100
AcDbLine
 10
-125.64547
 20
670.169823
 30
0.0
 11
-121.64547
 21
670.169823
 31
0.0
  0
LWPOLYLINE
  5
1E8
330
1A8
100
AcDbEntity
  8
0
  6
Continuous
 62
     0
370
    30
100
AcDbPolyline
 90
        9
 70
     0
 43
0.0
 10
-125.645531
 20
862.667908
 10
-125.645531
 20
862.637939
 10
-125.645531
 20
862.549377
 10
-125.645531
 20
862.404602
 10
-125.645531
 20
862.206055
 10
-125.645531
 20
861.956604
 10
-125.645531
 20
861.659119
 10
-125.645531
 20
861.316772
 10
-125.645531
 20
860.870178
  0
LINE
  5
1E9
330
1A8
100
AcDbEntity
  8
0
  6
Continuous
 62
     0
370
    30
100
AcDbLine
 10
-125.645528
 20
860.870163
 30
0.0
 11
-125.645528
 21
807.667913
 31
0.0
  0
LWPOLYLINE
  5
1EA
330
1A8
100
AcDbEntity
  8
0
  6
Continuous
 62
     0
370
    30
100
AcDbPolyline
 90
       55
 70
     0
 43
0.0
 10
-121.645531
 20
807.667908
 10
-121.645531
 20
807.704895
 10
-121.645531
 20
807.817078
 10
-121.645531
 20
808.006226
 10
-121.645531
 20
808.273132
 10
-121.645531
 20
808.618286
 10
-121.645531
 20
809.041321
 10
-121.645531
 20
809.541138
 10
-121.645531
 20
810.11615
 10
-121.645531
 20
810.763977
 10
-121.645531
 20
811.481506
 10
-121.645531
 20
812.26532
 10
-121.645531
 20
813.111145
 10
-121.645531
 20
814.014526
 10
-121.645531
 20
814.97052
 10
-121.645531
 20
815.973755
 10
-121.645531
 20
817.01886
 10
-121.645531
 20
818.100159
 10
-121.645531
 20
819.212036
 10
-121.645531
 20
820.348877
 10
-121.645531
 20
821.505127
 10
-121.645531
 20
822.675415
 10
-121.645531
 20
823.854614
 10
-121.645531
 20
825.037842
 10
-121.645531
 20
826.231873
 10
-121.645531
 20
827.465759
 10
-121.645531
 20
828.738892
 10
-121.645531
 20
830.048279
 10
-121.645531
 20
831.390442
 10
-121.645531
 20
832.761414
 10
-121.645531
 20
834.156616
 10
-121.645531
 20
835.571289
 10
-121.645531
 20
837.0
 10
-121.645531
 20
838.437134
 10
-121.645531
 20
839.876709
 10
-121.645531
 20
841.312622
 10
-121.645531
 20
842.738525
 10
-121.645531
 20
844.148132
 10
-121.645531
 20
845.535034
 10
-121.645531
 20
846.893066
 10
-121.645531
 20
848.216431
 10
-121.645531
 20
849.49939
 10
-121.645531
 20
850.736694
 10
-121.645531
 20
851.923645
 10
-121.645531
 20
853.055969
 10
-121.645531
 20
854.129944
 10
-121.645531
 20
855.142578
 10
-121.645531
 20
856.091309
 10
-121.645531
 20
856.974426
 10
-121.645531
 20
857.790588
 10
-121.645531
 20
858.539246
 10
-121.645531
 20
859.220276
 10
-121.645531
 20
859.834167
 10
-121.645531
 20
860.381897
 10
-121.645531
 20
860.870178
  0
LINE
  5
1EB
330
1A8
100
AcDbEntity
  8
0
  6
Continuous
 62
     0
370
    30
100
AcDbLine
 10
-121.645528
 20
860.870163
 30
0.0
 11
-121.645528
 21
862.667913
 31
0.0
  0
LWPOLYLINE
  5
1EC
330
1A8
100
AcDbEntity
  8
0
  6
Continuous
 62
     0
370
    30
100
AcDbPolyline
 90
       46
 70
     0
 43
0.0
 10
-152.645523
 20
819.167908
 10
-152.645523
 20
819.206848
 10
-152.645523
 20
819.323608
 10
-152.645523
 20
819.517334
 10
-152.645523
 20
819.787109
 10
-152.645523
 20
820.132019
 10
-152.645523
 20
820.550354
 10
-152.645523
 20
821.039612
 10
-152.645523
 20
821.597473
 10
-152.645523
 20
822.221313
 10
-152.645523
 20
822.908569
 10
-152.645523
 20
823.655518
 10
-152.645523
 20
824.458374
 10
-152.645523
 20
825.313171
 10
-152.645523
 20
826.216125
 10
-152.645523
 20
827.162781
 10
-152.645523
 20
828.148376
 10
-152.645523
 20
829.167969
 10
-152.645523
 20
830.216797
 10
-152.645523
 20
831.289795
 10
-152.645523
 20
832.381714
 10
-152.645523
 20
833.487183
 10
-152.645523
 20
834.60083
 10
-152.645523
 20
835.717163
 10
-152.645523
 20
836.830811
 10
-152.645523
 20
837.936462
 10
-152.645523
 20
839.028687
 10
-152.645523
 20
840.102051
 10
-152.645523
 20
841.151245
 10
-152.645523
 20
842.171387
 10
-152.645523
 20
843.157532
 10
-152.645523
 20
844.104858
 10
-152.645523
 20
845.008545
 10
-152.645523
 20
845.864136
 10
-152.645523
 20
846.667847
 10
-152.645523
 20
847.415771
 10
-152.645523
 20
848.103943
 10
-152.645523
 20
848.728882
 10
-152.645523
 20
849.287781
 10
-152.645523
 20
849.778198
 10
-152.645523
 20
850.197693
 10
-152.645523
 20
850.543762
 10
-152.645523
 20
850.814758
 10
-152.645523
 20
851.009705
 10
-152.645523
 20
851.127747
 10
-152.645523
 20
851.167908
  0
LINE
  5
1ED
330
1A8
100
AcDbEntity
  8
0
  6
Continuous
 62
     0
370
    30
100
AcDbLine
 10
-152.645526
 20
819.16791
 30
0.0
 11
-125.645514
 21
819.167913
 31
0.0
  0
LINE
  5
1EE
330
1A8
100
AcDbEntity
  8
0
  6
Continuous
 62
     0
370
    30
100
AcDbLine
 10
-152.645528
 20
840.917912
 30
0.0
 11
-157.545529
 21
840.917912
 31
0.0
  0
LWPOLYLINE
  5
1EF
330
1A8
100
AcDbEntity
  8
0
  6
Continuous
 62
     0
370
    30
100
AcDbPolyline
 90
       38
 70
     0
 43
0.0
 10
-157.545532
 20
846.167908
 10
-157.545532
 20
846.128296
 10
-157.545532
 20
846.009705
 10
-157.545532
 20
845.813171
 10
-157.545532
 20
845.539917
 10
-157.545532
 20
845.191711
 10
-157.545532
 20
844.771484
 10
-157.545532
 20
844.282349
 10
-157.545532
 20
843.727356
 10
-157.545532
 20
843.110535
 10
-157.545532
 20
842.436707
 10
-157.545532
 20
841.710571
 10
-157.545532
 20
840.937195
 10
-157.545532
 20
840.122253
 10
-157.545532
 20
839.271729
 10
-157.545532
 20
838.391663
 10
-157.545532
 20
837.488281
 10
-157.545532
 20
836.568237
 10
-157.545532
 20
835.638062
 10
-157.545532
 20
834.70459
 10
-157.545532
 20
833.774414
 10
-157.545532
 20
832.854248
 10
-157.545532
 20
831.950745
 10
-157.545532
 20
831.070496
 10
-157.545532
 20
830.219727
 10
-157.545532
 20
829.40448
 10
-157.545532
 20
828.630737
 10
-157.545532
 20
827.904297
 10
-157.545532
 20
827.230042
 10
-157.545532
 20
826.612793
 10
-157.545532
 20
826.057312
 10
-157.545532
 20
825.567688
 10
-157.545532
 20
825.146973
 10
-157.545532
 20
824.798218
 10
-157.545532
 20
824.524353
 10
-157.545532
 20
824.327332
 10
-157.545532
 20
824.20813
 10
-157.545532
 20
824.167908
  0
LINE
  5
1F0
330
1A8
100
AcDbEntity
  8
0
  6
Continuous
 62
     0
370
    30
100
AcDbLine
 10
-188.045529
 20
846.167912
 30
0.0
 11
-184.145529
 21
846.167912
 31
0.0
  0
LINE
  5
1F1
330
1A8
100
AcDbEntity
  8
0
  6
Continuous
 62
     0
370
    30
100
AcDbLine
 10
-176.945529
 20
846.167912
 30
0.0
 11
-157.545529
 21
846.167912
 31
0.0
  0
LWPOLYLINE
  5
1F2
330
1A8
100
AcDbEntity
  8
0
  6
Continuous
 62
     0
370
     0
100
AcDbPolyline
 90
       24
 70
     0
 43
0.0
 10
-176.945526
 20
846.167908
 10
-176.978638
 20
846.156738
 10
-177.081329
 20
846.124512
 10
-177.246262
 20
846.073364
 10
-177.470108
 20
846.007141
 10
-177.751572
 20
845.930969
 10
-178.084381
 20
845.849854
 10
-178.460373
 20
845.769287
 10
-178.876068
 20
845.695374
 10
-179.325897
 20
845.633606
 10
-179.800446
 20
845.588867
 10
-180.290039
 20
845.565613
 10
-180.78479
 20
845.565186
 10
-181.274704
 20
845.587769
 10
-181.749878
 20
845.631836
 10
-182.200684
 20
845.693115
 10
-182.617645
 20
845.766724
 10
-182.99498
 20
845.847168
 10
-183.3293
 20
845.928345
 10
-183.612549
 20
846.004761
 10
-183.838348
 20
846.071411
 10
-184.00528
 20
846.123108
 10
-184.110153
 20
846.156006
 10
-184.145523
 20
846.167908
  0
LINE
  5
1F3
330
1A8
100
AcDbEntity
  8
0
  6
Continuous
 62
     0
370
    30
100
AcDbLine
 10
-188.045529
 20
846.167912
 30
0.0
 11
-188.045529
 21
824.167912
 31
0.0
  0
LWPOLYLINE
  5
1F4
330
1A8
100
AcDbEntity
  8
0
  6
Continuous
 62
     0
370
     0
100
AcDbPolyline
 90
       24
 70
     0
 43
0.0
 10
-184.145523
 20
824.167908
 10
-184.112457
 20
824.179077
 10
-184.00972
 20
824.211304
 10
-183.844711
 20
824.262451
 10
-183.620804
 20
824.328674
 10
-183.33934
 20
824.404907
 10
-183.0065
 20
824.486023
 10
-182.630417
 20
824.566528
 10
-182.21463
 20
824.640503
 10
-181.764771
 20
824.702271
 10
-181.290207
 20
824.747009
 10
-180.800583
 20
824.770264
 10
-180.305786
 20
824.77063
 10
-179.815826
 20
824.748047
 10
-179.340622
 20
824.703918
 10
-178.889832
 20
824.642639
 10
-178.4729
 20
824.56897
 10
-178.095581
 20
824.488525
 10
-177.761276
 20
824.40741
 10
-177.478058
 20
824.330933
 10
-177.252335
 20
824.264343
 10
-177.08551
 20
824.212585
 10
-176.980774
 20
824.179749
 10
-176.945526
 20
824.167908
  0
LWPOLYLINE
  5
1F5
330
1A8
100
AcDbEntity
  8
0
  6
Continuous
 62
     0
370
     0
100
AcDbPolyline
 90
       23
 70
     0
 43
0.0
 10
-184.145523
 20
835.167908
 10
-184.109161
 20
835.682739
 10
-183.996872
 20
836.187561
 10
-183.816925
 20
836.669739
 10
-183.572617
 20
837.118774
 10
-183.266022
 20
837.525757
 10
-182.905457
 20
837.885254
 10
-182.498993
 20
838.191772
 10
-182.050369
 20
838.438354
 10
-181.56813
 20
838.619446
 10
-181.063263
 20
838.730286
 10
-180.54689
 20
838.767395
 10
-180.030487
 20
838.730591
 10
-179.525482
 20
838.620178
 10
-179.043076
 20
838.439514
 10
-178.594254
 20
838.193298
 10
-178.187607
 20
837.886963
 10
-177.826782
 20
837.527771
 10
-177.519836
 20
837.121033
 10
-177.275177
 20
836.672241
 10
-177.09491
 20
836.190186
 10
-176.982285
 20
835.685425
 10
-176.945526
 20
835.167053
  0
LWPOLYLINE
  5
1F6
330
1A8
100
AcDbEntity
  8
0
  6
Continuous
 62
     0
370
     0
100
AcDbPolyline
 90
       23
 70
     0
 43
0.0
 10
-176.945526
 20
835.167053
 10
-176.981995
 20
834.652344
 10
-177.094315
 20
834.147583
 10
-177.274307
 20
833.665527
 10
-177.518661
 20
833.216614
 10
-177.825287
 20
832.809753
 10
-178.185852
 20
832.450378
 10
-178.592224
 20
832.14386
 10
-179.040787
 20
831.897339
 10
-179.52298
 20
831.71637
 10
-180.027802
 20
831.605591
 10
-180.544098
 20
831.56842
 10
-181.06041
 20
831.605225
 10
-181.565323
 20
831.715576
 10
-182.047684
 20
831.896179
 10
-182.49646
 20
832.142334
 10
-182.903107
 20
832.448547
 10
-183.263901
 20
832.807617
 10
-183.570831
 20
833.214294
 10
-183.815521
 20
833.662964
 10
-183.995865
 20
834.144897
 10
-184.108627
 20
834.649536
 10
-184.145523
 20
835.167908
  0
ARC
  5
1F7
330
1A8
100
AcDbEntity
  8
0
  6
Continuous
 62
     0
370
    30
100
AcDbCircle
 10
-174.945555
 20
811.566713
 30
0.0
 40
12.63872873019698
100
AcDbArc
 50
85.583477
 51
94.416523
  0
LWPOLYLINE
  5
1F8
330
1A8
100
AcDbEntity
  8
0
  6
Continuous
 62
     0
370
    30
100
AcDbPolyline
 90
       23
 70
     0
 43
0.0
 10
-177.045532
 20
824.167908
 10
-177.081528
 20
824.179321
 10
-177.188416
 20
824.212524
 10
-177.363403
 20
824.264893
 10
-177.602142
 20
824.332153
 10
-177.899445
 20
824.409119
 10
-178.249451
 20
824.489807
 10
-178.645828
 20
824.567932
 10
-179.081482
 20
824.637329
 10
-179.548416
 20
824.692017
 10
-180.037354
 20
824.727173
 10
-180.537735
 20
824.739563
 10
-181.038315
 20
824.727966
 10
-181.527802
 20
824.69342
 10
-181.995392
 20
824.639221
 10
-182.4319
 20
824.570129
 10
-182.829773
 20
824.492249
 10
-183.181564
 20
824.411621
 10
-183.48056
 20
824.334412
 10
-183.721161
 20
824.266785
 10
-183.898209
 20
824.213928
 10
-184.007294
 20
824.179993
 10
-184.045502
 20
824.167908
  0
LWPOLYLINE
  5
1F9
330
1A8
100
AcDbEntity
  8
0
  6
Continuous
 62
     0
370
    30
100
AcDbPolyline
 90
       19
 70
     0
 43
0.0
 10
-184.045547
 20
846.167908
 10
-184.00914
 20
846.156311
 10
-183.901337
 20
846.122681
 10
-183.725418
 20
846.070251
 10
-183.485062
 20
846.002625
 10
-183.185776
 20
845.925232
 10
-182.833679
 20
845.844299
 10
-182.434982
 20
845.766052
 10
-181.996857
 20
845.696777
 10
-181.527512
 20
845.642395
 10
-181.036346
 20
845.607788
 10
-180.534012
 20
845.596252
 10
-180.031937
 20
845.608887
 10
-179.54155
 20
845.64447
 10
-179.073395
 20
845.699646
 10
-178.636993
 20
845.76947
 10
-178.240295
 20
845.848022
 10
-177.890244
 20
845.928955
 10
-177.587814
 20
846.007568
  0
LWPOLYLINE
  5
1FA
330
1A8
100
AcDbEntity
  8
0
  6
Continuous
 62
     0
370
    30
100
AcDbPolyline
 90
        5
 70
     0
 43
0.0
 10
-177.587814
 20
846.007568
 10
-177.358002
 20
846.07251
 10
-177.188614
 20
846.123169
 10
-177.083618
 20
846.155823
 10
-177.045532
 20
846.167908
  0
LINE
  5
1FB
330
1A8
100
AcDbEntity
  8
0
  6
Continuous
 62
     0
370
    30
100
AcDbLine
 10
-177.045557
 20
800.067908
 30
0.0
 11
-181.227259
 21
800.067908
 31
0.0
  0
LINE
  5
1FC
330
1A8
100
AcDbEntity
  8
0
  6
Continuous
 62
     0
370
    30
100
AcDbLine
 10
-181.227259
 20
800.067908
 30
0.0
 11
-184.045494
 21
800.067908
 31
0.0
  0
ARC
  5
1FD
330
1A8
100
AcDbEntity
  8
0
  6
Continuous
 62
     0
370
    30
100
AcDbCircle
 10
-180.545486
 20
835.167935
 30
0.0
 40
3.500000000324053
100
AcDbArc
 50
301.467639
 51
121.469198
  0
ARC
  5
1FE
330
1A8
100
AcDbEntity
  8
0
  6
Continuous
 62
     0
370
    30
100
AcDbCircle
 10
-180.545568
 20
835.167885
 30
0.0
 40
3.500000000324038
100
AcDbArc
 50
121.467639
 51
301.469198
  0
LINE
  5
1FF
330
1A8
100
AcDbEntity
  8
0
  6
Continuous
 62
     0
370
    30
100
AcDbLine
 10
-177.587809
 20
870.267943
 30
0.0
 11
-177.045515
 21
870.267943
 31
0.0
  0
LWPOLYLINE
  5
200
330
1A8
100
AcDbEntity
  8
0
  6
Continuous
 62
     0
370
    30
100
AcDbPolyline
 90
       19
 70
     0
 43
0.0
 10
-184.045532
 20
870.267944
 10
-184.009811
 20
870.267944
 10
-183.903625
 20
870.267944
 10
-183.729218
 20
870.267944
 10
-183.489975
 20
870.267944
 10
-183.190979
 20
870.267944
 10
-182.838058
 20
870.267944
 10
-182.438644
 20
870.267944
 10
-182.000641
 20
870.267944
 10
-181.533112
 20
870.267944
 10
-181.045486
 20
870.267944
 10
-180.547668
 20
870.267944
 10
-180.049835
 20
870.267944
 10
-179.562057
 20
870.267944
 10
-179.094284
 20
870.267944
 10
-178.656052
 20
870.267944
 10
-178.25618
 20
870.267944
 10
-177.902939
 20
870.267944
 10
-177.587814
 20
870.267944
  0
LINE
  5
201
330
1A8
100
AcDbEntity
  8
0
  6
Continuous
 62
     0
370
    30
100
AcDbLine
 10
-177.045525
 20
870.267943
 30
0.0
 11
-177.045525
 21
846.167865
 31
0.0
  0
LINE
  5
202
330
1A8
100
AcDbEntity
  8
0
  6
Continuous
 62
     0
370
    30
100
AcDbLine
 10
-184.045525
 20
846.16787
 30
0.0
 11
-184.045525
 21
870.267943
 31
0.0
  0
LINE
  5
203
330
1A8
100
AcDbEntity
  8
0
  6
Continuous
 62
     0
370
    30
100
AcDbLine
 10
-177.045525
 20
800.067908
 30
0.0
 11
-177.045525
 21
824.167913
 31
0.0
  0
LINE
  5
204
330
1A8
100
AcDbEntity
  8
0
  6
Continuous
 62
     0
370
    30
100
AcDbLine
 10
-184.045525
 20
824.167912
 30
0.0
 11
-184.045525
 21
800.067908
 31
0.0
  0
LINE
  5
205
330
1A8
100
AcDbEntity
  8
0
  6
Continuous
 62
     0
370
    30
100
AcDbLine
 10
-184.145529
 20
846.167912
 30
0.0
 11
-184.045334
 21
846.167912
 31
0.0
  0
LINE
  5
206
330
1A8
100
AcDbEntity
  8
0
  6
Continuous
 62
     0
370
    30
100
AcDbLine
 10
-176.945529
 20
846.167912
 30
0.0
 11
-177.045786
 21
846.167912
 31
0.0
  0
LINE
  5
207
330
1A8
100
AcDbEntity
  8
0
  6
Continuous
 62
     0
370
    30
100
AcDbLine
 10
-184.145529
 20
824.167912
 30
0.0
 11
-184.045346
 21
824.167912
 31
0.0
  0
LINE
  5
208
330
1A8
100
AcDbEntity
  8
0
  6
Continuous
 62
     0
370
    30
100
AcDbLine
 10
-157.545529
 20
824.167912
 30
0.0
 11
-173.97229
 21
824.167912
 31
0.0
  0
LINE
  5
209
330
1A8
100
AcDbEntity
  8
0
  6
Continuous
 62
     0
370
    30
100
AcDbLine
 10
-188.045529
 20
824.167912
 30
0.0
 11
-184.145529
 21
824.167912
 31
0.0
  0
LINE
  5
20A
330
1A8
100
AcDbEntity
  8
0
  6
Continuous
 62
     0
370
    30
100
AcDbLine
 10
-176.945522
 20
824.167912
 30
0.0
 11
-175.91882
 21
824.167912
 31
0.0
  0
LINE
  5
20B
330
1A8
100
AcDbEntity
  8
0
  6
Continuous
 62
     0
370
    30
100
AcDbLine
 10
-157.545529
 20
829.417912
 30
0.0
 11
-152.645528
 21
829.417912
 31
0.0
  0
LINE
  5
20C
330
1A8
100
AcDbEntity
  8
0
  6
Continuous
 62
     0
370
    30
100
AcDbLine
 10
-152.645529
 20
851.16791
 30
0.0
 11
-125.645517
 21
851.167913
 31
0.0
  0
LINE
  5
20D
330
1A8
100
AcDbEntity
  8
0
  6
Continuous
 62
     0
370
    30
100
AcDbLine
 10
-125.645528
 20
862.667913
 30
0.0
 11
-121.645528
 21
862.667913
 31
0.0
  0
LINE
  5
20E
330
1A8
100
AcDbEntity
  8
0
  6
Continuous
 62
     0
370
    30
100
AcDbLine
 10
-125.645528
 20
807.667913
 30
0.0
 11
-121.645528
 21
807.667913
 31
0.0
  0
LWPOLYLINE
  5
20F
330
1A8
100
AcDbEntity
  8
0
  6
Continuous
 62
     0
370
    30
100
AcDbPolyline
 90
        9
 70
     0
 43
0.0
 10
-125.645569
 20
962.667053
 10
-125.645569
 20
962.637085
 10
-125.645569
 20
962.548523
 10
-125.645569
 20
962.403748
 10
-125.645569
 20
962.2052
 10
-125.645569
 20
961.95575
 10
-125.645569
 20
961.658264
 10
-125.645569
 20
961.315918
 10
-125.645576
 20
960.869324
  0
LINE
  5
210
330
1A8
100
AcDbEntity
  8
0
  6
Continuous
 62
     0
370
    30
100
AcDbLine
 10
-125.645573
 20
960.869295
 30
0.0
 11
-125.645572
 21
907.667045
 31
0.0
  0
LWPOLYLINE
  5
211
330
1A8
100
AcDbEntity
  8
0
  6
Continuous
 62
     0
370
    30
100
AcDbPolyline
 90
       55
 70
     0
 43
0.0
 10
-121.645569
 20
907.667053
 10
-121.645569
 20
907.703979
 10
-121.645569
 20
907.816223
 10
-121.645569
 20
908.00531
 10
-121.645569
 20
908.272278
 10
-121.645569
 20
908.617432
 10
-121.645569
 20
909.040466
 10
-121.645576
 20
909.540283
 10
-121.645576
 20
910.115295
 10
-121.645576
 20
910.763062
 10
-121.645576
 20
911.480652
 10
-121.645576
 20
912.264404
 10
-121.645576
 20
913.110291
 10
-121.645576
 20
914.013672
 10
-121.645576
 20
914.969604
 10
-121.645576
 20
915.9729
 10
-121.645576
 20
917.018005
 10
-121.645576
 20
918.099304
 10
-121.645576
 20
919.211182
 10
-121.645576
 20
920.348022
 10
-121.645576
 20
921.504211
 10
-121.645576
 20
922.6745
 10
-121.645576
 20
923.85376
 10
-121.645576
 20
925.036987
 10
-121.645576
 20
926.231018
 10
-121.645576
 20
927.464905
 10
-121.645576
 20
928.738037
 10
-121.645576
 20
930.047424
 10
-121.645576
 20
931.389587
 10
-121.645576
 20
932.760498
 10
-121.645576
 20
934.155762
 10
-121.645576
 20
935.570374
 10
-121.645576
 20
936.999146
 10
-121.645576
 20
938.436279
 10
-121.645576
 20
939.875854
 10
-121.645576
 20
941.311768
 10
-121.645576
 20
942.737671
 10
-121.645576
 20
944.147217
 10
-121.645576
 20
945.534119
 10
-121.645576
 20
946.892212
 10
-121.645576
 20
948.215576
 10
-121.645576
 20
949.498474
 10
-121.645576
 20
950.73584
 10
-121.645576
 20
951.922729
 10
-121.645576
 20
953.055054
 10
-121.645576
 20
954.129089
 10
-121.645576
 20
955.141663
 10
-121.645576
 20
956.090454
 10
-121.645576
 20
956.973572
 10
-121.645576
 20
957.789734
 10
-121.645576
 20
958.53833
 10
-121.645576
 20
959.219421
 10
-121.645576
 20
959.833313
 10
-121.645576
 20
960.380981
 10
-121.645576
 20
960.869324
  0
LINE
  5
212
330
1A8
100
AcDbEntity
  8
0
  6
Continuous
 62
     0
370
    30
100
AcDbLine
 10
-121.645573
 20
960.869295
 30
0.0
 11
-121.645572
 21
962.667045
 31
0.0
  0
LWPOLYLINE
  5
213
330
1A8
100
AcDbEntity
  8
0
  6
Continuous
 62
     0
370
    30
100
AcDbPolyline
 90
       46
 70
     0
 43
0.0
 10
-152.645569
 20
919.167053
 10
-152.645569
 20
919.205933
 10
-152.645569
 20
919.322754
 10
-152.645569
 20
919.516479
 10
-152.645569
 20
919.786255
 10
-152.645569
 20
920.131165
 10
-152.645569
 20
920.549438
 10
-152.645569
 20
921.038757
 10
-152.645569
 20
921.596619
 10
-152.645569
 20
922.220459
 10
-152.645569
 20
922.907715
 10
-152.645569
 20
923.654663
 10
-152.645569
 20
924.45752
 10
-152.645569
 20
925.312317
 10
-152.645569
 20
926.215271
 10
-152.645569
 20
927.161926
 10
-152.645569
 20
928.147522
 10
-152.645569
 20
929.167114
 10
-152.645569
 20
930.215942
 10
-152.645569
 20
931.28894
 10
-152.645569
 20
932.380859
 10
-152.645569
 20
933.486328
 10
-152.645569
 20
934.599915
 10
-152.645569
 20
935.716309
 10
-152.645569
 20
936.829956
 10
-152.645569
 20
937.935608
 10
-152.645569
 20
939.027832
 10
-152.645569
 20
940.101196
 10
-152.645569
 20
941.150391
 10
-152.645569
 20
942.170532
 10
-152.645569
 20
943.156677
 10
-152.645569
 20
944.104004
 10
-152.645569
 20
945.00769
 10
-152.645569
 20
945.863281
 10
-152.645569
 20
946.666992
 10
-152.645569
 20
947.414856
 10
-152.645569
 20
948.103088
 10
-152.645569
 20
948.728027
 10
-152.645569
 20
949.286926
 10
-152.645569
 20
949.777344
 10
-152.645569
 20
950.196777
 10
-152.645569
 20
950.542908
 10
-152.645569
 20
950.813904
 10
-152.645569
 20
951.00885
 10
-152.645569
 20
951.126892
 10
-152.645569
 20
951.167053
  0
LINE
  5
214
330
1A8
100
AcDbEntity
  8
0
  6
Continuous
 62
     0
370
    30
100
AcDbLine
 10
-152.645571
 20
919.167042
 30
0.0
 11
-125.645559
 21
919.167045
 31
0.0
  0
LINE
  5
215
330
1A8
100
AcDbEntity
  8
0
  6
Continuous
 62
     0
370
    30
100
AcDbLine
 10
-152.645573
 20
940.917044
 30
0.0
 11
-157.545574
 21
940.917044
 31
0.0
  0
LWPOLYLINE
  5
216
330
1A8
100
AcDbEntity
  8
0
  6
Continuous
 62
     0
370
    30
100
AcDbPolyline
 90
       38
 70
     0
 43
0.0
 10
-157.545578
 20
946.167053
 10
-157.545578
 20
946.127441
 10
-157.545578
 20
946.008789
 10
-157.545578
 20
945.812317
 10
-157.545578
 20
945.539062
 10
-157.545578
 20
945.190857
 10
-157.545578
 20
944.77063
 10
-157.545578
 20
944.281494
 10
-157.545578
 20
943.72644
 10
-157.545578
 20
943.109619
 10
-157.545578
 20
942.435791
 10
-157.545578
 20
941.709717
 10
-157.545578
 20
940.93634
 10
-157.545578
 20
940.121338
 10
-157.545578
 20
939.270874
 10
-157.545578
 20
938.390808
 10
-157.545578
 20
937.487427
 10
-157.545578
 20
936.567322
 10
-157.545578
 20
935.637207
 10
-157.545578
 20
934.703735
 10
-157.545578
 20
933.77356
 10
-157.545578
 20
932.853394
 10
-157.545578
 20
931.949829
 10
-157.545578
 20
931.069641
 10
-157.545578
 20
930.218872
 10
-157.545578
 20
929.403625
 10
-157.545578
 20
928.629883
 10
-157.545578
 20
927.903442
 10
-157.545578
 20
927.229187
 10
-157.545578
 20
926.611938
 10
-157.545578
 20
926.056458
 10
-157.545578
 20
925.566833
 10
-157.545578
 20
925.146057
 10
-157.545578
 20
924.797302
 10
-157.545578
 20
924.523499
 10
-157.545578
 20
924.326416
 10
-157.545578
 20
924.207214
 10
-157.545578
 20
924.167053
  0
LINE
  5
217
330
1A8
100
AcDbEntity
  8
0
  6
Continuous
 62
     0
370
    30
100
AcDbLine
 10
-188.045574
 20
946.167044
 30
0.0
 11
-184.145574
 21
946.167044
 31
0.0
  0
LINE
  5
218
330
1A8
100
AcDbEntity
  8
0
  6
Continuous
 62
     0
370
    30
100
AcDbLine
 10
-176.945574
 20
946.167044
 30
0.0
 11
-157.545574
 21
946.167044
 31
0.0
  0
LWPOLYLINE
  5
219
330
1A8
100
AcDbEntity
  8
0
  6
Continuous
 62
     0
370
     0
100
AcDbPolyline
 90
       24
 70
     0
 43
0.0
 10
-176.945572
 20
946.167053
 10
-176.978683
 20
946.155884
 10
-177.08136
 20
946.123657
 10
-177.246292
 20
946.07251
 10
-177.470154
 20
946.006287
 10
-177.751617
 20
945.930054
 10
-178.084427
 20
945.848999
 10
-178.460419
 20
945.768433
 10
-178.876114
 20
945.694458
 10
-179.325943
 20
945.632751
 10
-179.800476
 20
945.588013
 10
-180.29007
 20
945.564697
 10
-180.784836
 20
945.564331
 10
-181.27475
 20
945.586853
 10
-181.749924
 20
945.630981
 10
-182.200729
 20
945.6922
 10
-182.617691
 20
945.765869
 10
-182.995026
 20
945.846313
 10
-183.329346
 20
945.927429
 10
-183.612595
 20
946.003906
 10
-183.838379
 20
946.070557
 10
-184.005325
 20
946.122253
 10
-184.110184
 20
946.155151
 10
-184.145569
 20
946.167053
  0
LINE
  5
21A
330
1A8
100
AcDbEntity
  8
0
  6
Continuous
 62
     0
370
    30
100
AcDbLine
 10
-188.045574
 20
946.167044
 30
0.0
 11
-188.045574
 21
924.167044
 31
0.0
  0
LWPOLYLINE
  5
21B
330
1A8
100
AcDbEntity
  8
0
  6
Continuous
 62
     0
370
     0
100
AcDbPolyline
 90
       24
 70
     0
 43
0.0
 10
-184.145569
 20
924.167053
 10
-184.112503
 20
924.178223
 10
-184.009766
 20
924.210449
 10
-183.844757
 20
924.261597
 10
-183.62085
 20
924.32782
 10
-183.339386
 20
924.404053
 10
-183.006546
 20
924.485107
 10
-182.630463
 20
924.565674
 10
-182.214676
 20
924.639648
 10
-181.764816
 20
924.701416
 10
-181.290253
 20
924.746094
 10
-180.800629
 20
924.769409
 10
-180.305832
 20
924.769714
 10
-179.815872
 20
924.747192
 10
-179.340668
 20
924.703064
 10
-178.889877
 20
924.641785
 10
-178.472946
 20
924.568115
 10
-178.095627
 20
924.487671
 10
-177.761322
 20
924.406494
 10
-177.478104
 20
924.330078
 10
-177.25238
 20
924.263489
 10
-177.085556
 20
924.211731
 10
-176.98082
 20
924.178894
 10
-176.945572
 20
924.167053
  0
LWPOLYLINE
  5
21C
330
1A8
100
AcDbEntity
  8
0
  6
Continuous
 62
     0
370
     0
100
AcDbPolyline
 90
       23
 70
     0
 43
0.0
 10
-184.145569
 20
935.167053
 10
-184.109192
 20
935.681824
 10
-183.996918
 20
936.186707
 10
-183.816971
 20
936.668884
 10
-183.572647
 20
937.11792
 10
-183.266068
 20
937.524902
 10
-182.905502
 20
937.884338
 10
-182.499023
 20
938.190918
 10
-182.050415
 20
938.4375
 10
-181.568176
 20
938.618591
 10
-181.063309
 20
938.72937
 10
-180.546936
 20
938.766541
 10
-180.030533
 20
938.729736
 10
-179.525528
 20
938.619324
 10
-179.043106
 20
938.43866
 10
-178.594299
 20
938.192383
 10
-178.187653
 20
937.886108
 10
-177.826813
 20
937.526917
 10
-177.519882
 20
937.120178
 10
-177.275223
 20
936.671326
 10
-177.094955
 20
936.189331
 10
-176.98233
 20
935.68457
 10
-176.945572
 20
935.166199
  0
LWPOLYLINE
  5
21D
330
1A8
100
AcDbEntity
  8
0
  6
Continuous
 62
     0
370
     0
100
AcDbPolyline
 90
       23
 70
     0
 43
0.0
 10
-176.945572
 20
935.166199
 10
-176.98204
 20
934.651489
 10
-177.09436
 20
934.146729
 10
-177.274353
 20
933.664673
 10
-177.518707
 20
933.215759
 10
-177.825333
 20
932.808899
 10
-178.185898
 20
932.449524
 10
-178.59227
 20
932.143005
 10
-179.040817
 20
931.896484
 10
-179.523026
 20
931.715515
 10
-180.027847
 20
931.604736
 10
-180.544144
 20
931.567566
 10
-181.060455
 20
931.604309
 10
-181.565369
 20
931.714661
 10
-182.047729
 20
931.895325
 10
-182.496506
 20
932.141479
 10
-182.903152
 20
932.447632
 10
-183.263947
 20
932.806763
 10
-183.570877
 20
933.213379
 10
-183.815567
 20
933.662109
 10
-183.995911
 20
934.144043
 10
-184.108673
 20
934.648682
 10
-184.145569
 20
935.167053
  0
ARC
  5
21E
330
1A8
100
AcDbEntity
  8
0
  6
Continuous
 62
     0
370
    30
100
AcDbCircle
 10
-174.9456
 20
911.565845
 30
0.0
 40
12.63872873033363
100
AcDbArc
 50
85.583477
 51
94.416523
  0
LWPOLYLINE
  5
21F
330
1A8
100
AcDbEntity
  8
0
  6
Continuous
 62
     0
370
    30
100
AcDbPolyline
 90
       23
 70
     0
 43
0.0
 10
-177.045578
 20
924.167053
 10
-177.081573
 20
924.178467
 10
-177.188461
 20
924.21167
 10
-177.363449
 20
924.264038
 10
-177.602188
 20
924.331299
 10
-177.89949
 20
924.408264
 10
-178.249496
 20
924.488953
 10
-178.645874
 20
924.567078
 10
-179.081528
 20
924.636475
 10
-179.548462
 20
924.691162
 10
-180.037399
 20
924.726318
 10
-180.537781
 20
924.738708
 10
-181.038361
 20
924.727051
 10
-181.527847
 20
924.692566
 10
-181.995438
 20
924.638367
 10
-182.431946
 20
924.569275
 10
-182.829819
 20
924.491333
 10
-183.18161
 20
924.410767
 10
-183.480606
 20
924.333557
 10
-183.721207
 20
924.26593
 10
-183.898254
 20
924.213013
 10
-184.007324
 20
924.179138
 10
-184.045547
 20
924.167053
  0
LWPOLYLINE
  5
220
330
1A8
100
AcDbEntity
  8
0
  6
Continuous
 62
     0
370
    30
100
AcDbPolyline
 90
       19
 70
     0
 43
0.0
 10
-184.045593
 20
946.167053
 10
-184.009186
 20
946.155396
 10
-183.901382
 20
946.121826
 10
-183.725464
 20
946.069397
 10
-183.485107
 20
946.001709
 10
-183.185822
 20
945.924377
 10
-182.833725
 20
945.843445
 10
-182.435028
 20
945.765198
 10
-181.996902
 20
945.695862
 10
-181.527557
 20
945.641479
 10
-181.036377
 20
945.606934
 10
-180.534058
 20
945.595398
 10
-180.031982
 20
945.608032
 10
-179.541595
 20
945.643616
 10
-179.073441
 20
945.698792
 10
-178.637039
 20
945.768616
 10
-178.240341
 20
945.847168
 10
-177.890289
 20
945.928101
 10
-177.58786
 20
946.006714
  0
LWPOLYLINE
  5
221
330
1A8
100
AcDbEntity
  8
0
  6
Continuous
 62
     0
370
    30
100
AcDbPolyline
 90
        5
 70
     0
 43
0.0
 10
-177.58786
 20
946.006714
 10
-177.358047
 20
946.071655
 10
-177.18866
 20
946.122314
 10
-177.083664
 20
946.154968
 10
-177.045578
 20
946.167053
  0
LINE
  5
222
330
1A8
100
AcDbEntity
  8
0
  6
Continuous
 62
     0
370
    30
100
AcDbLine
 10
-177.045601
 20
900.06704
 30
0.0
 11
-181.227304
 21
900.06704
 31
0.0
  0
LINE
  5
223
330
1A8
100
AcDbEntity
  8
0
  6
Continuous
 62
     0
370
    30
100
AcDbLine
 10
-181.227304
 20
900.06704
 30
0.0
 11
-184.045539
 21
900.06704
 31
0.0
  0
ARC
  5
224
330
1A8
100
AcDbEntity
  8
0
  6
Continuous
 62
     0
370
    30
100
AcDbCircle
 10
-180.545531
 20
935.167067
 30
0.0
 40
3.500000000324053
100
AcDbArc
 50
301.467639
 51
121.469198
  0
ARC
  5
225
330
1A8
100
AcDbEntity
  8
0
  6
Continuous
 62
     0
370
    30
100
AcDbCircle
 10
-180.545612
 20
935.167017
 30
0.0
 40
3.500000000324053
100
AcDbArc
 50
121.467639
 51
301.469198
  0
LINE
  5
226
330
1A8
100
AcDbEntity
  8
0
  6
Continuous
 62
     0
370
    30
100
AcDbLine
 10
-177.587854
 20
970.267075
 30
0.0
 11
-177.04556
 21
970.267075
 31
0.0
  0
LWPOLYLINE
  5
227
330
1A8
100
AcDbEntity
  8
0
  6
Continuous
 62
     0
370
    30
100
AcDbPolyline
 90
       19
 70
     0
 43
0.0
 10
-184.045578
 20
970.26709
 10
-184.009857
 20
970.26709
 10
-183.903671
 20
970.26709
 10
-183.729263
 20
970.26709
 10
-183.490021
 20
970.26709
 10
-183.191025
 20
970.26709
 10
-182.838104
 20
970.26709
 10
-182.43869
 20
970.26709
 10
-182.000687
 20
970.26709
 10
-181.533157
 20
970.26709
 10
-181.045517
 20
970.26709
 10
-180.547714
 20
970.26709
 10
-180.049881
 20
970.26709
 10
-179.562103
 20
970.26709
 10
-179.09433
 20
970.26709
 10
-178.656097
 20
970.26709
 10
-178.256226
 20
970.26709
 10
-177.902969
 20
970.26709
 10
-177.58786
 20
970.26709
  0
LINE
  5
228
330
1A8
100
AcDbEntity
  8
0
  6
Continuous
 62
     0
370
    30
100
AcDbLine
 10
-177.04557
 20
970.267075
 30
0.0
 11
-177.04557
 21
946.166997
 31
0.0
  0
LINE
  5
229
330
1A8
100
AcDbEntity
  8
0
  6
Continuous
 62
     0
370
    30
100
AcDbLine
 10
-184.04557
 20
946.167002
 30
0.0
 11
-184.04557
 21
970.267075
 31
0.0
  0
LINE
  5
22A
330
1A8
100
AcDbEntity
  8
0
  6
Continuous
 62
     0
370
    30
100
AcDbLine
 10
-177.04557
 20
900.06704
 30
0.0
 11
-177.04557
 21
924.167045
 31
0.0
  0
LINE
  5
22B
330
1A8
100
AcDbEntity
  8
0
  6
Continuous
 62
     0
370
    30
100
AcDbLine
 10
-184.04557
 20
924.167044
 30
0.0
 11
-184.04557
 21
900.06704
 31
0.0
  0
LINE
  5
22C
330
1A8
100
AcDbEntity
  8
0
  6
Continuous
 62
     0
370
    30
100
AcDbLine
 10
-184.145574
 20
946.167044
 30
0.0
 11
-184.045378
 21
946.167044
 31
0.0
  0
LINE
  5
22D
330
1A8
100
AcDbEntity
  8
0
  6
Continuous
 62
     0
370
    30
100
AcDbLine
 10
-176.945574
 20
946.167044
 30
0.0
 11
-177.045831
 21
946.167044
 31
0.0
  0
LINE
  5
22E
330
1A8
100
AcDbEntity
  8
0
  6
Continuous
 62
     0
370
    30
100
AcDbLine
 10
-184.145574
 20
924.167044
 30
0.0
 11
-184.045391
 21
924.167044
 31
0.0
  0
LINE
  5
22F
330
1A8
100
AcDbEntity
  8
0
  6
Continuous
 62
     0
370
    30
100
AcDbLine
 10
-157.545574
 20
924.167044
 30
0.0
 11
-173.972335
 21
924.167044
 31
0.0
  0
LINE
  5
230
330
1A8
100
AcDbEntity
  8
0
  6
Continuous
 62
     0
370
    30
100
AcDbLine
 10
-188.045574
 20
924.167044
 30
0.0
 11
-184.145574
 21
924.167044
 31
0.0
  0
LINE
  5
231
330
1A8
100
AcDbEntity
  8
0
  6
Continuous
 62
     0
370
    30
100
AcDbLine
 10
-176.945566
 20
924.167044
 30
0.0
 11
-175.918865
 21
924.167044
 31
0.0
  0
LINE
  5
232
330
1A8
100
AcDbEntity
  8
0
  6
Continuous
 62
     0
370
    30
100
AcDbLine
 10
-157.545574
 20
929.417044
 30
0.0
 11
-152.645573
 21
929.417044
 31
0.0
  0
LINE
  5
233
330
1A8
100
AcDbEntity
  8
0
  6
Continuous
 62
     0
370
    30
100
AcDbLine
 10
-152.645574
 20
951.167042
 30
0.0
 11
-125.645561
 21
951.167045
 31
0.0
  0
LINE
  5
234
330
1A8
100
AcDbEntity
  8
0
  6
Continuous
 62
     0
370
    30
100
AcDbLine
 10
-125.645572
 20
962.667045
 30
0.0
 11
-121.645572
 21
962.667045
 31
0.0
  0
LINE
  5
235
330
1A8
100
AcDbEntity
  8
0
  6
Continuous
 62
     0
370
    30
100
AcDbLine
 10
-125.645572
 20
907.667045
 30
0.0
 11
-121.645572
 21
907.667045
 31
0.0
  0
ENDBLK
  5
237
330
1A8
100
AcDbEntity
  8
0
100
AcDbBlockEnd
  0
ENDSEC
  0
SECTION
  2
ENTITIES
  0
INSERT
  5
DE
330
1F
100
AcDbEntity
  8
0
  6
Continuous
 62
     7
370
     0
100
AcDbBlockReference
  2
a
 10
14.163387
 20
94.761726
 30
0.0
  0
INSERT
  5
116
330
1F
100
AcDbEntity
  8
0
  6
Continuous
 62
     7
370
     0
100
AcDbBlockReference
  2
b
 10
14.163387
 20
354.288826
 30
0.0
  0
INSERT
  5
1A7
330
1F
100
AcDbEntity
  8
0
  6
Continuous
 62
     7
370
     0
100
AcDbBlockReference
  2
c
 10
61.59399
 20
94.761726
 30
0.0
  0
INSERT
  5
238
330
1F
100
AcDbEntity
  8
0
  6
Continuous
 62
     7
370
     0
100
AcDbBlockReference
  2
d
 10
-87.047127
 20
0.0
 30
0.0
  0
ENDSEC
  0
SECTION
  2
OBJECTS
  0
DICTIONARY
  5
C
330
0
100
AcDbDictionary
281
     1
  3
ACAD_GROUP
350
D
  3
ACAD_LAYOUT
350
1A
  3
ACAD_MATERIAL
350
43
  3
ACAD_MLEADERSTYLE
350
6B
  3
ACAD_MLINESTYLE
350
17
  3
ACAD_PLOTSETTINGS
350
19
  3
ACAD_PLOTSTYLENAME
350
E
  3
ACAD_SCALELIST
350
47
  3
ACAD_TABLESTYLE
350
69
  3
ACAD_VISUALSTYLE
350
2A
  3
AcDbVariableDictionary
350
239
  0
DICTIONARY
  5
244
330
8
100
AcDbDictionary
280
     1
281
     1
  3
ACAD_XREC_ROUNDTRIP
360
245
  0
DICTIONARY
  5
D
102
{ACAD_REACTORS
330
C
102
}
330
C
100
AcDbDictionary
281
     1
  0
DICTIONARY
  5
1A
102
{ACAD_REACTORS
330
C
102
}
330
C
100
AcDbDictionary
281
     1
  3
Layout1
350
1E
  3
Layout2
350
26
  3
Model
350
22
  0
DICTIONARY
  5
43
102
{ACAD_REACTORS
330
C
102
}
330
C
100
AcDbDictionary
281
     1
  3
ByBlock
350
45
  3
ByLayer
350
44
  3
Global
350
46
  0
DICTIONARY
  5
6B
102
{ACAD_REACTORS
330
C
102
}
330
C
100
AcDbDictionary
281
     1
  3
Standard
350
6C
  0
DICTIONARY
  5
17
102
{ACAD_REACTORS
330
C
102
}
330
C
100
AcDbDictionary
281
     1
  3
Standard
350
18
  0
DICTIONARY
  5
19
102
{ACAD_REACTORS
330
C
102
}
330
C
100
AcDbDictionary
281
     1
  0
ACDBDICTIONARYWDFLT
  5
E
102
{ACAD_REACTORS
330
C
102
}
330
C
100
AcDbDictionary
281
     1
  3
Normal
350
F
100
AcDbDictionaryWithDefault
340
F
  0
DICTIONARY
  5
47
102
{ACAD_REACTORS
330
C
102
}
330
C
100
AcDbDictionary
281
     1
  3
A0
350
48
  3
A1
350
49
  3
A2
350
4A
  3
A3
350
4B
  3
A4
350
4C
  3
A5
350
4D
  3
A6
350
4E
  3
A7
350
4F
  3
A8
350
50
  3
A9
350
51
  3
B0
350
52
  3
B1
350
53
  3
B2
350
54
  3
B3
350
55
  3
B4
350
56
  3
B5
350
57
  3
B6
350
58
  3
B7
350
59
  3
B8
350
5A
  3
B9
350
5B
  3
C0
350
5C
  3
C1
350
5D
  3
C2
350
5E
  3
C3
350
5F
  3
C4
350
60
  3
C5
350
61
  3
C6
350
62
  3
C7
350
63
  3
C8
350
64
  3
C9
350
65
  3
D0
350
66
  3
D1
350
67
  3
D2
350
68
  0
DICTIONARY
  5
69
102
{ACAD_REACTORS
330
C
102
}
330
C
100
AcDbDictionary
281
     1
  3
Standard
350
6A
  0
DICTIONARY
  5
2A
102
{ACAD_REACTORS
330
C
102
}
330
C
100
AcDbDictionary
281
     1
  3
2dWireframe
350
2F
  3
Basic
350
32
  3
Brighten
350
36
  3
ColorChange
350
3A
  3
Conceptual
350
34
  3
Dim
350
35
  3
EdgeColorOff
350
3D
  3
Facepattern
350
39
  3
Flat
350
2B
  3
FlatWithEdges
350
2C
  3
Gouraud
350
2D
  3
GouraudWithEdges
350
2E
  3
Hidden
350
31
  3
JitterOff
350
3B
  3
Linepattern
350
38
  3
OverhangOff
350
3C
  3
Realistic
350
33
  3
Shaded
350
42
  3
Shaded with edges
350
41
  3
Shades of Gray
350
3E
  3
Sketchy
350
3F
  3
Thicken
350
37
  3
Wireframe
350
30
  3
X-Ray
350
40
  0
DICTIONARY
  5
239
102
{ACAD_REACTORS
330
C
102
}
330
C
100
AcDbDictionary
281
     1
  3
CANNOSCALE
350
246
  3
CENTEREXE
350
240
  3
CENTERLTYPEFILE
350
241
  3
CMLEADERSTYLE
350
23B
  3
CTABLESTYLE
350
23A
  3
DIMASSOC
350
242
  3
HIDETEXT
350
243
  3
MSLTSCALE
350
247
  3
PSOLHEIGHT
350
23D
  3
PSOLWIDTH
350
23C
  0
XRECORD
  5
245
102
{ACAD_REACTORS
330
244
102
}
330
244
100
AcDbXrecord
280
     1
102
VTR_0.000_0.000_1.000_1.000_VISUALSTYLE
340
2F
102
VTR_0.000_0.000_1.000_1.000_GRIDDISPLAY
 70
     3
102
VTR_0.000_0.000_1.000_1.000_GRIDMAJOR
 70
     5
102
VTR_0.000_0.000_1.000_1.000_DEFAULTLIGHTING
280
     1
102
VTR_0.000_0.000_1.000_1.000_DEFAULTLIGHTINGTYPE
 70
     1
102
VTR_0.000_0.000_1.000_1.000_BRIGHTNESS
141
0.0
102
VTR_0.000_0.000_1.000_1.000_CONTRAST
142
0.0
  0
LAYOUT
  5
1E
102
{ACAD_REACTORS
330
1A
102
}
330
1A
100
AcDbPlotSettings
  1

  2
none_device
  4

  6

 40
0.0
 41
0.0
 42
0.0
 43
0.0
 44
0.0
 45
0.0
 46
0.0
 47
0.0
 48
0.0
 49
0.0
140
0.0
141
0.0
142
1.0
143
1.0
 70
   688
 72
     1
 73
     0
 74
     5
  7

 75
    16
147
1.0
148
0.0
149
0.0
100
AcDbLayout
  1
Layout1
 70
     1
 71
     1
 10
0.0
 20
0.0
 11
420.0
 21
297.0
 12
0.0
 22
0.0
 32
0.0
 14
1.000000E+20
 24
1.000000E+20
 34
1.000000E+20
 15
-1.000000E+20
 25
-1.000000E+20
 35
-1.000000E+20
146
0.0
 13
0.0
 23
0.0
 33
0.0
 16
1.0
 26
0.0
 36
0.0
 17
0.0
 27
1.0
 37
0.0
 76
     0
330
1B
  0
LAYOUT
  5
26
102
{ACAD_REACTORS
330
1A
102
}
330
1A
100
AcDbPlotSettings
  1

  2
none_device
  4

  6

 40
0.0
 41
0.0
 42
0.0
 43
0.0
 44
0.0
 45
0.0
 46
0.0
 47
0.0
 48
0.0
 49
0.0
140
0.0
141
0.0
142
1.0
143
1.0
 70
   688
 72
     1
 73
     0
 74
     5
  7

 75
    16
147
1.0
148
0.0
149
0.0
100
AcDbLayout
  1
Layout2
 70
     1
 71
     2
 10
0.0
 20
0.0
 11
0.0
 21
0.0
 12
0.0
 22
0.0
 32
0.0
 14
0.0
 24
0.0
 34
0.0
 15
0.0
 25
0.0
 35
0.0
146
0.0
 13
0.0
 23
0.0
 33
0.0
 16
1.0
 26
0.0
 36
0.0
 17
0.0
 27
1.0
 37
0.0
 76
     0
330
23
  0
LAYOUT
  5
22
102
{ACAD_REACTORS
330
1A
102
}
330
1A
100
AcDbPlotSettings
  1

  2
none_device
  4
Letter_(8.50_x_11.00_Inches)
  6

 40
6.35
 41
6.35
 42
6.350005
 43
6.350005
 44
215.9
 45
279.4
 46
0.0
 47
0.0
 48
0.0
 49
0.0
140
0.0
141
0.0
142
1.0
143
1.0
 70
  1712
 72
     1
 73
     0
 74
     0
  7

 75
     0
147
1.0
148
0.0
149
0.0
100
AcDbLayout
  1
Model
 70
     1
 71
     0
 10
-188.045578
 20
0.0
 11
347.202118
 21
970.26709
 12
0.0
 22
0.0
 32
0.0
 14
-188.045578
 24
0.0
 34
0.0
 15
347.202118
 25
970.26709
 35
0.0
146
0.0
 13
0.0
 23
0.0
 33
0.0
 16
1.0
 26
0.0
 36
0.0
 17
0.0
 27
1.0
 37
0.0
 76
     0
330
1F
331
29
  0
MATERIAL
  5
45
102
{ACAD_REACTORS
330
43
102
}
102
{ACAD_XDICTIONARY
360
27A
102
}
330
43
100
AcDbMaterial
  1
ByBlock
  0
MATERIAL
  5
44
102
{ACAD_REACTORS
330
43
102
}
102
{ACAD_XDICTIONARY
360
278
102
}
330
43
100
AcDbMaterial
  1
ByLayer
  0
MATERIAL
  5
46
102
{ACAD_REACTORS
330
43
102
}
102
{ACAD_XDICTIONARY
360
27C
102
}
330
43
100
AcDbMaterial
  1
Global
  0
MLEADERSTYLE
  5
6C
102
{ACAD_REACTORS
330
6B
102
}
102
{ACAD_XDICTIONARY
360
27F
102
}
330
6B
100
AcDbMLeaderStyle
170
     2
171
     1
172
     0
 90
        2
 40
0.0
 41
0.0
173
     1
 91
-1056964608
340
14
 92
       -2
290
     1
 42
2.0
291
     1
 43
8.0
  3
Standard
341
0
 44
4.0
300

342
11
174
     1
178
     6
175
     1
176
     0
 93
-1056964608
 45
4.0
292
     0
297
     0
 46
4.0
343
0
 94
-1056964608
 47
1.0
 49
1.0
140
1.0
293
     1
141
0.0
294
     1
177
     0
142
1.0
295
     0
296
     0
143
3.75
1001
ACAD_MLEADERVER
1070
     2
  0
MLINESTYLE
  5
18
102
{ACAD_REACTORS
330
17
102
}
330
17
100
AcDbMlineStyle
  2
Standard
 70
     0
  3

 62
   256
 51
90.0
 52
90.0
 71
     2
 49
0.5
 62
   256
  6
BYLAYER
 49
-0.5
 62
   256
  6
BYLAYER
  0
ACDBPLACEHOLDER
  5
F
102
{ACAD_REACTORS
330
E
102
}
330
E
  0
SCALE
  5
48
102
{ACAD_REACTORS
330
47
102
}
330
47
100
AcDbScale
 70
     0
300
1:1
140
1.0
141
1.0
290
     1
  0
SCALE
  5
49
102
{ACAD_REACTORS
330
47
102
}
330
47
100
AcDbScale
 70
     0
300
1:2
140
1.0
141
2.0
290
     0
  0
SCALE
  5
4A
102
{ACAD_REACTORS
330
47
102
}
330
47
100
AcDbScale
 70
     0
300
1:4
140
1.0
141
4.0
290
     0
  0
SCALE
  5
4B
102
{ACAD_REACTORS
330
47
102
}
330
47
100
AcDbScale
 70
     0
300
1:5
140
1.0
141
5.0
290
     0
  0
SCALE
  5
4C
102
{ACAD_REACTORS
330
47
102
}
330
47
100
AcDbScale
 70
     0
300
1:8
140
1.0
141
8.0
290
     0
  0
SCALE
  5
4D
102
{ACAD_REACTORS
330
47
102
}
330
47
100
AcDbScale
 70
     0
300
1:10
140
1.0
141
10.0
290
     0
  0
SCALE
  5
4E
102
{ACAD_REACTORS
330
47
102
}
330
47
100
AcDbScale
 70
     0
300
1:16
140
1.0
141
16.0
290
     0
  0
SCALE
  5
4F
102
{ACAD_REACTORS
330
47
102
}
330
47
100
AcDbScale
 70
     0
300
1:20
140
1.0
141
20.0
290
     0
  0
SCALE
  5
50
102
{ACAD_REACTORS
330
47
102
}
330
47
100
AcDbScale
 70
     0
300
1:30
140
1.0
141
30.0
290
     0
  0
SCALE
  5
51
102
{ACAD_REACTORS
330
47
102
}
330
47
100
AcDbScale
 70
     0
300
1:40
140
1.0
141
40.0
290
     0
  0
SCALE
  5
52
102
{ACAD_REACTORS
330
47
102
}
330
47
100
AcDbScale
 70
     0
300
1:50
140
1.0
141
50.0
290
     0
  0
SCALE
  5
53
102
{ACAD_REACTORS
330
47
102
}
330
47
100
AcDbScale
 70
     0
300
1:100
140
1.0
141
100.0
290
     0
  0
SCALE
  5
54
102
{ACAD_REACTORS
330
47
102
}
330
47
100
AcDbScale
 70
     0
300
2:1
140
2.0
141
1.0
290
     0
  0
SCALE
  5
55
102
{ACAD_REACTORS
330
47
102
}
330
47
100
AcDbScale
 70
     0
300
4:1
140
4.0
141
1.0
290
     0
  0
SCALE
  5
56
102
{ACAD_REACTORS
330
47
102
}
330
47
100
AcDbScale
 70
     0
300
8:1
140
8.0
141
1.0
290
     0
  0
SCALE
  5
57
102
{ACAD_REACTORS
330
47
102
}
330
47
100
AcDbScale
 70
     0
300
10:1
140
10.0
141
1.0
290
     0
  0
SCALE
  5
58
102
{ACAD_REACTORS
330
47
102
}
330
47
100
AcDbScale
 70
     0
300
100:1
140
100.0
141
1.0
290
     0
  0
SCALE
  5
59
102
{ACAD_REACTORS
330
47
102
}
330
47
100
AcDbScale
 70
     0
300
1/128" = 1'-0"
140
0.007812
141
12.0
290
     0
  0
SCALE
  5
5A
102
{ACAD_REACTORS
330
47
102
}
330
47
100
AcDbScale
 70
     0
300
1/64" = 1'-0"
140
0.015625
141
12.0
290
     0
  0
SCALE
  5
5B
102
{ACAD_REACTORS
330
47
102
}
330
47
100
AcDbScale
 70
     0
300
1/32" = 1'-0"
140
0.03125
141
12.0
290
     0
  0
SCALE
  5
5C
102
{ACAD_REACTORS
330
47
102
}
330
47
100
AcDbScale
 70
     0
300
1/16" = 1'-0"
140
0.0625
141
12.0
290
     0
  0
SCALE
  5
5D
102
{ACAD_REACTORS
330
47
102
}
330
47
100
AcDbScale
 70
     0
300
3/32" = 1'-0"
140
0.09375
141
12.0
290
     0
  0
SCALE
  5
5E
102
{ACAD_REACTORS
330
47
102
}
330
47
100
AcDbScale
 70
     0
300
1/8" = 1'-0"
140
0.125
141
12.0
290
     0
  0
SCALE
  5
5F
102
{ACAD_REACTORS
330
47
102
}
330
47
100
AcDbScale
 70
     0
300
3/16" = 1'-0"
140
0.1875
141
12.0
290
     0
  0
SCALE
  5
60
102
{ACAD_REACTORS
330
47
102
}
330
47
100
AcDbScale
 70
     0
300
1/4" = 1'-0"
140
0.25
141
12.0
290
     0
  0
SCALE
  5
61
102
{ACAD_REACTORS
330
47
102
}
330
47
100
AcDbScale
 70
     0
300
3/8" = 1'-0"
140
0.375
141
12.0
290
     0
  0
SCALE
  5
62
102
{ACAD_REACTORS
330
47
102
}
330
47
100
AcDbScale
 70
     0
300
1/2" = 1'-0"
140
0.5
141
12.0
290
     0
  0
SCALE
  5
63
102
{ACAD_REACTORS
330
47
102
}
330
47
100
AcDbScale
 70
     0
300
3/4" = 1'-0"
140
0.75
141
12.0
290
     0
  0
SCALE
  5
64
102
{ACAD_REACTORS
330
47
102
}
330
47
100
AcDbScale
 70
     0
300
1" = 1'-0"
140
1.0
141
12.0
290
     0
  0
SCALE
  5
65
102
{ACAD_REACTORS
330
47
102
}
330
47
100
AcDbScale
 70
     0
300
1-1/2" = 1'-0"
140
1.5
141
12.0
290
     0
  0
SCALE
  5
66
102
{ACAD_REACTORS
330
47
102
}
330
47
100
AcDbScale
 70
     0
300
3" = 1'-0"
140
3.0
141
12.0
290
     0
  0
SCALE
  5
67
102
{ACAD_REACTORS
330
47
102
}
330
47
100
AcDbScale
 70
     0
300
6" = 1'-0"
140
6.0
141
12.0
290
     0
  0
SCALE
  5
68
102
{ACAD_REACTORS
330
47
102
}
330
47
100
AcDbScale
 70
     0
300
1'-0" = 1'-0"
140
12.0
141
12.0
290
     0
  0
TABLESTYLE
  5
6A
102
{ACAD_REACTORS
330
69
102
}
330
69
100
AcDbTableStyle
  3
Standard
 70
     0
 71
     0
 40
1.5
 41
1.5
280
     0
281
     0
  7
Standard
140
4.5
170
     2
 62
     0
 63
   257
283
     0
274
    -2
284
     1
 64
     0
275
    -2
285
     1
 65
     0
276
    -2
286
     1
 66
     0
277
    -2
287
     1
 67
     0
278
    -2
288
     1
 68
     0
279
    -2
289
     1
 69
     0
  7
Standard
140
6.0
170
     5
 62
     0
 63
   257
283
     0
274
    -2
284
     1
 64
     0
275
    -2
285
     1
 65
     0
276
    -2
286
     1
 66
     0
277
    -2
287
     1
 67
     0
278
    -2
288
     1
 68
     0
279
    -2
289
     1
 69
     0
  7
Standard
140
4.5
170
     5
 62
     0
 63
   257
283
     0
274
    -2
284
     1
 64
     0
275
    -2
285
     1
 65
     0
276
    -2
286
     1
 66
     0
277
    -2
287
     1
 67
     0
278
    -2
288
     1
 68
     0
279
    -2
289
     1
 69
     0
  0
VISUALSTYLE
  5
2F
102
{ACAD_REACTORS
330
2A
102
}
102
{ACAD_XDICTIONARY
360
250
102
}
330
2A
100
AcDbVisualStyle
  2
2dWireframe
 70
     4
 71
     0
 72
     2
 73
     0
 90
        0
 40
0.6
 41
30.0
 62
     5
 63
     7
 74
     1
 91
        4
 64
     7
 65
   257
 75
     1
175
     1
 42
1.0
 92
        0
 66
   257
 43
1.0
 76
     1
 77
     6
 78
     2
 67
     7
 79
     5
170
     0
171
     0
290
     0
174
     0
 93
        1
 44
0.0
173
     0
291
     0
 45
0.0
1001
ACAD
1000
AcDbSavedByObjectVersion
1070
     0
  0
VISUALSTYLE
  5
32
102
{ACAD_REACTORS
330
2A
102
}
102
{ACAD_XDICTIONARY
360
256
102
}
330
2A
100
AcDbVisualStyle
  2
Basic
 70
     7
 71
     1
 72
     0
 73
     1
 90
        0
 40
0.6
 41
30.0
 62
     5
 63
     7
 74
     0
 91
        4
 64
     7
 65
   257
 75
     1
175
     1
 42
1.0
 92
        8
 66
     7
 43
1.0
 76
     1
 77
     6
 78
     2
 67
     7
 79
     5
170
     0
171
     0
290
     0
174
     0
 93
        1
 44
0.0
173
     0
291
     1
 45
0.0
1001
ACAD
1000
AcDbSavedByObjectVersion
1070
     0
  0
VISUALSTYLE
  5
36
102
{ACAD_REACTORS
330
2A
102
}
102
{ACAD_XDICTIONARY
360
25E
102
}
330
2A
100
AcDbVisualStyle
  2
Brighten
 70
    12
 71
     2
 72
     2
 73
     0
 90
        0
 40
0.6
 41
30.0
 62
     5
 63
     7
 74
     1
 91
        4
 64
     7
 65
   257
 75
     1
175
     1
 42
1.0
 92
        8
 66
     7
 43
1.0
 76
     1
 77
     6
 78
     2
 67
     7
 79
     5
170
     0
171
     0
290
     0
174
     0
 93
        1
 44
50.0
173
     0
291
     1
 45
0.0
1001
ACAD
1000
AcDbSavedByObjectVersion
1070
     0
  0
VISUALSTYLE
  5
3A
102
{ACAD_REACTORS
330
2A
102
}
102
{ACAD_XDICTIONARY
360
266
102
}
330
2A
100
AcDbVisualStyle
  2
ColorChange
 70
    16
 71
     2
 72
     2
 73
     3
 90
        0
 40
0.6
 41
30.0
 62
     5
 63
     8
 74
     1
 91
        4
 64
     7
 65
   257
 75
     1
175
     1
 42
1.0
 92
        8
 66
     8
 43
1.0
 76
     1
 77
     6
 78
     2
 67
     7
 79
     5
170
     0
171
     0
290
     0
174
     0
 93
        1
 44
0.0
173
     0
291
     1
 45
0.0
1001
ACAD
1000
AcDbSavedByObjectVersion
1070
     0
  0
VISUALSTYLE
  5
34
102
{ACAD_REACTORS
330
2A
102
}
102
{ACAD_XDICTIONARY
360
25A
102
}
330
2A
100
AcDbVisualStyle
  2
Conceptual
 70
     9
 71
     3
 72
     2
 73
     0
 90
        0
 40
0.6
 41
30.0
 62
     5
 63
     7
 74
     2
 91
        2
 64
     7
 65
   257
 75
     1
175
     1
 42
179.0
 92
        8
 66
     7
 43
1.0
 76
     1
 77
     6
 78
     2
 67
     7
 79
     3
170
     0
171
     0
290
     0
174
     0
 93
        1
 44
0.0
173
     0
291
     0
 45
0.0
1001
ACAD
1000
AcDbSavedByObjectVersion
1070
     0
  0
VISUALSTYLE
  5
35
102
{ACAD_REACTORS
330
2A
102
}
102
{ACAD_XDICTIONARY
360
25C
102
}
330
2A
100
AcDbVisualStyle
  2
Dim
 70
    11
 71
     2
 72
     2
 73
     0
 90
        0
 40
0.6
 41
30.0
 62
     5
 63
     7
 74
     1
 91
        4
 64
     7
 65
   257
 75
     1
175
     1
 42
1.0
 92
        8
 66
     7
 43
1.0
 76
     1
 77
     6
 78
     2
 67
     7
 79
     5
170
     0
171
     0
290
     0
174
     0
 93
        1
 44
-50.0
173
     0
291
     1
 45
0.0
1001
ACAD
1000
AcDbSavedByObjectVersion
1070
     0
  0
VISUALSTYLE
  5
3D
102
{ACAD_REACTORS
330
2A
102
}
102
{ACAD_XDICTIONARY
360
26C
102
}
330
2A
100
AcDbVisualStyle
  2
EdgeColorOff
 70
    22
 71
     2
 72
     2
 73
     0
 90
        0
 40
0.6
 41
30.0
 62
     5
 63
     7
 74
     1
 91
        4
 64
     7
 65
   257
 75
     1
175
     1
 42
1.0
 92
        8
 66
     7
 43
1.0
 76
     1
 77
     6
 78
     2
 67
     7
 79
     5
170
     0
171
     0
290
     0
174
     0
 93
        1
 44
0.0
173
     0
291
     1
 45
0.0
1001
ACAD
1000
AcDbSavedByObjectVersion
1070
     0
  0
VISUALSTYLE
  5
39
102
{ACAD_REACTORS
330
2A
102
}
102
{ACAD_XDICTIONARY
360
264
102
}
330
2A
100
AcDbVisualStyle
  2
Facepattern
 70
    15
 71
     2
 72
     2
 73
     0
 90
        0
 40
0.6
 41
30.0
 62
     5
 63
     7
 74
     1
 91
        4
 64
     7
 65
   257
 75
     1
175
     1
 42
1.0
 92
        8
 66
     7
 43
1.0
 76
     1
 77
     6
 78
     2
 67
     7
 79
     5
170
     0
171
     0
290
     0
174
     0
 93
        1
 44
0.0
173
     0
291
     1
 45
0.0
1001
ACAD
1000
AcDbSavedByObjectVersion
1070
     0
  0
VISUALSTYLE
  5
2B
102
{ACAD_REACTORS
330
2A
102
}
102
{ACAD_XDICTIONARY
360
248
102
}
330
2A
100
AcDbVisualStyle
  2
Flat
 70
     0
 71
     2
 72
     1
 73
     1
 90
        2
 40
0.6
 41
30.0
 62
     5
 63
     7
 74
     0
 91
        0
 64
     7
 65
   257
 75
     1
175
     1
 42
1.0
 92
        8
 66
     7
 43
1.0
 76
     1
 77
     6
 78
     2
 67
     7
 79
     5
170
     0
171
     0
290
     0
174
     0
 93
       13
 44
0.0
173
     0
291
     1
 45
0.0
1001
ACAD
1000
AcDbSavedByObjectVersion
1070
     0
  0
VISUALSTYLE
  5
2C
102
{ACAD_REACTORS
330
2A
102
}
102
{ACAD_XDICTIONARY
360
24A
102
}
330
2A
100
AcDbVisualStyle
  2
FlatWithEdges
 70
     1
 71
     2
 72
     1
 73
     1
 90
        2
 40
0.6
 41
30.0
 62
     5
 63
     7
 74
     1
 91
        0
 64
     7
 65
   257
 75
     1
175
     1
 42
1.0
 92
        0
 66
   257
 43
1.0
 76
     1
 77
     6
 78
     2
 67
     7
 79
     5
170
     0
171
     0
290
     0
174
     0
 93
       13
 44
0.0
173
     0
291
     1
 45
0.0
1001
ACAD
1000
AcDbSavedByObjectVersion
1070
     0
  0
VISUALSTYLE
  5
2D
102
{ACAD_REACTORS
330
2A
102
}
102
{ACAD_XDICTIONARY
360
24C
102
}
330
2A
100
AcDbVisualStyle
  2
Gouraud
 70
     2
 71
     2
 72
     2
 73
     1
 90
        2
 40
0.6
 41
30.0
 62
     5
 63
     7
 74
     0
 91
        0
 64
     7
 65
   257
 75
     1
175
     1
 42
1.0
 92
        0
 66
     7
 43
1.0
 76
     1
 77
     6
 78
     2
 67
     7
 79
     5
170
     0
171
     0
290
     0
174
     0
 93
       13
 44
0.0
173
     0
291
     1
 45
0.0
1001
ACAD
1000
AcDbSavedByObjectVersion
1070
     0
  0
VISUALSTYLE
  5
2E
102
{ACAD_REACTORS
330
2A
102
}
102
{ACAD_XDICTIONARY
360
24E
102
}
330
2A
100
AcDbVisualStyle
  2
GouraudWithEdges
 70
     3
 71
     2
 72
     2
 73
     1
 90
        2
 40
0.6
 41
30.0
 62
     5
 63
     7
 74
     1
 91
        0
 64
     7
 65
   257
 75
     1
175
     1
 42
1.0
 92
        0
 66
   257
 43
1.0
 76
     1
 77
     6
 78
     2
 67
     7
 79
     5
170
     0
171
     0
290
     0
174
     0
 93
       13
 44
0.0
173
     0
291
     1
 45
0.0
1001
ACAD
1000
AcDbSavedByObjectVersion
1070
     0
  0
VISUALSTYLE
  5
31
102
{ACAD_REACTORS
330
2A
102
}
102
{ACAD_XDICTIONARY
360
254
102
}
330
2A
100
AcDbVisualStyle
  2
Hidden
 70
     6
 71
     1
 72
     2
 73
     2
 90
        0
 40
0.6
 41
30.0
 62
     5
 63
     7
 74
     2
 91
        2
 64
     7
 65
   257
 75
     2
175
     1
 42
40.0
 92
        0
 66
   257
 43
1.0
 76
     1
 77
     6
 78
     2
 67
     7
 79
     3
170
     0
171
     0
290
     0
174
     0
 93
        1
 44
0.0
173
     0
291
     0
 45
0.0
1001
ACAD
1000
AcDbSavedByObjectVersion
1070
     0
  0
VISUALSTYLE
  5
3B
102
{ACAD_REACTORS
330
2A
102
}
102
{ACAD_XDICTIONARY
360
268
102
}
330
2A
100
AcDbVisualStyle
  2
JitterOff
 70
    20
 71
     2
 72
     2
 73
     0
 90
        0
 40
0.6
 41
30.0
 62
     5
 63
     7
 74
     1
 91
        4
 64
     7
 65
   257
 75
     1
175
     1
 42
1.0
 92
       10
 66
     7
 43
1.0
 76
     1
 77
     6
 78
     2
 67
     7
 79
     5
170
     0
171
     0
290
     0
174
     0
 93
        1
 44
0.0
173
     0
291
     1
 45
0.0
1001
ACAD
1000
AcDbSavedByObjectVersion
1070
     0
  0
VISUALSTYLE
  5
38
102
{ACAD_REACTORS
330
2A
102
}
102
{ACAD_XDICTIONARY
360
262
102
}
330
2A
100
AcDbVisualStyle
  2
Linepattern
 70
    14
 71
     2
 72
     2
 73
     0
 90
        0
 40
0.6
 41
30.0
 62
     5
 63
     7
 74
     1
 91
        4
 64
     7
 65
   257
 75
     7
175
     7
 42
1.0
 92
        8
 66
     7
 43
1.0
 76
     1
 77
     6
 78
     2
 67
     7
 79
     5
170
     0
171
     0
290
     0
174
     0
 93
        1
 44
0.0
173
     0
291
     1
 45
0.0
1001
ACAD
1000
AcDbSavedByObjectVersion
1070
     0
  0
VISUALSTYLE
  5
3C
102
{ACAD_REACTORS
330
2A
102
}
102
{ACAD_XDICTIONARY
360
26A
102
}
330
2A
100
AcDbVisualStyle
  2
OverhangOff
 70
    21
 71
     2
 72
     2
 73
     0
 90
        0
 40
0.6
 41
30.0
 62
     5
 63
     7
 74
     1
 91
        4
 64
     7
 65
   257
 75
     1
175
     1
 42
1.0
 92
        9
 66
     7
 43
1.0
 76
     1
 77
     6
 78
     2
 67
     7
 79
     5
170
     0
171
     0
290
     0
174
     0
 93
        1
 44
0.0
173
     0
291
     1
 45
0.0
1001
ACAD
1000
AcDbSavedByObjectVersion
1070
     0
  0
VISUALSTYLE
  5
33
102
{ACAD_REACTORS
330
2A
102
}
102
{ACAD_XDICTIONARY
360
258
102
}
330
2A
100
AcDbVisualStyle
  2
Realistic
 70
     8
 71
     2
 72
     3
 73
     0
 90
        2
 40
0.6
 41
30.0
 62
     5
 63
     7
 74
     0
 91
        0
 64
     7
 65
   257
 75
     1
175
     1
 42
1.0
 92
        8
 66
   257
 43
1.0
 76
     1
 77
     6
 78
     2
 67
     7
 79
     3
170
     0
171
     0
290
     0
174
     0
 93
       13
 44
0.0
173
     0
291
     0
 45
0.0
1001
ACAD
1000
AcDbSavedByObjectVersion
1070
     0
  0
VISUALSTYLE
  5
42
102
{ACAD_REACTORS
330
2A
102
}
102
{ACAD_XDICTIONARY
360
276
102
}
330
2A
100
AcDbVisualStyle
  2
Shaded
 70
    27
 71
     2
 72
     2
 73
     1
 90
        2
 40
0.6
 41
30.0
 62
     5
 63
     7
 74
     0
 91
        4
 64
     7
 65
   257
 75
     1
175
     1
 42
1.0
 92
        8
 66
   257
 43
1.0
 76
     1
 77
     6
 78
     2
 67
     8
 79
     3
170
     0
171
     0
290
     0
174
     0
 93
        5
 44
0.0
173
     0
291
     0
 45
0.0
1001
ACAD
1000
AcDbSavedByObjectVersion
1070
     0
  0
VISUALSTYLE
  5
41
102
{ACAD_REACTORS
330
2A
102
}
102
{ACAD_XDICTIONARY
360
274
102
}
330
2A
100
AcDbVisualStyle
  2
Shaded with edges
 70
    26
 71
     2
 72
     2
 73
     1
 90
        2
 40
0.6
 41
30.0
 62
     5
 63
     7
 74
     1
 91
       10
 64
     7
 65
   257
 75
     2
175
     1
 42
1.0
 92
        8
 66
   257
 43
1.0
 76
     1
 77
     6
 78
     2
 67
     7
 79
     3
170
     0
171
     0
290
     0
174
     0
 93
        5
 44
0.0
173
     0
291
     0
 45
0.0
1001
ACAD
1000
AcDbSavedByObjectVersion
1070
     0
  0
VISUALSTYLE
  5
3E
102
{ACAD_REACTORS
330
2A
102
}
102
{ACAD_XDICTIONARY
360
26E
102
}
330
2A
100
AcDbVisualStyle
  2
Shades of Gray
 70
    23
 71
     2
 72
     2
 73
     3
 90
        0
 40
0.6
 41
30.0
 62
     5
 63
     7
 74
     2
 91
        2
 64
     7
 65
     7
 75
     1
175
     1
 42
40.0
 92
        8
 66
     7
 43
1.0
 76
     1
 77
     6
 78
     2
 67
     7
 79
     3
170
     0
171
     0
290
     0
174
     0
 93
        1
 44
0.0
173
     0
291
     0
 45
0.0
1001
ACAD
1000
AcDbSavedByObjectVersion
1070
     0
  0
VISUALSTYLE
  5
3F
102
{ACAD_REACTORS
330
2A
102
}
102
{ACAD_XDICTIONARY
360
270
102
}
330
2A
100
AcDbVisualStyle
  2
Sketchy
 70
    24
 71
     1
 72
     2
 73
     2
 90
        0
 40
0.6
 41
30.0
 62
     5
 63
     7
 74
     2
 91
        2
 64
     7
 65
     7
 75
     1
175
     1
 42
40.0
 92
       11
 66
     7
 43
1.0
 76
     1
 77
     6
 78
     2
 67
     7
 79
     6
170
     0
171
     0
290
     0
174
     0
 93
        1
 44
0.0
173
     0
291
     0
 45
0.0
1001
ACAD
1000
AcDbSavedByObjectVersion
1070
     0
  0
VISUALSTYLE
  5
37
102
{ACAD_REACTORS
330
2A
102
}
102
{ACAD_XDICTIONARY
360
260
102
}
330
2A
100
AcDbVisualStyle
  2
Thicken
 70
    13
 71
     2
 72
     2
 73
     0
 90
        0
 40
0.6
 41
30.0
 62
     5
 63
     7
 74
     1
 91
        4
 64
     7
 65
   257
 75
     1
175
     1
 42
1.0
 92
       12
 66
     7
 43
1.0
 76
     1
 77
     6
 78
     2
 67
     7
 79
     5
170
     0
171
     0
290
     0
174
     0
 93
        1
 44
0.0
173
     0
291
     1
 45
0.0
1001
ACAD
1000
AcDbSavedByObjectVersion
1070
     0
  0
VISUALSTYLE
  5
30
102
{ACAD_REACTORS
330
2A
102
}
102
{ACAD_XDICTIONARY
360
252
102
}
330
2A
100
AcDbVisualStyle
  2
Wireframe
 70
     5
 71
     0
 72
     2
 73
     0
 90
        0
 40
0.6
 41
30.0
 62
     5
 63
     7
 74
     1
 91
        4
 64
     7
 65
   257
 75
     1
175
     1
 42
1.0
 92
        0
 66
   257
 43
1.0
 76
     1
 77
     6
 78
     2
 67
     7
 79
     3
170
     0
171
     0
290
     0
174
     0
 93
        1
 44
0.0
173
     0
291
     0
 45
0.0
1001
ACAD
1000
AcDbSavedByObjectVersion
1070
     0
  0
VISUALSTYLE
  5
40
102
{ACAD_REACTORS
330
2A
102
}
102
{ACAD_XDICTIONARY
360
272
102
}
330
2A
100
AcDbVisualStyle
  2
X-Ray
 70
    25
 71
     2
 72
     2
 73
     1
 90
        1
 40
0.5
 41
30.0
 62
     5
 63
     7
 74
     1
 91
        0
 64
     7
 65
   257
 75
     1
175
     1
 42
1.0
 92
        8
 66
     7
 43
1.0
 76
     1
 77
     6
 78
     2
 67
     7
 79
     3
170
     0
171
     0
290
     0
174
     0
 93
       13
 44
0.0
173
     0
291
     0
 45
0.0
1001
ACAD
1000
AcDbSavedByObjectVersion
1070
     0
  0
DICTIONARYVAR
  5
246
102
{ACAD_REACTORS
330
239
102
}
330
239
100
DictionaryVariables
280
     0
  1
1:1
  0
DICTIONARYVAR
  5
240
102
{ACAD_REACTORS
330
239
102
}
330
239
100
DictionaryVariables
280
     0
  1
3.500000
  0
DICTIONARYVAR
  5
241
102
{ACAD_REACTORS
330
239
102
}
330
239
100
DictionaryVariables
280
     0
  1
acadiso.lin
  0
DICTIONARYVAR
  5
23B
102
{ACAD_REACTORS
330
239
102
}
330
239
100
DictionaryVariables
280
     0
  1
Standard
  0
DICTIONARYVAR
  5
23A
102
{ACAD_REACTORS
330
239
102
}
330
239
100
DictionaryVariables
280
     0
  1
Standard
  0
DICTIONARYVAR
  5
242
102
{ACAD_REACTORS
330
239
102
}
330
239
100
DictionaryVariables
280
     0
  1
2
  0
DICTIONARYVAR
  5
243
102
{ACAD_REACTORS
330
239
102
}
330
239
100
DictionaryVariables
280
     0
  1
1
  0
DICTIONARYVAR
  5
247
102
{ACAD_REACTORS
330
239
102
}
330
239
100
DictionaryVariables
280
     0
  1
1
  0
DICTIONARYVAR
  5
23D
102
{ACAD_REACTORS
330
239
102
}
330
239
100
DictionaryVariables
280
     0
  1
80.000000
  0
DICTIONARYVAR
  5
23C
102
{ACAD_REACTORS
330
239
102
}
330
239
100
DictionaryVariables
280
     0
  1
5.000000
  0
DICTIONARY
  5
27A
330
45
100
AcDbDictionary
280
     1
281
     1
  3
ACAD_XREC_ROUNDTRIP
360
27B
  0
DICTIONARY
  5
278
330
44
100
AcDbDictionary
280
     1
281
     1
  3
ACAD_XREC_ROUNDTRIP
360
279
  0
DICTIONARY
  5
27C
330
46
100
AcDbDictionary
280
     1
281
     1
  3
ACAD_XREC_ROUNDTRIP
360
27D
  0
DICTIONARY
  5
27F
330
6C
100
AcDbDictionary
280
     1
281
     1
  3
ACAD_XREC_ROUNDTRIP
360
280
  0
DICTIONARY
  5
250
330
2F
100
AcDbDictionary
280
     1
281
     1
  3
ACAD_XREC_ROUNDTRIP
360
251
  0
DICTIONARY
  5
256
330
32
100
AcDbDictionary
280
     1
281
     1
  3
ACAD_XREC_ROUNDTRIP
360
257
  0
DICTIONARY
  5
25E
330
36
100
AcDbDictionary
280
     1
281
     1
  3
ACAD_XREC_ROUNDTRIP
360
25F
  0
DICTIONARY
  5
266
330
3A
100
AcDbDictionary
280
     1
281
     1
  3
ACAD_XREC_ROUNDTRIP
360
267
  0
DICTIONARY
  5
25A
330
34
100
AcDbDictionary
280
     1
281
     1
  3
ACAD_XREC_ROUNDTRIP
360
25B
  0
DICTIONARY
  5
25C
330
35
100
AcDbDictionary
280
     1
281
     1
  3
ACAD_XREC_ROUNDTRIP
360
25D
  0
DICTIONARY
  5
26C
330
3D
100
AcDbDictionary
280
     1
281
     1
  3
ACAD_XREC_ROUNDTRIP
360
26D
  0
DICTIONARY
  5
264
330
39
100
AcDbDictionary
280
     1
281
     1
  3
ACAD_XREC_ROUNDTRIP
360
265
  0
DICTIONARY
  5
248
330
2B
100
AcDbDictionary
280
     1
281
     1
  3
ACAD_XREC_ROUNDTRIP
360
249
  0
DICTIONARY
  5
24A
330
2C
100
AcDbDictionary
280
     1
281
     1
  3
ACAD_XREC_ROUNDTRIP
360
24B
  0
DICTIONARY
  5
24C
330
2D
100
AcDbDictionary
280
     1
281
     1
  3
ACAD_XREC_ROUNDTRIP
360
24D
  0
DICTIONARY
  5
24E
330
2E
100
AcDbDictionary
280
     1
281
     1
  3
ACAD_XREC_ROUNDTRIP
360
24F
  0
DICTIONARY
  5
254
330
31
100
AcDbDictionary
280
     1
281
     1
  3
ACAD_XREC_ROUNDTRIP
360
255
  0
DICTIONARY
  5
268
330
3B
100
AcDbDictionary
280
     1
281
     1
  3
ACAD_XREC_ROUNDTRIP
360
269
  0
DICTIONARY
  5
262
330
38
100
AcDbDictionary
280
     1
281
     1
  3
ACAD_XREC_ROUNDTRIP
360
263
  0
DICTIONARY
  5
26A
330
3C
100
AcDbDictionary
280
     1
281
     1
  3
ACAD_XREC_ROUNDTRIP
360
26B
  0
DICTIONARY
  5
258
330
33
100
AcDbDictionary
280
     1
281
     1
  3
ACAD_XREC_ROUNDTRIP
360
259
  0
DICTIONARY
  5
276
330
42
100
AcDbDictionary
280
     1
281
     1
  3
ACAD_XREC_ROUNDTRIP
360
277
  0
DICTIONARY
  5
274
330
41
100
AcDbDictionary
280
     1
281
     1
  3
ACAD_XREC_ROUNDTRIP
360
275
  0
DICTIONARY
  5
26E
330
3E
100
AcDbDictionary
280
     1
281
     1
  3
ACAD_XREC_ROUNDTRIP
360
26F
  0
DICTIONARY
  5
270
330
3F
100
AcDbDictionary
280
     1
281
     1
  3
ACAD_XREC_ROUNDTRIP
360
271
  0
DICTIONARY
  5
260
330
37
100
AcDbDictionary
280
     1
281
     1
  3
ACAD_XREC_ROUNDTRIP
360
261
  0
DICTIONARY
  5
252
330
30
100
AcDbDictionary
280
     1
281
     1
  3
ACAD_XREC_ROUNDTRIP
360
253
  0
DICTIONARY
  5
272
330
40
100
AcDbDictionary
280
     1
281
     1
  3
ACAD_XREC_ROUNDTRIP
360
273
  0
XRECORD
  5
27B
102
{ACAD_REACTORS
330
27A
102
}
330
27A
100
AcDbXrecord
280
     1
102
MATERIAL
148
0.0
149
0.0
149
0.0
 93
        0
 94
      127
282
     0
 72
     1
 77
     1
171
     1
175
     1
179
     1
273
     0
  0
XRECORD
  5
279
102
{ACAD_REACTORS
330
278
102
}
330
278
100
AcDbXrecord
280
     1
102
MATERIAL
148
0.0
149
0.0
149
0.0
 93
        0
 94
      127
282
     0
 72
     1
 77
     1
171
     1
175
     1
179
     1
273
     0
  0
XRECORD
  5
27D
102
{ACAD_REACTORS
330
27C
102
}
330
27C
100
AcDbXrecord
280
     1
102
MATERIAL
148
0.0
149
0.0
149
0.0
 93
        0
 94
      127
282
     0
 72
     1
 77
     1
171
     1
175
     1
179
     1
273
     0
  0
XRECORD
  5
280
102
{ACAD_REACTORS
330
27F
102
}
330
27F
100
AcDbXrecord
280
     1
102
ACAD_ROUNDTRIP_2010_MLEADER_STYLE
  0
XRECORD
  5
251
102
{ACAD_REACTORS
330
250
102
}
330
250
100
AcDbXrecord
280
     1
102
RTVSPropertyOp0
 70
     1
102
RTVSPropertyOp1
 70
     1
102
RTVSPropertyOp2
 70
     1
102
RTVSPropertyOp3
 70
     1
102
RTVSPropertyOp4
 70
     1
102
RTVSPropertyOp5
 70
     1
102
RTVSPropertyOp6
 70
     1
102
RTVSPropertyOp7
 70
     1
102
RTVSPropertyOp8
 70
     1
102
RTVSPropertyOp9
 70
     1
102
RTVSPropertyOp10
 70
     1
102
RTVSPropertyOp11
 70
     1
102
RTVSPropertyOp12
 70
     1
102
RTVSPropertyOp13
 70
     1
102
RTVSPropertyOp14
 70
     1
102
RTVSPropertyOp15
 70
     1
102
RTVSPropertyOp16
 70
     1
102
RTVSPropertyOp17
 70
     1
102
RTVSPropertyOp18
 70
     1
102
RTVSPropertyOp19
 70
     1
102
RTVSPropertyOp20
 70
     1
102
RTVSPropertyOp21
 70
     1
102
RTVSPropertyOp22
 70
     1
102
RTVSPropertyOp23
 70
     1
102
RTVSPropertyOp24
 70
     1
102
RTVSPropertyOp25
 70
     1
102
RTVSPropertyOp26
 70
     1
102
RTVSPropertyOp27
 70
     1
102
RTVSPropertyOp28
 70
     1
102
RTVSPropertyOp29
 70
     1
102
RTVSPropertyOp30
 70
     1
102
RTVSPropertyOp31
 70
     1
102
RTVSPropertyOp32
 70
     1
102
RTVSPropertyOp33
 70
     1
102
RTVSPropertyOp34
 70
     1
102
RTVSPropertyOp35
 70
     1
102
RTVSPropertyOp36
 70
     1
102
RTVSPropertyOp37
 70
     1
102
RTVSPropertyOp38
 70
     1
102
RTVSPropertyOp39
 70
     1
102
RTVSPropertyOp40
 70
     1
102
RTVSPropertyOp41
 70
     1
102
RTVSPropertyOp42
 70
     1
102
RTVSPropertyOp43
 70
     1
102
RTVSPropertyOp44
 70
     1
102
RTVSPropertyOp45
 70
     1
102
RTVSPropertyOp46
 70
     1
102
RTVSPropertyOp47
 70
     1
102
RTVSPropertyOp48
 70
     1
102
RTVSPropertyOp49
 70
     1
102
RTVSPropertyOp50
 70
     1
102
RTVSPropertyOp51
 70
     0
102
RTVSPropertyOp52
 70
     0
102
RTVSPropertyOp53
 70
     1
102
RTVSPropertyOp54
 70
     1
102
RTVSPropertyOp55
 70
     1
102
RTVSPropertyOp56
 70
     1
102
RTVSPropertyOp57
 70
     1
102
RTVSPost2010Prop28
280
     1
102
RTVSPost2010PropOp28
 70
     1
102
RTVSPost2010Prop29
280
     1
102
RTVSPost2010PropOp29
 70
     1
102
RTVSPost2010Prop30
280
     0
102
RTVSPost2010PropOp30
 70
     1
102
RTVSPost2010Prop31
280
     0
102
RTVSPost2010PropOp31
 70
     1
102
RTVSPost2010Prop32
280
     0
102
RTVSPost2010PropOp32
 70
     1
102
RTVSPost2010Prop33
280
     0
102
RTVSPost2010PropOp33
 70
     1
102
RTVSPost2010Prop34
280
     0
102
RTVSPost2010PropOp34
 70
     1
102
RTVSPost2010Prop35
280
     0
102
RTVSPost2010PropOp35
 70
     1
102
RTVSPost2010Prop36
280
     0
102
RTVSPost2010PropOp36
 70
     1
102
RTVSPost2010Prop37
 90
       50
102
RTVSPost2010PropOp37
 70
     1
102
RTVSPost2010Prop38
140
0.0
102
RTVSPost2010PropOp38
 70
     1
102
RTVSPost2010Prop39
140
1.0
102
RTVSPost2010PropOp39
 70
     1
102
RTVSPost2010Prop40
 90
        0
102
RTVSPost2010PropOp40
 70
     1
102
RTVSPost2010Prop41ColorIndex
 90
       18
102
RTVSPost2010Prop41ColorRGB
 90
        0
102
RTVSPost2010PropOp41
 70
     1
102
RTVSPost2010Prop42
 90
       50
102
RTVSPost2010PropOp42
 70
     1
102
RTVSPost2010Prop43
 90
        3
102
RTVSPost2010PropOp43
 70
     1
102
RTVSPost2010Prop44ColorIndex
 90
        5
102
RTVSPost2010Prop44ColorRGB
 90
      255
102
RTVSPost2010PropOp44
 70
     1
102
RTVSPost2010Prop45
280
     0
102
RTVSPost2010PropOp45
 70
     1
102
RTVSPost2010Prop46
 90
       50
102
RTVSPost2010PropOp46
 70
     1
102
RTVSPost2010Prop47
 90
       50
102
RTVSPost2010PropOp47
 70
     1
102
RTVSPost2010Prop48
 90
       50
102
RTVSPost2010PropOp48
 70
     1
102
RTVSPost2010Prop49
280
     0
102
RTVSPost2010PropOp49
 70
     1
102
RTVSPost2010Prop50
 90
       50
102
RTVSPost2010PropOp50
 70
     1
102
RTVSPost2010Prop51ColorIndex
 90
      256
102
RTVSPost2010Prop51ColorRGB
 90
-16777216
102
RTVSPost2010PropOp51
 70
     0
102
RTVSPost2010Prop52
140
1.0
102
RTVSPost2010PropOp52
 70
     0
102
RTVSPost2010Prop53
 90
        2
102
RTVSPost2010PropOp53
 70
     1
102
RTVSPost2010Prop54
  1
strokes_ogs.tif
102
RTVSPost2010PropOp54
 70
     1
102
RTVSPost2010Prop55
280
     0
102
RTVSPost2010PropOp55
 70
     1
102
RTVSPost2010Prop56
140
1.0
102
RTVSPost2010PropOp56
 70
     1
102
RTVSPost2010Prop57
140
1.0
102
RTVSPost2010PropOp57
 70
     1
  0
XRECORD
  5
257
102
{ACAD_REACTORS
330
256
102
}
330
256
100
AcDbXrecord
280
     1
102
RTVSPropertyOp0
 70
     1
102
RTVSPropertyOp1
 70
     1
102
RTVSPropertyOp2
 70
     1
102
RTVSPropertyOp3
 70
     1
102
RTVSPropertyOp4
 70
     1
102
RTVSPropertyOp5
 70
     1
102
RTVSPropertyOp6
 70
     1
102
RTVSPropertyOp7
 70
     1
102
RTVSPropertyOp8
 70
     1
102
RTVSPropertyOp9
 70
     1
102
RTVSPropertyOp10
 70
     1
102
RTVSPropertyOp11
 70
     1
102
RTVSPropertyOp12
 70
     1
102
RTVSPropertyOp13
 70
     1
102
RTVSPropertyOp14
 70
     1
102
RTVSPropertyOp15
 70
     1
102
RTVSPropertyOp16
 70
     1
102
RTVSPropertyOp17
 70
     1
102
RTVSPropertyOp18
 70
     1
102
RTVSPropertyOp19
 70
     1
102
RTVSPropertyOp20
 70
     1
102
RTVSPropertyOp21
 70
     1
102
RTVSPropertyOp22
 70
     1
102
RTVSPropertyOp23
 70
     1
102
RTVSPropertyOp24
 70
     1
102
RTVSPropertyOp25
 70
     1
102
RTVSPropertyOp26
 70
     1
102
RTVSPropertyOp27
 70
     1
102
RTVSPropertyOp28
 70
     1
102
RTVSPropertyOp29
 70
     1
102
RTVSPropertyOp30
 70
     1
102
RTVSPropertyOp31
 70
     1
102
RTVSPropertyOp32
 70
     1
102
RTVSPropertyOp33
 70
     1
102
RTVSPropertyOp34
 70
     1
102
RTVSPropertyOp35
 70
     1
102
RTVSPropertyOp36
 70
     1
102
RTVSPropertyOp37
 70
     1
102
RTVSPropertyOp38
 70
     1
102
RTVSPropertyOp39
 70
     1
102
RTVSPropertyOp40
 70
     1
102
RTVSPropertyOp41
 70
     1
102
RTVSPropertyOp42
 70
     1
102
RTVSPropertyOp43
 70
     1
102
RTVSPropertyOp44
 70
     1
102
RTVSPropertyOp45
 70
     1
102
RTVSPropertyOp46
 70
     1
102
RTVSPropertyOp47
 70
     1
102
RTVSPropertyOp48
 70
     1
102
RTVSPropertyOp49
 70
     1
102
RTVSPropertyOp50
 70
     1
102
RTVSPropertyOp51
 70
     0
102
RTVSPropertyOp52
 70
     0
102
RTVSPropertyOp53
 70
     1
102
RTVSPropertyOp54
 70
     1
102
RTVSPropertyOp55
 70
     1
102
RTVSPropertyOp56
 70
     1
102
RTVSPropertyOp57
 70
     1
102
RTVSPost2010Prop28
280
     0
102
RTVSPost2010PropOp28
 70
     1
102
RTVSPost2010Prop29
280
     1
102
RTVSPost2010PropOp29
 70
     1
102
RTVSPost2010Prop30
280
     1
102
RTVSPost2010PropOp30
 70
     1
102
RTVSPost2010Prop31
280
     0
102
RTVSPost2010PropOp31
 70
     1
102
RTVSPost2010Prop32
280
     0
102
RTVSPost2010PropOp32
 70
     1
102
RTVSPost2010Prop33
280
     0
102
RTVSPost2010PropOp33
 70
     1
102
RTVSPost2010Prop34
280
     0
102
RTVSPost2010PropOp34
 70
     1
102
RTVSPost2010Prop35
280
     0
102
RTVSPost2010PropOp35
 70
     1
102
RTVSPost2010Prop36
280
     0
102
RTVSPost2010PropOp36
 70
     1
102
RTVSPost2010Prop37
 90
       50
102
RTVSPost2010PropOp37
 70
     1
102
RTVSPost2010Prop38
140
0.0
102
RTVSPost2010PropOp38
 70
     1
102
RTVSPost2010Prop39
140
1.0
102
RTVSPost2010PropOp39
 70
     1
102
RTVSPost2010Prop40
 90
        0
102
RTVSPost2010PropOp40
 70
     1
102
RTVSPost2010Prop41ColorIndex
 90
       18
102
RTVSPost2010Prop41ColorRGB
 90
        0
102
RTVSPost2010PropOp41
 70
     1
102
RTVSPost2010Prop42
 90
       50
102
RTVSPost2010PropOp42
 70
     1
102
RTVSPost2010Prop43
 90
        3
102
RTVSPost2010PropOp43
 70
     1
102
RTVSPost2010Prop44ColorIndex
 90
        5
102
RTVSPost2010Prop44ColorRGB
 90
      255
102
RTVSPost2010PropOp44
 70
     1
102
RTVSPost2010Prop45
280
     0
102
RTVSPost2010PropOp45
 70
     1
102
RTVSPost2010Prop46
 90
       50
102
RTVSPost2010PropOp46
 70
     1
102
RTVSPost2010Prop47
 90
       50
102
RTVSPost2010PropOp47
 70
     1
102
RTVSPost2010Prop48
 90
       50
102
RTVSPost2010PropOp48
 70
     1
102
RTVSPost2010Prop49
280
     0
102
RTVSPost2010PropOp49
 70
     1
102
RTVSPost2010Prop50
 90
       50
102
RTVSPost2010PropOp50
 70
     1
102
RTVSPost2010Prop51ColorIndex
 90
      256
102
RTVSPost2010Prop51ColorRGB
 90
-16777216
102
RTVSPost2010PropOp51
 70
     0
102
RTVSPost2010Prop52
140
1.0
102
RTVSPost2010PropOp52
 70
     0
102
RTVSPost2010Prop53
 90
        2
102
RTVSPost2010PropOp53
 70
     1
102
RTVSPost2010Prop54
  1
strokes_ogs.tif
102
RTVSPost2010PropOp54
 70
     1
102
RTVSPost2010Prop55
280
     0
102
RTVSPost2010PropOp55
 70
     1
102
RTVSPost2010Prop56
140
1.0
102
RTVSPost2010PropOp56
 70
     1
102
RTVSPost2010Prop57
140
1.0
102
RTVSPost2010PropOp57
 70
     1
  0
XRECORD
  5
25F
102
{ACAD_REACTORS
330
25E
102
}
330
25E
100
AcDbXrecord
280
     1
102
RTVSPropertyOp0
 70
     1
102
RTVSPropertyOp1
 70
     1
102
RTVSPropertyOp2
 70
     1
102
RTVSPropertyOp3
 70
     1
102
RTVSPropertyOp4
 70
     1
102
RTVSPropertyOp5
 70
     1
102
RTVSPropertyOp6
 70
     1
102
RTVSPropertyOp7
 70
     1
102
RTVSPropertyOp8
 70
     1
102
RTVSPropertyOp9
 70
     1
102
RTVSPropertyOp10
 70
     1
102
RTVSPropertyOp11
 70
     1
102
RTVSPropertyOp12
 70
     1
102
RTVSPropertyOp13
 70
     1
102
RTVSPropertyOp14
 70
     1
102
RTVSPropertyOp15
 70
     1
102
RTVSPropertyOp16
 70
     1
102
RTVSPropertyOp17
 70
     1
102
RTVSPropertyOp18
 70
     1
102
RTVSPropertyOp19
 70
     1
102
RTVSPropertyOp20
 70
     1
102
RTVSPropertyOp21
 70
     1
102
RTVSPropertyOp22
 70
     1
102
RTVSPropertyOp23
 70
     1
102
RTVSPropertyOp24
 70
     1
102
RTVSPropertyOp25
 70
     1
102
RTVSPropertyOp26
 70
     1
102
RTVSPropertyOp27
 70
     1
102
RTVSPropertyOp28
 70
     1
102
RTVSPropertyOp29
 70
     1
102
RTVSPropertyOp30
 70
     1
102
RTVSPropertyOp31
 70
     1
102
RTVSPropertyOp32
 70
     1
102
RTVSPropertyOp33
 70
     1
102
RTVSPropertyOp34
 70
     1
102
RTVSPropertyOp35
 70
     1
102
RTVSPropertyOp36
 70
     1
102
RTVSPropertyOp37
 70
     1
102
RTVSPropertyOp38
 70
     1
102
RTVSPropertyOp39
 70
     1
102
RTVSPropertyOp40
 70
     1
102
RTVSPropertyOp41
 70
     1
102
RTVSPropertyOp42
 70
     1
102
RTVSPropertyOp43
 70
     1
102
RTVSPropertyOp44
 70
     1
102
RTVSPropertyOp45
 70
     1
102
RTVSPropertyOp46
 70
     1
102
RTVSPropertyOp47
 70
     1
102
RTVSPropertyOp48
 70
     1
102
RTVSPropertyOp49
 70
     1
102
RTVSPropertyOp50
 70
     1
102
RTVSPropertyOp51
 70
     0
102
RTVSPropertyOp52
 70
     0
102
RTVSPropertyOp53
 70
     1
102
RTVSPropertyOp54
 70
     1
102
RTVSPropertyOp55
 70
     1
102
RTVSPropertyOp56
 70
     1
102
RTVSPropertyOp57
 70
     1
102
RTVSPost2010Prop28
280
     0
102
RTVSPost2010PropOp28
 70
     1
102
RTVSPost2010Prop29
280
     1
102
RTVSPost2010PropOp29
 70
     1
102
RTVSPost2010Prop30
280
     1
102
RTVSPost2010PropOp30
 70
     1
102
RTVSPost2010Prop31
280
     0
102
RTVSPost2010PropOp31
 70
     1
102
RTVSPost2010Prop32
280
     0
102
RTVSPost2010PropOp32
 70
     1
102
RTVSPost2010Prop33
280
     0
102
RTVSPost2010PropOp33
 70
     1
102
RTVSPost2010Prop34
280
     0
102
RTVSPost2010PropOp34
 70
     1
102
RTVSPost2010Prop35
280
     0
102
RTVSPost2010PropOp35
 70
     1
102
RTVSPost2010Prop36
280
     0
102
RTVSPost2010PropOp36
 70
     1
102
RTVSPost2010Prop37
 90
       50
102
RTVSPost2010PropOp37
 70
     1
102
RTVSPost2010Prop38
140
0.0
102
RTVSPost2010PropOp38
 70
     1
102
RTVSPost2010Prop39
140
1.0
102
RTVSPost2010PropOp39
 70
     1
102
RTVSPost2010Prop40
 90
        0
102
RTVSPost2010PropOp40
 70
     1
102
RTVSPost2010Prop41ColorIndex
 90
       18
102
RTVSPost2010Prop41ColorRGB
 90
        0
102
RTVSPost2010PropOp41
 70
     1
102
RTVSPost2010Prop42
 90
       50
102
RTVSPost2010PropOp42
 70
     1
102
RTVSPost2010Prop43
 90
        3
102
RTVSPost2010PropOp43
 70
     1
102
RTVSPost2010Prop44ColorIndex
 90
        5
102
RTVSPost2010Prop44ColorRGB
 90
      255
102
RTVSPost2010PropOp44
 70
     1
102
RTVSPost2010Prop45
280
     0
102
RTVSPost2010PropOp45
 70
     1
102
RTVSPost2010Prop46
 90
       50
102
RTVSPost2010PropOp46
 70
     1
102
RTVSPost2010Prop47
 90
       50
102
RTVSPost2010PropOp47
 70
     1
102
RTVSPost2010Prop48
 90
       50
102
RTVSPost2010PropOp48
 70
     1
102
RTVSPost2010Prop49
280
     0
102
RTVSPost2010PropOp49
 70
     1
102
RTVSPost2010Prop50
 90
       50
102
RTVSPost2010PropOp50
 70
     1
102
RTVSPost2010Prop51ColorIndex
 90
      256
102
RTVSPost2010Prop51ColorRGB
 90
-16777216
102
RTVSPost2010PropOp51
 70
     0
102
RTVSPost2010Prop52
140
1.0
102
RTVSPost2010PropOp52
 70
     0
102
RTVSPost2010Prop53
 90
        2
102
RTVSPost2010PropOp53
 70
     1
102
RTVSPost2010Prop54
  1
strokes_ogs.tif
102
RTVSPost2010PropOp54
 70
     1
102
RTVSPost2010Prop55
280
     0
102
RTVSPost2010PropOp55
 70
     1
102
RTVSPost2010Prop56
140
1.0
102
RTVSPost2010PropOp56
 70
     1
102
RTVSPost2010Prop57
140
1.0
102
RTVSPost2010PropOp57
 70
     1
  0
XRECORD
  5
267
102
{ACAD_REACTORS
330
266
102
}
330
266
100
AcDbXrecord
280
     1
102
RTVSPropertyOp0
 70
     1
102
RTVSPropertyOp1
 70
     1
102
RTVSPropertyOp2
 70
     1
102
RTVSPropertyOp3
 70
     1
102
RTVSPropertyOp4
 70
     1
102
RTVSPropertyOp5
 70
     1
102
RTVSPropertyOp6
 70
     1
102
RTVSPropertyOp7
 70
     1
102
RTVSPropertyOp8
 70
     1
102
RTVSPropertyOp9
 70
     1
102
RTVSPropertyOp10
 70
     1
102
RTVSPropertyOp11
 70
     1
102
RTVSPropertyOp12
 70
     1
102
RTVSPropertyOp13
 70
     1
102
RTVSPropertyOp14
 70
     1
102
RTVSPropertyOp15
 70
     1
102
RTVSPropertyOp16
 70
     1
102
RTVSPropertyOp17
 70
     1
102
RTVSPropertyOp18
 70
     1
102
RTVSPropertyOp19
 70
     1
102
RTVSPropertyOp20
 70
     1
102
RTVSPropertyOp21
 70
     1
102
RTVSPropertyOp22
 70
     1
102
RTVSPropertyOp23
 70
     1
102
RTVSPropertyOp24
 70
     1
102
RTVSPropertyOp25
 70
     1
102
RTVSPropertyOp26
 70
     1
102
RTVSPropertyOp27
 70
     1
102
RTVSPropertyOp28
 70
     1
102
RTVSPropertyOp29
 70
     1
102
RTVSPropertyOp30
 70
     1
102
RTVSPropertyOp31
 70
     1
102
RTVSPropertyOp32
 70
     1
102
RTVSPropertyOp33
 70
     1
102
RTVSPropertyOp34
 70
     1
102
RTVSPropertyOp35
 70
     1
102
RTVSPropertyOp36
 70
     1
102
RTVSPropertyOp37
 70
     1
102
RTVSPropertyOp38
 70
     1
102
RTVSPropertyOp39
 70
     1
102
RTVSPropertyOp40
 70
     1
102
RTVSPropertyOp41
 70
     1
102
RTVSPropertyOp42
 70
     1
102
RTVSPropertyOp43
 70
     1
102
RTVSPropertyOp44
 70
     1
102
RTVSPropertyOp45
 70
     1
102
RTVSPropertyOp46
 70
     1
102
RTVSPropertyOp47
 70
     1
102
RTVSPropertyOp48
 70
     1
102
RTVSPropertyOp49
 70
     1
102
RTVSPropertyOp50
 70
     1
102
RTVSPropertyOp51
 70
     0
102
RTVSPropertyOp52
 70
     0
102
RTVSPropertyOp53
 70
     1
102
RTVSPropertyOp54
 70
     1
102
RTVSPropertyOp55
 70
     1
102
RTVSPropertyOp56
 70
     1
102
RTVSPropertyOp57
 70
     1
102
RTVSPost2010Prop28
280
     0
102
RTVSPost2010PropOp28
 70
     1
102
RTVSPost2010Prop29
280
     1
102
RTVSPost2010PropOp29
 70
     1
102
RTVSPost2010Prop30
280
     1
102
RTVSPost2010PropOp30
 70
     1
102
RTVSPost2010Prop31
280
     0
102
RTVSPost2010PropOp31
 70
     1
102
RTVSPost2010Prop32
280
     0
102
RTVSPost2010PropOp32
 70
     1
102
RTVSPost2010Prop33
280
     0
102
RTVSPost2010PropOp33
 70
     1
102
RTVSPost2010Prop34
280
     0
102
RTVSPost2010PropOp34
 70
     1
102
RTVSPost2010Prop35
280
     0
102
RTVSPost2010PropOp35
 70
     1
102
RTVSPost2010Prop36
280
     0
102
RTVSPost2010PropOp36
 70
     1
102
RTVSPost2010Prop37
 90
       50
102
RTVSPost2010PropOp37
 70
     1
102
RTVSPost2010Prop38
140
0.0
102
RTVSPost2010PropOp38
 70
     1
102
RTVSPost2010Prop39
140
1.0
102
RTVSPost2010PropOp39
 70
     1
102
RTVSPost2010Prop40
 90
        0
102
RTVSPost2010PropOp40
 70
     1
102
RTVSPost2010Prop41ColorIndex
 90
       18
102
RTVSPost2010Prop41ColorRGB
 90
        0
102
RTVSPost2010PropOp41
 70
     1
102
RTVSPost2010Prop42
 90
       50
102
RTVSPost2010PropOp42
 70
     1
102
RTVSPost2010Prop43
 90
        3
102
RTVSPost2010PropOp43
 70
     1
102
RTVSPost2010Prop44ColorIndex
 90
        5
102
RTVSPost2010Prop44ColorRGB
 90
      255
102
RTVSPost2010PropOp44
 70
     1
102
RTVSPost2010Prop45
280
     0
102
RTVSPost2010PropOp45
 70
     1
102
RTVSPost2010Prop46
 90
       50
102
RTVSPost2010PropOp46
 70
     1
102
RTVSPost2010Prop47
 90
       50
102
RTVSPost2010PropOp47
 70
     1
102
RTVSPost2010Prop48
 90
       50
102
RTVSPost2010PropOp48
 70
     1
102
RTVSPost2010Prop49
280
     0
102
RTVSPost2010PropOp49
 70
     1
102
RTVSPost2010Prop50
 90
       50
102
RTVSPost2010PropOp50
 70
     1
102
RTVSPost2010Prop51ColorIndex
 90
      256
102
RTVSPost2010Prop51ColorRGB
 90
-16777216
102
RTVSPost2010PropOp51
 70
     0
102
RTVSPost2010Prop52
140
1.0
102
RTVSPost2010PropOp52
 70
     0
102
RTVSPost2010Prop53
 90
        2
102
RTVSPost2010PropOp53
 70
     1
102
RTVSPost2010Prop54
  1
strokes_ogs.tif
102
RTVSPost2010PropOp54
 70
     1
102
RTVSPost2010Prop55
280
     0
102
RTVSPost2010PropOp55
 70
     1
102
RTVSPost2010Prop56
140
1.0
102
RTVSPost2010PropOp56
 70
     1
102
RTVSPost2010Prop57
140
1.0
102
RTVSPost2010PropOp57
 70
     1
  0
XRECORD
  5
25B
102
{ACAD_REACTORS
330
25A
102
}
330
25A
100
AcDbXrecord
280
     1
102
RTVSPropertyOp0
 70
     1
102
RTVSPropertyOp1
 70
     1
102
RTVSPropertyOp2
 70
     1
102
RTVSPropertyOp3
 70
     1
102
RTVSPropertyOp4
 70
     1
102
RTVSPropertyOp5
 70
     1
102
RTVSPropertyOp6
 70
     1
102
RTVSPropertyOp7
 70
     1
102
RTVSPropertyOp8
 70
     1
102
RTVSPropertyOp9
 70
     1
102
RTVSPropertyOp10
 70
     1
102
RTVSPropertyOp11
 70
     1
102
RTVSPropertyOp12
 70
     1
102
RTVSPropertyOp13
 70
     1
102
RTVSPropertyOp14
 70
     1
102
RTVSPropertyOp15
 70
     1
102
RTVSPropertyOp16
 70
     1
102
RTVSPropertyOp17
 70
     1
102
RTVSPropertyOp18
 70
     1
102
RTVSPropertyOp19
 70
     1
102
RTVSPropertyOp20
 70
     1
102
RTVSPropertyOp21
 70
     1
102
RTVSPropertyOp22
 70
     1
102
RTVSPropertyOp23
 70
     1
102
RTVSPropertyOp24
 70
     1
102
RTVSPropertyOp25
 70
     1
102
RTVSPropertyOp26
 70
     1
102
RTVSPropertyOp27
 70
     1
102
RTVSPropertyOp28
 70
     1
102
RTVSPropertyOp29
 70
     1
102
RTVSPropertyOp30
 70
     1
102
RTVSPropertyOp31
 70
     1
102
RTVSPropertyOp32
 70
     1
102
RTVSPropertyOp33
 70
     1
102
RTVSPropertyOp34
 70
     1
102
RTVSPropertyOp35
 70
     1
102
RTVSPropertyOp36
 70
     1
102
RTVSPropertyOp37
 70
     1
102
RTVSPropertyOp38
 70
     1
102
RTVSPropertyOp39
 70
     1
102
RTVSPropertyOp40
 70
     1
102
RTVSPropertyOp41
 70
     1
102
RTVSPropertyOp42
 70
     1
102
RTVSPropertyOp43
 70
     1
102
RTVSPropertyOp44
 70
     1
102
RTVSPropertyOp45
 70
     1
102
RTVSPropertyOp46
 70
     1
102
RTVSPropertyOp47
 70
     1
102
RTVSPropertyOp48
 70
     1
102
RTVSPropertyOp49
 70
     1
102
RTVSPropertyOp50
 70
     1
102
RTVSPropertyOp51
 70
     0
102
RTVSPropertyOp52
 70
     0
102
RTVSPropertyOp53
 70
     1
102
RTVSPropertyOp54
 70
     1
102
RTVSPropertyOp55
 70
     1
102
RTVSPropertyOp56
 70
     1
102
RTVSPropertyOp57
 70
     1
102
RTVSPost2010Prop28
280
     0
102
RTVSPost2010PropOp28
 70
     1
102
RTVSPost2010Prop29
280
     1
102
RTVSPost2010PropOp29
 70
     1
102
RTVSPost2010Prop30
280
     1
102
RTVSPost2010PropOp30
 70
     1
102
RTVSPost2010Prop31
280
     0
102
RTVSPost2010PropOp31
 70
     1
102
RTVSPost2010Prop32
280
     0
102
RTVSPost2010PropOp32
 70
     1
102
RTVSPost2010Prop33
280
     0
102
RTVSPost2010PropOp33
 70
     1
102
RTVSPost2010Prop34
280
     0
102
RTVSPost2010PropOp34
 70
     1
102
RTVSPost2010Prop35
280
     0
102
RTVSPost2010PropOp35
 70
     1
102
RTVSPost2010Prop36
280
     0
102
RTVSPost2010PropOp36
 70
     1
102
RTVSPost2010Prop37
 90
       50
102
RTVSPost2010PropOp37
 70
     1
102
RTVSPost2010Prop38
140
0.0
102
RTVSPost2010PropOp38
 70
     1
102
RTVSPost2010Prop39
140
1.0
102
RTVSPost2010PropOp39
 70
     1
102
RTVSPost2010Prop40
 90
        0
102
RTVSPost2010PropOp40
 70
     1
102
RTVSPost2010Prop41ColorIndex
 90
       18
102
RTVSPost2010Prop41ColorRGB
 90
        0
102
RTVSPost2010PropOp41
 70
     1
102
RTVSPost2010Prop42
 90
       50
102
RTVSPost2010PropOp42
 70
     1
102
RTVSPost2010Prop43
 90
        3
102
RTVSPost2010PropOp43
 70
     1
102
RTVSPost2010Prop44ColorIndex
 90
        5
102
RTVSPost2010Prop44ColorRGB
 90
      255
102
RTVSPost2010PropOp44
 70
     1
102
RTVSPost2010Prop45
280
     0
102
RTVSPost2010PropOp45
 70
     1
102
RTVSPost2010Prop46
 90
       50
102
RTVSPost2010PropOp46
 70
     1
102
RTVSPost2010Prop47
 90
       50
102
RTVSPost2010PropOp47
 70
     1
102
RTVSPost2010Prop48
 90
       50
102
RTVSPost2010PropOp48
 70
     1
102
RTVSPost2010Prop49
280
     0
102
RTVSPost2010PropOp49
 70
     1
102
RTVSPost2010Prop50
 90
       50
102
RTVSPost2010PropOp50
 70
     1
102
RTVSPost2010Prop51ColorIndex
 90
      256
102
RTVSPost2010Prop51ColorRGB
 90
-16777216
102
RTVSPost2010PropOp51
 70
     0
102
RTVSPost2010Prop52
140
1.0
102
RTVSPost2010PropOp52
 70
     0
102
RTVSPost2010Prop53
 90
        2
102
RTVSPost2010PropOp53
 70
     1
102
RTVSPost2010Prop54
  1
strokes_ogs.tif
102
RTVSPost2010PropOp54
 70
     1
102
RTVSPost2010Prop55
280
     0
102
RTVSPost2010PropOp55
 70
     1
102
RTVSPost2010Prop56
140
1.0
102
RTVSPost2010PropOp56
 70
     1
102
RTVSPost2010Prop57
140
1.0
102
RTVSPost2010PropOp57
 70
     1
  0
XRECORD
  5
25D
102
{ACAD_REACTORS
330
25C
102
}
330
25C
100
AcDbXrecord
280
     1
102
RTVSPropertyOp0
 70
     1
102
RTVSPropertyOp1
 70
     1
102
RTVSPropertyOp2
 70
     1
102
RTVSPropertyOp3
 70
     1
102
RTVSPropertyOp4
 70
     1
102
RTVSPropertyOp5
 70
     1
102
RTVSPropertyOp6
 70
     1
102
RTVSPropertyOp7
 70
     1
102
RTVSPropertyOp8
 70
     1
102
RTVSPropertyOp9
 70
     1
102
RTVSPropertyOp10
 70
     1
102
RTVSPropertyOp11
 70
     1
102
RTVSPropertyOp12
 70
     1
102
RTVSPropertyOp13
 70
     1
102
RTVSPropertyOp14
 70
     1
102
RTVSPropertyOp15
 70
     1
102
RTVSPropertyOp16
 70
     1
102
RTVSPropertyOp17
 70
     1
102
RTVSPropertyOp18
 70
     1
102
RTVSPropertyOp19
 70
     1
102
RTVSPropertyOp20
 70
     1
102
RTVSPropertyOp21
 70
     1
102
RTVSPropertyOp22
 70
     1
102
RTVSPropertyOp23
 70
     1
102
RTVSPropertyOp24
 70
     1
102
RTVSPropertyOp25
 70
     1
102
RTVSPropertyOp26
 70
     1
102
RTVSPropertyOp27
 70
     1
102
RTVSPropertyOp28
 70
     1
102
RTVSPropertyOp29
 70
     1
102
RTVSPropertyOp30
 70
     1
102
RTVSPropertyOp31
 70
     1
102
RTVSPropertyOp32
 70
     1
102
RTVSPropertyOp33
 70
     1
102
RTVSPropertyOp34
 70
     1
102
RTVSPropertyOp35
 70
     1
102
RTVSPropertyOp36
 70
     1
102
RTVSPropertyOp37
 70
     1
102
RTVSPropertyOp38
 70
     1
102
RTVSPropertyOp39
 70
     1
102
RTVSPropertyOp40
 70
     1
102
RTVSPropertyOp41
 70
     1
102
RTVSPropertyOp42
 70
     1
102
RTVSPropertyOp43
 70
     1
102
RTVSPropertyOp44
 70
     1
102
RTVSPropertyOp45
 70
     1
102
RTVSPropertyOp46
 70
     1
102
RTVSPropertyOp47
 70
     1
102
RTVSPropertyOp48
 70
     1
102
RTVSPropertyOp49
 70
     1
102
RTVSPropertyOp50
 70
     1
102
RTVSPropertyOp51
 70
     0
102
RTVSPropertyOp52
 70
     0
102
RTVSPropertyOp53
 70
     1
102
RTVSPropertyOp54
 70
     1
102
RTVSPropertyOp55
 70
     1
102
RTVSPropertyOp56
 70
     1
102
RTVSPropertyOp57
 70
     1
102
RTVSPost2010Prop28
280
     0
102
RTVSPost2010PropOp28
 70
     1
102
RTVSPost2010Prop29
280
     1
102
RTVSPost2010PropOp29
 70
     1
102
RTVSPost2010Prop30
280
     1
102
RTVSPost2010PropOp30
 70
     1
102
RTVSPost2010Prop31
280
     0
102
RTVSPost2010PropOp31
 70
     1
102
RTVSPost2010Prop32
280
     0
102
RTVSPost2010PropOp32
 70
     1
102
RTVSPost2010Prop33
280
     0
102
RTVSPost2010PropOp33
 70
     1
102
RTVSPost2010Prop34
280
     0
102
RTVSPost2010PropOp34
 70
     1
102
RTVSPost2010Prop35
280
     0
102
RTVSPost2010PropOp35
 70
     1
102
RTVSPost2010Prop36
280
     0
102
RTVSPost2010PropOp36
 70
     1
102
RTVSPost2010Prop37
 90
       50
102
RTVSPost2010PropOp37
 70
     1
102
RTVSPost2010Prop38
140
0.0
102
RTVSPost2010PropOp38
 70
     1
102
RTVSPost2010Prop39
140
1.0
102
RTVSPost2010PropOp39
 70
     1
102
RTVSPost2010Prop40
 90
        0
102
RTVSPost2010PropOp40
 70
     1
102
RTVSPost2010Prop41ColorIndex
 90
       18
102
RTVSPost2010Prop41ColorRGB
 90
        0
102
RTVSPost2010PropOp41
 70
     1
102
RTVSPost2010Prop42
 90
       50
102
RTVSPost2010PropOp42
 70
     1
102
RTVSPost2010Prop43
 90
        3
102
RTVSPost2010PropOp43
 70
     1
102
RTVSPost2010Prop44ColorIndex
 90
        5
102
RTVSPost2010Prop44ColorRGB
 90
      255
102
RTVSPost2010PropOp44
 70
     1
102
RTVSPost2010Prop45
280
     0
102
RTVSPost2010PropOp45
 70
     1
102
RTVSPost2010Prop46
 90
       50
102
RTVSPost2010PropOp46
 70
     1
102
RTVSPost2010Prop47
 90
       50
102
RTVSPost2010PropOp47
 70
     1
102
RTVSPost2010Prop48
 90
       50
102
RTVSPost2010PropOp48
 70
     1
102
RTVSPost2010Prop49
280
     0
102
RTVSPost2010PropOp49
 70
     1
102
RTVSPost2010Prop50
 90
       50
102
RTVSPost2010PropOp50
 70
     1
102
RTVSPost2010Prop51ColorIndex
 90
      256
102
RTVSPost2010Prop51ColorRGB
 90
-16777216
102
RTVSPost2010PropOp51
 70
     0
102
RTVSPost2010Prop52
140
1.0
102
RTVSPost2010PropOp52
 70
     0
102
RTVSPost2010Prop53
 90
        2
102
RTVSPost2010PropOp53
 70
     1
102
RTVSPost2010Prop54
  1
strokes_ogs.tif
102
RTVSPost2010PropOp54
 70
     1
102
RTVSPost2010Prop55
280
     0
102
RTVSPost2010PropOp55
 70
     1
102
RTVSPost2010Prop56
140
1.0
102
RTVSPost2010PropOp56
 70
     1
102
RTVSPost2010Prop57
140
1.0
102
RTVSPost2010PropOp57
 70
     1
  0
XRECORD
  5
26D
102
{ACAD_REACTORS
330
26C
102
}
330
26C
100
AcDbXrecord
280
     1
102
RTVSPropertyOp0
 70
     0
102
RTVSPropertyOp1
 70
     0
102
RTVSPropertyOp2
 70
     0
102
RTVSPropertyOp3
 70
     0
102
RTVSPropertyOp4
 70
     0
102
RTVSPropertyOp5
 70
     0
102
RTVSPropertyOp6
 70
     0
102
RTVSPropertyOp7
 70
     0
102
RTVSPropertyOp8
 70
     0
102
RTVSPropertyOp9
 70
     0
102
RTVSPropertyOp10
 70
     0
102
RTVSPropertyOp11
 70
     0
102
RTVSPropertyOp12
 70
     0
102
RTVSPropertyOp13
 70
     0
102
RTVSPropertyOp14
 70
     2
102
RTVSPropertyOp15
 70
     0
102
RTVSPropertyOp16
 70
     0
102
RTVSPropertyOp17
 70
     0
102
RTVSPropertyOp18
 70
     0
102
RTVSPropertyOp19
 70
     0
102
RTVSPropertyOp20
 70
     0
102
RTVSPropertyOp21
 70
     0
102
RTVSPropertyOp22
 70
     0
102
RTVSPropertyOp23
 70
     0
102
RTVSPropertyOp24
 70
     0
102
RTVSPropertyOp25
 70
     0
102
RTVSPropertyOp26
 70
     0
102
RTVSPropertyOp27
 70
     0
102
RTVSPropertyOp28
 70
     0
102
RTVSPropertyOp29
 70
     0
102
RTVSPropertyOp30
 70
     0
102
RTVSPropertyOp31
 70
     0
102
RTVSPropertyOp32
 70
     0
102
RTVSPropertyOp33
 70
     0
102
RTVSPropertyOp34
 70
     0
102
RTVSPropertyOp35
 70
     0
102
RTVSPropertyOp36
 70
     0
102
RTVSPropertyOp37
 70
     0
102
RTVSPropertyOp38
 70
     0
102
RTVSPropertyOp39
 70
     0
102
RTVSPropertyOp40
 70
     0
102
RTVSPropertyOp41
 70
     0
102
RTVSPropertyOp42
 70
     0
102
RTVSPropertyOp43
 70
     0
102
RTVSPropertyOp44
 70
     0
102
RTVSPropertyOp45
 70
     0
102
RTVSPropertyOp46
 70
     0
102
RTVSPropertyOp47
 70
     0
102
RTVSPropertyOp48
 70
     0
102
RTVSPropertyOp49
 70
     0
102
RTVSPropertyOp50
 70
     0
102
RTVSPropertyOp51
 70
     0
102
RTVSPropertyOp52
 70
     0
102
RTVSPropertyOp53
 70
     0
102
RTVSPropertyOp54
 70
     0
102
RTVSPropertyOp55
 70
     0
102
RTVSPropertyOp56
 70
     0
102
RTVSPropertyOp57
 70
     0
102
RTVSPost2010Prop28
280
     0
102
RTVSPost2010PropOp28
 70
     0
102
RTVSPost2010Prop29
280
     1
102
RTVSPost2010PropOp29
 70
     0
102
RTVSPost2010Prop30
280
     1
102
RTVSPost2010PropOp30
 70
     0
102
RTVSPost2010Prop31
280
     0
102
RTVSPost2010PropOp31
 70
     0
102
RTVSPost2010Prop32
280
     0
102
RTVSPost2010PropOp32
 70
     0
102
RTVSPost2010Prop33
280
     0
102
RTVSPost2010PropOp33
 70
     0
102
RTVSPost2010Prop34
280
     0
102
RTVSPost2010PropOp34
 70
     0
102
RTVSPost2010Prop35
280
     0
102
RTVSPost2010PropOp35
 70
     0
102
RTVSPost2010Prop36
280
     0
102
RTVSPost2010PropOp36
 70
     0
102
RTVSPost2010Prop37
 90
       50
102
RTVSPost2010PropOp37
 70
     0
102
RTVSPost2010Prop38
140
0.0
102
RTVSPost2010PropOp38
 70
     0
102
RTVSPost2010Prop39
140
1.0
102
RTVSPost2010PropOp39
 70
     0
102
RTVSPost2010Prop40
 90
        0
102
RTVSPost2010PropOp40
 70
     0
102
RTVSPost2010Prop41ColorIndex
 90
       18
102
RTVSPost2010Prop41ColorRGB
 90
        0
102
RTVSPost2010PropOp41
 70
     0
102
RTVSPost2010Prop42
 90
       50
102
RTVSPost2010PropOp42
 70
     0
102
RTVSPost2010Prop43
 90
        3
102
RTVSPost2010PropOp43
 70
     0
102
RTVSPost2010Prop44ColorIndex
 90
        5
102
RTVSPost2010Prop44ColorRGB
 90
      255
102
RTVSPost2010PropOp44
 70
     0
102
RTVSPost2010Prop45
280
     0
102
RTVSPost2010PropOp45
 70
     0
102
RTVSPost2010Prop46
 90
       50
102
RTVSPost2010PropOp46
 70
     0
102
RTVSPost2010Prop47
 90
       50
102
RTVSPost2010PropOp47
 70
     0
102
RTVSPost2010Prop48
 90
       50
102
RTVSPost2010PropOp48
 70
     0
102
RTVSPost2010Prop49
280
     0
102
RTVSPost2010PropOp49
 70
     0
102
RTVSPost2010Prop50
 90
       50
102
RTVSPost2010PropOp50
 70
     0
102
RTVSPost2010Prop51ColorIndex
 90
      256
102
RTVSPost2010Prop51ColorRGB
 90
-16777216
102
RTVSPost2010PropOp51
 70
     0
102
RTVSPost2010Prop52
140
1.0
102
RTVSPost2010PropOp52
 70
     0
102
RTVSPost2010Prop53
 90
        2
102
RTVSPost2010PropOp53
 70
     0
102
RTVSPost2010Prop54
  1
strokes_ogs.tif
102
RTVSPost2010PropOp54
 70
     0
102
RTVSPost2010Prop55
280
     0
102
RTVSPost2010PropOp55
 70
     0
102
RTVSPost2010Prop56
140
1.0
102
RTVSPost2010PropOp56
 70
     0
102
RTVSPost2010Prop57
140
1.0
102
RTVSPost2010PropOp57
 70
     0
  0
XRECORD
  5
265
102
{ACAD_REACTORS
330
264
102
}
330
264
100
AcDbXrecord
280
     1
102
RTVSPropertyOp0
 70
     1
102
RTVSPropertyOp1
 70
     1
102
RTVSPropertyOp2
 70
     1
102
RTVSPropertyOp3
 70
     1
102
RTVSPropertyOp4
 70
     1
102
RTVSPropertyOp5
 70
     1
102
RTVSPropertyOp6
 70
     1
102
RTVSPropertyOp7
 70
     1
102
RTVSPropertyOp8
 70
     1
102
RTVSPropertyOp9
 70
     1
102
RTVSPropertyOp10
 70
     1
102
RTVSPropertyOp11
 70
     1
102
RTVSPropertyOp12
 70
     1
102
RTVSPropertyOp13
 70
     1
102
RTVSPropertyOp14
 70
     1
102
RTVSPropertyOp15
 70
     1
102
RTVSPropertyOp16
 70
     1
102
RTVSPropertyOp17
 70
     1
102
RTVSPropertyOp18
 70
     1
102
RTVSPropertyOp19
 70
     1
102
RTVSPropertyOp20
 70
     1
102
RTVSPropertyOp21
 70
     1
102
RTVSPropertyOp22
 70
     1
102
RTVSPropertyOp23
 70
     1
102
RTVSPropertyOp24
 70
     1
102
RTVSPropertyOp25
 70
     1
102
RTVSPropertyOp26
 70
     1
102
RTVSPropertyOp27
 70
     1
102
RTVSPropertyOp28
 70
     1
102
RTVSPropertyOp29
 70
     1
102
RTVSPropertyOp30
 70
     1
102
RTVSPropertyOp31
 70
     1
102
RTVSPropertyOp32
 70
     1
102
RTVSPropertyOp33
 70
     1
102
RTVSPropertyOp34
 70
     1
102
RTVSPropertyOp35
 70
     1
102
RTVSPropertyOp36
 70
     1
102
RTVSPropertyOp37
 70
     1
102
RTVSPropertyOp38
 70
     1
102
RTVSPropertyOp39
 70
     1
102
RTVSPropertyOp40
 70
     1
102
RTVSPropertyOp41
 70
     1
102
RTVSPropertyOp42
 70
     1
102
RTVSPropertyOp43
 70
     1
102
RTVSPropertyOp44
 70
     1
102
RTVSPropertyOp45
 70
     1
102
RTVSPropertyOp46
 70
     1
102
RTVSPropertyOp47
 70
     1
102
RTVSPropertyOp48
 70
     1
102
RTVSPropertyOp49
 70
     1
102
RTVSPropertyOp50
 70
     1
102
RTVSPropertyOp51
 70
     0
102
RTVSPropertyOp52
 70
     0
102
RTVSPropertyOp53
 70
     1
102
RTVSPropertyOp54
 70
     1
102
RTVSPropertyOp55
 70
     1
102
RTVSPropertyOp56
 70
     1
102
RTVSPropertyOp57
 70
     1
102
RTVSPost2010Prop28
280
     0
102
RTVSPost2010PropOp28
 70
     1
102
RTVSPost2010Prop29
280
     1
102
RTVSPost2010PropOp29
 70
     1
102
RTVSPost2010Prop30
280
     1
102
RTVSPost2010PropOp30
 70
     1
102
RTVSPost2010Prop31
280
     0
102
RTVSPost2010PropOp31
 70
     1
102
RTVSPost2010Prop32
280
     0
102
RTVSPost2010PropOp32
 70
     1
102
RTVSPost2010Prop33
280
     0
102
RTVSPost2010PropOp33
 70
     1
102
RTVSPost2010Prop34
280
     0
102
RTVSPost2010PropOp34
 70
     1
102
RTVSPost2010Prop35
280
     0
102
RTVSPost2010PropOp35
 70
     1
102
RTVSPost2010Prop36
280
     0
102
RTVSPost2010PropOp36
 70
     1
102
RTVSPost2010Prop37
 90
       50
102
RTVSPost2010PropOp37
 70
     1
102
RTVSPost2010Prop38
140
0.0
102
RTVSPost2010PropOp38
 70
     1
102
RTVSPost2010Prop39
140
1.0
102
RTVSPost2010PropOp39
 70
     1
102
RTVSPost2010Prop40
 90
        0
102
RTVSPost2010PropOp40
 70
     1
102
RTVSPost2010Prop41ColorIndex
 90
       18
102
RTVSPost2010Prop41ColorRGB
 90
        0
102
RTVSPost2010PropOp41
 70
     1
102
RTVSPost2010Prop42
 90
       50
102
RTVSPost2010PropOp42
 70
     1
102
RTVSPost2010Prop43
 90
        3
102
RTVSPost2010PropOp43
 70
     1
102
RTVSPost2010Prop44ColorIndex
 90
        5
102
RTVSPost2010Prop44ColorRGB
 90
      255
102
RTVSPost2010PropOp44
 70
     1
102
RTVSPost2010Prop45
280
     0
102
RTVSPost2010PropOp45
 70
     1
102
RTVSPost2010Prop46
 90
       50
102
RTVSPost2010PropOp46
 70
     1
102
RTVSPost2010Prop47
 90
       50
102
RTVSPost2010PropOp47
 70
     1
102
RTVSPost2010Prop48
 90
       50
102
RTVSPost2010PropOp48
 70
     1
102
RTVSPost2010Prop49
280
     0
102
RTVSPost2010PropOp49
 70
     1
102
RTVSPost2010Prop50
 90
       50
102
RTVSPost2010PropOp50
 70
     1
102
RTVSPost2010Prop51ColorIndex
 90
      256
102
RTVSPost2010Prop51ColorRGB
 90
-16777216
102
RTVSPost2010PropOp51
 70
     0
102
RTVSPost2010Prop52
140
1.0
102
RTVSPost2010PropOp52
 70
     0
102
RTVSPost2010Prop53
 90
        2
102
RTVSPost2010PropOp53
 70
     1
102
RTVSPost2010Prop54
  1
strokes_ogs.tif
102
RTVSPost2010PropOp54
 70
     1
102
RTVSPost2010Prop55
280
     0
102
RTVSPost2010PropOp55
 70
     1
102
RTVSPost2010Prop56
140
1.0
102
RTVSPost2010PropOp56
 70
     1
102
RTVSPost2010Prop57
140
1.0
102
RTVSPost2010PropOp57
 70
     1
  0
XRECORD
  5
249
102
{ACAD_REACTORS
330
248
102
}
330
248
100
AcDbXrecord
280
     1
102
RTVSPropertyOp0
 70
     1
102
RTVSPropertyOp1
 70
     1
102
RTVSPropertyOp2
 70
     1
102
RTVSPropertyOp3
 70
     1
102
RTVSPropertyOp4
 70
     1
102
RTVSPropertyOp5
 70
     1
102
RTVSPropertyOp6
 70
     1
102
RTVSPropertyOp7
 70
     1
102
RTVSPropertyOp8
 70
     1
102
RTVSPropertyOp9
 70
     1
102
RTVSPropertyOp10
 70
     1
102
RTVSPropertyOp11
 70
     1
102
RTVSPropertyOp12
 70
     1
102
RTVSPropertyOp13
 70
     1
102
RTVSPropertyOp14
 70
     1
102
RTVSPropertyOp15
 70
     1
102
RTVSPropertyOp16
 70
     1
102
RTVSPropertyOp17
 70
     1
102
RTVSPropertyOp18
 70
     1
102
RTVSPropertyOp19
 70
     1
102
RTVSPropertyOp20
 70
     1
102
RTVSPropertyOp21
 70
     1
102
RTVSPropertyOp22
 70
     1
102
RTVSPropertyOp23
 70
     1
102
RTVSPropertyOp24
 70
     1
102
RTVSPropertyOp25
 70
     1
102
RTVSPropertyOp26
 70
     1
102
RTVSPropertyOp27
 70
     1
102
RTVSPropertyOp28
 70
     1
102
RTVSPropertyOp29
 70
     1
102
RTVSPropertyOp30
 70
     1
102
RTVSPropertyOp31
 70
     1
102
RTVSPropertyOp32
 70
     1
102
RTVSPropertyOp33
 70
     1
102
RTVSPropertyOp34
 70
     1
102
RTVSPropertyOp35
 70
     1
102
RTVSPropertyOp36
 70
     1
102
RTVSPropertyOp37
 70
     1
102
RTVSPropertyOp38
 70
     1
102
RTVSPropertyOp39
 70
     1
102
RTVSPropertyOp40
 70
     1
102
RTVSPropertyOp41
 70
     1
102
RTVSPropertyOp42
 70
     1
102
RTVSPropertyOp43
 70
     1
102
RTVSPropertyOp44
 70
     1
102
RTVSPropertyOp45
 70
     1
102
RTVSPropertyOp46
 70
     1
102
RTVSPropertyOp47
 70
     1
102
RTVSPropertyOp48
 70
     1
102
RTVSPropertyOp49
 70
     1
102
RTVSPropertyOp50
 70
     1
102
RTVSPropertyOp51
 70
     0
102
RTVSPropertyOp52
 70
     0
102
RTVSPropertyOp53
 70
     1
102
RTVSPropertyOp54
 70
     1
102
RTVSPropertyOp55
 70
     1
102
RTVSPropertyOp56
 70
     1
102
RTVSPropertyOp57
 70
     1
102
RTVSPost2010Prop28
280
     0
102
RTVSPost2010PropOp28
 70
     1
102
RTVSPost2010Prop29
280
     1
102
RTVSPost2010PropOp29
 70
     1
102
RTVSPost2010Prop30
280
     1
102
RTVSPost2010PropOp30
 70
     1
102
RTVSPost2010Prop31
280
     0
102
RTVSPost2010PropOp31
 70
     1
102
RTVSPost2010Prop32
280
     0
102
RTVSPost2010PropOp32
 70
     1
102
RTVSPost2010Prop33
280
     0
102
RTVSPost2010PropOp33
 70
     1
102
RTVSPost2010Prop34
280
     0
102
RTVSPost2010PropOp34
 70
     1
102
RTVSPost2010Prop35
280
     0
102
RTVSPost2010PropOp35
 70
     1
102
RTVSPost2010Prop36
280
     0
102
RTVSPost2010PropOp36
 70
     1
102
RTVSPost2010Prop37
 90
       50
102
RTVSPost2010PropOp37
 70
     1
102
RTVSPost2010Prop38
140
0.0
102
RTVSPost2010PropOp38
 70
     1
102
RTVSPost2010Prop39
140
1.0
102
RTVSPost2010PropOp39
 70
     1
102
RTVSPost2010Prop40
 90
        0
102
RTVSPost2010PropOp40
 70
     1
102
RTVSPost2010Prop41ColorIndex
 90
       18
102
RTVSPost2010Prop41ColorRGB
 90
        0
102
RTVSPost2010PropOp41
 70
     1
102
RTVSPost2010Prop42
 90
       50
102
RTVSPost2010PropOp42
 70
     1
102
RTVSPost2010Prop43
 90
        3
102
RTVSPost2010PropOp43
 70
     1
102
RTVSPost2010Prop44ColorIndex
 90
        5
102
RTVSPost2010Prop44ColorRGB
 90
      255
102
RTVSPost2010PropOp44
 70
     1
102
RTVSPost2010Prop45
280
     0
102
RTVSPost2010PropOp45
 70
     1
102
RTVSPost2010Prop46
 90
       50
102
RTVSPost2010PropOp46
 70
     1
102
RTVSPost2010Prop47
 90
       50
102
RTVSPost2010PropOp47
 70
     1
102
RTVSPost2010Prop48
 90
       50
102
RTVSPost2010PropOp48
 70
     1
102
RTVSPost2010Prop49
280
     0
102
RTVSPost2010PropOp49
 70
     1
102
RTVSPost2010Prop50
 90
       50
102
RTVSPost2010PropOp50
 70
     1
102
RTVSPost2010Prop51ColorIndex
 90
      256
102
RTVSPost2010Prop51ColorRGB
 90
-16777216
102
RTVSPost2010PropOp51
 70
     0
102
RTVSPost2010Prop52
140
1.0
102
RTVSPost2010PropOp52
 70
     0
102
RTVSPost2010Prop53
 90
        2
102
RTVSPost2010PropOp53
 70
     1
102
RTVSPost2010Prop54
  1
strokes_ogs.tif
102
RTVSPost2010PropOp54
 70
     1
102
RTVSPost2010Prop55
280
     0
102
RTVSPost2010PropOp55
 70
     1
102
RTVSPost2010Prop56
140
1.0
102
RTVSPost2010PropOp56
 70
     1
102
RTVSPost2010Prop57
140
1.0
102
RTVSPost2010PropOp57
 70
     1
  0
XRECORD
  5
24B
102
{ACAD_REACTORS
330
24A
102
}
330
24A
100
AcDbXrecord
280
     1
102
RTVSPropertyOp0
 70
     1
102
RTVSPropertyOp1
 70
     1
102
RTVSPropertyOp2
 70
     1
102
RTVSPropertyOp3
 70
     1
102
RTVSPropertyOp4
 70
     1
102
RTVSPropertyOp5
 70
     1
102
RTVSPropertyOp6
 70
     1
102
RTVSPropertyOp7
 70
     1
102
RTVSPropertyOp8
 70
     1
102
RTVSPropertyOp9
 70
     1
102
RTVSPropertyOp10
 70
     1
102
RTVSPropertyOp11
 70
     1
102
RTVSPropertyOp12
 70
     1
102
RTVSPropertyOp13
 70
     1
102
RTVSPropertyOp14
 70
     1
102
RTVSPropertyOp15
 70
     1
102
RTVSPropertyOp16
 70
     1
102
RTVSPropertyOp17
 70
     1
102
RTVSPropertyOp18
 70
     1
102
RTVSPropertyOp19
 70
     1
102
RTVSPropertyOp20
 70
     1
102
RTVSPropertyOp21
 70
     1
102
RTVSPropertyOp22
 70
     1
102
RTVSPropertyOp23
 70
     1
102
RTVSPropertyOp24
 70
     1
102
RTVSPropertyOp25
 70
     1
102
RTVSPropertyOp26
 70
     1
102
RTVSPropertyOp27
 70
     1
102
RTVSPropertyOp28
 70
     1
102
RTVSPropertyOp29
 70
     1
102
RTVSPropertyOp30
 70
     1
102
RTVSPropertyOp31
 70
     1
102
RTVSPropertyOp32
 70
     1
102
RTVSPropertyOp33
 70
     1
102
RTVSPropertyOp34
 70
     1
102
RTVSPropertyOp35
 70
     1
102
RTVSPropertyOp36
 70
     1
102
RTVSPropertyOp37
 70
     1
102
RTVSPropertyOp38
 70
     1
102
RTVSPropertyOp39
 70
     1
102
RTVSPropertyOp40
 70
     1
102
RTVSPropertyOp41
 70
     1
102
RTVSPropertyOp42
 70
     1
102
RTVSPropertyOp43
 70
     1
102
RTVSPropertyOp44
 70
     1
102
RTVSPropertyOp45
 70
     1
102
RTVSPropertyOp46
 70
     1
102
RTVSPropertyOp47
 70
     1
102
RTVSPropertyOp48
 70
     1
102
RTVSPropertyOp49
 70
     1
102
RTVSPropertyOp50
 70
     1
102
RTVSPropertyOp51
 70
     0
102
RTVSPropertyOp52
 70
     0
102
RTVSPropertyOp53
 70
     1
102
RTVSPropertyOp54
 70
     1
102
RTVSPropertyOp55
 70
     1
102
RTVSPropertyOp56
 70
     1
102
RTVSPropertyOp57
 70
     1
102
RTVSPost2010Prop28
280
     0
102
RTVSPost2010PropOp28
 70
     1
102
RTVSPost2010Prop29
280
     1
102
RTVSPost2010PropOp29
 70
     1
102
RTVSPost2010Prop30
280
     1
102
RTVSPost2010PropOp30
 70
     1
102
RTVSPost2010Prop31
280
     0
102
RTVSPost2010PropOp31
 70
     1
102
RTVSPost2010Prop32
280
     0
102
RTVSPost2010PropOp32
 70
     1
102
RTVSPost2010Prop33
280
     0
102
RTVSPost2010PropOp33
 70
     1
102
RTVSPost2010Prop34
280
     0
102
RTVSPost2010PropOp34
 70
     1
102
RTVSPost2010Prop35
280
     0
102
RTVSPost2010PropOp35
 70
     1
102
RTVSPost2010Prop36
280
     0
102
RTVSPost2010PropOp36
 70
     1
102
RTVSPost2010Prop37
 90
       50
102
RTVSPost2010PropOp37
 70
     1
102
RTVSPost2010Prop38
140
0.0
102
RTVSPost2010PropOp38
 70
     1
102
RTVSPost2010Prop39
140
1.0
102
RTVSPost2010PropOp39
 70
     1
102
RTVSPost2010Prop40
 90
        0
102
RTVSPost2010PropOp40
 70
     1
102
RTVSPost2010Prop41ColorIndex
 90
       18
102
RTVSPost2010Prop41ColorRGB
 90
        0
102
RTVSPost2010PropOp41
 70
     1
102
RTVSPost2010Prop42
 90
       50
102
RTVSPost2010PropOp42
 70
     1
102
RTVSPost2010Prop43
 90
        3
102
RTVSPost2010PropOp43
 70
     1
102
RTVSPost2010Prop44ColorIndex
 90
        5
102
RTVSPost2010Prop44ColorRGB
 90
      255
102
RTVSPost2010PropOp44
 70
     1
102
RTVSPost2010Prop45
280
     0
102
RTVSPost2010PropOp45
 70
     1
102
RTVSPost2010Prop46
 90
       50
102
RTVSPost2010PropOp46
 70
     1
102
RTVSPost2010Prop47
 90
       50
102
RTVSPost2010PropOp47
 70
     1
102
RTVSPost2010Prop48
 90
       50
102
RTVSPost2010PropOp48
 70
     1
102
RTVSPost2010Prop49
280
     0
102
RTVSPost2010PropOp49
 70
     1
102
RTVSPost2010Prop50
 90
       50
102
RTVSPost2010PropOp50
 70
     1
102
RTVSPost2010Prop51ColorIndex
 90
      256
102
RTVSPost2010Prop51ColorRGB
 90
-16777216
102
RTVSPost2010PropOp51
 70
     0
102
RTVSPost2010Prop52
140
1.0
102
RTVSPost2010PropOp52
 70
     0
102
RTVSPost2010Prop53
 90
        2
102
RTVSPost2010PropOp53
 70
     1
102
RTVSPost2010Prop54
  1
strokes_ogs.tif
102
RTVSPost2010PropOp54
 70
     1
102
RTVSPost2010Prop55
280
     0
102
RTVSPost2010PropOp55
 70
     1
102
RTVSPost2010Prop56
140
1.0
102
RTVSPost2010PropOp56
 70
     1
102
RTVSPost2010Prop57
140
1.0
102
RTVSPost2010PropOp57
 70
     1
  0
XRECORD
  5
24D
102
{ACAD_REACTORS
330
24C
102
}
330
24C
100
AcDbXrecord
280
     1
102
RTVSPropertyOp0
 70
     1
102
RTVSPropertyOp1
 70
     1
102
RTVSPropertyOp2
 70
     1
102
RTVSPropertyOp3
 70
     1
102
RTVSPropertyOp4
 70
     1
102
RTVSPropertyOp5
 70
     1
102
RTVSPropertyOp6
 70
     1
102
RTVSPropertyOp7
 70
     1
102
RTVSPropertyOp8
 70
     1
102
RTVSPropertyOp9
 70
     1
102
RTVSPropertyOp10
 70
     1
102
RTVSPropertyOp11
 70
     1
102
RTVSPropertyOp12
 70
     1
102
RTVSPropertyOp13
 70
     1
102
RTVSPropertyOp14
 70
     1
102
RTVSPropertyOp15
 70
     1
102
RTVSPropertyOp16
 70
     1
102
RTVSPropertyOp17
 70
     1
102
RTVSPropertyOp18
 70
     1
102
RTVSPropertyOp19
 70
     1
102
RTVSPropertyOp20
 70
     1
102
RTVSPropertyOp21
 70
     1
102
RTVSPropertyOp22
 70
     1
102
RTVSPropertyOp23
 70
     1
102
RTVSPropertyOp24
 70
     1
102
RTVSPropertyOp25
 70
     1
102
RTVSPropertyOp26
 70
     1
102
RTVSPropertyOp27
 70
     1
102
RTVSPropertyOp28
 70
     1
102
RTVSPropertyOp29
 70
     1
102
RTVSPropertyOp30
 70
     1
102
RTVSPropertyOp31
 70
     1
102
RTVSPropertyOp32
 70
     1
102
RTVSPropertyOp33
 70
     1
102
RTVSPropertyOp34
 70
     1
102
RTVSPropertyOp35
 70
     1
102
RTVSPropertyOp36
 70
     1
102
RTVSPropertyOp37
 70
     1
102
RTVSPropertyOp38
 70
     1
102
RTVSPropertyOp39
 70
     1
102
RTVSPropertyOp40
 70
     1
102
RTVSPropertyOp41
 70
     1
102
RTVSPropertyOp42
 70
     1
102
RTVSPropertyOp43
 70
     1
102
RTVSPropertyOp44
 70
     1
102
RTVSPropertyOp45
 70
     1
102
RTVSPropertyOp46
 70
     1
102
RTVSPropertyOp47
 70
     1
102
RTVSPropertyOp48
 70
     1
102
RTVSPropertyOp49
 70
     1
102
RTVSPropertyOp50
 70
     1
102
RTVSPropertyOp51
 70
     0
102
RTVSPropertyOp52
 70
     0
102
RTVSPropertyOp53
 70
     1
102
RTVSPropertyOp54
 70
     1
102
RTVSPropertyOp55
 70
     1
102
RTVSPropertyOp56
 70
     1
102
RTVSPropertyOp57
 70
     1
102
RTVSPost2010Prop28
280
     0
102
RTVSPost2010PropOp28
 70
     1
102
RTVSPost2010Prop29
280
     1
102
RTVSPost2010PropOp29
 70
     1
102
RTVSPost2010Prop30
280
     1
102
RTVSPost2010PropOp30
 70
     1
102
RTVSPost2010Prop31
280
     0
102
RTVSPost2010PropOp31
 70
     1
102
RTVSPost2010Prop32
280
     0
102
RTVSPost2010PropOp32
 70
     1
102
RTVSPost2010Prop33
280
     0
102
RTVSPost2010PropOp33
 70
     1
102
RTVSPost2010Prop34
280
     0
102
RTVSPost2010PropOp34
 70
     1
102
RTVSPost2010Prop35
280
     0
102
RTVSPost2010PropOp35
 70
     1
102
RTVSPost2010Prop36
280
     0
102
RTVSPost2010PropOp36
 70
     1
102
RTVSPost2010Prop37
 90
       50
102
RTVSPost2010PropOp37
 70
     1
102
RTVSPost2010Prop38
140
0.0
102
RTVSPost2010PropOp38
 70
     1
102
RTVSPost2010Prop39
140
1.0
102
RTVSPost2010PropOp39
 70
     1
102
RTVSPost2010Prop40
 90
        0
102
RTVSPost2010PropOp40
 70
     1
102
RTVSPost2010Prop41ColorIndex
 90
       18
102
RTVSPost2010Prop41ColorRGB
 90
        0
102
RTVSPost2010PropOp41
 70
     1
102
RTVSPost2010Prop42
 90
       50
102
RTVSPost2010PropOp42
 70
     1
102
RTVSPost2010Prop43
 90
        3
102
RTVSPost2010PropOp43
 70
     1
102
RTVSPost2010Prop44ColorIndex
 90
        5
102
RTVSPost2010Prop44ColorRGB
 90
      255
102
RTVSPost2010PropOp44
 70
     1
102
RTVSPost2010Prop45
280
     0
102
RTVSPost2010PropOp45
 70
     1
102
RTVSPost2010Prop46
 90
       50
102
RTVSPost2010PropOp46
 70
     1
102
RTVSPost2010Prop47
 90
       50
102
RTVSPost2010PropOp47
 70
     1
102
RTVSPost2010Prop48
 90
       50
102
RTVSPost2010PropOp48
 70
     1
102
RTVSPost2010Prop49
280
     0
102
RTVSPost2010PropOp49
 70
     1
102
RTVSPost2010Prop50
 90
       50
102
RTVSPost2010PropOp50
 70
     1
102
RTVSPost2010Prop51ColorIndex
 90
      256
102
RTVSPost2010Prop51ColorRGB
 90
-16777216
102
RTVSPost2010PropOp51
 70
     0
102
RTVSPost2010Prop52
140
1.0
102
RTVSPost2010PropOp52
 70
     0
102
RTVSPost2010Prop53
 90
        2
102
RTVSPost2010PropOp53
 70
     1
102
RTVSPost2010Prop54
  1
strokes_ogs.tif
102
RTVSPost2010PropOp54
 70
     1
102
RTVSPost2010Prop55
280
     0
102
RTVSPost2010PropOp55
 70
     1
102
RTVSPost2010Prop56
140
1.0
102
RTVSPost2010PropOp56
 70
     1
102
RTVSPost2010Prop57
140
1.0
102
RTVSPost2010PropOp57
 70
     1
  0
XRECORD
  5
24F
102
{ACAD_REACTORS
330
24E
102
}
330
24E
100
AcDbXrecord
280
     1
102
RTVSPropertyOp0
 70
     1
102
RTVSPropertyOp1
 70
     1
102
RTVSPropertyOp2
 70
     1
102
RTVSPropertyOp3
 70
     1
102
RTVSPropertyOp4
 70
     1
102
RTVSPropertyOp5
 70
     1
102
RTVSPropertyOp6
 70
     1
102
RTVSPropertyOp7
 70
     1
102
RTVSPropertyOp8
 70
     1
102
RTVSPropertyOp9
 70
     1
102
RTVSPropertyOp10
 70
     1
102
RTVSPropertyOp11
 70
     1
102
RTVSPropertyOp12
 70
     1
102
RTVSPropertyOp13
 70
     1
102
RTVSPropertyOp14
 70
     1
102
RTVSPropertyOp15
 70
     1
102
RTVSPropertyOp16
 70
     1
102
RTVSPropertyOp17
 70
     1
102
RTVSPropertyOp18
 70
     1
102
RTVSPropertyOp19
 70
     1
102
RTVSPropertyOp20
 70
     1
102
RTVSPropertyOp21
 70
     1
102
RTVSPropertyOp22
 70
     1
102
RTVSPropertyOp23
 70
     1
102
RTVSPropertyOp24
 70
     1
102
RTVSPropertyOp25
 70
     1
102
RTVSPropertyOp26
 70
     1
102
RTVSPropertyOp27
 70
     1
102
RTVSPropertyOp28
 70
     1
102
RTVSPropertyOp29
 70
     1
102
RTVSPropertyOp30
 70
     1
102
RTVSPropertyOp31
 70
     1
102
RTVSPropertyOp32
 70
     1
102
RTVSPropertyOp33
 70
     1
102
RTVSPropertyOp34
 70
     1
102
RTVSPropertyOp35
 70
     1
102
RTVSPropertyOp36
 70
     1
102
RTVSPropertyOp37
 70
     1
102
RTVSPropertyOp38
 70
     1
102
RTVSPropertyOp39
 70
     1
102
RTVSPropertyOp40
 70
     1
102
RTVSPropertyOp41
 70
     1
102
RTVSPropertyOp42
 70
     1
102
RTVSPropertyOp43
 70
     1
102
RTVSPropertyOp44
 70
     1
102
RTVSPropertyOp45
 70
     1
102
RTVSPropertyOp46
 70
     1
102
RTVSPropertyOp47
 70
     1
102
RTVSPropertyOp48
 70
     1
102
RTVSPropertyOp49
 70
     1
102
RTVSPropertyOp50
 70
     1
102
RTVSPropertyOp51
 70
     0
102
RTVSPropertyOp52
 70
     0
102
RTVSPropertyOp53
 70
     1
102
RTVSPropertyOp54
 70
     1
102
RTVSPropertyOp55
 70
     1
102
RTVSPropertyOp56
 70
     1
102
RTVSPropertyOp57
 70
     1
102
RTVSPost2010Prop28
280
     0
102
RTVSPost2010PropOp28
 70
     1
102
RTVSPost2010Prop29
280
     1
102
RTVSPost2010PropOp29
 70
     1
102
RTVSPost2010Prop30
280
     1
102
RTVSPost2010PropOp30
 70
     1
102
RTVSPost2010Prop31
280
     0
102
RTVSPost2010PropOp31
 70
     1
102
RTVSPost2010Prop32
280
     0
102
RTVSPost2010PropOp32
 70
     1
102
RTVSPost2010Prop33
280
     0
102
RTVSPost2010PropOp33
 70
     1
102
RTVSPost2010Prop34
280
     0
102
RTVSPost2010PropOp34
 70
     1
102
RTVSPost2010Prop35
280
     0
102
RTVSPost2010PropOp35
 70
     1
102
RTVSPost2010Prop36
280
     0
102
RTVSPost2010PropOp36
 70
     1
102
RTVSPost2010Prop37
 90
       50
102
RTVSPost2010PropOp37
 70
     1
102
RTVSPost2010Prop38
140
0.0
102
RTVSPost2010PropOp38
 70
     1
102
RTVSPost2010Prop39
140
1.0
102
RTVSPost2010PropOp39
 70
     1
102
RTVSPost2010Prop40
 90
        0
102
RTVSPost2010PropOp40
 70
     1
102
RTVSPost2010Prop41ColorIndex
 90
       18
102
RTVSPost2010Prop41ColorRGB
 90
        0
102
RTVSPost2010PropOp41
 70
     1
102
RTVSPost2010Prop42
 90
       50
102
RTVSPost2010PropOp42
 70
     1
102
RTVSPost2010Prop43
 90
        3
102
RTVSPost2010PropOp43
 70
     1
102
RTVSPost2010Prop44ColorIndex
 90
        5
102
RTVSPost2010Prop44ColorRGB
 90
      255
102
RTVSPost2010PropOp44
 70
     1
102
RTVSPost2010Prop45
280
     0
102
RTVSPost2010PropOp45
 70
     1
102
RTVSPost2010Prop46
 90
       50
102
RTVSPost2010PropOp46
 70
     1
102
RTVSPost2010Prop47
 90
       50
102
RTVSPost2010PropOp47
 70
     1
102
RTVSPost2010Prop48
 90
       50
102
RTVSPost2010PropOp48
 70
     1
102
RTVSPost2010Prop49
280
     0
102
RTVSPost2010PropOp49
 70
     1
102
RTVSPost2010Prop50
 90
       50
102
RTVSPost2010PropOp50
 70
     1
102
RTVSPost2010Prop51ColorIndex
 90
      256
102
RTVSPost2010Prop51ColorRGB
 90
-16777216
102
RTVSPost2010PropOp51
 70
     0
102
RTVSPost2010Prop52
140
1.0
102
RTVSPost2010PropOp52
 70
     0
102
RTVSPost2010Prop53
 90
        2
102
RTVSPost2010PropOp53
 70
     1
102
RTVSPost2010Prop54
  1
strokes_ogs.tif
102
RTVSPost2010PropOp54
 70
     1
102
RTVSPost2010Prop55
280
     0
102
RTVSPost2010PropOp55
 70
     1
102
RTVSPost2010Prop56
140
1.0
102
RTVSPost2010PropOp56
 70
     1
102
RTVSPost2010Prop57
140
1.0
102
RTVSPost2010PropOp57
 70
     1
  0
XRECORD
  5
255
102
{ACAD_REACTORS
330
254
102
}
330
254
100
AcDbXrecord
280
     1
102
RTVSPropertyOp0
 70
     1
102
RTVSPropertyOp1
 70
     1
102
RTVSPropertyOp2
 70
     1
102
RTVSPropertyOp3
 70
     1
102
RTVSPropertyOp4
 70
     1
102
RTVSPropertyOp5
 70
     1
102
RTVSPropertyOp6
 70
     1
102
RTVSPropertyOp7
 70
     1
102
RTVSPropertyOp8
 70
     1
102
RTVSPropertyOp9
 70
     1
102
RTVSPropertyOp10
 70
     1
102
RTVSPropertyOp11
 70
     1
102
RTVSPropertyOp12
 70
     1
102
RTVSPropertyOp13
 70
     1
102
RTVSPropertyOp14
 70
     1
102
RTVSPropertyOp15
 70
     1
102
RTVSPropertyOp16
 70
     1
102
RTVSPropertyOp17
 70
     1
102
RTVSPropertyOp18
 70
     1
102
RTVSPropertyOp19
 70
     1
102
RTVSPropertyOp20
 70
     1
102
RTVSPropertyOp21
 70
     1
102
RTVSPropertyOp22
 70
     1
102
RTVSPropertyOp23
 70
     1
102
RTVSPropertyOp24
 70
     1
102
RTVSPropertyOp25
 70
     1
102
RTVSPropertyOp26
 70
     1
102
RTVSPropertyOp27
 70
     1
102
RTVSPropertyOp28
 70
     1
102
RTVSPropertyOp29
 70
     1
102
RTVSPropertyOp30
 70
     1
102
RTVSPropertyOp31
 70
     1
102
RTVSPropertyOp32
 70
     1
102
RTVSPropertyOp33
 70
     1
102
RTVSPropertyOp34
 70
     1
102
RTVSPropertyOp35
 70
     1
102
RTVSPropertyOp36
 70
     1
102
RTVSPropertyOp37
 70
     1
102
RTVSPropertyOp38
 70
     1
102
RTVSPropertyOp39
 70
     1
102
RTVSPropertyOp40
 70
     1
102
RTVSPropertyOp41
 70
     1
102
RTVSPropertyOp42
 70
     1
102
RTVSPropertyOp43
 70
     1
102
RTVSPropertyOp44
 70
     1
102
RTVSPropertyOp45
 70
     1
102
RTVSPropertyOp46
 70
     1
102
RTVSPropertyOp47
 70
     1
102
RTVSPropertyOp48
 70
     1
102
RTVSPropertyOp49
 70
     1
102
RTVSPropertyOp50
 70
     1
102
RTVSPropertyOp51
 70
     0
102
RTVSPropertyOp52
 70
     0
102
RTVSPropertyOp53
 70
     1
102
RTVSPropertyOp54
 70
     1
102
RTVSPropertyOp55
 70
     1
102
RTVSPropertyOp56
 70
     1
102
RTVSPropertyOp57
 70
     1
102
RTVSPost2010Prop28
280
     0
102
RTVSPost2010PropOp28
 70
     1
102
RTVSPost2010Prop29
280
     1
102
RTVSPost2010PropOp29
 70
     1
102
RTVSPost2010Prop30
280
     1
102
RTVSPost2010PropOp30
 70
     1
102
RTVSPost2010Prop31
280
     0
102
RTVSPost2010PropOp31
 70
     1
102
RTVSPost2010Prop32
280
     0
102
RTVSPost2010PropOp32
 70
     1
102
RTVSPost2010Prop33
280
     0
102
RTVSPost2010PropOp33
 70
     1
102
RTVSPost2010Prop34
280
     0
102
RTVSPost2010PropOp34
 70
     1
102
RTVSPost2010Prop35
280
     0
102
RTVSPost2010PropOp35
 70
     1
102
RTVSPost2010Prop36
280
     0
102
RTVSPost2010PropOp36
 70
     1
102
RTVSPost2010Prop37
 90
       50
102
RTVSPost2010PropOp37
 70
     1
102
RTVSPost2010Prop38
140
0.0
102
RTVSPost2010PropOp38
 70
     1
102
RTVSPost2010Prop39
140
1.0
102
RTVSPost2010PropOp39
 70
     1
102
RTVSPost2010Prop40
 90
        0
102
RTVSPost2010PropOp40
 70
     1
102
RTVSPost2010Prop41ColorIndex
 90
       18
102
RTVSPost2010Prop41ColorRGB
 90
        0
102
RTVSPost2010PropOp41
 70
     1
102
RTVSPost2010Prop42
 90
       50
102
RTVSPost2010PropOp42
 70
     1
102
RTVSPost2010Prop43
 90
        3
102
RTVSPost2010PropOp43
 70
     1
102
RTVSPost2010Prop44ColorIndex
 90
        5
102
RTVSPost2010Prop44ColorRGB
 90
      255
102
RTVSPost2010PropOp44
 70
     1
102
RTVSPost2010Prop45
280
     0
102
RTVSPost2010PropOp45
 70
     1
102
RTVSPost2010Prop46
 90
       50
102
RTVSPost2010PropOp46
 70
     1
102
RTVSPost2010Prop47
 90
       50
102
RTVSPost2010PropOp47
 70
     1
102
RTVSPost2010Prop48
 90
       50
102
RTVSPost2010PropOp48
 70
     1
102
RTVSPost2010Prop49
280
     0
102
RTVSPost2010PropOp49
 70
     1
102
RTVSPost2010Prop50
 90
       50
102
RTVSPost2010PropOp50
 70
     1
102
RTVSPost2010Prop51ColorIndex
 90
      256
102
RTVSPost2010Prop51ColorRGB
 90
-16777216
102
RTVSPost2010PropOp51
 70
     0
102
RTVSPost2010Prop52
140
1.0
102
RTVSPost2010PropOp52
 70
     0
102
RTVSPost2010Prop53
 90
        2
102
RTVSPost2010PropOp53
 70
     1
102
RTVSPost2010Prop54
  1
strokes_ogs.tif
102
RTVSPost2010PropOp54
 70
     1
102
RTVSPost2010Prop55
280
     0
102
RTVSPost2010PropOp55
 70
     1
102
RTVSPost2010Prop56
140
1.0
102
RTVSPost2010PropOp56
 70
     1
102
RTVSPost2010Prop57
140
1.0
102
RTVSPost2010PropOp57
 70
     1
  0
XRECORD
  5
269
102
{ACAD_REACTORS
330
268
102
}
330
268
100
AcDbXrecord
280
     1
102
RTVSPropertyOp0
 70
     0
102
RTVSPropertyOp1
 70
     0
102
RTVSPropertyOp2
 70
     0
102
RTVSPropertyOp3
 70
     0
102
RTVSPropertyOp4
 70
     0
102
RTVSPropertyOp5
 70
     0
102
RTVSPropertyOp6
 70
     0
102
RTVSPropertyOp7
 70
     0
102
RTVSPropertyOp8
 70
     0
102
RTVSPropertyOp9
 70
     0
102
RTVSPropertyOp10
 70
     0
102
RTVSPropertyOp11
 70
     0
102
RTVSPropertyOp12
 70
     0
102
RTVSPropertyOp13
 70
     0
102
RTVSPropertyOp14
 70
     2
102
RTVSPropertyOp15
 70
     0
102
RTVSPropertyOp16
 70
     0
102
RTVSPropertyOp17
 70
     0
102
RTVSPropertyOp18
 70
     0
102
RTVSPropertyOp19
 70
     0
102
RTVSPropertyOp20
 70
     0
102
RTVSPropertyOp21
 70
     0
102
RTVSPropertyOp22
 70
     0
102
RTVSPropertyOp23
 70
     0
102
RTVSPropertyOp24
 70
     0
102
RTVSPropertyOp25
 70
     0
102
RTVSPropertyOp26
 70
     0
102
RTVSPropertyOp27
 70
     0
102
RTVSPropertyOp28
 70
     0
102
RTVSPropertyOp29
 70
     0
102
RTVSPropertyOp30
 70
     0
102
RTVSPropertyOp31
 70
     0
102
RTVSPropertyOp32
 70
     0
102
RTVSPropertyOp33
 70
     0
102
RTVSPropertyOp34
 70
     0
102
RTVSPropertyOp35
 70
     0
102
RTVSPropertyOp36
 70
     0
102
RTVSPropertyOp37
 70
     0
102
RTVSPropertyOp38
 70
     0
102
RTVSPropertyOp39
 70
     0
102
RTVSPropertyOp40
 70
     0
102
RTVSPropertyOp41
 70
     0
102
RTVSPropertyOp42
 70
     0
102
RTVSPropertyOp43
 70
     0
102
RTVSPropertyOp44
 70
     0
102
RTVSPropertyOp45
 70
     0
102
RTVSPropertyOp46
 70
     0
102
RTVSPropertyOp47
 70
     0
102
RTVSPropertyOp48
 70
     0
102
RTVSPropertyOp49
 70
     0
102
RTVSPropertyOp50
 70
     0
102
RTVSPropertyOp51
 70
     0
102
RTVSPropertyOp52
 70
     0
102
RTVSPropertyOp53
 70
     0
102
RTVSPropertyOp54
 70
     0
102
RTVSPropertyOp55
 70
     0
102
RTVSPropertyOp56
 70
     0
102
RTVSPropertyOp57
 70
     0
102
RTVSPost2010Prop28
280
     0
102
RTVSPost2010PropOp28
 70
     0
102
RTVSPost2010Prop29
280
     1
102
RTVSPost2010PropOp29
 70
     0
102
RTVSPost2010Prop30
280
     1
102
RTVSPost2010PropOp30
 70
     0
102
RTVSPost2010Prop31
280
     0
102
RTVSPost2010PropOp31
 70
     0
102
RTVSPost2010Prop32
280
     0
102
RTVSPost2010PropOp32
 70
     0
102
RTVSPost2010Prop33
280
     0
102
RTVSPost2010PropOp33
 70
     0
102
RTVSPost2010Prop34
280
     0
102
RTVSPost2010PropOp34
 70
     0
102
RTVSPost2010Prop35
280
     0
102
RTVSPost2010PropOp35
 70
     0
102
RTVSPost2010Prop36
280
     0
102
RTVSPost2010PropOp36
 70
     0
102
RTVSPost2010Prop37
 90
       50
102
RTVSPost2010PropOp37
 70
     0
102
RTVSPost2010Prop38
140
0.0
102
RTVSPost2010PropOp38
 70
     0
102
RTVSPost2010Prop39
140
1.0
102
RTVSPost2010PropOp39
 70
     0
102
RTVSPost2010Prop40
 90
        0
102
RTVSPost2010PropOp40
 70
     0
102
RTVSPost2010Prop41ColorIndex
 90
       18
102
RTVSPost2010Prop41ColorRGB
 90
        0
102
RTVSPost2010PropOp41
 70
     0
102
RTVSPost2010Prop42
 90
       50
102
RTVSPost2010PropOp42
 70
     0
102
RTVSPost2010Prop43
 90
        3
102
RTVSPost2010PropOp43
 70
     0
102
RTVSPost2010Prop44ColorIndex
 90
        5
102
RTVSPost2010Prop44ColorRGB
 90
      255
102
RTVSPost2010PropOp44
 70
     0
102
RTVSPost2010Prop45
280
     0
102
RTVSPost2010PropOp45
 70
     0
102
RTVSPost2010Prop46
 90
       50
102
RTVSPost2010PropOp46
 70
     0
102
RTVSPost2010Prop47
 90
       50
102
RTVSPost2010PropOp47
 70
     0
102
RTVSPost2010Prop48
 90
       50
102
RTVSPost2010PropOp48
 70
     0
102
RTVSPost2010Prop49
280
     0
102
RTVSPost2010PropOp49
 70
     0
102
RTVSPost2010Prop50
 90
       50
102
RTVSPost2010PropOp50
 70
     0
102
RTVSPost2010Prop51ColorIndex
 90
      256
102
RTVSPost2010Prop51ColorRGB
 90
-16777216
102
RTVSPost2010PropOp51
 70
     0
102
RTVSPost2010Prop52
140
1.0
102
RTVSPost2010PropOp52
 70
     0
102
RTVSPost2010Prop53
 90
        2
102
RTVSPost2010PropOp53
 70
     0
102
RTVSPost2010Prop54
  1
strokes_ogs.tif
102
RTVSPost2010PropOp54
 70
     0
102
RTVSPost2010Prop55
280
     0
102
RTVSPost2010PropOp55
 70
     0
102
RTVSPost2010Prop56
140
1.0
102
RTVSPost2010PropOp56
 70
     0
102
RTVSPost2010Prop57
140
1.0
102
RTVSPost2010PropOp57
 70
     0
  0
XRECORD
  5
263
102
{ACAD_REACTORS
330
262
102
}
330
262
100
AcDbXrecord
280
     1
102
RTVSPropertyOp0
 70
     1
102
RTVSPropertyOp1
 70
     1
102
RTVSPropertyOp2
 70
     1
102
RTVSPropertyOp3
 70
     1
102
RTVSPropertyOp4
 70
     1
102
RTVSPropertyOp5
 70
     1
102
RTVSPropertyOp6
 70
     1
102
RTVSPropertyOp7
 70
     1
102
RTVSPropertyOp8
 70
     1
102
RTVSPropertyOp9
 70
     1
102
RTVSPropertyOp10
 70
     1
102
RTVSPropertyOp11
 70
     1
102
RTVSPropertyOp12
 70
     1
102
RTVSPropertyOp13
 70
     1
102
RTVSPropertyOp14
 70
     1
102
RTVSPropertyOp15
 70
     1
102
RTVSPropertyOp16
 70
     1
102
RTVSPropertyOp17
 70
     1
102
RTVSPropertyOp18
 70
     1
102
RTVSPropertyOp19
 70
     1
102
RTVSPropertyOp20
 70
     1
102
RTVSPropertyOp21
 70
     1
102
RTVSPropertyOp22
 70
     1
102
RTVSPropertyOp23
 70
     1
102
RTVSPropertyOp24
 70
     1
102
RTVSPropertyOp25
 70
     1
102
RTVSPropertyOp26
 70
     1
102
RTVSPropertyOp27
 70
     1
102
RTVSPropertyOp28
 70
     1
102
RTVSPropertyOp29
 70
     1
102
RTVSPropertyOp30
 70
     1
102
RTVSPropertyOp31
 70
     1
102
RTVSPropertyOp32
 70
     1
102
RTVSPropertyOp33
 70
     1
102
RTVSPropertyOp34
 70
     1
102
RTVSPropertyOp35
 70
     1
102
RTVSPropertyOp36
 70
     1
102
RTVSPropertyOp37
 70
     1
102
RTVSPropertyOp38
 70
     1
102
RTVSPropertyOp39
 70
     1
102
RTVSPropertyOp40
 70
     1
102
RTVSPropertyOp41
 70
     1
102
RTVSPropertyOp42
 70
     1
102
RTVSPropertyOp43
 70
     1
102
RTVSPropertyOp44
 70
     1
102
RTVSPropertyOp45
 70
     1
102
RTVSPropertyOp46
 70
     1
102
RTVSPropertyOp47
 70
     1
102
RTVSPropertyOp48
 70
     1
102
RTVSPropertyOp49
 70
     1
102
RTVSPropertyOp50
 70
     1
102
RTVSPropertyOp51
 70
     0
102
RTVSPropertyOp52
 70
     0
102
RTVSPropertyOp53
 70
     1
102
RTVSPropertyOp54
 70
     1
102
RTVSPropertyOp55
 70
     1
102
RTVSPropertyOp56
 70
     1
102
RTVSPropertyOp57
 70
     1
102
RTVSPost2010Prop28
280
     0
102
RTVSPost2010PropOp28
 70
     1
102
RTVSPost2010Prop29
280
     1
102
RTVSPost2010PropOp29
 70
     1
102
RTVSPost2010Prop30
280
     1
102
RTVSPost2010PropOp30
 70
     1
102
RTVSPost2010Prop31
280
     0
102
RTVSPost2010PropOp31
 70
     1
102
RTVSPost2010Prop32
280
     0
102
RTVSPost2010PropOp32
 70
     1
102
RTVSPost2010Prop33
280
     0
102
RTVSPost2010PropOp33
 70
     1
102
RTVSPost2010Prop34
280
     0
102
RTVSPost2010PropOp34
 70
     1
102
RTVSPost2010Prop35
280
     0
102
RTVSPost2010PropOp35
 70
     1
102
RTVSPost2010Prop36
280
     0
102
RTVSPost2010PropOp36
 70
     1
102
RTVSPost2010Prop37
 90
       50
102
RTVSPost2010PropOp37
 70
     1
102
RTVSPost2010Prop38
140
0.0
102
RTVSPost2010PropOp38
 70
     1
102
RTVSPost2010Prop39
140
1.0
102
RTVSPost2010PropOp39
 70
     1
102
RTVSPost2010Prop40
 90
        0
102
RTVSPost2010PropOp40
 70
     1
102
RTVSPost2010Prop41ColorIndex
 90
       18
102
RTVSPost2010Prop41ColorRGB
 90
        0
102
RTVSPost2010PropOp41
 70
     1
102
RTVSPost2010Prop42
 90
       50
102
RTVSPost2010PropOp42
 70
     1
102
RTVSPost2010Prop43
 90
        3
102
RTVSPost2010PropOp43
 70
     1
102
RTVSPost2010Prop44ColorIndex
 90
        5
102
RTVSPost2010Prop44ColorRGB
 90
      255
102
RTVSPost2010PropOp44
 70
     1
102
RTVSPost2010Prop45
280
     0
102
RTVSPost2010PropOp45
 70
     1
102
RTVSPost2010Prop46
 90
       50
102
RTVSPost2010PropOp46
 70
     1
102
RTVSPost2010Prop47
 90
       50
102
RTVSPost2010PropOp47
 70
     1
102
RTVSPost2010Prop48
 90
       50
102
RTVSPost2010PropOp48
 70
     1
102
RTVSPost2010Prop49
280
     0
102
RTVSPost2010PropOp49
 70
     1
102
RTVSPost2010Prop50
 90
       50
102
RTVSPost2010PropOp50
 70
     1
102
RTVSPost2010Prop51ColorIndex
 90
      256
102
RTVSPost2010Prop51ColorRGB
 90
-16777216
102
RTVSPost2010PropOp51
 70
     0
102
RTVSPost2010Prop52
140
1.0
102
RTVSPost2010PropOp52
 70
     0
102
RTVSPost2010Prop53
 90
        2
102
RTVSPost2010PropOp53
 70
     1
102
RTVSPost2010Prop54
  1
strokes_ogs.tif
102
RTVSPost2010PropOp54
 70
     1
102
RTVSPost2010Prop55
280
     0
102
RTVSPost2010PropOp55
 70
     1
102
RTVSPost2010Prop56
140
1.0
102
RTVSPost2010PropOp56
 70
     1
102
RTVSPost2010Prop57
140
1.0
102
RTVSPost2010PropOp57
 70
     1
  0
XRECORD
  5
26B
102
{ACAD_REACTORS
330
26A
102
}
330
26A
100
AcDbXrecord
280
     1
102
RTVSPropertyOp0
 70
     0
102
RTVSPropertyOp1
 70
     0
102
RTVSPropertyOp2
 70
     0
102
RTVSPropertyOp3
 70
     0
102
RTVSPropertyOp4
 70
     0
102
RTVSPropertyOp5
 70
     0
102
RTVSPropertyOp6
 70
     0
102
RTVSPropertyOp7
 70
     0
102
RTVSPropertyOp8
 70
     0
102
RTVSPropertyOp9
 70
     0
102
RTVSPropertyOp10
 70
     0
102
RTVSPropertyOp11
 70
     0
102
RTVSPropertyOp12
 70
     0
102
RTVSPropertyOp13
 70
     0
102
RTVSPropertyOp14
 70
     2
102
RTVSPropertyOp15
 70
     0
102
RTVSPropertyOp16
 70
     0
102
RTVSPropertyOp17
 70
     0
102
RTVSPropertyOp18
 70
     0
102
RTVSPropertyOp19
 70
     0
102
RTVSPropertyOp20
 70
     0
102
RTVSPropertyOp21
 70
     0
102
RTVSPropertyOp22
 70
     0
102
RTVSPropertyOp23
 70
     0
102
RTVSPropertyOp24
 70
     0
102
RTVSPropertyOp25
 70
     0
102
RTVSPropertyOp26
 70
     0
102
RTVSPropertyOp27
 70
     0
102
RTVSPropertyOp28
 70
     0
102
RTVSPropertyOp29
 70
     0
102
RTVSPropertyOp30
 70
     0
102
RTVSPropertyOp31
 70
     0
102
RTVSPropertyOp32
 70
     0
102
RTVSPropertyOp33
 70
     0
102
RTVSPropertyOp34
 70
     0
102
RTVSPropertyOp35
 70
     0
102
RTVSPropertyOp36
 70
     0
102
RTVSPropertyOp37
 70
     0
102
RTVSPropertyOp38
 70
     0
102
RTVSPropertyOp39
 70
     0
102
RTVSPropertyOp40
 70
     0
102
RTVSPropertyOp41
 70
     0
102
RTVSPropertyOp42
 70
     0
102
RTVSPropertyOp43
 70
     0
102
RTVSPropertyOp44
 70
     0
102
RTVSPropertyOp45
 70
     0
102
RTVSPropertyOp46
 70
     0
102
RTVSPropertyOp47
 70
     0
102
RTVSPropertyOp48
 70
     0
102
RTVSPropertyOp49
 70
     0
102
RTVSPropertyOp50
 70
     0
102
RTVSPropertyOp51
 70
     0
102
RTVSPropertyOp52
 70
     0
102
RTVSPropertyOp53
 70
     0
102
RTVSPropertyOp54
 70
     0
102
RTVSPropertyOp55
 70
     0
102
RTVSPropertyOp56
 70
     0
102
RTVSPropertyOp57
 70
     0
102
RTVSPost2010Prop28
280
     0
102
RTVSPost2010PropOp28
 70
     0
102
RTVSPost2010Prop29
280
     1
102
RTVSPost2010PropOp29
 70
     0
102
RTVSPost2010Prop30
280
     1
102
RTVSPost2010PropOp30
 70
     0
102
RTVSPost2010Prop31
280
     0
102
RTVSPost2010PropOp31
 70
     0
102
RTVSPost2010Prop32
280
     0
102
RTVSPost2010PropOp32
 70
     0
102
RTVSPost2010Prop33
280
     0
102
RTVSPost2010PropOp33
 70
     0
102
RTVSPost2010Prop34
280
     0
102
RTVSPost2010PropOp34
 70
     0
102
RTVSPost2010Prop35
280
     0
102
RTVSPost2010PropOp35
 70
     0
102
RTVSPost2010Prop36
280
     0
102
RTVSPost2010PropOp36
 70
     0
102
RTVSPost2010Prop37
 90
       50
102
RTVSPost2010PropOp37
 70
     0
102
RTVSPost2010Prop38
140
0.0
102
RTVSPost2010PropOp38
 70
     0
102
RTVSPost2010Prop39
140
1.0
102
RTVSPost2010PropOp39
 70
     0
102
RTVSPost2010Prop40
 90
        0
102
RTVSPost2010PropOp40
 70
     0
102
RTVSPost2010Prop41ColorIndex
 90
       18
102
RTVSPost2010Prop41ColorRGB
 90
        0
102
RTVSPost2010PropOp41
 70
     0
102
RTVSPost2010Prop42
 90
       50
102
RTVSPost2010PropOp42
 70
     0
102
RTVSPost2010Prop43
 90
        3
102
RTVSPost2010PropOp43
 70
     0
102
RTVSPost2010Prop44ColorIndex
 90
        5
102
RTVSPost2010Prop44ColorRGB
 90
      255
102
RTVSPost2010PropOp44
 70
     0
102
RTVSPost2010Prop45
280
     0
102
RTVSPost2010PropOp45
 70
     0
102
RTVSPost2010Prop46
 90
       50
102
RTVSPost2010PropOp46
 70
     0
102
RTVSPost2010Prop47
 90
       50
102
RTVSPost2010PropOp47
 70
     0
102
RTVSPost2010Prop48
 90
       50
102
RTVSPost2010PropOp48
 70
     0
102
RTVSPost2010Prop49
280
     0
102
RTVSPost2010PropOp49
 70
     0
102
RTVSPost2010Prop50
 90
       50
102
RTVSPost2010PropOp50
 70
     0
102
RTVSPost2010Prop51ColorIndex
 90
      256
102
RTVSPost2010Prop51ColorRGB
 90
-16777216
102
RTVSPost2010PropOp51
 70
     0
102
RTVSPost2010Prop52
140
1.0
102
RTVSPost2010PropOp52
 70
     0
102
RTVSPost2010Prop53
 90
        2
102
RTVSPost2010PropOp53
 70
     0
102
RTVSPost2010Prop54
  1
strokes_ogs.tif
102
RTVSPost2010PropOp54
 70
     0
102
RTVSPost2010Prop55
280
     0
102
RTVSPost2010PropOp55
 70
     0
102
RTVSPost2010Prop56
140
1.0
102
RTVSPost2010PropOp56
 70
     0
102
RTVSPost2010Prop57
140
1.0
102
RTVSPost2010PropOp57
 70
     0
  0
XRECORD
  5
259
102
{ACAD_REACTORS
330
258
102
}
330
258
100
AcDbXrecord
280
     1
102
RTVSPropertyOp0
 70
     1
102
RTVSPropertyOp1
 70
     1
102
RTVSPropertyOp2
 70
     1
102
RTVSPropertyOp3
 70
     1
102
RTVSPropertyOp4
 70
     1
102
RTVSPropertyOp5
 70
     1
102
RTVSPropertyOp6
 70
     1
102
RTVSPropertyOp7
 70
     1
102
RTVSPropertyOp8
 70
     1
102
RTVSPropertyOp9
 70
     1
102
RTVSPropertyOp10
 70
     1
102
RTVSPropertyOp11
 70
     1
102
RTVSPropertyOp12
 70
     1
102
RTVSPropertyOp13
 70
     1
102
RTVSPropertyOp14
 70
     1
102
RTVSPropertyOp15
 70
     1
102
RTVSPropertyOp16
 70
     1
102
RTVSPropertyOp17
 70
     1
102
RTVSPropertyOp18
 70
     1
102
RTVSPropertyOp19
 70
     1
102
RTVSPropertyOp20
 70
     1
102
RTVSPropertyOp21
 70
     1
102
RTVSPropertyOp22
 70
     1
102
RTVSPropertyOp23
 70
     1
102
RTVSPropertyOp24
 70
     1
102
RTVSPropertyOp25
 70
     1
102
RTVSPropertyOp26
 70
     1
102
RTVSPropertyOp27
 70
     1
102
RTVSPropertyOp28
 70
     1
102
RTVSPropertyOp29
 70
     1
102
RTVSPropertyOp30
 70
     1
102
RTVSPropertyOp31
 70
     1
102
RTVSPropertyOp32
 70
     1
102
RTVSPropertyOp33
 70
     1
102
RTVSPropertyOp34
 70
     1
102
RTVSPropertyOp35
 70
     1
102
RTVSPropertyOp36
 70
     1
102
RTVSPropertyOp37
 70
     1
102
RTVSPropertyOp38
 70
     1
102
RTVSPropertyOp39
 70
     1
102
RTVSPropertyOp40
 70
     1
102
RTVSPropertyOp41
 70
     1
102
RTVSPropertyOp42
 70
     1
102
RTVSPropertyOp43
 70
     1
102
RTVSPropertyOp44
 70
     1
102
RTVSPropertyOp45
 70
     1
102
RTVSPropertyOp46
 70
     1
102
RTVSPropertyOp47
 70
     1
102
RTVSPropertyOp48
 70
     1
102
RTVSPropertyOp49
 70
     1
102
RTVSPropertyOp50
 70
     1
102
RTVSPropertyOp51
 70
     0
102
RTVSPropertyOp52
 70
     0
102
RTVSPropertyOp53
 70
     1
102
RTVSPropertyOp54
 70
     1
102
RTVSPropertyOp55
 70
     1
102
RTVSPropertyOp56
 70
     1
102
RTVSPropertyOp57
 70
     1
102
RTVSPost2010Prop28
280
     0
102
RTVSPost2010PropOp28
 70
     1
102
RTVSPost2010Prop29
280
     1
102
RTVSPost2010PropOp29
 70
     1
102
RTVSPost2010Prop30
280
     1
102
RTVSPost2010PropOp30
 70
     1
102
RTVSPost2010Prop31
280
     0
102
RTVSPost2010PropOp31
 70
     1
102
RTVSPost2010Prop32
280
     0
102
RTVSPost2010PropOp32
 70
     1
102
RTVSPost2010Prop33
280
     0
102
RTVSPost2010PropOp33
 70
     1
102
RTVSPost2010Prop34
280
     0
102
RTVSPost2010PropOp34
 70
     1
102
RTVSPost2010Prop35
280
     0
102
RTVSPost2010PropOp35
 70
     1
102
RTVSPost2010Prop36
280
     0
102
RTVSPost2010PropOp36
 70
     1
102
RTVSPost2010Prop37
 90
       50
102
RTVSPost2010PropOp37
 70
     1
102
RTVSPost2010Prop38
140
0.0
102
RTVSPost2010PropOp38
 70
     1
102
RTVSPost2010Prop39
140
1.0
102
RTVSPost2010PropOp39
 70
     1
102
RTVSPost2010Prop40
 90
        0
102
RTVSPost2010PropOp40
 70
     1
102
RTVSPost2010Prop41ColorIndex
 90
       18
102
RTVSPost2010Prop41ColorRGB
 90
        0
102
RTVSPost2010PropOp41
 70
     1
102
RTVSPost2010Prop42
 90
       50
102
RTVSPost2010PropOp42
 70
     1
102
RTVSPost2010Prop43
 90
        3
102
RTVSPost2010PropOp43
 70
     1
102
RTVSPost2010Prop44ColorIndex
 90
        5
102
RTVSPost2010Prop44ColorRGB
 90
      255
102
RTVSPost2010PropOp44
 70
     1
102
RTVSPost2010Prop45
280
     0
102
RTVSPost2010PropOp45
 70
     1
102
RTVSPost2010Prop46
 90
       50
102
RTVSPost2010PropOp46
 70
     1
102
RTVSPost2010Prop47
 90
       50
102
RTVSPost2010PropOp47
 70
     1
102
RTVSPost2010Prop48
 90
       50
102
RTVSPost2010PropOp48
 70
     1
102
RTVSPost2010Prop49
280
     0
102
RTVSPost2010PropOp49
 70
     1
102
RTVSPost2010Prop50
 90
       50
102
RTVSPost2010PropOp50
 70
     1
102
RTVSPost2010Prop51ColorIndex
 90
      256
102
RTVSPost2010Prop51ColorRGB
 90
-16777216
102
RTVSPost2010PropOp51
 70
     0
102
RTVSPost2010Prop52
140
1.0
102
RTVSPost2010PropOp52
 70
     0
102
RTVSPost2010Prop53
 90
        2
102
RTVSPost2010PropOp53
 70
     1
102
RTVSPost2010Prop54
  1
strokes_ogs.tif
102
RTVSPost2010PropOp54
 70
     1
102
RTVSPost2010Prop55
280
     0
102
RTVSPost2010PropOp55
 70
     1
102
RTVSPost2010Prop56
140
1.0
102
RTVSPost2010PropOp56
 70
     1
102
RTVSPost2010Prop57
140
1.0
102
RTVSPost2010PropOp57
 70
     1
  0
XRECORD
  5
277
102
{ACAD_REACTORS
330
276
102
}
330
276
100
AcDbXrecord
280
     1
102
RTVSPropertyOp0
 70
     1
102
RTVSPropertyOp1
 70
     1
102
RTVSPropertyOp2
 70
     1
102
RTVSPropertyOp3
 70
     1
102
RTVSPropertyOp4
 70
     1
102
RTVSPropertyOp5
 70
     1
102
RTVSPropertyOp6
 70
     1
102
RTVSPropertyOp7
 70
     1
102
RTVSPropertyOp8
 70
     1
102
RTVSPropertyOp9
 70
     1
102
RTVSPropertyOp10
 70
     1
102
RTVSPropertyOp11
 70
     1
102
RTVSPropertyOp12
 70
     1
102
RTVSPropertyOp13
 70
     1
102
RTVSPropertyOp14
 70
     1
102
RTVSPropertyOp15
 70
     1
102
RTVSPropertyOp16
 70
     1
102
RTVSPropertyOp17
 70
     1
102
RTVSPropertyOp18
 70
     1
102
RTVSPropertyOp19
 70
     1
102
RTVSPropertyOp20
 70
     1
102
RTVSPropertyOp21
 70
     1
102
RTVSPropertyOp22
 70
     1
102
RTVSPropertyOp23
 70
     1
102
RTVSPropertyOp24
 70
     1
102
RTVSPropertyOp25
 70
     1
102
RTVSPropertyOp26
 70
     1
102
RTVSPropertyOp27
 70
     1
102
RTVSPropertyOp28
 70
     1
102
RTVSPropertyOp29
 70
     1
102
RTVSPropertyOp30
 70
     1
102
RTVSPropertyOp31
 70
     1
102
RTVSPropertyOp32
 70
     1
102
RTVSPropertyOp33
 70
     1
102
RTVSPropertyOp34
 70
     1
102
RTVSPropertyOp35
 70
     1
102
RTVSPropertyOp36
 70
     1
102
RTVSPropertyOp37
 70
     1
102
RTVSPropertyOp38
 70
     1
102
RTVSPropertyOp39
 70
     1
102
RTVSPropertyOp40
 70
     1
102
RTVSPropertyOp41
 70
     1
102
RTVSPropertyOp42
 70
     1
102
RTVSPropertyOp43
 70
     1
102
RTVSPropertyOp44
 70
     1
102
RTVSPropertyOp45
 70
     1
102
RTVSPropertyOp46
 70
     1
102
RTVSPropertyOp47
 70
     1
102
RTVSPropertyOp48
 70
     1
102
RTVSPropertyOp49
 70
     1
102
RTVSPropertyOp50
 70
     1
102
RTVSPropertyOp51
 70
     0
102
RTVSPropertyOp52
 70
     0
102
RTVSPropertyOp53
 70
     1
102
RTVSPropertyOp54
 70
     1
102
RTVSPropertyOp55
 70
     1
102
RTVSPropertyOp56
 70
     1
102
RTVSPropertyOp57
 70
     1
102
RTVSPost2010Prop28
280
     0
102
RTVSPost2010PropOp28
 70
     1
102
RTVSPost2010Prop29
280
     1
102
RTVSPost2010PropOp29
 70
     1
102
RTVSPost2010Prop30
280
     1
102
RTVSPost2010PropOp30
 70
     1
102
RTVSPost2010Prop31
280
     0
102
RTVSPost2010PropOp31
 70
     1
102
RTVSPost2010Prop32
280
     0
102
RTVSPost2010PropOp32
 70
     1
102
RTVSPost2010Prop33
280
     0
102
RTVSPost2010PropOp33
 70
     1
102
RTVSPost2010Prop34
280
     0
102
RTVSPost2010PropOp34
 70
     1
102
RTVSPost2010Prop35
280
     0
102
RTVSPost2010PropOp35
 70
     1
102
RTVSPost2010Prop36
280
     0
102
RTVSPost2010PropOp36
 70
     1
102
RTVSPost2010Prop37
 90
       50
102
RTVSPost2010PropOp37
 70
     1
102
RTVSPost2010Prop38
140
0.0
102
RTVSPost2010PropOp38
 70
     1
102
RTVSPost2010Prop39
140
1.0
102
RTVSPost2010PropOp39
 70
     1
102
RTVSPost2010Prop40
 90
        0
102
RTVSPost2010PropOp40
 70
     1
102
RTVSPost2010Prop41ColorIndex
 90
       18
102
RTVSPost2010Prop41ColorRGB
 90
        0
102
RTVSPost2010PropOp41
 70
     1
102
RTVSPost2010Prop42
 90
       50
102
RTVSPost2010PropOp42
 70
     1
102
RTVSPost2010Prop43
 90
        3
102
RTVSPost2010PropOp43
 70
     1
102
RTVSPost2010Prop44ColorIndex
 90
        5
102
RTVSPost2010Prop44ColorRGB
 90
      255
102
RTVSPost2010PropOp44
 70
     1
102
RTVSPost2010Prop45
280
     0
102
RTVSPost2010PropOp45
 70
     1
102
RTVSPost2010Prop46
 90
       50
102
RTVSPost2010PropOp46
 70
     1
102
RTVSPost2010Prop47
 90
       50
102
RTVSPost2010PropOp47
 70
     1
102
RTVSPost2010Prop48
 90
       50
102
RTVSPost2010PropOp48
 70
     1
102
RTVSPost2010Prop49
280
     0
102
RTVSPost2010PropOp49
 70
     1
102
RTVSPost2010Prop50
 90
       50
102
RTVSPost2010PropOp50
 70
     1
102
RTVSPost2010Prop51ColorIndex
 90
      256
102
RTVSPost2010Prop51ColorRGB
 90
-16777216
102
RTVSPost2010PropOp51
 70
     0
102
RTVSPost2010Prop52
140
1.0
102
RTVSPost2010PropOp52
 70
     0
102
RTVSPost2010Prop53
 90
        2
102
RTVSPost2010PropOp53
 70
     1
102
RTVSPost2010Prop54
  1
strokes_ogs.tif
102
RTVSPost2010PropOp54
 70
     1
102
RTVSPost2010Prop55
280
     0
102
RTVSPost2010PropOp55
 70
     1
102
RTVSPost2010Prop56
140
1.0
102
RTVSPost2010PropOp56
 70
     1
102
RTVSPost2010Prop57
140
1.0
102
RTVSPost2010PropOp57
 70
     1
  0
XRECORD
  5
275
102
{ACAD_REACTORS
330
274
102
}
330
274
100
AcDbXrecord
280
     1
102
RTVSPropertyOp0
 70
     1
102
RTVSPropertyOp1
 70
     1
102
RTVSPropertyOp2
 70
     1
102
RTVSPropertyOp3
 70
     1
102
RTVSPropertyOp4
 70
     1
102
RTVSPropertyOp5
 70
     1
102
RTVSPropertyOp6
 70
     1
102
RTVSPropertyOp7
 70
     1
102
RTVSPropertyOp8
 70
     1
102
RTVSPropertyOp9
 70
     1
102
RTVSPropertyOp10
 70
     1
102
RTVSPropertyOp11
 70
     1
102
RTVSPropertyOp12
 70
     1
102
RTVSPropertyOp13
 70
     1
102
RTVSPropertyOp14
 70
     1
102
RTVSPropertyOp15
 70
     1
102
RTVSPropertyOp16
 70
     1
102
RTVSPropertyOp17
 70
     1
102
RTVSPropertyOp18
 70
     1
102
RTVSPropertyOp19
 70
     1
102
RTVSPropertyOp20
 70
     1
102
RTVSPropertyOp21
 70
     1
102
RTVSPropertyOp22
 70
     1
102
RTVSPropertyOp23
 70
     1
102
RTVSPropertyOp24
 70
     1
102
RTVSPropertyOp25
 70
     1
102
RTVSPropertyOp26
 70
     1
102
RTVSPropertyOp27
 70
     1
102
RTVSPropertyOp28
 70
     1
102
RTVSPropertyOp29
 70
     1
102
RTVSPropertyOp30
 70
     1
102
RTVSPropertyOp31
 70
     1
102
RTVSPropertyOp32
 70
     1
102
RTVSPropertyOp33
 70
     1
102
RTVSPropertyOp34
 70
     1
102
RTVSPropertyOp35
 70
     1
102
RTVSPropertyOp36
 70
     1
102
RTVSPropertyOp37
 70
     1
102
RTVSPropertyOp38
 70
     1
102
RTVSPropertyOp39
 70
     1
102
RTVSPropertyOp40
 70
     1
102
RTVSPropertyOp41
 70
     1
102
RTVSPropertyOp42
 70
     1
102
RTVSPropertyOp43
 70
     1
102
RTVSPropertyOp44
 70
     1
102
RTVSPropertyOp45
 70
     1
102
RTVSPropertyOp46
 70
     1
102
RTVSPropertyOp47
 70
     1
102
RTVSPropertyOp48
 70
     1
102
RTVSPropertyOp49
 70
     1
102
RTVSPropertyOp50
 70
     1
102
RTVSPropertyOp51
 70
     0
102
RTVSPropertyOp52
 70
     0
102
RTVSPropertyOp53
 70
     1
102
RTVSPropertyOp54
 70
     1
102
RTVSPropertyOp55
 70
     1
102
RTVSPropertyOp56
 70
     1
102
RTVSPropertyOp57
 70
     1
102
RTVSPost2010Prop28
280
     0
102
RTVSPost2010PropOp28
 70
     1
102
RTVSPost2010Prop29
280
     1
102
RTVSPost2010PropOp29
 70
     1
102
RTVSPost2010Prop30
280
     1
102
RTVSPost2010PropOp30
 70
     1
102
RTVSPost2010Prop31
280
     0
102
RTVSPost2010PropOp31
 70
     1
102
RTVSPost2010Prop32
280
     0
102
RTVSPost2010PropOp32
 70
     1
102
RTVSPost2010Prop33
280
     0
102
RTVSPost2010PropOp33
 70
     1
102
RTVSPost2010Prop34
280
     0
102
RTVSPost2010PropOp34
 70
     1
102
RTVSPost2010Prop35
280
     0
102
RTVSPost2010PropOp35
 70
     1
102
RTVSPost2010Prop36
280
     0
102
RTVSPost2010PropOp36
 70
     1
102
RTVSPost2010Prop37
 90
       50
102
RTVSPost2010PropOp37
 70
     1
102
RTVSPost2010Prop38
140
0.0
102
RTVSPost2010PropOp38
 70
     1
102
RTVSPost2010Prop39
140
1.0
102
RTVSPost2010PropOp39
 70
     1
102
RTVSPost2010Prop40
 90
        0
102
RTVSPost2010PropOp40
 70
     1
102
RTVSPost2010Prop41ColorIndex
 90
       18
102
RTVSPost2010Prop41ColorRGB
 90
        0
102
RTVSPost2010PropOp41
 70
     1
102
RTVSPost2010Prop42
 90
       50
102
RTVSPost2010PropOp42
 70
     1
102
RTVSPost2010Prop43
 90
        3
102
RTVSPost2010PropOp43
 70
     1
102
RTVSPost2010Prop44ColorIndex
 90
        5
102
RTVSPost2010Prop44ColorRGB
 90
      255
102
RTVSPost2010PropOp44
 70
     1
102
RTVSPost2010Prop45
280
     0
102
RTVSPost2010PropOp45
 70
     1
102
RTVSPost2010Prop46
 90
       50
102
RTVSPost2010PropOp46
 70
     1
102
RTVSPost2010Prop47
 90
       50
102
RTVSPost2010PropOp47
 70
     1
102
RTVSPost2010Prop48
 90
       50
102
RTVSPost2010PropOp48
 70
     1
102
RTVSPost2010Prop49
280
     0
102
RTVSPost2010PropOp49
 70
     1
102
RTVSPost2010Prop50
 90
       50
102
RTVSPost2010PropOp50
 70
     1
102
RTVSPost2010Prop51ColorIndex
 90
      256
102
RTVSPost2010Prop51ColorRGB
 90
-16777216
102
RTVSPost2010PropOp51
 70
     0
102
RTVSPost2010Prop52
140
1.0
102
RTVSPost2010PropOp52
 70
     0
102
RTVSPost2010Prop53
 90
        2
102
RTVSPost2010PropOp53
 70
     1
102
RTVSPost2010Prop54
  1
strokes_ogs.tif
102
RTVSPost2010PropOp54
 70
     1
102
RTVSPost2010Prop55
280
     0
102
RTVSPost2010PropOp55
 70
     1
102
RTVSPost2010Prop56
140
1.0
102
RTVSPost2010PropOp56
 70
     1
102
RTVSPost2010Prop57
140
1.0
102
RTVSPost2010PropOp57
 70
     1
  0
XRECORD
  5
26F
102
{ACAD_REACTORS
330
26E
102
}
330
26E
100
AcDbXrecord
280
     1
102
RTVSPropertyOp0
 70
     1
102
RTVSPropertyOp1
 70
     1
102
RTVSPropertyOp2
 70
     1
102
RTVSPropertyOp3
 70
     1
102
RTVSPropertyOp4
 70
     1
102
RTVSPropertyOp5
 70
     1
102
RTVSPropertyOp6
 70
     1
102
RTVSPropertyOp7
 70
     1
102
RTVSPropertyOp8
 70
     1
102
RTVSPropertyOp9
 70
     1
102
RTVSPropertyOp10
 70
     1
102
RTVSPropertyOp11
 70
     1
102
RTVSPropertyOp12
 70
     1
102
RTVSPropertyOp13
 70
     1
102
RTVSPropertyOp14
 70
     1
102
RTVSPropertyOp15
 70
     1
102
RTVSPropertyOp16
 70
     1
102
RTVSPropertyOp17
 70
     1
102
RTVSPropertyOp18
 70
     1
102
RTVSPropertyOp19
 70
     1
102
RTVSPropertyOp20
 70
     1
102
RTVSPropertyOp21
 70
     1
102
RTVSPropertyOp22
 70
     1
102
RTVSPropertyOp23
 70
     1
102
RTVSPropertyOp24
 70
     1
102
RTVSPropertyOp25
 70
     1
102
RTVSPropertyOp26
 70
     1
102
RTVSPropertyOp27
 70
     1
102
RTVSPropertyOp28
 70
     1
102
RTVSPropertyOp29
 70
     1
102
RTVSPropertyOp30
 70
     1
102
RTVSPropertyOp31
 70
     1
102
RTVSPropertyOp32
 70
     1
102
RTVSPropertyOp33
 70
     1
102
RTVSPropertyOp34
 70
     1
102
RTVSPropertyOp35
 70
     1
102
RTVSPropertyOp36
 70
     1
102
RTVSPropertyOp37
 70
     1
102
RTVSPropertyOp38
 70
     1
102
RTVSPropertyOp39
 70
     1
102
RTVSPropertyOp40
 70
     1
102
RTVSPropertyOp41
 70
     1
102
RTVSPropertyOp42
 70
     1
102
RTVSPropertyOp43
 70
     1
102
RTVSPropertyOp44
 70
     1
102
RTVSPropertyOp45
 70
     1
102
RTVSPropertyOp46
 70
     1
102
RTVSPropertyOp47
 70
     1
102
RTVSPropertyOp48
 70
     1
102
RTVSPropertyOp49
 70
     1
102
RTVSPropertyOp50
 70
     1
102
RTVSPropertyOp51
 70
     0
102
RTVSPropertyOp52
 70
     0
102
RTVSPropertyOp53
 70
     1
102
RTVSPropertyOp54
 70
     1
102
RTVSPropertyOp55
 70
     1
102
RTVSPropertyOp56
 70
     1
102
RTVSPropertyOp57
 70
     1
102
RTVSPost2010Prop28
280
     0
102
RTVSPost2010PropOp28
 70
     1
102
RTVSPost2010Prop29
280
     1
102
RTVSPost2010PropOp29
 70
     1
102
RTVSPost2010Prop30
280
     1
102
RTVSPost2010PropOp30
 70
     1
102
RTVSPost2010Prop31
280
     0
102
RTVSPost2010PropOp31
 70
     1
102
RTVSPost2010Prop32
280
     0
102
RTVSPost2010PropOp32
 70
     1
102
RTVSPost2010Prop33
280
     0
102
RTVSPost2010PropOp33
 70
     1
102
RTVSPost2010Prop34
280
     0
102
RTVSPost2010PropOp34
 70
     1
102
RTVSPost2010Prop35
280
     0
102
RTVSPost2010PropOp35
 70
     1
102
RTVSPost2010Prop36
280
     0
102
RTVSPost2010PropOp36
 70
     1
102
RTVSPost2010Prop37
 90
       50
102
RTVSPost2010PropOp37
 70
     1
102
RTVSPost2010Prop38
140
0.0
102
RTVSPost2010PropOp38
 70
     1
102
RTVSPost2010Prop39
140
1.0
102
RTVSPost2010PropOp39
 70
     1
102
RTVSPost2010Prop40
 90
        0
102
RTVSPost2010PropOp40
 70
     1
102
RTVSPost2010Prop41ColorIndex
 90
       18
102
RTVSPost2010Prop41ColorRGB
 90
        0
102
RTVSPost2010PropOp41
 70
     1
102
RTVSPost2010Prop42
 90
       50
102
RTVSPost2010PropOp42
 70
     1
102
RTVSPost2010Prop43
 90
        3
102
RTVSPost2010PropOp43
 70
     1
102
RTVSPost2010Prop44ColorIndex
 90
        5
102
RTVSPost2010Prop44ColorRGB
 90
      255
102
RTVSPost2010PropOp44
 70
     1
102
RTVSPost2010Prop45
280
     0
102
RTVSPost2010PropOp45
 70
     1
102
RTVSPost2010Prop46
 90
       50
102
RTVSPost2010PropOp46
 70
     1
102
RTVSPost2010Prop47
 90
       50
102
RTVSPost2010PropOp47
 70
     1
102
RTVSPost2010Prop48
 90
       50
102
RTVSPost2010PropOp48
 70
     1
102
RTVSPost2010Prop49
280
     0
102
RTVSPost2010PropOp49
 70
     1
102
RTVSPost2010Prop50
 90
       50
102
RTVSPost2010PropOp50
 70
     1
102
RTVSPost2010Prop51ColorIndex
 90
      256
102
RTVSPost2010Prop51ColorRGB
 90
-16777216
102
RTVSPost2010PropOp51
 70
     0
102
RTVSPost2010Prop52
140
1.0
102
RTVSPost2010PropOp52
 70
     0
102
RTVSPost2010Prop53
 90
        2
102
RTVSPost2010PropOp53
 70
     1
102
RTVSPost2010Prop54
  1
strokes_ogs.tif
102
RTVSPost2010PropOp54
 70
     1
102
RTVSPost2010Prop55
280
     0
102
RTVSPost2010PropOp55
 70
     1
102
RTVSPost2010Prop56
140
1.0
102
RTVSPost2010PropOp56
 70
     1
102
RTVSPost2010Prop57
140
1.0
102
RTVSPost2010PropOp57
 70
     1
  0
XRECORD
  5
271
102
{ACAD_REACTORS
330
270
102
}
330
270
100
AcDbXrecord
280
     1
102
RTVSPropertyOp0
 70
     1
102
RTVSPropertyOp1
 70
     1
102
RTVSPropertyOp2
 70
     1
102
RTVSPropertyOp3
 70
     1
102
RTVSPropertyOp4
 70
     1
102
RTVSPropertyOp5
 70
     1
102
RTVSPropertyOp6
 70
     1
102
RTVSPropertyOp7
 70
     1
102
RTVSPropertyOp8
 70
     1
102
RTVSPropertyOp9
 70
     1
102
RTVSPropertyOp10
 70
     1
102
RTVSPropertyOp11
 70
     1
102
RTVSPropertyOp12
 70
     1
102
RTVSPropertyOp13
 70
     1
102
RTVSPropertyOp14
 70
     1
102
RTVSPropertyOp15
 70
     1
102
RTVSPropertyOp16
 70
     1
102
RTVSPropertyOp17
 70
     1
102
RTVSPropertyOp18
 70
     1
102
RTVSPropertyOp19
 70
     1
102
RTVSPropertyOp20
 70
     1
102
RTVSPropertyOp21
 70
     1
102
RTVSPropertyOp22
 70
     1
102
RTVSPropertyOp23
 70
     1
102
RTVSPropertyOp24
 70
     1
102
RTVSPropertyOp25
 70
     1
102
RTVSPropertyOp26
 70
     1
102
RTVSPropertyOp27
 70
     1
102
RTVSPropertyOp28
 70
     1
102
RTVSPropertyOp29
 70
     1
102
RTVSPropertyOp30
 70
     1
102
RTVSPropertyOp31
 70
     1
102
RTVSPropertyOp32
 70
     1
102
RTVSPropertyOp33
 70
     1
102
RTVSPropertyOp34
 70
     1
102
RTVSPropertyOp35
 70
     1
102
RTVSPropertyOp36
 70
     1
102
RTVSPropertyOp37
 70
     1
102
RTVSPropertyOp38
 70
     1
102
RTVSPropertyOp39
 70
     1
102
RTVSPropertyOp40
 70
     1
102
RTVSPropertyOp41
 70
     1
102
RTVSPropertyOp42
 70
     1
102
RTVSPropertyOp43
 70
     1
102
RTVSPropertyOp44
 70
     1
102
RTVSPropertyOp45
 70
     1
102
RTVSPropertyOp46
 70
     1
102
RTVSPropertyOp47
 70
     1
102
RTVSPropertyOp48
 70
     1
102
RTVSPropertyOp49
 70
     1
102
RTVSPropertyOp50
 70
     1
102
RTVSPropertyOp51
 70
     0
102
RTVSPropertyOp52
 70
     0
102
RTVSPropertyOp53
 70
     1
102
RTVSPropertyOp54
 70
     1
102
RTVSPropertyOp55
 70
     1
102
RTVSPropertyOp56
 70
     1
102
RTVSPropertyOp57
 70
     1
102
RTVSPost2010Prop28
280
     0
102
RTVSPost2010PropOp28
 70
     1
102
RTVSPost2010Prop29
280
     1
102
RTVSPost2010PropOp29
 70
     1
102
RTVSPost2010Prop30
280
     1
102
RTVSPost2010PropOp30
 70
     1
102
RTVSPost2010Prop31
280
     0
102
RTVSPost2010PropOp31
 70
     1
102
RTVSPost2010Prop32
280
     0
102
RTVSPost2010PropOp32
 70
     1
102
RTVSPost2010Prop33
280
     0
102
RTVSPost2010PropOp33
 70
     1
102
RTVSPost2010Prop34
280
     0
102
RTVSPost2010PropOp34
 70
     1
102
RTVSPost2010Prop35
280
     0
102
RTVSPost2010PropOp35
 70
     1
102
RTVSPost2010Prop36
280
     0
102
RTVSPost2010PropOp36
 70
     1
102
RTVSPost2010Prop37
 90
       50
102
RTVSPost2010PropOp37
 70
     1
102
RTVSPost2010Prop38
140
0.0
102
RTVSPost2010PropOp38
 70
     1
102
RTVSPost2010Prop39
140
1.0
102
RTVSPost2010PropOp39
 70
     1
102
RTVSPost2010Prop40
 90
        0
102
RTVSPost2010PropOp40
 70
     1
102
RTVSPost2010Prop41ColorIndex
 90
       18
102
RTVSPost2010Prop41ColorRGB
 90
        0
102
RTVSPost2010PropOp41
 70
     1
102
RTVSPost2010Prop42
 90
       50
102
RTVSPost2010PropOp42
 70
     1
102
RTVSPost2010Prop43
 90
        3
102
RTVSPost2010PropOp43
 70
     1
102
RTVSPost2010Prop44ColorIndex
 90
        5
102
RTVSPost2010Prop44ColorRGB
 90
      255
102
RTVSPost2010PropOp44
 70
     1
102
RTVSPost2010Prop45
280
     0
102
RTVSPost2010PropOp45
 70
     1
102
RTVSPost2010Prop46
 90
       50
102
RTVSPost2010PropOp46
 70
     1
102
RTVSPost2010Prop47
 90
       50
102
RTVSPost2010PropOp47
 70
     1
102
RTVSPost2010Prop48
 90
       50
102
RTVSPost2010PropOp48
 70
     1
102
RTVSPost2010Prop49
280
     0
102
RTVSPost2010PropOp49
 70
     1
102
RTVSPost2010Prop50
 90
       50
102
RTVSPost2010PropOp50
 70
     1
102
RTVSPost2010Prop51ColorIndex
 90
      256
102
RTVSPost2010Prop51ColorRGB
 90
-16777216
102
RTVSPost2010PropOp51
 70
     0
102
RTVSPost2010Prop52
140
1.0
102
RTVSPost2010PropOp52
 70
     0
102
RTVSPost2010Prop53
 90
        2
102
RTVSPost2010PropOp53
 70
     1
102
RTVSPost2010Prop54
  1
strokes_ogs.tif
102
RTVSPost2010PropOp54
 70
     1
102
RTVSPost2010Prop55
280
     0
102
RTVSPost2010PropOp55
 70
     1
102
RTVSPost2010Prop56
140
1.0
102
RTVSPost2010PropOp56
 70
     1
102
RTVSPost2010Prop57
140
1.0
102
RTVSPost2010PropOp57
 70
     1
  0
XRECORD
  5
261
102
{ACAD_REACTORS
330
260
102
}
330
260
100
AcDbXrecord
280
     1
102
RTVSPropertyOp0
 70
     1
102
RTVSPropertyOp1
 70
     1
102
RTVSPropertyOp2
 70
     1
102
RTVSPropertyOp3
 70
     1
102
RTVSPropertyOp4
 70
     1
102
RTVSPropertyOp5
 70
     1
102
RTVSPropertyOp6
 70
     1
102
RTVSPropertyOp7
 70
     1
102
RTVSPropertyOp8
 70
     1
102
RTVSPropertyOp9
 70
     1
102
RTVSPropertyOp10
 70
     1
102
RTVSPropertyOp11
 70
     1
102
RTVSPropertyOp12
 70
     1
102
RTVSPropertyOp13
 70
     1
102
RTVSPropertyOp14
 70
     1
102
RTVSPropertyOp15
 70
     1
102
RTVSPropertyOp16
 70
     1
102
RTVSPropertyOp17
 70
     1
102
RTVSPropertyOp18
 70
     1
102
RTVSPropertyOp19
 70
     1
102
RTVSPropertyOp20
 70
     1
102
RTVSPropertyOp21
 70
     1
102
RTVSPropertyOp22
 70
     1
102
RTVSPropertyOp23
 70
     1
102
RTVSPropertyOp24
 70
     1
102
RTVSPropertyOp25
 70
     1
102
RTVSPropertyOp26
 70
     1
102
RTVSPropertyOp27
 70
     1
102
RTVSPropertyOp28
 70
     1
102
RTVSPropertyOp29
 70
     1
102
RTVSPropertyOp30
 70
     1
102
RTVSPropertyOp31
 70
     1
102
RTVSPropertyOp32
 70
     1
102
RTVSPropertyOp33
 70
     1
102
RTVSPropertyOp34
 70
     1
102
RTVSPropertyOp35
 70
     1
102
RTVSPropertyOp36
 70
     1
102
RTVSPropertyOp37
 70
     1
102
RTVSPropertyOp38
 70
     1
102
RTVSPropertyOp39
 70
     1
102
RTVSPropertyOp40
 70
     1
102
RTVSPropertyOp41
 70
     1
102
RTVSPropertyOp42
 70
     1
102
RTVSPropertyOp43
 70
     1
102
RTVSPropertyOp44
 70
     1
102
RTVSPropertyOp45
 70
     1
102
RTVSPropertyOp46
 70
     1
102
RTVSPropertyOp47
 70
     1
102
RTVSPropertyOp48
 70
     1
102
RTVSPropertyOp49
 70
     1
102
RTVSPropertyOp50
 70
     1
102
RTVSPropertyOp51
 70
     0
102
RTVSPropertyOp52
 70
     0
102
RTVSPropertyOp53
 70
     1
102
RTVSPropertyOp54
 70
     1
102
RTVSPropertyOp55
 70
     1
102
RTVSPropertyOp56
 70
     1
102
RTVSPropertyOp57
 70
     1
102
RTVSPost2010Prop28
280
     0
102
RTVSPost2010PropOp28
 70
     1
102
RTVSPost2010Prop29
280
     1
102
RTVSPost2010PropOp29
 70
     1
102
RTVSPost2010Prop30
280
     1
102
RTVSPost2010PropOp30
 70
     1
102
RTVSPost2010Prop31
280
     0
102
RTVSPost2010PropOp31
 70
     1
102
RTVSPost2010Prop32
280
     0
102
RTVSPost2010PropOp32
 70
     1
102
RTVSPost2010Prop33
280
     0
102
RTVSPost2010PropOp33
 70
     1
102
RTVSPost2010Prop34
280
     0
102
RTVSPost2010PropOp34
 70
     1
102
RTVSPost2010Prop35
280
     0
102
RTVSPost2010PropOp35
 70
     1
102
RTVSPost2010Prop36
280
     0
102
RTVSPost2010PropOp36
 70
     1
102
RTVSPost2010Prop37
 90
       50
102
RTVSPost2010PropOp37
 70
     1
102
RTVSPost2010Prop38
140
0.0
102
RTVSPost2010PropOp38
 70
     1
102
RTVSPost2010Prop39
140
1.0
102
RTVSPost2010PropOp39
 70
     1
102
RTVSPost2010Prop40
 90
        0
102
RTVSPost2010PropOp40
 70
     1
102
RTVSPost2010Prop41ColorIndex
 90
       18
102
RTVSPost2010Prop41ColorRGB
 90
        0
102
RTVSPost2010PropOp41
 70
     1
102
RTVSPost2010Prop42
 90
       50
102
RTVSPost2010PropOp42
 70
     1
102
RTVSPost2010Prop43
 90
        3
102
RTVSPost2010PropOp43
 70
     1
102
RTVSPost2010Prop44ColorIndex
 90
        5
102
RTVSPost2010Prop44ColorRGB
 90
      255
102
RTVSPost2010PropOp44
 70
     1
102
RTVSPost2010Prop45
280
     0
102
RTVSPost2010PropOp45
 70
     1
102
RTVSPost2010Prop46
 90
       50
102
RTVSPost2010PropOp46
 70
     1
102
RTVSPost2010Prop47
 90
       50
102
RTVSPost2010PropOp47
 70
     1
102
RTVSPost2010Prop48
 90
       50
102
RTVSPost2010PropOp48
 70
     1
102
RTVSPost2010Prop49
280
     0
102
RTVSPost2010PropOp49
 70
     1
102
RTVSPost2010Prop50
 90
       50
102
RTVSPost2010PropOp50
 70
     1
102
RTVSPost2010Prop51ColorIndex
 90
      256
102
RTVSPost2010Prop51ColorRGB
 90
-16777216
102
RTVSPost2010PropOp51
 70
     0
102
RTVSPost2010Prop52
140
1.0
102
RTVSPost2010PropOp52
 70
     0
102
RTVSPost2010Prop53
 90
        2
102
RTVSPost2010PropOp53
 70
     1
102
RTVSPost2010Prop54
  1
strokes_ogs.tif
102
RTVSPost2010PropOp54
 70
     1
102
RTVSPost2010Prop55
280
     0
102
RTVSPost2010PropOp55
 70
     1
102
RTVSPost2010Prop56
140
1.0
102
RTVSPost2010PropOp56
 70
     1
102
RTVSPost2010Prop57
140
1.0
102
RTVSPost2010PropOp57
 70
     1
  0
XRECORD
  5
253
102
{ACAD_REACTORS
330
252
102
}
330
252
100
AcDbXrecord
280
     1
102
RTVSPropertyOp0
 70
     1
102
RTVSPropertyOp1
 70
     1
102
RTVSPropertyOp2
 70
     1
102
RTVSPropertyOp3
 70
     1
102
RTVSPropertyOp4
 70
     1
102
RTVSPropertyOp5
 70
     1
102
RTVSPropertyOp6
 70
     1
102
RTVSPropertyOp7
 70
     1
102
RTVSPropertyOp8
 70
     1
102
RTVSPropertyOp9
 70
     1
102
RTVSPropertyOp10
 70
     1
102
RTVSPropertyOp11
 70
     1
102
RTVSPropertyOp12
 70
     1
102
RTVSPropertyOp13
 70
     1
102
RTVSPropertyOp14
 70
     1
102
RTVSPropertyOp15
 70
     1
102
RTVSPropertyOp16
 70
     1
102
RTVSPropertyOp17
 70
     1
102
RTVSPropertyOp18
 70
     1
102
RTVSPropertyOp19
 70
     1
102
RTVSPropertyOp20
 70
     1
102
RTVSPropertyOp21
 70
     1
102
RTVSPropertyOp22
 70
     1
102
RTVSPropertyOp23
 70
     1
102
RTVSPropertyOp24
 70
     1
102
RTVSPropertyOp25
 70
     1
102
RTVSPropertyOp26
 70
     1
102
RTVSPropertyOp27
 70
     1
102
RTVSPropertyOp28
 70
     1
102
RTVSPropertyOp29
 70
     1
102
RTVSPropertyOp30
 70
     1
102
RTVSPropertyOp31
 70
     1
102
RTVSPropertyOp32
 70
     1
102
RTVSPropertyOp33
 70
     1
102
RTVSPropertyOp34
 70
     1
102
RTVSPropertyOp35
 70
     1
102
RTVSPropertyOp36
 70
     1
102
RTVSPropertyOp37
 70
     1
102
RTVSPropertyOp38
 70
     1
102
RTVSPropertyOp39
 70
     1
102
RTVSPropertyOp40
 70
     1
102
RTVSPropertyOp41
 70
     1
102
RTVSPropertyOp42
 70
     1
102
RTVSPropertyOp43
 70
     1
102
RTVSPropertyOp44
 70
     1
102
RTVSPropertyOp45
 70
     1
102
RTVSPropertyOp46
 70
     1
102
RTVSPropertyOp47
 70
     1
102
RTVSPropertyOp48
 70
     1
102
RTVSPropertyOp49
 70
     1
102
RTVSPropertyOp50
 70
     1
102
RTVSPropertyOp51
 70
     0
102
RTVSPropertyOp52
 70
     0
102
RTVSPropertyOp53
 70
     1
102
RTVSPropertyOp54
 70
     1
102
RTVSPropertyOp55
 70
     1
102
RTVSPropertyOp56
 70
     1
102
RTVSPropertyOp57
 70
     1
102
RTVSPost2010Prop28
280
     0
102
RTVSPost2010PropOp28
 70
     1
102
RTVSPost2010Prop29
280
     1
102
RTVSPost2010PropOp29
 70
     1
102
RTVSPost2010Prop30
280
     1
102
RTVSPost2010PropOp30
 70
     1
102
RTVSPost2010Prop31
280
     0
102
RTVSPost2010PropOp31
 70
     1
102
RTVSPost2010Prop32
280
     0
102
RTVSPost2010PropOp32
 70
     1
102
RTVSPost2010Prop33
280
     0
102
RTVSPost2010PropOp33
 70
     1
102
RTVSPost2010Prop34
280
     0
102
RTVSPost2010PropOp34
 70
     1
102
RTVSPost2010Prop35
280
     0
102
RTVSPost2010PropOp35
 70
     1
102
RTVSPost2010Prop36
280
     0
102
RTVSPost2010PropOp36
 70
     1
102
RTVSPost2010Prop37
 90
       50
102
RTVSPost2010PropOp37
 70
     1
102
RTVSPost2010Prop38
140
0.0
102
RTVSPost2010PropOp38
 70
     1
102
RTVSPost2010Prop39
140
1.0
102
RTVSPost2010PropOp39
 70
     1
102
RTVSPost2010Prop40
 90
        0
102
RTVSPost2010PropOp40
 70
     1
102
RTVSPost2010Prop41ColorIndex
 90
       18
102
RTVSPost2010Prop41ColorRGB
 90
        0
102
RTVSPost2010PropOp41
 70
     1
102
RTVSPost2010Prop42
 90
       50
102
RTVSPost2010PropOp42
 70
     1
102
RTVSPost2010Prop43
 90
        3
102
RTVSPost2010PropOp43
 70
     1
102
RTVSPost2010Prop44ColorIndex
 90
        5
102
RTVSPost2010Prop44ColorRGB
 90
      255
102
RTVSPost2010PropOp44
 70
     1
102
RTVSPost2010Prop45
280
     0
102
RTVSPost2010PropOp45
 70
     1
102
RTVSPost2010Prop46
 90
       50
102
RTVSPost2010PropOp46
 70
     1
102
RTVSPost2010Prop47
 90
       50
102
RTVSPost2010PropOp47
 70
     1
102
RTVSPost2010Prop48
 90
       50
102
RTVSPost2010PropOp48
 70
     1
102
RTVSPost2010Prop49
280
     0
102
RTVSPost2010PropOp49
 70
     1
102
RTVSPost2010Prop50
 90
       50
102
RTVSPost2010PropOp50
 70
     1
102
RTVSPost2010Prop51ColorIndex
 90
      256
102
RTVSPost2010Prop51ColorRGB
 90
-16777216
102
RTVSPost2010PropOp51
 70
     0
102
RTVSPost2010Prop52
140
1.0
102
RTVSPost2010PropOp52
 70
     0
102
RTVSPost2010Prop53
 90
        2
102
RTVSPost2010PropOp53
 70
     1
102
RTVSPost2010Prop54
  1
strokes_ogs.tif
102
RTVSPost2010PropOp54
 70
     1
102
RTVSPost2010Prop55
280
     0
102
RTVSPost2010PropOp55
 70
     1
102
RTVSPost2010Prop56
140
1.0
102
RTVSPost2010PropOp56
 70
     1
102
RTVSPost2010Prop57
140
1.0
102
RTVSPost2010PropOp57
 70
     1
  0
XRECORD
  5
273
102
{ACAD_REACTORS
330
272
102
}
330
272
100
AcDbXrecord
280
     1
102
RTVSPropertyOp0
 70
     1
102
RTVSPropertyOp1
 70
     1
102
RTVSPropertyOp2
 70
     1
102
RTVSPropertyOp3
 70
     1
102
RTVSPropertyOp4
 70
     1
102
RTVSPropertyOp5
 70
     1
102
RTVSPropertyOp6
 70
     1
102
RTVSPropertyOp7
 70
     1
102
RTVSPropertyOp8
 70
     1
102
RTVSPropertyOp9
 70
     1
102
RTVSPropertyOp10
 70
     1
102
RTVSPropertyOp11
 70
     1
102
RTVSPropertyOp12
 70
     1
102
RTVSPropertyOp13
 70
     1
102
RTVSPropertyOp14
 70
     1
102
RTVSPropertyOp15
 70
     1
102
RTVSPropertyOp16
 70
     1
102
RTVSPropertyOp17
 70
     1
102
RTVSPropertyOp18
 70
     1
102
RTVSPropertyOp19
 70
     1
102
RTVSPropertyOp20
 70
     1
102
RTVSPropertyOp21
 70
     1
102
RTVSPropertyOp22
 70
     1
102
RTVSPropertyOp23
 70
     1
102
RTVSPropertyOp24
 70
     1
102
RTVSPropertyOp25
 70
     1
102
RTVSPropertyOp26
 70
     1
102
RTVSPropertyOp27
 70
     1
102
RTVSPropertyOp28
 70
     1
102
RTVSPropertyOp29
 70
     1
102
RTVSPropertyOp30
 70
     1
102
RTVSPropertyOp31
 70
     1
102
RTVSPropertyOp32
 70
     1
102
RTVSPropertyOp33
 70
     1
102
RTVSPropertyOp34
 70
     1
102
RTVSPropertyOp35
 70
     1
102
RTVSPropertyOp36
 70
     1
102
RTVSPropertyOp37
 70
     1
102
RTVSPropertyOp38
 70
     1
102
RTVSPropertyOp39
 70
     1
102
RTVSPropertyOp40
 70
     1
102
RTVSPropertyOp41
 70
     1
102
RTVSPropertyOp42
 70
     1
102
RTVSPropertyOp43
 70
     1
102
RTVSPropertyOp44
 70
     1
102
RTVSPropertyOp45
 70
     1
102
RTVSPropertyOp46
 70
     1
102
RTVSPropertyOp47
 70
     1
102
RTVSPropertyOp48
 70
     1
102
RTVSPropertyOp49
 70
     1
102
RTVSPropertyOp50
 70
     1
102
RTVSPropertyOp51
 70
     0
102
RTVSPropertyOp52
 70
     0
102
RTVSPropertyOp53
 70
     1
102
RTVSPropertyOp54
 70
     1
102
RTVSPropertyOp55
 70
     1
102
RTVSPropertyOp56
 70
     1
102
RTVSPropertyOp57
 70
     1
102
RTVSPost2010Prop28
280
     0
102
RTVSPost2010PropOp28
 70
     1
102
RTVSPost2010Prop29
280
     1
102
RTVSPost2010PropOp29
 70
     1
102
RTVSPost2010Prop30
280
     1
102
RTVSPost2010PropOp30
 70
     1
102
RTVSPost2010Prop31
280
     0
102
RTVSPost2010PropOp31
 70
     1
102
RTVSPost2010Prop32
280
     0
102
RTVSPost2010PropOp32
 70
     1
102
RTVSPost2010Prop33
280
     0
102
RTVSPost2010PropOp33
 70
     1
102
RTVSPost2010Prop34
280
     0
102
RTVSPost2010PropOp34
 70
     1
102
RTVSPost2010Prop35
280
     0
102
RTVSPost2010PropOp35
 70
     1
102
RTVSPost2010Prop36
280
     0
102
RTVSPost2010PropOp36
 70
     1
102
RTVSPost2010Prop37
 90
       50
102
RTVSPost2010PropOp37
 70
     1
102
RTVSPost2010Prop38
140
0.0
102
RTVSPost2010PropOp38
 70
     1
102
RTVSPost2010Prop39
140
1.0
102
RTVSPost2010PropOp39
 70
     1
102
RTVSPost2010Prop40
 90
        0
102
RTVSPost2010PropOp40
 70
     1
102
RTVSPost2010Prop41ColorIndex
 90
       18
102
RTVSPost2010Prop41ColorRGB
 90
        0
102
RTVSPost2010PropOp41
 70
     1
102
RTVSPost2010Prop42
 90
       50
102
RTVSPost2010PropOp42
 70
     1
102
RTVSPost2010Prop43
 90
        3
102
RTVSPost2010PropOp43
 70
     1
102
RTVSPost2010Prop44ColorIndex
 90
        5
102
RTVSPost2010Prop44ColorRGB
 90
      255
102
RTVSPost2010PropOp44
 70
     1
102
RTVSPost2010Prop45
280
     0
102
RTVSPost2010PropOp45
 70
     1
102
RTVSPost2010Prop46
 90
       50
102
RTVSPost2010PropOp46
 70
     1
102
RTVSPost2010Prop47
 90
       50
102
RTVSPost2010PropOp47
 70
     1
102
RTVSPost2010Prop48
 90
       50
102
RTVSPost2010PropOp48
 70
     1
102
RTVSPost2010Prop49
280
     0
102
RTVSPost2010PropOp49
 70
     1
102
RTVSPost2010Prop50
 90
       50
102
RTVSPost2010PropOp50
 70
     1
102
RTVSPost2010Prop51ColorIndex
 90
      256
102
RTVSPost2010Prop51ColorRGB
 90
-16777216
102
RTVSPost2010PropOp51
 70
     0
102
RTVSPost2010Prop52
140
1.0
102
RTVSPost2010PropOp52
 70
     0
102
RTVSPost2010Prop53
 90
        2
102
RTVSPost2010PropOp53
 70
     1
102
RTVSPost2010Prop54
  1
strokes_ogs.tif
102
RTVSPost2010PropOp54
 70
     1
102
RTVSPost2010Prop55
280
     0
102
RTVSPost2010PropOp55
 70
     1
102
RTVSPost2010Prop56
140
1.0
102
RTVSPost2010PropOp56
 70
     1
102
RTVSPost2010Prop57
140
1.0
102
RTVSPost2010PropOp57
 70
     1
  0
ENDSEC
  0
EOF
