  0
SECTION
  2
HEADER
  9
$ACADVER
  1
AC1015
  9
$ACADMAINTVER
 70
     6
  9
$DWGCODEPAGE
  3
ANSI_1252
  9
$INSBASE
 10
0.0
 20
0.0
 30
0.0
  9
$EXTMIN
 10
0.0
 20
0.0
 30
0.0
  9
$EXTMAX
 10
728.99646
 20
788.425659
 30
0.0
  9
$LIMMIN
 10
0.0
 20
0.0
  9
$LIMMAX
 10
728.99646
 20
788.425659
  9
$ORTHOMODE
 70
     0
  9
$REGENMODE
 70
     1
  9
$FILLMODE
 70
     1
  9
$QTEXTMODE
 70
     0
  9
$MIRRTEXT
 70
     1
  9
$LTSCALE
 40
1.0
  9
$ATTMODE
 70
     1
  9
$TEXTSIZE
 40
2.5
  9
$TRACEWID
 40
1.0
  9
$TEXTSTYLE
  7
Standard
  9
$CLAYER
  8
0
  9
$CELTYPE
  6
ByLayer
  9
$CECOLOR
 62
   256
  9
$CELTSCALE
 40
1.0
  9
$DISPSILH
 70
     0
  9
$DIMSCALE
 40
1.0
  9
$DIMASZ
 40
2.5
  9
$DIMEXO
 40
0.625
  9
$DIMDLI
 40
3.75
  9
$DIMRND
 40
0.0
  9
$DIMDLE
 40
0.0
  9
$DIMEXE
 40
1.25
  9
$DIMTP
 40
0.0
  9
$DIMTM
 40
0.0
  9
$DIMTXT
 40
2.5
  9
$DIMCEN
 40
2.5
  9
$DIMTSZ
 40
0.0
  9
$DIMTOL
 70
     0
  9
$DIMLIM
 70
     0
  9
$DIMTIH
 70
     0
  9
$DIMTOH
 70
     0
  9
$DIMSE1
 70
     0
  9
$DIMSE2
 70
     0
  9
$DIMTAD
 70
     1
  9
$DIMZIN
 70
     8
  9
$DIMBLK
  1

  9
$DIMASO
 70
     1
  9
$DIMSHO
 70
     1
  9
$DIMPOST
  1

  9
$DIMAPOST
  1

  9
$DIMALT
 70
     0
  9
$DIMALTD
 70
     3
  9
$DIMALTF
 40
0.03937
  9
$DIMLFAC
 40
1.0
  9
$DIMTOFL
 70
     1
  9
$DIMTVP
 40
0.0
  9
$DIMTIX
 70
     0
  9
$DIMSOXD
 70
     0
  9
$DIMSAH
 70
     0
  9
$DIMBLK1
  1

  9
$DIMBLK2
  1

  9
$DIMSTYLE
  2
ISO-25
  9
$DIMCLRD
 70
     0
  9
$DIMCLRE
 70
     0
  9
$DIMCLRT
 70
     0
  9
$DIMTFAC
 40
1.0
  9
$DIMGAP
 40
0.625
  9
$DIMJUST
 70
     0
  9
$DIMSD1
 70
     0
  9
$DIMSD2
 70
     0
  9
$DIMTOLJ
 70
     0
  9
$DIMTZIN
 70
     8
  9
$DIMALTZ
 70
     0
  9
$DIMALTTZ
 70
     0
  9
$DIMUPT
 70
     0
  9
$DIMDEC
 70
     2
  9
$DIMTDEC
 70
     2
  9
$DIMALTU
 70
     2
  9
$DIMALTTD
 70
     3
  9
$DIMTXSTY
  7
Standard
  9
$DIMAUNIT
 70
     0
  9
$DIMADEC
 70
     0
  9
$DIMALTRND
 40
0.0
  9
$DIMAZIN
 70
     0
  9
$DIMDSEP
 70
    44
  9
$DIMATFIT
 70
     3
  9
$DIMFRAC
 70
     0
  9
$DIMLDRBLK
  1

  9
$DIMLUNIT
 70
     2
  9
$DIMLWD
 70
    -2
  9
$DIMLWE
 70
    -2
  9
$DIMTMOVE
 70
     0
  9
$LUNITS
 70
     2
  9
$LUPREC
 70
     4
  9
$SKETCHINC
 40
1.0
  9
$FILLETRAD
 40
10.0
  9
$AUNITS
 70
     0
  9
$AUPREC
 70
     0
  9
$MENU
  1
.
  9
$ELEVATION
 40
0.0
  9
$PELEVATION
 40
0.0
  9
$THICKNESS
 40
0.0
  9
$LIMCHECK
 70
     0
  9
$CHAMFERA
 40
0.0
  9
$CHAMFERB
 40
0.0
  9
$CHAMFERC
 40
0.0
  9
$CHAMFERD
 40
0.0
  9
$SKPOLY
 70
     0
  9
$TDCREATE
 40
2459018.448231725
  9
$TDUCREATE
 40
2459018.364898391
  9
$TDUPDATE
 40
2459018.448232419
  9
$TDUUPDATE
 40
2459018.364899086
  9
$TDINDWG
 40
0.0000000116
  9
$TDUSRTIMER
 40
0.0000000116
  9
$USRTIMER
 70
     1
  9
$ANGBASE
 50
0.0
  9
$ANGDIR
 70
     0
  9
$PDMODE
 70
     0
  9
$PDSIZE
 40
0.0
  9
$PLINEWID
 40
0.0
  9
$SPLFRAME
 70
     0
  9
$SPLINETYPE
 70
     6
  9
$SPLINESEGS
 70
     8
  9
$HANDSEED
  5
217
  9
$SURFTAB1
 70
     6
  9
$SURFTAB2
 70
     6
  9
$SURFTYPE
 70
     6
  9
$SURFU
 70
     6
  9
$SURFV
 70
     6
  9
$UCSBASE
  2

  9
$UCSNAME
  2

  9
$UCSORG
 10
0.0
 20
0.0
 30
0.0
  9
$UCSXDIR
 10
1.0
 20
0.0
 30
0.0
  9
$UCSYDIR
 10
0.0
 20
1.0
 30
0.0
  9
$UCSORTHOREF
  2

  9
$UCSORTHOVIEW
 70
     0
  9
$UCSORGTOP
 10
0.0
 20
0.0
 30
0.0
  9
$UCSORGBOTTOM
 10
0.0
 20
0.0
 30
0.0
  9
$UCSORGLEFT
 10
0.0
 20
0.0
 30
0.0
  9
$UCSORGRIGHT
 10
0.0
 20
0.0
 30
0.0
  9
$UCSORGFRONT
 10
0.0
 20
0.0
 30
0.0
  9
$UCSORGBACK
 10
0.0
 20
0.0
 30
0.0
  9
$PUCSBASE
  2

  9
$PUCSNAME
  2

  9
$PUCSORG
 10
0.0
 20
0.0
 30
0.0
  9
$PUCSXDIR
 10
1.0
 20
0.0
 30
0.0
  9
$PUCSYDIR
 10
0.0
 20
1.0
 30
0.0
  9
$PUCSORTHOREF
  2

  9
$PUCSORTHOVIEW
 70
     0
  9
$PUCSORGTOP
 10
0.0
 20
0.0
 30
0.0
  9
$PUCSORGBOTTOM
 10
0.0
 20
0.0
 30
0.0
  9
$PUCSORGLEFT
 10
0.0
 20
0.0
 30
0.0
  9
$PUCSORGRIGHT
 10
0.0
 20
0.0
 30
0.0
  9
$PUCSORGFRONT
 10
0.0
 20
0.0
 30
0.0
  9
$PUCSORGBACK
 10
0.0
 20
0.0
 30
0.0
  9
$USERI1
 70
     0
  9
$USERI2
 70
     0
  9
$USERI3
 70
     0
  9
$USERI4
 70
     0
  9
$USERI5
 70
     0
  9
$USERR1
 40
0.0
  9
$USERR2
 40
0.0
  9
$USERR3
 40
0.0
  9
$USERR4
 40
0.0
  9
$USERR5
 40
0.0
  9
$WORLDVIEW
 70
     1
  9
$SHADEDGE
 70
     3
  9
$SHADEDIF
 70
    70
  9
$TILEMODE
 70
     1
  9
$MAXACTVP
 70
    64
  9
$PINSBASE
 10
0.0
 20
0.0
 30
0.0
  9
$PLIMCHECK
 70
     0
  9
$PEXTMIN
 10
1.000000E+20
 20
1.000000E+20
 30
1.000000E+20
  9
$PEXTMAX
 10
-1.000000E+20
 20
-1.000000E+20
 30
-1.000000E+20
  9
$PLIMMIN
 10
0.0
 20
0.0
  9
$PLIMMAX
 10
420.0
 20
297.0
  9
$UNITMODE
 70
     0
  9
$VISRETAIN
 70
     1
  9
$PLINEGEN
 70
     0
  9
$PSLTSCALE
 70
     1
  9
$TREEDEPTH
 70
  3020
  9
$CMLSTYLE
  2
Standard
  9
$CMLJUST
 70
     0
  9
$CMLSCALE
 40
20.0
  9
$PROXYGRAPHICS
 70
     1
  9
$MEASUREMENT
 70
     1
  9
$CELWEIGHT
370
    -1
  9
$ENDCAPS
280
     0
  9
$JOINSTYLE
280
     0
  9
$LWDISPLAY
290
     0
  9
$INSUNITS
 70
     4
  9
$HYPERLINKBASE
  1

  9
$STYLESHEET
  1

  9
$XEDIT
290
     1
  9
$CEPSNTYPE
380
     0
  9
$PSTYLEMODE
290
     1
  9
$FINGERPRINTGUID
  2
{beb36944-0395-4b4d-af7b-2d6bffd87335}
  9
$VERSIONGUID
  2
{FAEB1C32-E019-11D5-929B-00C0DF256EC4}
  9
$EXTNAMES
290
     1
  9
$PSVPSCALE
 40
0.0
  9
$OLESTARTUP
290
     0
  0
ENDSEC
  0
SECTION
  2
CLASSES
  0
CLASS
  1
ACDBDICTIONARYWDFLT
  2
AcDbDictionaryWithDefault
  3
ObjectDBX Classes
 90
        0
280
     0
281
     0
  0
CLASS
  1
VISUALSTYLE
  2
AcDbVisualStyle
  3
ObjectDBX Classes
 90
     4095
280
     0
281
     0
  0
CLASS
  1
MATERIAL
  2
AcDbMaterial
  3
ObjectDBX Classes
 90
     1153
280
     0
281
     0
  0
CLASS
  1
SCALE
  2
AcDbScale
  3
ObjectDBX Classes
 90
     1153
280
     0
281
     0
  0
CLASS
  1
TABLESTYLE
  2
AcDbTableStyle
  3
ObjectDBX Classes
 90
     4095
280
     0
281
     0
  0
CLASS
  1
MLEADERSTYLE
  2
AcDbMLeaderStyle
  3
ACDB_MLEADERSTYLE_CLASS
 90
     4095
280
     0
281
     0
  0
CLASS
  1
SUN
  2
AcDbSun
  3
SCENEOE
 90
     1153
280
     0
281
     0
  0
CLASS
  1
DICTIONARYVAR
  2
AcDbDictionaryVar
  3
ObjectDBX Classes
 90
        0
280
     0
281
     0
  0
CLASS
  1
ACDBPLACEHOLDER
  2
AcDbPlaceHolder
  3
ObjectDBX Classes
 90
        0
280
     0
281
     0
  0
CLASS
  1
LAYOUT
  2
AcDbLayout
  3
ObjectDBX Classes
 90
        0
280
     0
281
     0
  0
ENDSEC
  0
SECTION
  2
TABLES
  0
TABLE
  2
VPORT
  5
8
102
{ACAD_XDICTIONARY
360
1DA
102
}
330
0
100
AcDbSymbolTable
 70
     1
  0
VPORT
  5
29
330
8
100
AcDbSymbolTableRecord
100
AcDbViewportTableRecord
  2
*Active
 70
     0
 10
0.0
 20
0.0
 11
1.0
 21
1.0
 12
344.186916
 22
148.5
 13
0.0
 23
0.0
 14
10.0
 24
10.0
 15
10.0
 25
10.0
 16
0.0
 26
0.0
 36
1.0
 17
0.0
 27
0.0
 37
0.0
 40
297.0
 41
1.972973
 42
50.0
 43
0.0
 44
0.0
 50
0.0
 51
0.0
 71
     0
 72
   100
 73
     1
 74
     3
 75
     0
 76
     0
 77
     0
 78
     0
281
     0
 65
     1
110
0.0
120
0.0
130
0.0
111
1.0
121
0.0
131
0.0
112
0.0
122
1.0
132
0.0
 79
     0
146
0.0
  0
ENDTAB
  0
TABLE
  2
LTYPE
  5
5
330
0
100
AcDbSymbolTable
 70
     1
  0
LTYPE
  5
14
330
5
100
AcDbSymbolTableRecord
100
AcDbLinetypeTableRecord
  2
ByBlock
 70
     0
  3

 72
    65
 73
     0
 40
0.0
  0
LTYPE
  5
15
330
5
100
AcDbSymbolTableRecord
100
AcDbLinetypeTableRecord
  2
ByLayer
 70
     0
  3

 72
    65
 73
     0
 40
0.0
  0
LTYPE
  5
16
330
5
100
AcDbSymbolTableRecord
100
AcDbLinetypeTableRecord
  2
Continuous
 70
     0
  3
Solid line
 72
    65
 73
     0
 40
0.0
  0
ENDTAB
  0
TABLE
  2
LAYER
  5
2
330
0
100
AcDbSymbolTable
 70
     1
  0
LAYER
  5
10
330
2
100
AcDbSymbolTableRecord
100
AcDbLayerTableRecord
  2
0
 70
     0
 62
   106
  6
Continuous
370
     0
390
F
  0
ENDTAB
  0
TABLE
  2
STYLE
  5
3
330
0
100
AcDbSymbolTable
 70
     4
  0
STYLE
  5
11
330
3
100
AcDbSymbolTableRecord
100
AcDbTextStyleTableRecord
  2
Standard
 70
     0
 40
0.0
 41
1.0
 50
0.0
 71
     0
 42
2.5
  3
txt
  4

  0
STYLE
  5
6E
330
3
100
AcDbSymbolTableRecord
100
AcDbTextStyleTableRecord
  2
Default
 70
     0
 40
0.0
 41
1.0
 50
0.0
 71
     0
 42
2.5
  3

  4

1001
ACAD
1000
txt
1071
        0
  0
STYLE
  5
6F
330
3
100
AcDbSymbolTableRecord
100
AcDbTextStyleTableRecord
  2
ISO
 70
     0
 40
0.0
 41
1.0
 50
0.0
 71
     0
 42
2.5
  3

  4

1001
ACAD
1000
txt
1071
        0
  0
STYLE
  5
70
330
3
100
AcDbSymbolTableRecord
100
AcDbTextStyleTableRecord
  2
GIANLU
 70
     0
 40
0.0
 41
1.0
 50
0.0
 71
     0
 42
2.5
  3

  4

1001
ACAD
1000
Arial
1071
 33554432
  0
ENDTAB
  0
TABLE
  2
VIEW
  5
6
330
0
100
AcDbSymbolTable
 70
     0
  0
ENDTAB
  0
TABLE
  2
UCS
  5
7
330
0
100
AcDbSymbolTable
 70
     0
  0
ENDTAB
  0
TABLE
  2
APPID
  5
9
330
0
100
AcDbSymbolTable
 70
     2
  0
APPID
  5
12
330
9
100
AcDbSymbolTableRecord
100
AcDbRegAppTableRecord
  2
ACAD
 70
     0
  0
APPID
  5
214
330
9
100
AcDbSymbolTableRecord
100
AcDbRegAppTableRecord
  2
ACAD_MLEADERVER
 70
     0
  0
ENDTAB
  0
TABLE
  2
DIMSTYLE
  5
A
330
0
100
AcDbSymbolTable
 70
     4
100
AcDbDimStyleTable
  0
DIMSTYLE
105
27
330
A
100
AcDbSymbolTableRecord
100
AcDbDimStyleTableRecord
  2
ISO-25
 70
     0
 41
2.5
 42
0.625
 43
3.75
 44
1.25
 73
     0
 74
     0
 77
     1
 78
     8
140
2.5
141
2.5
143
0.03937
147
0.625
171
     3
172
     1
178
     0
271
     2
272
     2
274
     3
278
    44
283
     0
284
     8
340
11
  0
DIMSTYLE
105
71
330
A
100
AcDbSymbolTableRecord
100
AcDbDimStyleTableRecord
  2
Default
 70
     0
  3
<>
 41
4.375
 42
1.05
 44
2.1
 73
     0
 74
     0
 77
     1
 78
     8
140
3.5
146
0.4
147
1.75
172
     1
271
     2
178
     3
271
     2
272
     3
284
     8
340
6E
341
72
342
72
  0
DIMSTYLE
105
79
330
A
100
AcDbSymbolTableRecord
100
AcDbDimStyleTableRecord
  2
ISO
 70
     0
  3
<>
 41
4.375
 42
1.05
 44
2.1
 73
     0
 74
     0
 77
     1
 78
     8
140
3.5
146
0.4
147
1.75
172
     1
271
     2
178
     3
271
     2
272
     3
284
     8
340
6F
341
72
342
72
  0
DIMSTYLE
105
7A
330
A
100
AcDbSymbolTableRecord
100
AcDbDimStyleTableRecord
  2
zucchetti_unico
 70
     0
  3
<>
 41
3.5
 42
1.05
 44
2.1
 73
     0
 74
     0
 77
     1
 78
     8
140
3.5
146
0.6
147
1.75
172
     1
176
     3
177
     3
271
     2
178
     3
271
     2
272
     2
284
     8
340
6E
  0
ENDTAB
  0
TABLE
  2
BLOCK_RECORD
  5
1
330
0
100
AcDbSymbolTable
 70
     6
  0
BLOCK_RECORD
  5
1F
330
1
100
AcDbSymbolTableRecord
100
AcDbBlockTableRecord
  2
*Model_Space
340
22
  0
BLOCK_RECORD
  5
1B
330
1
100
AcDbSymbolTableRecord
100
AcDbBlockTableRecord
  2
*Paper_Space
340
1E
  0
BLOCK_RECORD
  5
23
330
1
100
AcDbSymbolTableRecord
100
AcDbBlockTableRecord
  2
*Paper_Space0
340
26
  0
BLOCK_RECORD
  5
72
330
1
100
AcDbSymbolTableRecord
100
AcDbBlockTableRecord
  2
_Closed
340
0
  0
BLOCK_RECORD
  5
7B
330
1
100
AcDbSymbolTableRecord
100
AcDbBlockTableRecord
  2
a
340
0
102
{BLKREFS
331
C2
102
}
  0
BLOCK_RECORD
  5
C3
330
1
100
AcDbSymbolTableRecord
100
AcDbBlockTableRecord
  2
b
340
0
102
{BLKREFS
331
FA
102
}
  0
BLOCK_RECORD
  5
FB
330
1
100
AcDbSymbolTableRecord
100
AcDbBlockTableRecord
  2
c
340
0
102
{BLKREFS
331
164
102
}
  0
BLOCK_RECORD
  5
165
330
1
100
AcDbSymbolTableRecord
100
AcDbBlockTableRecord
  2
d
340
0
102
{BLKREFS
331
1CE
102
}
  0
ENDTAB
  0
ENDSEC
  0
SECTION
  2
BLOCKS
  0
BLOCK
  5
20
330
1F
100
AcDbEntity
  8
0
100
AcDbBlockBegin
  2
*Model_Space
 70
     0
 10
0.0
 20
0.0
 30
0.0
  3
*Model_Space
  1

  0
ENDBLK
  5
21
330
1F
100
AcDbEntity
  8
0
100
AcDbBlockEnd
  0
BLOCK
  5
1C
330
1B
100
AcDbEntity
 67
     1
  8
0
100
AcDbBlockBegin
  2
*Paper_Space
 70
     0
 10
0.0
 20
0.0
 30
0.0
  3
*Paper_Space
  1

  0
ENDBLK
  5
1D
330
1B
100
AcDbEntity
 67
     1
  8
0
100
AcDbBlockEnd
  0
BLOCK
  5
24
330
23
100
AcDbEntity
  8
0
100
AcDbBlockBegin
  2
*Paper_Space0
 70
     0
 10
0.0
 20
0.0
 30
0.0
  3
*Paper_Space0
  1

  0
ENDBLK
  5
25
330
23
100
AcDbEntity
  8
0
100
AcDbBlockEnd
  0
BLOCK
  5
73
330
72
100
AcDbEntity
  8
0
100
AcDbBlockBegin
  2
_Closed
 70
     0
 10
0.0
 20
0.0
 30
0.0
  3
_Closed
  1

  0
LINE
  5
75
330
72
100
AcDbEntity
  8
0
  6
ByBlock
 62
     0
370
    -2
100
AcDbLine
 10
-1.0
 20
0.166667
 30
0.0
 11
0.0
 21
0.0
 31
0.0
  0
LINE
  5
76
330
72
100
AcDbEntity
  8
0
  6
ByBlock
 62
     0
370
    -2
100
AcDbLine
 10
0.0
 20
0.0
 30
0.0
 11
-1.0
 21
-0.166667
 31
0.0
  0
LINE
  5
77
330
72
100
AcDbEntity
  8
0
  6
ByBlock
 62
     0
370
    -2
100
AcDbLine
 10
-1.0
 20
0.166667
 30
0.0
 11
-1.0
 21
-0.166667
 31
0.0
  0
LINE
  5
78
330
72
100
AcDbEntity
  8
0
  6
ByBlock
 62
     0
370
    -2
100
AcDbLine
 10
0.0
 20
0.0
 30
0.0
 11
-1.0
 21
0.0
 31
0.0
  0
ENDBLK
  5
74
330
72
100
AcDbEntity
  8
0
100
AcDbBlockEnd
  0
BLOCK
  5
C0
330
7B
100
AcDbEntity
  8
0
100
AcDbBlockBegin
  2
a
 70
     0
 10
430.524506
 20
112.06427
 30
0.0
  3
a
  1

  0
ARC
  5
7C
330
7B
100
AcDbEntity
  8
0
  6
Continuous
 62
     0
370
    30
100
AcDbCircle
 10
513.704213
 20
653.326084
 30
0.0
 40
27.50000013113517
100
AcDbArc
 50
69.168008
 51
82.687973
  0
ARC
  5
7D
330
7B
100
AcDbEntity
  8
0
  6
Continuous
 62
     0
370
    30
100
AcDbCircle
 10
513.704213
 20
653.326084
 30
0.0
 40
27.50000013113434
100
AcDbArc
 50
97.312017
 51
172.687981
  0
ARC
  5
7E
330
7B
100
AcDbEntity
  8
0
  6
Continuous
 62
     0
370
    30
100
AcDbCircle
 10
513.704213
 20
653.326084
 30
0.0
 40
27.50000013113431
100
AcDbArc
 50
187.312025
 51
249.168008
  0
ARC
  5
7F
330
7B
100
AcDbEntity
  8
0
  6
Continuous
 62
     0
370
    30
100
AcDbCircle
 10
513.704213
 20
653.326084
 30
0.0
 40
27.50000013113532
100
AcDbArc
 50
249.168008
 51
262.688033
  0
ARC
  5
80
330
7B
100
AcDbEntity
  8
0
  6
Continuous
 62
     0
370
    30
100
AcDbCircle
 10
513.704213
 20
653.326084
 30
0.0
 40
27.50000013113441
100
AcDbArc
 50
277.312077
 51
352.687972
  0
ARC
  5
81
330
7B
100
AcDbEntity
  8
0
  6
Continuous
 62
     0
370
    30
100
AcDbCircle
 10
513.704213
 20
653.326084
 30
0.0
 40
27.50000013113441
100
AcDbArc
 50
7.312016
 51
69.168008
  0
ARC
  5
82
330
7B
100
AcDbEntity
  8
0
  6
Continuous
 62
     0
370
    30
100
AcDbCircle
 10
513.703523
 20
653.325468
 30
0.0
 40
16.00074043880407
100
AcDbArc
 50
12.637283
 51
77.36243
  0
ARC
  5
83
330
7B
100
AcDbEntity
  8
0
  6
Continuous
 62
     0
370
    30
100
AcDbCircle
 10
513.703523
 20
653.326695
 30
0.0
 40
16.00074045549722
100
AcDbArc
 50
282.637657
 51
347.362717
  0
ARC
  5
84
330
7B
100
AcDbEntity
  8
0
  6
Continuous
 62
     0
370
    30
100
AcDbCircle
 10
513.704902
 20
653.326695
 30
0.0
 40
16.00074041751738
100
AcDbArc
 50
192.637278
 51
257.362535
  0
ARC
  5
85
330
7B
100
AcDbEntity
  8
0
  6
Continuous
 62
     0
370
    30
100
AcDbCircle
 10
513.704902
 20
653.325468
 30
0.0
 40
16.00074043647989
100
AcDbArc
 50
102.637552
 51
167.362712
  0
ARC
  5
86
330
7B
100
AcDbEntity
  8
0
  6
Continuous
 62
     0
370
    30
100
AcDbCircle
 10
513.704212
 20
653.326083
 30
0.0
 40
11.0
100
AcDbArc
 50
270.0
 51
90.0
  0
ARC
  5
87
330
7B
100
AcDbEntity
  8
0
  6
Continuous
 62
     0
370
    30
100
AcDbCircle
 10
513.704212
 20
653.326083
 30
0.0
 40
11.0
100
AcDbArc
 50
90.0
 51
270.0
  0
LWPOLYLINE
  5
88
330
7B
100
AcDbEntity
  8
0
  6
Continuous
 62
     0
370
    30
100
AcDbPolyline
 90
        3
 70
     0
 43
0.0
 10
517.204224
 20
618.226074
 10
517.200745
 20
618.226074
 10
517.137207
 20
618.226074
  0
LINE
  5
89
330
7B
100
AcDbEntity
  8
0
  6
Continuous
 62
     0
370
    30
100
AcDbLine
 10
517.137202
 20
618.226079
 30
0.0
 11
510.204253
 21
618.226079
 31
0.0
  0
LWPOLYLINE
  5
8A
330
7B
100
AcDbEntity
  8
0
  6
Continuous
 62
     0
370
    30
100
AcDbPolyline
 90
        5
 70
     0
 43
0.0
 10
548.804199
 20
656.82605
 10
548.804199
 20
656.79541
 10
548.804199
 20
656.703796
 10
548.804199
 20
656.552673
 10
548.804199
 20
656.31134
  0
LINE
  5
8B
330
7B
100
AcDbEntity
  8
0
  6
Continuous
 62
     0
370
    30
100
AcDbLine
 10
548.804209
 20
656.31133
 30
0.0
 11
548.804209
 21
649.826086
 31
0.0
  0
LWPOLYLINE
  5
8C
330
7B
100
AcDbEntity
  8
0
  6
Continuous
 62
     0
370
    30
100
AcDbPolyline
 90
        9
 70
     0
 43
0.0
 10
478.604187
 20
649.826111
 10
478.604187
 20
649.861572
 10
478.604187
 20
649.967468
 10
478.604187
 20
650.141663
 10
478.604187
 20
650.380554
 10
478.604187
 20
650.679443
 10
478.604187
 20
651.031982
 10
478.604187
 20
651.431274
 10
478.604187
 20
651.897217
  0
LINE
  5
8D
330
7B
100
AcDbEntity
  8
0
  6
Continuous
 62
     0
370
    30
100
AcDbLine
 10
478.604174
 20
651.89722
 30
0.0
 11
478.604174
 21
656.826058
 31
0.0
  0
LINE
  5
8E
330
7B
100
AcDbEntity
  8
0
  6
Continuous
 62
     0
370
    30
100
AcDbLine
 10
510.204206
 20
688.426114
 30
0.0
 11
511.832874
 21
688.426114
 31
0.0
  0
LINE
  5
8F
330
7B
100
AcDbEntity
  8
0
  6
Continuous
 62
     0
370
    30
100
AcDbLine
 10
511.832874
 20
688.426114
 30
0.0
 11
517.204223
 21
688.426114
 31
0.0
  0
LINE
  5
90
330
7B
100
AcDbEntity
  8
0
  6
Continuous
 62
     0
370
    30
100
AcDbLine
 10
510.204215
 20
688.426114
 30
0.0
 11
510.204215
 21
663.754409
 31
0.0
  0
LINE
  5
91
330
7B
100
AcDbEntity
  8
0
  6
Continuous
 62
     0
370
    30
100
AcDbLine
 10
517.204215
 20
663.754474
 30
0.0
 11
517.204215
 21
688.426114
 31
0.0
  0
LINE
  5
92
330
7B
100
AcDbEntity
  8
0
  6
Continuous
 62
     0
370
    30
100
AcDbLine
 10
478.604174
 20
649.826083
 30
0.0
 11
503.275854
 21
649.826083
 31
0.0
  0
LINE
  5
93
330
7B
100
AcDbEntity
  8
0
  6
Continuous
 62
     0
370
    30
100
AcDbLine
 10
503.275889
 20
656.826083
 30
0.0
 11
478.604174
 21
656.826083
 31
0.0
  0
LINE
  5
94
330
7B
100
AcDbEntity
  8
0
  6
Continuous
 62
     0
370
    30
100
AcDbLine
 10
548.804209
 20
656.826081
 30
0.0
 11
524.132585
 21
656.826081
 31
0.0
  0
LINE
  5
95
330
7B
100
AcDbEntity
  8
0
  6
Continuous
 62
     0
370
    30
100
AcDbLine
 10
524.132569
 20
649.826081
 30
0.0
 11
548.804209
 21
649.826081
 31
0.0
  0
LINE
  5
96
330
7B
100
AcDbEntity
  8
0
  6
Continuous
 62
     0
370
    30
100
AcDbLine
 10
517.204239
 20
618.226079
 30
0.0
 11
517.204239
 21
642.897762
 31
0.0
  0
LINE
  5
97
330
7B
100
AcDbEntity
  8
0
  6
Continuous
 62
     0
370
    30
100
AcDbLine
 10
510.204239
 20
642.897742
 30
0.0
 11
510.204239
 21
618.226079
 31
0.0
  0
ARC
  5
98
330
7B
100
AcDbEntity
  8
0
  6
Continuous
 62
     0
370
    30
100
AcDbCircle
 10
513.705456
 20
533.327557
 30
0.0
 40
54.99999999999958
100
AcDbArc
 50
90.0
 51
270.0
  0
ARC
  5
99
330
7B
100
AcDbEntity
  8
0
  6
Continuous
 62
     0
370
    30
100
AcDbCircle
 10
513.705456
 20
533.327557
 30
0.0
 40
54.99999999999959
100
AcDbArc
 50
270.0
 51
90.0
  0
ARC
  5
9A
330
7B
100
AcDbEntity
  8
0
  6
Continuous
 62
     0
370
    30
100
AcDbCircle
 10
513.705156
 20
533.327557
 30
0.0
 40
22.00000922099402
100
AcDbArc
 50
89.99922
 51
270.00078
  0
ARC
  5
9B
330
7B
100
AcDbEntity
  8
0
  6
Continuous
 62
     0
370
    30
100
AcDbCircle
 10
513.705755
 20
533.327557
 30
0.0
 40
22.00000922099402
100
AcDbArc
 50
269.99922
 51
90.00078
  0
LINE
  5
9C
330
7B
100
AcDbEntity
  8
0
  6
Continuous
 62
     0
370
    30
100
AcDbLine
 10
513.705456
 20
562.977566
 30
0.0
 11
510.205456
 21
562.977566
 31
0.0
  0
LINE
  5
9D
330
7B
100
AcDbEntity
  8
0
  6
Continuous
 62
     0
370
    30
100
AcDbLine
 10
517.205456
 20
562.977566
 30
0.0
 11
513.705456
 21
562.977566
 31
0.0
  0
LINE
  5
9E
330
7B
100
AcDbEntity
  8
0
  6
Continuous
 62
     0
370
    30
100
AcDbLine
 10
513.705456
 20
563.177566
 30
0.0
 11
510.407229
 21
563.175502
 31
0.0
  0
LINE
  5
9F
330
7B
100
AcDbEntity
  8
0
  6
Continuous
 62
     0
370
    30
100
AcDbLine
 10
517.003682
 20
563.175502
 30
0.0
 11
513.705456
 21
563.177566
 31
0.0
  0
LINE
  5
A0
330
7B
100
AcDbEntity
  8
0
  6
Continuous
 62
     0
370
    30
100
AcDbLine
 10
517.205455
 20
562.977586
 30
0.0
 11
517.005649
 21
563.177391
 31
0.0
  0
LINE
  5
A1
330
7B
100
AcDbEntity
  8
0
  6
Continuous
 62
     0
370
    30
100
AcDbLine
 10
510.205457
 20
562.977586
 30
0.0
 11
510.405263
 21
563.177391
 31
0.0
  0
LINE
  5
A2
330
7B
100
AcDbEntity
  8
0
  6
Continuous
 62
     0
370
    30
100
AcDbLine
 10
510.205456
 20
562.977566
 30
0.0
 11
510.205456
 21
555.047397
 31
0.0
  0
LINE
  5
A3
330
7B
100
AcDbEntity
  8
0
  6
Continuous
 62
     0
370
    30
100
AcDbLine
 10
517.205456
 20
562.977566
 30
0.0
 11
517.205456
 21
555.047396
 31
0.0
  0
ARC
  5
A4
330
7B
100
AcDbEntity
  8
0
  6
Continuous
 62
     0
370
    30
100
AcDbCircle
 10
513.703722
 20
753.325647
 30
0.0
 40
27.50000013113128
100
AcDbArc
 50
69.168008
 51
82.687973
  0
ARC
  5
A5
330
7B
100
AcDbEntity
  8
0
  6
Continuous
 62
     0
370
    30
100
AcDbCircle
 10
513.703722
 20
753.325647
 30
0.0
 40
27.50000013113416
100
AcDbArc
 50
97.312017
 51
172.687981
  0
ARC
  5
A6
330
7B
100
AcDbEntity
  8
0
  6
Continuous
 62
     0
370
    30
100
AcDbCircle
 10
513.703722
 20
753.325647
 30
0.0
 40
27.50000013113438
100
AcDbArc
 50
187.312025
 51
249.168008
  0
ARC
  5
A7
330
7B
100
AcDbEntity
  8
0
  6
Continuous
 62
     0
370
    30
100
AcDbCircle
 10
513.703722
 20
753.325647
 30
0.0
 40
27.50000013113226
100
AcDbArc
 50
249.168008
 51
262.688033
  0
ARC
  5
A8
330
7B
100
AcDbEntity
  8
0
  6
Continuous
 62
     0
370
    30
100
AcDbCircle
 10
513.703722
 20
753.325647
 30
0.0
 40
27.50000013113411
100
AcDbArc
 50
277.312077
 51
352.687972
  0
ARC
  5
A9
330
7B
100
AcDbEntity
  8
0
  6
Continuous
 62
     0
370
    30
100
AcDbCircle
 10
513.703722
 20
753.325647
 30
0.0
 40
27.50000013113408
100
AcDbArc
 50
7.312016
 51
69.168008
  0
ARC
  5
AA
330
7B
100
AcDbEntity
  8
0
  6
Continuous
 62
     0
370
    30
100
AcDbCircle
 10
513.703032
 20
753.32503
 30
0.0
 40
16.00074043880358
100
AcDbArc
 50
12.637283
 51
77.36243
  0
ARC
  5
AB
330
7B
100
AcDbEntity
  8
0
  6
Continuous
 62
     0
370
    30
100
AcDbCircle
 10
513.703032
 20
753.326258
 30
0.0
 40
16.00074045549702
100
AcDbArc
 50
282.637657
 51
347.362717
  0
ARC
  5
AC
330
7B
100
AcDbEntity
  8
0
  6
Continuous
 62
     0
370
    30
100
AcDbCircle
 10
513.704411
 20
753.326258
 30
0.0
 40
16.00074041751663
100
AcDbArc
 50
192.637278
 51
257.362535
  0
ARC
  5
AD
330
7B
100
AcDbEntity
  8
0
  6
Continuous
 62
     0
370
    30
100
AcDbCircle
 10
513.704411
 20
753.32503
 30
0.0
 40
16.0007404364791
100
AcDbArc
 50
102.637552
 51
167.362712
  0
ARC
  5
AE
330
7B
100
AcDbEntity
  8
0
  6
Continuous
 62
     0
370
    30
100
AcDbCircle
 10
513.703722
 20
753.325646
 30
0.0
 40
11.0
100
AcDbArc
 50
270.0
 51
90.0
  0
ARC
  5
AF
330
7B
100
AcDbEntity
  8
0
  6
Continuous
 62
     0
370
    30
100
AcDbCircle
 10
513.703722
 20
753.325646
 30
0.0
 40
11.0
100
AcDbArc
 50
90.0
 51
270.0
  0
LWPOLYLINE
  5
B0
330
7B
100
AcDbEntity
  8
0
  6
Continuous
 62
     0
370
    30
100
AcDbPolyline
 90
        3
 70
     0
 43
0.0
 10
517.203735
 20
718.225647
 10
517.200256
 20
718.225647
 10
517.136719
 20
718.225647
  0
LINE
  5
B1
330
7B
100
AcDbEntity
  8
0
  6
Continuous
 62
     0
370
    30
100
AcDbLine
 10
517.136712
 20
718.225642
 30
0.0
 11
510.203763
 21
718.225642
 31
0.0
  0
LWPOLYLINE
  5
B2
330
7B
100
AcDbEntity
  8
0
  6
Continuous
 62
     0
370
    30
100
AcDbPolyline
 90
        5
 70
     0
 43
0.0
 10
548.803711
 20
756.825623
 10
548.803711
 20
756.794983
 10
548.803711
 20
756.703369
 10
548.803711
 20
756.552246
 10
548.803711
 20
756.310913
  0
LINE
  5
B3
330
7B
100
AcDbEntity
  8
0
  6
Continuous
 62
     0
370
    30
100
AcDbLine
 10
548.803718
 20
756.310892
 30
0.0
 11
548.803718
 21
749.825648
 31
0.0
  0
LWPOLYLINE
  5
B4
330
7B
100
AcDbEntity
  8
0
  6
Continuous
 62
     0
370
    30
100
AcDbPolyline
 90
        9
 70
     0
 43
0.0
 10
478.603699
 20
749.825684
 10
478.603699
 20
749.861145
 10
478.603699
 20
749.967041
 10
478.603699
 20
750.141235
 10
478.603699
 20
750.380127
 10
478.603699
 20
750.679016
 10
478.603699
 20
751.031555
 10
478.603699
 20
751.430847
 10
478.603699
 20
751.89679
  0
LINE
  5
B5
330
7B
100
AcDbEntity
  8
0
  6
Continuous
 62
     0
370
    30
100
AcDbLine
 10
478.603684
 20
751.896783
 30
0.0
 11
478.603684
 21
756.825621
 31
0.0
  0
LINE
  5
B6
330
7B
100
AcDbEntity
  8
0
  6
Continuous
 62
     0
370
    30
100
AcDbLine
 10
510.203716
 20
788.425677
 30
0.0
 11
511.832384
 21
788.425677
 31
0.0
  0
LINE
  5
B7
330
7B
100
AcDbEntity
  8
0
  6
Continuous
 62
     0
370
    30
100
AcDbLine
 10
511.832384
 20
788.425677
 30
0.0
 11
517.203733
 21
788.425677
 31
0.0
  0
LINE
  5
B8
330
7B
100
AcDbEntity
  8
0
  6
Continuous
 62
     0
370
    30
100
AcDbLine
 10
510.203724
 20
788.425677
 30
0.0
 11
510.203724
 21
763.753972
 31
0.0
  0
LINE
  5
B9
330
7B
100
AcDbEntity
  8
0
  6
Continuous
 62
     0
370
    30
100
AcDbLine
 10
517.203724
 20
763.754036
 30
0.0
 11
517.203724
 21
788.425677
 31
0.0
  0
LINE
  5
BA
330
7B
100
AcDbEntity
  8
0
  6
Continuous
 62
     0
370
    30
100
AcDbLine
 10
478.603684
 20
749.825646
 30
0.0
 11
503.275363
 21
749.825646
 31
0.0
  0
LINE
  5
BB
330
7B
100
AcDbEntity
  8
0
  6
Continuous
 62
     0
370
    30
100
AcDbLine
 10
503.275398
 20
756.825646
 30
0.0
 11
478.603684
 21
756.825646
 31
0.0
  0
LINE
  5
BC
330
7B
100
AcDbEntity
  8
0
  6
Continuous
 62
     0
370
    30
100
AcDbLine
 10
548.803718
 20
756.825644
 30
0.0
 11
524.132095
 21
756.825644
 31
0.0
  0
LINE
  5
BD
330
7B
100
AcDbEntity
  8
0
  6
Continuous
 62
     0
370
    30
100
AcDbLine
 10
524.132078
 20
749.825644
 30
0.0
 11
548.803718
 21
749.825644
 31
0.0
  0
LINE
  5
BE
330
7B
100
AcDbEntity
  8
0
  6
Continuous
 62
     0
370
    30
100
AcDbLine
 10
517.203748
 20
718.225642
 30
0.0
 11
517.203748
 21
742.897325
 31
0.0
  0
LINE
  5
BF
330
7B
100
AcDbEntity
  8
0
  6
Continuous
 62
     0
370
    30
100
AcDbLine
 10
510.203748
 20
742.897305
 30
0.0
 11
510.203748
 21
718.225642
 31
0.0
  0
ENDBLK
  5
C1
330
7B
100
AcDbEntity
  8
0
100
AcDbBlockEnd
  0
BLOCK
  5
F8
330
C3
100
AcDbEntity
  8
0
100
AcDbBlockBegin
  2
b
 70
     0
 10
430.524506
 20
311.542755
 30
0.0
  3
b
  1

  0
LINE
  5
C4
330
C3
100
AcDbEntity
  8
0
  6
Continuous
 62
     0
370
    30
100
AcDbLine
 10
458.704707
 20
369.952744
 30
0.0
 11
486.203722
 21
369.952741
 31
0.0
  0
LINE
  5
C5
330
C3
100
AcDbEntity
  8
0
  6
Continuous
 62
     0
370
    30
100
AcDbLine
 10
541.203722
 20
369.952741
 30
0.0
 11
568.706204
 21
369.952744
 31
0.0
  0
LINE
  5
C6
330
C3
100
AcDbEntity
  8
0
  6
Continuous
 62
     0
370
    30
100
AcDbLine
 10
458.705456
 20
365.952743
 30
0.0
 11
486.203722
 21
365.952741
 31
0.0
  0
LINE
  5
C7
330
C3
100
AcDbEntity
  8
0
  6
Continuous
 62
     0
370
    30
100
AcDbLine
 10
541.203722
 20
365.952741
 30
0.0
 11
568.705456
 21
365.952743
 31
0.0
  0
LINE
  5
C8
330
C3
100
AcDbEntity
  8
0
  6
Continuous
 62
     0
370
    30
100
AcDbLine
 10
497.703722
 20
363.752742
 30
0.0
 11
491.705447
 21
363.752743
 31
0.0
  0
LINE
  5
C9
330
C3
100
AcDbEntity
  8
0
  6
Continuous
 62
     0
370
    30
100
AcDbLine
 10
535.705465
 20
363.752743
 30
0.0
 11
529.703722
 21
363.752742
 31
0.0
  0
LINE
  5
CA
330
C3
100
AcDbEntity
  8
0
  6
Continuous
 62
     0
370
    30
100
AcDbLine
 10
535.705465
 20
314.552688
 30
0.0
 11
535.705465
 21
363.752743
 31
0.0
  0
LINE
  5
CB
330
C3
100
AcDbEntity
  8
0
  6
Continuous
 62
     0
370
    30
100
AcDbLine
 10
491.705447
 20
314.552688
 30
0.0
 11
491.705447
 21
363.752743
 31
0.0
  0
LINE
  5
CC
330
C3
100
AcDbEntity
  8
0
  6
Continuous
 62
     0
370
    30
100
AcDbLine
 10
533.605456
 20
365.952744
 30
0.0
 11
533.605456
 21
363.752743
 31
0.0
  0
LINE
  5
CD
330
C3
100
AcDbEntity
  8
0
  6
Continuous
 62
     0
370
    30
100
AcDbLine
 10
493.805456
 20
363.752743
 30
0.0
 11
493.805456
 21
365.952744
 31
0.0
  0
LINE
  5
CE
330
C3
100
AcDbEntity
  8
0
  6
Continuous
 62
     0
370
    30
100
AcDbLine
 10
458.705456
 20
369.952744
 30
0.0
 11
458.705456
 21
365.952743
 31
0.0
  0
LINE
  5
CF
330
C3
100
AcDbEntity
  8
0
  6
Continuous
 62
     0
370
    30
100
AcDbLine
 10
568.705456
 20
365.952743
 30
0.0
 11
568.705456
 21
369.952744
 31
0.0
  0
LWPOLYLINE
  5
D0
330
C3
100
AcDbEntity
  8
0
  6
Continuous
 62
     0
370
    30
100
AcDbPolyline
 90
       37
 70
     0
 43
0.0
 10
486.203735
 20
365.952667
 10
486.244232
 20
365.952667
 10
486.363586
 20
365.952667
 10
486.558014
 20
365.952667
 10
486.823395
 20
365.952667
 10
487.155151
 20
365.952667
 10
487.548492
 20
365.952667
 10
487.998413
 20
365.952667
 10
488.510559
 20
365.952667
 10
489.095459
 20
365.952667
 10
489.75473
 20
365.952667
 10
490.48941
 20
365.952667
 10
491.299927
 20
365.952667
 10
492.186066
 20
365.952667
 10
493.146851
 20
365.952667
 10
494.180573
 20
365.952667
 10
495.28476
 20
365.952667
 10
496.456085
 20
365.952667
 10
497.690521
 20
365.952667
 10
498.983276
 20
365.952667
 10
500.328918
 20
365.952667
 10
501.721375
 20
365.952667
 10
503.154053
 20
365.952667
 10
504.619934
 20
365.952667
 10
506.111755
 20
365.952667
 10
507.62204
 20
365.952667
 10
509.143188
 20
365.952667
 10
510.667786
 20
365.952667
 10
512.188538
 20
365.952667
 10
513.698425
 20
365.952667
 10
515.190735
 20
365.952667
 10
516.659424
 20
365.952667
 10
518.098816
 20
365.952667
 10
519.503784
 20
365.952667
 10
520.869934
 20
365.952667
 10
522.19342
 20
365.952667
 10
523.483521
 20
365.952667
  0
LINE
  5
D1
330
C3
100
AcDbEntity
  8
0
  6
Continuous
 62
     0
370
    30
100
AcDbLine
 10
523.483516
 20
365.952675
 30
0.0
 11
541.203722
 21
365.952676
 31
0.0
  0
LINE
  5
D2
330
C3
100
AcDbEntity
  8
0
  6
Continuous
 62
     0
370
    30
100
AcDbLine
 10
541.203722
 20
369.952676
 30
0.0
 11
523.483516
 21
369.952675
 31
0.0
  0
LINE
  5
D3
330
C3
100
AcDbEntity
  8
0
  6
Continuous
 62
     0
370
    30
100
AcDbLine
 10
523.483516
 20
369.952675
 30
0.0
 11
486.203722
 21
369.952676
 31
0.0
  0
LINE
  5
D4
330
C3
100
AcDbEntity
  8
0
  6
Continuous
 62
     0
370
    30
100
AcDbLine
 10
529.70394
 20
338.952676
 30
0.0
 11
513.703722
 21
338.952674
 31
0.0
  0
LINE
  5
D5
330
C3
100
AcDbEntity
  8
0
  6
Continuous
 62
     0
370
    30
100
AcDbLine
 10
513.703722
 20
338.952674
 30
0.0
 11
497.703504
 21
338.952676
 31
0.0
  0
LINE
  5
D6
330
C3
100
AcDbEntity
  8
0
  6
Continuous
 62
     0
370
    30
100
AcDbLine
 10
513.703722
 20
334.052674
 30
0.0
 11
524.703872
 21
334.052674
 31
0.0
  0
LINE
  5
D7
330
C3
100
AcDbEntity
  8
0
  6
Continuous
 62
     0
370
    30
100
AcDbLine
 10
502.703572
 20
334.052674
 30
0.0
 11
513.703722
 21
334.052674
 31
0.0
  0
LWPOLYLINE
  5
D8
330
C3
100
AcDbEntity
  8
0
  6
Continuous
 62
     0
370
     0
100
AcDbPolyline
 90
       23
 70
     0
 43
0.0
 10
513.703735
 20
307.452667
 10
513.188965
 20
307.489044
 10
512.684143
 20
307.601318
 10
512.202026
 20
307.781219
 10
511.752991
 20
308.025482
 10
511.346008
 20
308.332031
 10
510.986542
 20
308.692535
 10
510.679962
 20
309.098938
 10
510.43338
 20
309.547485
 10
510.252289
 20
310.029694
 10
510.141479
 20
310.534515
 10
510.104248
 20
311.050842
 10
510.140961
 20
311.56723
 10
510.251282
 20
312.072174
 10
510.431854
 20
312.554596
 10
510.67804
 20
313.003418
 10
510.984222
 20
313.410095
 10
511.343323
 20
313.770966
 10
511.749969
 20
314.077972
 10
512.19873
 20
314.322662
 10
512.680664
 20
314.502991
 10
513.185364
 20
314.615723
 10
513.703735
 20
314.652679
  0
LWPOLYLINE
  5
D9
330
C3
100
AcDbEntity
  8
0
  6
Continuous
 62
     0
370
     0
100
AcDbPolyline
 90
       23
 70
     0
 43
0.0
 10
513.703735
 20
314.652679
 10
514.218506
 20
314.616272
 10
514.723267
 20
314.504028
 10
515.205444
 20
314.324158
 10
515.65448
 20
314.079895
 10
516.061401
 20
313.773315
 10
516.420837
 20
313.412781
 10
516.727478
 20
313.006409
 10
516.97406
 20
312.557892
 10
517.155151
 20
312.075684
 10
517.26593
 20
311.570831
 10
517.303223
 20
311.054504
 10
517.266479
 20
310.538147
 10
517.156189
 20
310.033173
 10
516.975586
 20
309.550781
 10
516.729431
 20
309.101929
 10
516.423218
 20
308.695251
 10
516.064148
 20
308.334412
 10
515.657471
 20
308.027435
 10
515.20874
 20
307.782715
 10
514.726807
 20
307.602356
 10
514.222107
 20
307.489594
 10
513.703735
 20
307.452667
  0
LINE
  5
DA
330
C3
100
AcDbEntity
  8
0
  6
Continuous
 62
     0
370
    30
100
AcDbLine
 10
513.703722
 20
303.552674
 30
0.0
 11
524.703722
 21
303.552674
 31
0.0
  0
LINE
  5
DB
330
C3
100
AcDbEntity
  8
0
  6
Continuous
 62
     0
370
    30
100
AcDbLine
 10
502.703722
 20
303.552674
 30
0.0
 11
513.703722
 21
303.552674
 31
0.0
  0
LWPOLYLINE
  5
DC
330
C3
100
AcDbEntity
  8
0
  6
Continuous
 62
     0
370
     0
100
AcDbPolyline
 90
       24
 70
     0
 43
0.0
 10
502.703735
 20
314.652679
 10
502.714935
 20
314.619507
 10
502.747162
 20
314.516754
 10
502.79837
 20
314.351685
 10
502.864594
 20
314.127747
 10
502.940796
 20
313.846222
 10
503.021851
 20
313.513397
 10
503.102417
 20
313.13739
 10
503.176361
 20
312.72168
 10
503.238098
 20
312.271851
 10
503.282776
 20
311.797333
 10
503.306061
 20
311.30777
 10
503.306427
 20
310.813049
 10
503.283875
 20
310.323181
 10
503.239777
 20
309.848053
 10
503.178497
 20
309.397308
 10
503.104858
 20
308.980377
 10
503.024414
 20
308.603088
 10
502.943298
 20
308.268799
 10
502.866821
 20
307.985596
 10
502.800232
 20
307.759827
 10
502.748505
 20
307.592926
 10
502.715637
 20
307.488068
 10
502.703735
 20
307.452667
  0
LWPOLYLINE
  5
DD
330
C3
100
AcDbEntity
  8
0
  6
Continuous
 62
     0
370
     0
100
AcDbPolyline
 90
       24
 70
     0
 43
0.0
 10
524.703735
 20
307.452667
 10
524.692566
 20
307.485748
 10
524.660339
 20
307.58847
 10
524.609131
 20
307.753479
 10
524.542969
 20
307.977417
 10
524.466736
 20
308.25885
 10
524.38562
 20
308.591705
 10
524.305054
 20
308.967773
 10
524.23114
 20
309.383575
 10
524.169373
 20
309.833435
 10
524.124634
 20
310.307983
 10
524.101379
 20
310.797607
 10
524.101013
 20
311.292419
 10
524.123596
 20
311.782379
 10
524.167725
 20
312.257568
 10
524.229004
 20
312.708374
 10
524.302612
 20
313.125305
 10
524.383118
 20
313.502625
 10
524.464233
 20
313.836914
 10
524.54071
 20
314.120148
 10
524.6073
 20
314.345886
 10
524.658997
 20
314.512695
 10
524.691833
 20
314.617432
 10
524.703735
 20
314.652679
  0
LWPOLYLINE
  5
DE
330
C3
100
AcDbEntity
  8
0
  6
Continuous
 62
     0
370
    30
100
AcDbPolyline
 90
       20
 70
     0
 43
0.0
 10
502.703735
 20
307.552673
 10
502.715179
 20
307.588867
 10
502.748657
 20
307.696533
 10
502.8013
 20
307.872589
 10
502.868958
 20
308.112946
 10
502.94635
 20
308.412354
 10
503.027313
 20
308.764557
 10
503.10556
 20
309.162994
 10
503.174835
 20
309.601013
 10
503.229218
 20
310.070404
 10
503.263824
 20
310.561554
 10
503.27536
 20
311.063904
 10
503.262756
 20
311.56601
 10
503.227173
 20
312.056366
 10
503.171997
 20
312.524506
 10
503.102234
 20
312.96109
 10
503.023651
 20
313.357819
 10
502.942719
 20
313.707703
 10
502.865692
 20
314.004456
 10
502.796906
 20
314.247742
  0
LWPOLYLINE
  5
DF
330
C3
100
AcDbEntity
  8
0
  6
Continuous
 62
     0
370
    30
100
AcDbPolyline
 90
        4
 70
     0
 43
0.0
 10
502.796906
 20
314.247742
 10
502.747559
 20
314.412354
 10
502.715759
 20
314.514771
 10
502.703735
 20
314.552673
  0
LWPOLYLINE
  5
E0
330
C3
100
AcDbEntity
  8
0
  6
Continuous
 62
     0
370
    30
100
AcDbPolyline
 90
       23
 70
     0
 43
0.0
 10
524.703735
 20
314.552673
 10
524.692322
 20
314.516663
 10
524.659058
 20
314.409729
 10
524.60675
 20
314.234741
 10
524.539429
 20
313.996033
 10
524.462524
 20
313.698608
 10
524.381897
 20
313.348358
 10
524.303711
 20
312.952179
 10
524.234314
 20
312.516815
 10
524.179626
 20
312.049927
 10
524.14447
 20
311.561005
 10
524.13208
 20
311.060699
 10
524.143677
 20
310.56015
 10
524.178162
 20
310.07074
 10
524.232361
 20
309.603027
 10
524.30127
 20
309.16626
 10
524.379272
 20
308.768555
 10
524.459961
 20
308.417023
 10
524.537109
 20
308.11795
 10
524.604797
 20
307.877258
 10
524.657654
 20
307.700195
 10
524.691589
 20
307.591003
 10
524.703735
 20
307.552673
  0
LINE
  5
E1
330
C3
100
AcDbEntity
  8
0
  6
Continuous
 62
     0
370
    30
100
AcDbLine
 10
548.803718
 20
314.552673
 30
0.0
 11
548.803718
 21
309.225578
 31
0.0
  0
LINE
  5
E2
330
C3
100
AcDbEntity
  8
0
  6
Continuous
 62
     0
370
    30
100
AcDbLine
 10
548.803718
 20
309.225578
 30
0.0
 11
548.803718
 21
307.552683
 31
0.0
  0
LINE
  5
E3
330
C3
100
AcDbEntity
  8
0
  6
Continuous
 62
     0
370
    30
100
AcDbLine
 10
478.603684
 20
314.247729
 30
0.0
 11
478.603684
 21
314.552644
 31
0.0
  0
LWPOLYLINE
  5
E4
330
C3
100
AcDbEntity
  8
0
  6
Continuous
 62
     0
370
    30
100
AcDbPolyline
 90
       19
 70
     0
 43
0.0
 10
478.603699
 20
307.552704
 10
478.603699
 20
307.592468
 10
478.603699
 20
307.711212
 10
478.603699
 20
307.906097
 10
478.603699
 20
308.172729
 10
478.603699
 20
308.505066
 10
478.603699
 20
308.895447
 10
478.603699
 20
309.335083
 10
478.603699
 20
309.813812
 10
478.603699
 20
310.320862
 10
478.603699
 20
310.844513
 10
478.603699
 20
311.372986
 10
478.603699
 20
311.894104
 10
478.603699
 20
312.396057
 10
478.603699
 20
312.867401
 10
478.603699
 20
313.297302
 10
478.603699
 20
313.676117
 10
478.603699
 20
313.995026
 10
478.603699
 20
314.247742
  0
ARC
  5
E5
330
C3
100
AcDbEntity
  8
0
  6
Continuous
 62
     0
370
    30
100
AcDbCircle
 10
513.703684
 20
311.052702
 30
0.0
 40
3.500000000331913
100
AcDbArc
 50
57.677766
 51
237.679344
  0
ARC
  5
E6
330
C3
100
AcDbEntity
  8
0
  6
Continuous
 62
     0
370
    30
100
AcDbCircle
 10
513.703765
 20
311.052651
 30
0.0
 40
3.500000000324041
100
AcDbArc
 50
237.677775
 51
57.679335
  0
LINE
  5
E7
330
C3
100
AcDbEntity
  8
0
  6
Continuous
 62
     0
370
    30
100
AcDbLine
 10
478.603684
 20
314.552678
 30
0.0
 11
502.703714
 21
314.552678
 31
0.0
  0
LINE
  5
E8
330
C3
100
AcDbEntity
  8
0
  6
Continuous
 62
     0
370
    30
100
AcDbLine
 10
502.703753
 20
307.552678
 30
0.0
 11
478.603684
 21
307.552678
 31
0.0
  0
LINE
  5
E9
330
C3
100
AcDbEntity
  8
0
  6
Continuous
 62
     0
370
    30
100
AcDbLine
 10
548.803718
 20
314.552678
 30
0.0
 11
524.703675
 21
314.552678
 31
0.0
  0
LINE
  5
EA
330
C3
100
AcDbEntity
  8
0
  6
Continuous
 62
     0
370
    30
100
AcDbLine
 10
524.703723
 20
307.552678
 30
0.0
 11
548.803718
 21
307.552678
 31
0.0
  0
LINE
  5
EB
330
C3
100
AcDbEntity
  8
0
  6
Continuous
 62
     0
370
    30
100
AcDbLine
 10
524.703722
 20
307.452674
 30
0.0
 11
524.703722
 21
307.552699
 31
0.0
  0
LINE
  5
EC
330
C3
100
AcDbEntity
  8
0
  6
Continuous
 62
     0
370
    30
100
AcDbLine
 10
524.703722
 20
314.552232
 30
0.0
 11
524.703722
 21
314.652682
 31
0.0
  0
LINE
  5
ED
330
C3
100
AcDbEntity
  8
0
  6
Continuous
 62
     0
370
    30
100
AcDbLine
 10
502.703722
 20
307.452674
 30
0.0
 11
502.703722
 21
307.552992
 31
0.0
  0
LINE
  5
EE
330
C3
100
AcDbEntity
  8
0
  6
Continuous
 62
     0
370
    30
100
AcDbLine
 10
502.703722
 20
334.052674
 30
0.0
 11
502.703722
 21
315.375315
 31
0.0
  0
LINE
  5
EF
330
C3
100
AcDbEntity
  8
0
  6
Continuous
 62
     0
370
    30
100
AcDbLine
 10
524.703722
 20
334.052674
 30
0.0
 11
524.703722
 21
315.375315
 31
0.0
  0
LINE
  5
F0
330
C3
100
AcDbEntity
  8
0
  6
Continuous
 62
     0
370
    30
100
AcDbLine
 10
524.703722
 20
303.552674
 30
0.0
 11
524.703722
 21
307.452674
 31
0.0
  0
LINE
  5
F1
330
C3
100
AcDbEntity
  8
0
  6
Continuous
 62
     0
370
    30
100
AcDbLine
 10
502.703722
 20
303.552674
 30
0.0
 11
502.703722
 21
307.452674
 31
0.0
  0
LINE
  5
F2
330
C3
100
AcDbEntity
  8
0
  6
Continuous
 62
     0
370
    30
100
AcDbLine
 10
519.453722
 20
334.052674
 30
0.0
 11
519.453722
 21
338.952675
 31
0.0
  0
LINE
  5
F3
330
C3
100
AcDbEntity
  8
0
  6
Continuous
 62
     0
370
    30
100
AcDbLine
 10
507.953722
 20
334.052674
 30
0.0
 11
507.953722
 21
338.952675
 31
0.0
  0
LINE
  5
F4
330
C3
100
AcDbEntity
  8
0
  6
Continuous
 62
     0
370
    30
100
AcDbLine
 10
497.703722
 20
338.952676
 30
0.0
 11
497.703722
 21
365.952688
 31
0.0
  0
LINE
  5
F5
330
C3
100
AcDbEntity
  8
0
  6
Continuous
 62
     0
370
    30
100
AcDbLine
 10
529.703722
 20
338.952676
 30
0.0
 11
529.703722
 21
365.952688
 31
0.0
  0
LINE
  5
F6
330
C3
100
AcDbEntity
  8
0
  6
Continuous
 62
     0
370
    30
100
AcDbLine
 10
486.203722
 20
365.952676
 30
0.0
 11
486.203722
 21
369.952676
 31
0.0
  0
LINE
  5
F7
330
C3
100
AcDbEntity
  8
0
  6
Continuous
 62
     0
370
    30
100
AcDbLine
 10
541.203722
 20
365.952676
 30
0.0
 11
541.203722
 21
369.952676
 31
0.0
  0
ENDBLK
  5
F9
330
C3
100
AcDbEntity
  8
0
100
AcDbBlockEnd
  0
BLOCK
  5
162
330
FB
100
AcDbEntity
  8
0
100
AcDbBlockBegin
  2
c
 70
     0
 10
449.839935
 20
112.06427
 30
0.0
  3
c
  1

  0
LINE
  5
FC
330
FB
100
AcDbEntity
  8
0
  6
Continuous
 62
     0
370
    30
100
AcDbLine
 10
666.596398
 20
627.623835
 30
0.0
 11
666.596397
 21
680.826084
 31
0.0
  0
LWPOLYLINE
  5
FD
330
FB
100
AcDbEntity
  8
0
  6
Continuous
 62
     0
370
    30
100
AcDbPolyline
 90
        9
 70
     0
 43
0.0
 10
666.596375
 20
625.826111
 10
666.596375
 20
625.856079
 10
666.596375
 20
625.94458
 10
666.596375
 20
626.089417
 10
666.596375
 20
626.287964
 10
666.596375
 20
626.537415
 10
666.596375
 20
626.834839
 10
666.596375
 20
627.177246
 10
666.596375
 20
627.62384
  0
LINE
  5
FE
330
FB
100
AcDbEntity
  8
0
  6
Continuous
 62
     0
370
    30
100
AcDbLine
 10
662.596398
 20
627.623835
 30
0.0
 11
662.596397
 21
625.826084
 31
0.0
  0
LINE
  5
FF
330
FB
100
AcDbEntity
  8
0
  6
Continuous
 62
     0
370
    30
100
AcDbLine
 10
662.596397
 20
680.826084
 30
0.0
 11
662.596398
 21
627.623835
 31
0.0
  0
LWPOLYLINE
  5
100
330
FB
100
AcDbEntity
  8
0
  6
Continuous
 62
     0
370
    30
100
AcDbPolyline
 90
       46
 70
     0
 43
0.0
 10
693.596375
 20
669.326111
 10
693.596375
 20
669.28717
 10
693.596375
 20
669.17041
 10
693.596375
 20
668.976624
 10
693.596375
 20
668.706848
 10
693.596375
 20
668.362
 10
693.596375
 20
667.943665
 10
693.596375
 20
667.454346
 10
693.596375
 20
666.896545
 10
693.596375
 20
666.272644
 10
693.596375
 20
665.585388
 10
693.596375
 20
664.83844
 10
693.596375
 20
664.035645
 10
693.596375
 20
663.180786
 10
693.596375
 20
662.277893
 10
693.596375
 20
661.331177
 10
693.596375
 20
660.345642
 10
693.596375
 20
659.325989
 10
693.596375
 20
658.277222
 10
693.596375
 20
657.204224
 10
693.596375
 20
656.112244
 10
693.596375
 20
655.006775
 10
693.596375
 20
653.893188
 10
693.596375
 20
652.776855
 10
693.596375
 20
651.663147
 10
693.596375
 20
650.557495
 10
693.596375
 20
649.465332
 10
693.596375
 20
648.391968
 10
693.596375
 20
647.342712
 10
693.596375
 20
646.322632
 10
693.596375
 20
645.336426
 10
693.596375
 20
644.389099
 10
693.596375
 20
643.485474
 10
693.596375
 20
642.629822
 10
693.596375
 20
641.826111
 10
693.596375
 20
641.078247
 10
693.596375
 20
640.390015
 10
693.596375
 20
639.765076
 10
693.596375
 20
639.206177
 10
693.596375
 20
638.715759
 10
693.596375
 20
638.296326
 10
693.596375
 20
637.950256
 10
693.596375
 20
637.67926
 10
693.596375
 20
637.484253
 10
693.596375
 20
637.366272
 10
693.596375
 20
637.326111
  0
LINE
  5
101
330
FB
100
AcDbEntity
  8
0
  6
Continuous
 62
     0
370
    30
100
AcDbLine
 10
693.596396
 20
637.326081
 30
0.0
 11
666.596384
 21
637.326084
 31
0.0
  0
LINE
  5
102
330
FB
100
AcDbEntity
  8
0
  6
Continuous
 62
     0
370
    30
100
AcDbLine
 10
693.596398
 20
659.076083
 30
0.0
 11
698.496399
 21
659.076083
 31
0.0
  0
LWPOLYLINE
  5
103
330
FB
100
AcDbEntity
  8
0
  6
Continuous
 62
     0
370
    30
100
AcDbPolyline
 90
       38
 70
     0
 43
0.0
 10
698.496399
 20
642.326111
 10
698.496399
 20
642.365662
 10
698.496399
 20
642.484314
 10
698.496399
 20
642.680847
 10
698.496399
 20
642.954102
 10
698.496399
 20
643.302307
 10
698.496399
 20
643.722473
 10
698.496399
 20
644.21167
 10
698.496399
 20
644.766663
 10
698.496399
 20
645.383484
 10
698.496399
 20
646.057312
 10
698.496399
 20
646.783386
 10
698.496399
 20
647.556824
 10
698.496399
 20
648.371765
 10
698.496399
 20
649.22229
 10
698.496399
 20
650.102356
 10
698.496399
 20
651.005676
 10
698.496399
 20
651.925781
 10
698.496399
 20
652.855896
 10
698.496399
 20
653.789368
 10
698.496399
 20
654.719543
 10
698.496399
 20
655.639771
 10
698.496399
 20
656.543274
 10
698.496399
 20
657.423523
 10
698.496399
 20
658.274292
 10
698.496399
 20
659.089539
 10
698.496399
 20
659.86322
 10
698.496399
 20
660.589722
 10
698.496399
 20
661.263916
 10
698.496399
 20
661.881165
 10
698.496399
 20
662.436646
 10
698.496399
 20
662.926331
 10
698.496399
 20
663.347046
 10
698.496399
 20
663.695801
 10
698.496399
 20
663.969604
 10
698.496399
 20
664.166687
 10
698.496399
 20
664.285889
 10
698.496399
 20
664.326111
  0
LINE
  5
104
330
FB
100
AcDbEntity
  8
0
  6
Continuous
 62
     0
370
    30
100
AcDbLine
 10
728.996399
 20
664.326083
 30
0.0
 11
725.096399
 21
664.326083
 31
0.0
  0
LWPOLYLINE
  5
105
330
FB
100
AcDbEntity
  8
0
  6
Continuous
 62
     0
370
     0
100
AcDbPolyline
 90
       24
 70
     0
 43
0.0
 10
725.096375
 20
664.326111
 10
725.063354
 20
664.314941
 10
724.960632
 20
664.282715
 10
724.795654
 20
664.231506
 10
724.571777
 20
664.165344
 10
724.290344
 20
664.089111
 10
723.957581
 20
664.008057
 10
723.581543
 20
663.92749
 10
723.165833
 20
663.853516
 10
722.716003
 20
663.791748
 10
722.241455
 20
663.74707
 10
721.751892
 20
663.723755
 10
721.257141
 20
663.723389
 10
720.767212
 20
663.745911
 10
720.292053
 20
663.789978
 10
719.841248
 20
663.851257
 10
719.424316
 20
663.924927
 10
719.046936
 20
664.005371
 10
718.712585
 20
664.086487
 10
718.429321
 20
664.162964
 10
718.203552
 20
664.229553
 10
718.036682
 20
664.281311
 10
717.931824
 20
664.314209
 10
717.896423
 20
664.326111
  0
LINE
  5
106
330
FB
100
AcDbEntity
  8
0
  6
Continuous
 62
     0
370
    30
100
AcDbLine
 10
717.896399
 20
664.326083
 30
0.0
 11
698.496399
 21
664.326083
 31
0.0
  0
LINE
  5
107
330
FB
100
AcDbEntity
  8
0
  6
Continuous
 62
     0
370
    30
100
AcDbLine
 10
728.996399
 20
642.326083
 30
0.0
 11
728.996399
 21
664.326083
 31
0.0
  0
LWPOLYLINE
  5
108
330
FB
100
AcDbEntity
  8
0
  6
Continuous
 62
     0
370
     0
100
AcDbPolyline
 90
       24
 70
     0
 43
0.0
 10
717.896423
 20
642.326111
 10
717.929565
 20
642.33728
 10
718.032349
 20
642.369507
 10
718.197388
 20
642.420715
 10
718.421326
 20
642.486938
 10
718.70282
 20
642.563171
 10
719.035706
 20
642.644226
 10
719.411682
 20
642.724792
 10
719.827393
 20
642.798706
 10
720.277222
 20
642.860474
 10
720.75177
 20
642.905151
 10
721.241333
 20
642.928406
 10
721.736023
 20
642.928772
 10
722.225891
 20
642.90625
 10
722.70105
 20
642.862122
 10
723.151794
 20
642.800842
 10
723.568665
 20
642.727234
 10
723.945984
 20
642.64679
 10
724.280273
 20
642.565674
 10
724.563477
 20
642.489197
 10
724.789246
 20
642.422607
 10
724.956177
 20
642.37085
 10
725.061035
 20
642.338013
 10
725.096375
 20
642.326111
  0
LWPOLYLINE
  5
109
330
FB
100
AcDbEntity
  8
0
  6
Continuous
 62
     0
370
     0
100
AcDbPolyline
 90
       23
 70
     0
 43
0.0
 10
725.096375
 20
653.326111
 10
725.059998
 20
652.811279
 10
724.947754
 20
652.306458
 10
724.767822
 20
651.82428
 10
724.523499
 20
651.375244
 10
724.216919
 20
650.968201
 10
723.856323
 20
650.608765
 10
723.449829
 20
650.302246
 10
723.001221
 20
650.055603
 10
722.518982
 20
649.874512
 10
722.014099
 20
649.763733
 10
721.497742
 20
649.726562
 10
720.981323
 20
649.763428
 10
720.476379
 20
649.873779
 10
719.993958
 20
650.054504
 10
719.545105
 20
650.30072
 10
719.138489
 20
650.606995
 10
718.777649
 20
650.966187
 10
718.470703
 20
651.372925
 10
718.226074
 20
651.821777
 10
718.045776
 20
652.303833
 10
717.933167
 20
652.808594
 10
717.896423
 20
653.326904
  0
LWPOLYLINE
  5
10A
330
FB
100
AcDbEntity
  8
0
  6
Continuous
 62
     0
370
     0
100
AcDbPolyline
 90
       23
 70
     0
 43
0.0
 10
717.896423
 20
653.326904
 10
717.932861
 20
653.841614
 10
718.045166
 20
654.346375
 10
718.225159
 20
654.82843
 10
718.469543
 20
655.277344
 10
718.776184
 20
655.684265
 10
719.136719
 20
656.043579
 10
719.543091
 20
656.350098
 10
719.991638
 20
656.596619
 10
720.473816
 20
656.777649
 10
720.978699
 20
656.888367
 10
721.494934
 20
656.925537
 10
722.011292
 20
656.888794
 10
722.516174
 20
656.778442
 10
722.998535
 20
656.597839
 10
723.447327
 20
656.351685
 10
723.853943
 20
656.045471
 10
724.214783
 20
655.686401
 10
724.521667
 20
655.279724
 10
724.766418
 20
654.830994
 10
724.946716
 20
654.349121
 10
725.059509
 20
653.844421
 10
725.096375
 20
653.326111
  0
ARC
  5
10B
330
FB
100
AcDbEntity
  8
0
  6
Continuous
 62
     0
370
    30
100
AcDbCircle
 10
715.896425
 20
629.726139
 30
0.0
 40
12.63747726868468
100
AcDbArc
 50
85.583039
 51
94.416961
  0
LWPOLYLINE
  5
10C
330
FB
100
AcDbEntity
  8
0
  6
Continuous
 62
     0
370
    30
100
AcDbPolyline
 90
       14
 70
     0
 43
0.0
 10
724.996399
 20
642.326111
 10
724.964111
 20
642.336304
 10
724.868286
 20
642.36615
 10
724.711182
 20
642.413513
 10
724.496216
 20
642.474854
 10
724.227844
 20
642.545959
 10
723.910828
 20
642.621948
 10
723.550354
 20
642.697388
 10
723.151978
 20
642.766907
 10
722.722656
 20
642.825684
 10
722.269836
 20
642.869141
 10
721.80127
 20
642.89325
 10
721.326233
 20
642.896362
 10
720.814636
 20
642.875488
  0
LWPOLYLINE
  5
10D
330
FB
100
AcDbEntity
  8
0
  6
Continuous
 62
     0
370
    30
100
AcDbPolyline
 90
       11
 70
     0
 43
0.0
 10
720.814636
 20
642.875488
 10
720.352295
 20
642.835144
 10
719.912781
 20
642.778198
 10
719.504089
 20
642.709106
 10
719.132935
 20
642.633301
 10
718.80542
 20
642.556152
 10
718.527039
 20
642.483276
 10
718.302856
 20
642.419739
 10
718.137451
 20
642.370178
 10
718.034485
 20
642.338135
 10
717.996399
 20
642.326111
  0
LWPOLYLINE
  5
10E
330
FB
100
AcDbEntity
  8
0
  6
Continuous
 62
     0
370
    30
100
AcDbPolyline
 90
       23
 70
     0
 43
0.0
 10
717.996399
 20
664.326111
 10
718.032349
 20
664.314697
 10
718.139282
 20
664.281494
 10
718.31427
 20
664.229126
 10
718.552979
 20
664.161804
 10
718.850281
 20
664.0849
 10
719.200562
 20
664.004272
 10
719.596985
 20
663.926147
 10
720.032349
 20
663.856689
 10
720.499268
 20
663.802002
 10
720.98822
 20
663.766785
 10
721.488647
 20
663.754395
 10
721.989197
 20
663.766052
 10
722.478699
 20
663.800598
 10
722.946289
 20
663.854797
 10
723.382812
 20
663.923889
 10
723.78064
 20
664.00177
 10
724.132446
 20
664.082397
 10
724.431458
 20
664.159546
 10
724.672058
 20
664.227234
 10
724.849121
 20
664.28009
 10
724.958191
 20
664.313965
 10
724.996399
 20
664.326111
  0
LINE
  5
10F
330
FB
100
AcDbEntity
  8
0
  6
Continuous
 62
     0
370
    30
100
AcDbLine
 10
720.814662
 20
618.226079
 30
0.0
 11
717.996426
 21
618.226079
 31
0.0
  0
LWPOLYLINE
  5
110
330
FB
100
AcDbEntity
  8
0
  6
Continuous
 62
     0
370
    30
100
AcDbPolyline
 90
       13
 70
     0
 43
0.0
 10
724.996338
 20
618.226074
 10
724.958801
 20
618.226074
 10
724.84668
 20
618.226074
 10
724.662415
 20
618.226074
 10
724.410034
 20
618.226074
 10
724.094849
 20
618.226074
 10
723.723816
 20
618.226074
 10
723.30481
 20
618.226074
 10
722.846863
 20
618.226074
 10
722.359863
 20
618.226074
 10
721.854248
 20
618.226074
 10
721.340942
 20
618.226074
 10
720.814636
 20
618.226074
  0
ARC
  5
111
330
FB
100
AcDbEntity
  8
0
  6
Continuous
 62
     0
370
    30
100
AcDbCircle
 10
721.496377
 20
653.326039
 30
0.0
 40
3.500000000324038
100
AcDbArc
 50
155.904487
 51
335.906047
  0
ARC
  5
112
330
FB
100
AcDbEntity
  8
0
  6
Continuous
 62
     0
370
    30
100
AcDbCircle
 10
721.496416
 20
653.326127
 30
0.0
 40
3.50000000033191
100
AcDbArc
 50
335.904478
 51
155.906056
  0
LINE
  5
113
330
FB
100
AcDbEntity
  8
0
  6
Continuous
 62
     0
370
    30
100
AcDbLine
 10
717.996385
 20
688.426114
 30
0.0
 11
724.454111
 21
688.426114
 31
0.0
  0
LINE
  5
114
330
FB
100
AcDbEntity
  8
0
  6
Continuous
 62
     0
370
    30
100
AcDbLine
 10
724.454111
 20
688.426114
 30
0.0
 11
724.996405
 21
688.426114
 31
0.0
  0
LINE
  5
115
330
FB
100
AcDbEntity
  8
0
  6
Continuous
 62
     0
370
    30
100
AcDbLine
 10
717.996395
 20
688.426114
 30
0.0
 11
717.996395
 21
664.326036
 31
0.0
  0
LINE
  5
116
330
FB
100
AcDbEntity
  8
0
  6
Continuous
 62
     0
370
    30
100
AcDbLine
 10
724.996395
 20
664.326041
 30
0.0
 11
724.996395
 21
688.426114
 31
0.0
  0
LINE
  5
117
330
FB
100
AcDbEntity
  8
0
  6
Continuous
 62
     0
370
    30
100
AcDbLine
 10
717.996395
 20
618.226079
 30
0.0
 11
717.996395
 21
642.326085
 31
0.0
  0
LINE
  5
118
330
FB
100
AcDbEntity
  8
0
  6
Continuous
 62
     0
370
    30
100
AcDbLine
 10
724.996395
 20
642.326083
 30
0.0
 11
724.996395
 21
618.226079
 31
0.0
  0
LINE
  5
119
330
FB
100
AcDbEntity
  8
0
  6
Continuous
 62
     0
370
    30
100
AcDbLine
 10
725.096399
 20
664.326083
 30
0.0
 11
724.996203
 21
664.326083
 31
0.0
  0
LINE
  5
11A
330
FB
100
AcDbEntity
  8
0
  6
Continuous
 62
     0
370
    30
100
AcDbLine
 10
717.896399
 20
664.326083
 30
0.0
 11
717.996656
 21
664.326083
 31
0.0
  0
LINE
  5
11B
330
FB
100
AcDbEntity
  8
0
  6
Continuous
 62
     0
370
    30
100
AcDbLine
 10
725.096399
 20
642.326083
 30
0.0
 11
724.996216
 21
642.326083
 31
0.0
  0
LINE
  5
11C
330
FB
100
AcDbEntity
  8
0
  6
Continuous
 62
     0
370
    30
100
AcDbLine
 10
698.496399
 20
642.326083
 30
0.0
 11
714.92316
 21
642.326083
 31
0.0
  0
LINE
  5
11D
330
FB
100
AcDbEntity
  8
0
  6
Continuous
 62
     0
370
    30
100
AcDbLine
 10
728.996399
 20
642.326083
 30
0.0
 11
725.096399
 21
642.326083
 31
0.0
  0
LINE
  5
11E
330
FB
100
AcDbEntity
  8
0
  6
Continuous
 62
     0
370
    30
100
AcDbLine
 10
717.896391
 20
642.326083
 30
0.0
 11
716.86969
 21
642.326083
 31
0.0
  0
LINE
  5
11F
330
FB
100
AcDbEntity
  8
0
  6
Continuous
 62
     0
370
    30
100
AcDbLine
 10
698.496399
 20
647.576083
 30
0.0
 11
693.596398
 21
647.576083
 31
0.0
  0
LINE
  5
120
330
FB
100
AcDbEntity
  8
0
  6
Continuous
 62
     0
370
    30
100
AcDbLine
 10
693.596399
 20
669.326081
 30
0.0
 11
666.596386
 21
669.326084
 31
0.0
  0
LINE
  5
121
330
FB
100
AcDbEntity
  8
0
  6
Continuous
 62
     0
370
    30
100
AcDbLine
 10
666.596397
 20
680.826084
 30
0.0
 11
662.596397
 21
680.826084
 31
0.0
  0
LINE
  5
122
330
FB
100
AcDbEntity
  8
0
  6
Continuous
 62
     0
370
    30
100
AcDbLine
 10
666.596397
 20
625.826084
 30
0.0
 11
662.596397
 21
625.826084
 31
0.0
  0
LWPOLYLINE
  5
123
330
FB
100
AcDbEntity
  8
0
  6
Continuous
 62
     0
370
    30
100
AcDbPolyline
 90
       84
 70
     0
 43
0.0
 10
662.596375
 20
478.327545
 10
662.596375
 20
478.366699
 10
662.596375
 20
478.484955
 10
662.596375
 20
478.681854
 10
662.596375
 20
478.956909
 10
662.596375
 20
479.309601
 10
662.596375
 20
479.739441
 10
662.596375
 20
480.245911
 10
662.596375
 20
480.828522
 10
662.596375
 20
481.486755
 10
662.596375
 20
482.219513
 10
662.596375
 20
483.025482
 10
662.596375
 20
483.90329
 10
662.596375
 20
484.851624
 10
662.596375
 20
485.86908
 10
662.596375
 20
486.954315
 10
662.596375
 20
488.106018
 10
662.596375
 20
489.322784
 10
662.596375
 20
490.602966
 10
662.596375
 20
491.944458
 10
662.596375
 20
493.345154
 10
662.596375
 20
494.802917
 10
662.596375
 20
496.315613
 10
662.596375
 20
497.881165
 10
662.596375
 20
499.497437
 10
662.596375
 20
501.162262
 10
662.596375
 20
502.873474
 10
662.596375
 20
504.628448
 10
662.596375
 20
506.424469
 10
662.596375
 20
508.258942
 10
662.596375
 20
510.129181
 10
662.596375
 20
512.032471
 10
662.596375
 20
513.966187
 10
662.596375
 20
515.927673
 10
662.596375
 20
517.914246
 10
662.596375
 20
519.923035
 10
662.596375
 20
521.950989
 10
662.596375
 20
523.995239
 10
662.596375
 20
526.052856
 10
662.596375
 20
528.120789
 10
662.596375
 20
530.196167
 10
662.596375
 20
532.27594
 10
662.596375
 20
534.357239
 10
662.596375
 20
536.437134
 10
662.596375
 20
538.512512
 10
662.596375
 20
540.580566
 10
662.596375
 20
542.638306
 10
662.596375
 20
544.682678
 10
662.596375
 20
546.710876
 10
662.596375
 20
548.719849
 10
662.596375
 20
550.706665
 10
662.596375
 20
552.668396
 10
662.596375
 20
554.602478
 10
662.596375
 20
556.506104
 10
662.596375
 20
558.376709
 10
662.596375
 20
560.211548
 10
662.596375
 20
562.007996
 10
662.596375
 20
563.763428
 10
662.596375
 20
565.475098
 10
662.596375
 20
567.140442
 10
662.596375
 20
568.757202
 10
662.596375
 20
570.323303
 10
662.596375
 20
571.836609
 10
662.596375
 20
573.294922
 10
662.596375
 20
574.696228
 10
662.596375
 20
576.03833
 10
662.596375
 20
577.319214
 10
662.596375
 20
578.536621
 10
662.596375
 20
579.689026
 10
662.596375
 20
580.774963
 10
662.596375
 20
581.793152
 10
662.596375
 20
582.742188
 10
662.596375
 20
583.620789
 10
662.596375
 20
584.42749
 10
662.596375
 20
585.161072
 10
662.596375
 20
585.820068
 10
662.596375
 20
586.403503
 10
662.596375
 20
586.910767
 10
662.596375
 20
587.34137
 10
662.596375
 20
587.694885
 10
662.596375
 20
587.970764
 10
662.596375
 20
588.168518
 10
662.596375
 20
588.287598
 10
662.596375
 20
588.327576
  0
LINE
  5
124
330
FB
100
AcDbEntity
  8
0
  6
Continuous
 62
     0
370
    30
100
AcDbLine
 10
662.596382
 20
478.327557
 30
0.0
 11
666.596383
 21
478.327557
 31
0.0
  0
LINE
  5
125
330
FB
100
AcDbEntity
  8
0
  6
Continuous
 62
     0
370
    30
100
AcDbLine
 10
666.596383
 20
478.327557
 30
0.0
 11
666.596383
 21
588.327557
 31
0.0
  0
LWPOLYLINE
  5
126
330
FB
100
AcDbEntity
  8
0
  6
Continuous
 62
     0
370
    30
100
AcDbPolyline
 90
       53
 70
     0
 43
0.0
 10
718.796387
 20
555.327576
 10
718.796387
 20
555.287476
 10
718.796387
 20
555.167053
 10
718.796387
 20
554.967102
 10
718.796387
 20
554.688354
 10
718.796387
 20
554.331726
 10
718.796387
 20
553.898071
 10
718.796387
 20
553.389221
 10
718.796387
 20
552.807434
 10
718.796387
 20
552.154785
 10
718.796387
 20
551.433533
 10
718.796387
 20
550.645996
 10
718.796387
 20
549.794983
 10
718.796387
 20
548.883972
 10
718.796387
 20
547.916382
 10
718.796387
 20
546.895752
 10
718.796387
 20
545.825439
 10
718.796387
 20
544.70929
 10
718.796387
 20
543.551697
 10
718.796387
 20
542.356934
 10
718.796387
 20
541.129272
 10
718.796387
 20
539.873169
 10
718.796387
 20
538.593018
 10
718.796387
 20
537.29364
 10
718.796387
 20
535.979858
 10
718.796387
 20
534.656433
 10
718.796387
 20
533.328125
 10
718.796387
 20
531.999878
 10
718.796387
 20
530.676453
 10
718.796387
 20
529.36261
 10
718.796387
 20
528.063232
 10
718.796387
 20
526.783081
 10
718.796387
 20
525.526917
 10
718.796387
 20
524.299316
 10
718.796387
 20
523.104492
 10
718.796387
 20
521.946838
 10
718.796387
 20
520.830688
 10
718.796387
 20
519.760315
 10
718.796387
 20
518.739624
 10
718.796387
 20
517.771973
 10
718.796387
 20
516.860962
 10
718.796387
 20
516.009888
 10
718.796387
 20
515.222229
 10
718.796387
 20
514.500977
 10
718.796387
 20
513.848267
 10
718.796387
 20
513.266357
 10
718.796387
 20
512.757446
 10
718.796387
 20
512.32373
 10
718.796387
 20
511.96701
 10
718.796387
 20
511.688232
 10
718.796387
 20
511.48819
 10
718.796387
 20
511.367676
 10
718.796387
 20
511.327545
  0
LINE
  5
127
330
FB
100
AcDbEntity
  8
0
  6
Continuous
 62
     0
370
    30
100
AcDbLine
 10
718.796383
 20
555.327566
 30
0.0
 11
713.346402
 21
555.327566
 31
0.0
  0
LINE
  5
128
330
FB
100
AcDbEntity
  8
0
  6
Continuous
 62
     0
370
    30
100
AcDbLine
 10
706.246402
 20
555.327566
 30
0.0
 11
668.796383
 21
555.327566
 31
0.0
  0
LINE
  5
129
330
FB
100
AcDbEntity
  8
0
  6
Continuous
 62
     0
370
    30
100
AcDbLine
 10
668.796383
 20
555.327566
 30
0.0
 11
668.796383
 21
511.327547
 31
0.0
  0
LWPOLYLINE
  5
12A
330
FB
100
AcDbEntity
  8
0
  6
Continuous
 62
     0
370
     0
100
AcDbPolyline
 90
       23
 70
     0
 43
0.0
 10
713.346375
 20
555.327576
 10
713.310425
 20
555.321777
 10
713.202332
 20
555.304871
 10
713.025391
 20
555.278198
 10
712.785461
 20
555.243896
 10
712.483459
 20
555.204773
 10
712.125
 20
555.164062
 10
711.722046
 20
555.124573
 10
711.279907
 20
555.089783
 10
710.806458
 20
555.062744
 10
710.312378
 20
555.045471
 10
709.807678
 20
555.039185
 10
709.302795
 20
555.044922
 10
708.807922
 20
555.061768
 10
708.333313
 20
555.088379
 10
707.889526
 20
555.122864
 10
707.484863
 20
555.162231
 10
707.124207
 20
555.202942
 10
706.819397
 20
555.242188
 10
706.576782
 20
555.276794
 10
706.397034
 20
555.303833
 10
706.285767
 20
555.321228
 10
706.246399
 20
555.327576
  0
LWPOLYLINE
  5
12B
330
FB
100
AcDbEntity
  8
0
  6
Continuous
 62
     0
370
     0
100
AcDbPolyline
 90
       18
 70
     0
 43
0.0
 10
707.646423
 20
511.327545
 10
707.683838
 20
511.331116
 10
707.79187
 20
511.341217
 10
707.966675
 20
511.356628
 10
708.204895
 20
511.375061
 10
708.496582
 20
511.394226
 10
708.830933
 20
511.411591
 10
709.200073
 20
511.424713
 10
709.589722
 20
511.431824
 10
709.985901
 20
511.431976
 10
710.375977
 20
511.42514
 10
710.746338
 20
511.412262
 10
711.082581
 20
511.39505
 10
711.37616
 20
511.375916
 10
711.616882
 20
511.357391
 10
711.794739
 20
511.341797
 10
711.905945
 20
511.331421
 10
711.946411
 20
511.327545
  0
LWPOLYLINE
  5
12C
330
FB
100
AcDbEntity
  8
0
  6
Continuous
 62
     0
370
    30
100
AcDbPolyline
 90
       23
 70
     0
 43
0.0
 10
713.296387
 20
562.977539
 10
713.266113
 20
562.977539
 10
713.170227
 20
562.977539
 10
713.003113
 20
562.977539
 10
712.763306
 20
562.977539
 10
712.453979
 20
562.977539
 10
712.08313
 20
562.977539
 10
711.663208
 20
562.977539
 10
711.209534
 20
562.977539
 10
710.738647
 20
562.977539
 10
710.266418
 20
562.977539
 10
709.806702
 20
562.977539
 10
709.347839
 20
562.977539
 10
708.875854
 20
562.977539
 10
708.404602
 20
562.977539
 10
707.949768
 20
562.977539
 10
707.527954
 20
562.977539
 10
707.154602
 20
562.977539
 10
706.842163
 20
562.977539
 10
706.59906
 20
562.977539
 10
706.42865
 20
562.977539
 10
706.32959
 20
562.977539
 10
706.296387
 20
562.977539
  0
LINE
  5
12D
330
FB
100
AcDbEntity
  8
0
  6
Continuous
 62
     0
370
    30
100
AcDbLine
 10
713.096402
 20
563.177566
 30
0.0
 11
713.296402
 21
562.977566
 31
0.0
  0
LWPOLYLINE
  5
12E
330
FB
100
AcDbEntity
  8
0
  6
Continuous
 62
     0
370
    30
100
AcDbPolyline
 90
       22
 70
     0
 43
0.0
 10
713.096375
 20
563.177551
 10
713.059753
 20
563.177429
 10
712.950806
 20
563.177429
 10
712.77179
 20
563.177368
 10
712.525818
 20
563.177063
 10
712.219116
 20
563.176636
 10
711.858765
 20
563.175964
 10
711.452209
 20
563.175171
 10
711.009094
 20
563.174561
 10
710.539246
 20
563.174438
 10
710.052795
 20
563.175049
 10
709.560608
 20
563.175964
 10
709.073669
 20
563.17688
 10
708.602783
 20
563.177429
 10
708.158386
 20
563.177551
 10
707.75061
 20
563.177246
 10
707.389099
 20
563.176575
 10
707.080994
 20
563.175903
 10
706.832642
 20
563.175659
 10
706.650024
 20
563.17627
 10
706.536926
 20
563.177124
 10
706.496399
 20
563.177551
  0
LINE
  5
12F
330
FB
100
AcDbEntity
  8
0
  6
Continuous
 62
     0
370
    30
100
AcDbLine
 10
713.296402
 20
555.327533
 30
0.0
 11
713.296402
 21
562.977566
 31
0.0
  0
LWPOLYLINE
  5
130
330
FB
100
AcDbEntity
  8
0
  6
Continuous
 62
     0
370
    30
100
AcDbPolyline
 90
       22
 70
     0
 43
0.0
 10
706.296387
 20
555.327515
 10
706.335876
 20
555.321167
 10
706.452454
 20
555.303162
 10
706.643372
 20
555.275024
 10
706.904785
 20
555.239014
 10
707.230347
 20
555.198425
 10
707.613037
 20
555.15686
 10
708.044678
 20
555.118042
 10
708.515503
 20
555.085205
 10
709.015198
 20
555.061462
 10
709.532959
 20
555.049194
 10
710.056763
 20
555.049011
 10
710.574402
 20
555.061401
 10
711.074341
 20
555.085144
 10
711.545532
 20
555.117737
 10
711.977356
 20
555.156555
 10
712.360291
 20
555.198181
 10
712.686279
 20
555.23877
 10
712.947998
 20
555.27478
 10
713.139587
 20
555.303101
 10
713.256775
 20
555.321289
 10
713.296387
 20
555.327515
  0
LINE
  5
131
330
FB
100
AcDbEntity
  8
0
  6
Continuous
 62
     0
370
    30
100
AcDbLine
 10
706.296402
 20
562.977566
 30
0.0
 11
706.496402
 21
563.177566
 31
0.0
  0
LINE
  5
132
330
FB
100
AcDbEntity
  8
0
  6
Continuous
 62
     0
370
    30
100
AcDbLine
 10
706.296402
 20
562.977566
 30
0.0
 11
706.296402
 21
555.327533
 31
0.0
  0
LWPOLYLINE
  5
133
330
FB
100
AcDbEntity
  8
0
  6
Continuous
 62
     0
370
    30
100
AcDbPolyline
 90
        3
 70
     0
 43
0.0
 10
711.946411
 20
511.327545
 10
709.857849
 20
511.315887
 10
707.646423
 20
511.327545
  0
LINE
  5
134
330
FB
100
AcDbEntity
  8
0
  6
Continuous
 62
     0
370
    30
100
AcDbLine
 10
706.246402
 20
555.327566
 30
0.0
 11
706.296403
 21
555.327533
 31
0.0
  0
LINE
  5
135
330
FB
100
AcDbEntity
  8
0
  6
Continuous
 62
     0
370
    30
100
AcDbLine
 10
713.346402
 20
555.327566
 30
0.0
 11
713.296402
 21
555.327533
 31
0.0
  0
LINE
  5
136
330
FB
100
AcDbEntity
  8
0
  6
Continuous
 62
     0
370
    30
100
AcDbLine
 10
718.796383
 20
511.327547
 30
0.0
 11
711.946383
 21
511.327547
 31
0.0
  0
LINE
  5
137
330
FB
100
AcDbEntity
  8
0
  6
Continuous
 62
     0
370
    30
100
AcDbLine
 10
668.796383
 20
511.327547
 30
0.0
 11
707.646411
 21
511.327547
 31
0.0
  0
LINE
  5
138
330
FB
100
AcDbEntity
  8
0
  6
Continuous
 62
     0
370
    30
100
AcDbLine
 10
666.596382
 20
513.427557
 30
0.0
 11
668.796383
 21
513.427557
 31
0.0
  0
LINE
  5
139
330
FB
100
AcDbEntity
  8
0
  6
Continuous
 62
     0
370
    30
100
AcDbLine
 10
668.796383
 20
553.227557
 30
0.0
 11
666.596382
 21
553.227557
 31
0.0
  0
LINE
  5
13A
330
FB
100
AcDbEntity
  8
0
  6
Continuous
 62
     0
370
    30
100
AcDbLine
 10
666.596383
 20
588.327557
 30
0.0
 11
662.596382
 21
588.327557
 31
0.0
  0
LINE
  5
13B
330
FB
100
AcDbEntity
  8
0
  6
Continuous
 62
     0
370
    30
100
AcDbLine
 10
666.596441
 20
727.623397
 30
0.0
 11
666.59644
 21
780.825647
 31
0.0
  0
LWPOLYLINE
  5
13C
330
FB
100
AcDbEntity
  8
0
  6
Continuous
 62
     0
370
    30
100
AcDbPolyline
 90
        9
 70
     0
 43
0.0
 10
666.596436
 20
725.825623
 10
666.596436
 20
725.855591
 10
666.596436
 20
725.944153
 10
666.596436
 20
726.088989
 10
666.596436
 20
726.287476
 10
666.596436
 20
726.536987
 10
666.596436
 20
726.834412
 10
666.596436
 20
727.176758
 10
666.596436
 20
727.623413
  0
LINE
  5
13D
330
FB
100
AcDbEntity
  8
0
  6
Continuous
 62
     0
370
    30
100
AcDbLine
 10
662.596441
 20
727.623397
 30
0.0
 11
662.59644
 21
725.825647
 31
0.0
  0
LINE
  5
13E
330
FB
100
AcDbEntity
  8
0
  6
Continuous
 62
     0
370
    30
100
AcDbLine
 10
662.59644
 20
780.825647
 30
0.0
 11
662.596441
 21
727.623397
 31
0.0
  0
LWPOLYLINE
  5
13F
330
FB
100
AcDbEntity
  8
0
  6
Continuous
 62
     0
370
    30
100
AcDbPolyline
 90
       46
 70
     0
 43
0.0
 10
693.596436
 20
769.325623
 10
693.596436
 20
769.286743
 10
693.596436
 20
769.169922
 10
693.596436
 20
768.976196
 10
693.596436
 20
768.706421
 10
693.596436
 20
768.361511
 10
693.596436
 20
767.943237
 10
693.596436
 20
767.453918
 10
693.596436
 20
766.896118
 10
693.596436
 20
766.272217
 10
693.596436
 20
765.584961
 10
693.596436
 20
764.838013
 10
693.596436
 20
764.035156
 10
693.596436
 20
763.180359
 10
693.596436
 20
762.277405
 10
693.596436
 20
761.33075
 10
693.596436
 20
760.345154
 10
693.596436
 20
759.325562
 10
693.596436
 20
758.276794
 10
693.596436
 20
757.203735
 10
693.596436
 20
756.111816
 10
693.596436
 20
755.006348
 10
693.596436
 20
753.892761
 10
693.596436
 20
752.776428
 10
693.596436
 20
751.66272
 10
693.596436
 20
750.557068
 10
693.596436
 20
749.464905
 10
693.596436
 20
748.391541
 10
693.596436
 20
747.342285
 10
693.596436
 20
746.322205
 10
693.596436
 20
745.335999
 10
693.596436
 20
744.388672
 10
693.596436
 20
743.484985
 10
693.596436
 20
742.629395
 10
693.596436
 20
741.825684
 10
693.596436
 20
741.07782
 10
693.596436
 20
740.389587
 10
693.596436
 20
739.764648
 10
693.596436
 20
739.20575
 10
693.596436
 20
738.715332
 10
693.596436
 20
738.295898
 10
693.596436
 20
737.949768
 10
693.596436
 20
737.678772
 10
693.596436
 20
737.483826
 10
693.596436
 20
737.365845
 10
693.596436
 20
737.325623
  0
LINE
  5
140
330
FB
100
AcDbEntity
  8
0
  6
Continuous
 62
     0
370
    30
100
AcDbLine
 10
693.596439
 20
737.325644
 30
0.0
 11
666.596426
 21
737.325647
 31
0.0
  0
LINE
  5
141
330
FB
100
AcDbEntity
  8
0
  6
Continuous
 62
     0
370
    30
100
AcDbLine
 10
693.596441
 20
759.075646
 30
0.0
 11
698.496442
 21
759.075646
 31
0.0
  0
LWPOLYLINE
  5
142
330
FB
100
AcDbEntity
  8
0
  6
Continuous
 62
     0
370
    30
100
AcDbPolyline
 90
       38
 70
     0
 43
0.0
 10
698.49646
 20
742.325623
 10
698.49646
 20
742.365234
 10
698.49646
 20
742.483887
 10
698.49646
 20
742.680359
 10
698.49646
 20
742.953613
 10
698.49646
 20
743.301819
 10
698.49646
 20
743.722046
 10
698.49646
 20
744.211243
 10
698.49646
 20
744.766235
 10
698.49646
 20
745.383057
 10
698.49646
 20
746.056885
 10
698.49646
 20
746.782959
 10
698.49646
 20
747.556335
 10
698.49646
 20
748.371338
 10
698.49646
 20
749.221863
 10
698.49646
 20
750.101868
 10
698.49646
 20
751.005249
 10
698.49646
 20
751.925354
 10
698.49646
 20
752.855469
 10
698.49646
 20
753.78894
 10
698.49646
 20
754.719116
 10
698.49646
 20
755.639343
 10
698.49646
 20
756.542847
 10
698.49646
 20
757.423096
 10
698.49646
 20
758.273804
 10
698.49646
 20
759.089111
 10
698.49646
 20
759.862793
 10
698.49646
 20
760.589233
 10
698.49646
 20
761.263489
 10
698.49646
 20
761.880737
 10
698.49646
 20
762.436218
 10
698.49646
 20
762.925903
 10
698.49646
 20
763.346619
 10
698.49646
 20
763.695374
 10
698.49646
 20
763.969177
 10
698.49646
 20
764.16626
 10
698.49646
 20
764.285461
 10
698.49646
 20
764.325623
  0
LINE
  5
143
330
FB
100
AcDbEntity
  8
0
  6
Continuous
 62
     0
370
    30
100
AcDbLine
 10
728.996442
 20
764.325646
 30
0.0
 11
725.096442
 21
764.325646
 31
0.0
  0
LWPOLYLINE
  5
144
330
FB
100
AcDbEntity
  8
0
  6
Continuous
 62
     0
370
     0
100
AcDbPolyline
 90
       24
 70
     0
 43
0.0
 10
725.096436
 20
764.325623
 10
725.063354
 20
764.314453
 10
724.960632
 20
764.282288
 10
724.795654
 20
764.231079
 10
724.571777
 20
764.164917
 10
724.290405
 20
764.088684
 10
723.957581
 20
764.007568
 10
723.581604
 20
763.927002
 10
723.165894
 20
763.853088
 10
722.716064
 20
763.791321
 10
722.241516
 20
763.746582
 10
721.751953
 20
763.723328
 10
721.257202
 20
763.722961
 10
720.767273
 20
763.745483
 10
720.292053
 20
763.789551
 10
719.841309
 20
763.85083
 10
719.424316
 20
763.924438
 10
719.046997
 20
764.004944
 10
718.712646
 20
764.08606
 10
718.429382
 20
764.162537
 10
718.203613
 20
764.229126
 10
718.036682
 20
764.280884
 10
717.931885
 20
764.313721
 10
717.896423
 20
764.325623
  0
LINE
  5
145
330
FB
100
AcDbEntity
  8
0
  6
Continuous
 62
     0
370
    30
100
AcDbLine
 10
717.896442
 20
764.325646
 30
0.0
 11
698.496442
 21
764.325646
 31
0.0
  0
LINE
  5
146
330
FB
100
AcDbEntity
  8
0
  6
Continuous
 62
     0
370
    30
100
AcDbLine
 10
728.996442
 20
742.325646
 30
0.0
 11
728.996442
 21
764.325646
 31
0.0
  0
LWPOLYLINE
  5
147
330
FB
100
AcDbEntity
  8
0
  6
Continuous
 62
     0
370
     0
100
AcDbPolyline
 90
       24
 70
     0
 43
0.0
 10
717.896423
 20
742.325623
 10
717.929626
 20
742.336853
 10
718.032349
 20
742.36908
 10
718.197449
 20
742.420288
 10
718.421387
 20
742.486511
 10
718.702881
 20
742.562744
 10
719.035706
 20
742.643799
 10
719.411743
 20
742.724365
 10
719.827454
 20
742.798279
 10
720.277283
 20
742.859985
 10
720.75177
 20
742.904724
 10
721.241333
 20
742.927979
 10
721.736084
 20
742.928345
 10
722.225952
 20
742.905762
 10
722.70105
 20
742.861694
 10
723.151794
 20
742.800415
 10
723.568726
 20
742.726807
 10
723.946045
 20
742.646362
 10
724.280334
 20
742.565186
 10
724.563538
 20
742.48877
 10
724.789307
 20
742.42218
 10
724.956177
 20
742.370422
 10
725.061035
 20
742.337524
 10
725.096436
 20
742.325623
  0
LWPOLYLINE
  5
148
330
FB
100
AcDbEntity
  8
0
  6
Continuous
 62
     0
370
     0
100
AcDbPolyline
 90
       23
 70
     0
 43
0.0
 10
725.096436
 20
753.325623
 10
725.060059
 20
752.810852
 10
724.947754
 20
752.305969
 10
724.767822
 20
751.823853
 10
724.523499
 20
751.374817
 10
724.216919
 20
750.967773
 10
723.856384
 20
750.608337
 10
723.44989
 20
750.301819
 10
723.001282
 20
750.055176
 10
722.519043
 20
749.874084
 10
722.01416
 20
749.763306
 10
721.497803
 20
749.726135
 10
720.981384
 20
749.762939
 10
720.476379
 20
749.873352
 10
719.993958
 20
750.054016
 10
719.545166
 20
750.300293
 10
719.138489
 20
750.606567
 10
718.77771
 20
750.965759
 10
718.470764
 20
751.372498
 10
718.226074
 20
751.82135
 10
718.045837
 20
752.303345
 10
717.933228
 20
752.808167
 10
717.896423
 20
753.326477
  0
LWPOLYLINE
  5
149
330
FB
100
AcDbEntity
  8
0
  6
Continuous
 62
     0
370
     0
100
AcDbPolyline
 90
       23
 70
     0
 43
0.0
 10
717.896423
 20
753.326477
 10
717.932922
 20
753.841187
 10
718.045227
 20
754.345947
 10
718.22522
 20
754.828003
 10
718.469604
 20
755.276917
 10
718.776184
 20
755.683838
 10
719.13678
 20
756.043152
 10
719.543152
 20
756.34967
 10
719.991699
 20
756.596191
 10
720.473877
 20
756.777222
 10
720.978699
 20
756.887939
 10
721.494995
 20
756.92511
 10
722.011353
 20
756.888367
 10
722.516235
 20
756.778015
 10
722.998596
 20
756.597412
 10
723.447388
 20
756.351196
 10
723.854004
 20
756.045044
 10
724.214844
 20
755.685974
 10
724.521729
 20
755.279297
 10
724.766418
 20
754.830566
 10
724.946777
 20
754.348694
 10
725.059509
 20
753.843994
 10
725.096436
 20
753.325623
  0
ARC
  5
14A
330
FB
100
AcDbEntity
  8
0
  6
Continuous
 62
     0
370
    30
100
AcDbCircle
 10
715.896468
 20
729.725702
 30
0.0
 40
12.63747726875805
100
AcDbArc
 50
85.583039
 51
94.416961
  0
LWPOLYLINE
  5
14B
330
FB
100
AcDbEntity
  8
0
  6
Continuous
 62
     0
370
    30
100
AcDbPolyline
 90
       14
 70
     0
 43
0.0
 10
724.996399
 20
742.325684
 10
724.964172
 20
742.335876
 10
724.868347
 20
742.365723
 10
724.711182
 20
742.413025
 10
724.496216
 20
742.474426
 10
724.227844
 20
742.545532
 10
723.910889
 20
742.621521
 10
723.550415
 20
742.69696
 10
723.151978
 20
742.766479
 10
722.722717
 20
742.825256
 10
722.269836
 20
742.868652
 10
721.80127
 20
742.892822
 10
721.326294
 20
742.895935
 10
720.814697
 20
742.875061
  0
LWPOLYLINE
  5
14C
330
FB
100
AcDbEntity
  8
0
  6
Continuous
 62
     0
370
    30
100
AcDbPolyline
 90
       11
 70
     0
 43
0.0
 10
720.814697
 20
742.875061
 10
720.352356
 20
742.834717
 10
719.912781
 20
742.77771
 10
719.504089
 20
742.708679
 10
719.132996
 20
742.632812
 10
718.805481
 20
742.555725
 10
718.5271
 20
742.482849
 10
718.302917
 20
742.419312
 10
718.137512
 20
742.36969
 10
718.034546
 20
742.337708
 10
717.99646
 20
742.325623
  0
LWPOLYLINE
  5
14D
330
FB
100
AcDbEntity
  8
0
  6
Continuous
 62
     0
370
    30
100
AcDbPolyline
 90
       23
 70
     0
 43
0.0
 10
717.99646
 20
764.325623
 10
718.03241
 20
764.314209
 10
718.139282
 20
764.281006
 10
718.31427
 20
764.228699
 10
718.552979
 20
764.161377
 10
718.850281
 20
764.084473
 10
719.200562
 20
764.003845
 10
719.597046
 20
763.92572
 10
720.03241
 20
763.856262
 10
720.499268
 20
763.801514
 10
720.988281
 20
763.766357
 10
721.488647
 20
763.753967
 10
721.989258
 20
763.765625
 10
722.47876
 20
763.80011
 10
722.94635
 20
763.85437
 10
723.382874
 20
763.923462
 10
723.780701
 20
764.001343
 10
724.132507
 20
764.08197
 10
724.431519
 20
764.159119
 10
724.672119
 20
764.226807
 10
724.849121
 20
764.279663
 10
724.958191
 20
764.313538
 10
724.99646
 20
764.325684
  0
LINE
  5
14E
330
FB
100
AcDbEntity
  8
0
  6
Continuous
 62
     0
370
    30
100
AcDbLine
 10
720.814705
 20
718.225642
 30
0.0
 11
717.996469
 21
718.225642
 31
0.0
  0
LWPOLYLINE
  5
14F
330
FB
100
AcDbEntity
  8
0
  6
Continuous
 62
     0
370
    30
100
AcDbPolyline
 90
       13
 70
     0
 43
0.0
 10
724.996399
 20
718.225647
 10
724.958862
 20
718.225647
 10
724.84668
 20
718.225647
 10
724.662476
 20
718.225647
 10
724.410095
 20
718.225647
 10
724.09491
 20
718.225647
 10
723.723877
 20
718.225647
 10
723.30481
 20
718.225647
 10
722.846924
 20
718.225647
 10
722.359863
 20
718.225647
 10
721.854309
 20
718.225647
 10
721.341003
 20
718.225647
 10
720.814697
 20
718.225647
  0
ARC
  5
150
330
FB
100
AcDbEntity
  8
0
  6
Continuous
 62
     0
370
    30
100
AcDbCircle
 10
721.49642
 20
753.325602
 30
0.0
 40
3.500000000324035
100
AcDbArc
 50
155.904487
 51
335.906047
  0
ARC
  5
151
330
FB
100
AcDbEntity
  8
0
  6
Continuous
 62
     0
370
    30
100
AcDbCircle
 10
721.496459
 20
753.32569
 30
0.0
 40
3.500000000331907
100
AcDbArc
 50
335.904478
 51
155.906056
  0
LINE
  5
152
330
FB
100
AcDbEntity
  8
0
  6
Continuous
 62
     0
370
    30
100
AcDbLine
 10
717.996428
 20
788.425677
 30
0.0
 11
724.454154
 21
788.425677
 31
0.0
  0
LINE
  5
153
330
FB
100
AcDbEntity
  8
0
  6
Continuous
 62
     0
370
    30
100
AcDbLine
 10
724.454154
 20
788.425677
 30
0.0
 11
724.996448
 21
788.425677
 31
0.0
  0
LINE
  5
154
330
FB
100
AcDbEntity
  8
0
  6
Continuous
 62
     0
370
    30
100
AcDbLine
 10
717.996438
 20
788.425677
 30
0.0
 11
717.996438
 21
764.325599
 31
0.0
  0
LINE
  5
155
330
FB
100
AcDbEntity
  8
0
  6
Continuous
 62
     0
370
    30
100
AcDbLine
 10
724.996438
 20
764.325603
 30
0.0
 11
724.996438
 21
788.425677
 31
0.0
  0
LINE
  5
156
330
FB
100
AcDbEntity
  8
0
  6
Continuous
 62
     0
370
    30
100
AcDbLine
 10
717.996438
 20
718.225642
 30
0.0
 11
717.996438
 21
742.325647
 31
0.0
  0
LINE
  5
157
330
FB
100
AcDbEntity
  8
0
  6
Continuous
 62
     0
370
    30
100
AcDbLine
 10
724.996438
 20
742.325646
 30
0.0
 11
724.996438
 21
718.225642
 31
0.0
  0
LINE
  5
158
330
FB
100
AcDbEntity
  8
0
  6
Continuous
 62
     0
370
    30
100
AcDbLine
 10
725.096442
 20
764.325646
 30
0.0
 11
724.996246
 21
764.325646
 31
0.0
  0
LINE
  5
159
330
FB
100
AcDbEntity
  8
0
  6
Continuous
 62
     0
370
    30
100
AcDbLine
 10
717.896442
 20
764.325646
 30
0.0
 11
717.996699
 21
764.325646
 31
0.0
  0
LINE
  5
15A
330
FB
100
AcDbEntity
  8
0
  6
Continuous
 62
     0
370
    30
100
AcDbLine
 10
725.096442
 20
742.325646
 30
0.0
 11
724.996259
 21
742.325646
 31
0.0
  0
LINE
  5
15B
330
FB
100
AcDbEntity
  8
0
  6
Continuous
 62
     0
370
    30
100
AcDbLine
 10
698.496442
 20
742.325646
 30
0.0
 11
714.923203
 21
742.325646
 31
0.0
  0
LINE
  5
15C
330
FB
100
AcDbEntity
  8
0
  6
Continuous
 62
     0
370
    30
100
AcDbLine
 10
728.996442
 20
742.325646
 30
0.0
 11
725.096442
 21
742.325646
 31
0.0
  0
LINE
  5
15D
330
FB
100
AcDbEntity
  8
0
  6
Continuous
 62
     0
370
    30
100
AcDbLine
 10
717.896434
 20
742.325646
 30
0.0
 11
716.869733
 21
742.325646
 31
0.0
  0
LINE
  5
15E
330
FB
100
AcDbEntity
  8
0
  6
Continuous
 62
     0
370
    30
100
AcDbLine
 10
698.496442
 20
747.575646
 30
0.0
 11
693.596441
 21
747.575646
 31
0.0
  0
LINE
  5
15F
330
FB
100
AcDbEntity
  8
0
  6
Continuous
 62
     0
370
    30
100
AcDbLine
 10
693.596442
 20
769.325644
 30
0.0
 11
666.596429
 21
769.325647
 31
0.0
  0
LINE
  5
160
330
FB
100
AcDbEntity
  8
0
  6
Continuous
 62
     0
370
    30
100
AcDbLine
 10
666.59644
 20
780.825647
 30
0.0
 11
662.59644
 21
780.825647
 31
0.0
  0
LINE
  5
161
330
FB
100
AcDbEntity
  8
0
  6
Continuous
 62
     0
370
    30
100
AcDbLine
 10
666.59644
 20
725.825647
 30
0.0
 11
662.59644
 21
725.825647
 31
0.0
  0
ENDBLK
  5
163
330
FB
100
AcDbEntity
  8
0
100
AcDbBlockEnd
  0
BLOCK
  5
1CC
330
165
100
AcDbEntity
  8
0
100
AcDbBlockBegin
  2
d
 70
     0
 10
367.937286
 20
0.000061
 30
0.0
  3
d
  1

  0
LWPOLYLINE
  5
166
330
165
100
AcDbEntity
  8
0
  6
Continuous
 62
     0
370
    30
100
AcDbPolyline
 90
        9
 70
     0
 43
0.0
 10
318.033051
 20
680.826111
 10
318.033051
 20
680.796082
 10
318.033051
 20
680.707581
 10
318.033051
 20
680.562744
 10
318.033051
 20
680.364258
 10
318.033051
 20
680.114746
 10
318.033051
 20
679.817322
 10
318.033051
 20
679.474915
 10
318.033051
 20
679.02832
  0
LINE
  5
167
330
165
100
AcDbEntity
  8
0
  6
Continuous
 62
     0
370
    30
100
AcDbLine
 10
318.033042
 20
679.028334
 30
0.0
 11
318.033043
 21
625.826084
 31
0.0
  0
LWPOLYLINE
  5
168
330
165
100
AcDbEntity
  8
0
  6
Continuous
 62
     0
370
    30
100
AcDbPolyline
 90
       55
 70
     0
 43
0.0
 10
322.033051
 20
625.826111
 10
322.033051
 20
625.863037
 10
322.033051
 20
625.975281
 10
322.033051
 20
626.164368
 10
322.033051
 20
626.431335
 10
322.033051
 20
626.776489
 10
322.033051
 20
627.199463
 10
322.033051
 20
627.699341
 10
322.033051
 20
628.274353
 10
322.033051
 20
628.922119
 10
322.033051
 20
629.639709
 10
322.033051
 20
630.423462
 10
322.033051
 20
631.269348
 10
322.033051
 20
632.172729
 10
322.033051
 20
633.128662
 10
322.033051
 20
634.131958
 10
322.033051
 20
635.177002
 10
322.033051
 20
636.258362
 10
322.033051
 20
637.370239
 10
322.033051
 20
638.507019
 10
322.033051
 20
639.663269
 10
322.033051
 20
640.833557
 10
322.033051
 20
642.012756
 10
322.033051
 20
643.196045
 10
322.033051
 20
644.390076
 10
322.033051
 20
645.623962
 10
322.033051
 20
646.897095
 10
322.033051
 20
648.206482
 10
322.033051
 20
649.548645
 10
322.033051
 20
650.919556
 10
322.033051
 20
652.314819
 10
322.033051
 20
653.729431
 10
322.033051
 20
655.158142
 10
322.033051
 20
656.595276
 10
322.033051
 20
658.034912
 10
322.033051
 20
659.470825
 10
322.033051
 20
660.896729
 10
322.033051
 20
662.306274
 10
322.033051
 20
663.693176
 10
322.033051
 20
665.05127
 10
322.033051
 20
666.374573
 10
322.033051
 20
667.657532
 10
322.033051
 20
668.894836
 10
322.033051
 20
670.081787
 10
322.033051
 20
671.214111
 10
322.033051
 20
672.288086
 10
322.033051
 20
673.30072
 10
322.033051
 20
674.249512
 10
322.033051
 20
675.132568
 10
322.033051
 20
675.94873
 10
322.033051
 20
676.697388
 10
322.033051
 20
677.378418
 10
322.033051
 20
677.99231
 10
322.033051
 20
678.540039
 10
322.033051
 20
679.02832
  0
LINE
  5
169
330
165
100
AcDbEntity
  8
0
  6
Continuous
 62
     0
370
    30
100
AcDbLine
 10
322.033042
 20
679.028334
 30
0.0
 11
322.033043
 21
680.826084
 31
0.0
  0
LWPOLYLINE
  5
16A
330
165
100
AcDbEntity
  8
0
  6
Continuous
 62
     0
370
    30
100
AcDbPolyline
 90
       46
 70
     0
 43
0.0
 10
291.033051
 20
637.326111
 10
291.033051
 20
637.36499
 10
291.033051
 20
637.48175
 10
291.033051
 20
637.675537
 10
291.033051
 20
637.945312
 10
291.033051
 20
638.290222
 10
291.033051
 20
638.708496
 10
291.033051
 20
639.197815
 10
291.033051
 20
639.755615
 10
291.033051
 20
640.379517
 10
291.033051
 20
641.066772
 10
291.033051
 20
641.813721
 10
291.033051
 20
642.616516
 10
291.033051
 20
643.471375
 10
291.033051
 20
644.374268
 10
291.033051
 20
645.320984
 10
291.033051
 20
646.306519
 10
291.033051
 20
647.326172
 10
291.033051
 20
648.374939
 10
291.033051
 20
649.447998
 10
291.033051
 20
650.539917
 10
291.033051
 20
651.645386
 10
291.033051
 20
652.758972
 10
291.033051
 20
653.875305
 10
291.033051
 20
654.989014
 10
291.033051
 20
656.094666
 10
291.033051
 20
657.186829
 10
291.033051
 20
658.260193
 10
291.033051
 20
659.309448
 10
291.033051
 20
660.329529
 10
291.033051
 20
661.315735
 10
291.033051
 20
662.263062
 10
291.033051
 20
663.166687
 10
291.033051
 20
664.022339
 10
291.033051
 20
664.82605
 10
291.033051
 20
665.573914
 10
291.033051
 20
666.262146
 10
291.033051
 20
666.887085
 10
291.033051
 20
667.445984
 10
291.033051
 20
667.936401
 10
291.033051
 20
668.355835
 10
291.033051
 20
668.701904
 10
291.033051
 20
668.9729
 10
291.033051
 20
669.167908
 10
291.033051
 20
669.285889
 10
291.033051
 20
669.326111
  0
LINE
  5
16B
330
165
100
AcDbEntity
  8
0
  6
Continuous
 62
     0
370
    30
100
AcDbLine
 10
291.033044
 20
637.326081
 30
0.0
 11
318.033057
 21
637.326084
 31
0.0
  0
LINE
  5
16C
330
165
100
AcDbEntity
  8
0
  6
Continuous
 62
     0
370
    30
100
AcDbLine
 10
291.033042
 20
659.076083
 30
0.0
 11
286.133041
 21
659.076083
 31
0.0
  0
LWPOLYLINE
  5
16D
330
165
100
AcDbEntity
  8
0
  6
Continuous
 62
     0
370
    30
100
AcDbPolyline
 90
       38
 70
     0
 43
0.0
 10
286.133057
 20
664.326111
 10
286.133026
 20
664.286499
 10
286.133026
 20
664.167847
 10
286.133026
 20
663.971375
 10
286.133026
 20
663.698059
 10
286.133026
 20
663.349915
 10
286.133026
 20
662.929688
 10
286.133026
 20
662.440491
 10
286.133026
 20
661.885498
 10
286.133026
 20
661.268677
 10
286.133026
 20
660.594849
 10
286.133026
 20
659.868774
 10
286.133026
 20
659.095398
 10
286.133026
 20
658.280396
 10
286.133026
 20
657.429871
 10
286.133026
 20
656.549866
 10
286.133026
 20
655.646484
 10
286.133026
 20
654.726379
 10
286.133026
 20
653.796265
 10
286.133026
 20
652.862793
 10
286.133026
 20
651.932617
 10
286.133026
 20
651.01239
 10
286.133026
 20
650.108887
 10
286.133026
 20
649.228638
 10
286.133026
 20
648.377869
 10
286.133026
 20
647.562622
 10
286.133026
 20
646.78894
 10
286.133026
 20
646.0625
 10
286.133026
 20
645.388245
 10
286.133026
 20
644.770996
 10
286.133026
 20
644.215515
 10
286.133026
 20
643.72583
 10
286.133026
 20
643.305115
 10
286.133026
 20
642.95636
 10
286.133026
 20
642.682556
 10
286.133026
 20
642.485474
 10
286.133026
 20
642.366272
 10
286.133057
 20
642.326111
  0
LINE
  5
16E
330
165
100
AcDbEntity
  8
0
  6
Continuous
 62
     0
370
    30
100
AcDbLine
 10
255.633041
 20
664.326083
 30
0.0
 11
259.533041
 21
664.326083
 31
0.0
  0
LINE
  5
16F
330
165
100
AcDbEntity
  8
0
  6
Continuous
 62
     0
370
    30
100
AcDbLine
 10
266.733041
 20
664.326083
 30
0.0
 11
286.133041
 21
664.326083
 31
0.0
  0
LWPOLYLINE
  5
170
330
165
100
AcDbEntity
  8
0
  6
Continuous
 62
     0
370
     0
100
AcDbPolyline
 90
       24
 70
     0
 43
0.0
 10
266.733032
 20
664.326111
 10
266.699921
 20
664.314941
 10
266.59726
 20
664.282715
 10
266.432312
 20
664.231506
 10
266.208466
 20
664.165344
 10
265.927002
 20
664.089111
 10
265.594177
 20
664.008057
 10
265.218201
 20
663.92749
 10
264.80249
 20
663.853516
 10
264.352661
 20
663.791748
 10
263.878143
 20
663.74707
 10
263.38855
 20
663.723755
 10
262.893768
 20
663.723389
 10
262.40387
 20
663.745911
 10
261.92868
 20
663.789978
 10
261.477905
 20
663.851257
 10
261.060944
 20
663.924927
 10
260.683594
 20
664.005371
 10
260.349274
 20
664.086487
 10
260.06604
 20
664.162964
 10
259.84024
 20
664.229553
 10
259.673309
 20
664.281311
 10
259.56842
 20
664.314209
 10
259.533051
 20
664.326111
  0
LINE
  5
171
330
165
100
AcDbEntity
  8
0
  6
Continuous
 62
     0
370
    30
100
AcDbLine
 10
255.633041
 20
664.326083
 30
0.0
 11
255.633041
 21
642.326083
 31
0.0
  0
LWPOLYLINE
  5
172
330
165
100
AcDbEntity
  8
0
  6
Continuous
 62
     0
370
     0
100
AcDbPolyline
 90
       24
 70
     0
 43
0.0
 10
259.533051
 20
642.326111
 10
259.566101
 20
642.33728
 10
259.668854
 20
642.369446
 10
259.833862
 20
642.420654
 10
260.05777
 20
642.486877
 10
260.339233
 20
642.56311
 10
260.672058
 20
642.644165
 10
261.048157
 20
642.724731
 10
261.463928
 20
642.798706
 10
261.913788
 20
642.860413
 10
262.388367
 20
642.905151
 10
262.877991
 20
642.928406
 10
263.372772
 20
642.928772
 10
263.862732
 20
642.906189
 10
264.337952
 20
642.862122
 10
264.788757
 20
642.800842
 10
265.205688
 20
642.727173
 10
265.582977
 20
642.646729
 10
265.917297
 20
642.565552
 10
266.2005
 20
642.489136
 10
266.426239
 20
642.422485
 10
266.593079
 20
642.370789
 10
266.697815
 20
642.337952
 10
266.733032
 20
642.326111
  0
LWPOLYLINE
  5
173
330
165
100
AcDbEntity
  8
0
  6
Continuous
 62
     0
370
     0
100
AcDbPolyline
 90
       23
 70
     0
 43
0.0
 10
259.533051
 20
653.326111
 10
259.569427
 20
653.840881
 10
259.681702
 20
654.345764
 10
259.861633
 20
654.827881
 10
260.105957
 20
655.276917
 10
260.412537
 20
655.68396
 10
260.773132
 20
656.043396
 10
261.179596
 20
656.349915
 10
261.628204
 20
656.596558
 10
262.110443
 20
656.777649
 10
262.615326
 20
656.888428
 10
263.131683
 20
656.925598
 10
263.648102
 20
656.888733
 10
264.153076
 20
656.778381
 10
264.635498
 20
656.597717
 10
265.08432
 20
656.35144
 10
265.490967
 20
656.045166
 10
265.851807
 20
655.685974
 10
266.158752
 20
655.279236
 10
266.403381
 20
654.830383
 10
266.583649
 20
654.348389
 10
266.696289
 20
653.843567
 10
266.733032
 20
653.325256
  0
LWPOLYLINE
  5
174
330
165
100
AcDbEntity
  8
0
  6
Continuous
 62
     0
370
     0
100
AcDbPolyline
 90
       23
 70
     0
 43
0.0
 10
266.733032
 20
653.325256
 10
266.696594
 20
652.810547
 10
266.584259
 20
652.305786
 10
266.404266
 20
651.82373
 10
266.159912
 20
651.374817
 10
265.853271
 20
650.967896
 10
265.492737
 20
650.608582
 10
265.086334
 20
650.302063
 10
264.637787
 20
650.055542
 10
264.155609
 20
649.874512
 10
263.650757
 20
649.763794
 10
263.134491
 20
649.726624
 10
262.618164
 20
649.763367
 10
262.113251
 20
649.873718
 10
261.63089
 20
650.054321
 10
261.182129
 20
650.300537
 10
260.775482
 20
650.606689
 10
260.414673
 20
650.965759
 10
260.107758
 20
651.372437
 10
259.863037
 20
651.821167
 10
259.682709
 20
652.30304
 10
259.569946
 20
652.807739
 10
259.533051
 20
653.326111
  0
ARC
  5
175
330
165
100
AcDbEntity
  8
0
  6
Continuous
 62
     0
370
    30
100
AcDbCircle
 10
268.733015
 20
629.724884
 30
0.0
 40
12.63872873023561
100
AcDbArc
 50
85.583477
 51
94.416523
  0
LWPOLYLINE
  5
176
330
165
100
AcDbEntity
  8
0
  6
Continuous
 62
     0
370
    30
100
AcDbPolyline
 90
       23
 70
     0
 43
0.0
 10
266.633026
 20
642.326111
 10
266.597046
 20
642.337524
 10
266.490143
 20
642.370728
 10
266.315155
 20
642.423096
 10
266.076416
 20
642.490356
 10
265.779114
 20
642.567261
 10
265.429108
 20
642.64801
 10
265.032745
 20
642.726135
 10
264.597107
 20
642.795471
 10
264.130157
 20
642.85022
 10
263.641205
 20
642.885376
 10
263.140839
 20
642.897766
 10
262.640259
 20
642.886108
 10
262.150757
 20
642.851624
 10
261.683167
 20
642.797363
 10
261.246674
 20
642.728271
 10
260.848785
 20
642.650391
 10
260.497009
 20
642.569763
 10
260.198029
 20
642.492615
 10
259.957397
 20
642.424988
 10
259.780365
 20
642.37207
 10
259.671295
 20
642.338196
 10
259.633057
 20
642.326111
  0
LWPOLYLINE
  5
177
330
165
100
AcDbEntity
  8
0
  6
Continuous
 62
     0
370
    30
100
AcDbPolyline
 90
       19
 70
     0
 43
0.0
 10
259.633026
 20
664.326111
 10
259.669434
 20
664.314453
 10
259.777222
 20
664.280884
 10
259.953156
 20
664.228455
 10
260.193512
 20
664.160767
 10
260.492798
 20
664.083374
 10
260.844879
 20
664.002502
 10
261.243591
 20
663.924194
 10
261.681702
 20
663.854919
 10
262.151062
 20
663.800537
 10
262.642242
 20
663.765991
 10
263.144562
 20
663.754456
 10
263.646637
 20
663.767029
 10
264.137024
 20
663.802673
 10
264.605164
 20
663.857788
 10
265.041595
 20
663.927612
 10
265.438263
 20
664.006165
 10
265.78833
 20
664.087158
 10
266.090759
 20
664.16571
  0
LWPOLYLINE
  5
178
330
165
100
AcDbEntity
  8
0
  6
Continuous
 62
     0
370
    30
100
AcDbPolyline
 90
        5
 70
     0
 43
0.0
 10
266.090759
 20
664.16571
 10
266.320587
 20
664.230713
 10
266.48996
 20
664.281311
 10
266.594971
 20
664.313965
 10
266.633057
 20
664.326111
  0
LINE
  5
179
330
165
100
AcDbEntity
  8
0
  6
Continuous
 62
     0
370
    30
100
AcDbLine
 10
266.633014
 20
618.226079
 30
0.0
 11
262.451312
 21
618.226079
 31
0.0
  0
LINE
  5
17A
330
165
100
AcDbEntity
  8
0
  6
Continuous
 62
     0
370
    30
100
AcDbLine
 10
262.451312
 20
618.226079
 30
0.0
 11
259.633076
 21
618.226079
 31
0.0
  0
ARC
  5
17B
330
165
100
AcDbEntity
  8
0
  6
Continuous
 62
     0
370
    30
100
AcDbCircle
 10
263.133084
 20
653.326106
 30
0.0
 40
3.500000000324051
100
AcDbArc
 50
301.467639
 51
121.469198
  0
ARC
  5
17C
330
165
100
AcDbEntity
  8
0
  6
Continuous
 62
     0
370
    30
100
AcDbCircle
 10
263.133003
 20
653.326056
 30
0.0
 40
3.500000000324044
100
AcDbArc
 50
121.467639
 51
301.469198
  0
LINE
  5
17D
330
165
100
AcDbEntity
  8
0
  6
Continuous
 62
     0
370
    30
100
AcDbLine
 10
266.090761
 20
688.426114
 30
0.0
 11
266.633055
 21
688.426114
 31
0.0
  0
LWPOLYLINE
  5
17E
330
165
100
AcDbEntity
  8
0
  6
Continuous
 62
     0
370
    30
100
AcDbPolyline
 90
       19
 70
     0
 43
0.0
 10
259.633026
 20
688.426086
 10
259.668762
 20
688.426086
 10
259.774933
 20
688.426086
 10
259.949371
 20
688.426086
 10
260.188599
 20
688.426086
 10
260.487579
 20
688.426086
 10
260.840515
 20
688.426086
 10
261.239929
 20
688.426086
 10
261.677917
 20
688.426086
 10
262.145447
 20
688.426086
 10
262.633087
 20
688.426086
 10
263.13089
 20
688.426086
 10
263.628723
 20
688.426086
 10
264.116516
 20
688.426086
 10
264.58429
 20
688.426086
 10
265.022522
 20
688.426086
 10
265.422394
 20
688.426086
 10
265.775635
 20
688.426086
 10
266.090759
 20
688.426086
  0
LINE
  5
17F
330
165
100
AcDbEntity
  8
0
  6
Continuous
 62
     0
370
    30
100
AcDbLine
 10
266.633045
 20
688.426114
 30
0.0
 11
266.633045
 21
664.326036
 31
0.0
  0
LINE
  5
180
330
165
100
AcDbEntity
  8
0
  6
Continuous
 62
     0
370
    30
100
AcDbLine
 10
259.633045
 20
664.326041
 30
0.0
 11
259.633045
 21
688.426114
 31
0.0
  0
LINE
  5
181
330
165
100
AcDbEntity
  8
0
  6
Continuous
 62
     0
370
    30
100
AcDbLine
 10
266.633045
 20
618.226079
 30
0.0
 11
266.633045
 21
642.326085
 31
0.0
  0
LINE
  5
182
330
165
100
AcDbEntity
  8
0
  6
Continuous
 62
     0
370
    30
100
AcDbLine
 10
259.633045
 20
642.326083
 30
0.0
 11
259.633045
 21
618.226079
 31
0.0
  0
LINE
  5
183
330
165
100
AcDbEntity
  8
0
  6
Continuous
 62
     0
370
    30
100
AcDbLine
 10
259.533041
 20
664.326083
 30
0.0
 11
259.633237
 21
664.326083
 31
0.0
  0
LINE
  5
184
330
165
100
AcDbEntity
  8
0
  6
Continuous
 62
     0
370
    30
100
AcDbLine
 10
266.733041
 20
664.326083
 30
0.0
 11
266.632784
 21
664.326083
 31
0.0
  0
LINE
  5
185
330
165
100
AcDbEntity
  8
0
  6
Continuous
 62
     0
370
    30
100
AcDbLine
 10
259.533041
 20
642.326083
 30
0.0
 11
259.633225
 21
642.326083
 31
0.0
  0
LINE
  5
186
330
165
100
AcDbEntity
  8
0
  6
Continuous
 62
     0
370
    30
100
AcDbLine
 10
286.133041
 20
642.326083
 30
0.0
 11
269.70628
 21
642.326083
 31
0.0
  0
LINE
  5
187
330
165
100
AcDbEntity
  8
0
  6
Continuous
 62
     0
370
    30
100
AcDbLine
 10
255.633041
 20
642.326083
 30
0.0
 11
259.533041
 21
642.326083
 31
0.0
  0
LINE
  5
188
330
165
100
AcDbEntity
  8
0
  6
Continuous
 62
     0
370
    30
100
AcDbLine
 10
266.733049
 20
642.326083
 30
0.0
 11
267.75975
 21
642.326083
 31
0.0
  0
LINE
  5
189
330
165
100
AcDbEntity
  8
0
  6
Continuous
 62
     0
370
    30
100
AcDbLine
 10
286.133041
 20
647.576083
 30
0.0
 11
291.033042
 21
647.576083
 31
0.0
  0
LINE
  5
18A
330
165
100
AcDbEntity
  8
0
  6
Continuous
 62
     0
370
    30
100
AcDbLine
 10
291.033041
 20
669.326081
 30
0.0
 11
318.033054
 21
669.326084
 31
0.0
  0
LINE
  5
18B
330
165
100
AcDbEntity
  8
0
  6
Continuous
 62
     0
370
    30
100
AcDbLine
 10
318.033043
 20
680.826084
 30
0.0
 11
322.033043
 21
680.826084
 31
0.0
  0
LINE
  5
18C
330
165
100
AcDbEntity
  8
0
  6
Continuous
 62
     0
370
    30
100
AcDbLine
 10
318.033043
 20
625.826084
 30
0.0
 11
322.033043
 21
625.826084
 31
0.0
  0
LWPOLYLINE
  5
18D
330
165
100
AcDbEntity
  8
0
  6
Continuous
 62
     0
370
    30
100
AcDbPolyline
 90
       84
 70
     0
 43
0.0
 10
322.033051
 20
588.327576
 10
322.033051
 20
588.288452
 10
322.033051
 20
588.170166
 10
322.033051
 20
587.973267
 10
322.033051
 20
587.698181
 10
322.033051
 20
587.34552
 10
322.033051
 20
586.91571
 10
322.033051
 20
586.40918
 10
322.033051
 20
585.826599
 10
322.033051
 20
585.168335
 10
322.033051
 20
584.435608
 10
322.033051
 20
583.629639
 10
322.033051
 20
582.751831
 10
322.033051
 20
581.803528
 10
322.033051
 20
580.786072
 10
322.033051
 20
579.700806
 10
322.033051
 20
578.549072
 10
322.033051
 20
577.332336
 10
322.033051
 20
576.052124
 10
322.033051
 20
574.710632
 10
322.033051
 20
573.309937
 10
322.033051
 20
571.852234
 10
322.033051
 20
570.339478
 10
322.033051
 20
568.773926
 10
322.033051
 20
567.157715
 10
322.033051
 20
565.492859
 10
322.033051
 20
563.781616
 10
322.033051
 20
562.026672
 10
322.033051
 20
560.230652
 10
322.033051
 20
558.396179
 10
322.033051
 20
556.52594
 10
322.033051
 20
554.62262
 10
322.033051
 20
552.688904
 10
322.033051
 20
550.727417
 10
322.033051
 20
548.740845
 10
322.033051
 20
546.732117
 10
322.033051
 20
544.704102
 10
322.033051
 20
542.659851
 10
322.033051
 20
540.602295
 10
322.033051
 20
538.534302
 10
322.033051
 20
536.458984
 10
322.033051
 20
534.37915
 10
322.033051
 20
532.297852
 10
322.033051
 20
530.218018
 10
322.033051
 20
528.142578
 10
322.033051
 20
526.074524
 10
322.033051
 20
524.016846
 10
322.033051
 20
521.972412
 10
322.033051
 20
519.944214
 10
322.033051
 20
517.935242
 10
322.033051
 20
515.948486
 10
322.033051
 20
513.986694
 10
322.033051
 20
512.052673
 10
322.033051
 20
510.149017
 10
322.033051
 20
508.278442
 10
322.033051
 20
506.443573
 10
322.033051
 20
504.647095
 10
322.033051
 20
502.891693
 10
322.033051
 20
501.180023
 10
322.033051
 20
499.514679
 10
322.033051
 20
497.897888
 10
322.033051
 20
496.331818
 10
322.033051
 20
494.818542
 10
322.033051
 20
493.360168
 10
322.033051
 20
491.958893
 10
322.033051
 20
490.61676
 10
322.033051
 20
489.335907
 10
322.033051
 20
488.118469
 10
322.033051
 20
486.966095
 10
322.033051
 20
485.880127
 10
322.033051
 20
484.861969
 10
322.033051
 20
483.912903
 10
322.033051
 20
483.034332
 10
322.033051
 20
482.227631
 10
322.033051
 20
481.49408
 10
322.033051
 20
480.835052
 10
322.033051
 20
480.251648
 10
322.033051
 20
479.744354
 10
322.033051
 20
479.313721
 10
322.033051
 20
478.960205
 10
322.033051
 20
478.684357
 10
322.033051
 20
478.486603
 10
322.033051
 20
478.367523
 10
322.033051
 20
478.327545
  0
LINE
  5
18E
330
165
100
AcDbEntity
  8
0
  6
Continuous
 62
     0
370
    30
100
AcDbLine
 10
322.033058
 20
478.327557
 30
0.0
 11
318.033058
 21
478.327557
 31
0.0
  0
LINE
  5
18F
330
165
100
AcDbEntity
  8
0
  6
Continuous
 62
     0
370
    30
100
AcDbLine
 10
318.033058
 20
588.327557
 30
0.0
 11
318.033058
 21
478.327557
 31
0.0
  0
LWPOLYLINE
  5
190
330
165
100
AcDbEntity
  8
0
  6
Continuous
 62
     0
370
    30
100
AcDbPolyline
 90
       53
 70
     0
 43
0.0
 10
265.833069
 20
511.327545
 10
265.833069
 20
511.367615
 10
265.833069
 20
511.488037
 10
265.833069
 20
511.688019
 10
265.833069
 20
511.966736
 10
265.833069
 20
512.323364
 10
265.833069
 20
512.757019
 10
265.833069
 20
513.265869
 10
265.833069
 20
513.847717
 10
265.833069
 20
514.500305
 10
265.833069
 20
515.221558
 10
265.833069
 20
516.009155
 10
265.833069
 20
516.860168
 10
265.833069
 20
517.771179
 10
265.833069
 20
518.738708
 10
265.833069
 20
519.759399
 10
265.833069
 20
520.829651
 10
265.833069
 20
521.945801
 10
265.833069
 20
523.103394
 10
265.833069
 20
524.298218
 10
265.833069
 20
525.525818
 10
265.833069
 20
526.781921
 10
265.833069
 20
528.062073
 10
265.833069
 20
529.36145
 10
265.833069
 20
530.675293
 10
265.833069
 20
531.998718
 10
265.833069
 20
533.326965
 10
265.833069
 20
534.655212
 10
265.833069
 20
535.978638
 10
265.833069
 20
537.29248
 10
265.833069
 20
538.591858
 10
265.833069
 20
539.872009
 10
265.833069
 20
541.128174
 10
265.833069
 20
542.355835
 10
265.833069
 20
543.550659
 10
265.833069
 20
544.708313
 10
265.833069
 20
545.824463
 10
265.833069
 20
546.894775
 10
265.833069
 20
547.915527
 10
265.833069
 20
548.883118
 10
265.833069
 20
549.794189
 10
265.833069
 20
550.645264
 10
265.833069
 20
551.432861
 10
265.833069
 20
552.154175
 10
265.833069
 20
552.806885
 10
265.833069
 20
553.388733
 10
265.833069
 20
553.897644
 10
265.833069
 20
554.33136
 10
265.833069
 20
554.68811
 10
265.833069
 20
554.966858
 10
265.833069
 20
555.166931
 10
265.833069
 20
555.287415
 10
265.833069
 20
555.327576
  0
LINE
  5
191
330
165
100
AcDbEntity
  8
0
  6
Continuous
 62
     0
370
    30
100
AcDbLine
 10
265.833057
 20
555.327566
 30
0.0
 11
271.283038
 21
555.327566
 31
0.0
  0
LINE
  5
192
330
165
100
AcDbEntity
  8
0
  6
Continuous
 62
     0
370
    30
100
AcDbLine
 10
278.383038
 20
555.327566
 30
0.0
 11
315.833057
 21
555.327566
 31
0.0
  0
LINE
  5
193
330
165
100
AcDbEntity
  8
0
  6
Continuous
 62
     0
370
    30
100
AcDbLine
 10
315.833057
 20
511.327547
 30
0.0
 11
315.833057
 21
555.327566
 31
0.0
  0
LWPOLYLINE
  5
194
330
165
100
AcDbEntity
  8
0
  6
Continuous
 62
     0
370
     0
100
AcDbPolyline
 90
       23
 70
     0
 43
0.0
 10
278.383026
 20
555.327576
 10
278.346985
 20
555.321777
 10
278.238922
 20
555.304871
 10
278.062073
 20
555.278198
 10
277.822205
 20
555.243896
 10
277.520203
 20
555.204773
 10
277.161713
 20
555.164062
 10
276.758881
 20
555.124512
 10
276.316772
 20
555.089783
 10
275.843262
 20
555.062744
 10
275.349121
 20
555.045471
 10
274.844452
 20
555.039185
 10
274.339539
 20
555.044922
 10
273.844727
 20
555.061768
 10
273.370148
 20
555.08844
 10
272.926392
 20
555.122864
 10
272.521637
 20
555.162231
 10
272.16095
 20
555.203003
 10
271.856171
 20
555.242188
 10
271.613464
 20
555.276855
 10
271.433594
 20
555.303833
 10
271.322296
 20
555.321228
 10
271.283051
 20
555.327576
  0
LWPOLYLINE
  5
195
330
165
100
AcDbEntity
  8
0
  6
Continuous
 62
     0
370
     0
100
AcDbPolyline
 90
       18
 70
     0
 43
0.0
 10
272.683044
 20
511.327545
 10
272.720306
 20
511.331116
 10
272.82843
 20
511.341217
 10
273.003296
 20
511.356628
 10
273.241455
 20
511.375061
 10
273.533081
 20
511.394226
 10
273.867493
 20
511.41156
 10
274.236603
 20
511.424683
 10
274.626129
 20
511.431824
 10
275.022217
 20
511.431976
 10
275.412415
 20
511.42514
 10
275.782806
 20
511.412292
 10
276.118866
 20
511.39505
 10
276.412537
 20
511.375916
 10
276.653473
 20
511.357422
 10
276.831146
 20
511.341827
 10
276.942261
 20
511.331451
 10
276.983032
 20
511.327545
  0
LINE
  5
196
330
165
100
AcDbEntity
  8
0
  6
Continuous
 62
     0
370
    30
100
AcDbLine
 10
278.333038
 20
562.977566
 30
0.0
 11
271.333038
 21
562.977566
 31
0.0
  0
LINE
  5
197
330
165
100
AcDbEntity
  8
0
  6
Continuous
 62
     0
370
    30
100
AcDbLine
 10
271.533038
 20
563.177566
 30
0.0
 11
271.333038
 21
562.977566
 31
0.0
  0
LINE
  5
198
330
165
100
AcDbEntity
  8
0
  6
Continuous
 62
     0
370
    30
100
AcDbLine
 10
278.133038
 20
563.177566
 30
0.0
 11
271.533038
 21
563.177566
 31
0.0
  0
LINE
  5
199
330
165
100
AcDbEntity
  8
0
  6
Continuous
 62
     0
370
    30
100
AcDbLine
 10
271.333038
 20
555.327533
 30
0.0
 11
271.333038
 21
562.977566
 31
0.0
  0
LWPOLYLINE
  5
19A
330
165
100
AcDbEntity
  8
0
  6
Continuous
 62
     0
370
    30
100
AcDbPolyline
 90
       22
 70
     0
 43
0.0
 10
271.333038
 20
555.327515
 10
271.372223
 20
555.32135
 10
271.488922
 20
555.303223
 10
271.680054
 20
555.275024
 10
271.941437
 20
555.239014
 10
272.266998
 20
555.198425
 10
272.649658
 20
555.156799
 10
273.081177
 20
555.117981
 10
273.552185
 20
555.085327
 10
274.051941
 20
555.061462
 10
274.569519
 20
555.049072
 10
275.093323
 20
555.049133
 10
275.611176
 20
555.06134
 10
276.110962
 20
555.085022
 10
276.58197
 20
555.117859
 10
277.013916
 20
555.156616
 10
277.396912
 20
555.19812
 10
277.72287
 20
555.23877
 10
277.98468
 20
555.274841
 10
278.176117
 20
555.30304
 10
278.293152
 20
555.321106
 10
278.333038
 20
555.327515
  0
LINE
  5
19B
330
165
100
AcDbEntity
  8
0
  6
Continuous
 62
     0
370
    30
100
AcDbLine
 10
278.333038
 20
562.977566
 30
0.0
 11
278.133038
 21
563.177566
 31
0.0
  0
LINE
  5
19C
330
165
100
AcDbEntity
  8
0
  6
Continuous
 62
     0
370
    30
100
AcDbLine
 10
278.333038
 20
562.977566
 30
0.0
 11
278.333038
 21
555.327533
 31
0.0
  0
LWPOLYLINE
  5
19D
330
165
100
AcDbEntity
  8
0
  6
Continuous
 62
     0
370
    30
100
AcDbPolyline
 90
        3
 70
     0
 43
0.0
 10
272.683044
 20
511.327545
 10
274.771606
 20
511.315887
 10
276.983032
 20
511.327545
  0
LINE
  5
19E
330
165
100
AcDbEntity
  8
0
  6
Continuous
 62
     0
370
    30
100
AcDbLine
 10
278.383038
 20
555.327566
 30
0.0
 11
278.333037
 21
555.327533
 31
0.0
  0
LINE
  5
19F
330
165
100
AcDbEntity
  8
0
  6
Continuous
 62
     0
370
    30
100
AcDbLine
 10
271.283038
 20
555.327566
 30
0.0
 11
271.333038
 21
555.327533
 31
0.0
  0
LINE
  5
1A0
330
165
100
AcDbEntity
  8
0
  6
Continuous
 62
     0
370
    30
100
AcDbLine
 10
265.833057
 20
511.327547
 30
0.0
 11
272.683057
 21
511.327547
 31
0.0
  0
LINE
  5
1A1
330
165
100
AcDbEntity
  8
0
  6
Continuous
 62
     0
370
    30
100
AcDbLine
 10
315.833057
 20
511.327547
 30
0.0
 11
276.98303
 21
511.327547
 31
0.0
  0
LINE
  5
1A2
330
165
100
AcDbEntity
  8
0
  6
Continuous
 62
     0
370
    30
100
AcDbLine
 10
318.033058
 20
513.427557
 30
0.0
 11
315.833057
 21
513.427557
 31
0.0
  0
LINE
  5
1A3
330
165
100
AcDbEntity
  8
0
  6
Continuous
 62
     0
370
    30
100
AcDbLine
 10
315.833057
 20
553.227557
 30
0.0
 11
318.033058
 21
553.227557
 31
0.0
  0
LINE
  5
1A4
330
165
100
AcDbEntity
  8
0
  6
Continuous
 62
     0
370
    30
100
AcDbLine
 10
318.033058
 20
588.327557
 30
0.0
 11
322.033058
 21
588.327557
 31
0.0
  0
LWPOLYLINE
  5
1A5
330
165
100
AcDbEntity
  8
0
  6
Continuous
 62
     0
370
    30
100
AcDbPolyline
 90
        9
 70
     0
 43
0.0
 10
318.03299
 20
780.825623
 10
318.03299
 20
780.795654
 10
318.03299
 20
780.707153
 10
318.03299
 20
780.562317
 10
318.03299
 20
780.36377
 10
318.03299
 20
780.114319
 10
318.03299
 20
779.816895
 10
318.03299
 20
779.474487
 10
318.03299
 20
779.027893
  0
LINE
  5
1A6
330
165
100
AcDbEntity
  8
0
  6
Continuous
 62
     0
370
    30
100
AcDbLine
 10
318.033
 20
779.027896
 30
0.0
 11
318.033
 21
725.825647
 31
0.0
  0
LWPOLYLINE
  5
1A7
330
165
100
AcDbEntity
  8
0
  6
Continuous
 62
     0
370
    30
100
AcDbPolyline
 90
       55
 70
     0
 43
0.0
 10
322.03299
 20
725.825623
 10
322.03299
 20
725.86261
 10
322.03299
 20
725.974854
 10
322.03299
 20
726.16394
 10
322.03299
 20
726.430908
 10
322.03299
 20
726.776001
 10
322.03299
 20
727.199036
 10
322.03299
 20
727.698914
 10
322.03299
 20
728.273926
 10
322.03299
 20
728.921692
 10
322.03299
 20
729.639282
 10
322.03299
 20
730.423035
 10
322.03299
 20
731.268921
 10
322.03299
 20
732.172302
 10
322.03299
 20
733.128235
 10
322.03299
 20
734.13147
 10
322.03299
 20
735.176575
 10
322.03299
 20
736.257874
 10
322.03299
 20
737.369751
 10
322.03299
 20
738.506592
 10
322.03299
 20
739.662842
 10
322.03299
 20
740.83313
 10
322.03299
 20
742.012329
 10
322.03299
 20
743.195557
 10
322.03299
 20
744.389648
 10
322.03299
 20
745.623474
 10
322.03299
 20
746.896606
 10
322.03299
 20
748.206055
 10
322.03299
 20
749.548218
 10
322.03299
 20
750.919128
 10
322.03299
 20
752.314392
 10
322.03299
 20
753.729004
 10
322.03299
 20
755.157715
 10
322.03299
 20
756.594849
 10
322.03299
 20
758.034485
 10
322.03299
 20
759.470398
 10
322.03299
 20
760.896301
 10
322.03299
 20
762.305847
 10
322.03299
 20
763.692749
 10
322.03299
 20
765.050842
 10
322.03299
 20
766.374146
 10
322.03299
 20
767.657104
 10
322.03299
 20
768.894409
 10
322.03299
 20
770.08136
 10
322.03299
 20
771.213684
 10
322.03299
 20
772.287659
 10
322.03299
 20
773.300293
 10
322.03299
 20
774.249084
 10
322.03299
 20
775.132141
 10
322.03299
 20
775.948303
 10
322.03299
 20
776.69696
 10
322.03299
 20
777.377991
 10
322.03299
 20
777.991882
 10
322.03299
 20
778.539612
 10
322.03299
 20
779.027893
  0
LINE
  5
1A8
330
165
100
AcDbEntity
  8
0
  6
Continuous
 62
     0
370
    30
100
AcDbLine
 10
322.033
 20
779.027896
 30
0.0
 11
322.033
 21
780.825647
 31
0.0
  0
LWPOLYLINE
  5
1A9
330
165
100
AcDbEntity
  8
0
  6
Continuous
 62
     0
370
    30
100
AcDbPolyline
 90
       46
 70
     0
 43
0.0
 10
291.03299
 20
737.325623
 10
291.03299
 20
737.364563
 10
291.03299
 20
737.481323
 10
291.03299
 20
737.675049
 10
291.03299
 20
737.944885
 10
291.03299
 20
738.289734
 10
291.03299
 20
738.708069
 10
291.03299
 20
739.197388
 10
291.03299
 20
739.755188
 10
291.03299
 20
740.379089
 10
291.03299
 20
741.066284
 10
291.03299
 20
741.813293
 10
291.03299
 20
742.616089
 10
291.03299
 20
743.470947
 10
291.03299
 20
744.37384
 10
291.03299
 20
745.320557
 10
291.03299
 20
746.306091
 10
291.03299
 20
747.325745
 10
291.03299
 20
748.374512
 10
291.03299
 20
749.44751
 10
291.03299
 20
750.53949
 10
291.03299
 20
751.644958
 10
291.03299
 20
752.758545
 10
291.03299
 20
753.874878
 10
291.03299
 20
754.988586
 10
291.03299
 20
756.094238
 10
291.03299
 20
757.186401
 10
291.03299
 20
758.259766
 10
291.03299
 20
759.309021
 10
291.03299
 20
760.329102
 10
291.03299
 20
761.315247
 10
291.03299
 20
762.262634
 10
291.03299
 20
763.16626
 10
291.03299
 20
764.021912
 10
291.03299
 20
764.825562
 10
291.03299
 20
765.573486
 10
291.03299
 20
766.261719
 10
291.03299
 20
766.886597
 10
291.03299
 20
767.445496
 10
291.03299
 20
767.935913
 10
291.03299
 20
768.355408
 10
291.03299
 20
768.701477
 10
291.03299
 20
768.972473
 10
291.03299
 20
769.16748
 10
291.03299
 20
769.285461
 10
291.03299
 20
769.325623
  0
LINE
  5
1AA
330
165
100
AcDbEntity
  8
0
  6
Continuous
 62
     0
370
    30
100
AcDbLine
 10
291.033002
 20
737.325644
 30
0.0
 11
318.033014
 21
737.325647
 31
0.0
  0
LINE
  5
1AB
330
165
100
AcDbEntity
  8
0
  6
Continuous
 62
     0
370
    30
100
AcDbLine
 10
291.033
 20
759.075646
 30
0.0
 11
286.132999
 21
759.075646
 31
0.0
  0
LWPOLYLINE
  5
1AC
330
165
100
AcDbEntity
  8
0
  6
Continuous
 62
     0
370
    30
100
AcDbPolyline
 90
       38
 70
     0
 43
0.0
 10
286.132996
 20
764.325623
 10
286.132996
 20
764.286011
 10
286.132996
 20
764.167419
 10
286.132996
 20
763.970886
 10
286.132996
 20
763.697632
 10
286.132996
 20
763.349426
 10
286.132996
 20
762.92926
 10
286.132996
 20
762.440063
 10
286.132996
 20
761.885071
 10
286.132996
 20
761.26825
 10
286.132996
 20
760.594421
 10
286.132996
 20
759.868347
 10
286.132996
 20
759.09491
 10
286.132996
 20
758.279968
 10
286.132996
 20
757.429443
 10
286.132996
 20
756.549377
 10
286.132996
 20
755.646057
 10
286.132996
 20
754.725952
 10
286.132996
 20
753.795837
 10
286.132996
 20
752.862305
 10
286.132996
 20
751.93219
 10
286.132996
 20
751.011963
 10
286.132996
 20
750.108459
 10
286.132996
 20
749.22821
 10
286.132996
 20
748.377441
 10
286.132996
 20
747.562195
 10
286.132996
 20
746.788513
 10
286.132996
 20
746.062012
 10
286.132996
 20
745.387817
 10
286.132996
 20
744.770569
 10
286.132996
 20
744.215088
 10
286.132996
 20
743.725403
 10
286.132996
 20
743.304688
 10
286.132996
 20
742.955933
 10
286.132996
 20
742.682129
 10
286.132996
 20
742.485046
 10
286.132996
 20
742.365845
 10
286.132996
 20
742.325623
  0
LINE
  5
1AD
330
165
100
AcDbEntity
  8
0
  6
Continuous
 62
     0
370
    30
100
AcDbLine
 10
255.632999
 20
764.325646
 30
0.0
 11
259.532999
 21
764.325646
 31
0.0
  0
LINE
  5
1AE
330
165
100
AcDbEntity
  8
0
  6
Continuous
 62
     0
370
    30
100
AcDbLine
 10
266.732999
 20
764.325646
 30
0.0
 11
286.132999
 21
764.325646
 31
0.0
  0
LWPOLYLINE
  5
1AF
330
165
100
AcDbEntity
  8
0
  6
Continuous
 62
     0
370
     0
100
AcDbPolyline
 90
       24
 70
     0
 43
0.0
 10
266.733002
 20
764.325623
 10
266.69989
 20
764.314453
 10
266.597198
 20
764.282288
 10
266.432281
 20
764.231079
 10
266.208405
 20
764.164856
 10
265.926971
 20
764.088684
 10
265.594147
 20
764.007629
 10
265.21814
 20
763.927063
 10
264.80246
 20
763.853088
 10
264.352631
 20
763.791321
 10
263.878082
 20
763.746582
 10
263.388489
 20
763.723328
 10
262.893738
 20
763.722961
 10
262.403809
 20
763.745483
 10
261.92865
 20
763.789551
 10
261.477844
 20
763.85083
 10
261.060883
 20
763.924438
 10
260.683533
 20
764.004883
 10
260.349243
 20
764.08606
 10
260.065979
 20
764.162537
 10
259.840179
 20
764.229126
 10
259.673248
 20
764.280884
 10
259.56839
 20
764.313721
 10
259.53299
 20
764.325623
  0
LINE
  5
1B0
330
165
100
AcDbEntity
  8
0
  6
Continuous
 62
     0
370
    30
100
AcDbLine
 10
255.632999
 20
764.325646
 30
0.0
 11
255.632999
 21
742.325646
 31
0.0
  0
LWPOLYLINE
  5
1B1
330
165
100
AcDbEntity
  8
0
  6
Continuous
 62
     0
370
     0
100
AcDbPolyline
 90
       24
 70
     0
 43
0.0
 10
259.53299
 20
742.325623
 10
259.566071
 20
742.336792
 10
259.668793
 20
742.369019
 10
259.833801
 20
742.420227
 10
260.057739
 20
742.48645
 10
260.339203
 20
742.562622
 10
260.672028
 20
742.643738
 10
261.048096
 20
742.724304
 10
261.463898
 20
742.798218
 10
261.913757
 20
742.859985
 10
262.388306
 20
742.904724
 10
262.87793
 20
742.927979
 10
263.372742
 20
742.928345
 10
263.862701
 20
742.905762
 10
264.337891
 20
742.861633
 10
264.788696
 20
742.800354
 10
265.205627
 20
742.726746
 10
265.582947
 20
742.64624
 10
265.917236
 20
742.565125
 10
266.20047
 20
742.488647
 10
266.426208
 20
742.422058
 10
266.593018
 20
742.370361
 10
266.697754
 20
742.337524
 10
266.733002
 20
742.325623
  0
LWPOLYLINE
  5
1B2
330
165
100
AcDbEntity
  8
0
  6
Continuous
 62
     0
370
     0
100
AcDbPolyline
 90
       23
 70
     0
 43
0.0
 10
259.53299
 20
753.325623
 10
259.569366
 20
753.840454
 10
259.681671
 20
754.345276
 10
259.861603
 20
754.827454
 10
260.105927
 20
755.276489
 10
260.412506
 20
755.683533
 10
260.773071
 20
756.042969
 10
261.179535
 20
756.349487
 10
261.628143
 20
756.596069
 10
262.110382
 20
756.777222
 10
262.615265
 20
756.888
 10
263.131622
 20
756.925171
 10
263.648041
 20
756.888306
 10
264.153046
 20
756.777893
 10
264.635468
 20
756.597229
 10
265.084259
 20
756.351013
 10
265.490936
 20
756.044678
 10
265.851746
 20
755.685547
 10
266.158691
 20
755.278748
 10
266.403351
 20
754.829956
 10
266.583618
 20
754.3479
 10
266.696228
 20
753.84314
 10
266.733002
 20
753.324829
  0
LWPOLYLINE
  5
1B3
330
165
100
AcDbEntity
  8
0
  6
Continuous
 62
     0
370
     0
100
AcDbPolyline
 90
       23
 70
     0
 43
0.0
 10
266.733002
 20
753.324829
 10
266.696533
 20
752.81012
 10
266.584198
 20
752.305359
 10
266.404236
 20
751.823242
 10
266.159851
 20
751.37439
 10
265.853241
 20
750.967468
 10
265.492676
 20
750.608154
 10
265.086304
 20
750.301636
 10
264.637756
 20
750.055115
 10
264.155548
 20
749.874084
 10
263.650726
 20
749.763367
 10
263.13443
 20
749.726196
 10
262.618103
 20
749.762939
 10
262.11319
 20
749.873291
 10
261.630859
 20
750.053894
 10
261.182068
 20
750.300049
 10
260.775421
 20
750.606262
 10
260.414612
 20
750.965332
 10
260.107697
 20
751.372009
 10
259.863007
 20
751.82074
 10
259.682648
 20
752.302612
 10
259.569916
 20
752.807251
 10
259.53299
 20
753.325623
  0
ARC
  5
1B4
330
165
100
AcDbEntity
  8
0
  6
Continuous
 62
     0
370
    30
100
AcDbCircle
 10
268.732972
 20
729.724447
 30
0.0
 40
12.63872873019698
100
AcDbArc
 50
85.583477
 51
94.416523
  0
LWPOLYLINE
  5
1B5
330
165
100
AcDbEntity
  8
0
  6
Continuous
 62
     0
370
    30
100
AcDbPolyline
 90
       23
 70
     0
 43
0.0
 10
266.632996
 20
742.325623
 10
266.597015
 20
742.337036
 10
266.490112
 20
742.3703
 10
266.315125
 20
742.422607
 10
266.076385
 20
742.489929
 10
265.779083
 20
742.566833
 10
265.429077
 20
742.647583
 10
265.032684
 20
742.725708
 10
264.597046
 20
742.795044
 10
264.130096
 20
742.849731
 10
263.641174
 20
742.884949
 10
263.140808
 20
742.897339
 10
262.640228
 20
742.885681
 10
262.150726
 20
742.851196
 10
261.683136
 20
742.796936
 10
261.246643
 20
742.727844
 10
260.848755
 20
742.649963
 10
260.496948
 20
742.569336
 10
260.197968
 20
742.492188
 10
259.957367
 20
742.4245
 10
259.780304
 20
742.371643
 10
259.671234
 20
742.337769
 10
259.633026
 20
742.325684
  0
LWPOLYLINE
  5
1B6
330
165
100
AcDbEntity
  8
0
  6
Continuous
 62
     0
370
    30
100
AcDbPolyline
 90
       19
 70
     0
 43
0.0
 10
259.632965
 20
764.325684
 10
259.669403
 20
764.314026
 10
259.777191
 20
764.280457
 10
259.953125
 20
764.228027
 10
260.193481
 20
764.160339
 10
260.492767
 20
764.082947
 10
260.844849
 20
764.002014
 10
261.24353
 20
763.923767
 10
261.681671
 20
763.854492
 10
262.151031
 20
763.80011
 10
262.642181
 20
763.765564
 10
263.144531
 20
763.753967
 10
263.646606
 20
763.766602
 10
264.136963
 20
763.802185
 10
264.605133
 20
763.857361
 10
265.041534
 20
763.927185
 10
265.438232
 20
764.005737
 10
265.788269
 20
764.086731
 10
266.090729
 20
764.165283
  0
LWPOLYLINE
  5
1B7
330
165
100
AcDbEntity
  8
0
  6
Continuous
 62
     0
370
    30
100
AcDbPolyline
 90
        5
 70
     0
 43
0.0
 10
266.090729
 20
764.165283
 10
266.320526
 20
764.230286
 10
266.489899
 20
764.280884
 10
266.59491
 20
764.313538
 10
266.632996
 20
764.325623
  0
LINE
  5
1B8
330
165
100
AcDbEntity
  8
0
  6
Continuous
 62
     0
370
    30
100
AcDbLine
 10
266.632971
 20
718.225642
 30
0.0
 11
262.451269
 21
718.225642
 31
0.0
  0
LINE
  5
1B9
330
165
100
AcDbEntity
  8
0
  6
Continuous
 62
     0
370
    30
100
AcDbLine
 10
262.451269
 20
718.225642
 30
0.0
 11
259.633034
 21
718.225642
 31
0.0
  0
ARC
  5
1BA
330
165
100
AcDbEntity
  8
0
  6
Continuous
 62
     0
370
    30
100
AcDbCircle
 10
263.133042
 20
753.325669
 30
0.0
 40
3.500000000324053
100
AcDbArc
 50
301.467639
 51
121.469198
  0
ARC
  5
1BB
330
165
100
AcDbEntity
  8
0
  6
Continuous
 62
     0
370
    30
100
AcDbCircle
 10
263.13296
 20
753.325619
 30
0.0
 40
3.500000000324038
100
AcDbArc
 50
121.467639
 51
301.469198
  0
LINE
  5
1BC
330
165
100
AcDbEntity
  8
0
  6
Continuous
 62
     0
370
    30
100
AcDbLine
 10
266.090719
 20
788.425677
 30
0.0
 11
266.633012
 21
788.425677
 31
0.0
  0
LWPOLYLINE
  5
1BD
330
165
100
AcDbEntity
  8
0
  6
Continuous
 62
     0
370
    30
100
AcDbPolyline
 90
       19
 70
     0
 43
0.0
 10
259.632996
 20
788.425659
 10
259.668732
 20
788.425659
 10
259.774902
 20
788.425659
 10
259.94931
 20
788.425659
 10
260.188568
 20
788.425659
 10
260.487549
 20
788.425659
 10
260.840454
 20
788.425659
 10
261.239868
 20
788.425659
 10
261.677887
 20
788.425659
 10
262.145416
 20
788.425659
 10
262.633057
 20
788.425659
 10
263.130859
 20
788.425659
 10
263.628693
 20
788.425659
 10
264.116486
 20
788.425659
 10
264.584229
 20
788.425659
 10
265.022461
 20
788.425659
 10
265.422363
 20
788.425659
 10
265.775604
 20
788.425659
 10
266.090729
 20
788.425659
  0
LINE
  5
1BE
330
165
100
AcDbEntity
  8
0
  6
Continuous
 62
     0
370
    30
100
AcDbLine
 10
266.633002
 20
788.425677
 30
0.0
 11
266.633002
 21
764.325599
 31
0.0
  0
LINE
  5
1BF
330
165
100
AcDbEntity
  8
0
  6
Continuous
 62
     0
370
    30
100
AcDbLine
 10
259.633002
 20
764.325603
 30
0.0
 11
259.633002
 21
788.425677
 31
0.0
  0
LINE
  5
1C0
330
165
100
AcDbEntity
  8
0
  6
Continuous
 62
     0
370
    30
100
AcDbLine
 10
266.633002
 20
718.225642
 30
0.0
 11
266.633002
 21
742.325647
 31
0.0
  0
LINE
  5
1C1
330
165
100
AcDbEntity
  8
0
  6
Continuous
 62
     0
370
    30
100
AcDbLine
 10
259.633002
 20
742.325646
 30
0.0
 11
259.633002
 21
718.225642
 31
0.0
  0
LINE
  5
1C2
330
165
100
AcDbEntity
  8
0
  6
Continuous
 62
     0
370
    30
100
AcDbLine
 10
259.532999
 20
764.325646
 30
0.0
 11
259.633194
 21
764.325646
 31
0.0
  0
LINE
  5
1C3
330
165
100
AcDbEntity
  8
0
  6
Continuous
 62
     0
370
    30
100
AcDbLine
 10
266.732999
 20
764.325646
 30
0.0
 11
266.632741
 21
764.325646
 31
0.0
  0
LINE
  5
1C4
330
165
100
AcDbEntity
  8
0
  6
Continuous
 62
     0
370
    30
100
AcDbLine
 10
259.532999
 20
742.325646
 30
0.0
 11
259.633182
 21
742.325646
 31
0.0
  0
LINE
  5
1C5
330
165
100
AcDbEntity
  8
0
  6
Continuous
 62
     0
370
    30
100
AcDbLine
 10
286.132999
 20
742.325646
 30
0.0
 11
269.706238
 21
742.325646
 31
0.0
  0
LINE
  5
1C6
330
165
100
AcDbEntity
  8
0
  6
Continuous
 62
     0
370
    30
100
AcDbLine
 10
255.632999
 20
742.325646
 30
0.0
 11
259.532999
 21
742.325646
 31
0.0
  0
LINE
  5
1C7
330
165
100
AcDbEntity
  8
0
  6
Continuous
 62
     0
370
    30
100
AcDbLine
 10
266.733006
 20
742.325646
 30
0.0
 11
267.759707
 21
742.325646
 31
0.0
  0
LINE
  5
1C8
330
165
100
AcDbEntity
  8
0
  6
Continuous
 62
     0
370
    30
100
AcDbLine
 10
286.132999
 20
747.575646
 30
0.0
 11
291.033
 21
747.575646
 31
0.0
  0
LINE
  5
1C9
330
165
100
AcDbEntity
  8
0
  6
Continuous
 62
     0
370
    30
100
AcDbLine
 10
291.032999
 20
769.325644
 30
0.0
 11
318.033011
 21
769.325647
 31
0.0
  0
LINE
  5
1CA
330
165
100
AcDbEntity
  8
0
  6
Continuous
 62
     0
370
    30
100
AcDbLine
 10
318.033
 20
780.825647
 30
0.0
 11
322.033
 21
780.825647
 31
0.0
  0
LINE
  5
1CB
330
165
100
AcDbEntity
  8
0
  6
Continuous
 62
     0
370
    30
100
AcDbLine
 10
318.033
 20
725.825647
 30
0.0
 11
322.033
 21
725.825647
 31
0.0
  0
ENDBLK
  5
1CD
330
165
100
AcDbEntity
  8
0
100
AcDbBlockEnd
  0
ENDSEC
  0
SECTION
  2
ENTITIES
  0
INSERT
  5
C2
330
1F
100
AcDbEntity
  8
0
  6
Continuous
 62
     7
370
     0
100
AcDbBlockReference
  2
a
 10
430.524506
 20
112.06427
 30
0.0
  0
INSERT
  5
FA
330
1F
100
AcDbEntity
  8
0
  6
Continuous
 62
     7
370
     0
100
AcDbBlockReference
  2
b
 10
430.524506
 20
311.542755
 30
0.0
  0
INSERT
  5
164
330
1F
100
AcDbEntity
  8
0
  6
Continuous
 62
     7
370
     0
100
AcDbBlockReference
  2
c
 10
449.839935
 20
112.06427
 30
0.0
  0
INSERT
  5
1CE
330
1F
100
AcDbEntity
  8
0
  6
Continuous
 62
     7
370
     0
100
AcDbBlockReference
  2
d
 10
367.937286
 20
0.000061
 30
0.0
  0
ENDSEC
  0
SECTION
  2
OBJECTS
  0
DICTIONARY
  5
C
330
0
100
AcDbDictionary
281
     1
  3
ACAD_GROUP
350
D
  3
ACAD_LAYOUT
350
1A
  3
ACAD_MATERIAL
350
43
  3
ACAD_MLEADERSTYLE
350
6B
  3
ACAD_MLINESTYLE
350
17
  3
ACAD_PLOTSETTINGS
350
19
  3
ACAD_PLOTSTYLENAME
350
E
  3
ACAD_SCALELIST
350
47
  3
ACAD_TABLESTYLE
350
69
  3
ACAD_VISUALSTYLE
350
2A
  3
AcDbVariableDictionary
350
1CF
  0
DICTIONARY
  5
1DA
330
8
100
AcDbDictionary
280
     1
281
     1
  3
ACAD_XREC_ROUNDTRIP
360
1DB
  0
DICTIONARY
  5
D
102
{ACAD_REACTORS
330
C
102
}
330
C
100
AcDbDictionary
281
     1
  0
DICTIONARY
  5
1A
102
{ACAD_REACTORS
330
C
102
}
330
C
100
AcDbDictionary
281
     1
  3
Layout1
350
1E
  3
Layout2
350
26
  3
Model
350
22
  0
DICTIONARY
  5
43
102
{ACAD_REACTORS
330
C
102
}
330
C
100
AcDbDictionary
281
     1
  3
ByBlock
350
45
  3
ByLayer
350
44
  3
Global
350
46
  0
DICTIONARY
  5
6B
102
{ACAD_REACTORS
330
C
102
}
330
C
100
AcDbDictionary
281
     1
  3
Standard
350
6C
  0
DICTIONARY
  5
17
102
{ACAD_REACTORS
330
C
102
}
330
C
100
AcDbDictionary
281
     1
  3
Standard
350
18
  0
DICTIONARY
  5
19
102
{ACAD_REACTORS
330
C
102
}
330
C
100
AcDbDictionary
281
     1
  0
ACDBDICTIONARYWDFLT
  5
E
102
{ACAD_REACTORS
330
C
102
}
330
C
100
AcDbDictionary
281
     1
  3
Normal
350
F
100
AcDbDictionaryWithDefault
340
F
  0
DICTIONARY
  5
47
102
{ACAD_REACTORS
330
C
102
}
330
C
100
AcDbDictionary
281
     1
  3
A0
350
48
  3
A1
350
49
  3
A2
350
4A
  3
A3
350
4B
  3
A4
350
4C
  3
A5
350
4D
  3
A6
350
4E
  3
A7
350
4F
  3
A8
350
50
  3
A9
350
51
  3
B0
350
52
  3
B1
350
53
  3
B2
350
54
  3
B3
350
55
  3
B4
350
56
  3
B5
350
57
  3
B6
350
58
  3
B7
350
59
  3
B8
350
5A
  3
B9
350
5B
  3
C0
350
5C
  3
C1
350
5D
  3
C2
350
5E
  3
C3
350
5F
  3
C4
350
60
  3
C5
350
61
  3
C6
350
62
  3
C7
350
63
  3
C8
350
64
  3
C9
350
65
  3
D0
350
66
  3
D1
350
67
  3
D2
350
68
  0
DICTIONARY
  5
69
102
{ACAD_REACTORS
330
C
102
}
330
C
100
AcDbDictionary
281
     1
  3
Standard
350
6A
  0
DICTIONARY
  5
2A
102
{ACAD_REACTORS
330
C
102
}
330
C
100
AcDbDictionary
281
     1
  3
2dWireframe
350
2F
  3
Basic
350
32
  3
Brighten
350
36
  3
ColorChange
350
3A
  3
Conceptual
350
34
  3
Dim
350
35
  3
EdgeColorOff
350
3D
  3
Facepattern
350
39
  3
Flat
350
2B
  3
FlatWithEdges
350
2C
  3
Gouraud
350
2D
  3
GouraudWithEdges
350
2E
  3
Hidden
350
31
  3
JitterOff
350
3B
  3
Linepattern
350
38
  3
OverhangOff
350
3C
  3
Realistic
350
33
  3
Shaded
350
42
  3
Shaded with edges
350
41
  3
Shades of Gray
350
3E
  3
Sketchy
350
3F
  3
Thicken
350
37
  3
Wireframe
350
30
  3
X-Ray
350
40
  0
DICTIONARY
  5
1CF
102
{ACAD_REACTORS
330
C
102
}
330
C
100
AcDbDictionary
281
     1
  3
CANNOSCALE
350
1DC
  3
CENTEREXE
350
1D6
  3
CENTERLTYPEFILE
350
1D7
  3
CMLEADERSTYLE
350
1D1
  3
CTABLESTYLE
350
1D0
  3
DIMASSOC
350
1D8
  3
HIDETEXT
350
1D9
  3
MSLTSCALE
350
1DD
  3
PSOLHEIGHT
350
1D3
  3
PSOLWIDTH
350
1D2
  0
XRECORD
  5
1DB
102
{ACAD_REACTORS
330
1DA
102
}
330
1DA
100
AcDbXrecord
280
     1
102
VTR_0.000_0.000_1.000_1.000_VISUALSTYLE
340
2F
102
VTR_0.000_0.000_1.000_1.000_GRIDDISPLAY
 70
     3
102
VTR_0.000_0.000_1.000_1.000_GRIDMAJOR
 70
     5
102
VTR_0.000_0.000_1.000_1.000_DEFAULTLIGHTING
280
     1
102
VTR_0.000_0.000_1.000_1.000_DEFAULTLIGHTINGTYPE
 70
     1
102
VTR_0.000_0.000_1.000_1.000_BRIGHTNESS
141
0.0
102
VTR_0.000_0.000_1.000_1.000_CONTRAST
142
0.0
  0
LAYOUT
  5
1E
102
{ACAD_REACTORS
330
1A
102
}
330
1A
100
AcDbPlotSettings
  1

  2
none_device
  4

  6

 40
0.0
 41
0.0
 42
0.0
 43
0.0
 44
0.0
 45
0.0
 46
0.0
 47
0.0
 48
0.0
 49
0.0
140
0.0
141
0.0
142
1.0
143
1.0
 70
   688
 72
     1
 73
     0
 74
     5
  7

 75
    16
147
1.0
148
0.0
149
0.0
100
AcDbLayout
  1
Layout1
 70
     1
 71
     1
 10
0.0
 20
0.0
 11
420.0
 21
297.0
 12
0.0
 22
0.0
 32
0.0
 14
1.000000E+20
 24
1.000000E+20
 34
1.000000E+20
 15
-1.000000E+20
 25
-1.000000E+20
 35
-1.000000E+20
146
0.0
 13
0.0
 23
0.0
 33
0.0
 16
1.0
 26
0.0
 36
0.0
 17
0.0
 27
1.0
 37
0.0
 76
     0
330
1B
  0
LAYOUT
  5
26
102
{ACAD_REACTORS
330
1A
102
}
330
1A
100
AcDbPlotSettings
  1

  2
none_device
  4

  6

 40
0.0
 41
0.0
 42
0.0
 43
0.0
 44
0.0
 45
0.0
 46
0.0
 47
0.0
 48
0.0
 49
0.0
140
0.0
141
0.0
142
1.0
143
1.0
 70
   688
 72
     1
 73
     0
 74
     5
  7

 75
    16
147
1.0
148
0.0
149
0.0
100
AcDbLayout
  1
Layout2
 70
     1
 71
     2
 10
0.0
 20
0.0
 11
0.0
 21
0.0
 12
0.0
 22
0.0
 32
0.0
 14
0.0
 24
0.0
 34
0.0
 15
0.0
 25
0.0
 35
0.0
146
0.0
 13
0.0
 23
0.0
 33
0.0
 16
1.0
 26
0.0
 36
0.0
 17
0.0
 27
1.0
 37
0.0
 76
     0
330
23
  0
LAYOUT
  5
22
102
{ACAD_REACTORS
330
1A
102
}
330
1A
100
AcDbPlotSettings
  1

  2
none_device
  4
Letter_(8.50_x_11.00_Inches)
  6

 40
6.35
 41
6.35
 42
6.350005
 43
6.350005
 44
215.9
 45
279.4
 46
0.0
 47
0.0
 48
0.0
 49
0.0
140
0.0
141
0.0
142
1.0
143
1.0
 70
  1712
 72
     1
 73
     0
 74
     0
  7

 75
     0
147
1.0
148
0.0
149
0.0
100
AcDbLayout
  1
Model
 70
     1
 71
     0
 10
0.0
 20
0.0
 11
728.99646
 21
788.425659
 12
0.0
 22
0.0
 32
0.0
 14
0.0
 24
0.0
 34
0.0
 15
728.99646
 25
788.425659
 35
0.0
146
0.0
 13
0.0
 23
0.0
 33
0.0
 16
1.0
 26
0.0
 36
0.0
 17
0.0
 27
1.0
 37
0.0
 76
     0
330
1F
331
29
  0
MATERIAL
  5
45
102
{ACAD_REACTORS
330
43
102
}
102
{ACAD_XDICTIONARY
360
210
102
}
330
43
100
AcDbMaterial
  1
ByBlock
  0
MATERIAL
  5
44
102
{ACAD_REACTORS
330
43
102
}
102
{ACAD_XDICTIONARY
360
20E
102
}
330
43
100
AcDbMaterial
  1
ByLayer
  0
MATERIAL
  5
46
102
{ACAD_REACTORS
330
43
102
}
102
{ACAD_XDICTIONARY
360
212
102
}
330
43
100
AcDbMaterial
  1
Global
  0
MLEADERSTYLE
  5
6C
102
{ACAD_REACTORS
330
6B
102
}
102
{ACAD_XDICTIONARY
360
215
102
}
330
6B
100
AcDbMLeaderStyle
170
     2
171
     1
172
     0
 90
        2
 40
0.0
 41
0.0
173
     1
 91
-1056964608
340
14
 92
       -2
290
     1
 42
2.0
291
     1
 43
8.0
  3
Standard
341
0
 44
4.0
300

342
11
174
     1
178
     6
175
     1
176
     0
 93
-1056964608
 45
4.0
292
     0
297
     0
 46
4.0
343
0
 94
-1056964608
 47
1.0
 49
1.0
140
1.0
293
     1
141
0.0
294
     1
177
     0
142
1.0
295
     0
296
     0
143
3.75
1001
ACAD_MLEADERVER
1070
     2
  0
MLINESTYLE
  5
18
102
{ACAD_REACTORS
330
17
102
}
330
17
100
AcDbMlineStyle
  2
Standard
 70
     0
  3

 62
   256
 51
90.0
 52
90.0
 71
     2
 49
0.5
 62
   256
  6
BYLAYER
 49
-0.5
 62
   256
  6
BYLAYER
  0
ACDBPLACEHOLDER
  5
F
102
{ACAD_REACTORS
330
E
102
}
330
E
  0
SCALE
  5
48
102
{ACAD_REACTORS
330
47
102
}
330
47
100
AcDbScale
 70
     0
300
1:1
140
1.0
141
1.0
290
     1
  0
SCALE
  5
49
102
{ACAD_REACTORS
330
47
102
}
330
47
100
AcDbScale
 70
     0
300
1:2
140
1.0
141
2.0
290
     0
  0
SCALE
  5
4A
102
{ACAD_REACTORS
330
47
102
}
330
47
100
AcDbScale
 70
     0
300
1:4
140
1.0
141
4.0
290
     0
  0
SCALE
  5
4B
102
{ACAD_REACTORS
330
47
102
}
330
47
100
AcDbScale
 70
     0
300
1:5
140
1.0
141
5.0
290
     0
  0
SCALE
  5
4C
102
{ACAD_REACTORS
330
47
102
}
330
47
100
AcDbScale
 70
     0
300
1:8
140
1.0
141
8.0
290
     0
  0
SCALE
  5
4D
102
{ACAD_REACTORS
330
47
102
}
330
47
100
AcDbScale
 70
     0
300
1:10
140
1.0
141
10.0
290
     0
  0
SCALE
  5
4E
102
{ACAD_REACTORS
330
47
102
}
330
47
100
AcDbScale
 70
     0
300
1:16
140
1.0
141
16.0
290
     0
  0
SCALE
  5
4F
102
{ACAD_REACTORS
330
47
102
}
330
47
100
AcDbScale
 70
     0
300
1:20
140
1.0
141
20.0
290
     0
  0
SCALE
  5
50
102
{ACAD_REACTORS
330
47
102
}
330
47
100
AcDbScale
 70
     0
300
1:30
140
1.0
141
30.0
290
     0
  0
SCALE
  5
51
102
{ACAD_REACTORS
330
47
102
}
330
47
100
AcDbScale
 70
     0
300
1:40
140
1.0
141
40.0
290
     0
  0
SCALE
  5
52
102
{ACAD_REACTORS
330
47
102
}
330
47
100
AcDbScale
 70
     0
300
1:50
140
1.0
141
50.0
290
     0
  0
SCALE
  5
53
102
{ACAD_REACTORS
330
47
102
}
330
47
100
AcDbScale
 70
     0
300
1:100
140
1.0
141
100.0
290
     0
  0
SCALE
  5
54
102
{ACAD_REACTORS
330
47
102
}
330
47
100
AcDbScale
 70
     0
300
2:1
140
2.0
141
1.0
290
     0
  0
SCALE
  5
55
102
{ACAD_REACTORS
330
47
102
}
330
47
100
AcDbScale
 70
     0
300
4:1
140
4.0
141
1.0
290
     0
  0
SCALE
  5
56
102
{ACAD_REACTORS
330
47
102
}
330
47
100
AcDbScale
 70
     0
300
8:1
140
8.0
141
1.0
290
     0
  0
SCALE
  5
57
102
{ACAD_REACTORS
330
47
102
}
330
47
100
AcDbScale
 70
     0
300
10:1
140
10.0
141
1.0
290
     0
  0
SCALE
  5
58
102
{ACAD_REACTORS
330
47
102
}
330
47
100
AcDbScale
 70
     0
300
100:1
140
100.0
141
1.0
290
     0
  0
SCALE
  5
59
102
{ACAD_REACTORS
330
47
102
}
330
47
100
AcDbScale
 70
     0
300
1/128" = 1'-0"
140
0.007812
141
12.0
290
     0
  0
SCALE
  5
5A
102
{ACAD_REACTORS
330
47
102
}
330
47
100
AcDbScale
 70
     0
300
1/64" = 1'-0"
140
0.015625
141
12.0
290
     0
  0
SCALE
  5
5B
102
{ACAD_REACTORS
330
47
102
}
330
47
100
AcDbScale
 70
     0
300
1/32" = 1'-0"
140
0.03125
141
12.0
290
     0
  0
SCALE
  5
5C
102
{ACAD_REACTORS
330
47
102
}
330
47
100
AcDbScale
 70
     0
300
1/16" = 1'-0"
140
0.0625
141
12.0
290
     0
  0
SCALE
  5
5D
102
{ACAD_REACTORS
330
47
102
}
330
47
100
AcDbScale
 70
     0
300
3/32" = 1'-0"
140
0.09375
141
12.0
290
     0
  0
SCALE
  5
5E
102
{ACAD_REACTORS
330
47
102
}
330
47
100
AcDbScale
 70
     0
300
1/8" = 1'-0"
140
0.125
141
12.0
290
     0
  0
SCALE
  5
5F
102
{ACAD_REACTORS
330
47
102
}
330
47
100
AcDbScale
 70
     0
300
3/16" = 1'-0"
140
0.1875
141
12.0
290
     0
  0
SCALE
  5
60
102
{ACAD_REACTORS
330
47
102
}
330
47
100
AcDbScale
 70
     0
300
1/4" = 1'-0"
140
0.25
141
12.0
290
     0
  0
SCALE
  5
61
102
{ACAD_REACTORS
330
47
102
}
330
47
100
AcDbScale
 70
     0
300
3/8" = 1'-0"
140
0.375
141
12.0
290
     0
  0
SCALE
  5
62
102
{ACAD_REACTORS
330
47
102
}
330
47
100
AcDbScale
 70
     0
300
1/2" = 1'-0"
140
0.5
141
12.0
290
     0
  0
SCALE
  5
63
102
{ACAD_REACTORS
330
47
102
}
330
47
100
AcDbScale
 70
     0
300
3/4" = 1'-0"
140
0.75
141
12.0
290
     0
  0
SCALE
  5
64
102
{ACAD_REACTORS
330
47
102
}
330
47
100
AcDbScale
 70
     0
300
1" = 1'-0"
140
1.0
141
12.0
290
     0
  0
SCALE
  5
65
102
{ACAD_REACTORS
330
47
102
}
330
47
100
AcDbScale
 70
     0
300
1-1/2" = 1'-0"
140
1.5
141
12.0
290
     0
  0
SCALE
  5
66
102
{ACAD_REACTORS
330
47
102
}
330
47
100
AcDbScale
 70
     0
300
3" = 1'-0"
140
3.0
141
12.0
290
     0
  0
SCALE
  5
67
102
{ACAD_REACTORS
330
47
102
}
330
47
100
AcDbScale
 70
     0
300
6" = 1'-0"
140
6.0
141
12.0
290
     0
  0
SCALE
  5
68
102
{ACAD_REACTORS
330
47
102
}
330
47
100
AcDbScale
 70
     0
300
1'-0" = 1'-0"
140
12.0
141
12.0
290
     0
  0
TABLESTYLE
  5
6A
102
{ACAD_REACTORS
330
69
102
}
330
69
100
AcDbTableStyle
  3
Standard
 70
     0
 71
     0
 40
1.5
 41
1.5
280
     0
281
     0
  7
Standard
140
4.5
170
     2
 62
     0
 63
   257
283
     0
274
    -2
284
     1
 64
     0
275
    -2
285
     1
 65
     0
276
    -2
286
     1
 66
     0
277
    -2
287
     1
 67
     0
278
    -2
288
     1
 68
     0
279
    -2
289
     1
 69
     0
  7
Standard
140
6.0
170
     5
 62
     0
 63
   257
283
     0
274
    -2
284
     1
 64
     0
275
    -2
285
     1
 65
     0
276
    -2
286
     1
 66
     0
277
    -2
287
     1
 67
     0
278
    -2
288
     1
 68
     0
279
    -2
289
     1
 69
     0
  7
Standard
140
4.5
170
     5
 62
     0
 63
   257
283
     0
274
    -2
284
     1
 64
     0
275
    -2
285
     1
 65
     0
276
    -2
286
     1
 66
     0
277
    -2
287
     1
 67
     0
278
    -2
288
     1
 68
     0
279
    -2
289
     1
 69
     0
  0
VISUALSTYLE
  5
2F
102
{ACAD_REACTORS
330
2A
102
}
102
{ACAD_XDICTIONARY
360
1E6
102
}
330
2A
100
AcDbVisualStyle
  2
2dWireframe
 70
     4
 71
     0
 72
     2
 73
     0
 90
        0
 40
0.6
 41
30.0
 62
     5
 63
     7
 74
     1
 91
        4
 64
     7
 65
   257
 75
     1
175
     1
 42
1.0
 92
        0
 66
   257
 43
1.0
 76
     1
 77
     6
 78
     2
 67
     7
 79
     5
170
     0
171
     0
290
     0
174
     0
 93
        1
 44
0.0
173
     0
291
     0
 45
0.0
1001
ACAD
1000
AcDbSavedByObjectVersion
1070
     0
  0
VISUALSTYLE
  5
32
102
{ACAD_REACTORS
330
2A
102
}
102
{ACAD_XDICTIONARY
360
1EC
102
}
330
2A
100
AcDbVisualStyle
  2
Basic
 70
     7
 71
     1
 72
     0
 73
     1
 90
        0
 40
0.6
 41
30.0
 62
     5
 63
     7
 74
     0
 91
        4
 64
     7
 65
   257
 75
     1
175
     1
 42
1.0
 92
        8
 66
     7
 43
1.0
 76
     1
 77
     6
 78
     2
 67
     7
 79
     5
170
     0
171
     0
290
     0
174
     0
 93
        1
 44
0.0
173
     0
291
     1
 45
0.0
1001
ACAD
1000
AcDbSavedByObjectVersion
1070
     0
  0
VISUALSTYLE
  5
36
102
{ACAD_REACTORS
330
2A
102
}
102
{ACAD_XDICTIONARY
360
1F4
102
}
330
2A
100
AcDbVisualStyle
  2
Brighten
 70
    12
 71
     2
 72
     2
 73
     0
 90
        0
 40
0.6
 41
30.0
 62
     5
 63
     7
 74
     1
 91
        4
 64
     7
 65
   257
 75
     1
175
     1
 42
1.0
 92
        8
 66
     7
 43
1.0
 76
     1
 77
     6
 78
     2
 67
     7
 79
     5
170
     0
171
     0
290
     0
174
     0
 93
        1
 44
50.0
173
     0
291
     1
 45
0.0
1001
ACAD
1000
AcDbSavedByObjectVersion
1070
     0
  0
VISUALSTYLE
  5
3A
102
{ACAD_REACTORS
330
2A
102
}
102
{ACAD_XDICTIONARY
360
1FC
102
}
330
2A
100
AcDbVisualStyle
  2
ColorChange
 70
    16
 71
     2
 72
     2
 73
     3
 90
        0
 40
0.6
 41
30.0
 62
     5
 63
     8
 74
     1
 91
        4
 64
     7
 65
   257
 75
     1
175
     1
 42
1.0
 92
        8
 66
     8
 43
1.0
 76
     1
 77
     6
 78
     2
 67
     7
 79
     5
170
     0
171
     0
290
     0
174
     0
 93
        1
 44
0.0
173
     0
291
     1
 45
0.0
1001
ACAD
1000
AcDbSavedByObjectVersion
1070
     0
  0
VISUALSTYLE
  5
34
102
{ACAD_REACTORS
330
2A
102
}
102
{ACAD_XDICTIONARY
360
1F0
102
}
330
2A
100
AcDbVisualStyle
  2
Conceptual
 70
     9
 71
     3
 72
     2
 73
     0
 90
        0
 40
0.6
 41
30.0
 62
     5
 63
     7
 74
     2
 91
        2
 64
     7
 65
   257
 75
     1
175
     1
 42
179.0
 92
        8
 66
     7
 43
1.0
 76
     1
 77
     6
 78
     2
 67
     7
 79
     3
170
     0
171
     0
290
     0
174
     0
 93
        1
 44
0.0
173
     0
291
     0
 45
0.0
1001
ACAD
1000
AcDbSavedByObjectVersion
1070
     0
  0
VISUALSTYLE
  5
35
102
{ACAD_REACTORS
330
2A
102
}
102
{ACAD_XDICTIONARY
360
1F2
102
}
330
2A
100
AcDbVisualStyle
  2
Dim
 70
    11
 71
     2
 72
     2
 73
     0
 90
        0
 40
0.6
 41
30.0
 62
     5
 63
     7
 74
     1
 91
        4
 64
     7
 65
   257
 75
     1
175
     1
 42
1.0
 92
        8
 66
     7
 43
1.0
 76
     1
 77
     6
 78
     2
 67
     7
 79
     5
170
     0
171
     0
290
     0
174
     0
 93
        1
 44
-50.0
173
     0
291
     1
 45
0.0
1001
ACAD
1000
AcDbSavedByObjectVersion
1070
     0
  0
VISUALSTYLE
  5
3D
102
{ACAD_REACTORS
330
2A
102
}
102
{ACAD_XDICTIONARY
360
202
102
}
330
2A
100
AcDbVisualStyle
  2
EdgeColorOff
 70
    22
 71
     2
 72
     2
 73
     0
 90
        0
 40
0.6
 41
30.0
 62
     5
 63
     7
 74
     1
 91
        4
 64
     7
 65
   257
 75
     1
175
     1
 42
1.0
 92
        8
 66
     7
 43
1.0
 76
     1
 77
     6
 78
     2
 67
     7
 79
     5
170
     0
171
     0
290
     0
174
     0
 93
        1
 44
0.0
173
     0
291
     1
 45
0.0
1001
ACAD
1000
AcDbSavedByObjectVersion
1070
     0
  0
VISUALSTYLE
  5
39
102
{ACAD_REACTORS
330
2A
102
}
102
{ACAD_XDICTIONARY
360
1FA
102
}
330
2A
100
AcDbVisualStyle
  2
Facepattern
 70
    15
 71
     2
 72
     2
 73
     0
 90
        0
 40
0.6
 41
30.0
 62
     5
 63
     7
 74
     1
 91
        4
 64
     7
 65
   257
 75
     1
175
     1
 42
1.0
 92
        8
 66
     7
 43
1.0
 76
     1
 77
     6
 78
     2
 67
     7
 79
     5
170
     0
171
     0
290
     0
174
     0
 93
        1
 44
0.0
173
     0
291
     1
 45
0.0
1001
ACAD
1000
AcDbSavedByObjectVersion
1070
     0
  0
VISUALSTYLE
  5
2B
102
{ACAD_REACTORS
330
2A
102
}
102
{ACAD_XDICTIONARY
360
1DE
102
}
330
2A
100
AcDbVisualStyle
  2
Flat
 70
     0
 71
     2
 72
     1
 73
     1
 90
        2
 40
0.6
 41
30.0
 62
     5
 63
     7
 74
     0
 91
        0
 64
     7
 65
   257
 75
     1
175
     1
 42
1.0
 92
        8
 66
     7
 43
1.0
 76
     1
 77
     6
 78
     2
 67
     7
 79
     5
170
     0
171
     0
290
     0
174
     0
 93
       13
 44
0.0
173
     0
291
     1
 45
0.0
1001
ACAD
1000
AcDbSavedByObjectVersion
1070
     0
  0
VISUALSTYLE
  5
2C
102
{ACAD_REACTORS
330
2A
102
}
102
{ACAD_XDICTIONARY
360
1E0
102
}
330
2A
100
AcDbVisualStyle
  2
FlatWithEdges
 70
     1
 71
     2
 72
     1
 73
     1
 90
        2
 40
0.6
 41
30.0
 62
     5
 63
     7
 74
     1
 91
        0
 64
     7
 65
   257
 75
     1
175
     1
 42
1.0
 92
        0
 66
   257
 43
1.0
 76
     1
 77
     6
 78
     2
 67
     7
 79
     5
170
     0
171
     0
290
     0
174
     0
 93
       13
 44
0.0
173
     0
291
     1
 45
0.0
1001
ACAD
1000
AcDbSavedByObjectVersion
1070
     0
  0
VISUALSTYLE
  5
2D
102
{ACAD_REACTORS
330
2A
102
}
102
{ACAD_XDICTIONARY
360
1E2
102
}
330
2A
100
AcDbVisualStyle
  2
Gouraud
 70
     2
 71
     2
 72
     2
 73
     1
 90
        2
 40
0.6
 41
30.0
 62
     5
 63
     7
 74
     0
 91
        0
 64
     7
 65
   257
 75
     1
175
     1
 42
1.0
 92
        0
 66
     7
 43
1.0
 76
     1
 77
     6
 78
     2
 67
     7
 79
     5
170
     0
171
     0
290
     0
174
     0
 93
       13
 44
0.0
173
     0
291
     1
 45
0.0
1001
ACAD
1000
AcDbSavedByObjectVersion
1070
     0
  0
VISUALSTYLE
  5
2E
102
{ACAD_REACTORS
330
2A
102
}
102
{ACAD_XDICTIONARY
360
1E4
102
}
330
2A
100
AcDbVisualStyle
  2
GouraudWithEdges
 70
     3
 71
     2
 72
     2
 73
     1
 90
        2
 40
0.6
 41
30.0
 62
     5
 63
     7
 74
     1
 91
        0
 64
     7
 65
   257
 75
     1
175
     1
 42
1.0
 92
        0
 66
   257
 43
1.0
 76
     1
 77
     6
 78
     2
 67
     7
 79
     5
170
     0
171
     0
290
     0
174
     0
 93
       13
 44
0.0
173
     0
291
     1
 45
0.0
1001
ACAD
1000
AcDbSavedByObjectVersion
1070
     0
  0
VISUALSTYLE
  5
31
102
{ACAD_REACTORS
330
2A
102
}
102
{ACAD_XDICTIONARY
360
1EA
102
}
330
2A
100
AcDbVisualStyle
  2
Hidden
 70
     6
 71
     1
 72
     2
 73
     2
 90
        0
 40
0.6
 41
30.0
 62
     5
 63
     7
 74
     2
 91
        2
 64
     7
 65
   257
 75
     2
175
     1
 42
40.0
 92
        0
 66
   257
 43
1.0
 76
     1
 77
     6
 78
     2
 67
     7
 79
     3
170
     0
171
     0
290
     0
174
     0
 93
        1
 44
0.0
173
     0
291
     0
 45
0.0
1001
ACAD
1000
AcDbSavedByObjectVersion
1070
     0
  0
VISUALSTYLE
  5
3B
102
{ACAD_REACTORS
330
2A
102
}
102
{ACAD_XDICTIONARY
360
1FE
102
}
330
2A
100
AcDbVisualStyle
  2
JitterOff
 70
    20
 71
     2
 72
     2
 73
     0
 90
        0
 40
0.6
 41
30.0
 62
     5
 63
     7
 74
     1
 91
        4
 64
     7
 65
   257
 75
     1
175
     1
 42
1.0
 92
       10
 66
     7
 43
1.0
 76
     1
 77
     6
 78
     2
 67
     7
 79
     5
170
     0
171
     0
290
     0
174
     0
 93
        1
 44
0.0
173
     0
291
     1
 45
0.0
1001
ACAD
1000
AcDbSavedByObjectVersion
1070
     0
  0
VISUALSTYLE
  5
38
102
{ACAD_REACTORS
330
2A
102
}
102
{ACAD_XDICTIONARY
360
1F8
102
}
330
2A
100
AcDbVisualStyle
  2
Linepattern
 70
    14
 71
     2
 72
     2
 73
     0
 90
        0
 40
0.6
 41
30.0
 62
     5
 63
     7
 74
     1
 91
        4
 64
     7
 65
   257
 75
     7
175
     7
 42
1.0
 92
        8
 66
     7
 43
1.0
 76
     1
 77
     6
 78
     2
 67
     7
 79
     5
170
     0
171
     0
290
     0
174
     0
 93
        1
 44
0.0
173
     0
291
     1
 45
0.0
1001
ACAD
1000
AcDbSavedByObjectVersion
1070
     0
  0
VISUALSTYLE
  5
3C
102
{ACAD_REACTORS
330
2A
102
}
102
{ACAD_XDICTIONARY
360
200
102
}
330
2A
100
AcDbVisualStyle
  2
OverhangOff
 70
    21
 71
     2
 72
     2
 73
     0
 90
        0
 40
0.6
 41
30.0
 62
     5
 63
     7
 74
     1
 91
        4
 64
     7
 65
   257
 75
     1
175
     1
 42
1.0
 92
        9
 66
     7
 43
1.0
 76
     1
 77
     6
 78
     2
 67
     7
 79
     5
170
     0
171
     0
290
     0
174
     0
 93
        1
 44
0.0
173
     0
291
     1
 45
0.0
1001
ACAD
1000
AcDbSavedByObjectVersion
1070
     0
  0
VISUALSTYLE
  5
33
102
{ACAD_REACTORS
330
2A
102
}
102
{ACAD_XDICTIONARY
360
1EE
102
}
330
2A
100
AcDbVisualStyle
  2
Realistic
 70
     8
 71
     2
 72
     3
 73
     0
 90
        2
 40
0.6
 41
30.0
 62
     5
 63
     7
 74
     0
 91
        0
 64
     7
 65
   257
 75
     1
175
     1
 42
1.0
 92
        8
 66
   257
 43
1.0
 76
     1
 77
     6
 78
     2
 67
     7
 79
     3
170
     0
171
     0
290
     0
174
     0
 93
       13
 44
0.0
173
     0
291
     0
 45
0.0
1001
ACAD
1000
AcDbSavedByObjectVersion
1070
     0
  0
VISUALSTYLE
  5
42
102
{ACAD_REACTORS
330
2A
102
}
102
{ACAD_XDICTIONARY
360
20C
102
}
330
2A
100
AcDbVisualStyle
  2
Shaded
 70
    27
 71
     2
 72
     2
 73
     1
 90
        2
 40
0.6
 41
30.0
 62
     5
 63
     7
 74
     0
 91
        4
 64
     7
 65
   257
 75
     1
175
     1
 42
1.0
 92
        8
 66
   257
 43
1.0
 76
     1
 77
     6
 78
     2
 67
     8
 79
     3
170
     0
171
     0
290
     0
174
     0
 93
        5
 44
0.0
173
     0
291
     0
 45
0.0
1001
ACAD
1000
AcDbSavedByObjectVersion
1070
     0
  0
VISUALSTYLE
  5
41
102
{ACAD_REACTORS
330
2A
102
}
102
{ACAD_XDICTIONARY
360
20A
102
}
330
2A
100
AcDbVisualStyle
  2
Shaded with edges
 70
    26
 71
     2
 72
     2
 73
     1
 90
        2
 40
0.6
 41
30.0
 62
     5
 63
     7
 74
     1
 91
       10
 64
     7
 65
   257
 75
     2
175
     1
 42
1.0
 92
        8
 66
   257
 43
1.0
 76
     1
 77
     6
 78
     2
 67
     7
 79
     3
170
     0
171
     0
290
     0
174
     0
 93
        5
 44
0.0
173
     0
291
     0
 45
0.0
1001
ACAD
1000
AcDbSavedByObjectVersion
1070
     0
  0
VISUALSTYLE
  5
3E
102
{ACAD_REACTORS
330
2A
102
}
102
{ACAD_XDICTIONARY
360
204
102
}
330
2A
100
AcDbVisualStyle
  2
Shades of Gray
 70
    23
 71
     2
 72
     2
 73
     3
 90
        0
 40
0.6
 41
30.0
 62
     5
 63
     7
 74
     2
 91
        2
 64
     7
 65
     7
 75
     1
175
     1
 42
40.0
 92
        8
 66
     7
 43
1.0
 76
     1
 77
     6
 78
     2
 67
     7
 79
     3
170
     0
171
     0
290
     0
174
     0
 93
        1
 44
0.0
173
     0
291
     0
 45
0.0
1001
ACAD
1000
AcDbSavedByObjectVersion
1070
     0
  0
VISUALSTYLE
  5
3F
102
{ACAD_REACTORS
330
2A
102
}
102
{ACAD_XDICTIONARY
360
206
102
}
330
2A
100
AcDbVisualStyle
  2
Sketchy
 70
    24
 71
     1
 72
     2
 73
     2
 90
        0
 40
0.6
 41
30.0
 62
     5
 63
     7
 74
     2
 91
        2
 64
     7
 65
     7
 75
     1
175
     1
 42
40.0
 92
       11
 66
     7
 43
1.0
 76
     1
 77
     6
 78
     2
 67
     7
 79
     6
170
     0
171
     0
290
     0
174
     0
 93
        1
 44
0.0
173
     0
291
     0
 45
0.0
1001
ACAD
1000
AcDbSavedByObjectVersion
1070
     0
  0
VISUALSTYLE
  5
37
102
{ACAD_REACTORS
330
2A
102
}
102
{ACAD_XDICTIONARY
360
1F6
102
}
330
2A
100
AcDbVisualStyle
  2
Thicken
 70
    13
 71
     2
 72
     2
 73
     0
 90
        0
 40
0.6
 41
30.0
 62
     5
 63
     7
 74
     1
 91
        4
 64
     7
 65
   257
 75
     1
175
     1
 42
1.0
 92
       12
 66
     7
 43
1.0
 76
     1
 77
     6
 78
     2
 67
     7
 79
     5
170
     0
171
     0
290
     0
174
     0
 93
        1
 44
0.0
173
     0
291
     1
 45
0.0
1001
ACAD
1000
AcDbSavedByObjectVersion
1070
     0
  0
VISUALSTYLE
  5
30
102
{ACAD_REACTORS
330
2A
102
}
102
{ACAD_XDICTIONARY
360
1E8
102
}
330
2A
100
AcDbVisualStyle
  2
Wireframe
 70
     5
 71
     0
 72
     2
 73
     0
 90
        0
 40
0.6
 41
30.0
 62
     5
 63
     7
 74
     1
 91
        4
 64
     7
 65
   257
 75
     1
175
     1
 42
1.0
 92
        0
 66
   257
 43
1.0
 76
     1
 77
     6
 78
     2
 67
     7
 79
     3
170
     0
171
     0
290
     0
174
     0
 93
        1
 44
0.0
173
     0
291
     0
 45
0.0
1001
ACAD
1000
AcDbSavedByObjectVersion
1070
     0
  0
VISUALSTYLE
  5
40
102
{ACAD_REACTORS
330
2A
102
}
102
{ACAD_XDICTIONARY
360
208
102
}
330
2A
100
AcDbVisualStyle
  2
X-Ray
 70
    25
 71
     2
 72
     2
 73
     1
 90
        1
 40
0.5
 41
30.0
 62
     5
 63
     7
 74
     1
 91
        0
 64
     7
 65
   257
 75
     1
175
     1
 42
1.0
 92
        8
 66
     7
 43
1.0
 76
     1
 77
     6
 78
     2
 67
     7
 79
     3
170
     0
171
     0
290
     0
174
     0
 93
       13
 44
0.0
173
     0
291
     0
 45
0.0
1001
ACAD
1000
AcDbSavedByObjectVersion
1070
     0
  0
DICTIONARYVAR
  5
1DC
102
{ACAD_REACTORS
330
1CF
102
}
330
1CF
100
DictionaryVariables
280
     0
  1
1:1
  0
DICTIONARYVAR
  5
1D6
102
{ACAD_REACTORS
330
1CF
102
}
330
1CF
100
DictionaryVariables
280
     0
  1
3.500000
  0
DICTIONARYVAR
  5
1D7
102
{ACAD_REACTORS
330
1CF
102
}
330
1CF
100
DictionaryVariables
280
     0
  1
acadiso.lin
  0
DICTIONARYVAR
  5
1D1
102
{ACAD_REACTORS
330
1CF
102
}
330
1CF
100
DictionaryVariables
280
     0
  1
Standard
  0
DICTIONARYVAR
  5
1D0
102
{ACAD_REACTORS
330
1CF
102
}
330
1CF
100
DictionaryVariables
280
     0
  1
Standard
  0
DICTIONARYVAR
  5
1D8
102
{ACAD_REACTORS
330
1CF
102
}
330
1CF
100
DictionaryVariables
280
     0
  1
2
  0
DICTIONARYVAR
  5
1D9
102
{ACAD_REACTORS
330
1CF
102
}
330
1CF
100
DictionaryVariables
280
     0
  1
1
  0
DICTIONARYVAR
  5
1DD
102
{ACAD_REACTORS
330
1CF
102
}
330
1CF
100
DictionaryVariables
280
     0
  1
1
  0
DICTIONARYVAR
  5
1D3
102
{ACAD_REACTORS
330
1CF
102
}
330
1CF
100
DictionaryVariables
280
     0
  1
80.000000
  0
DICTIONARYVAR
  5
1D2
102
{ACAD_REACTORS
330
1CF
102
}
330
1CF
100
DictionaryVariables
280
     0
  1
5.000000
  0
DICTIONARY
  5
210
330
45
100
AcDbDictionary
280
     1
281
     1
  3
ACAD_XREC_ROUNDTRIP
360
211
  0
DICTIONARY
  5
20E
330
44
100
AcDbDictionary
280
     1
281
     1
  3
ACAD_XREC_ROUNDTRIP
360
20F
  0
DICTIONARY
  5
212
330
46
100
AcDbDictionary
280
     1
281
     1
  3
ACAD_XREC_ROUNDTRIP
360
213
  0
DICTIONARY
  5
215
330
6C
100
AcDbDictionary
280
     1
281
     1
  3
ACAD_XREC_ROUNDTRIP
360
216
  0
DICTIONARY
  5
1E6
330
2F
100
AcDbDictionary
280
     1
281
     1
  3
ACAD_XREC_ROUNDTRIP
360
1E7
  0
DICTIONARY
  5
1EC
330
32
100
AcDbDictionary
280
     1
281
     1
  3
ACAD_XREC_ROUNDTRIP
360
1ED
  0
DICTIONARY
  5
1F4
330
36
100
AcDbDictionary
280
     1
281
     1
  3
ACAD_XREC_ROUNDTRIP
360
1F5
  0
DICTIONARY
  5
1FC
330
3A
100
AcDbDictionary
280
     1
281
     1
  3
ACAD_XREC_ROUNDTRIP
360
1FD
  0
DICTIONARY
  5
1F0
330
34
100
AcDbDictionary
280
     1
281
     1
  3
ACAD_XREC_ROUNDTRIP
360
1F1
  0
DICTIONARY
  5
1F2
330
35
100
AcDbDictionary
280
     1
281
     1
  3
ACAD_XREC_ROUNDTRIP
360
1F3
  0
DICTIONARY
  5
202
330
3D
100
AcDbDictionary
280
     1
281
     1
  3
ACAD_XREC_ROUNDTRIP
360
203
  0
DICTIONARY
  5
1FA
330
39
100
AcDbDictionary
280
     1
281
     1
  3
ACAD_XREC_ROUNDTRIP
360
1FB
  0
DICTIONARY
  5
1DE
330
2B
100
AcDbDictionary
280
     1
281
     1
  3
ACAD_XREC_ROUNDTRIP
360
1DF
  0
DICTIONARY
  5
1E0
330
2C
100
AcDbDictionary
280
     1
281
     1
  3
ACAD_XREC_ROUNDTRIP
360
1E1
  0
DICTIONARY
  5
1E2
330
2D
100
AcDbDictionary
280
     1
281
     1
  3
ACAD_XREC_ROUNDTRIP
360
1E3
  0
DICTIONARY
  5
1E4
330
2E
100
AcDbDictionary
280
     1
281
     1
  3
ACAD_XREC_ROUNDTRIP
360
1E5
  0
DICTIONARY
  5
1EA
330
31
100
AcDbDictionary
280
     1
281
     1
  3
ACAD_XREC_ROUNDTRIP
360
1EB
  0
DICTIONARY
  5
1FE
330
3B
100
AcDbDictionary
280
     1
281
     1
  3
ACAD_XREC_ROUNDTRIP
360
1FF
  0
DICTIONARY
  5
1F8
330
38
100
AcDbDictionary
280
     1
281
     1
  3
ACAD_XREC_ROUNDTRIP
360
1F9
  0
DICTIONARY
  5
200
330
3C
100
AcDbDictionary
280
     1
281
     1
  3
ACAD_XREC_ROUNDTRIP
360
201
  0
DICTIONARY
  5
1EE
330
33
100
AcDbDictionary
280
     1
281
     1
  3
ACAD_XREC_ROUNDTRIP
360
1EF
  0
DICTIONARY
  5
20C
330
42
100
AcDbDictionary
280
     1
281
     1
  3
ACAD_XREC_ROUNDTRIP
360
20D
  0
DICTIONARY
  5
20A
330
41
100
AcDbDictionary
280
     1
281
     1
  3
ACAD_XREC_ROUNDTRIP
360
20B
  0
DICTIONARY
  5
204
330
3E
100
AcDbDictionary
280
     1
281
     1
  3
ACAD_XREC_ROUNDTRIP
360
205
  0
DICTIONARY
  5
206
330
3F
100
AcDbDictionary
280
     1
281
     1
  3
ACAD_XREC_ROUNDTRIP
360
207
  0
DICTIONARY
  5
1F6
330
37
100
AcDbDictionary
280
     1
281
     1
  3
ACAD_XREC_ROUNDTRIP
360
1F7
  0
DICTIONARY
  5
1E8
330
30
100
AcDbDictionary
280
     1
281
     1
  3
ACAD_XREC_ROUNDTRIP
360
1E9
  0
DICTIONARY
  5
208
330
40
100
AcDbDictionary
280
     1
281
     1
  3
ACAD_XREC_ROUNDTRIP
360
209
  0
XRECORD
  5
211
102
{ACAD_REACTORS
330
210
102
}
330
210
100
AcDbXrecord
280
     1
102
MATERIAL
148
0.0
149
0.0
149
0.0
 93
        0
 94
      127
282
     0
 72
     1
 77
     1
171
     1
175
     1
179
     1
273
     0
  0
XRECORD
  5
20F
102
{ACAD_REACTORS
330
20E
102
}
330
20E
100
AcDbXrecord
280
     1
102
MATERIAL
148
0.0
149
0.0
149
0.0
 93
        0
 94
      127
282
     0
 72
     1
 77
     1
171
     1
175
     1
179
     1
273
     0
  0
XRECORD
  5
213
102
{ACAD_REACTORS
330
212
102
}
330
212
100
AcDbXrecord
280
     1
102
MATERIAL
148
0.0
149
0.0
149
0.0
 93
        0
 94
      127
282
     0
 72
     1
 77
     1
171
     1
175
     1
179
     1
273
     0
  0
XRECORD
  5
216
102
{ACAD_REACTORS
330
215
102
}
330
215
100
AcDbXrecord
280
     1
102
ACAD_ROUNDTRIP_2010_MLEADER_STYLE
  0
XRECORD
  5
1E7
102
{ACAD_REACTORS
330
1E6
102
}
330
1E6
100
AcDbXrecord
280
     1
102
RTVSPropertyOp0
 70
     1
102
RTVSPropertyOp1
 70
     1
102
RTVSPropertyOp2
 70
     1
102
RTVSPropertyOp3
 70
     1
102
RTVSPropertyOp4
 70
     1
102
RTVSPropertyOp5
 70
     1
102
RTVSPropertyOp6
 70
     1
102
RTVSPropertyOp7
 70
     1
102
RTVSPropertyOp8
 70
     1
102
RTVSPropertyOp9
 70
     1
102
RTVSPropertyOp10
 70
     1
102
RTVSPropertyOp11
 70
     1
102
RTVSPropertyOp12
 70
     1
102
RTVSPropertyOp13
 70
     1
102
RTVSPropertyOp14
 70
     1
102
RTVSPropertyOp15
 70
     1
102
RTVSPropertyOp16
 70
     1
102
RTVSPropertyOp17
 70
     1
102
RTVSPropertyOp18
 70
     1
102
RTVSPropertyOp19
 70
     1
102
RTVSPropertyOp20
 70
     1
102
RTVSPropertyOp21
 70
     1
102
RTVSPropertyOp22
 70
     1
102
RTVSPropertyOp23
 70
     1
102
RTVSPropertyOp24
 70
     1
102
RTVSPropertyOp25
 70
     1
102
RTVSPropertyOp26
 70
     1
102
RTVSPropertyOp27
 70
     1
102
RTVSPropertyOp28
 70
     1
102
RTVSPropertyOp29
 70
     1
102
RTVSPropertyOp30
 70
     1
102
RTVSPropertyOp31
 70
     1
102
RTVSPropertyOp32
 70
     1
102
RTVSPropertyOp33
 70
     1
102
RTVSPropertyOp34
 70
     1
102
RTVSPropertyOp35
 70
     1
102
RTVSPropertyOp36
 70
     1
102
RTVSPropertyOp37
 70
     1
102
RTVSPropertyOp38
 70
     1
102
RTVSPropertyOp39
 70
     1
102
RTVSPropertyOp40
 70
     1
102
RTVSPropertyOp41
 70
     1
102
RTVSPropertyOp42
 70
     1
102
RTVSPropertyOp43
 70
     1
102
RTVSPropertyOp44
 70
     1
102
RTVSPropertyOp45
 70
     1
102
RTVSPropertyOp46
 70
     1
102
RTVSPropertyOp47
 70
     1
102
RTVSPropertyOp48
 70
     1
102
RTVSPropertyOp49
 70
     1
102
RTVSPropertyOp50
 70
     1
102
RTVSPropertyOp51
 70
     0
102
RTVSPropertyOp52
 70
     0
102
RTVSPropertyOp53
 70
     1
102
RTVSPropertyOp54
 70
     1
102
RTVSPropertyOp55
 70
     1
102
RTVSPropertyOp56
 70
     1
102
RTVSPropertyOp57
 70
     1
102
RTVSPost2010Prop28
280
     1
102
RTVSPost2010PropOp28
 70
     1
102
RTVSPost2010Prop29
280
     1
102
RTVSPost2010PropOp29
 70
     1
102
RTVSPost2010Prop30
280
     0
102
RTVSPost2010PropOp30
 70
     1
102
RTVSPost2010Prop31
280
     0
102
RTVSPost2010PropOp31
 70
     1
102
RTVSPost2010Prop32
280
     0
102
RTVSPost2010PropOp32
 70
     1
102
RTVSPost2010Prop33
280
     0
102
RTVSPost2010PropOp33
 70
     1
102
RTVSPost2010Prop34
280
     0
102
RTVSPost2010PropOp34
 70
     1
102
RTVSPost2010Prop35
280
     0
102
RTVSPost2010PropOp35
 70
     1
102
RTVSPost2010Prop36
280
     0
102
RTVSPost2010PropOp36
 70
     1
102
RTVSPost2010Prop37
 90
       50
102
RTVSPost2010PropOp37
 70
     1
102
RTVSPost2010Prop38
140
0.0
102
RTVSPost2010PropOp38
 70
     1
102
RTVSPost2010Prop39
140
1.0
102
RTVSPost2010PropOp39
 70
     1
102
RTVSPost2010Prop40
 90
        0
102
RTVSPost2010PropOp40
 70
     1
102
RTVSPost2010Prop41ColorIndex
 90
       18
102
RTVSPost2010Prop41ColorRGB
 90
        0
102
RTVSPost2010PropOp41
 70
     1
102
RTVSPost2010Prop42
 90
       50
102
RTVSPost2010PropOp42
 70
     1
102
RTVSPost2010Prop43
 90
        3
102
RTVSPost2010PropOp43
 70
     1
102
RTVSPost2010Prop44ColorIndex
 90
        5
102
RTVSPost2010Prop44ColorRGB
 90
      255
102
RTVSPost2010PropOp44
 70
     1
102
RTVSPost2010Prop45
280
     0
102
RTVSPost2010PropOp45
 70
     1
102
RTVSPost2010Prop46
 90
       50
102
RTVSPost2010PropOp46
 70
     1
102
RTVSPost2010Prop47
 90
       50
102
RTVSPost2010PropOp47
 70
     1
102
RTVSPost2010Prop48
 90
       50
102
RTVSPost2010PropOp48
 70
     1
102
RTVSPost2010Prop49
280
     0
102
RTVSPost2010PropOp49
 70
     1
102
RTVSPost2010Prop50
 90
       50
102
RTVSPost2010PropOp50
 70
     1
102
RTVSPost2010Prop51ColorIndex
 90
      256
102
RTVSPost2010Prop51ColorRGB
 90
-16777216
102
RTVSPost2010PropOp51
 70
     0
102
RTVSPost2010Prop52
140
1.0
102
RTVSPost2010PropOp52
 70
     0
102
RTVSPost2010Prop53
 90
        2
102
RTVSPost2010PropOp53
 70
     1
102
RTVSPost2010Prop54
  1
strokes_ogs.tif
102
RTVSPost2010PropOp54
 70
     1
102
RTVSPost2010Prop55
280
     0
102
RTVSPost2010PropOp55
 70
     1
102
RTVSPost2010Prop56
140
1.0
102
RTVSPost2010PropOp56
 70
     1
102
RTVSPost2010Prop57
140
1.0
102
RTVSPost2010PropOp57
 70
     1
  0
XRECORD
  5
1ED
102
{ACAD_REACTORS
330
1EC
102
}
330
1EC
100
AcDbXrecord
280
     1
102
RTVSPropertyOp0
 70
     1
102
RTVSPropertyOp1
 70
     1
102
RTVSPropertyOp2
 70
     1
102
RTVSPropertyOp3
 70
     1
102
RTVSPropertyOp4
 70
     1
102
RTVSPropertyOp5
 70
     1
102
RTVSPropertyOp6
 70
     1
102
RTVSPropertyOp7
 70
     1
102
RTVSPropertyOp8
 70
     1
102
RTVSPropertyOp9
 70
     1
102
RTVSPropertyOp10
 70
     1
102
RTVSPropertyOp11
 70
     1
102
RTVSPropertyOp12
 70
     1
102
RTVSPropertyOp13
 70
     1
102
RTVSPropertyOp14
 70
     1
102
RTVSPropertyOp15
 70
     1
102
RTVSPropertyOp16
 70
     1
102
RTVSPropertyOp17
 70
     1
102
RTVSPropertyOp18
 70
     1
102
RTVSPropertyOp19
 70
     1
102
RTVSPropertyOp20
 70
     1
102
RTVSPropertyOp21
 70
     1
102
RTVSPropertyOp22
 70
     1
102
RTVSPropertyOp23
 70
     1
102
RTVSPropertyOp24
 70
     1
102
RTVSPropertyOp25
 70
     1
102
RTVSPropertyOp26
 70
     1
102
RTVSPropertyOp27
 70
     1
102
RTVSPropertyOp28
 70
     1
102
RTVSPropertyOp29
 70
     1
102
RTVSPropertyOp30
 70
     1
102
RTVSPropertyOp31
 70
     1
102
RTVSPropertyOp32
 70
     1
102
RTVSPropertyOp33
 70
     1
102
RTVSPropertyOp34
 70
     1
102
RTVSPropertyOp35
 70
     1
102
RTVSPropertyOp36
 70
     1
102
RTVSPropertyOp37
 70
     1
102
RTVSPropertyOp38
 70
     1
102
RTVSPropertyOp39
 70
     1
102
RTVSPropertyOp40
 70
     1
102
RTVSPropertyOp41
 70
     1
102
RTVSPropertyOp42
 70
     1
102
RTVSPropertyOp43
 70
     1
102
RTVSPropertyOp44
 70
     1
102
RTVSPropertyOp45
 70
     1
102
RTVSPropertyOp46
 70
     1
102
RTVSPropertyOp47
 70
     1
102
RTVSPropertyOp48
 70
     1
102
RTVSPropertyOp49
 70
     1
102
RTVSPropertyOp50
 70
     1
102
RTVSPropertyOp51
 70
     0
102
RTVSPropertyOp52
 70
     0
102
RTVSPropertyOp53
 70
     1
102
RTVSPropertyOp54
 70
     1
102
RTVSPropertyOp55
 70
     1
102
RTVSPropertyOp56
 70
     1
102
RTVSPropertyOp57
 70
     1
102
RTVSPost2010Prop28
280
     0
102
RTVSPost2010PropOp28
 70
     1
102
RTVSPost2010Prop29
280
     1
102
RTVSPost2010PropOp29
 70
     1
102
RTVSPost2010Prop30
280
     1
102
RTVSPost2010PropOp30
 70
     1
102
RTVSPost2010Prop31
280
     0
102
RTVSPost2010PropOp31
 70
     1
102
RTVSPost2010Prop32
280
     0
102
RTVSPost2010PropOp32
 70
     1
102
RTVSPost2010Prop33
280
     0
102
RTVSPost2010PropOp33
 70
     1
102
RTVSPost2010Prop34
280
     0
102
RTVSPost2010PropOp34
 70
     1
102
RTVSPost2010Prop35
280
     0
102
RTVSPost2010PropOp35
 70
     1
102
RTVSPost2010Prop36
280
     0
102
RTVSPost2010PropOp36
 70
     1
102
RTVSPost2010Prop37
 90
       50
102
RTVSPost2010PropOp37
 70
     1
102
RTVSPost2010Prop38
140
0.0
102
RTVSPost2010PropOp38
 70
     1
102
RTVSPost2010Prop39
140
1.0
102
RTVSPost2010PropOp39
 70
     1
102
RTVSPost2010Prop40
 90
        0
102
RTVSPost2010PropOp40
 70
     1
102
RTVSPost2010Prop41ColorIndex
 90
       18
102
RTVSPost2010Prop41ColorRGB
 90
        0
102
RTVSPost2010PropOp41
 70
     1
102
RTVSPost2010Prop42
 90
       50
102
RTVSPost2010PropOp42
 70
     1
102
RTVSPost2010Prop43
 90
        3
102
RTVSPost2010PropOp43
 70
     1
102
RTVSPost2010Prop44ColorIndex
 90
        5
102
RTVSPost2010Prop44ColorRGB
 90
      255
102
RTVSPost2010PropOp44
 70
     1
102
RTVSPost2010Prop45
280
     0
102
RTVSPost2010PropOp45
 70
     1
102
RTVSPost2010Prop46
 90
       50
102
RTVSPost2010PropOp46
 70
     1
102
RTVSPost2010Prop47
 90
       50
102
RTVSPost2010PropOp47
 70
     1
102
RTVSPost2010Prop48
 90
       50
102
RTVSPost2010PropOp48
 70
     1
102
RTVSPost2010Prop49
280
     0
102
RTVSPost2010PropOp49
 70
     1
102
RTVSPost2010Prop50
 90
       50
102
RTVSPost2010PropOp50
 70
     1
102
RTVSPost2010Prop51ColorIndex
 90
      256
102
RTVSPost2010Prop51ColorRGB
 90
-16777216
102
RTVSPost2010PropOp51
 70
     0
102
RTVSPost2010Prop52
140
1.0
102
RTVSPost2010PropOp52
 70
     0
102
RTVSPost2010Prop53
 90
        2
102
RTVSPost2010PropOp53
 70
     1
102
RTVSPost2010Prop54
  1
strokes_ogs.tif
102
RTVSPost2010PropOp54
 70
     1
102
RTVSPost2010Prop55
280
     0
102
RTVSPost2010PropOp55
 70
     1
102
RTVSPost2010Prop56
140
1.0
102
RTVSPost2010PropOp56
 70
     1
102
RTVSPost2010Prop57
140
1.0
102
RTVSPost2010PropOp57
 70
     1
  0
XRECORD
  5
1F5
102
{ACAD_REACTORS
330
1F4
102
}
330
1F4
100
AcDbXrecord
280
     1
102
RTVSPropertyOp0
 70
     1
102
RTVSPropertyOp1
 70
     1
102
RTVSPropertyOp2
 70
     1
102
RTVSPropertyOp3
 70
     1
102
RTVSPropertyOp4
 70
     1
102
RTVSPropertyOp5
 70
     1
102
RTVSPropertyOp6
 70
     1
102
RTVSPropertyOp7
 70
     1
102
RTVSPropertyOp8
 70
     1
102
RTVSPropertyOp9
 70
     1
102
RTVSPropertyOp10
 70
     1
102
RTVSPropertyOp11
 70
     1
102
RTVSPropertyOp12
 70
     1
102
RTVSPropertyOp13
 70
     1
102
RTVSPropertyOp14
 70
     1
102
RTVSPropertyOp15
 70
     1
102
RTVSPropertyOp16
 70
     1
102
RTVSPropertyOp17
 70
     1
102
RTVSPropertyOp18
 70
     1
102
RTVSPropertyOp19
 70
     1
102
RTVSPropertyOp20
 70
     1
102
RTVSPropertyOp21
 70
     1
102
RTVSPropertyOp22
 70
     1
102
RTVSPropertyOp23
 70
     1
102
RTVSPropertyOp24
 70
     1
102
RTVSPropertyOp25
 70
     1
102
RTVSPropertyOp26
 70
     1
102
RTVSPropertyOp27
 70
     1
102
RTVSPropertyOp28
 70
     1
102
RTVSPropertyOp29
 70
     1
102
RTVSPropertyOp30
 70
     1
102
RTVSPropertyOp31
 70
     1
102
RTVSPropertyOp32
 70
     1
102
RTVSPropertyOp33
 70
     1
102
RTVSPropertyOp34
 70
     1
102
RTVSPropertyOp35
 70
     1
102
RTVSPropertyOp36
 70
     1
102
RTVSPropertyOp37
 70
     1
102
RTVSPropertyOp38
 70
     1
102
RTVSPropertyOp39
 70
     1
102
RTVSPropertyOp40
 70
     1
102
RTVSPropertyOp41
 70
     1
102
RTVSPropertyOp42
 70
     1
102
RTVSPropertyOp43
 70
     1
102
RTVSPropertyOp44
 70
     1
102
RTVSPropertyOp45
 70
     1
102
RTVSPropertyOp46
 70
     1
102
RTVSPropertyOp47
 70
     1
102
RTVSPropertyOp48
 70
     1
102
RTVSPropertyOp49
 70
     1
102
RTVSPropertyOp50
 70
     1
102
RTVSPropertyOp51
 70
     0
102
RTVSPropertyOp52
 70
     0
102
RTVSPropertyOp53
 70
     1
102
RTVSPropertyOp54
 70
     1
102
RTVSPropertyOp55
 70
     1
102
RTVSPropertyOp56
 70
     1
102
RTVSPropertyOp57
 70
     1
102
RTVSPost2010Prop28
280
     0
102
RTVSPost2010PropOp28
 70
     1
102
RTVSPost2010Prop29
280
     1
102
RTVSPost2010PropOp29
 70
     1
102
RTVSPost2010Prop30
280
     1
102
RTVSPost2010PropOp30
 70
     1
102
RTVSPost2010Prop31
280
     0
102
RTVSPost2010PropOp31
 70
     1
102
RTVSPost2010Prop32
280
     0
102
RTVSPost2010PropOp32
 70
     1
102
RTVSPost2010Prop33
280
     0
102
RTVSPost2010PropOp33
 70
     1
102
RTVSPost2010Prop34
280
     0
102
RTVSPost2010PropOp34
 70
     1
102
RTVSPost2010Prop35
280
     0
102
RTVSPost2010PropOp35
 70
     1
102
RTVSPost2010Prop36
280
     0
102
RTVSPost2010PropOp36
 70
     1
102
RTVSPost2010Prop37
 90
       50
102
RTVSPost2010PropOp37
 70
     1
102
RTVSPost2010Prop38
140
0.0
102
RTVSPost2010PropOp38
 70
     1
102
RTVSPost2010Prop39
140
1.0
102
RTVSPost2010PropOp39
 70
     1
102
RTVSPost2010Prop40
 90
        0
102
RTVSPost2010PropOp40
 70
     1
102
RTVSPost2010Prop41ColorIndex
 90
       18
102
RTVSPost2010Prop41ColorRGB
 90
        0
102
RTVSPost2010PropOp41
 70
     1
102
RTVSPost2010Prop42
 90
       50
102
RTVSPost2010PropOp42
 70
     1
102
RTVSPost2010Prop43
 90
        3
102
RTVSPost2010PropOp43
 70
     1
102
RTVSPost2010Prop44ColorIndex
 90
        5
102
RTVSPost2010Prop44ColorRGB
 90
      255
102
RTVSPost2010PropOp44
 70
     1
102
RTVSPost2010Prop45
280
     0
102
RTVSPost2010PropOp45
 70
     1
102
RTVSPost2010Prop46
 90
       50
102
RTVSPost2010PropOp46
 70
     1
102
RTVSPost2010Prop47
 90
       50
102
RTVSPost2010PropOp47
 70
     1
102
RTVSPost2010Prop48
 90
       50
102
RTVSPost2010PropOp48
 70
     1
102
RTVSPost2010Prop49
280
     0
102
RTVSPost2010PropOp49
 70
     1
102
RTVSPost2010Prop50
 90
       50
102
RTVSPost2010PropOp50
 70
     1
102
RTVSPost2010Prop51ColorIndex
 90
      256
102
RTVSPost2010Prop51ColorRGB
 90
-16777216
102
RTVSPost2010PropOp51
 70
     0
102
RTVSPost2010Prop52
140
1.0
102
RTVSPost2010PropOp52
 70
     0
102
RTVSPost2010Prop53
 90
        2
102
RTVSPost2010PropOp53
 70
     1
102
RTVSPost2010Prop54
  1
strokes_ogs.tif
102
RTVSPost2010PropOp54
 70
     1
102
RTVSPost2010Prop55
280
     0
102
RTVSPost2010PropOp55
 70
     1
102
RTVSPost2010Prop56
140
1.0
102
RTVSPost2010PropOp56
 70
     1
102
RTVSPost2010Prop57
140
1.0
102
RTVSPost2010PropOp57
 70
     1
  0
XRECORD
  5
1FD
102
{ACAD_REACTORS
330
1FC
102
}
330
1FC
100
AcDbXrecord
280
     1
102
RTVSPropertyOp0
 70
     1
102
RTVSPropertyOp1
 70
     1
102
RTVSPropertyOp2
 70
     1
102
RTVSPropertyOp3
 70
     1
102
RTVSPropertyOp4
 70
     1
102
RTVSPropertyOp5
 70
     1
102
RTVSPropertyOp6
 70
     1
102
RTVSPropertyOp7
 70
     1
102
RTVSPropertyOp8
 70
     1
102
RTVSPropertyOp9
 70
     1
102
RTVSPropertyOp10
 70
     1
102
RTVSPropertyOp11
 70
     1
102
RTVSPropertyOp12
 70
     1
102
RTVSPropertyOp13
 70
     1
102
RTVSPropertyOp14
 70
     1
102
RTVSPropertyOp15
 70
     1
102
RTVSPropertyOp16
 70
     1
102
RTVSPropertyOp17
 70
     1
102
RTVSPropertyOp18
 70
     1
102
RTVSPropertyOp19
 70
     1
102
RTVSPropertyOp20
 70
     1
102
RTVSPropertyOp21
 70
     1
102
RTVSPropertyOp22
 70
     1
102
RTVSPropertyOp23
 70
     1
102
RTVSPropertyOp24
 70
     1
102
RTVSPropertyOp25
 70
     1
102
RTVSPropertyOp26
 70
     1
102
RTVSPropertyOp27
 70
     1
102
RTVSPropertyOp28
 70
     1
102
RTVSPropertyOp29
 70
     1
102
RTVSPropertyOp30
 70
     1
102
RTVSPropertyOp31
 70
     1
102
RTVSPropertyOp32
 70
     1
102
RTVSPropertyOp33
 70
     1
102
RTVSPropertyOp34
 70
     1
102
RTVSPropertyOp35
 70
     1
102
RTVSPropertyOp36
 70
     1
102
RTVSPropertyOp37
 70
     1
102
RTVSPropertyOp38
 70
     1
102
RTVSPropertyOp39
 70
     1
102
RTVSPropertyOp40
 70
     1
102
RTVSPropertyOp41
 70
     1
102
RTVSPropertyOp42
 70
     1
102
RTVSPropertyOp43
 70
     1
102
RTVSPropertyOp44
 70
     1
102
RTVSPropertyOp45
 70
     1
102
RTVSPropertyOp46
 70
     1
102
RTVSPropertyOp47
 70
     1
102
RTVSPropertyOp48
 70
     1
102
RTVSPropertyOp49
 70
     1
102
RTVSPropertyOp50
 70
     1
102
RTVSPropertyOp51
 70
     0
102
RTVSPropertyOp52
 70
     0
102
RTVSPropertyOp53
 70
     1
102
RTVSPropertyOp54
 70
     1
102
RTVSPropertyOp55
 70
     1
102
RTVSPropertyOp56
 70
     1
102
RTVSPropertyOp57
 70
     1
102
RTVSPost2010Prop28
280
     0
102
RTVSPost2010PropOp28
 70
     1
102
RTVSPost2010Prop29
280
     1
102
RTVSPost2010PropOp29
 70
     1
102
RTVSPost2010Prop30
280
     1
102
RTVSPost2010PropOp30
 70
     1
102
RTVSPost2010Prop31
280
     0
102
RTVSPost2010PropOp31
 70
     1
102
RTVSPost2010Prop32
280
     0
102
RTVSPost2010PropOp32
 70
     1
102
RTVSPost2010Prop33
280
     0
102
RTVSPost2010PropOp33
 70
     1
102
RTVSPost2010Prop34
280
     0
102
RTVSPost2010PropOp34
 70
     1
102
RTVSPost2010Prop35
280
     0
102
RTVSPost2010PropOp35
 70
     1
102
RTVSPost2010Prop36
280
     0
102
RTVSPost2010PropOp36
 70
     1
102
RTVSPost2010Prop37
 90
       50
102
RTVSPost2010PropOp37
 70
     1
102
RTVSPost2010Prop38
140
0.0
102
RTVSPost2010PropOp38
 70
     1
102
RTVSPost2010Prop39
140
1.0
102
RTVSPost2010PropOp39
 70
     1
102
RTVSPost2010Prop40
 90
        0
102
RTVSPost2010PropOp40
 70
     1
102
RTVSPost2010Prop41ColorIndex
 90
       18
102
RTVSPost2010Prop41ColorRGB
 90
        0
102
RTVSPost2010PropOp41
 70
     1
102
RTVSPost2010Prop42
 90
       50
102
RTVSPost2010PropOp42
 70
     1
102
RTVSPost2010Prop43
 90
        3
102
RTVSPost2010PropOp43
 70
     1
102
RTVSPost2010Prop44ColorIndex
 90
        5
102
RTVSPost2010Prop44ColorRGB
 90
      255
102
RTVSPost2010PropOp44
 70
     1
102
RTVSPost2010Prop45
280
     0
102
RTVSPost2010PropOp45
 70
     1
102
RTVSPost2010Prop46
 90
       50
102
RTVSPost2010PropOp46
 70
     1
102
RTVSPost2010Prop47
 90
       50
102
RTVSPost2010PropOp47
 70
     1
102
RTVSPost2010Prop48
 90
       50
102
RTVSPost2010PropOp48
 70
     1
102
RTVSPost2010Prop49
280
     0
102
RTVSPost2010PropOp49
 70
     1
102
RTVSPost2010Prop50
 90
       50
102
RTVSPost2010PropOp50
 70
     1
102
RTVSPost2010Prop51ColorIndex
 90
      256
102
RTVSPost2010Prop51ColorRGB
 90
-16777216
102
RTVSPost2010PropOp51
 70
     0
102
RTVSPost2010Prop52
140
1.0
102
RTVSPost2010PropOp52
 70
     0
102
RTVSPost2010Prop53
 90
        2
102
RTVSPost2010PropOp53
 70
     1
102
RTVSPost2010Prop54
  1
strokes_ogs.tif
102
RTVSPost2010PropOp54
 70
     1
102
RTVSPost2010Prop55
280
     0
102
RTVSPost2010PropOp55
 70
     1
102
RTVSPost2010Prop56
140
1.0
102
RTVSPost2010PropOp56
 70
     1
102
RTVSPost2010Prop57
140
1.0
102
RTVSPost2010PropOp57
 70
     1
  0
XRECORD
  5
1F1
102
{ACAD_REACTORS
330
1F0
102
}
330
1F0
100
AcDbXrecord
280
     1
102
RTVSPropertyOp0
 70
     1
102
RTVSPropertyOp1
 70
     1
102
RTVSPropertyOp2
 70
     1
102
RTVSPropertyOp3
 70
     1
102
RTVSPropertyOp4
 70
     1
102
RTVSPropertyOp5
 70
     1
102
RTVSPropertyOp6
 70
     1
102
RTVSPropertyOp7
 70
     1
102
RTVSPropertyOp8
 70
     1
102
RTVSPropertyOp9
 70
     1
102
RTVSPropertyOp10
 70
     1
102
RTVSPropertyOp11
 70
     1
102
RTVSPropertyOp12
 70
     1
102
RTVSPropertyOp13
 70
     1
102
RTVSPropertyOp14
 70
     1
102
RTVSPropertyOp15
 70
     1
102
RTVSPropertyOp16
 70
     1
102
RTVSPropertyOp17
 70
     1
102
RTVSPropertyOp18
 70
     1
102
RTVSPropertyOp19
 70
     1
102
RTVSPropertyOp20
 70
     1
102
RTVSPropertyOp21
 70
     1
102
RTVSPropertyOp22
 70
     1
102
RTVSPropertyOp23
 70
     1
102
RTVSPropertyOp24
 70
     1
102
RTVSPropertyOp25
 70
     1
102
RTVSPropertyOp26
 70
     1
102
RTVSPropertyOp27
 70
     1
102
RTVSPropertyOp28
 70
     1
102
RTVSPropertyOp29
 70
     1
102
RTVSPropertyOp30
 70
     1
102
RTVSPropertyOp31
 70
     1
102
RTVSPropertyOp32
 70
     1
102
RTVSPropertyOp33
 70
     1
102
RTVSPropertyOp34
 70
     1
102
RTVSPropertyOp35
 70
     1
102
RTVSPropertyOp36
 70
     1
102
RTVSPropertyOp37
 70
     1
102
RTVSPropertyOp38
 70
     1
102
RTVSPropertyOp39
 70
     1
102
RTVSPropertyOp40
 70
     1
102
RTVSPropertyOp41
 70
     1
102
RTVSPropertyOp42
 70
     1
102
RTVSPropertyOp43
 70
     1
102
RTVSPropertyOp44
 70
     1
102
RTVSPropertyOp45
 70
     1
102
RTVSPropertyOp46
 70
     1
102
RTVSPropertyOp47
 70
     1
102
RTVSPropertyOp48
 70
     1
102
RTVSPropertyOp49
 70
     1
102
RTVSPropertyOp50
 70
     1
102
RTVSPropertyOp51
 70
     0
102
RTVSPropertyOp52
 70
     0
102
RTVSPropertyOp53
 70
     1
102
RTVSPropertyOp54
 70
     1
102
RTVSPropertyOp55
 70
     1
102
RTVSPropertyOp56
 70
     1
102
RTVSPropertyOp57
 70
     1
102
RTVSPost2010Prop28
280
     0
102
RTVSPost2010PropOp28
 70
     1
102
RTVSPost2010Prop29
280
     1
102
RTVSPost2010PropOp29
 70
     1
102
RTVSPost2010Prop30
280
     1
102
RTVSPost2010PropOp30
 70
     1
102
RTVSPost2010Prop31
280
     0
102
RTVSPost2010PropOp31
 70
     1
102
RTVSPost2010Prop32
280
     0
102
RTVSPost2010PropOp32
 70
     1
102
RTVSPost2010Prop33
280
     0
102
RTVSPost2010PropOp33
 70
     1
102
RTVSPost2010Prop34
280
     0
102
RTVSPost2010PropOp34
 70
     1
102
RTVSPost2010Prop35
280
     0
102
RTVSPost2010PropOp35
 70
     1
102
RTVSPost2010Prop36
280
     0
102
RTVSPost2010PropOp36
 70
     1
102
RTVSPost2010Prop37
 90
       50
102
RTVSPost2010PropOp37
 70
     1
102
RTVSPost2010Prop38
140
0.0
102
RTVSPost2010PropOp38
 70
     1
102
RTVSPost2010Prop39
140
1.0
102
RTVSPost2010PropOp39
 70
     1
102
RTVSPost2010Prop40
 90
        0
102
RTVSPost2010PropOp40
 70
     1
102
RTVSPost2010Prop41ColorIndex
 90
       18
102
RTVSPost2010Prop41ColorRGB
 90
        0
102
RTVSPost2010PropOp41
 70
     1
102
RTVSPost2010Prop42
 90
       50
102
RTVSPost2010PropOp42
 70
     1
102
RTVSPost2010Prop43
 90
        3
102
RTVSPost2010PropOp43
 70
     1
102
RTVSPost2010Prop44ColorIndex
 90
        5
102
RTVSPost2010Prop44ColorRGB
 90
      255
102
RTVSPost2010PropOp44
 70
     1
102
RTVSPost2010Prop45
280
     0
102
RTVSPost2010PropOp45
 70
     1
102
RTVSPost2010Prop46
 90
       50
102
RTVSPost2010PropOp46
 70
     1
102
RTVSPost2010Prop47
 90
       50
102
RTVSPost2010PropOp47
 70
     1
102
RTVSPost2010Prop48
 90
       50
102
RTVSPost2010PropOp48
 70
     1
102
RTVSPost2010Prop49
280
     0
102
RTVSPost2010PropOp49
 70
     1
102
RTVSPost2010Prop50
 90
       50
102
RTVSPost2010PropOp50
 70
     1
102
RTVSPost2010Prop51ColorIndex
 90
      256
102
RTVSPost2010Prop51ColorRGB
 90
-16777216
102
RTVSPost2010PropOp51
 70
     0
102
RTVSPost2010Prop52
140
1.0
102
RTVSPost2010PropOp52
 70
     0
102
RTVSPost2010Prop53
 90
        2
102
RTVSPost2010PropOp53
 70
     1
102
RTVSPost2010Prop54
  1
strokes_ogs.tif
102
RTVSPost2010PropOp54
 70
     1
102
RTVSPost2010Prop55
280
     0
102
RTVSPost2010PropOp55
 70
     1
102
RTVSPost2010Prop56
140
1.0
102
RTVSPost2010PropOp56
 70
     1
102
RTVSPost2010Prop57
140
1.0
102
RTVSPost2010PropOp57
 70
     1
  0
XRECORD
  5
1F3
102
{ACAD_REACTORS
330
1F2
102
}
330
1F2
100
AcDbXrecord
280
     1
102
RTVSPropertyOp0
 70
     1
102
RTVSPropertyOp1
 70
     1
102
RTVSPropertyOp2
 70
     1
102
RTVSPropertyOp3
 70
     1
102
RTVSPropertyOp4
 70
     1
102
RTVSPropertyOp5
 70
     1
102
RTVSPropertyOp6
 70
     1
102
RTVSPropertyOp7
 70
     1
102
RTVSPropertyOp8
 70
     1
102
RTVSPropertyOp9
 70
     1
102
RTVSPropertyOp10
 70
     1
102
RTVSPropertyOp11
 70
     1
102
RTVSPropertyOp12
 70
     1
102
RTVSPropertyOp13
 70
     1
102
RTVSPropertyOp14
 70
     1
102
RTVSPropertyOp15
 70
     1
102
RTVSPropertyOp16
 70
     1
102
RTVSPropertyOp17
 70
     1
102
RTVSPropertyOp18
 70
     1
102
RTVSPropertyOp19
 70
     1
102
RTVSPropertyOp20
 70
     1
102
RTVSPropertyOp21
 70
     1
102
RTVSPropertyOp22
 70
     1
102
RTVSPropertyOp23
 70
     1
102
RTVSPropertyOp24
 70
     1
102
RTVSPropertyOp25
 70
     1
102
RTVSPropertyOp26
 70
     1
102
RTVSPropertyOp27
 70
     1
102
RTVSPropertyOp28
 70
     1
102
RTVSPropertyOp29
 70
     1
102
RTVSPropertyOp30
 70
     1
102
RTVSPropertyOp31
 70
     1
102
RTVSPropertyOp32
 70
     1
102
RTVSPropertyOp33
 70
     1
102
RTVSPropertyOp34
 70
     1
102
RTVSPropertyOp35
 70
     1
102
RTVSPropertyOp36
 70
     1
102
RTVSPropertyOp37
 70
     1
102
RTVSPropertyOp38
 70
     1
102
RTVSPropertyOp39
 70
     1
102
RTVSPropertyOp40
 70
     1
102
RTVSPropertyOp41
 70
     1
102
RTVSPropertyOp42
 70
     1
102
RTVSPropertyOp43
 70
     1
102
RTVSPropertyOp44
 70
     1
102
RTVSPropertyOp45
 70
     1
102
RTVSPropertyOp46
 70
     1
102
RTVSPropertyOp47
 70
     1
102
RTVSPropertyOp48
 70
     1
102
RTVSPropertyOp49
 70
     1
102
RTVSPropertyOp50
 70
     1
102
RTVSPropertyOp51
 70
     0
102
RTVSPropertyOp52
 70
     0
102
RTVSPropertyOp53
 70
     1
102
RTVSPropertyOp54
 70
     1
102
RTVSPropertyOp55
 70
     1
102
RTVSPropertyOp56
 70
     1
102
RTVSPropertyOp57
 70
     1
102
RTVSPost2010Prop28
280
     0
102
RTVSPost2010PropOp28
 70
     1
102
RTVSPost2010Prop29
280
     1
102
RTVSPost2010PropOp29
 70
     1
102
RTVSPost2010Prop30
280
     1
102
RTVSPost2010PropOp30
 70
     1
102
RTVSPost2010Prop31
280
     0
102
RTVSPost2010PropOp31
 70
     1
102
RTVSPost2010Prop32
280
     0
102
RTVSPost2010PropOp32
 70
     1
102
RTVSPost2010Prop33
280
     0
102
RTVSPost2010PropOp33
 70
     1
102
RTVSPost2010Prop34
280
     0
102
RTVSPost2010PropOp34
 70
     1
102
RTVSPost2010Prop35
280
     0
102
RTVSPost2010PropOp35
 70
     1
102
RTVSPost2010Prop36
280
     0
102
RTVSPost2010PropOp36
 70
     1
102
RTVSPost2010Prop37
 90
       50
102
RTVSPost2010PropOp37
 70
     1
102
RTVSPost2010Prop38
140
0.0
102
RTVSPost2010PropOp38
 70
     1
102
RTVSPost2010Prop39
140
1.0
102
RTVSPost2010PropOp39
 70
     1
102
RTVSPost2010Prop40
 90
        0
102
RTVSPost2010PropOp40
 70
     1
102
RTVSPost2010Prop41ColorIndex
 90
       18
102
RTVSPost2010Prop41ColorRGB
 90
        0
102
RTVSPost2010PropOp41
 70
     1
102
RTVSPost2010Prop42
 90
       50
102
RTVSPost2010PropOp42
 70
     1
102
RTVSPost2010Prop43
 90
        3
102
RTVSPost2010PropOp43
 70
     1
102
RTVSPost2010Prop44ColorIndex
 90
        5
102
RTVSPost2010Prop44ColorRGB
 90
      255
102
RTVSPost2010PropOp44
 70
     1
102
RTVSPost2010Prop45
280
     0
102
RTVSPost2010PropOp45
 70
     1
102
RTVSPost2010Prop46
 90
       50
102
RTVSPost2010PropOp46
 70
     1
102
RTVSPost2010Prop47
 90
       50
102
RTVSPost2010PropOp47
 70
     1
102
RTVSPost2010Prop48
 90
       50
102
RTVSPost2010PropOp48
 70
     1
102
RTVSPost2010Prop49
280
     0
102
RTVSPost2010PropOp49
 70
     1
102
RTVSPost2010Prop50
 90
       50
102
RTVSPost2010PropOp50
 70
     1
102
RTVSPost2010Prop51ColorIndex
 90
      256
102
RTVSPost2010Prop51ColorRGB
 90
-16777216
102
RTVSPost2010PropOp51
 70
     0
102
RTVSPost2010Prop52
140
1.0
102
RTVSPost2010PropOp52
 70
     0
102
RTVSPost2010Prop53
 90
        2
102
RTVSPost2010PropOp53
 70
     1
102
RTVSPost2010Prop54
  1
strokes_ogs.tif
102
RTVSPost2010PropOp54
 70
     1
102
RTVSPost2010Prop55
280
     0
102
RTVSPost2010PropOp55
 70
     1
102
RTVSPost2010Prop56
140
1.0
102
RTVSPost2010PropOp56
 70
     1
102
RTVSPost2010Prop57
140
1.0
102
RTVSPost2010PropOp57
 70
     1
  0
XRECORD
  5
203
102
{ACAD_REACTORS
330
202
102
}
330
202
100
AcDbXrecord
280
     1
102
RTVSPropertyOp0
 70
     0
102
RTVSPropertyOp1
 70
     0
102
RTVSPropertyOp2
 70
     0
102
RTVSPropertyOp3
 70
     0
102
RTVSPropertyOp4
 70
     0
102
RTVSPropertyOp5
 70
     0
102
RTVSPropertyOp6
 70
     0
102
RTVSPropertyOp7
 70
     0
102
RTVSPropertyOp8
 70
     0
102
RTVSPropertyOp9
 70
     0
102
RTVSPropertyOp10
 70
     0
102
RTVSPropertyOp11
 70
     0
102
RTVSPropertyOp12
 70
     0
102
RTVSPropertyOp13
 70
     0
102
RTVSPropertyOp14
 70
     2
102
RTVSPropertyOp15
 70
     0
102
RTVSPropertyOp16
 70
     0
102
RTVSPropertyOp17
 70
     0
102
RTVSPropertyOp18
 70
     0
102
RTVSPropertyOp19
 70
     0
102
RTVSPropertyOp20
 70
     0
102
RTVSPropertyOp21
 70
     0
102
RTVSPropertyOp22
 70
     0
102
RTVSPropertyOp23
 70
     0
102
RTVSPropertyOp24
 70
     0
102
RTVSPropertyOp25
 70
     0
102
RTVSPropertyOp26
 70
     0
102
RTVSPropertyOp27
 70
     0
102
RTVSPropertyOp28
 70
     0
102
RTVSPropertyOp29
 70
     0
102
RTVSPropertyOp30
 70
     0
102
RTVSPropertyOp31
 70
     0
102
RTVSPropertyOp32
 70
     0
102
RTVSPropertyOp33
 70
     0
102
RTVSPropertyOp34
 70
     0
102
RTVSPropertyOp35
 70
     0
102
RTVSPropertyOp36
 70
     0
102
RTVSPropertyOp37
 70
     0
102
RTVSPropertyOp38
 70
     0
102
RTVSPropertyOp39
 70
     0
102
RTVSPropertyOp40
 70
     0
102
RTVSPropertyOp41
 70
     0
102
RTVSPropertyOp42
 70
     0
102
RTVSPropertyOp43
 70
     0
102
RTVSPropertyOp44
 70
     0
102
RTVSPropertyOp45
 70
     0
102
RTVSPropertyOp46
 70
     0
102
RTVSPropertyOp47
 70
     0
102
RTVSPropertyOp48
 70
     0
102
RTVSPropertyOp49
 70
     0
102
RTVSPropertyOp50
 70
     0
102
RTVSPropertyOp51
 70
     0
102
RTVSPropertyOp52
 70
     0
102
RTVSPropertyOp53
 70
     0
102
RTVSPropertyOp54
 70
     0
102
RTVSPropertyOp55
 70
     0
102
RTVSPropertyOp56
 70
     0
102
RTVSPropertyOp57
 70
     0
102
RTVSPost2010Prop28
280
     0
102
RTVSPost2010PropOp28
 70
     0
102
RTVSPost2010Prop29
280
     1
102
RTVSPost2010PropOp29
 70
     0
102
RTVSPost2010Prop30
280
     1
102
RTVSPost2010PropOp30
 70
     0
102
RTVSPost2010Prop31
280
     0
102
RTVSPost2010PropOp31
 70
     0
102
RTVSPost2010Prop32
280
     0
102
RTVSPost2010PropOp32
 70
     0
102
RTVSPost2010Prop33
280
     0
102
RTVSPost2010PropOp33
 70
     0
102
RTVSPost2010Prop34
280
     0
102
RTVSPost2010PropOp34
 70
     0
102
RTVSPost2010Prop35
280
     0
102
RTVSPost2010PropOp35
 70
     0
102
RTVSPost2010Prop36
280
     0
102
RTVSPost2010PropOp36
 70
     0
102
RTVSPost2010Prop37
 90
       50
102
RTVSPost2010PropOp37
 70
     0
102
RTVSPost2010Prop38
140
0.0
102
RTVSPost2010PropOp38
 70
     0
102
RTVSPost2010Prop39
140
1.0
102
RTVSPost2010PropOp39
 70
     0
102
RTVSPost2010Prop40
 90
        0
102
RTVSPost2010PropOp40
 70
     0
102
RTVSPost2010Prop41ColorIndex
 90
       18
102
RTVSPost2010Prop41ColorRGB
 90
        0
102
RTVSPost2010PropOp41
 70
     0
102
RTVSPost2010Prop42
 90
       50
102
RTVSPost2010PropOp42
 70
     0
102
RTVSPost2010Prop43
 90
        3
102
RTVSPost2010PropOp43
 70
     0
102
RTVSPost2010Prop44ColorIndex
 90
        5
102
RTVSPost2010Prop44ColorRGB
 90
      255
102
RTVSPost2010PropOp44
 70
     0
102
RTVSPost2010Prop45
280
     0
102
RTVSPost2010PropOp45
 70
     0
102
RTVSPost2010Prop46
 90
       50
102
RTVSPost2010PropOp46
 70
     0
102
RTVSPost2010Prop47
 90
       50
102
RTVSPost2010PropOp47
 70
     0
102
RTVSPost2010Prop48
 90
       50
102
RTVSPost2010PropOp48
 70
     0
102
RTVSPost2010Prop49
280
     0
102
RTVSPost2010PropOp49
 70
     0
102
RTVSPost2010Prop50
 90
       50
102
RTVSPost2010PropOp50
 70
     0
102
RTVSPost2010Prop51ColorIndex
 90
      256
102
RTVSPost2010Prop51ColorRGB
 90
-16777216
102
RTVSPost2010PropOp51
 70
     0
102
RTVSPost2010Prop52
140
1.0
102
RTVSPost2010PropOp52
 70
     0
102
RTVSPost2010Prop53
 90
        2
102
RTVSPost2010PropOp53
 70
     0
102
RTVSPost2010Prop54
  1
strokes_ogs.tif
102
RTVSPost2010PropOp54
 70
     0
102
RTVSPost2010Prop55
280
     0
102
RTVSPost2010PropOp55
 70
     0
102
RTVSPost2010Prop56
140
1.0
102
RTVSPost2010PropOp56
 70
     0
102
RTVSPost2010Prop57
140
1.0
102
RTVSPost2010PropOp57
 70
     0
  0
XRECORD
  5
1FB
102
{ACAD_REACTORS
330
1FA
102
}
330
1FA
100
AcDbXrecord
280
     1
102
RTVSPropertyOp0
 70
     1
102
RTVSPropertyOp1
 70
     1
102
RTVSPropertyOp2
 70
     1
102
RTVSPropertyOp3
 70
     1
102
RTVSPropertyOp4
 70
     1
102
RTVSPropertyOp5
 70
     1
102
RTVSPropertyOp6
 70
     1
102
RTVSPropertyOp7
 70
     1
102
RTVSPropertyOp8
 70
     1
102
RTVSPropertyOp9
 70
     1
102
RTVSPropertyOp10
 70
     1
102
RTVSPropertyOp11
 70
     1
102
RTVSPropertyOp12
 70
     1
102
RTVSPropertyOp13
 70
     1
102
RTVSPropertyOp14
 70
     1
102
RTVSPropertyOp15
 70
     1
102
RTVSPropertyOp16
 70
     1
102
RTVSPropertyOp17
 70
     1
102
RTVSPropertyOp18
 70
     1
102
RTVSPropertyOp19
 70
     1
102
RTVSPropertyOp20
 70
     1
102
RTVSPropertyOp21
 70
     1
102
RTVSPropertyOp22
 70
     1
102
RTVSPropertyOp23
 70
     1
102
RTVSPropertyOp24
 70
     1
102
RTVSPropertyOp25
 70
     1
102
RTVSPropertyOp26
 70
     1
102
RTVSPropertyOp27
 70
     1
102
RTVSPropertyOp28
 70
     1
102
RTVSPropertyOp29
 70
     1
102
RTVSPropertyOp30
 70
     1
102
RTVSPropertyOp31
 70
     1
102
RTVSPropertyOp32
 70
     1
102
RTVSPropertyOp33
 70
     1
102
RTVSPropertyOp34
 70
     1
102
RTVSPropertyOp35
 70
     1
102
RTVSPropertyOp36
 70
     1
102
RTVSPropertyOp37
 70
     1
102
RTVSPropertyOp38
 70
     1
102
RTVSPropertyOp39
 70
     1
102
RTVSPropertyOp40
 70
     1
102
RTVSPropertyOp41
 70
     1
102
RTVSPropertyOp42
 70
     1
102
RTVSPropertyOp43
 70
     1
102
RTVSPropertyOp44
 70
     1
102
RTVSPropertyOp45
 70
     1
102
RTVSPropertyOp46
 70
     1
102
RTVSPropertyOp47
 70
     1
102
RTVSPropertyOp48
 70
     1
102
RTVSPropertyOp49
 70
     1
102
RTVSPropertyOp50
 70
     1
102
RTVSPropertyOp51
 70
     0
102
RTVSPropertyOp52
 70
     0
102
RTVSPropertyOp53
 70
     1
102
RTVSPropertyOp54
 70
     1
102
RTVSPropertyOp55
 70
     1
102
RTVSPropertyOp56
 70
     1
102
RTVSPropertyOp57
 70
     1
102
RTVSPost2010Prop28
280
     0
102
RTVSPost2010PropOp28
 70
     1
102
RTVSPost2010Prop29
280
     1
102
RTVSPost2010PropOp29
 70
     1
102
RTVSPost2010Prop30
280
     1
102
RTVSPost2010PropOp30
 70
     1
102
RTVSPost2010Prop31
280
     0
102
RTVSPost2010PropOp31
 70
     1
102
RTVSPost2010Prop32
280
     0
102
RTVSPost2010PropOp32
 70
     1
102
RTVSPost2010Prop33
280
     0
102
RTVSPost2010PropOp33
 70
     1
102
RTVSPost2010Prop34
280
     0
102
RTVSPost2010PropOp34
 70
     1
102
RTVSPost2010Prop35
280
     0
102
RTVSPost2010PropOp35
 70
     1
102
RTVSPost2010Prop36
280
     0
102
RTVSPost2010PropOp36
 70
     1
102
RTVSPost2010Prop37
 90
       50
102
RTVSPost2010PropOp37
 70
     1
102
RTVSPost2010Prop38
140
0.0
102
RTVSPost2010PropOp38
 70
     1
102
RTVSPost2010Prop39
140
1.0
102
RTVSPost2010PropOp39
 70
     1
102
RTVSPost2010Prop40
 90
        0
102
RTVSPost2010PropOp40
 70
     1
102
RTVSPost2010Prop41ColorIndex
 90
       18
102
RTVSPost2010Prop41ColorRGB
 90
        0
102
RTVSPost2010PropOp41
 70
     1
102
RTVSPost2010Prop42
 90
       50
102
RTVSPost2010PropOp42
 70
     1
102
RTVSPost2010Prop43
 90
        3
102
RTVSPost2010PropOp43
 70
     1
102
RTVSPost2010Prop44ColorIndex
 90
        5
102
RTVSPost2010Prop44ColorRGB
 90
      255
102
RTVSPost2010PropOp44
 70
     1
102
RTVSPost2010Prop45
280
     0
102
RTVSPost2010PropOp45
 70
     1
102
RTVSPost2010Prop46
 90
       50
102
RTVSPost2010PropOp46
 70
     1
102
RTVSPost2010Prop47
 90
       50
102
RTVSPost2010PropOp47
 70
     1
102
RTVSPost2010Prop48
 90
       50
102
RTVSPost2010PropOp48
 70
     1
102
RTVSPost2010Prop49
280
     0
102
RTVSPost2010PropOp49
 70
     1
102
RTVSPost2010Prop50
 90
       50
102
RTVSPost2010PropOp50
 70
     1
102
RTVSPost2010Prop51ColorIndex
 90
      256
102
RTVSPost2010Prop51ColorRGB
 90
-16777216
102
RTVSPost2010PropOp51
 70
     0
102
RTVSPost2010Prop52
140
1.0
102
RTVSPost2010PropOp52
 70
     0
102
RTVSPost2010Prop53
 90
        2
102
RTVSPost2010PropOp53
 70
     1
102
RTVSPost2010Prop54
  1
strokes_ogs.tif
102
RTVSPost2010PropOp54
 70
     1
102
RTVSPost2010Prop55
280
     0
102
RTVSPost2010PropOp55
 70
     1
102
RTVSPost2010Prop56
140
1.0
102
RTVSPost2010PropOp56
 70
     1
102
RTVSPost2010Prop57
140
1.0
102
RTVSPost2010PropOp57
 70
     1
  0
XRECORD
  5
1DF
102
{ACAD_REACTORS
330
1DE
102
}
330
1DE
100
AcDbXrecord
280
     1
102
RTVSPropertyOp0
 70
     1
102
RTVSPropertyOp1
 70
     1
102
RTVSPropertyOp2
 70
     1
102
RTVSPropertyOp3
 70
     1
102
RTVSPropertyOp4
 70
     1
102
RTVSPropertyOp5
 70
     1
102
RTVSPropertyOp6
 70
     1
102
RTVSPropertyOp7
 70
     1
102
RTVSPropertyOp8
 70
     1
102
RTVSPropertyOp9
 70
     1
102
RTVSPropertyOp10
 70
     1
102
RTVSPropertyOp11
 70
     1
102
RTVSPropertyOp12
 70
     1
102
RTVSPropertyOp13
 70
     1
102
RTVSPropertyOp14
 70
     1
102
RTVSPropertyOp15
 70
     1
102
RTVSPropertyOp16
 70
     1
102
RTVSPropertyOp17
 70
     1
102
RTVSPropertyOp18
 70
     1
102
RTVSPropertyOp19
 70
     1
102
RTVSPropertyOp20
 70
     1
102
RTVSPropertyOp21
 70
     1
102
RTVSPropertyOp22
 70
     1
102
RTVSPropertyOp23
 70
     1
102
RTVSPropertyOp24
 70
     1
102
RTVSPropertyOp25
 70
     1
102
RTVSPropertyOp26
 70
     1
102
RTVSPropertyOp27
 70
     1
102
RTVSPropertyOp28
 70
     1
102
RTVSPropertyOp29
 70
     1
102
RTVSPropertyOp30
 70
     1
102
RTVSPropertyOp31
 70
     1
102
RTVSPropertyOp32
 70
     1
102
RTVSPropertyOp33
 70
     1
102
RTVSPropertyOp34
 70
     1
102
RTVSPropertyOp35
 70
     1
102
RTVSPropertyOp36
 70
     1
102
RTVSPropertyOp37
 70
     1
102
RTVSPropertyOp38
 70
     1
102
RTVSPropertyOp39
 70
     1
102
RTVSPropertyOp40
 70
     1
102
RTVSPropertyOp41
 70
     1
102
RTVSPropertyOp42
 70
     1
102
RTVSPropertyOp43
 70
     1
102
RTVSPropertyOp44
 70
     1
102
RTVSPropertyOp45
 70
     1
102
RTVSPropertyOp46
 70
     1
102
RTVSPropertyOp47
 70
     1
102
RTVSPropertyOp48
 70
     1
102
RTVSPropertyOp49
 70
     1
102
RTVSPropertyOp50
 70
     1
102
RTVSPropertyOp51
 70
     0
102
RTVSPropertyOp52
 70
     0
102
RTVSPropertyOp53
 70
     1
102
RTVSPropertyOp54
 70
     1
102
RTVSPropertyOp55
 70
     1
102
RTVSPropertyOp56
 70
     1
102
RTVSPropertyOp57
 70
     1
102
RTVSPost2010Prop28
280
     0
102
RTVSPost2010PropOp28
 70
     1
102
RTVSPost2010Prop29
280
     1
102
RTVSPost2010PropOp29
 70
     1
102
RTVSPost2010Prop30
280
     1
102
RTVSPost2010PropOp30
 70
     1
102
RTVSPost2010Prop31
280
     0
102
RTVSPost2010PropOp31
 70
     1
102
RTVSPost2010Prop32
280
     0
102
RTVSPost2010PropOp32
 70
     1
102
RTVSPost2010Prop33
280
     0
102
RTVSPost2010PropOp33
 70
     1
102
RTVSPost2010Prop34
280
     0
102
RTVSPost2010PropOp34
 70
     1
102
RTVSPost2010Prop35
280
     0
102
RTVSPost2010PropOp35
 70
     1
102
RTVSPost2010Prop36
280
     0
102
RTVSPost2010PropOp36
 70
     1
102
RTVSPost2010Prop37
 90
       50
102
RTVSPost2010PropOp37
 70
     1
102
RTVSPost2010Prop38
140
0.0
102
RTVSPost2010PropOp38
 70
     1
102
RTVSPost2010Prop39
140
1.0
102
RTVSPost2010PropOp39
 70
     1
102
RTVSPost2010Prop40
 90
        0
102
RTVSPost2010PropOp40
 70
     1
102
RTVSPost2010Prop41ColorIndex
 90
       18
102
RTVSPost2010Prop41ColorRGB
 90
        0
102
RTVSPost2010PropOp41
 70
     1
102
RTVSPost2010Prop42
 90
       50
102
RTVSPost2010PropOp42
 70
     1
102
RTVSPost2010Prop43
 90
        3
102
RTVSPost2010PropOp43
 70
     1
102
RTVSPost2010Prop44ColorIndex
 90
        5
102
RTVSPost2010Prop44ColorRGB
 90
      255
102
RTVSPost2010PropOp44
 70
     1
102
RTVSPost2010Prop45
280
     0
102
RTVSPost2010PropOp45
 70
     1
102
RTVSPost2010Prop46
 90
       50
102
RTVSPost2010PropOp46
 70
     1
102
RTVSPost2010Prop47
 90
       50
102
RTVSPost2010PropOp47
 70
     1
102
RTVSPost2010Prop48
 90
       50
102
RTVSPost2010PropOp48
 70
     1
102
RTVSPost2010Prop49
280
     0
102
RTVSPost2010PropOp49
 70
     1
102
RTVSPost2010Prop50
 90
       50
102
RTVSPost2010PropOp50
 70
     1
102
RTVSPost2010Prop51ColorIndex
 90
      256
102
RTVSPost2010Prop51ColorRGB
 90
-16777216
102
RTVSPost2010PropOp51
 70
     0
102
RTVSPost2010Prop52
140
1.0
102
RTVSPost2010PropOp52
 70
     0
102
RTVSPost2010Prop53
 90
        2
102
RTVSPost2010PropOp53
 70
     1
102
RTVSPost2010Prop54
  1
strokes_ogs.tif
102
RTVSPost2010PropOp54
 70
     1
102
RTVSPost2010Prop55
280
     0
102
RTVSPost2010PropOp55
 70
     1
102
RTVSPost2010Prop56
140
1.0
102
RTVSPost2010PropOp56
 70
     1
102
RTVSPost2010Prop57
140
1.0
102
RTVSPost2010PropOp57
 70
     1
  0
XRECORD
  5
1E1
102
{ACAD_REACTORS
330
1E0
102
}
330
1E0
100
AcDbXrecord
280
     1
102
RTVSPropertyOp0
 70
     1
102
RTVSPropertyOp1
 70
     1
102
RTVSPropertyOp2
 70
     1
102
RTVSPropertyOp3
 70
     1
102
RTVSPropertyOp4
 70
     1
102
RTVSPropertyOp5
 70
     1
102
RTVSPropertyOp6
 70
     1
102
RTVSPropertyOp7
 70
     1
102
RTVSPropertyOp8
 70
     1
102
RTVSPropertyOp9
 70
     1
102
RTVSPropertyOp10
 70
     1
102
RTVSPropertyOp11
 70
     1
102
RTVSPropertyOp12
 70
     1
102
RTVSPropertyOp13
 70
     1
102
RTVSPropertyOp14
 70
     1
102
RTVSPropertyOp15
 70
     1
102
RTVSPropertyOp16
 70
     1
102
RTVSPropertyOp17
 70
     1
102
RTVSPropertyOp18
 70
     1
102
RTVSPropertyOp19
 70
     1
102
RTVSPropertyOp20
 70
     1
102
RTVSPropertyOp21
 70
     1
102
RTVSPropertyOp22
 70
     1
102
RTVSPropertyOp23
 70
     1
102
RTVSPropertyOp24
 70
     1
102
RTVSPropertyOp25
 70
     1
102
RTVSPropertyOp26
 70
     1
102
RTVSPropertyOp27
 70
     1
102
RTVSPropertyOp28
 70
     1
102
RTVSPropertyOp29
 70
     1
102
RTVSPropertyOp30
 70
     1
102
RTVSPropertyOp31
 70
     1
102
RTVSPropertyOp32
 70
     1
102
RTVSPropertyOp33
 70
     1
102
RTVSPropertyOp34
 70
     1
102
RTVSPropertyOp35
 70
     1
102
RTVSPropertyOp36
 70
     1
102
RTVSPropertyOp37
 70
     1
102
RTVSPropertyOp38
 70
     1
102
RTVSPropertyOp39
 70
     1
102
RTVSPropertyOp40
 70
     1
102
RTVSPropertyOp41
 70
     1
102
RTVSPropertyOp42
 70
     1
102
RTVSPropertyOp43
 70
     1
102
RTVSPropertyOp44
 70
     1
102
RTVSPropertyOp45
 70
     1
102
RTVSPropertyOp46
 70
     1
102
RTVSPropertyOp47
 70
     1
102
RTVSPropertyOp48
 70
     1
102
RTVSPropertyOp49
 70
     1
102
RTVSPropertyOp50
 70
     1
102
RTVSPropertyOp51
 70
     0
102
RTVSPropertyOp52
 70
     0
102
RTVSPropertyOp53
 70
     1
102
RTVSPropertyOp54
 70
     1
102
RTVSPropertyOp55
 70
     1
102
RTVSPropertyOp56
 70
     1
102
RTVSPropertyOp57
 70
     1
102
RTVSPost2010Prop28
280
     0
102
RTVSPost2010PropOp28
 70
     1
102
RTVSPost2010Prop29
280
     1
102
RTVSPost2010PropOp29
 70
     1
102
RTVSPost2010Prop30
280
     1
102
RTVSPost2010PropOp30
 70
     1
102
RTVSPost2010Prop31
280
     0
102
RTVSPost2010PropOp31
 70
     1
102
RTVSPost2010Prop32
280
     0
102
RTVSPost2010PropOp32
 70
     1
102
RTVSPost2010Prop33
280
     0
102
RTVSPost2010PropOp33
 70
     1
102
RTVSPost2010Prop34
280
     0
102
RTVSPost2010PropOp34
 70
     1
102
RTVSPost2010Prop35
280
     0
102
RTVSPost2010PropOp35
 70
     1
102
RTVSPost2010Prop36
280
     0
102
RTVSPost2010PropOp36
 70
     1
102
RTVSPost2010Prop37
 90
       50
102
RTVSPost2010PropOp37
 70
     1
102
RTVSPost2010Prop38
140
0.0
102
RTVSPost2010PropOp38
 70
     1
102
RTVSPost2010Prop39
140
1.0
102
RTVSPost2010PropOp39
 70
     1
102
RTVSPost2010Prop40
 90
        0
102
RTVSPost2010PropOp40
 70
     1
102
RTVSPost2010Prop41ColorIndex
 90
       18
102
RTVSPost2010Prop41ColorRGB
 90
        0
102
RTVSPost2010PropOp41
 70
     1
102
RTVSPost2010Prop42
 90
       50
102
RTVSPost2010PropOp42
 70
     1
102
RTVSPost2010Prop43
 90
        3
102
RTVSPost2010PropOp43
 70
     1
102
RTVSPost2010Prop44ColorIndex
 90
        5
102
RTVSPost2010Prop44ColorRGB
 90
      255
102
RTVSPost2010PropOp44
 70
     1
102
RTVSPost2010Prop45
280
     0
102
RTVSPost2010PropOp45
 70
     1
102
RTVSPost2010Prop46
 90
       50
102
RTVSPost2010PropOp46
 70
     1
102
RTVSPost2010Prop47
 90
       50
102
RTVSPost2010PropOp47
 70
     1
102
RTVSPost2010Prop48
 90
       50
102
RTVSPost2010PropOp48
 70
     1
102
RTVSPost2010Prop49
280
     0
102
RTVSPost2010PropOp49
 70
     1
102
RTVSPost2010Prop50
 90
       50
102
RTVSPost2010PropOp50
 70
     1
102
RTVSPost2010Prop51ColorIndex
 90
      256
102
RTVSPost2010Prop51ColorRGB
 90
-16777216
102
RTVSPost2010PropOp51
 70
     0
102
RTVSPost2010Prop52
140
1.0
102
RTVSPost2010PropOp52
 70
     0
102
RTVSPost2010Prop53
 90
        2
102
RTVSPost2010PropOp53
 70
     1
102
RTVSPost2010Prop54
  1
strokes_ogs.tif
102
RTVSPost2010PropOp54
 70
     1
102
RTVSPost2010Prop55
280
     0
102
RTVSPost2010PropOp55
 70
     1
102
RTVSPost2010Prop56
140
1.0
102
RTVSPost2010PropOp56
 70
     1
102
RTVSPost2010Prop57
140
1.0
102
RTVSPost2010PropOp57
 70
     1
  0
XRECORD
  5
1E3
102
{ACAD_REACTORS
330
1E2
102
}
330
1E2
100
AcDbXrecord
280
     1
102
RTVSPropertyOp0
 70
     1
102
RTVSPropertyOp1
 70
     1
102
RTVSPropertyOp2
 70
     1
102
RTVSPropertyOp3
 70
     1
102
RTVSPropertyOp4
 70
     1
102
RTVSPropertyOp5
 70
     1
102
RTVSPropertyOp6
 70
     1
102
RTVSPropertyOp7
 70
     1
102
RTVSPropertyOp8
 70
     1
102
RTVSPropertyOp9
 70
     1
102
RTVSPropertyOp10
 70
     1
102
RTVSPropertyOp11
 70
     1
102
RTVSPropertyOp12
 70
     1
102
RTVSPropertyOp13
 70
     1
102
RTVSPropertyOp14
 70
     1
102
RTVSPropertyOp15
 70
     1
102
RTVSPropertyOp16
 70
     1
102
RTVSPropertyOp17
 70
     1
102
RTVSPropertyOp18
 70
     1
102
RTVSPropertyOp19
 70
     1
102
RTVSPropertyOp20
 70
     1
102
RTVSPropertyOp21
 70
     1
102
RTVSPropertyOp22
 70
     1
102
RTVSPropertyOp23
 70
     1
102
RTVSPropertyOp24
 70
     1
102
RTVSPropertyOp25
 70
     1
102
RTVSPropertyOp26
 70
     1
102
RTVSPropertyOp27
 70
     1
102
RTVSPropertyOp28
 70
     1
102
RTVSPropertyOp29
 70
     1
102
RTVSPropertyOp30
 70
     1
102
RTVSPropertyOp31
 70
     1
102
RTVSPropertyOp32
 70
     1
102
RTVSPropertyOp33
 70
     1
102
RTVSPropertyOp34
 70
     1
102
RTVSPropertyOp35
 70
     1
102
RTVSPropertyOp36
 70
     1
102
RTVSPropertyOp37
 70
     1
102
RTVSPropertyOp38
 70
     1
102
RTVSPropertyOp39
 70
     1
102
RTVSPropertyOp40
 70
     1
102
RTVSPropertyOp41
 70
     1
102
RTVSPropertyOp42
 70
     1
102
RTVSPropertyOp43
 70
     1
102
RTVSPropertyOp44
 70
     1
102
RTVSPropertyOp45
 70
     1
102
RTVSPropertyOp46
 70
     1
102
RTVSPropertyOp47
 70
     1
102
RTVSPropertyOp48
 70
     1
102
RTVSPropertyOp49
 70
     1
102
RTVSPropertyOp50
 70
     1
102
RTVSPropertyOp51
 70
     0
102
RTVSPropertyOp52
 70
     0
102
RTVSPropertyOp53
 70
     1
102
RTVSPropertyOp54
 70
     1
102
RTVSPropertyOp55
 70
     1
102
RTVSPropertyOp56
 70
     1
102
RTVSPropertyOp57
 70
     1
102
RTVSPost2010Prop28
280
     0
102
RTVSPost2010PropOp28
 70
     1
102
RTVSPost2010Prop29
280
     1
102
RTVSPost2010PropOp29
 70
     1
102
RTVSPost2010Prop30
280
     1
102
RTVSPost2010PropOp30
 70
     1
102
RTVSPost2010Prop31
280
     0
102
RTVSPost2010PropOp31
 70
     1
102
RTVSPost2010Prop32
280
     0
102
RTVSPost2010PropOp32
 70
     1
102
RTVSPost2010Prop33
280
     0
102
RTVSPost2010PropOp33
 70
     1
102
RTVSPost2010Prop34
280
     0
102
RTVSPost2010PropOp34
 70
     1
102
RTVSPost2010Prop35
280
     0
102
RTVSPost2010PropOp35
 70
     1
102
RTVSPost2010Prop36
280
     0
102
RTVSPost2010PropOp36
 70
     1
102
RTVSPost2010Prop37
 90
       50
102
RTVSPost2010PropOp37
 70
     1
102
RTVSPost2010Prop38
140
0.0
102
RTVSPost2010PropOp38
 70
     1
102
RTVSPost2010Prop39
140
1.0
102
RTVSPost2010PropOp39
 70
     1
102
RTVSPost2010Prop40
 90
        0
102
RTVSPost2010PropOp40
 70
     1
102
RTVSPost2010Prop41ColorIndex
 90
       18
102
RTVSPost2010Prop41ColorRGB
 90
        0
102
RTVSPost2010PropOp41
 70
     1
102
RTVSPost2010Prop42
 90
       50
102
RTVSPost2010PropOp42
 70
     1
102
RTVSPost2010Prop43
 90
        3
102
RTVSPost2010PropOp43
 70
     1
102
RTVSPost2010Prop44ColorIndex
 90
        5
102
RTVSPost2010Prop44ColorRGB
 90
      255
102
RTVSPost2010PropOp44
 70
     1
102
RTVSPost2010Prop45
280
     0
102
RTVSPost2010PropOp45
 70
     1
102
RTVSPost2010Prop46
 90
       50
102
RTVSPost2010PropOp46
 70
     1
102
RTVSPost2010Prop47
 90
       50
102
RTVSPost2010PropOp47
 70
     1
102
RTVSPost2010Prop48
 90
       50
102
RTVSPost2010PropOp48
 70
     1
102
RTVSPost2010Prop49
280
     0
102
RTVSPost2010PropOp49
 70
     1
102
RTVSPost2010Prop50
 90
       50
102
RTVSPost2010PropOp50
 70
     1
102
RTVSPost2010Prop51ColorIndex
 90
      256
102
RTVSPost2010Prop51ColorRGB
 90
-16777216
102
RTVSPost2010PropOp51
 70
     0
102
RTVSPost2010Prop52
140
1.0
102
RTVSPost2010PropOp52
 70
     0
102
RTVSPost2010Prop53
 90
        2
102
RTVSPost2010PropOp53
 70
     1
102
RTVSPost2010Prop54
  1
strokes_ogs.tif
102
RTVSPost2010PropOp54
 70
     1
102
RTVSPost2010Prop55
280
     0
102
RTVSPost2010PropOp55
 70
     1
102
RTVSPost2010Prop56
140
1.0
102
RTVSPost2010PropOp56
 70
     1
102
RTVSPost2010Prop57
140
1.0
102
RTVSPost2010PropOp57
 70
     1
  0
XRECORD
  5
1E5
102
{ACAD_REACTORS
330
1E4
102
}
330
1E4
100
AcDbXrecord
280
     1
102
RTVSPropertyOp0
 70
     1
102
RTVSPropertyOp1
 70
     1
102
RTVSPropertyOp2
 70
     1
102
RTVSPropertyOp3
 70
     1
102
RTVSPropertyOp4
 70
     1
102
RTVSPropertyOp5
 70
     1
102
RTVSPropertyOp6
 70
     1
102
RTVSPropertyOp7
 70
     1
102
RTVSPropertyOp8
 70
     1
102
RTVSPropertyOp9
 70
     1
102
RTVSPropertyOp10
 70
     1
102
RTVSPropertyOp11
 70
     1
102
RTVSPropertyOp12
 70
     1
102
RTVSPropertyOp13
 70
     1
102
RTVSPropertyOp14
 70
     1
102
RTVSPropertyOp15
 70
     1
102
RTVSPropertyOp16
 70
     1
102
RTVSPropertyOp17
 70
     1
102
RTVSPropertyOp18
 70
     1
102
RTVSPropertyOp19
 70
     1
102
RTVSPropertyOp20
 70
     1
102
RTVSPropertyOp21
 70
     1
102
RTVSPropertyOp22
 70
     1
102
RTVSPropertyOp23
 70
     1
102
RTVSPropertyOp24
 70
     1
102
RTVSPropertyOp25
 70
     1
102
RTVSPropertyOp26
 70
     1
102
RTVSPropertyOp27
 70
     1
102
RTVSPropertyOp28
 70
     1
102
RTVSPropertyOp29
 70
     1
102
RTVSPropertyOp30
 70
     1
102
RTVSPropertyOp31
 70
     1
102
RTVSPropertyOp32
 70
     1
102
RTVSPropertyOp33
 70
     1
102
RTVSPropertyOp34
 70
     1
102
RTVSPropertyOp35
 70
     1
102
RTVSPropertyOp36
 70
     1
102
RTVSPropertyOp37
 70
     1
102
RTVSPropertyOp38
 70
     1
102
RTVSPropertyOp39
 70
     1
102
RTVSPropertyOp40
 70
     1
102
RTVSPropertyOp41
 70
     1
102
RTVSPropertyOp42
 70
     1
102
RTVSPropertyOp43
 70
     1
102
RTVSPropertyOp44
 70
     1
102
RTVSPropertyOp45
 70
     1
102
RTVSPropertyOp46
 70
     1
102
RTVSPropertyOp47
 70
     1
102
RTVSPropertyOp48
 70
     1
102
RTVSPropertyOp49
 70
     1
102
RTVSPropertyOp50
 70
     1
102
RTVSPropertyOp51
 70
     0
102
RTVSPropertyOp52
 70
     0
102
RTVSPropertyOp53
 70
     1
102
RTVSPropertyOp54
 70
     1
102
RTVSPropertyOp55
 70
     1
102
RTVSPropertyOp56
 70
     1
102
RTVSPropertyOp57
 70
     1
102
RTVSPost2010Prop28
280
     0
102
RTVSPost2010PropOp28
 70
     1
102
RTVSPost2010Prop29
280
     1
102
RTVSPost2010PropOp29
 70
     1
102
RTVSPost2010Prop30
280
     1
102
RTVSPost2010PropOp30
 70
     1
102
RTVSPost2010Prop31
280
     0
102
RTVSPost2010PropOp31
 70
     1
102
RTVSPost2010Prop32
280
     0
102
RTVSPost2010PropOp32
 70
     1
102
RTVSPost2010Prop33
280
     0
102
RTVSPost2010PropOp33
 70
     1
102
RTVSPost2010Prop34
280
     0
102
RTVSPost2010PropOp34
 70
     1
102
RTVSPost2010Prop35
280
     0
102
RTVSPost2010PropOp35
 70
     1
102
RTVSPost2010Prop36
280
     0
102
RTVSPost2010PropOp36
 70
     1
102
RTVSPost2010Prop37
 90
       50
102
RTVSPost2010PropOp37
 70
     1
102
RTVSPost2010Prop38
140
0.0
102
RTVSPost2010PropOp38
 70
     1
102
RTVSPost2010Prop39
140
1.0
102
RTVSPost2010PropOp39
 70
     1
102
RTVSPost2010Prop40
 90
        0
102
RTVSPost2010PropOp40
 70
     1
102
RTVSPost2010Prop41ColorIndex
 90
       18
102
RTVSPost2010Prop41ColorRGB
 90
        0
102
RTVSPost2010PropOp41
 70
     1
102
RTVSPost2010Prop42
 90
       50
102
RTVSPost2010PropOp42
 70
     1
102
RTVSPost2010Prop43
 90
        3
102
RTVSPost2010PropOp43
 70
     1
102
RTVSPost2010Prop44ColorIndex
 90
        5
102
RTVSPost2010Prop44ColorRGB
 90
      255
102
RTVSPost2010PropOp44
 70
     1
102
RTVSPost2010Prop45
280
     0
102
RTVSPost2010PropOp45
 70
     1
102
RTVSPost2010Prop46
 90
       50
102
RTVSPost2010PropOp46
 70
     1
102
RTVSPost2010Prop47
 90
       50
102
RTVSPost2010PropOp47
 70
     1
102
RTVSPost2010Prop48
 90
       50
102
RTVSPost2010PropOp48
 70
     1
102
RTVSPost2010Prop49
280
     0
102
RTVSPost2010PropOp49
 70
     1
102
RTVSPost2010Prop50
 90
       50
102
RTVSPost2010PropOp50
 70
     1
102
RTVSPost2010Prop51ColorIndex
 90
      256
102
RTVSPost2010Prop51ColorRGB
 90
-16777216
102
RTVSPost2010PropOp51
 70
     0
102
RTVSPost2010Prop52
140
1.0
102
RTVSPost2010PropOp52
 70
     0
102
RTVSPost2010Prop53
 90
        2
102
RTVSPost2010PropOp53
 70
     1
102
RTVSPost2010Prop54
  1
strokes_ogs.tif
102
RTVSPost2010PropOp54
 70
     1
102
RTVSPost2010Prop55
280
     0
102
RTVSPost2010PropOp55
 70
     1
102
RTVSPost2010Prop56
140
1.0
102
RTVSPost2010PropOp56
 70
     1
102
RTVSPost2010Prop57
140
1.0
102
RTVSPost2010PropOp57
 70
     1
  0
XRECORD
  5
1EB
102
{ACAD_REACTORS
330
1EA
102
}
330
1EA
100
AcDbXrecord
280
     1
102
RTVSPropertyOp0
 70
     1
102
RTVSPropertyOp1
 70
     1
102
RTVSPropertyOp2
 70
     1
102
RTVSPropertyOp3
 70
     1
102
RTVSPropertyOp4
 70
     1
102
RTVSPropertyOp5
 70
     1
102
RTVSPropertyOp6
 70
     1
102
RTVSPropertyOp7
 70
     1
102
RTVSPropertyOp8
 70
     1
102
RTVSPropertyOp9
 70
     1
102
RTVSPropertyOp10
 70
     1
102
RTVSPropertyOp11
 70
     1
102
RTVSPropertyOp12
 70
     1
102
RTVSPropertyOp13
 70
     1
102
RTVSPropertyOp14
 70
     1
102
RTVSPropertyOp15
 70
     1
102
RTVSPropertyOp16
 70
     1
102
RTVSPropertyOp17
 70
     1
102
RTVSPropertyOp18
 70
     1
102
RTVSPropertyOp19
 70
     1
102
RTVSPropertyOp20
 70
     1
102
RTVSPropertyOp21
 70
     1
102
RTVSPropertyOp22
 70
     1
102
RTVSPropertyOp23
 70
     1
102
RTVSPropertyOp24
 70
     1
102
RTVSPropertyOp25
 70
     1
102
RTVSPropertyOp26
 70
     1
102
RTVSPropertyOp27
 70
     1
102
RTVSPropertyOp28
 70
     1
102
RTVSPropertyOp29
 70
     1
102
RTVSPropertyOp30
 70
     1
102
RTVSPropertyOp31
 70
     1
102
RTVSPropertyOp32
 70
     1
102
RTVSPropertyOp33
 70
     1
102
RTVSPropertyOp34
 70
     1
102
RTVSPropertyOp35
 70
     1
102
RTVSPropertyOp36
 70
     1
102
RTVSPropertyOp37
 70
     1
102
RTVSPropertyOp38
 70
     1
102
RTVSPropertyOp39
 70
     1
102
RTVSPropertyOp40
 70
     1
102
RTVSPropertyOp41
 70
     1
102
RTVSPropertyOp42
 70
     1
102
RTVSPropertyOp43
 70
     1
102
RTVSPropertyOp44
 70
     1
102
RTVSPropertyOp45
 70
     1
102
RTVSPropertyOp46
 70
     1
102
RTVSPropertyOp47
 70
     1
102
RTVSPropertyOp48
 70
     1
102
RTVSPropertyOp49
 70
     1
102
RTVSPropertyOp50
 70
     1
102
RTVSPropertyOp51
 70
     0
102
RTVSPropertyOp52
 70
     0
102
RTVSPropertyOp53
 70
     1
102
RTVSPropertyOp54
 70
     1
102
RTVSPropertyOp55
 70
     1
102
RTVSPropertyOp56
 70
     1
102
RTVSPropertyOp57
 70
     1
102
RTVSPost2010Prop28
280
     0
102
RTVSPost2010PropOp28
 70
     1
102
RTVSPost2010Prop29
280
     1
102
RTVSPost2010PropOp29
 70
     1
102
RTVSPost2010Prop30
280
     1
102
RTVSPost2010PropOp30
 70
     1
102
RTVSPost2010Prop31
280
     0
102
RTVSPost2010PropOp31
 70
     1
102
RTVSPost2010Prop32
280
     0
102
RTVSPost2010PropOp32
 70
     1
102
RTVSPost2010Prop33
280
     0
102
RTVSPost2010PropOp33
 70
     1
102
RTVSPost2010Prop34
280
     0
102
RTVSPost2010PropOp34
 70
     1
102
RTVSPost2010Prop35
280
     0
102
RTVSPost2010PropOp35
 70
     1
102
RTVSPost2010Prop36
280
     0
102
RTVSPost2010PropOp36
 70
     1
102
RTVSPost2010Prop37
 90
       50
102
RTVSPost2010PropOp37
 70
     1
102
RTVSPost2010Prop38
140
0.0
102
RTVSPost2010PropOp38
 70
     1
102
RTVSPost2010Prop39
140
1.0
102
RTVSPost2010PropOp39
 70
     1
102
RTVSPost2010Prop40
 90
        0
102
RTVSPost2010PropOp40
 70
     1
102
RTVSPost2010Prop41ColorIndex
 90
       18
102
RTVSPost2010Prop41ColorRGB
 90
        0
102
RTVSPost2010PropOp41
 70
     1
102
RTVSPost2010Prop42
 90
       50
102
RTVSPost2010PropOp42
 70
     1
102
RTVSPost2010Prop43
 90
        3
102
RTVSPost2010PropOp43
 70
     1
102
RTVSPost2010Prop44ColorIndex
 90
        5
102
RTVSPost2010Prop44ColorRGB
 90
      255
102
RTVSPost2010PropOp44
 70
     1
102
RTVSPost2010Prop45
280
     0
102
RTVSPost2010PropOp45
 70
     1
102
RTVSPost2010Prop46
 90
       50
102
RTVSPost2010PropOp46
 70
     1
102
RTVSPost2010Prop47
 90
       50
102
RTVSPost2010PropOp47
 70
     1
102
RTVSPost2010Prop48
 90
       50
102
RTVSPost2010PropOp48
 70
     1
102
RTVSPost2010Prop49
280
     0
102
RTVSPost2010PropOp49
 70
     1
102
RTVSPost2010Prop50
 90
       50
102
RTVSPost2010PropOp50
 70
     1
102
RTVSPost2010Prop51ColorIndex
 90
      256
102
RTVSPost2010Prop51ColorRGB
 90
-16777216
102
RTVSPost2010PropOp51
 70
     0
102
RTVSPost2010Prop52
140
1.0
102
RTVSPost2010PropOp52
 70
     0
102
RTVSPost2010Prop53
 90
        2
102
RTVSPost2010PropOp53
 70
     1
102
RTVSPost2010Prop54
  1
strokes_ogs.tif
102
RTVSPost2010PropOp54
 70
     1
102
RTVSPost2010Prop55
280
     0
102
RTVSPost2010PropOp55
 70
     1
102
RTVSPost2010Prop56
140
1.0
102
RTVSPost2010PropOp56
 70
     1
102
RTVSPost2010Prop57
140
1.0
102
RTVSPost2010PropOp57
 70
     1
  0
XRECORD
  5
1FF
102
{ACAD_REACTORS
330
1FE
102
}
330
1FE
100
AcDbXrecord
280
     1
102
RTVSPropertyOp0
 70
     0
102
RTVSPropertyOp1
 70
     0
102
RTVSPropertyOp2
 70
     0
102
RTVSPropertyOp3
 70
     0
102
RTVSPropertyOp4
 70
     0
102
RTVSPropertyOp5
 70
     0
102
RTVSPropertyOp6
 70
     0
102
RTVSPropertyOp7
 70
     0
102
RTVSPropertyOp8
 70
     0
102
RTVSPropertyOp9
 70
     0
102
RTVSPropertyOp10
 70
     0
102
RTVSPropertyOp11
 70
     0
102
RTVSPropertyOp12
 70
     0
102
RTVSPropertyOp13
 70
     0
102
RTVSPropertyOp14
 70
     2
102
RTVSPropertyOp15
 70
     0
102
RTVSPropertyOp16
 70
     0
102
RTVSPropertyOp17
 70
     0
102
RTVSPropertyOp18
 70
     0
102
RTVSPropertyOp19
 70
     0
102
RTVSPropertyOp20
 70
     0
102
RTVSPropertyOp21
 70
     0
102
RTVSPropertyOp22
 70
     0
102
RTVSPropertyOp23
 70
     0
102
RTVSPropertyOp24
 70
     0
102
RTVSPropertyOp25
 70
     0
102
RTVSPropertyOp26
 70
     0
102
RTVSPropertyOp27
 70
     0
102
RTVSPropertyOp28
 70
     0
102
RTVSPropertyOp29
 70
     0
102
RTVSPropertyOp30
 70
     0
102
RTVSPropertyOp31
 70
     0
102
RTVSPropertyOp32
 70
     0
102
RTVSPropertyOp33
 70
     0
102
RTVSPropertyOp34
 70
     0
102
RTVSPropertyOp35
 70
     0
102
RTVSPropertyOp36
 70
     0
102
RTVSPropertyOp37
 70
     0
102
RTVSPropertyOp38
 70
     0
102
RTVSPropertyOp39
 70
     0
102
RTVSPropertyOp40
 70
     0
102
RTVSPropertyOp41
 70
     0
102
RTVSPropertyOp42
 70
     0
102
RTVSPropertyOp43
 70
     0
102
RTVSPropertyOp44
 70
     0
102
RTVSPropertyOp45
 70
     0
102
RTVSPropertyOp46
 70
     0
102
RTVSPropertyOp47
 70
     0
102
RTVSPropertyOp48
 70
     0
102
RTVSPropertyOp49
 70
     0
102
RTVSPropertyOp50
 70
     0
102
RTVSPropertyOp51
 70
     0
102
RTVSPropertyOp52
 70
     0
102
RTVSPropertyOp53
 70
     0
102
RTVSPropertyOp54
 70
     0
102
RTVSPropertyOp55
 70
     0
102
RTVSPropertyOp56
 70
     0
102
RTVSPropertyOp57
 70
     0
102
RTVSPost2010Prop28
280
     0
102
RTVSPost2010PropOp28
 70
     0
102
RTVSPost2010Prop29
280
     1
102
RTVSPost2010PropOp29
 70
     0
102
RTVSPost2010Prop30
280
     1
102
RTVSPost2010PropOp30
 70
     0
102
RTVSPost2010Prop31
280
     0
102
RTVSPost2010PropOp31
 70
     0
102
RTVSPost2010Prop32
280
     0
102
RTVSPost2010PropOp32
 70
     0
102
RTVSPost2010Prop33
280
     0
102
RTVSPost2010PropOp33
 70
     0
102
RTVSPost2010Prop34
280
     0
102
RTVSPost2010PropOp34
 70
     0
102
RTVSPost2010Prop35
280
     0
102
RTVSPost2010PropOp35
 70
     0
102
RTVSPost2010Prop36
280
     0
102
RTVSPost2010PropOp36
 70
     0
102
RTVSPost2010Prop37
 90
       50
102
RTVSPost2010PropOp37
 70
     0
102
RTVSPost2010Prop38
140
0.0
102
RTVSPost2010PropOp38
 70
     0
102
RTVSPost2010Prop39
140
1.0
102
RTVSPost2010PropOp39
 70
     0
102
RTVSPost2010Prop40
 90
        0
102
RTVSPost2010PropOp40
 70
     0
102
RTVSPost2010Prop41ColorIndex
 90
       18
102
RTVSPost2010Prop41ColorRGB
 90
        0
102
RTVSPost2010PropOp41
 70
     0
102
RTVSPost2010Prop42
 90
       50
102
RTVSPost2010PropOp42
 70
     0
102
RTVSPost2010Prop43
 90
        3
102
RTVSPost2010PropOp43
 70
     0
102
RTVSPost2010Prop44ColorIndex
 90
        5
102
RTVSPost2010Prop44ColorRGB
 90
      255
102
RTVSPost2010PropOp44
 70
     0
102
RTVSPost2010Prop45
280
     0
102
RTVSPost2010PropOp45
 70
     0
102
RTVSPost2010Prop46
 90
       50
102
RTVSPost2010PropOp46
 70
     0
102
RTVSPost2010Prop47
 90
       50
102
RTVSPost2010PropOp47
 70
     0
102
RTVSPost2010Prop48
 90
       50
102
RTVSPost2010PropOp48
 70
     0
102
RTVSPost2010Prop49
280
     0
102
RTVSPost2010PropOp49
 70
     0
102
RTVSPost2010Prop50
 90
       50
102
RTVSPost2010PropOp50
 70
     0
102
RTVSPost2010Prop51ColorIndex
 90
      256
102
RTVSPost2010Prop51ColorRGB
 90
-16777216
102
RTVSPost2010PropOp51
 70
     0
102
RTVSPost2010Prop52
140
1.0
102
RTVSPost2010PropOp52
 70
     0
102
RTVSPost2010Prop53
 90
        2
102
RTVSPost2010PropOp53
 70
     0
102
RTVSPost2010Prop54
  1
strokes_ogs.tif
102
RTVSPost2010PropOp54
 70
     0
102
RTVSPost2010Prop55
280
     0
102
RTVSPost2010PropOp55
 70
     0
102
RTVSPost2010Prop56
140
1.0
102
RTVSPost2010PropOp56
 70
     0
102
RTVSPost2010Prop57
140
1.0
102
RTVSPost2010PropOp57
 70
     0
  0
XRECORD
  5
1F9
102
{ACAD_REACTORS
330
1F8
102
}
330
1F8
100
AcDbXrecord
280
     1
102
RTVSPropertyOp0
 70
     1
102
RTVSPropertyOp1
 70
     1
102
RTVSPropertyOp2
 70
     1
102
RTVSPropertyOp3
 70
     1
102
RTVSPropertyOp4
 70
     1
102
RTVSPropertyOp5
 70
     1
102
RTVSPropertyOp6
 70
     1
102
RTVSPropertyOp7
 70
     1
102
RTVSPropertyOp8
 70
     1
102
RTVSPropertyOp9
 70
     1
102
RTVSPropertyOp10
 70
     1
102
RTVSPropertyOp11
 70
     1
102
RTVSPropertyOp12
 70
     1
102
RTVSPropertyOp13
 70
     1
102
RTVSPropertyOp14
 70
     1
102
RTVSPropertyOp15
 70
     1
102
RTVSPropertyOp16
 70
     1
102
RTVSPropertyOp17
 70
     1
102
RTVSPropertyOp18
 70
     1
102
RTVSPropertyOp19
 70
     1
102
RTVSPropertyOp20
 70
     1
102
RTVSPropertyOp21
 70
     1
102
RTVSPropertyOp22
 70
     1
102
RTVSPropertyOp23
 70
     1
102
RTVSPropertyOp24
 70
     1
102
RTVSPropertyOp25
 70
     1
102
RTVSPropertyOp26
 70
     1
102
RTVSPropertyOp27
 70
     1
102
RTVSPropertyOp28
 70
     1
102
RTVSPropertyOp29
 70
     1
102
RTVSPropertyOp30
 70
     1
102
RTVSPropertyOp31
 70
     1
102
RTVSPropertyOp32
 70
     1
102
RTVSPropertyOp33
 70
     1
102
RTVSPropertyOp34
 70
     1
102
RTVSPropertyOp35
 70
     1
102
RTVSPropertyOp36
 70
     1
102
RTVSPropertyOp37
 70
     1
102
RTVSPropertyOp38
 70
     1
102
RTVSPropertyOp39
 70
     1
102
RTVSPropertyOp40
 70
     1
102
RTVSPropertyOp41
 70
     1
102
RTVSPropertyOp42
 70
     1
102
RTVSPropertyOp43
 70
     1
102
RTVSPropertyOp44
 70
     1
102
RTVSPropertyOp45
 70
     1
102
RTVSPropertyOp46
 70
     1
102
RTVSPropertyOp47
 70
     1
102
RTVSPropertyOp48
 70
     1
102
RTVSPropertyOp49
 70
     1
102
RTVSPropertyOp50
 70
     1
102
RTVSPropertyOp51
 70
     0
102
RTVSPropertyOp52
 70
     0
102
RTVSPropertyOp53
 70
     1
102
RTVSPropertyOp54
 70
     1
102
RTVSPropertyOp55
 70
     1
102
RTVSPropertyOp56
 70
     1
102
RTVSPropertyOp57
 70
     1
102
RTVSPost2010Prop28
280
     0
102
RTVSPost2010PropOp28
 70
     1
102
RTVSPost2010Prop29
280
     1
102
RTVSPost2010PropOp29
 70
     1
102
RTVSPost2010Prop30
280
     1
102
RTVSPost2010PropOp30
 70
     1
102
RTVSPost2010Prop31
280
     0
102
RTVSPost2010PropOp31
 70
     1
102
RTVSPost2010Prop32
280
     0
102
RTVSPost2010PropOp32
 70
     1
102
RTVSPost2010Prop33
280
     0
102
RTVSPost2010PropOp33
 70
     1
102
RTVSPost2010Prop34
280
     0
102
RTVSPost2010PropOp34
 70
     1
102
RTVSPost2010Prop35
280
     0
102
RTVSPost2010PropOp35
 70
     1
102
RTVSPost2010Prop36
280
     0
102
RTVSPost2010PropOp36
 70
     1
102
RTVSPost2010Prop37
 90
       50
102
RTVSPost2010PropOp37
 70
     1
102
RTVSPost2010Prop38
140
0.0
102
RTVSPost2010PropOp38
 70
     1
102
RTVSPost2010Prop39
140
1.0
102
RTVSPost2010PropOp39
 70
     1
102
RTVSPost2010Prop40
 90
        0
102
RTVSPost2010PropOp40
 70
     1
102
RTVSPost2010Prop41ColorIndex
 90
       18
102
RTVSPost2010Prop41ColorRGB
 90
        0
102
RTVSPost2010PropOp41
 70
     1
102
RTVSPost2010Prop42
 90
       50
102
RTVSPost2010PropOp42
 70
     1
102
RTVSPost2010Prop43
 90
        3
102
RTVSPost2010PropOp43
 70
     1
102
RTVSPost2010Prop44ColorIndex
 90
        5
102
RTVSPost2010Prop44ColorRGB
 90
      255
102
RTVSPost2010PropOp44
 70
     1
102
RTVSPost2010Prop45
280
     0
102
RTVSPost2010PropOp45
 70
     1
102
RTVSPost2010Prop46
 90
       50
102
RTVSPost2010PropOp46
 70
     1
102
RTVSPost2010Prop47
 90
       50
102
RTVSPost2010PropOp47
 70
     1
102
RTVSPost2010Prop48
 90
       50
102
RTVSPost2010PropOp48
 70
     1
102
RTVSPost2010Prop49
280
     0
102
RTVSPost2010PropOp49
 70
     1
102
RTVSPost2010Prop50
 90
       50
102
RTVSPost2010PropOp50
 70
     1
102
RTVSPost2010Prop51ColorIndex
 90
      256
102
RTVSPost2010Prop51ColorRGB
 90
-16777216
102
RTVSPost2010PropOp51
 70
     0
102
RTVSPost2010Prop52
140
1.0
102
RTVSPost2010PropOp52
 70
     0
102
RTVSPost2010Prop53
 90
        2
102
RTVSPost2010PropOp53
 70
     1
102
RTVSPost2010Prop54
  1
strokes_ogs.tif
102
RTVSPost2010PropOp54
 70
     1
102
RTVSPost2010Prop55
280
     0
102
RTVSPost2010PropOp55
 70
     1
102
RTVSPost2010Prop56
140
1.0
102
RTVSPost2010PropOp56
 70
     1
102
RTVSPost2010Prop57
140
1.0
102
RTVSPost2010PropOp57
 70
     1
  0
XRECORD
  5
201
102
{ACAD_REACTORS
330
200
102
}
330
200
100
AcDbXrecord
280
     1
102
RTVSPropertyOp0
 70
     0
102
RTVSPropertyOp1
 70
     0
102
RTVSPropertyOp2
 70
     0
102
RTVSPropertyOp3
 70
     0
102
RTVSPropertyOp4
 70
     0
102
RTVSPropertyOp5
 70
     0
102
RTVSPropertyOp6
 70
     0
102
RTVSPropertyOp7
 70
     0
102
RTVSPropertyOp8
 70
     0
102
RTVSPropertyOp9
 70
     0
102
RTVSPropertyOp10
 70
     0
102
RTVSPropertyOp11
 70
     0
102
RTVSPropertyOp12
 70
     0
102
RTVSPropertyOp13
 70
     0
102
RTVSPropertyOp14
 70
     2
102
RTVSPropertyOp15
 70
     0
102
RTVSPropertyOp16
 70
     0
102
RTVSPropertyOp17
 70
     0
102
RTVSPropertyOp18
 70
     0
102
RTVSPropertyOp19
 70
     0
102
RTVSPropertyOp20
 70
     0
102
RTVSPropertyOp21
 70
     0
102
RTVSPropertyOp22
 70
     0
102
RTVSPropertyOp23
 70
     0
102
RTVSPropertyOp24
 70
     0
102
RTVSPropertyOp25
 70
     0
102
RTVSPropertyOp26
 70
     0
102
RTVSPropertyOp27
 70
     0
102
RTVSPropertyOp28
 70
     0
102
RTVSPropertyOp29
 70
     0
102
RTVSPropertyOp30
 70
     0
102
RTVSPropertyOp31
 70
     0
102
RTVSPropertyOp32
 70
     0
102
RTVSPropertyOp33
 70
     0
102
RTVSPropertyOp34
 70
     0
102
RTVSPropertyOp35
 70
     0
102
RTVSPropertyOp36
 70
     0
102
RTVSPropertyOp37
 70
     0
102
RTVSPropertyOp38
 70
     0
102
RTVSPropertyOp39
 70
     0
102
RTVSPropertyOp40
 70
     0
102
RTVSPropertyOp41
 70
     0
102
RTVSPropertyOp42
 70
     0
102
RTVSPropertyOp43
 70
     0
102
RTVSPropertyOp44
 70
     0
102
RTVSPropertyOp45
 70
     0
102
RTVSPropertyOp46
 70
     0
102
RTVSPropertyOp47
 70
     0
102
RTVSPropertyOp48
 70
     0
102
RTVSPropertyOp49
 70
     0
102
RTVSPropertyOp50
 70
     0
102
RTVSPropertyOp51
 70
     0
102
RTVSPropertyOp52
 70
     0
102
RTVSPropertyOp53
 70
     0
102
RTVSPropertyOp54
 70
     0
102
RTVSPropertyOp55
 70
     0
102
RTVSPropertyOp56
 70
     0
102
RTVSPropertyOp57
 70
     0
102
RTVSPost2010Prop28
280
     0
102
RTVSPost2010PropOp28
 70
     0
102
RTVSPost2010Prop29
280
     1
102
RTVSPost2010PropOp29
 70
     0
102
RTVSPost2010Prop30
280
     1
102
RTVSPost2010PropOp30
 70
     0
102
RTVSPost2010Prop31
280
     0
102
RTVSPost2010PropOp31
 70
     0
102
RTVSPost2010Prop32
280
     0
102
RTVSPost2010PropOp32
 70
     0
102
RTVSPost2010Prop33
280
     0
102
RTVSPost2010PropOp33
 70
     0
102
RTVSPost2010Prop34
280
     0
102
RTVSPost2010PropOp34
 70
     0
102
RTVSPost2010Prop35
280
     0
102
RTVSPost2010PropOp35
 70
     0
102
RTVSPost2010Prop36
280
     0
102
RTVSPost2010PropOp36
 70
     0
102
RTVSPost2010Prop37
 90
       50
102
RTVSPost2010PropOp37
 70
     0
102
RTVSPost2010Prop38
140
0.0
102
RTVSPost2010PropOp38
 70
     0
102
RTVSPost2010Prop39
140
1.0
102
RTVSPost2010PropOp39
 70
     0
102
RTVSPost2010Prop40
 90
        0
102
RTVSPost2010PropOp40
 70
     0
102
RTVSPost2010Prop41ColorIndex
 90
       18
102
RTVSPost2010Prop41ColorRGB
 90
        0
102
RTVSPost2010PropOp41
 70
     0
102
RTVSPost2010Prop42
 90
       50
102
RTVSPost2010PropOp42
 70
     0
102
RTVSPost2010Prop43
 90
        3
102
RTVSPost2010PropOp43
 70
     0
102
RTVSPost2010Prop44ColorIndex
 90
        5
102
RTVSPost2010Prop44ColorRGB
 90
      255
102
RTVSPost2010PropOp44
 70
     0
102
RTVSPost2010Prop45
280
     0
102
RTVSPost2010PropOp45
 70
     0
102
RTVSPost2010Prop46
 90
       50
102
RTVSPost2010PropOp46
 70
     0
102
RTVSPost2010Prop47
 90
       50
102
RTVSPost2010PropOp47
 70
     0
102
RTVSPost2010Prop48
 90
       50
102
RTVSPost2010PropOp48
 70
     0
102
RTVSPost2010Prop49
280
     0
102
RTVSPost2010PropOp49
 70
     0
102
RTVSPost2010Prop50
 90
       50
102
RTVSPost2010PropOp50
 70
     0
102
RTVSPost2010Prop51ColorIndex
 90
      256
102
RTVSPost2010Prop51ColorRGB
 90
-16777216
102
RTVSPost2010PropOp51
 70
     0
102
RTVSPost2010Prop52
140
1.0
102
RTVSPost2010PropOp52
 70
     0
102
RTVSPost2010Prop53
 90
        2
102
RTVSPost2010PropOp53
 70
     0
102
RTVSPost2010Prop54
  1
strokes_ogs.tif
102
RTVSPost2010PropOp54
 70
     0
102
RTVSPost2010Prop55
280
     0
102
RTVSPost2010PropOp55
 70
     0
102
RTVSPost2010Prop56
140
1.0
102
RTVSPost2010PropOp56
 70
     0
102
RTVSPost2010Prop57
140
1.0
102
RTVSPost2010PropOp57
 70
     0
  0
XRECORD
  5
1EF
102
{ACAD_REACTORS
330
1EE
102
}
330
1EE
100
AcDbXrecord
280
     1
102
RTVSPropertyOp0
 70
     1
102
RTVSPropertyOp1
 70
     1
102
RTVSPropertyOp2
 70
     1
102
RTVSPropertyOp3
 70
     1
102
RTVSPropertyOp4
 70
     1
102
RTVSPropertyOp5
 70
     1
102
RTVSPropertyOp6
 70
     1
102
RTVSPropertyOp7
 70
     1
102
RTVSPropertyOp8
 70
     1
102
RTVSPropertyOp9
 70
     1
102
RTVSPropertyOp10
 70
     1
102
RTVSPropertyOp11
 70
     1
102
RTVSPropertyOp12
 70
     1
102
RTVSPropertyOp13
 70
     1
102
RTVSPropertyOp14
 70
     1
102
RTVSPropertyOp15
 70
     1
102
RTVSPropertyOp16
 70
     1
102
RTVSPropertyOp17
 70
     1
102
RTVSPropertyOp18
 70
     1
102
RTVSPropertyOp19
 70
     1
102
RTVSPropertyOp20
 70
     1
102
RTVSPropertyOp21
 70
     1
102
RTVSPropertyOp22
 70
     1
102
RTVSPropertyOp23
 70
     1
102
RTVSPropertyOp24
 70
     1
102
RTVSPropertyOp25
 70
     1
102
RTVSPropertyOp26
 70
     1
102
RTVSPropertyOp27
 70
     1
102
RTVSPropertyOp28
 70
     1
102
RTVSPropertyOp29
 70
     1
102
RTVSPropertyOp30
 70
     1
102
RTVSPropertyOp31
 70
     1
102
RTVSPropertyOp32
 70
     1
102
RTVSPropertyOp33
 70
     1
102
RTVSPropertyOp34
 70
     1
102
RTVSPropertyOp35
 70
     1
102
RTVSPropertyOp36
 70
     1
102
RTVSPropertyOp37
 70
     1
102
RTVSPropertyOp38
 70
     1
102
RTVSPropertyOp39
 70
     1
102
RTVSPropertyOp40
 70
     1
102
RTVSPropertyOp41
 70
     1
102
RTVSPropertyOp42
 70
     1
102
RTVSPropertyOp43
 70
     1
102
RTVSPropertyOp44
 70
     1
102
RTVSPropertyOp45
 70
     1
102
RTVSPropertyOp46
 70
     1
102
RTVSPropertyOp47
 70
     1
102
RTVSPropertyOp48
 70
     1
102
RTVSPropertyOp49
 70
     1
102
RTVSPropertyOp50
 70
     1
102
RTVSPropertyOp51
 70
     0
102
RTVSPropertyOp52
 70
     0
102
RTVSPropertyOp53
 70
     1
102
RTVSPropertyOp54
 70
     1
102
RTVSPropertyOp55
 70
     1
102
RTVSPropertyOp56
 70
     1
102
RTVSPropertyOp57
 70
     1
102
RTVSPost2010Prop28
280
     0
102
RTVSPost2010PropOp28
 70
     1
102
RTVSPost2010Prop29
280
     1
102
RTVSPost2010PropOp29
 70
     1
102
RTVSPost2010Prop30
280
     1
102
RTVSPost2010PropOp30
 70
     1
102
RTVSPost2010Prop31
280
     0
102
RTVSPost2010PropOp31
 70
     1
102
RTVSPost2010Prop32
280
     0
102
RTVSPost2010PropOp32
 70
     1
102
RTVSPost2010Prop33
280
     0
102
RTVSPost2010PropOp33
 70
     1
102
RTVSPost2010Prop34
280
     0
102
RTVSPost2010PropOp34
 70
     1
102
RTVSPost2010Prop35
280
     0
102
RTVSPost2010PropOp35
 70
     1
102
RTVSPost2010Prop36
280
     0
102
RTVSPost2010PropOp36
 70
     1
102
RTVSPost2010Prop37
 90
       50
102
RTVSPost2010PropOp37
 70
     1
102
RTVSPost2010Prop38
140
0.0
102
RTVSPost2010PropOp38
 70
     1
102
RTVSPost2010Prop39
140
1.0
102
RTVSPost2010PropOp39
 70
     1
102
RTVSPost2010Prop40
 90
        0
102
RTVSPost2010PropOp40
 70
     1
102
RTVSPost2010Prop41ColorIndex
 90
       18
102
RTVSPost2010Prop41ColorRGB
 90
        0
102
RTVSPost2010PropOp41
 70
     1
102
RTVSPost2010Prop42
 90
       50
102
RTVSPost2010PropOp42
 70
     1
102
RTVSPost2010Prop43
 90
        3
102
RTVSPost2010PropOp43
 70
     1
102
RTVSPost2010Prop44ColorIndex
 90
        5
102
RTVSPost2010Prop44ColorRGB
 90
      255
102
RTVSPost2010PropOp44
 70
     1
102
RTVSPost2010Prop45
280
     0
102
RTVSPost2010PropOp45
 70
     1
102
RTVSPost2010Prop46
 90
       50
102
RTVSPost2010PropOp46
 70
     1
102
RTVSPost2010Prop47
 90
       50
102
RTVSPost2010PropOp47
 70
     1
102
RTVSPost2010Prop48
 90
       50
102
RTVSPost2010PropOp48
 70
     1
102
RTVSPost2010Prop49
280
     0
102
RTVSPost2010PropOp49
 70
     1
102
RTVSPost2010Prop50
 90
       50
102
RTVSPost2010PropOp50
 70
     1
102
RTVSPost2010Prop51ColorIndex
 90
      256
102
RTVSPost2010Prop51ColorRGB
 90
-16777216
102
RTVSPost2010PropOp51
 70
     0
102
RTVSPost2010Prop52
140
1.0
102
RTVSPost2010PropOp52
 70
     0
102
RTVSPost2010Prop53
 90
        2
102
RTVSPost2010PropOp53
 70
     1
102
RTVSPost2010Prop54
  1
strokes_ogs.tif
102
RTVSPost2010PropOp54
 70
     1
102
RTVSPost2010Prop55
280
     0
102
RTVSPost2010PropOp55
 70
     1
102
RTVSPost2010Prop56
140
1.0
102
RTVSPost2010PropOp56
 70
     1
102
RTVSPost2010Prop57
140
1.0
102
RTVSPost2010PropOp57
 70
     1
  0
XRECORD
  5
20D
102
{ACAD_REACTORS
330
20C
102
}
330
20C
100
AcDbXrecord
280
     1
102
RTVSPropertyOp0
 70
     1
102
RTVSPropertyOp1
 70
     1
102
RTVSPropertyOp2
 70
     1
102
RTVSPropertyOp3
 70
     1
102
RTVSPropertyOp4
 70
     1
102
RTVSPropertyOp5
 70
     1
102
RTVSPropertyOp6
 70
     1
102
RTVSPropertyOp7
 70
     1
102
RTVSPropertyOp8
 70
     1
102
RTVSPropertyOp9
 70
     1
102
RTVSPropertyOp10
 70
     1
102
RTVSPropertyOp11
 70
     1
102
RTVSPropertyOp12
 70
     1
102
RTVSPropertyOp13
 70
     1
102
RTVSPropertyOp14
 70
     1
102
RTVSPropertyOp15
 70
     1
102
RTVSPropertyOp16
 70
     1
102
RTVSPropertyOp17
 70
     1
102
RTVSPropertyOp18
 70
     1
102
RTVSPropertyOp19
 70
     1
102
RTVSPropertyOp20
 70
     1
102
RTVSPropertyOp21
 70
     1
102
RTVSPropertyOp22
 70
     1
102
RTVSPropertyOp23
 70
     1
102
RTVSPropertyOp24
 70
     1
102
RTVSPropertyOp25
 70
     1
102
RTVSPropertyOp26
 70
     1
102
RTVSPropertyOp27
 70
     1
102
RTVSPropertyOp28
 70
     1
102
RTVSPropertyOp29
 70
     1
102
RTVSPropertyOp30
 70
     1
102
RTVSPropertyOp31
 70
     1
102
RTVSPropertyOp32
 70
     1
102
RTVSPropertyOp33
 70
     1
102
RTVSPropertyOp34
 70
     1
102
RTVSPropertyOp35
 70
     1
102
RTVSPropertyOp36
 70
     1
102
RTVSPropertyOp37
 70
     1
102
RTVSPropertyOp38
 70
     1
102
RTVSPropertyOp39
 70
     1
102
RTVSPropertyOp40
 70
     1
102
RTVSPropertyOp41
 70
     1
102
RTVSPropertyOp42
 70
     1
102
RTVSPropertyOp43
 70
     1
102
RTVSPropertyOp44
 70
     1
102
RTVSPropertyOp45
 70
     1
102
RTVSPropertyOp46
 70
     1
102
RTVSPropertyOp47
 70
     1
102
RTVSPropertyOp48
 70
     1
102
RTVSPropertyOp49
 70
     1
102
RTVSPropertyOp50
 70
     1
102
RTVSPropertyOp51
 70
     0
102
RTVSPropertyOp52
 70
     0
102
RTVSPropertyOp53
 70
     1
102
RTVSPropertyOp54
 70
     1
102
RTVSPropertyOp55
 70
     1
102
RTVSPropertyOp56
 70
     1
102
RTVSPropertyOp57
 70
     1
102
RTVSPost2010Prop28
280
     0
102
RTVSPost2010PropOp28
 70
     1
102
RTVSPost2010Prop29
280
     1
102
RTVSPost2010PropOp29
 70
     1
102
RTVSPost2010Prop30
280
     1
102
RTVSPost2010PropOp30
 70
     1
102
RTVSPost2010Prop31
280
     0
102
RTVSPost2010PropOp31
 70
     1
102
RTVSPost2010Prop32
280
     0
102
RTVSPost2010PropOp32
 70
     1
102
RTVSPost2010Prop33
280
     0
102
RTVSPost2010PropOp33
 70
     1
102
RTVSPost2010Prop34
280
     0
102
RTVSPost2010PropOp34
 70
     1
102
RTVSPost2010Prop35
280
     0
102
RTVSPost2010PropOp35
 70
     1
102
RTVSPost2010Prop36
280
     0
102
RTVSPost2010PropOp36
 70
     1
102
RTVSPost2010Prop37
 90
       50
102
RTVSPost2010PropOp37
 70
     1
102
RTVSPost2010Prop38
140
0.0
102
RTVSPost2010PropOp38
 70
     1
102
RTVSPost2010Prop39
140
1.0
102
RTVSPost2010PropOp39
 70
     1
102
RTVSPost2010Prop40
 90
        0
102
RTVSPost2010PropOp40
 70
     1
102
RTVSPost2010Prop41ColorIndex
 90
       18
102
RTVSPost2010Prop41ColorRGB
 90
        0
102
RTVSPost2010PropOp41
 70
     1
102
RTVSPost2010Prop42
 90
       50
102
RTVSPost2010PropOp42
 70
     1
102
RTVSPost2010Prop43
 90
        3
102
RTVSPost2010PropOp43
 70
     1
102
RTVSPost2010Prop44ColorIndex
 90
        5
102
RTVSPost2010Prop44ColorRGB
 90
      255
102
RTVSPost2010PropOp44
 70
     1
102
RTVSPost2010Prop45
280
     0
102
RTVSPost2010PropOp45
 70
     1
102
RTVSPost2010Prop46
 90
       50
102
RTVSPost2010PropOp46
 70
     1
102
RTVSPost2010Prop47
 90
       50
102
RTVSPost2010PropOp47
 70
     1
102
RTVSPost2010Prop48
 90
       50
102
RTVSPost2010PropOp48
 70
     1
102
RTVSPost2010Prop49
280
     0
102
RTVSPost2010PropOp49
 70
     1
102
RTVSPost2010Prop50
 90
       50
102
RTVSPost2010PropOp50
 70
     1
102
RTVSPost2010Prop51ColorIndex
 90
      256
102
RTVSPost2010Prop51ColorRGB
 90
-16777216
102
RTVSPost2010PropOp51
 70
     0
102
RTVSPost2010Prop52
140
1.0
102
RTVSPost2010PropOp52
 70
     0
102
RTVSPost2010Prop53
 90
        2
102
RTVSPost2010PropOp53
 70
     1
102
RTVSPost2010Prop54
  1
strokes_ogs.tif
102
RTVSPost2010PropOp54
 70
     1
102
RTVSPost2010Prop55
280
     0
102
RTVSPost2010PropOp55
 70
     1
102
RTVSPost2010Prop56
140
1.0
102
RTVSPost2010PropOp56
 70
     1
102
RTVSPost2010Prop57
140
1.0
102
RTVSPost2010PropOp57
 70
     1
  0
XRECORD
  5
20B
102
{ACAD_REACTORS
330
20A
102
}
330
20A
100
AcDbXrecord
280
     1
102
RTVSPropertyOp0
 70
     1
102
RTVSPropertyOp1
 70
     1
102
RTVSPropertyOp2
 70
     1
102
RTVSPropertyOp3
 70
     1
102
RTVSPropertyOp4
 70
     1
102
RTVSPropertyOp5
 70
     1
102
RTVSPropertyOp6
 70
     1
102
RTVSPropertyOp7
 70
     1
102
RTVSPropertyOp8
 70
     1
102
RTVSPropertyOp9
 70
     1
102
RTVSPropertyOp10
 70
     1
102
RTVSPropertyOp11
 70
     1
102
RTVSPropertyOp12
 70
     1
102
RTVSPropertyOp13
 70
     1
102
RTVSPropertyOp14
 70
     1
102
RTVSPropertyOp15
 70
     1
102
RTVSPropertyOp16
 70
     1
102
RTVSPropertyOp17
 70
     1
102
RTVSPropertyOp18
 70
     1
102
RTVSPropertyOp19
 70
     1
102
RTVSPropertyOp20
 70
     1
102
RTVSPropertyOp21
 70
     1
102
RTVSPropertyOp22
 70
     1
102
RTVSPropertyOp23
 70
     1
102
RTVSPropertyOp24
 70
     1
102
RTVSPropertyOp25
 70
     1
102
RTVSPropertyOp26
 70
     1
102
RTVSPropertyOp27
 70
     1
102
RTVSPropertyOp28
 70
     1
102
RTVSPropertyOp29
 70
     1
102
RTVSPropertyOp30
 70
     1
102
RTVSPropertyOp31
 70
     1
102
RTVSPropertyOp32
 70
     1
102
RTVSPropertyOp33
 70
     1
102
RTVSPropertyOp34
 70
     1
102
RTVSPropertyOp35
 70
     1
102
RTVSPropertyOp36
 70
     1
102
RTVSPropertyOp37
 70
     1
102
RTVSPropertyOp38
 70
     1
102
RTVSPropertyOp39
 70
     1
102
RTVSPropertyOp40
 70
     1
102
RTVSPropertyOp41
 70
     1
102
RTVSPropertyOp42
 70
     1
102
RTVSPropertyOp43
 70
     1
102
RTVSPropertyOp44
 70
     1
102
RTVSPropertyOp45
 70
     1
102
RTVSPropertyOp46
 70
     1
102
RTVSPropertyOp47
 70
     1
102
RTVSPropertyOp48
 70
     1
102
RTVSPropertyOp49
 70
     1
102
RTVSPropertyOp50
 70
     1
102
RTVSPropertyOp51
 70
     0
102
RTVSPropertyOp52
 70
     0
102
RTVSPropertyOp53
 70
     1
102
RTVSPropertyOp54
 70
     1
102
RTVSPropertyOp55
 70
     1
102
RTVSPropertyOp56
 70
     1
102
RTVSPropertyOp57
 70
     1
102
RTVSPost2010Prop28
280
     0
102
RTVSPost2010PropOp28
 70
     1
102
RTVSPost2010Prop29
280
     1
102
RTVSPost2010PropOp29
 70
     1
102
RTVSPost2010Prop30
280
     1
102
RTVSPost2010PropOp30
 70
     1
102
RTVSPost2010Prop31
280
     0
102
RTVSPost2010PropOp31
 70
     1
102
RTVSPost2010Prop32
280
     0
102
RTVSPost2010PropOp32
 70
     1
102
RTVSPost2010Prop33
280
     0
102
RTVSPost2010PropOp33
 70
     1
102
RTVSPost2010Prop34
280
     0
102
RTVSPost2010PropOp34
 70
     1
102
RTVSPost2010Prop35
280
     0
102
RTVSPost2010PropOp35
 70
     1
102
RTVSPost2010Prop36
280
     0
102
RTVSPost2010PropOp36
 70
     1
102
RTVSPost2010Prop37
 90
       50
102
RTVSPost2010PropOp37
 70
     1
102
RTVSPost2010Prop38
140
0.0
102
RTVSPost2010PropOp38
 70
     1
102
RTVSPost2010Prop39
140
1.0
102
RTVSPost2010PropOp39
 70
     1
102
RTVSPost2010Prop40
 90
        0
102
RTVSPost2010PropOp40
 70
     1
102
RTVSPost2010Prop41ColorIndex
 90
       18
102
RTVSPost2010Prop41ColorRGB
 90
        0
102
RTVSPost2010PropOp41
 70
     1
102
RTVSPost2010Prop42
 90
       50
102
RTVSPost2010PropOp42
 70
     1
102
RTVSPost2010Prop43
 90
        3
102
RTVSPost2010PropOp43
 70
     1
102
RTVSPost2010Prop44ColorIndex
 90
        5
102
RTVSPost2010Prop44ColorRGB
 90
      255
102
RTVSPost2010PropOp44
 70
     1
102
RTVSPost2010Prop45
280
     0
102
RTVSPost2010PropOp45
 70
     1
102
RTVSPost2010Prop46
 90
       50
102
RTVSPost2010PropOp46
 70
     1
102
RTVSPost2010Prop47
 90
       50
102
RTVSPost2010PropOp47
 70
     1
102
RTVSPost2010Prop48
 90
       50
102
RTVSPost2010PropOp48
 70
     1
102
RTVSPost2010Prop49
280
     0
102
RTVSPost2010PropOp49
 70
     1
102
RTVSPost2010Prop50
 90
       50
102
RTVSPost2010PropOp50
 70
     1
102
RTVSPost2010Prop51ColorIndex
 90
      256
102
RTVSPost2010Prop51ColorRGB
 90
-16777216
102
RTVSPost2010PropOp51
 70
     0
102
RTVSPost2010Prop52
140
1.0
102
RTVSPost2010PropOp52
 70
     0
102
RTVSPost2010Prop53
 90
        2
102
RTVSPost2010PropOp53
 70
     1
102
RTVSPost2010Prop54
  1
strokes_ogs.tif
102
RTVSPost2010PropOp54
 70
     1
102
RTVSPost2010Prop55
280
     0
102
RTVSPost2010PropOp55
 70
     1
102
RTVSPost2010Prop56
140
1.0
102
RTVSPost2010PropOp56
 70
     1
102
RTVSPost2010Prop57
140
1.0
102
RTVSPost2010PropOp57
 70
     1
  0
XRECORD
  5
205
102
{ACAD_REACTORS
330
204
102
}
330
204
100
AcDbXrecord
280
     1
102
RTVSPropertyOp0
 70
     1
102
RTVSPropertyOp1
 70
     1
102
RTVSPropertyOp2
 70
     1
102
RTVSPropertyOp3
 70
     1
102
RTVSPropertyOp4
 70
     1
102
RTVSPropertyOp5
 70
     1
102
RTVSPropertyOp6
 70
     1
102
RTVSPropertyOp7
 70
     1
102
RTVSPropertyOp8
 70
     1
102
RTVSPropertyOp9
 70
     1
102
RTVSPropertyOp10
 70
     1
102
RTVSPropertyOp11
 70
     1
102
RTVSPropertyOp12
 70
     1
102
RTVSPropertyOp13
 70
     1
102
RTVSPropertyOp14
 70
     1
102
RTVSPropertyOp15
 70
     1
102
RTVSPropertyOp16
 70
     1
102
RTVSPropertyOp17
 70
     1
102
RTVSPropertyOp18
 70
     1
102
RTVSPropertyOp19
 70
     1
102
RTVSPropertyOp20
 70
     1
102
RTVSPropertyOp21
 70
     1
102
RTVSPropertyOp22
 70
     1
102
RTVSPropertyOp23
 70
     1
102
RTVSPropertyOp24
 70
     1
102
RTVSPropertyOp25
 70
     1
102
RTVSPropertyOp26
 70
     1
102
RTVSPropertyOp27
 70
     1
102
RTVSPropertyOp28
 70
     1
102
RTVSPropertyOp29
 70
     1
102
RTVSPropertyOp30
 70
     1
102
RTVSPropertyOp31
 70
     1
102
RTVSPropertyOp32
 70
     1
102
RTVSPropertyOp33
 70
     1
102
RTVSPropertyOp34
 70
     1
102
RTVSPropertyOp35
 70
     1
102
RTVSPropertyOp36
 70
     1
102
RTVSPropertyOp37
 70
     1
102
RTVSPropertyOp38
 70
     1
102
RTVSPropertyOp39
 70
     1
102
RTVSPropertyOp40
 70
     1
102
RTVSPropertyOp41
 70
     1
102
RTVSPropertyOp42
 70
     1
102
RTVSPropertyOp43
 70
     1
102
RTVSPropertyOp44
 70
     1
102
RTVSPropertyOp45
 70
     1
102
RTVSPropertyOp46
 70
     1
102
RTVSPropertyOp47
 70
     1
102
RTVSPropertyOp48
 70
     1
102
RTVSPropertyOp49
 70
     1
102
RTVSPropertyOp50
 70
     1
102
RTVSPropertyOp51
 70
     0
102
RTVSPropertyOp52
 70
     0
102
RTVSPropertyOp53
 70
     1
102
RTVSPropertyOp54
 70
     1
102
RTVSPropertyOp55
 70
     1
102
RTVSPropertyOp56
 70
     1
102
RTVSPropertyOp57
 70
     1
102
RTVSPost2010Prop28
280
     0
102
RTVSPost2010PropOp28
 70
     1
102
RTVSPost2010Prop29
280
     1
102
RTVSPost2010PropOp29
 70
     1
102
RTVSPost2010Prop30
280
     1
102
RTVSPost2010PropOp30
 70
     1
102
RTVSPost2010Prop31
280
     0
102
RTVSPost2010PropOp31
 70
     1
102
RTVSPost2010Prop32
280
     0
102
RTVSPost2010PropOp32
 70
     1
102
RTVSPost2010Prop33
280
     0
102
RTVSPost2010PropOp33
 70
     1
102
RTVSPost2010Prop34
280
     0
102
RTVSPost2010PropOp34
 70
     1
102
RTVSPost2010Prop35
280
     0
102
RTVSPost2010PropOp35
 70
     1
102
RTVSPost2010Prop36
280
     0
102
RTVSPost2010PropOp36
 70
     1
102
RTVSPost2010Prop37
 90
       50
102
RTVSPost2010PropOp37
 70
     1
102
RTVSPost2010Prop38
140
0.0
102
RTVSPost2010PropOp38
 70
     1
102
RTVSPost2010Prop39
140
1.0
102
RTVSPost2010PropOp39
 70
     1
102
RTVSPost2010Prop40
 90
        0
102
RTVSPost2010PropOp40
 70
     1
102
RTVSPost2010Prop41ColorIndex
 90
       18
102
RTVSPost2010Prop41ColorRGB
 90
        0
102
RTVSPost2010PropOp41
 70
     1
102
RTVSPost2010Prop42
 90
       50
102
RTVSPost2010PropOp42
 70
     1
102
RTVSPost2010Prop43
 90
        3
102
RTVSPost2010PropOp43
 70
     1
102
RTVSPost2010Prop44ColorIndex
 90
        5
102
RTVSPost2010Prop44ColorRGB
 90
      255
102
RTVSPost2010PropOp44
 70
     1
102
RTVSPost2010Prop45
280
     0
102
RTVSPost2010PropOp45
 70
     1
102
RTVSPost2010Prop46
 90
       50
102
RTVSPost2010PropOp46
 70
     1
102
RTVSPost2010Prop47
 90
       50
102
RTVSPost2010PropOp47
 70
     1
102
RTVSPost2010Prop48
 90
       50
102
RTVSPost2010PropOp48
 70
     1
102
RTVSPost2010Prop49
280
     0
102
RTVSPost2010PropOp49
 70
     1
102
RTVSPost2010Prop50
 90
       50
102
RTVSPost2010PropOp50
 70
     1
102
RTVSPost2010Prop51ColorIndex
 90
      256
102
RTVSPost2010Prop51ColorRGB
 90
-16777216
102
RTVSPost2010PropOp51
 70
     0
102
RTVSPost2010Prop52
140
1.0
102
RTVSPost2010PropOp52
 70
     0
102
RTVSPost2010Prop53
 90
        2
102
RTVSPost2010PropOp53
 70
     1
102
RTVSPost2010Prop54
  1
strokes_ogs.tif
102
RTVSPost2010PropOp54
 70
     1
102
RTVSPost2010Prop55
280
     0
102
RTVSPost2010PropOp55
 70
     1
102
RTVSPost2010Prop56
140
1.0
102
RTVSPost2010PropOp56
 70
     1
102
RTVSPost2010Prop57
140
1.0
102
RTVSPost2010PropOp57
 70
     1
  0
XRECORD
  5
207
102
{ACAD_REACTORS
330
206
102
}
330
206
100
AcDbXrecord
280
     1
102
RTVSPropertyOp0
 70
     1
102
RTVSPropertyOp1
 70
     1
102
RTVSPropertyOp2
 70
     1
102
RTVSPropertyOp3
 70
     1
102
RTVSPropertyOp4
 70
     1
102
RTVSPropertyOp5
 70
     1
102
RTVSPropertyOp6
 70
     1
102
RTVSPropertyOp7
 70
     1
102
RTVSPropertyOp8
 70
     1
102
RTVSPropertyOp9
 70
     1
102
RTVSPropertyOp10
 70
     1
102
RTVSPropertyOp11
 70
     1
102
RTVSPropertyOp12
 70
     1
102
RTVSPropertyOp13
 70
     1
102
RTVSPropertyOp14
 70
     1
102
RTVSPropertyOp15
 70
     1
102
RTVSPropertyOp16
 70
     1
102
RTVSPropertyOp17
 70
     1
102
RTVSPropertyOp18
 70
     1
102
RTVSPropertyOp19
 70
     1
102
RTVSPropertyOp20
 70
     1
102
RTVSPropertyOp21
 70
     1
102
RTVSPropertyOp22
 70
     1
102
RTVSPropertyOp23
 70
     1
102
RTVSPropertyOp24
 70
     1
102
RTVSPropertyOp25
 70
     1
102
RTVSPropertyOp26
 70
     1
102
RTVSPropertyOp27
 70
     1
102
RTVSPropertyOp28
 70
     1
102
RTVSPropertyOp29
 70
     1
102
RTVSPropertyOp30
 70
     1
102
RTVSPropertyOp31
 70
     1
102
RTVSPropertyOp32
 70
     1
102
RTVSPropertyOp33
 70
     1
102
RTVSPropertyOp34
 70
     1
102
RTVSPropertyOp35
 70
     1
102
RTVSPropertyOp36
 70
     1
102
RTVSPropertyOp37
 70
     1
102
RTVSPropertyOp38
 70
     1
102
RTVSPropertyOp39
 70
     1
102
RTVSPropertyOp40
 70
     1
102
RTVSPropertyOp41
 70
     1
102
RTVSPropertyOp42
 70
     1
102
RTVSPropertyOp43
 70
     1
102
RTVSPropertyOp44
 70
     1
102
RTVSPropertyOp45
 70
     1
102
RTVSPropertyOp46
 70
     1
102
RTVSPropertyOp47
 70
     1
102
RTVSPropertyOp48
 70
     1
102
RTVSPropertyOp49
 70
     1
102
RTVSPropertyOp50
 70
     1
102
RTVSPropertyOp51
 70
     0
102
RTVSPropertyOp52
 70
     0
102
RTVSPropertyOp53
 70
     1
102
RTVSPropertyOp54
 70
     1
102
RTVSPropertyOp55
 70
     1
102
RTVSPropertyOp56
 70
     1
102
RTVSPropertyOp57
 70
     1
102
RTVSPost2010Prop28
280
     0
102
RTVSPost2010PropOp28
 70
     1
102
RTVSPost2010Prop29
280
     1
102
RTVSPost2010PropOp29
 70
     1
102
RTVSPost2010Prop30
280
     1
102
RTVSPost2010PropOp30
 70
     1
102
RTVSPost2010Prop31
280
     0
102
RTVSPost2010PropOp31
 70
     1
102
RTVSPost2010Prop32
280
     0
102
RTVSPost2010PropOp32
 70
     1
102
RTVSPost2010Prop33
280
     0
102
RTVSPost2010PropOp33
 70
     1
102
RTVSPost2010Prop34
280
     0
102
RTVSPost2010PropOp34
 70
     1
102
RTVSPost2010Prop35
280
     0
102
RTVSPost2010PropOp35
 70
     1
102
RTVSPost2010Prop36
280
     0
102
RTVSPost2010PropOp36
 70
     1
102
RTVSPost2010Prop37
 90
       50
102
RTVSPost2010PropOp37
 70
     1
102
RTVSPost2010Prop38
140
0.0
102
RTVSPost2010PropOp38
 70
     1
102
RTVSPost2010Prop39
140
1.0
102
RTVSPost2010PropOp39
 70
     1
102
RTVSPost2010Prop40
 90
        0
102
RTVSPost2010PropOp40
 70
     1
102
RTVSPost2010Prop41ColorIndex
 90
       18
102
RTVSPost2010Prop41ColorRGB
 90
        0
102
RTVSPost2010PropOp41
 70
     1
102
RTVSPost2010Prop42
 90
       50
102
RTVSPost2010PropOp42
 70
     1
102
RTVSPost2010Prop43
 90
        3
102
RTVSPost2010PropOp43
 70
     1
102
RTVSPost2010Prop44ColorIndex
 90
        5
102
RTVSPost2010Prop44ColorRGB
 90
      255
102
RTVSPost2010PropOp44
 70
     1
102
RTVSPost2010Prop45
280
     0
102
RTVSPost2010PropOp45
 70
     1
102
RTVSPost2010Prop46
 90
       50
102
RTVSPost2010PropOp46
 70
     1
102
RTVSPost2010Prop47
 90
       50
102
RTVSPost2010PropOp47
 70
     1
102
RTVSPost2010Prop48
 90
       50
102
RTVSPost2010PropOp48
 70
     1
102
RTVSPost2010Prop49
280
     0
102
RTVSPost2010PropOp49
 70
     1
102
RTVSPost2010Prop50
 90
       50
102
RTVSPost2010PropOp50
 70
     1
102
RTVSPost2010Prop51ColorIndex
 90
      256
102
RTVSPost2010Prop51ColorRGB
 90
-16777216
102
RTVSPost2010PropOp51
 70
     0
102
RTVSPost2010Prop52
140
1.0
102
RTVSPost2010PropOp52
 70
     0
102
RTVSPost2010Prop53
 90
        2
102
RTVSPost2010PropOp53
 70
     1
102
RTVSPost2010Prop54
  1
strokes_ogs.tif
102
RTVSPost2010PropOp54
 70
     1
102
RTVSPost2010Prop55
280
     0
102
RTVSPost2010PropOp55
 70
     1
102
RTVSPost2010Prop56
140
1.0
102
RTVSPost2010PropOp56
 70
     1
102
RTVSPost2010Prop57
140
1.0
102
RTVSPost2010PropOp57
 70
     1
  0
XRECORD
  5
1F7
102
{ACAD_REACTORS
330
1F6
102
}
330
1F6
100
AcDbXrecord
280
     1
102
RTVSPropertyOp0
 70
     1
102
RTVSPropertyOp1
 70
     1
102
RTVSPropertyOp2
 70
     1
102
RTVSPropertyOp3
 70
     1
102
RTVSPropertyOp4
 70
     1
102
RTVSPropertyOp5
 70
     1
102
RTVSPropertyOp6
 70
     1
102
RTVSPropertyOp7
 70
     1
102
RTVSPropertyOp8
 70
     1
102
RTVSPropertyOp9
 70
     1
102
RTVSPropertyOp10
 70
     1
102
RTVSPropertyOp11
 70
     1
102
RTVSPropertyOp12
 70
     1
102
RTVSPropertyOp13
 70
     1
102
RTVSPropertyOp14
 70
     1
102
RTVSPropertyOp15
 70
     1
102
RTVSPropertyOp16
 70
     1
102
RTVSPropertyOp17
 70
     1
102
RTVSPropertyOp18
 70
     1
102
RTVSPropertyOp19
 70
     1
102
RTVSPropertyOp20
 70
     1
102
RTVSPropertyOp21
 70
     1
102
RTVSPropertyOp22
 70
     1
102
RTVSPropertyOp23
 70
     1
102
RTVSPropertyOp24
 70
     1
102
RTVSPropertyOp25
 70
     1
102
RTVSPropertyOp26
 70
     1
102
RTVSPropertyOp27
 70
     1
102
RTVSPropertyOp28
 70
     1
102
RTVSPropertyOp29
 70
     1
102
RTVSPropertyOp30
 70
     1
102
RTVSPropertyOp31
 70
     1
102
RTVSPropertyOp32
 70
     1
102
RTVSPropertyOp33
 70
     1
102
RTVSPropertyOp34
 70
     1
102
RTVSPropertyOp35
 70
     1
102
RTVSPropertyOp36
 70
     1
102
RTVSPropertyOp37
 70
     1
102
RTVSPropertyOp38
 70
     1
102
RTVSPropertyOp39
 70
     1
102
RTVSPropertyOp40
 70
     1
102
RTVSPropertyOp41
 70
     1
102
RTVSPropertyOp42
 70
     1
102
RTVSPropertyOp43
 70
     1
102
RTVSPropertyOp44
 70
     1
102
RTVSPropertyOp45
 70
     1
102
RTVSPropertyOp46
 70
     1
102
RTVSPropertyOp47
 70
     1
102
RTVSPropertyOp48
 70
     1
102
RTVSPropertyOp49
 70
     1
102
RTVSPropertyOp50
 70
     1
102
RTVSPropertyOp51
 70
     0
102
RTVSPropertyOp52
 70
     0
102
RTVSPropertyOp53
 70
     1
102
RTVSPropertyOp54
 70
     1
102
RTVSPropertyOp55
 70
     1
102
RTVSPropertyOp56
 70
     1
102
RTVSPropertyOp57
 70
     1
102
RTVSPost2010Prop28
280
     0
102
RTVSPost2010PropOp28
 70
     1
102
RTVSPost2010Prop29
280
     1
102
RTVSPost2010PropOp29
 70
     1
102
RTVSPost2010Prop30
280
     1
102
RTVSPost2010PropOp30
 70
     1
102
RTVSPost2010Prop31
280
     0
102
RTVSPost2010PropOp31
 70
     1
102
RTVSPost2010Prop32
280
     0
102
RTVSPost2010PropOp32
 70
     1
102
RTVSPost2010Prop33
280
     0
102
RTVSPost2010PropOp33
 70
     1
102
RTVSPost2010Prop34
280
     0
102
RTVSPost2010PropOp34
 70
     1
102
RTVSPost2010Prop35
280
     0
102
RTVSPost2010PropOp35
 70
     1
102
RTVSPost2010Prop36
280
     0
102
RTVSPost2010PropOp36
 70
     1
102
RTVSPost2010Prop37
 90
       50
102
RTVSPost2010PropOp37
 70
     1
102
RTVSPost2010Prop38
140
0.0
102
RTVSPost2010PropOp38
 70
     1
102
RTVSPost2010Prop39
140
1.0
102
RTVSPost2010PropOp39
 70
     1
102
RTVSPost2010Prop40
 90
        0
102
RTVSPost2010PropOp40
 70
     1
102
RTVSPost2010Prop41ColorIndex
 90
       18
102
RTVSPost2010Prop41ColorRGB
 90
        0
102
RTVSPost2010PropOp41
 70
     1
102
RTVSPost2010Prop42
 90
       50
102
RTVSPost2010PropOp42
 70
     1
102
RTVSPost2010Prop43
 90
        3
102
RTVSPost2010PropOp43
 70
     1
102
RTVSPost2010Prop44ColorIndex
 90
        5
102
RTVSPost2010Prop44ColorRGB
 90
      255
102
RTVSPost2010PropOp44
 70
     1
102
RTVSPost2010Prop45
280
     0
102
RTVSPost2010PropOp45
 70
     1
102
RTVSPost2010Prop46
 90
       50
102
RTVSPost2010PropOp46
 70
     1
102
RTVSPost2010Prop47
 90
       50
102
RTVSPost2010PropOp47
 70
     1
102
RTVSPost2010Prop48
 90
       50
102
RTVSPost2010PropOp48
 70
     1
102
RTVSPost2010Prop49
280
     0
102
RTVSPost2010PropOp49
 70
     1
102
RTVSPost2010Prop50
 90
       50
102
RTVSPost2010PropOp50
 70
     1
102
RTVSPost2010Prop51ColorIndex
 90
      256
102
RTVSPost2010Prop51ColorRGB
 90
-16777216
102
RTVSPost2010PropOp51
 70
     0
102
RTVSPost2010Prop52
140
1.0
102
RTVSPost2010PropOp52
 70
     0
102
RTVSPost2010Prop53
 90
        2
102
RTVSPost2010PropOp53
 70
     1
102
RTVSPost2010Prop54
  1
strokes_ogs.tif
102
RTVSPost2010PropOp54
 70
     1
102
RTVSPost2010Prop55
280
     0
102
RTVSPost2010PropOp55
 70
     1
102
RTVSPost2010Prop56
140
1.0
102
RTVSPost2010PropOp56
 70
     1
102
RTVSPost2010Prop57
140
1.0
102
RTVSPost2010PropOp57
 70
     1
  0
XRECORD
  5
1E9
102
{ACAD_REACTORS
330
1E8
102
}
330
1E8
100
AcDbXrecord
280
     1
102
RTVSPropertyOp0
 70
     1
102
RTVSPropertyOp1
 70
     1
102
RTVSPropertyOp2
 70
     1
102
RTVSPropertyOp3
 70
     1
102
RTVSPropertyOp4
 70
     1
102
RTVSPropertyOp5
 70
     1
102
RTVSPropertyOp6
 70
     1
102
RTVSPropertyOp7
 70
     1
102
RTVSPropertyOp8
 70
     1
102
RTVSPropertyOp9
 70
     1
102
RTVSPropertyOp10
 70
     1
102
RTVSPropertyOp11
 70
     1
102
RTVSPropertyOp12
 70
     1
102
RTVSPropertyOp13
 70
     1
102
RTVSPropertyOp14
 70
     1
102
RTVSPropertyOp15
 70
     1
102
RTVSPropertyOp16
 70
     1
102
RTVSPropertyOp17
 70
     1
102
RTVSPropertyOp18
 70
     1
102
RTVSPropertyOp19
 70
     1
102
RTVSPropertyOp20
 70
     1
102
RTVSPropertyOp21
 70
     1
102
RTVSPropertyOp22
 70
     1
102
RTVSPropertyOp23
 70
     1
102
RTVSPropertyOp24
 70
     1
102
RTVSPropertyOp25
 70
     1
102
RTVSPropertyOp26
 70
     1
102
RTVSPropertyOp27
 70
     1
102
RTVSPropertyOp28
 70
     1
102
RTVSPropertyOp29
 70
     1
102
RTVSPropertyOp30
 70
     1
102
RTVSPropertyOp31
 70
     1
102
RTVSPropertyOp32
 70
     1
102
RTVSPropertyOp33
 70
     1
102
RTVSPropertyOp34
 70
     1
102
RTVSPropertyOp35
 70
     1
102
RTVSPropertyOp36
 70
     1
102
RTVSPropertyOp37
 70
     1
102
RTVSPropertyOp38
 70
     1
102
RTVSPropertyOp39
 70
     1
102
RTVSPropertyOp40
 70
     1
102
RTVSPropertyOp41
 70
     1
102
RTVSPropertyOp42
 70
     1
102
RTVSPropertyOp43
 70
     1
102
RTVSPropertyOp44
 70
     1
102
RTVSPropertyOp45
 70
     1
102
RTVSPropertyOp46
 70
     1
102
RTVSPropertyOp47
 70
     1
102
RTVSPropertyOp48
 70
     1
102
RTVSPropertyOp49
 70
     1
102
RTVSPropertyOp50
 70
     1
102
RTVSPropertyOp51
 70
     0
102
RTVSPropertyOp52
 70
     0
102
RTVSPropertyOp53
 70
     1
102
RTVSPropertyOp54
 70
     1
102
RTVSPropertyOp55
 70
     1
102
RTVSPropertyOp56
 70
     1
102
RTVSPropertyOp57
 70
     1
102
RTVSPost2010Prop28
280
     0
102
RTVSPost2010PropOp28
 70
     1
102
RTVSPost2010Prop29
280
     1
102
RTVSPost2010PropOp29
 70
     1
102
RTVSPost2010Prop30
280
     1
102
RTVSPost2010PropOp30
 70
     1
102
RTVSPost2010Prop31
280
     0
102
RTVSPost2010PropOp31
 70
     1
102
RTVSPost2010Prop32
280
     0
102
RTVSPost2010PropOp32
 70
     1
102
RTVSPost2010Prop33
280
     0
102
RTVSPost2010PropOp33
 70
     1
102
RTVSPost2010Prop34
280
     0
102
RTVSPost2010PropOp34
 70
     1
102
RTVSPost2010Prop35
280
     0
102
RTVSPost2010PropOp35
 70
     1
102
RTVSPost2010Prop36
280
     0
102
RTVSPost2010PropOp36
 70
     1
102
RTVSPost2010Prop37
 90
       50
102
RTVSPost2010PropOp37
 70
     1
102
RTVSPost2010Prop38
140
0.0
102
RTVSPost2010PropOp38
 70
     1
102
RTVSPost2010Prop39
140
1.0
102
RTVSPost2010PropOp39
 70
     1
102
RTVSPost2010Prop40
 90
        0
102
RTVSPost2010PropOp40
 70
     1
102
RTVSPost2010Prop41ColorIndex
 90
       18
102
RTVSPost2010Prop41ColorRGB
 90
        0
102
RTVSPost2010PropOp41
 70
     1
102
RTVSPost2010Prop42
 90
       50
102
RTVSPost2010PropOp42
 70
     1
102
RTVSPost2010Prop43
 90
        3
102
RTVSPost2010PropOp43
 70
     1
102
RTVSPost2010Prop44ColorIndex
 90
        5
102
RTVSPost2010Prop44ColorRGB
 90
      255
102
RTVSPost2010PropOp44
 70
     1
102
RTVSPost2010Prop45
280
     0
102
RTVSPost2010PropOp45
 70
     1
102
RTVSPost2010Prop46
 90
       50
102
RTVSPost2010PropOp46
 70
     1
102
RTVSPost2010Prop47
 90
       50
102
RTVSPost2010PropOp47
 70
     1
102
RTVSPost2010Prop48
 90
       50
102
RTVSPost2010PropOp48
 70
     1
102
RTVSPost2010Prop49
280
     0
102
RTVSPost2010PropOp49
 70
     1
102
RTVSPost2010Prop50
 90
       50
102
RTVSPost2010PropOp50
 70
     1
102
RTVSPost2010Prop51ColorIndex
 90
      256
102
RTVSPost2010Prop51ColorRGB
 90
-16777216
102
RTVSPost2010PropOp51
 70
     0
102
RTVSPost2010Prop52
140
1.0
102
RTVSPost2010PropOp52
 70
     0
102
RTVSPost2010Prop53
 90
        2
102
RTVSPost2010PropOp53
 70
     1
102
RTVSPost2010Prop54
  1
strokes_ogs.tif
102
RTVSPost2010PropOp54
 70
     1
102
RTVSPost2010Prop55
280
     0
102
RTVSPost2010PropOp55
 70
     1
102
RTVSPost2010Prop56
140
1.0
102
RTVSPost2010PropOp56
 70
     1
102
RTVSPost2010Prop57
140
1.0
102
RTVSPost2010PropOp57
 70
     1
  0
XRECORD
  5
209
102
{ACAD_REACTORS
330
208
102
}
330
208
100
AcDbXrecord
280
     1
102
RTVSPropertyOp0
 70
     1
102
RTVSPropertyOp1
 70
     1
102
RTVSPropertyOp2
 70
     1
102
RTVSPropertyOp3
 70
     1
102
RTVSPropertyOp4
 70
     1
102
RTVSPropertyOp5
 70
     1
102
RTVSPropertyOp6
 70
     1
102
RTVSPropertyOp7
 70
     1
102
RTVSPropertyOp8
 70
     1
102
RTVSPropertyOp9
 70
     1
102
RTVSPropertyOp10
 70
     1
102
RTVSPropertyOp11
 70
     1
102
RTVSPropertyOp12
 70
     1
102
RTVSPropertyOp13
 70
     1
102
RTVSPropertyOp14
 70
     1
102
RTVSPropertyOp15
 70
     1
102
RTVSPropertyOp16
 70
     1
102
RTVSPropertyOp17
 70
     1
102
RTVSPropertyOp18
 70
     1
102
RTVSPropertyOp19
 70
     1
102
RTVSPropertyOp20
 70
     1
102
RTVSPropertyOp21
 70
     1
102
RTVSPropertyOp22
 70
     1
102
RTVSPropertyOp23
 70
     1
102
RTVSPropertyOp24
 70
     1
102
RTVSPropertyOp25
 70
     1
102
RTVSPropertyOp26
 70
     1
102
RTVSPropertyOp27
 70
     1
102
RTVSPropertyOp28
 70
     1
102
RTVSPropertyOp29
 70
     1
102
RTVSPropertyOp30
 70
     1
102
RTVSPropertyOp31
 70
     1
102
RTVSPropertyOp32
 70
     1
102
RTVSPropertyOp33
 70
     1
102
RTVSPropertyOp34
 70
     1
102
RTVSPropertyOp35
 70
     1
102
RTVSPropertyOp36
 70
     1
102
RTVSPropertyOp37
 70
     1
102
RTVSPropertyOp38
 70
     1
102
RTVSPropertyOp39
 70
     1
102
RTVSPropertyOp40
 70
     1
102
RTVSPropertyOp41
 70
     1
102
RTVSPropertyOp42
 70
     1
102
RTVSPropertyOp43
 70
     1
102
RTVSPropertyOp44
 70
     1
102
RTVSPropertyOp45
 70
     1
102
RTVSPropertyOp46
 70
     1
102
RTVSPropertyOp47
 70
     1
102
RTVSPropertyOp48
 70
     1
102
RTVSPropertyOp49
 70
     1
102
RTVSPropertyOp50
 70
     1
102
RTVSPropertyOp51
 70
     0
102
RTVSPropertyOp52
 70
     0
102
RTVSPropertyOp53
 70
     1
102
RTVSPropertyOp54
 70
     1
102
RTVSPropertyOp55
 70
     1
102
RTVSPropertyOp56
 70
     1
102
RTVSPropertyOp57
 70
     1
102
RTVSPost2010Prop28
280
     0
102
RTVSPost2010PropOp28
 70
     1
102
RTVSPost2010Prop29
280
     1
102
RTVSPost2010PropOp29
 70
     1
102
RTVSPost2010Prop30
280
     1
102
RTVSPost2010PropOp30
 70
     1
102
RTVSPost2010Prop31
280
     0
102
RTVSPost2010PropOp31
 70
     1
102
RTVSPost2010Prop32
280
     0
102
RTVSPost2010PropOp32
 70
     1
102
RTVSPost2010Prop33
280
     0
102
RTVSPost2010PropOp33
 70
     1
102
RTVSPost2010Prop34
280
     0
102
RTVSPost2010PropOp34
 70
     1
102
RTVSPost2010Prop35
280
     0
102
RTVSPost2010PropOp35
 70
     1
102
RTVSPost2010Prop36
280
     0
102
RTVSPost2010PropOp36
 70
     1
102
RTVSPost2010Prop37
 90
       50
102
RTVSPost2010PropOp37
 70
     1
102
RTVSPost2010Prop38
140
0.0
102
RTVSPost2010PropOp38
 70
     1
102
RTVSPost2010Prop39
140
1.0
102
RTVSPost2010PropOp39
 70
     1
102
RTVSPost2010Prop40
 90
        0
102
RTVSPost2010PropOp40
 70
     1
102
RTVSPost2010Prop41ColorIndex
 90
       18
102
RTVSPost2010Prop41ColorRGB
 90
        0
102
RTVSPost2010PropOp41
 70
     1
102
RTVSPost2010Prop42
 90
       50
102
RTVSPost2010PropOp42
 70
     1
102
RTVSPost2010Prop43
 90
        3
102
RTVSPost2010PropOp43
 70
     1
102
RTVSPost2010Prop44ColorIndex
 90
        5
102
RTVSPost2010Prop44ColorRGB
 90
      255
102
RTVSPost2010PropOp44
 70
     1
102
RTVSPost2010Prop45
280
     0
102
RTVSPost2010PropOp45
 70
     1
102
RTVSPost2010Prop46
 90
       50
102
RTVSPost2010PropOp46
 70
     1
102
RTVSPost2010Prop47
 90
       50
102
RTVSPost2010PropOp47
 70
     1
102
RTVSPost2010Prop48
 90
       50
102
RTVSPost2010PropOp48
 70
     1
102
RTVSPost2010Prop49
280
     0
102
RTVSPost2010PropOp49
 70
     1
102
RTVSPost2010Prop50
 90
       50
102
RTVSPost2010PropOp50
 70
     1
102
RTVSPost2010Prop51ColorIndex
 90
      256
102
RTVSPost2010Prop51ColorRGB
 90
-16777216
102
RTVSPost2010PropOp51
 70
     0
102
RTVSPost2010Prop52
140
1.0
102
RTVSPost2010PropOp52
 70
     0
102
RTVSPost2010Prop53
 90
        2
102
RTVSPost2010PropOp53
 70
     1
102
RTVSPost2010Prop54
  1
strokes_ogs.tif
102
RTVSPost2010PropOp54
 70
     1
102
RTVSPost2010Prop55
280
     0
102
RTVSPost2010PropOp55
 70
     1
102
RTVSPost2010Prop56
140
1.0
102
RTVSPost2010PropOp56
 70
     1
102
RTVSPost2010Prop57
140
1.0
102
RTVSPost2010PropOp57
 70
     1
  0
ENDSEC
  0
EOF
