  0
SECTION
  2
HEADER
  9
$ACADVER
  1
AC1015
  9
$ACADMAINTVER
 70
     6
  9
$DWGCODEPAGE
  3
ANSI_1252
  9
$INSBASE
 10
0.0
 20
0.0
 30
0.0
  9
$EXTMIN
 10
-143.290482
 20
487.850433
 30
0.0
  9
$EXTMAX
 10
311.82373
 20
1173.360596
 30
0.0
  9
$LIMMIN
 10
-143.290482
 20
487.850433
  9
$LIMMAX
 10
311.82373
 20
1173.360596
  9
$ORTHOMODE
 70
     0
  9
$REGENMODE
 70
     1
  9
$FILLMODE
 70
     1
  9
$QTEXTMODE
 70
     0
  9
$MIRRTEXT
 70
     1
  9
$LTSCALE
 40
1.0
  9
$ATTMODE
 70
     1
  9
$TEXTSIZE
 40
2.5
  9
$TRACEWID
 40
1.0
  9
$TEXTSTYLE
  7
Standard
  9
$CLAYER
  8
0
  9
$CELTYPE
  6
ByLayer
  9
$CECOLOR
 62
   256
  9
$CELTSCALE
 40
1.0
  9
$DISPSILH
 70
     0
  9
$DIMSCALE
 40
1.0
  9
$DIMASZ
 40
2.5
  9
$DIMEXO
 40
0.625
  9
$DIMDLI
 40
3.75
  9
$DIMRND
 40
0.0
  9
$DIMDLE
 40
0.0
  9
$DIMEXE
 40
1.25
  9
$DIMTP
 40
0.0
  9
$DIMTM
 40
0.0
  9
$DIMTXT
 40
2.5
  9
$DIMCEN
 40
2.5
  9
$DIMTSZ
 40
0.0
  9
$DIMTOL
 70
     0
  9
$DIMLIM
 70
     0
  9
$DIMTIH
 70
     0
  9
$DIMTOH
 70
     0
  9
$DIMSE1
 70
     0
  9
$DIMSE2
 70
     0
  9
$DIMTAD
 70
     1
  9
$DIMZIN
 70
     8
  9
$DIMBLK
  1

  9
$DIMASO
 70
     1
  9
$DIMSHO
 70
     1
  9
$DIMPOST
  1

  9
$DIMAPOST
  1

  9
$DIMALT
 70
     0
  9
$DIMALTD
 70
     3
  9
$DIMALTF
 40
0.03937
  9
$DIMLFAC
 40
1.0
  9
$DIMTOFL
 70
     1
  9
$DIMTVP
 40
0.0
  9
$DIMTIX
 70
     0
  9
$DIMSOXD
 70
     0
  9
$DIMSAH
 70
     0
  9
$DIMBLK1
  1

  9
$DIMBLK2
  1

  9
$DIMSTYLE
  2
ISO-25
  9
$DIMCLRD
 70
     0
  9
$DIMCLRE
 70
     0
  9
$DIMCLRT
 70
     0
  9
$DIMTFAC
 40
1.0
  9
$DIMGAP
 40
0.625
  9
$DIMJUST
 70
     0
  9
$DIMSD1
 70
     0
  9
$DIMSD2
 70
     0
  9
$DIMTOLJ
 70
     0
  9
$DIMTZIN
 70
     8
  9
$DIMALTZ
 70
     0
  9
$DIMALTTZ
 70
     0
  9
$DIMUPT
 70
     0
  9
$DIMDEC
 70
     2
  9
$DIMTDEC
 70
     2
  9
$DIMALTU
 70
     2
  9
$DIMALTTD
 70
     3
  9
$DIMTXSTY
  7
Standard
  9
$DIMAUNIT
 70
     0
  9
$DIMADEC
 70
     0
  9
$DIMALTRND
 40
0.0
  9
$DIMAZIN
 70
     0
  9
$DIMDSEP
 70
    44
  9
$DIMATFIT
 70
     3
  9
$DIMFRAC
 70
     0
  9
$DIMLDRBLK
  1

  9
$DIMLUNIT
 70
     2
  9
$DIMLWD
 70
    -2
  9
$DIMLWE
 70
    -2
  9
$DIMTMOVE
 70
     0
  9
$LUNITS
 70
     2
  9
$LUPREC
 70
     4
  9
$SKETCHINC
 40
1.0
  9
$FILLETRAD
 40
10.0
  9
$AUNITS
 70
     0
  9
$AUPREC
 70
     0
  9
$MENU
  1
.
  9
$ELEVATION
 40
0.0
  9
$PELEVATION
 40
0.0
  9
$THICKNESS
 40
0.0
  9
$LIMCHECK
 70
     0
  9
$CHAMFERA
 40
0.0
  9
$CHAMFERB
 40
0.0
  9
$CHAMFERC
 40
0.0
  9
$CHAMFERD
 40
0.0
  9
$SKPOLY
 70
     0
  9
$TDCREATE
 40
2459018.418325104
  9
$TDUCREATE
 40
2459018.334991771
  9
$TDUPDATE
 40
2459018.41832618
  9
$TDUUPDATE
 40
2459018.334992847
  9
$TDINDWG
 40
0.0000000116
  9
$TDUSRTIMER
 40
0.0000000116
  9
$USRTIMER
 70
     1
  9
$ANGBASE
 50
0.0
  9
$ANGDIR
 70
     0
  9
$PDMODE
 70
     0
  9
$PDSIZE
 40
0.0
  9
$PLINEWID
 40
0.0
  9
$SPLFRAME
 70
     0
  9
$SPLINETYPE
 70
     6
  9
$SPLINESEGS
 70
     8
  9
$HANDSEED
  5
2D8
  9
$SURFTAB1
 70
     6
  9
$SURFTAB2
 70
     6
  9
$SURFTYPE
 70
     6
  9
$SURFU
 70
     6
  9
$SURFV
 70
     6
  9
$UCSBASE
  2

  9
$UCSNAME
  2

  9
$UCSORG
 10
0.0
 20
0.0
 30
0.0
  9
$UCSXDIR
 10
1.0
 20
0.0
 30
0.0
  9
$UCSYDIR
 10
0.0
 20
1.0
 30
0.0
  9
$UCSORTHOREF
  2

  9
$UCSORTHOVIEW
 70
     0
  9
$UCSORGTOP
 10
0.0
 20
0.0
 30
0.0
  9
$UCSORGBOTTOM
 10
0.0
 20
0.0
 30
0.0
  9
$UCSORGLEFT
 10
0.0
 20
0.0
 30
0.0
  9
$UCSORGRIGHT
 10
0.0
 20
0.0
 30
0.0
  9
$UCSORGFRONT
 10
0.0
 20
0.0
 30
0.0
  9
$UCSORGBACK
 10
0.0
 20
0.0
 30
0.0
  9
$PUCSBASE
  2

  9
$PUCSNAME
  2

  9
$PUCSORG
 10
0.0
 20
0.0
 30
0.0
  9
$PUCSXDIR
 10
1.0
 20
0.0
 30
0.0
  9
$PUCSYDIR
 10
0.0
 20
1.0
 30
0.0
  9
$PUCSORTHOREF
  2

  9
$PUCSORTHOVIEW
 70
     0
  9
$PUCSORGTOP
 10
0.0
 20
0.0
 30
0.0
  9
$PUCSORGBOTTOM
 10
0.0
 20
0.0
 30
0.0
  9
$PUCSORGLEFT
 10
0.0
 20
0.0
 30
0.0
  9
$PUCSORGRIGHT
 10
0.0
 20
0.0
 30
0.0
  9
$PUCSORGFRONT
 10
0.0
 20
0.0
 30
0.0
  9
$PUCSORGBACK
 10
0.0
 20
0.0
 30
0.0
  9
$USERI1
 70
     0
  9
$USERI2
 70
     0
  9
$USERI3
 70
     0
  9
$USERI4
 70
     0
  9
$USERI5
 70
     0
  9
$USERR1
 40
0.0
  9
$USERR2
 40
0.0
  9
$USERR3
 40
0.0
  9
$USERR4
 40
0.0
  9
$USERR5
 40
0.0
  9
$WORLDVIEW
 70
     1
  9
$SHADEDGE
 70
     3
  9
$SHADEDIF
 70
    70
  9
$TILEMODE
 70
     1
  9
$MAXACTVP
 70
    64
  9
$PINSBASE
 10
0.0
 20
0.0
 30
0.0
  9
$PLIMCHECK
 70
     0
  9
$PEXTMIN
 10
1.000000E+20
 20
1.000000E+20
 30
1.000000E+20
  9
$PEXTMAX
 10
-1.000000E+20
 20
-1.000000E+20
 30
-1.000000E+20
  9
$PLIMMIN
 10
0.0
 20
0.0
  9
$PLIMMAX
 10
420.0
 20
297.0
  9
$UNITMODE
 70
     0
  9
$VISRETAIN
 70
     1
  9
$PLINEGEN
 70
     0
  9
$PSLTSCALE
 70
     1
  9
$TREEDEPTH
 70
  3020
  9
$CMLSTYLE
  2
Standard
  9
$CMLJUST
 70
     0
  9
$CMLSCALE
 40
20.0
  9
$PROXYGRAPHICS
 70
     1
  9
$MEASUREMENT
 70
     1
  9
$CELWEIGHT
370
    -1
  9
$ENDCAPS
280
     0
  9
$JOINSTYLE
280
     0
  9
$LWDISPLAY
290
     0
  9
$INSUNITS
 70
     4
  9
$HYPERLINKBASE
  1

  9
$STYLESHEET
  1

  9
$XEDIT
290
     1
  9
$CEPSNTYPE
380
     0
  9
$PSTYLEMODE
290
     1
  9
$FINGERPRINTGUID
  2
{c9657c26-92bf-48e8-899f-bcc0640e5fb8}
  9
$VERSIONGUID
  2
{FAEB1C32-E019-11D5-929B-00C0DF256EC4}
  9
$EXTNAMES
290
     1
  9
$PSVPSCALE
 40
0.0
  9
$OLESTARTUP
290
     0
  0
ENDSEC
  0
SECTION
  2
CLASSES
  0
CLASS
  1
ACDBDICTIONARYWDFLT
  2
AcDbDictionaryWithDefault
  3
ObjectDBX Classes
 90
        0
280
     0
281
     0
  0
CLASS
  1
VISUALSTYLE
  2
AcDbVisualStyle
  3
ObjectDBX Classes
 90
     4095
280
     0
281
     0
  0
CLASS
  1
MATERIAL
  2
AcDbMaterial
  3
ObjectDBX Classes
 90
     1153
280
     0
281
     0
  0
CLASS
  1
SCALE
  2
AcDbScale
  3
ObjectDBX Classes
 90
     1153
280
     0
281
     0
  0
CLASS
  1
TABLESTYLE
  2
AcDbTableStyle
  3
ObjectDBX Classes
 90
     4095
280
     0
281
     0
  0
CLASS
  1
MLEADERSTYLE
  2
AcDbMLeaderStyle
  3
ACDB_MLEADERSTYLE_CLASS
 90
     4095
280
     0
281
     0
  0
CLASS
  1
SUN
  2
AcDbSun
  3
SCENEOE
 90
     1153
280
     0
281
     0
  0
CLASS
  1
DICTIONARYVAR
  2
AcDbDictionaryVar
  3
ObjectDBX Classes
 90
        0
280
     0
281
     0
  0
CLASS
  1
ACDBPLACEHOLDER
  2
AcDbPlaceHolder
  3
ObjectDBX Classes
 90
        0
280
     0
281
     0
  0
CLASS
  1
LAYOUT
  2
AcDbLayout
  3
ObjectDBX Classes
 90
        0
280
     0
281
     0
  0
ENDSEC
  0
SECTION
  2
TABLES
  0
TABLE
  2
VPORT
  5
8
102
{ACAD_XDICTIONARY
360
29B
102
}
330
0
100
AcDbSymbolTable
 70
     1
  0
VPORT
  5
29
330
8
100
AcDbSymbolTableRecord
100
AcDbViewportTableRecord
  2
*Active
 70
     0
 10
0.0
 20
0.0
 11
1.0
 21
1.0
 12
344.186916
 22
148.5
 13
0.0
 23
0.0
 14
10.0
 24
10.0
 15
10.0
 25
10.0
 16
0.0
 26
0.0
 36
1.0
 17
0.0
 27
0.0
 37
0.0
 40
297.0
 41
1.972973
 42
50.0
 43
0.0
 44
0.0
 50
0.0
 51
0.0
 71
     0
 72
   100
 73
     1
 74
     3
 75
     0
 76
     0
 77
     0
 78
     0
281
     0
 65
     1
110
0.0
120
0.0
130
0.0
111
1.0
121
0.0
131
0.0
112
0.0
122
1.0
132
0.0
 79
     0
146
0.0
  0
ENDTAB
  0
TABLE
  2
LTYPE
  5
5
330
0
100
AcDbSymbolTable
 70
     1
  0
LTYPE
  5
14
330
5
100
AcDbSymbolTableRecord
100
AcDbLinetypeTableRecord
  2
ByBlock
 70
     0
  3

 72
    65
 73
     0
 40
0.0
  0
LTYPE
  5
15
330
5
100
AcDbSymbolTableRecord
100
AcDbLinetypeTableRecord
  2
ByLayer
 70
     0
  3

 72
    65
 73
     0
 40
0.0
  0
LTYPE
  5
16
330
5
100
AcDbSymbolTableRecord
100
AcDbLinetypeTableRecord
  2
Continuous
 70
     0
  3
Solid line
 72
    65
 73
     0
 40
0.0
  0
ENDTAB
  0
TABLE
  2
LAYER
  5
2
330
0
100
AcDbSymbolTable
 70
     1
  0
LAYER
  5
10
330
2
100
AcDbSymbolTableRecord
100
AcDbLayerTableRecord
  2
0
 70
     0
 62
   106
  6
Continuous
370
     0
390
F
  0
ENDTAB
  0
TABLE
  2
STYLE
  5
3
330
0
100
AcDbSymbolTable
 70
     4
  0
STYLE
  5
11
330
3
100
AcDbSymbolTableRecord
100
AcDbTextStyleTableRecord
  2
Standard
 70
     0
 40
0.0
 41
1.0
 50
0.0
 71
     0
 42
2.5
  3
txt
  4

  0
STYLE
  5
6E
330
3
100
AcDbSymbolTableRecord
100
AcDbTextStyleTableRecord
  2
Default
 70
     0
 40
0.0
 41
1.0
 50
0.0
 71
     0
 42
2.5
  3

  4

1001
ACAD
1000
txt
1071
        0
  0
STYLE
  5
6F
330
3
100
AcDbSymbolTableRecord
100
AcDbTextStyleTableRecord
  2
ISO
 70
     0
 40
0.0
 41
1.0
 50
0.0
 71
     0
 42
2.5
  3

  4

1001
ACAD
1000
txt
1071
        0
  0
STYLE
  5
70
330
3
100
AcDbSymbolTableRecord
100
AcDbTextStyleTableRecord
  2
GIANLU
 70
     0
 40
0.0
 41
1.0
 50
0.0
 71
     0
 42
2.5
  3

  4

1001
ACAD
1000
Arial
1071
 33554432
  0
ENDTAB
  0
TABLE
  2
VIEW
  5
6
330
0
100
AcDbSymbolTable
 70
     0
  0
ENDTAB
  0
TABLE
  2
UCS
  5
7
330
0
100
AcDbSymbolTable
 70
     0
  0
ENDTAB
  0
TABLE
  2
APPID
  5
9
330
0
100
AcDbSymbolTable
 70
     2
  0
APPID
  5
12
330
9
100
AcDbSymbolTableRecord
100
AcDbRegAppTableRecord
  2
ACAD
 70
     0
  0
APPID
  5
2D5
330
9
100
AcDbSymbolTableRecord
100
AcDbRegAppTableRecord
  2
ACAD_MLEADERVER
 70
     0
  0
ENDTAB
  0
TABLE
  2
DIMSTYLE
  5
A
330
0
100
AcDbSymbolTable
 70
     4
100
AcDbDimStyleTable
  0
DIMSTYLE
105
27
330
A
100
AcDbSymbolTableRecord
100
AcDbDimStyleTableRecord
  2
ISO-25
 70
     0
 41
2.5
 42
0.625
 43
3.75
 44
1.25
 73
     0
 74
     0
 77
     1
 78
     8
140
2.5
141
2.5
143
0.03937
147
0.625
171
     3
172
     1
178
     0
271
     2
272
     2
274
     3
278
    44
283
     0
284
     8
340
11
  0
DIMSTYLE
105
71
330
A
100
AcDbSymbolTableRecord
100
AcDbDimStyleTableRecord
  2
Default
 70
     0
  3
<>
 41
4.375
 42
1.05
 44
2.1
 73
     0
 74
     0
 77
     1
 78
     8
140
3.5
146
0.4
147
1.75
172
     1
271
     2
178
     3
271
     2
272
     3
284
     8
340
6E
341
72
342
72
  0
DIMSTYLE
105
79
330
A
100
AcDbSymbolTableRecord
100
AcDbDimStyleTableRecord
  2
ISO
 70
     0
  3
<>
 41
4.375
 42
1.05
 44
2.1
 73
     0
 74
     0
 77
     1
 78
     8
140
3.5
146
0.4
147
1.75
172
     1
271
     2
178
     3
271
     2
272
     3
284
     8
340
6F
341
72
342
72
  0
DIMSTYLE
105
7A
330
A
100
AcDbSymbolTableRecord
100
AcDbDimStyleTableRecord
  2
zucchetti_unico
 70
     0
  3
<>
 41
3.5
 42
1.05
 44
2.1
 73
     0
 74
     0
 77
     1
 78
     8
140
3.5
146
0.6
147
1.75
172
     1
176
     3
177
     3
271
     2
178
     3
271
     2
272
     2
284
     8
340
6E
  0
ENDTAB
  0
TABLE
  2
BLOCK_RECORD
  5
1
330
0
100
AcDbSymbolTable
 70
     6
  0
BLOCK_RECORD
  5
1F
330
1
100
AcDbSymbolTableRecord
100
AcDbBlockTableRecord
  2
*Model_Space
340
22
  0
BLOCK_RECORD
  5
1B
330
1
100
AcDbSymbolTableRecord
100
AcDbBlockTableRecord
  2
*Paper_Space
340
1E
  0
BLOCK_RECORD
  5
23
330
1
100
AcDbSymbolTableRecord
100
AcDbBlockTableRecord
  2
*Paper_Space0
340
26
  0
BLOCK_RECORD
  5
72
330
1
100
AcDbSymbolTableRecord
100
AcDbBlockTableRecord
  2
_Closed
340
0
  0
BLOCK_RECORD
  5
7B
330
1
100
AcDbSymbolTableRecord
100
AcDbBlockTableRecord
  2
a
340
0
102
{BLKREFS
331
EE
102
}
  0
BLOCK_RECORD
  5
EF
330
1
100
AcDbSymbolTableRecord
100
AcDbBlockTableRecord
  2
b
340
0
102
{BLKREFS
331
117
102
}
  0
BLOCK_RECORD
  5
118
330
1
100
AcDbSymbolTableRecord
100
AcDbBlockTableRecord
  2
c
340
0
102
{BLKREFS
331
1D3
102
}
  0
BLOCK_RECORD
  5
1D4
330
1
100
AcDbSymbolTableRecord
100
AcDbBlockTableRecord
  2
d
340
0
102
{BLKREFS
331
28F
102
}
  0
ENDTAB
  0
ENDSEC
  0
SECTION
  2
BLOCKS
  0
BLOCK
  5
20
330
1F
100
AcDbEntity
  8
0
100
AcDbBlockBegin
  2
*Model_Space
 70
     0
 10
0.0
 20
0.0
 30
0.0
  3
*Model_Space
  1

  0
ENDBLK
  5
21
330
1F
100
AcDbEntity
  8
0
100
AcDbBlockEnd
  0
BLOCK
  5
1C
330
1B
100
AcDbEntity
 67
     1
  8
0
100
AcDbBlockBegin
  2
*Paper_Space
 70
     0
 10
0.0
 20
0.0
 30
0.0
  3
*Paper_Space
  1

  0
ENDBLK
  5
1D
330
1B
100
AcDbEntity
 67
     1
  8
0
100
AcDbBlockEnd
  0
BLOCK
  5
24
330
23
100
AcDbEntity
  8
0
100
AcDbBlockBegin
  2
*Paper_Space0
 70
     0
 10
0.0
 20
0.0
 30
0.0
  3
*Paper_Space0
  1

  0
ENDBLK
  5
25
330
23
100
AcDbEntity
  8
0
100
AcDbBlockEnd
  0
BLOCK
  5
73
330
72
100
AcDbEntity
  8
0
100
AcDbBlockBegin
  2
_Closed
 70
     0
 10
0.0
 20
0.0
 30
0.0
  3
_Closed
  1

  0
LINE
  5
75
330
72
100
AcDbEntity
  8
0
  6
ByBlock
 62
     0
370
    -2
100
AcDbLine
 10
-1.0
 20
0.166667
 30
0.0
 11
0.0
 21
0.0
 31
0.0
  0
LINE
  5
76
330
72
100
AcDbEntity
  8
0
  6
ByBlock
 62
     0
370
    -2
100
AcDbLine
 10
0.0
 20
0.0
 30
0.0
 11
-1.0
 21
-0.166667
 31
0.0
  0
LINE
  5
77
330
72
100
AcDbEntity
  8
0
  6
ByBlock
 62
     0
370
    -2
100
AcDbLine
 10
-1.0
 20
0.166667
 30
0.0
 11
-1.0
 21
-0.166667
 31
0.0
  0
LINE
  5
78
330
72
100
AcDbEntity
  8
0
  6
ByBlock
 62
     0
370
    -2
100
AcDbLine
 10
0.0
 20
0.0
 30
0.0
 11
-1.0
 21
0.0
 31
0.0
  0
ENDBLK
  5
74
330
72
100
AcDbEntity
  8
0
100
AcDbBlockEnd
  0
BLOCK
  5
EC
330
7B
100
AcDbEntity
  8
0
100
AcDbBlockBegin
  2
a
 70
     0
 10
19.798489
 20
106.3806
 30
0.0
  3
a
  1

  0
ARC
  5
7C
330
7B
100
AcDbEntity
  8
0
  6
Continuous
 62
     0
370
    30
100
AcDbCircle
 10
102.979477
 20
725.864258
 30
0.0
 40
54.99999999999958
100
AcDbArc
 50
90.0
 51
270.0
  0
ARC
  5
7D
330
7B
100
AcDbEntity
  8
0
  6
Continuous
 62
     0
370
    30
100
AcDbCircle
 10
102.979477
 20
725.864258
 30
0.0
 40
54.99999999999959
100
AcDbArc
 50
270.0
 51
90.0
  0
ARC
  5
7E
330
7B
100
AcDbEntity
  8
0
  6
Continuous
 62
     0
370
    30
100
AcDbCircle
 10
102.979178
 20
725.864258
 30
0.0
 40
22.00000922099402
100
AcDbArc
 50
89.99922
 51
270.00078
  0
ARC
  5
7F
330
7B
100
AcDbEntity
  8
0
  6
Continuous
 62
     0
370
    30
100
AcDbCircle
 10
102.979776
 20
725.864258
 30
0.0
 40
22.00000922099402
100
AcDbArc
 50
269.99922
 51
90.00078
  0
LINE
  5
80
330
7B
100
AcDbEntity
  8
0
  6
Continuous
 62
     0
370
    30
100
AcDbLine
 10
102.979477
 20
755.514267
 30
0.0
 11
99.479477
 21
755.514267
 31
0.0
  0
LINE
  5
81
330
7B
100
AcDbEntity
  8
0
  6
Continuous
 62
     0
370
    30
100
AcDbLine
 10
106.479477
 20
755.514267
 30
0.0
 11
102.979477
 21
755.514267
 31
0.0
  0
LINE
  5
82
330
7B
100
AcDbEntity
  8
0
  6
Continuous
 62
     0
370
    30
100
AcDbLine
 10
102.979477
 20
755.714267
 30
0.0
 11
99.68125
 21
755.712204
 31
0.0
  0
LINE
  5
83
330
7B
100
AcDbEntity
  8
0
  6
Continuous
 62
     0
370
    30
100
AcDbLine
 10
106.277703
 20
755.712204
 30
0.0
 11
102.979477
 21
755.714267
 31
0.0
  0
LINE
  5
84
330
7B
100
AcDbEntity
  8
0
  6
Continuous
 62
     0
370
    30
100
AcDbLine
 10
106.479476
 20
755.514287
 30
0.0
 11
106.27967
 21
755.714092
 31
0.0
  0
LINE
  5
85
330
7B
100
AcDbEntity
  8
0
  6
Continuous
 62
     0
370
    30
100
AcDbLine
 10
99.479478
 20
755.514287
 30
0.0
 11
99.679284
 21
755.714092
 31
0.0
  0
LINE
  5
86
330
7B
100
AcDbEntity
  8
0
  6
Continuous
 62
     0
370
    30
100
AcDbLine
 10
99.479477
 20
755.514267
 30
0.0
 11
99.479477
 21
747.584098
 31
0.0
  0
LINE
  5
87
330
7B
100
AcDbEntity
  8
0
  6
Continuous
 62
     0
370
    30
100
AcDbLine
 10
106.479477
 20
755.514267
 30
0.0
 11
106.479477
 21
747.584097
 31
0.0
  0
ARC
  5
88
330
7B
100
AcDbEntity
  8
0
  6
Continuous
 62
     0
370
    30
100
AcDbCircle
 10
102.978234
 20
845.862785
 30
0.0
 40
27.50000013113448
100
AcDbArc
 50
159.168008
 51
262.687977
  0
ARC
  5
89
330
7B
100
AcDbEntity
  8
0
  6
Continuous
 62
     0
370
    30
100
AcDbCircle
 10
102.978234
 20
845.862785
 30
0.0
 40
27.5000001311348
100
AcDbArc
 50
277.31202
 51
339.168008
  0
ARC
  5
8A
330
7B
100
AcDbEntity
  8
0
  6
Continuous
 62
     0
370
    30
100
AcDbCircle
 10
102.978234
 20
845.862785
 30
0.0
 40
27.50000013113439
100
AcDbArc
 50
339.168008
 51
159.168008
  0
ARC
  5
8B
330
7B
100
AcDbEntity
  8
0
  6
Continuous
 62
     0
370
    30
100
AcDbCircle
 10
102.977599
 20
845.863228
 30
0.0
 40
15.9993621503683
100
AcDbArc
 50
102.633804
 51
180.001584
  0
ARC
  5
8C
330
7B
100
AcDbEntity
  8
0
  6
Continuous
 62
     0
370
    30
100
AcDbCircle
 10
102.978874
 20
845.863228
 30
0.0
 40
15.9993621502256
100
AcDbArc
 50
359.998416
 51
77.366212
  0
ARC
  5
8D
330
7B
100
AcDbEntity
  8
0
  6
Continuous
 62
     0
370
    30
100
AcDbCircle
 10
102.978874
 20
845.862343
 30
0.0
 40
15.99936215018306
100
AcDbArc
 50
282.633783
 51
0.001584
  0
ARC
  5
8E
330
7B
100
AcDbEntity
  8
0
  6
Continuous
 62
     0
370
    30
100
AcDbCircle
 10
102.977599
 20
845.862343
 30
0.0
 40
15.99936215041143
100
AcDbArc
 50
179.998416
 51
257.366191
  0
ARC
  5
8F
330
7B
100
AcDbEntity
  8
0
  6
Continuous
 62
     0
370
    30
100
AcDbCircle
 10
102.978235
 20
845.862785
 30
0.0
 40
11.0
100
AcDbArc
 50
270.0
 51
90.0
  0
ARC
  5
90
330
7B
100
AcDbEntity
  8
0
  6
Continuous
 62
     0
370
    30
100
AcDbCircle
 10
102.978235
 20
845.862785
 30
0.0
 40
11.0
100
AcDbArc
 50
90.0
 51
270.0
  0
LINE
  5
91
330
7B
100
AcDbEntity
  8
0
  6
Continuous
 62
     0
370
    30
100
AcDbLine
 10
99.478233
 20
794.929729
 30
0.0
 11
105.963481
 21
794.929729
 31
0.0
  0
LINE
  5
92
330
7B
100
AcDbEntity
  8
0
  6
Continuous
 62
     0
370
    30
100
AcDbLine
 10
105.963481
 20
794.929729
 30
0.0
 11
106.478233
 21
794.929729
 31
0.0
  0
LINE
  5
93
330
7B
100
AcDbEntity
  8
0
  6
Continuous
 62
     0
370
    30
100
AcDbLine
 10
106.278229
 20
794.729729
 30
0.0
 11
105.792895
 21
794.729729
 31
0.0
  0
LINE
  5
94
330
7B
100
AcDbEntity
  8
0
  6
Continuous
 62
     0
370
    30
100
AcDbLine
 10
105.792895
 20
794.729729
 30
0.0
 11
99.678237
 21
794.729729
 31
0.0
  0
LINE
  5
95
330
7B
100
AcDbEntity
  8
0
  6
Continuous
 62
     0
370
    30
100
AcDbLine
 10
106.276532
 20
794.730994
 30
0.0
 11
106.475081
 21
794.929721
 31
0.0
  0
LINE
  5
96
330
7B
100
AcDbEntity
  8
0
  6
Continuous
 62
     0
370
    30
100
AcDbLine
 10
99.477547
 20
794.929086
 30
0.0
 11
99.676962
 21
794.729746
 31
0.0
  0
LINE
  5
97
330
7B
100
AcDbEntity
  8
0
  6
Continuous
 62
     0
370
    30
100
AcDbLine
 10
106.478233
 20
835.434458
 30
0.0
 11
106.478233
 21
794.929729
 31
0.0
  0
LINE
  5
98
330
7B
100
AcDbEntity
  8
0
  6
Continuous
 62
     0
370
    30
100
AcDbLine
 10
99.478233
 20
835.434459
 30
0.0
 11
99.478233
 21
794.929729
 31
0.0
  0
LINE
  5
99
330
7B
100
AcDbEntity
  8
0
  6
Continuous
 62
     0
370
    30
100
AcDbLine
 10
106.478234
 20
869.195058
 30
0.0
 11
101.549371
 21
869.195058
 31
0.0
  0
LINE
  5
9A
330
7B
100
AcDbEntity
  8
0
  6
Continuous
 62
     0
370
    30
100
AcDbLine
 10
101.549371
 20
869.195058
 30
0.0
 11
99.478234
 21
869.195058
 31
0.0
  0
LWPOLYLINE
  5
9B
330
7B
100
AcDbEntity
  8
0
  6
Continuous
 62
     0
370
    30
100
AcDbPolyline
 90
        9
 70
     0
 43
0.0
 10
99.678261
 20
869.395081
 10
99.71138
 20
869.395081
 10
99.810349
 20
869.395081
 10
99.973152
 20
869.395081
 10
100.196434
 20
869.395081
 10
100.475861
 20
869.395081
 10
100.80558
 20
869.395081
 10
101.179169
 20
869.395081
 10
101.63102
 20
869.395081
  0
LINE
  5
9C
330
7B
100
AcDbEntity
  8
0
  6
Continuous
 62
     0
370
    30
100
AcDbLine
 10
101.631021
 20
869.395058
 30
0.0
 11
106.278211
 21
869.395058
 31
0.0
  0
LINE
  5
9D
330
7B
100
AcDbEntity
  8
0
  6
Continuous
 62
     0
370
    30
100
AcDbLine
 10
99.679471
 20
869.393946
 30
0.0
 11
99.480743
 21
869.195076
 31
0.0
  0
LINE
  5
9E
330
7B
100
AcDbEntity
  8
0
  6
Continuous
 62
     0
370
    30
100
AcDbLine
 10
106.469641
 20
869.195086
 30
0.0
 11
106.274145
 21
869.391062
 31
0.0
  0
LINE
  5
9F
330
7B
100
AcDbEntity
  8
0
  6
Continuous
 62
     0
370
    30
100
AcDbLine
 10
99.478234
 20
856.291112
 30
0.0
 11
99.478234
 21
869.195058
 31
0.0
  0
LINE
  5
A0
330
7B
100
AcDbEntity
  8
0
  6
Continuous
 62
     0
370
    30
100
AcDbLine
 10
106.478234
 20
856.291112
 30
0.0
 11
106.478234
 21
869.195058
 31
0.0
  0
ARC
  5
A1
330
7B
100
AcDbEntity
  8
0
  6
Continuous
 62
     0
370
    30
100
AcDbCircle
 10
102.977743
 20
945.862348
 30
0.0
 40
27.50000013113474
100
AcDbArc
 50
159.168008
 51
262.687977
  0
ARC
  5
A2
330
7B
100
AcDbEntity
  8
0
  6
Continuous
 62
     0
370
    30
100
AcDbCircle
 10
102.977743
 20
945.862348
 30
0.0
 40
27.50000013113434
100
AcDbArc
 50
277.31202
 51
339.168008
  0
ARC
  5
A3
330
7B
100
AcDbEntity
  8
0
  6
Continuous
 62
     0
370
    30
100
AcDbCircle
 10
102.977743
 20
945.862348
 30
0.0
 40
27.50000013113443
100
AcDbArc
 50
339.168008
 51
159.168008
  0
ARC
  5
A4
330
7B
100
AcDbEntity
  8
0
  6
Continuous
 62
     0
370
    30
100
AcDbCircle
 10
102.977108
 20
945.86279
 30
0.0
 40
15.99936215036844
100
AcDbArc
 50
102.633804
 51
180.001584
  0
ARC
  5
A5
330
7B
100
AcDbEntity
  8
0
  6
Continuous
 62
     0
370
    30
100
AcDbCircle
 10
102.978384
 20
945.86279
 30
0.0
 40
15.9993621502252
100
AcDbArc
 50
359.998416
 51
77.366212
  0
ARC
  5
A6
330
7B
100
AcDbEntity
  8
0
  6
Continuous
 62
     0
370
    30
100
AcDbCircle
 10
102.978384
 20
945.861906
 30
0.0
 40
15.99936215018355
100
AcDbArc
 50
282.633783
 51
0.001584
  0
ARC
  5
A7
330
7B
100
AcDbEntity
  8
0
  6
Continuous
 62
     0
370
    30
100
AcDbCircle
 10
102.977108
 20
945.861906
 30
0.0
 40
15.99936215041121
100
AcDbArc
 50
179.998416
 51
257.366191
  0
ARC
  5
A8
330
7B
100
AcDbEntity
  8
0
  6
Continuous
 62
     0
370
    30
100
AcDbCircle
 10
102.977744
 20
945.862348
 30
0.0
 40
11.0
100
AcDbArc
 50
270.0
 51
90.0
  0
ARC
  5
A9
330
7B
100
AcDbEntity
  8
0
  6
Continuous
 62
     0
370
    30
100
AcDbCircle
 10
102.977744
 20
945.862348
 30
0.0
 40
11.0
100
AcDbArc
 50
90.0
 51
270.0
  0
LWPOLYLINE
  5
AA
330
7B
100
AcDbEntity
  8
0
  6
Continuous
 62
     0
370
    30
100
AcDbPolyline
 90
       19
 70
     0
 43
0.0
 10
99.477745
 20
894.929321
 10
99.517128
 20
894.929321
 10
99.635422
 20
894.929321
 10
99.828789
 20
894.929321
 10
100.088501
 20
894.929321
 10
100.402084
 20
894.929321
 10
100.755013
 20
894.929321
 10
101.132378
 20
894.929321
 10
101.54026
 20
894.929321
 10
101.99411
 20
894.929321
 10
102.485077
 20
894.929321
 10
103.000351
 20
894.929321
 10
103.523964
 20
894.929321
 10
104.038277
 20
894.929321
 10
104.525856
 20
894.929321
 10
104.971405
 20
894.929321
 10
105.363297
 20
894.929321
 10
105.694366
 20
894.929321
 10
105.96299
 20
894.929321
  0
LINE
  5
AB
330
7B
100
AcDbEntity
  8
0
  6
Continuous
 62
     0
370
    30
100
AcDbLine
 10
105.962991
 20
894.929291
 30
0.0
 11
106.477742
 21
894.929291
 31
0.0
  0
LINE
  5
AC
330
7B
100
AcDbEntity
  8
0
  6
Continuous
 62
     0
370
    30
100
AcDbLine
 10
106.277738
 20
894.729291
 30
0.0
 11
105.792405
 21
894.729291
 31
0.0
  0
LINE
  5
AD
330
7B
100
AcDbEntity
  8
0
  6
Continuous
 62
     0
370
    30
100
AcDbLine
 10
105.792405
 20
894.729291
 30
0.0
 11
99.677747
 21
894.729291
 31
0.0
  0
LINE
  5
AE
330
7B
100
AcDbEntity
  8
0
  6
Continuous
 62
     0
370
    30
100
AcDbLine
 10
106.276042
 20
894.730556
 30
0.0
 11
106.474591
 21
894.929284
 31
0.0
  0
LINE
  5
AF
330
7B
100
AcDbEntity
  8
0
  6
Continuous
 62
     0
370
    30
100
AcDbLine
 10
99.477057
 20
894.928648
 30
0.0
 11
99.676472
 21
894.729309
 31
0.0
  0
LINE
  5
B0
330
7B
100
AcDbEntity
  8
0
  6
Continuous
 62
     0
370
    30
100
AcDbLine
 10
106.477742
 20
935.434021
 30
0.0
 11
106.477742
 21
894.929291
 31
0.0
  0
LINE
  5
B1
330
7B
100
AcDbEntity
  8
0
  6
Continuous
 62
     0
370
    30
100
AcDbLine
 10
99.477742
 20
935.434022
 30
0.0
 11
99.477742
 21
894.929291
 31
0.0
  0
LINE
  5
B2
330
7B
100
AcDbEntity
  8
0
  6
Continuous
 62
     0
370
    30
100
AcDbLine
 10
106.477744
 20
969.19462
 30
0.0
 11
101.548881
 21
969.19462
 31
0.0
  0
LINE
  5
B3
330
7B
100
AcDbEntity
  8
0
  6
Continuous
 62
     0
370
    30
100
AcDbLine
 10
101.548881
 20
969.19462
 30
0.0
 11
99.477744
 21
969.19462
 31
0.0
  0
LWPOLYLINE
  5
B4
330
7B
100
AcDbEntity
  8
0
  6
Continuous
 62
     0
370
    30
100
AcDbPolyline
 90
        9
 70
     0
 43
0.0
 10
99.677765
 20
969.394592
 10
99.710892
 20
969.394592
 10
99.80986
 20
969.394592
 10
99.972656
 20
969.394592
 10
100.195946
 20
969.394592
 10
100.475372
 20
969.394592
 10
100.805092
 20
969.394592
 10
101.17868
 20
969.394592
 10
101.630531
 20
969.394592
  0
LINE
  5
B5
330
7B
100
AcDbEntity
  8
0
  6
Continuous
 62
     0
370
    30
100
AcDbLine
 10
101.63053
 20
969.39462
 30
0.0
 11
106.277721
 21
969.39462
 31
0.0
  0
LINE
  5
B6
330
7B
100
AcDbEntity
  8
0
  6
Continuous
 62
     0
370
    30
100
AcDbLine
 10
99.67898
 20
969.393508
 30
0.0
 11
99.480253
 21
969.194639
 31
0.0
  0
LINE
  5
B7
330
7B
100
AcDbEntity
  8
0
  6
Continuous
 62
     0
370
    30
100
AcDbLine
 10
106.469151
 20
969.194649
 30
0.0
 11
106.273655
 21
969.390625
 31
0.0
  0
LINE
  5
B8
330
7B
100
AcDbEntity
  8
0
  6
Continuous
 62
     0
370
    30
100
AcDbLine
 10
99.477744
 20
956.290675
 30
0.0
 11
99.477744
 21
969.19462
 31
0.0
  0
LINE
  5
B9
330
7B
100
AcDbEntity
  8
0
  6
Continuous
 62
     0
370
    30
100
AcDbLine
 10
106.477744
 20
956.290675
 30
0.0
 11
106.477744
 21
969.19462
 31
0.0
  0
ARC
  5
BA
330
7B
100
AcDbEntity
  8
0
  6
Continuous
 62
     0
370
    30
100
AcDbCircle
 10
102.977005
 20
1045.861574
 30
0.0
 40
27.50000013113455
100
AcDbArc
 50
159.168008
 51
262.687977
  0
ARC
  5
BB
330
7B
100
AcDbEntity
  8
0
  6
Continuous
 62
     0
370
    30
100
AcDbCircle
 10
102.977005
 20
1045.861574
 30
0.0
 40
27.50000013113536
100
AcDbArc
 50
277.31202
 51
339.168008
  0
ARC
  5
BC
330
7B
100
AcDbEntity
  8
0
  6
Continuous
 62
     0
370
    30
100
AcDbCircle
 10
102.977005
 20
1045.861574
 30
0.0
 40
27.50000013113439
100
AcDbArc
 50
339.168008
 51
159.168008
  0
ARC
  5
BD
330
7B
100
AcDbEntity
  8
0
  6
Continuous
 62
     0
370
    30
100
AcDbCircle
 10
102.97637
 20
1045.862017
 30
0.0
 40
15.99936215036846
100
AcDbArc
 50
102.633804
 51
180.001584
  0
ARC
  5
BE
330
7B
100
AcDbEntity
  8
0
  6
Continuous
 62
     0
370
    30
100
AcDbCircle
 10
102.977646
 20
1045.862017
 30
0.0
 40
15.99936215022727
100
AcDbArc
 50
359.998416
 51
77.366212
  0
ARC
  5
BF
330
7B
100
AcDbEntity
  8
0
  6
Continuous
 62
     0
370
    30
100
AcDbCircle
 10
102.977646
 20
1045.861132
 30
0.0
 40
15.99936215018468
100
AcDbArc
 50
282.633783
 51
0.001584
  0
ARC
  5
C0
330
7B
100
AcDbEntity
  8
0
  6
Continuous
 62
     0
370
    30
100
AcDbCircle
 10
102.97637
 20
1045.861132
 30
0.0
 40
15.9993621504119
100
AcDbArc
 50
179.998416
 51
257.366191
  0
ARC
  5
C1
330
7B
100
AcDbEntity
  8
0
  6
Continuous
 62
     0
370
    30
100
AcDbCircle
 10
102.977006
 20
1045.861574
 30
0.0
 40
11.0
100
AcDbArc
 50
270.0
 51
90.0
  0
ARC
  5
C2
330
7B
100
AcDbEntity
  8
0
  6
Continuous
 62
     0
370
    30
100
AcDbCircle
 10
102.977006
 20
1045.861574
 30
0.0
 40
11.0
100
AcDbArc
 50
90.0
 51
270.0
  0
LWPOLYLINE
  5
C3
330
7B
100
AcDbEntity
  8
0
  6
Continuous
 62
     0
370
    30
100
AcDbPolyline
 90
       19
 70
     0
 43
0.0
 10
99.477005
 20
994.928528
 10
99.516396
 20
994.928528
 10
99.634682
 20
994.928528
 10
99.828049
 20
994.928528
 10
100.087761
 20
994.928528
 10
100.401344
 20
994.928528
 10
100.754272
 20
994.928528
 10
101.131638
 20
994.928528
 10
101.53952
 20
994.928528
 10
101.99337
 20
994.928528
 10
102.484337
 20
994.928528
 10
102.999611
 20
994.928528
 10
103.523224
 20
994.928528
 10
104.037537
 20
994.928528
 10
104.525116
 20
994.928528
 10
104.970665
 20
994.928528
 10
105.362556
 20
994.928528
 10
105.693634
 20
994.928528
 10
105.96225
 20
994.928528
  0
LINE
  5
C4
330
7B
100
AcDbEntity
  8
0
  6
Continuous
 62
     0
370
    30
100
AcDbLine
 10
105.962253
 20
994.928518
 30
0.0
 11
106.477004
 21
994.928518
 31
0.0
  0
LINE
  5
C5
330
7B
100
AcDbEntity
  8
0
  6
Continuous
 62
     0
370
    30
100
AcDbLine
 10
106.277
 20
994.728518
 30
0.0
 11
105.791667
 21
994.728518
 31
0.0
  0
LINE
  5
C6
330
7B
100
AcDbEntity
  8
0
  6
Continuous
 62
     0
370
    30
100
AcDbLine
 10
105.791667
 20
994.728518
 30
0.0
 11
99.677009
 21
994.728518
 31
0.0
  0
LINE
  5
C7
330
7B
100
AcDbEntity
  8
0
  6
Continuous
 62
     0
370
    30
100
AcDbLine
 10
106.275304
 20
994.729783
 30
0.0
 11
106.473853
 21
994.92851
 31
0.0
  0
LINE
  5
C8
330
7B
100
AcDbEntity
  8
0
  6
Continuous
 62
     0
370
    30
100
AcDbLine
 10
99.476319
 20
994.927875
 30
0.0
 11
99.675734
 21
994.728535
 31
0.0
  0
LINE
  5
C9
330
7B
100
AcDbEntity
  8
0
  6
Continuous
 62
     0
370
    30
100
AcDbLine
 10
106.477004
 20
1035.433247
 30
0.0
 11
106.477004
 21
994.928518
 31
0.0
  0
LINE
  5
CA
330
7B
100
AcDbEntity
  8
0
  6
Continuous
 62
     0
370
    30
100
AcDbLine
 10
99.477004
 20
1035.433248
 30
0.0
 11
99.477004
 21
994.928518
 31
0.0
  0
LINE
  5
CB
330
7B
100
AcDbEntity
  8
0
  6
Continuous
 62
     0
370
    30
100
AcDbLine
 10
106.477006
 20
1069.193847
 30
0.0
 11
101.548143
 21
1069.193847
 31
0.0
  0
LINE
  5
CC
330
7B
100
AcDbEntity
  8
0
  6
Continuous
 62
     0
370
    30
100
AcDbLine
 10
101.548143
 20
1069.193847
 30
0.0
 11
99.477006
 21
1069.193847
 31
0.0
  0
LWPOLYLINE
  5
CD
330
7B
100
AcDbEntity
  8
0
  6
Continuous
 62
     0
370
    30
100
AcDbPolyline
 90
        9
 70
     0
 43
0.0
 10
99.677032
 20
1069.393799
 10
99.710152
 20
1069.393799
 10
99.80912
 20
1069.393799
 10
99.971924
 20
1069.393799
 10
100.195206
 20
1069.393799
 10
100.474632
 20
1069.393799
 10
100.804352
 20
1069.393799
 10
101.17794
 20
1069.393799
 10
101.629791
 20
1069.393799
  0
LINE
  5
CE
330
7B
100
AcDbEntity
  8
0
  6
Continuous
 62
     0
370
    30
100
AcDbLine
 10
101.629792
 20
1069.393847
 30
0.0
 11
106.276983
 21
1069.393847
 31
0.0
  0
LINE
  5
CF
330
7B
100
AcDbEntity
  8
0
  6
Continuous
 62
     0
370
    30
100
AcDbLine
 10
99.678242
 20
1069.392735
 30
0.0
 11
99.479515
 21
1069.193865
 31
0.0
  0
LINE
  5
D0
330
7B
100
AcDbEntity
  8
0
  6
Continuous
 62
     0
370
    30
100
AcDbLine
 10
106.468413
 20
1069.193875
 30
0.0
 11
106.272917
 21
1069.389851
 31
0.0
  0
LINE
  5
D1
330
7B
100
AcDbEntity
  8
0
  6
Continuous
 62
     0
370
    30
100
AcDbLine
 10
99.477006
 20
1056.289901
 30
0.0
 11
99.477006
 21
1069.193847
 31
0.0
  0
LINE
  5
D2
330
7B
100
AcDbEntity
  8
0
  6
Continuous
 62
     0
370
    30
100
AcDbLine
 10
106.477006
 20
1056.289901
 30
0.0
 11
106.477006
 21
1069.193847
 31
0.0
  0
ARC
  5
D3
330
7B
100
AcDbEntity
  8
0
  6
Continuous
 62
     0
370
    30
100
AcDbCircle
 10
102.976762
 20
1145.860612
 30
0.0
 40
27.50000013113446
100
AcDbArc
 50
159.168008
 51
262.687977
  0
ARC
  5
D4
330
7B
100
AcDbEntity
  8
0
  6
Continuous
 62
     0
370
    30
100
AcDbCircle
 10
102.976762
 20
1145.860612
 30
0.0
 40
27.50000013113803
100
AcDbArc
 50
277.31202
 51
339.168008
  0
ARC
  5
D5
330
7B
100
AcDbEntity
  8
0
  6
Continuous
 62
     0
370
    30
100
AcDbCircle
 10
102.976762
 20
1145.860612
 30
0.0
 40
27.50000013113437
100
AcDbArc
 50
339.168008
 51
159.168008
  0
ARC
  5
D6
330
7B
100
AcDbEntity
  8
0
  6
Continuous
 62
     0
370
    30
100
AcDbCircle
 10
102.976127
 20
1145.861054
 30
0.0
 40
15.99936215037083
100
AcDbArc
 50
102.633804
 51
180.001584
  0
ARC
  5
D7
330
7B
100
AcDbEntity
  8
0
  6
Continuous
 62
     0
370
    30
100
AcDbCircle
 10
102.977403
 20
1145.861054
 30
0.0
 40
15.99936215022854
100
AcDbArc
 50
359.998416
 51
77.366212
  0
ARC
  5
D8
330
7B
100
AcDbEntity
  8
0
  6
Continuous
 62
     0
370
    30
100
AcDbCircle
 10
102.977403
 20
1145.86017
 30
0.0
 40
15.99936215018456
100
AcDbArc
 50
282.633783
 51
0.001584
  0
ARC
  5
D9
330
7B
100
AcDbEntity
  8
0
  6
Continuous
 62
     0
370
    30
100
AcDbCircle
 10
102.976127
 20
1145.86017
 30
0.0
 40
15.99936215041323
100
AcDbArc
 50
179.998416
 51
257.366191
  0
ARC
  5
DA
330
7B
100
AcDbEntity
  8
0
  6
Continuous
 62
     0
370
    30
100
AcDbCircle
 10
102.976763
 20
1145.860612
 30
0.0
 40
10.99999999999997
100
AcDbArc
 50
270.0
 51
90.0
  0
ARC
  5
DB
330
7B
100
AcDbEntity
  8
0
  6
Continuous
 62
     0
370
    30
100
AcDbCircle
 10
102.976763
 20
1145.860612
 30
0.0
 40
10.99999999999997
100
AcDbArc
 50
90.0
 51
270.0
  0
LINE
  5
DC
330
7B
100
AcDbEntity
  8
0
  6
Continuous
 62
     0
370
    30
100
AcDbLine
 10
99.476762
 20
1094.927555
 30
0.0
 11
105.96201
 21
1094.927555
 31
0.0
  0
LINE
  5
DD
330
7B
100
AcDbEntity
  8
0
  6
Continuous
 62
     0
370
    30
100
AcDbLine
 10
105.96201
 20
1094.927555
 30
0.0
 11
106.476762
 21
1094.927555
 31
0.0
  0
LINE
  5
DE
330
7B
100
AcDbEntity
  8
0
  6
Continuous
 62
     0
370
    30
100
AcDbLine
 10
106.276758
 20
1094.727555
 30
0.0
 11
105.791424
 21
1094.727555
 31
0.0
  0
LINE
  5
DF
330
7B
100
AcDbEntity
  8
0
  6
Continuous
 62
     0
370
    30
100
AcDbLine
 10
105.791424
 20
1094.727555
 30
0.0
 11
99.676766
 21
1094.727555
 31
0.0
  0
LINE
  5
E0
330
7B
100
AcDbEntity
  8
0
  6
Continuous
 62
     0
370
    30
100
AcDbLine
 10
106.275061
 20
1094.72882
 30
0.0
 11
106.47361
 21
1094.927548
 31
0.0
  0
LINE
  5
E1
330
7B
100
AcDbEntity
  8
0
  6
Continuous
 62
     0
370
    30
100
AcDbLine
 10
99.476076
 20
1094.926912
 30
0.0
 11
99.675491
 21
1094.727573
 31
0.0
  0
LINE
  5
E2
330
7B
100
AcDbEntity
  8
0
  6
Continuous
 62
     0
370
    30
100
AcDbLine
 10
106.476762
 20
1135.432285
 30
0.0
 11
106.476762
 21
1094.927555
 31
0.0
  0
LINE
  5
E3
330
7B
100
AcDbEntity
  8
0
  6
Continuous
 62
     0
370
    30
100
AcDbLine
 10
99.476762
 20
1135.432286
 30
0.0
 11
99.476762
 21
1094.927555
 31
0.0
  0
LINE
  5
E4
330
7B
100
AcDbEntity
  8
0
  6
Continuous
 62
     0
370
    30
100
AcDbLine
 10
106.476763
 20
1169.192884
 30
0.0
 11
101.5479
 21
1169.192884
 31
0.0
  0
LINE
  5
E5
330
7B
100
AcDbEntity
  8
0
  6
Continuous
 62
     0
370
    30
100
AcDbLine
 10
101.5479
 20
1169.192884
 30
0.0
 11
99.476763
 21
1169.192884
 31
0.0
  0
LWPOLYLINE
  5
E6
330
7B
100
AcDbEntity
  8
0
  6
Continuous
 62
     0
370
    30
100
AcDbPolyline
 90
        9
 70
     0
 43
0.0
 10
99.676788
 20
1169.392944
 10
99.709908
 20
1169.392944
 10
99.808876
 20
1169.392944
 10
99.97168
 20
1169.392944
 10
100.194962
 20
1169.392944
 10
100.474388
 20
1169.392944
 10
100.804108
 20
1169.392944
 10
101.177704
 20
1169.392944
 10
101.629547
 20
1169.392944
  0
LINE
  5
E7
330
7B
100
AcDbEntity
  8
0
  6
Continuous
 62
     0
370
    30
100
AcDbLine
 10
101.629549
 20
1169.392884
 30
0.0
 11
106.27674
 21
1169.392884
 31
0.0
  0
LINE
  5
E8
330
7B
100
AcDbEntity
  8
0
  6
Continuous
 62
     0
370
    30
100
AcDbLine
 10
99.677999
 20
1169.391772
 30
0.0
 11
99.479272
 21
1169.192903
 31
0.0
  0
LINE
  5
E9
330
7B
100
AcDbEntity
  8
0
  6
Continuous
 62
     0
370
    30
100
AcDbLine
 10
106.46817
 20
1169.192913
 30
0.0
 11
106.272674
 21
1169.388889
 31
0.0
  0
LINE
  5
EA
330
7B
100
AcDbEntity
  8
0
  6
Continuous
 62
     0
370
    30
100
AcDbLine
 10
99.476763
 20
1156.288939
 30
0.0
 11
99.476763
 21
1169.192884
 31
0.0
  0
LINE
  5
EB
330
7B
100
AcDbEntity
  8
0
  6
Continuous
 62
     0
370
    30
100
AcDbLine
 10
106.476763
 20
1156.288939
 30
0.0
 11
106.476763
 21
1169.192884
 31
0.0
  0
ENDBLK
  5
ED
330
7B
100
AcDbEntity
  8
0
100
AcDbBlockEnd
  0
BLOCK
  5
115
330
EF
100
AcDbEntity
  8
0
100
AcDbBlockBegin
  2
b
 70
     0
 10
19.798489
 20
516.102646
 30
0.0
  3
b
  1

  0
LINE
  5
F0
330
EF
100
AcDbEntity
  8
0
  6
Continuous
 62
     0
370
    30
100
AcDbLine
 10
47.978729
 20
562.510681
 30
0.0
 11
75.476762
 21
562.510679
 31
0.0
  0
LINE
  5
F1
330
EF
100
AcDbEntity
  8
0
  6
Continuous
 62
     0
370
    30
100
AcDbLine
 10
130.476762
 20
562.510679
 30
0.0
 11
157.980225
 21
562.510681
 31
0.0
  0
LINE
  5
F2
330
EF
100
AcDbEntity
  8
0
  6
Continuous
 62
     0
370
    30
100
AcDbLine
 10
47.979477
 20
558.510681
 30
0.0
 11
75.476762
 21
558.510679
 31
0.0
  0
LINE
  5
F3
330
EF
100
AcDbEntity
  8
0
  6
Continuous
 62
     0
370
    30
100
AcDbLine
 10
130.476762
 20
558.510679
 30
0.0
 11
157.979477
 21
558.510681
 31
0.0
  0
LINE
  5
F4
330
EF
100
AcDbEntity
  8
0
  6
Continuous
 62
     0
370
    30
100
AcDbLine
 10
91.976763
 20
506.31068
 30
0.0
 11
80.979168
 21
506.31068
 31
0.0
  0
LINE
  5
F5
330
EF
100
AcDbEntity
  8
0
  6
Continuous
 62
     0
370
    30
100
AcDbLine
 10
124.979785
 20
506.31068
 30
0.0
 11
113.976763
 21
506.31068
 31
0.0
  0
LINE
  5
F6
330
EF
100
AcDbEntity
  8
0
  6
Continuous
 62
     0
370
    30
100
AcDbLine
 10
86.976763
 20
556.31068
 30
0.0
 11
80.979468
 21
556.31068
 31
0.0
  0
LINE
  5
F7
330
EF
100
AcDbEntity
  8
0
  6
Continuous
 62
     0
370
    30
100
AcDbLine
 10
124.979486
 20
556.31068
 30
0.0
 11
118.976763
 21
556.31068
 31
0.0
  0
LINE
  5
F8
330
EF
100
AcDbEntity
  8
0
  6
Continuous
 62
     0
370
    30
100
AcDbLine
 10
124.979486
 20
506.31068
 30
0.0
 11
124.979486
 21
556.31068
 31
0.0
  0
LINE
  5
F9
330
EF
100
AcDbEntity
  8
0
  6
Continuous
 62
     0
370
    30
100
AcDbLine
 10
80.979468
 20
506.31068
 30
0.0
 11
80.979468
 21
556.31068
 31
0.0
  0
LINE
  5
FA
330
EF
100
AcDbEntity
  8
0
  6
Continuous
 62
     0
370
    30
100
AcDbLine
 10
122.879477
 20
558.510681
 30
0.0
 11
122.879477
 21
556.31068
 31
0.0
  0
LINE
  5
FB
330
EF
100
AcDbEntity
  8
0
  6
Continuous
 62
     0
370
    30
100
AcDbLine
 10
83.079477
 20
556.31068
 30
0.0
 11
83.079477
 21
558.510681
 31
0.0
  0
LINE
  5
FC
330
EF
100
AcDbEntity
  8
0
  6
Continuous
 62
     0
370
    30
100
AcDbLine
 10
47.979477
 20
562.510681
 30
0.0
 11
47.979477
 21
558.510681
 31
0.0
  0
LINE
  5
FD
330
EF
100
AcDbEntity
  8
0
  6
Continuous
 62
     0
370
    30
100
AcDbLine
 10
157.979477
 20
558.510681
 30
0.0
 11
157.979477
 21
562.510681
 31
0.0
  0
LWPOLYLINE
  5
FE
330
EF
100
AcDbEntity
  8
0
  6
Continuous
 62
     0
370
    30
100
AcDbPolyline
 90
        9
 70
     0
 43
0.0
 10
75.476761
 20
558.510498
 10
75.506737
 20
558.510498
 10
75.595276
 20
558.510498
 10
75.740089
 20
558.510498
 10
75.938614
 20
558.510498
 10
76.188087
 20
558.510498
 10
76.485542
 20
558.510498
 10
76.827904
 20
558.510498
 10
77.274513
 20
558.510498
  0
LINE
  5
FF
330
EF
100
AcDbEntity
  8
0
  6
Continuous
 62
     0
370
    30
100
AcDbLine
 10
77.274513
 20
558.510515
 30
0.0
 11
130.476762
 21
558.510516
 31
0.0
  0
LWPOLYLINE
  5
100
330
EF
100
AcDbEntity
  8
0
  6
Continuous
 62
     0
370
    30
100
AcDbPolyline
 90
       55
 70
     0
 43
0.0
 10
130.476761
 20
562.510498
 10
130.439804
 20
562.510498
 10
130.327576
 20
562.510498
 10
130.138474
 20
562.510498
 10
129.871521
 20
562.510498
 10
129.526382
 20
562.510498
 10
129.103363
 20
562.510498
 10
128.603516
 20
562.510498
 10
128.028503
 20
562.510498
 10
127.380722
 20
562.510498
 10
126.663155
 20
562.510498
 10
125.879379
 20
562.510498
 10
125.033508
 20
562.510498
 10
124.130127
 20
562.510498
 10
123.174171
 20
562.510498
 10
122.170914
 20
562.510498
 10
121.125832
 20
562.510498
 10
120.044518
 20
562.510498
 10
118.932632
 20
562.510498
 10
117.795807
 20
562.510498
 10
116.639572
 20
562.510498
 10
115.469284
 20
562.510498
 10
114.290077
 20
562.510498
 10
113.106827
 20
562.510498
 10
111.912781
 20
562.510498
 10
110.678917
 20
562.510498
 10
109.405785
 20
562.510498
 10
108.096382
 20
562.510498
 10
106.754219
 20
562.510498
 10
105.383286
 20
562.510498
 10
103.988045
 20
562.510498
 10
102.57341
 20
562.510498
 10
101.144691
 20
562.510498
 10
99.70755
 20
562.510498
 10
98.267937
 20
562.510498
 10
96.832031
 20
562.510498
 10
95.40612
 20
562.510498
 10
93.996567
 20
562.510498
 10
92.609665
 20
562.510498
 10
91.251579
 20
562.510498
 10
89.928253
 20
562.510498
 10
88.645317
 20
562.510498
 10
87.40799
 20
562.510498
 10
86.221046
 20
562.510498
 10
85.088737
 20
562.510498
 10
84.014732
 20
562.510498
 10
83.002113
 20
562.510498
 10
82.053345
 20
562.510498
 10
81.170265
 20
562.510498
 10
80.354088
 20
562.510498
 10
79.605453
 20
562.510498
 10
78.924416
 20
562.510498
 10
78.310509
 20
562.510498
 10
77.762802
 20
562.510498
 10
77.274513
 20
562.510498
  0
LINE
  5
101
330
EF
100
AcDbEntity
  8
0
  6
Continuous
 62
     0
370
    30
100
AcDbLine
 10
77.274513
 20
562.510515
 30
0.0
 11
75.476762
 21
562.510516
 31
0.0
  0
LINE
  5
102
330
EF
100
AcDbEntity
  8
0
  6
Continuous
 62
     0
370
    30
100
AcDbLine
 10
75.476762
 20
558.510516
 30
0.0
 11
75.476762
 21
562.510516
 31
0.0
  0
LINE
  5
103
330
EF
100
AcDbEntity
  8
0
  6
Continuous
 62
     0
370
    30
100
AcDbLine
 10
130.476762
 20
558.510516
 30
0.0
 11
130.476762
 21
562.510516
 31
0.0
  0
LWPOLYLINE
  5
104
330
EF
100
AcDbEntity
  8
0
  6
Continuous
 62
     0
370
    30
100
AcDbPolyline
 90
       46
 70
     0
 43
0.0
 10
118.976768
 20
531.510498
 10
118.937851
 20
531.510498
 10
118.821075
 20
531.510498
 10
118.627335
 20
531.510498
 10
118.357544
 20
531.510498
 10
118.012657
 20
531.510498
 10
117.594337
 20
531.510498
 10
117.105042
 20
531.510498
 10
116.547218
 20
531.510498
 10
115.92334
 20
531.510498
 10
115.236099
 20
531.510498
 10
114.489136
 20
531.510498
 10
113.686302
 20
531.510498
 10
112.831482
 20
531.510498
 10
111.928551
 20
531.510498
 10
110.98188
 20
531.510498
 10
109.9963
 20
531.510498
 10
108.976685
 20
531.510498
 10
107.927895
 20
531.510498
 10
106.854874
 20
531.510498
 10
105.762939
 20
531.510498
 10
104.657471
 20
531.510498
 10
103.543869
 20
531.510498
 10
102.427528
 20
531.510498
 10
101.313835
 20
531.510498
 10
100.208199
 20
531.510498
 10
99.115997
 20
531.510498
 10
98.042633
 20
531.510498
 10
96.993416
 20
531.510498
 10
95.973297
 20
531.510498
 10
94.987137
 20
531.510498
 10
94.039803
 20
531.510498
 10
93.136131
 20
531.510498
 10
92.28051
 20
531.510498
 10
91.476822
 20
531.510498
 10
90.728928
 20
531.510498
 10
90.040703
 20
531.510498
 10
89.415787
 20
531.510498
 10
88.856888
 20
531.510498
 10
88.36647
 20
531.510498
 10
87.946999
 20
531.510498
 10
87.600914
 20
531.510498
 10
87.329918
 20
531.510498
 10
87.134956
 20
531.510498
 10
87.016937
 20
531.510498
 10
86.976768
 20
531.510498
  0
LINE
  5
105
330
EF
100
AcDbEntity
  8
0
  6
Continuous
 62
     0
370
    30
100
AcDbLine
 10
118.976765
 20
531.510517
 30
0.0
 11
118.976763
 21
558.510529
 31
0.0
  0
LINE
  5
106
330
EF
100
AcDbEntity
  8
0
  6
Continuous
 62
     0
370
    30
100
AcDbLine
 10
86.976763
 20
558.510527
 30
0.0
 11
86.976765
 21
531.510514
 31
0.0
  0
LINE
  5
107
330
EF
100
AcDbEntity
  8
0
  6
Continuous
 62
     0
370
    30
100
AcDbLine
 10
102.976763
 20
526.610514
 30
0.0
 11
113.976913
 21
526.610514
 31
0.0
  0
LINE
  5
108
330
EF
100
AcDbEntity
  8
0
  6
Continuous
 62
     0
370
    30
100
AcDbLine
 10
91.976614
 20
526.610514
 30
0.0
 11
102.976763
 21
526.610514
 31
0.0
  0
LINE
  5
109
330
EF
100
AcDbEntity
  8
0
  6
Continuous
 62
     0
370
    30
100
AcDbLine
 10
102.976763
 20
496.110514
 30
0.0
 11
113.976763
 21
496.110514
 31
0.0
  0
LINE
  5
10A
330
EF
100
AcDbEntity
  8
0
  6
Continuous
 62
     0
370
    30
100
AcDbLine
 10
91.976763
 20
496.110514
 30
0.0
 11
102.976763
 21
496.110514
 31
0.0
  0
LWPOLYLINE
  5
10B
330
EF
100
AcDbEntity
  8
0
  6
Continuous
 62
     0
370
     0
100
AcDbPolyline
 90
       23
 70
     0
 43
0.0
 10
102.976761
 20
500.010529
 10
102.462006
 20
500.046875
 10
101.957191
 20
500.159149
 10
101.475052
 20
500.33905
 10
101.026047
 20
500.583344
 10
100.619049
 20
500.889893
 10
100.259598
 20
501.250397
 10
99.953018
 20
501.656769
 10
99.706421
 20
502.105316
 10
99.525345
 20
502.587524
 10
99.41452
 20
503.092377
 10
99.377289
 20
503.608704
 10
99.414001
 20
504.125061
 10
99.524307
 20
504.630035
 10
99.704903
 20
505.112427
 10
99.951073
 20
505.561249
 10
100.257278
 20
505.967926
 10
100.616356
 20
506.328796
 10
101.023003
 20
506.635803
 10
101.471748
 20
506.880524
 10
101.953697
 20
507.060852
 10
102.458397
 20
507.173553
 10
102.976761
 20
507.21051
  0
LWPOLYLINE
  5
10C
330
EF
100
AcDbEntity
  8
0
  6
Continuous
 62
     0
370
     0
100
AcDbPolyline
 90
       23
 70
     0
 43
0.0
 10
102.976761
 20
507.21051
 10
103.491524
 20
507.174103
 10
103.996338
 20
507.06189
 10
104.478493
 20
506.882019
 10
104.927505
 20
506.637756
 10
105.334465
 20
506.331146
 10
105.693901
 20
505.970612
 10
106.000504
 20
505.56427
 10
106.247116
 20
505.115723
 10
106.428185
 20
504.633514
 10
106.539001
 20
504.128662
 10
106.576241
 20
503.612335
 10
106.53952
 20
503.095978
 10
106.429214
 20
502.591003
 10
106.248619
 20
502.108612
 10
106.002464
 20
501.65979
 10
105.696281
 20
501.253082
 10
105.337181
 20
500.892242
 10
104.930504
 20
500.585266
 10
104.481766
 20
500.340546
 10
103.999825
 20
500.160187
 10
103.495132
 20
500.047424
 10
102.976761
 20
500.010529
  0
LINE
  5
10D
330
EF
100
AcDbEntity
  8
0
  6
Continuous
 62
     0
370
    30
100
AcDbLine
 10
91.976763
 20
526.610514
 30
0.0
 11
91.976763
 21
496.110514
 31
0.0
  0
LINE
  5
10E
330
EF
100
AcDbEntity
  8
0
  6
Continuous
 62
     0
370
    30
100
AcDbLine
 10
113.976763
 20
526.610514
 30
0.0
 11
113.976763
 21
496.110514
 31
0.0
  0
LINE
  5
10F
330
EF
100
AcDbEntity
  8
0
  6
Continuous
 62
     0
370
    30
100
AcDbLine
 10
108.726763
 20
531.510516
 30
0.0
 11
108.726763
 21
526.610514
 31
0.0
  0
LINE
  5
110
330
EF
100
AcDbEntity
  8
0
  6
Continuous
 62
     0
370
    30
100
AcDbLine
 10
97.226763
 20
526.610514
 30
0.0
 11
97.226763
 21
531.510515
 31
0.0
  0
ARC
  5
111
330
EF
100
AcDbEntity
  8
0
  6
Continuous
 62
     0
370
    30
100
AcDbCircle
 10
102.976763
 20
503.610517
 30
0.0
 40
3.500000000000046
100
AcDbArc
 50
245.905267
 51
65.905267
  0
ARC
  5
112
330
EF
100
AcDbEntity
  8
0
  6
Continuous
 62
     0
370
    30
100
AcDbCircle
 10
102.976763
 20
503.610517
 30
0.0
 40
3.500000000000046
100
AcDbArc
 50
65.905267
 51
245.905267
  0
ARC
  5
113
330
EF
100
AcDbEntity
  8
0
  6
Continuous
 62
     0
370
    30
100
AcDbCircle
 10
102.976722
 20
503.610535
 30
0.0
 40
3.299999997325337
100
AcDbArc
 50
65.904487
 51
245.906047
  0
ARC
  5
114
330
EF
100
AcDbEntity
  8
0
  6
Continuous
 62
     0
370
    30
100
AcDbCircle
 10
102.976804
 20
503.610498
 30
0.0
 40
3.299999997332759
100
AcDbArc
 50
245.904478
 51
65.906056
  0
ENDBLK
  5
116
330
EF
100
AcDbEntity
  8
0
100
AcDbBlockEnd
  0
BLOCK
  5
1D1
330
118
100
AcDbEntity
  8
0
100
AcDbBlockBegin
  2
c
 70
     0
 10
19.798489
 20
106.3806
 30
0.0
  3
c
  1

  0
LWPOLYLINE
  5
119
330
118
100
AcDbEntity
  8
0
  6
Continuous
 62
     0
370
    30
100
AcDbPolyline
 90
       84
 70
     0
 43
0.0
 10
245.423569
 20
670.864258
 10
245.423584
 20
670.903381
 10
245.423584
 20
671.021667
 10
245.423584
 20
671.218567
 10
245.423584
 20
671.493591
 10
245.423584
 20
671.846313
 10
245.423584
 20
672.276123
 10
245.423584
 20
672.782593
 10
245.423584
 20
673.365234
 10
245.423584
 20
674.023438
 10
245.423584
 20
674.756226
 10
245.423584
 20
675.562195
 10
245.423584
 20
676.440002
 10
245.423584
 20
677.388306
 10
245.423584
 20
678.405762
 10
245.423584
 20
679.491028
 10
245.423584
 20
680.6427
 10
245.423584
 20
681.859497
 10
245.423584
 20
683.139648
 10
245.423584
 20
684.48114
 10
245.423584
 20
685.881836
 10
245.423584
 20
687.3396
 10
245.423584
 20
688.852295
 10
245.423584
 20
690.417847
 10
245.423584
 20
692.034119
 10
245.423584
 20
693.698975
 10
245.423584
 20
695.410156
 10
245.423584
 20
697.165161
 10
245.423584
 20
698.961182
 10
245.423584
 20
700.795654
 10
245.423584
 20
702.665894
 10
245.423584
 20
704.569153
 10
245.423584
 20
706.50293
 10
245.423584
 20
708.464417
 10
245.423584
 20
710.450989
 10
245.423584
 20
712.459717
 10
245.423584
 20
714.487671
 10
245.423584
 20
716.531982
 10
245.423584
 20
718.589539
 10
245.423584
 20
720.657471
 10
245.423584
 20
722.732849
 10
245.423584
 20
724.812683
 10
245.423584
 20
726.893982
 10
245.423584
 20
728.973816
 10
245.423584
 20
731.049255
 10
245.423584
 20
733.117249
 10
245.423584
 20
735.174988
 10
245.423584
 20
737.219421
 10
245.423584
 20
739.247559
 10
245.423584
 20
741.256531
 10
245.423584
 20
743.243347
 10
245.423584
 20
745.205139
 10
245.423584
 20
747.13916
 10
245.423584
 20
749.042786
 10
245.423584
 20
750.913391
 10
245.423584
 20
752.74823
 10
245.423584
 20
754.544678
 10
245.423584
 20
756.30011
 10
245.423584
 20
758.01178
 10
245.423584
 20
759.677124
 10
245.423584
 20
761.293945
 10
245.423584
 20
762.859985
 10
245.423584
 20
764.373291
 10
245.423584
 20
765.831604
 10
245.423584
 20
767.23291
 10
245.423584
 20
768.575073
 10
245.423584
 20
769.855896
 10
245.423584
 20
771.073364
 10
245.423584
 20
772.225708
 10
245.423584
 20
773.311707
 10
245.423584
 20
774.329834
 10
245.423584
 20
775.278931
 10
245.423584
 20
776.157471
 10
245.423584
 20
776.964172
 10
245.423584
 20
777.697754
 10
245.423584
 20
778.35675
 10
245.423584
 20
778.940186
 10
245.423584
 20
779.447449
 10
245.423584
 20
779.878113
 10
245.423584
 20
780.231628
 10
245.423584
 20
780.507446
 10
245.423584
 20
780.7052
 10
245.423584
 20
780.82428
 10
245.423569
 20
780.864258
  0
LINE
  5
11A
330
118
100
AcDbEntity
  8
0
  6
Continuous
 62
     0
370
    30
100
AcDbLine
 10
245.423576
 20
670.864258
 30
0.0
 11
249.423577
 21
670.864258
 31
0.0
  0
LINE
  5
11B
330
118
100
AcDbEntity
  8
0
  6
Continuous
 62
     0
370
    30
100
AcDbLine
 10
249.423577
 20
670.864258
 30
0.0
 11
249.423577
 21
780.864258
 31
0.0
  0
LWPOLYLINE
  5
11C
330
118
100
AcDbEntity
  8
0
  6
Continuous
 62
     0
370
    30
100
AcDbPolyline
 90
       53
 70
     0
 43
0.0
 10
301.623566
 20
747.864258
 10
301.623566
 20
747.824219
 10
301.623566
 20
747.703796
 10
301.623566
 20
747.503784
 10
301.623566
 20
747.225098
 10
301.623566
 20
746.868408
 10
301.623566
 20
746.434753
 10
301.623566
 20
745.925964
 10
301.623566
 20
745.344116
 10
301.623566
 20
744.691467
 10
301.623566
 20
743.970276
 10
301.623566
 20
743.182678
 10
301.623566
 20
742.331665
 10
301.623566
 20
741.420654
 10
301.623566
 20
740.453125
 10
301.623566
 20
739.432434
 10
301.623566
 20
738.362122
 10
301.623566
 20
737.246033
 10
301.623566
 20
736.088379
 10
301.623566
 20
734.893616
 10
301.623566
 20
733.666016
 10
301.623566
 20
732.409851
 10
301.623566
 20
731.129761
 10
301.623566
 20
729.830383
 10
301.623566
 20
728.516541
 10
301.623566
 20
727.193115
 10
301.623566
 20
725.864868
 10
301.623566
 20
724.536621
 10
301.623566
 20
723.213135
 10
301.623566
 20
721.899353
 10
301.623566
 20
720.599915
 10
301.623566
 20
719.319763
 10
301.623566
 20
718.06366
 10
301.623566
 20
716.835999
 10
301.623566
 20
715.641174
 10
301.623566
 20
714.483521
 10
301.623566
 20
713.367371
 10
301.623566
 20
712.296997
 10
301.623566
 20
711.276306
 10
301.623566
 20
710.308716
 10
301.623566
 20
709.397644
 10
301.623566
 20
708.54657
 10
301.623566
 20
707.758911
 10
301.623566
 20
707.037659
 10
301.623566
 20
706.384949
 10
301.623566
 20
705.80304
 10
301.623566
 20
705.294128
 10
301.623566
 20
704.860413
 10
301.623566
 20
704.503723
 10
301.623566
 20
704.224915
 10
301.623566
 20
704.024902
 10
301.623566
 20
703.904358
 10
301.623566
 20
703.864258
  0
LINE
  5
11D
330
118
100
AcDbEntity
  8
0
  6
Continuous
 62
     0
370
    30
100
AcDbLine
 10
301.623577
 20
747.864267
 30
0.0
 11
296.173596
 21
747.864267
 31
0.0
  0
LINE
  5
11E
330
118
100
AcDbEntity
  8
0
  6
Continuous
 62
     0
370
    30
100
AcDbLine
 10
289.073596
 20
747.864267
 30
0.0
 11
251.623577
 21
747.864267
 31
0.0
  0
LINE
  5
11F
330
118
100
AcDbEntity
  8
0
  6
Continuous
 62
     0
370
    30
100
AcDbLine
 10
251.623577
 20
747.864267
 30
0.0
 11
251.623577
 21
703.864249
 31
0.0
  0
LWPOLYLINE
  5
120
330
118
100
AcDbEntity
  8
0
  6
Continuous
 62
     0
370
     0
100
AcDbPolyline
 90
       23
 70
     0
 43
0.0
 10
296.173584
 20
747.864258
 10
296.137634
 20
747.858459
 10
296.029541
 20
747.841553
 10
295.8526
 20
747.814941
 10
295.61264
 20
747.780579
 10
295.310638
 20
747.741516
 10
294.952179
 20
747.700745
 10
294.549255
 20
747.661255
 10
294.107117
 20
747.626526
 10
293.633667
 20
747.599487
 10
293.139557
 20
747.582153
 10
292.634888
 20
747.575867
 10
292.129974
 20
747.581665
 10
291.635132
 20
747.59845
 10
291.160492
 20
747.625061
 10
290.716736
 20
747.659546
 10
290.312073
 20
747.698914
 10
289.951385
 20
747.739685
 10
289.646576
 20
747.778931
 10
289.403992
 20
747.813538
 10
289.224213
 20
747.840576
 10
289.112946
 20
747.85791
 10
289.073608
 20
747.864258
  0
LWPOLYLINE
  5
121
330
118
100
AcDbEntity
  8
0
  6
Continuous
 62
     0
370
     0
100
AcDbPolyline
 90
       18
 70
     0
 43
0.0
 10
290.473602
 20
703.864258
 10
290.511017
 20
703.867798
 10
290.61908
 20
703.87793
 10
290.793854
 20
703.893311
 10
291.032104
 20
703.911743
 10
291.323761
 20
703.930908
 10
291.658112
 20
703.948303
 10
292.027283
 20
703.961426
 10
292.416931
 20
703.968506
 10
292.81308
 20
703.968689
 10
293.203186
 20
703.961853
 10
293.573517
 20
703.948975
 10
293.90979
 20
703.931763
 10
294.203369
 20
703.912598
 10
294.444092
 20
703.894104
 10
294.621918
 20
703.878479
 10
294.733124
 20
703.868164
 10
294.77359
 20
703.864258
  0
LWPOLYLINE
  5
122
330
118
100
AcDbEntity
  8
0
  6
Continuous
 62
     0
370
    30
100
AcDbPolyline
 90
       23
 70
     0
 43
0.0
 10
296.123596
 20
755.514282
 10
296.093323
 20
755.514282
 10
295.997406
 20
755.514282
 10
295.830322
 20
755.514282
 10
295.590515
 20
755.514282
 10
295.281158
 20
755.514282
 10
294.910309
 20
755.514282
 10
294.490387
 20
755.514282
 10
294.036743
 20
755.514282
 10
293.565857
 20
755.514282
 10
293.093628
 20
755.514282
 10
292.633881
 20
755.514282
 10
292.175018
 20
755.514282
 10
291.703064
 20
755.514282
 10
291.231781
 20
755.514282
 10
290.776978
 20
755.514282
 10
290.355164
 20
755.514282
 10
289.981781
 20
755.514282
 10
289.669373
 20
755.514282
 10
289.42627
 20
755.514282
 10
289.255859
 20
755.514282
 10
289.156769
 20
755.514282
 10
289.123596
 20
755.514282
  0
LINE
  5
123
330
118
100
AcDbEntity
  8
0
  6
Continuous
 62
     0
370
    30
100
AcDbLine
 10
295.923596
 20
755.714267
 30
0.0
 11
296.123596
 21
755.514267
 31
0.0
  0
LWPOLYLINE
  5
124
330
118
100
AcDbEntity
  8
0
  6
Continuous
 62
     0
370
    30
100
AcDbPolyline
 90
       22
 70
     0
 43
0.0
 10
295.923584
 20
755.714294
 10
295.886932
 20
755.714172
 10
295.777985
 20
755.714111
 10
295.598969
 20
755.71405
 10
295.352997
 20
755.713806
 10
295.046326
 20
755.713318
 10
294.685944
 20
755.712646
 10
294.279419
 20
755.711853
 10
293.836273
 20
755.711304
 10
293.366455
 20
755.711182
 10
292.880005
 20
755.711731
 10
292.387817
 20
755.712708
 10
291.900848
 20
755.713623
 10
291.429993
 20
755.714172
 10
290.985565
 20
755.714294
 10
290.57782
 20
755.713989
 10
290.216309
 20
755.713257
 10
289.908173
 20
755.712585
 10
289.659851
 20
755.712402
 10
289.477234
 20
755.712952
 10
289.364136
 20
755.713806
 10
289.323608
 20
755.714294
  0
LINE
  5
125
330
118
100
AcDbEntity
  8
0
  6
Continuous
 62
     0
370
    30
100
AcDbLine
 10
296.123596
 20
747.864234
 30
0.0
 11
296.123596
 21
755.514267
 31
0.0
  0
LWPOLYLINE
  5
126
330
118
100
AcDbEntity
  8
0
  6
Continuous
 62
     0
370
    30
100
AcDbPolyline
 90
       22
 70
     0
 43
0.0
 10
289.123596
 20
747.864258
 10
289.163086
 20
747.857849
 10
289.279663
 20
747.839844
 10
289.470581
 20
747.811768
 10
289.731964
 20
747.775696
 10
290.057556
 20
747.735107
 10
290.440216
 20
747.693542
 10
290.871857
 20
747.654724
 10
291.342682
 20
747.621887
 10
291.842377
 20
747.598145
 10
292.360168
 20
747.585876
 10
292.883972
 20
747.585754
 10
293.401611
 20
747.598083
 10
293.90152
 20
747.621826
 10
294.372742
 20
747.65448
 10
294.804535
 20
747.693237
 10
295.1875
 20
747.734863
 10
295.513458
 20
747.775452
 10
295.775208
 20
747.811523
 10
295.966766
 20
747.839783
 10
296.083954
 20
747.857971
 10
296.123596
 20
747.864258
  0
LINE
  5
127
330
118
100
AcDbEntity
  8
0
  6
Continuous
 62
     0
370
    30
100
AcDbLine
 10
289.123596
 20
755.514267
 30
0.0
 11
289.323596
 21
755.714267
 31
0.0
  0
LINE
  5
128
330
118
100
AcDbEntity
  8
0
  6
Continuous
 62
     0
370
    30
100
AcDbLine
 10
289.123596
 20
755.514267
 30
0.0
 11
289.123596
 21
747.864234
 31
0.0
  0
LWPOLYLINE
  5
129
330
118
100
AcDbEntity
  8
0
  6
Continuous
 62
     0
370
    30
100
AcDbPolyline
 90
        3
 70
     0
 43
0.0
 10
294.77359
 20
703.864258
 10
292.685028
 20
703.8526
 10
290.473602
 20
703.864258
  0
LINE
  5
12A
330
118
100
AcDbEntity
  8
0
  6
Continuous
 62
     0
370
    30
100
AcDbLine
 10
289.073596
 20
747.864267
 30
0.0
 11
289.123597
 21
747.864234
 31
0.0
  0
LINE
  5
12B
330
118
100
AcDbEntity
  8
0
  6
Continuous
 62
     0
370
    30
100
AcDbLine
 10
296.173596
 20
747.864267
 30
0.0
 11
296.123596
 21
747.864234
 31
0.0
  0
LINE
  5
12C
330
118
100
AcDbEntity
  8
0
  6
Continuous
 62
     0
370
    30
100
AcDbLine
 10
301.623577
 20
703.864249
 30
0.0
 11
294.773577
 21
703.864249
 31
0.0
  0
LINE
  5
12D
330
118
100
AcDbEntity
  8
0
  6
Continuous
 62
     0
370
    30
100
AcDbLine
 10
251.623577
 20
703.864249
 30
0.0
 11
290.473605
 21
703.864249
 31
0.0
  0
LINE
  5
12E
330
118
100
AcDbEntity
  8
0
  6
Continuous
 62
     0
370
    30
100
AcDbLine
 10
249.423576
 20
705.964258
 30
0.0
 11
251.623577
 21
705.964258
 31
0.0
  0
LINE
  5
12F
330
118
100
AcDbEntity
  8
0
  6
Continuous
 62
     0
370
    30
100
AcDbLine
 10
251.623577
 20
745.764258
 30
0.0
 11
249.423576
 21
745.764258
 31
0.0
  0
LINE
  5
130
330
118
100
AcDbEntity
  8
0
  6
Continuous
 62
     0
370
    30
100
AcDbLine
 10
249.423577
 20
780.864258
 30
0.0
 11
245.423576
 21
780.864258
 31
0.0
  0
LWPOLYLINE
  5
131
330
118
100
AcDbEntity
  8
0
  6
Continuous
 62
     0
370
    30
100
AcDbPolyline
 90
       37
 70
     0
 43
0.0
 10
249.423599
 20
818.362793
 10
249.423599
 20
818.40332
 10
249.423599
 20
818.522644
 10
249.423599
 20
818.717102
 10
249.423599
 20
818.982483
 10
249.423599
 20
819.314209
 10
249.423599
 20
819.70752
 10
249.423599
 20
820.157471
 10
249.423599
 20
820.669617
 10
249.423599
 20
821.254517
 10
249.423599
 20
821.913757
 10
249.423599
 20
822.648438
 10
249.423599
 20
823.458984
 10
249.423599
 20
824.345154
 10
249.423599
 20
825.305908
 10
249.423599
 20
826.339661
 10
249.423599
 20
827.443787
 10
249.423599
 20
828.615112
 10
249.423599
 20
829.849548
 10
249.423599
 20
831.142334
 10
249.423599
 20
832.487976
 10
249.423599
 20
833.880432
 10
249.423599
 20
835.31311
 10
249.423599
 20
836.778992
 10
249.423599
 20
838.270813
 10
249.423599
 20
839.781067
 10
249.423599
 20
841.302246
 10
249.423599
 20
842.826843
 10
249.423599
 20
844.347595
 10
249.423599
 20
845.857483
 10
249.423599
 20
847.349792
 10
249.423599
 20
848.818481
 10
249.423599
 20
850.257874
 10
249.423599
 20
851.662842
 10
249.423599
 20
853.028992
 10
249.423599
 20
854.352478
 10
249.423599
 20
855.642578
  0
LINE
  5
132
330
118
100
AcDbEntity
  8
0
  6
Continuous
 62
     0
370
    30
100
AcDbLine
 10
249.423593
 20
855.64258
 30
0.0
 11
249.423592
 21
873.362785
 31
0.0
  0
LINE
  5
133
330
118
100
AcDbEntity
  8
0
  6
Continuous
 62
     0
370
    30
100
AcDbLine
 10
245.423592
 20
873.362785
 30
0.0
 11
245.423593
 21
855.64258
 31
0.0
  0
LINE
  5
134
330
118
100
AcDbEntity
  8
0
  6
Continuous
 62
     0
370
    30
100
AcDbLine
 10
245.423593
 20
855.64258
 30
0.0
 11
245.423592
 21
818.362785
 31
0.0
  0
LINE
  5
135
330
118
100
AcDbEntity
  8
0
  6
Continuous
 62
     0
370
    30
100
AcDbLine
 10
249.423592
 20
818.362785
 30
0.0
 11
245.423592
 21
818.362785
 31
0.0
  0
LINE
  5
136
330
118
100
AcDbEntity
  8
0
  6
Continuous
 62
     0
370
    30
100
AcDbLine
 10
249.423592
 20
873.362785
 30
0.0
 11
245.423592
 21
873.362785
 31
0.0
  0
LINE
  5
137
330
118
100
AcDbEntity
  8
0
  6
Continuous
 62
     0
370
    30
100
AcDbLine
 10
276.423592
 20
861.863003
 30
0.0
 11
276.423594
 21
845.862785
 31
0.0
  0
LINE
  5
138
330
118
100
AcDbEntity
  8
0
  6
Continuous
 62
     0
370
    30
100
AcDbLine
 10
276.423594
 20
845.862785
 30
0.0
 11
276.423592
 21
829.862567
 31
0.0
  0
LINE
  5
139
330
118
100
AcDbEntity
  8
0
  6
Continuous
 62
     0
370
    30
100
AcDbLine
 10
276.423592
 20
861.862785
 30
0.0
 11
249.423579
 21
861.862785
 31
0.0
  0
LINE
  5
13A
330
118
100
AcDbEntity
  8
0
  6
Continuous
 62
     0
370
    30
100
AcDbLine
 10
249.423579
 20
829.862785
 30
0.0
 11
276.423592
 21
829.862785
 31
0.0
  0
LINE
  5
13B
330
118
100
AcDbEntity
  8
0
  6
Continuous
 62
     0
370
    30
100
AcDbLine
 10
276.423593
 20
851.612785
 30
0.0
 11
281.323593
 21
851.612785
 31
0.0
  0
LWPOLYLINE
  5
13C
330
118
100
AcDbEntity
  8
0
  6
Continuous
 62
     0
370
    30
100
AcDbPolyline
 90
       38
 70
     0
 43
0.0
 10
281.323578
 20
834.862793
 10
281.323608
 20
834.902405
 10
281.323608
 20
835.020996
 10
281.323608
 20
835.217529
 10
281.323608
 20
835.490784
 10
281.323608
 20
835.838989
 10
281.323608
 20
836.259216
 10
281.323608
 20
836.748352
 10
281.323608
 20
837.303345
 10
281.323608
 20
837.920166
 10
281.323608
 20
838.593994
 10
281.323608
 20
839.320129
 10
281.323608
 20
840.093506
 10
281.323608
 20
840.908447
 10
281.323608
 20
841.758972
 10
281.323608
 20
842.639038
 10
281.323608
 20
843.542419
 10
281.323608
 20
844.462463
 10
281.323608
 20
845.392639
 10
281.323608
 20
846.326111
 10
281.323608
 20
847.256287
 10
281.323608
 20
848.176453
 10
281.323608
 20
849.079956
 10
281.323608
 20
849.960205
 10
281.323608
 20
850.810974
 10
281.323608
 20
851.626221
 10
281.323608
 20
852.399963
 10
281.323608
 20
853.126404
 10
281.323608
 20
853.800659
 10
281.323608
 20
854.417908
 10
281.323608
 20
854.973389
 10
281.323608
 20
855.463013
 10
281.323608
 20
855.883728
 10
281.323608
 20
856.232483
 10
281.323608
 20
856.506348
 10
281.323608
 20
856.703369
 10
281.323608
 20
856.822571
 10
281.323578
 20
856.862793
  0
LINE
  5
13D
330
118
100
AcDbEntity
  8
0
  6
Continuous
 62
     0
370
    30
100
AcDbLine
 10
311.823593
 20
856.862785
 30
0.0
 11
307.923593
 21
856.862785
 31
0.0
  0
LINE
  5
13E
330
118
100
AcDbEntity
  8
0
  6
Continuous
 62
     0
370
    30
100
AcDbLine
 10
300.723593
 20
856.862785
 30
0.0
 11
281.323593
 21
856.862785
 31
0.0
  0
LINE
  5
13F
330
118
100
AcDbEntity
  8
0
  6
Continuous
 62
     0
370
    30
100
AcDbLine
 10
311.823593
 20
834.862785
 30
0.0
 11
311.823593
 21
856.862785
 31
0.0
  0
LWPOLYLINE
  5
140
330
118
100
AcDbEntity
  8
0
  6
Continuous
 62
     0
370
     0
100
AcDbPolyline
 90
       24
 70
     0
 43
0.0
 10
307.923584
 20
856.862793
 10
307.890533
 20
856.851624
 10
307.787811
 20
856.819397
 10
307.622833
 20
856.76825
 10
307.398956
 20
856.702026
 10
307.117523
 20
856.625793
 10
306.78476
 20
856.544739
 10
306.408752
 20
856.464172
 10
305.993042
 20
856.390198
 10
305.543213
 20
856.328491
 10
305.068665
 20
856.283752
 10
304.579102
 20
856.260437
 10
304.08432
 20
856.260071
 10
303.594421
 20
856.282654
 10
303.119232
 20
856.326721
 10
302.668427
 20
856.387939
 10
302.251495
 20
856.461609
 10
301.874146
 20
856.542053
 10
301.539795
 20
856.62323
 10
301.256531
 20
856.699646
 10
301.030731
 20
856.766296
 10
300.863861
 20
856.817993
 10
300.759003
 20
856.850891
 10
300.723602
 20
856.862793
  0
LWPOLYLINE
  5
141
330
118
100
AcDbEntity
  8
0
  6
Continuous
 62
     0
370
     0
100
AcDbPolyline
 90
       24
 70
     0
 43
0.0
 10
300.723602
 20
834.862793
 10
300.756744
 20
834.873962
 10
300.859528
 20
834.90625
 10
301.024567
 20
834.957397
 10
301.248535
 20
835.023621
 10
301.530029
 20
835.099854
 10
301.862885
 20
835.180908
 10
302.238892
 20
835.261475
 10
302.654602
 20
835.335449
 10
303.104431
 20
835.397156
 10
303.578949
 20
835.441833
 10
304.068512
 20
835.465149
 10
304.563232
 20
835.465454
 10
305.053101
 20
835.442932
 10
305.528229
 20
835.398804
 10
305.978973
 20
835.337585
 10
306.395874
 20
835.263916
 10
306.773193
 20
835.183472
 10
307.107452
 20
835.102356
 10
307.390656
 20
835.025879
 10
307.616425
 20
834.95929
 10
307.783356
 20
834.907532
 10
307.888214
 20
834.874695
 10
307.923584
 20
834.862793
  0
LINE
  5
142
330
118
100
AcDbEntity
  8
0
  6
Continuous
 62
     0
370
    30
100
AcDbLine
 10
307.823589
 20
856.862785
 30
0.0
 11
307.923593
 21
856.862785
 31
0.0
  0
LINE
  5
143
330
118
100
AcDbEntity
  8
0
  6
Continuous
 62
     0
370
    30
100
AcDbLine
 10
300.723593
 20
856.862785
 30
0.0
 11
300.823589
 21
856.862785
 31
0.0
  0
LINE
  5
144
330
118
100
AcDbEntity
  8
0
  6
Continuous
 62
     0
370
    30
100
AcDbLine
 10
300.823589
 20
834.862785
 30
0.0
 11
300.723586
 21
834.862785
 31
0.0
  0
LINE
  5
145
330
118
100
AcDbEntity
  8
0
  6
Continuous
 62
     0
370
    30
100
AcDbLine
 10
307.923593
 20
834.862785
 30
0.0
 11
307.823589
 21
834.862785
 31
0.0
  0
LINE
  5
146
330
118
100
AcDbEntity
  8
0
  6
Continuous
 62
     0
370
    30
100
AcDbLine
 10
281.323593
 20
834.862785
 30
0.0
 11
300.000953
 21
834.862785
 31
0.0
  0
LINE
  5
147
330
118
100
AcDbEntity
  8
0
  6
Continuous
 62
     0
370
    30
100
AcDbLine
 10
311.823593
 20
834.862785
 30
0.0
 11
307.923593
 21
834.862785
 31
0.0
  0
LINE
  5
148
330
118
100
AcDbEntity
  8
0
  6
Continuous
 62
     0
370
    30
100
AcDbLine
 10
281.323593
 20
840.112785
 30
0.0
 11
276.423593
 21
840.112785
 31
0.0
  0
LINE
  5
149
330
118
100
AcDbEntity
  8
0
  6
Continuous
 62
     0
370
    30
100
AcDbLine
 10
302.49649
 20
794.929729
 30
0.0
 11
307.823589
 21
794.929729
 31
0.0
  0
LINE
  5
14A
330
118
100
AcDbEntity
  8
0
  6
Continuous
 62
     0
370
    30
100
AcDbLine
 10
300.823589
 20
794.929729
 30
0.0
 11
302.49649
 21
794.929729
 31
0.0
  0
LINE
  5
14B
330
118
100
AcDbEntity
  8
0
  6
Continuous
 62
     0
370
    30
100
AcDbLine
 10
302.600895
 20
794.729729
 30
0.0
 11
301.023594
 21
794.729729
 31
0.0
  0
LWPOLYLINE
  5
14C
330
118
100
AcDbEntity
  8
0
  6
Continuous
 62
     0
370
    30
100
AcDbPolyline
 90
       15
 70
     0
 43
0.0
 10
307.623596
 20
794.729736
 10
307.586121
 20
794.729736
 10
307.474335
 20
794.729736
 10
307.29071
 20
794.729736
 10
307.039581
 20
794.729736
 10
306.726471
 20
794.729736
 10
306.358704
 20
794.729736
 10
305.944519
 20
794.729736
 10
305.493439
 20
794.729736
 10
305.015686
 20
794.729736
 10
304.522186
 20
794.729736
 10
304.024139
 20
794.729736
 10
303.532898
 20
794.729736
 10
303.059723
 20
794.729736
 10
302.600891
 20
794.729736
  0
LINE
  5
14D
330
118
100
AcDbEntity
  8
0
  6
Continuous
 62
     0
370
    30
100
AcDbLine
 10
301.027102
 20
794.732641
 30
0.0
 11
300.830429
 21
794.929697
 31
0.0
  0
LINE
  5
14E
330
118
100
AcDbEntity
  8
0
  6
Continuous
 62
     0
370
    30
100
AcDbLine
 10
307.821761
 20
794.929722
 30
0.0
 11
307.622531
 21
794.730388
 31
0.0
  0
LINE
  5
14F
330
118
100
AcDbEntity
  8
0
  6
Continuous
 62
     0
370
    30
100
AcDbLine
 10
300.823589
 20
834.862785
 30
0.0
 11
300.823589
 21
794.929729
 31
0.0
  0
LINE
  5
150
330
118
100
AcDbEntity
  8
0
  6
Continuous
 62
     0
370
    30
100
AcDbLine
 10
307.823589
 20
834.862785
 30
0.0
 11
307.823589
 21
794.929729
 31
0.0
  0
LWPOLYLINE
  5
151
330
118
100
AcDbEntity
  8
0
  6
Continuous
 62
     0
370
    30
100
AcDbPolyline
 90
        4
 70
     0
 43
0.0
 10
307.823578
 20
869.195068
 10
307.787323
 20
869.195068
 10
307.684418
 20
869.195068
 10
307.518646
 20
869.195068
  0
LINE
  5
152
330
118
100
AcDbEntity
  8
0
  6
Continuous
 62
     0
370
    30
100
AcDbLine
 10
307.51864
 20
869.195058
 30
0.0
 11
300.823589
 21
869.195058
 31
0.0
  0
LINE
  5
153
330
118
100
AcDbEntity
  8
0
  6
Continuous
 62
     0
370
    30
100
AcDbLine
 10
301.023621
 20
869.395058
 30
0.0
 11
307.336066
 21
869.395058
 31
0.0
  0
LINE
  5
154
330
118
100
AcDbEntity
  8
0
  6
Continuous
 62
     0
370
    30
100
AcDbLine
 10
307.336066
 20
869.395058
 30
0.0
 11
307.623558
 21
869.395058
 31
0.0
  0
LINE
  5
155
330
118
100
AcDbEntity
  8
0
  6
Continuous
 62
     0
370
    30
100
AcDbLine
 10
301.023085
 20
869.394807
 30
0.0
 11
300.823622
 21
869.19536
 31
0.0
  0
LINE
  5
156
330
118
100
AcDbEntity
  8
0
  6
Continuous
 62
     0
370
    30
100
AcDbLine
 10
307.819302
 20
869.19506
 30
0.0
 11
307.621549
 21
869.393055
 31
0.0
  0
LINE
  5
157
330
118
100
AcDbEntity
  8
0
  6
Continuous
 62
     0
370
    30
100
AcDbLine
 10
300.823589
 20
856.862785
 30
0.0
 11
300.823589
 21
869.195058
 31
0.0
  0
LINE
  5
158
330
118
100
AcDbEntity
  8
0
  6
Continuous
 62
     0
370
    30
100
AcDbLine
 10
307.823589
 20
856.862785
 30
0.0
 11
307.823589
 21
869.195058
 31
0.0
  0
LWPOLYLINE
  5
159
330
118
100
AcDbEntity
  8
0
  6
Continuous
 62
     0
370
    30
100
AcDbPolyline
 90
       37
 70
     0
 43
0.0
 10
249.42363
 20
918.362366
 10
249.42363
 20
918.402893
 10
249.42363
 20
918.522217
 10
249.42363
 20
918.716675
 10
249.42363
 20
918.981995
 10
249.42363
 20
919.313782
 10
249.42363
 20
919.707092
 10
249.42363
 20
920.157043
 10
249.42363
 20
920.669189
 10
249.42363
 20
921.254089
 10
249.42363
 20
921.91333
 10
249.42363
 20
922.64801
 10
249.42363
 20
923.458557
 10
249.42363
 20
924.344666
 10
249.42363
 20
925.305481
 10
249.42363
 20
926.339233
 10
249.42363
 20
927.443359
 10
249.42363
 20
928.614685
 10
249.42363
 20
929.849121
 10
249.42363
 20
931.141907
 10
249.42363
 20
932.487549
 10
249.42363
 20
933.880005
 10
249.42363
 20
935.312683
 10
249.42363
 20
936.778564
 10
249.42363
 20
938.270386
 10
249.42363
 20
939.78064
 10
249.42363
 20
941.301819
 10
249.42363
 20
942.826416
 10
249.42363
 20
944.347168
 10
249.42363
 20
945.856995
 10
249.42363
 20
947.349365
 10
249.42363
 20
948.818054
 10
249.42363
 20
950.257446
 10
249.42363
 20
951.662415
 10
249.42363
 20
953.028564
 10
249.42363
 20
954.352051
 10
249.42363
 20
955.642151
  0
LINE
  5
15A
330
118
100
AcDbEntity
  8
0
  6
Continuous
 62
     0
370
    30
100
AcDbLine
 10
249.423635
 20
955.642143
 30
0.0
 11
249.423634
 21
973.362348
 31
0.0
  0
LINE
  5
15B
330
118
100
AcDbEntity
  8
0
  6
Continuous
 62
     0
370
    30
100
AcDbLine
 10
245.423634
 20
973.362348
 30
0.0
 11
245.423635
 21
955.642143
 31
0.0
  0
LINE
  5
15C
330
118
100
AcDbEntity
  8
0
  6
Continuous
 62
     0
370
    30
100
AcDbLine
 10
245.423635
 20
955.642143
 30
0.0
 11
245.423634
 21
918.362348
 31
0.0
  0
LINE
  5
15D
330
118
100
AcDbEntity
  8
0
  6
Continuous
 62
     0
370
    30
100
AcDbLine
 10
249.423634
 20
918.362348
 30
0.0
 11
245.423634
 21
918.362348
 31
0.0
  0
LINE
  5
15E
330
118
100
AcDbEntity
  8
0
  6
Continuous
 62
     0
370
    30
100
AcDbLine
 10
249.423634
 20
973.362348
 30
0.0
 11
245.423634
 21
973.362348
 31
0.0
  0
LINE
  5
15F
330
118
100
AcDbEntity
  8
0
  6
Continuous
 62
     0
370
    30
100
AcDbLine
 10
276.423634
 20
961.862566
 30
0.0
 11
276.423636
 21
945.862348
 31
0.0
  0
LINE
  5
160
330
118
100
AcDbEntity
  8
0
  6
Continuous
 62
     0
370
    30
100
AcDbLine
 10
276.423636
 20
945.862348
 30
0.0
 11
276.423634
 21
929.86213
 31
0.0
  0
LINE
  5
161
330
118
100
AcDbEntity
  8
0
  6
Continuous
 62
     0
370
    30
100
AcDbLine
 10
276.423634
 20
961.862348
 30
0.0
 11
249.423622
 21
961.862348
 31
0.0
  0
LINE
  5
162
330
118
100
AcDbEntity
  8
0
  6
Continuous
 62
     0
370
    30
100
AcDbLine
 10
249.423622
 20
929.862348
 30
0.0
 11
276.423634
 21
929.862348
 31
0.0
  0
LINE
  5
163
330
118
100
AcDbEntity
  8
0
  6
Continuous
 62
     0
370
    30
100
AcDbLine
 10
276.423636
 20
951.612348
 30
0.0
 11
281.323636
 21
951.612348
 31
0.0
  0
LWPOLYLINE
  5
164
330
118
100
AcDbEntity
  8
0
  6
Continuous
 62
     0
370
    30
100
AcDbPolyline
 90
       38
 70
     0
 43
0.0
 10
281.323639
 20
934.862366
 10
281.323639
 20
934.901978
 10
281.323639
 20
935.020569
 10
281.323639
 20
935.217102
 10
281.323639
 20
935.490356
 10
281.323639
 20
935.838562
 10
281.323639
 20
936.258728
 10
281.323639
 20
936.747925
 10
281.323639
 20
937.302917
 10
281.323639
 20
937.919739
 10
281.323639
 20
938.593567
 10
281.323639
 20
939.319641
 10
281.323639
 20
940.093079
 10
281.323639
 20
940.90802
 10
281.323639
 20
941.758545
 10
281.323639
 20
942.638611
 10
281.323639
 20
943.541992
 10
281.323639
 20
944.462036
 10
281.323639
 20
945.392151
 10
281.323639
 20
946.325684
 10
281.323639
 20
947.255859
 10
281.323639
 20
948.176025
 10
281.323639
 20
949.079529
 10
281.323639
 20
949.959778
 10
281.323639
 20
950.810547
 10
281.323639
 20
951.625793
 10
281.323639
 20
952.399536
 10
281.323639
 20
953.125977
 10
281.323639
 20
953.800171
 10
281.323639
 20
954.417419
 10
281.323639
 20
954.9729
 10
281.323639
 20
955.462585
 10
281.323639
 20
955.883301
 10
281.323639
 20
956.232056
 10
281.323639
 20
956.505859
 10
281.323639
 20
956.702942
 10
281.323639
 20
956.822144
 10
281.323639
 20
956.862366
  0
LINE
  5
165
330
118
100
AcDbEntity
  8
0
  6
Continuous
 62
     0
370
    30
100
AcDbLine
 10
311.823636
 20
956.862348
 30
0.0
 11
307.923636
 21
956.862348
 31
0.0
  0
LINE
  5
166
330
118
100
AcDbEntity
  8
0
  6
Continuous
 62
     0
370
    30
100
AcDbLine
 10
300.723636
 20
956.862348
 30
0.0
 11
281.323636
 21
956.862348
 31
0.0
  0
LINE
  5
167
330
118
100
AcDbEntity
  8
0
  6
Continuous
 62
     0
370
    30
100
AcDbLine
 10
311.823636
 20
934.862348
 30
0.0
 11
311.823636
 21
956.862348
 31
0.0
  0
LWPOLYLINE
  5
168
330
118
100
AcDbEntity
  8
0
  6
Continuous
 62
     0
370
     0
100
AcDbPolyline
 90
       24
 70
     0
 43
0.0
 10
307.923645
 20
956.862366
 10
307.890564
 20
956.851196
 10
307.787842
 20
956.81897
 10
307.622864
 20
956.767822
 10
307.398987
 20
956.701599
 10
307.117584
 20
956.625366
 10
306.78479
 20
956.544312
 10
306.408783
 20
956.463745
 10
305.993073
 20
956.389771
 10
305.543243
 20
956.328064
 10
305.068726
 20
956.283325
 10
304.579132
 20
956.26001
 10
304.084381
 20
956.259644
 10
303.594452
 20
956.282166
 10
303.119263
 20
956.326294
 10
302.668488
 20
956.387512
 10
302.251526
 20
956.461182
 10
301.874207
 20
956.541626
 10
301.539856
 20
956.622742
 10
301.256561
 20
956.699219
 10
301.030792
 20
956.765808
 10
300.863892
 20
956.817566
 10
300.759064
 20
956.850464
 10
300.723633
 20
956.862366
  0
LWPOLYLINE
  5
169
330
118
100
AcDbEntity
  8
0
  6
Continuous
 62
     0
370
     0
100
AcDbPolyline
 90
       24
 70
     0
 43
0.0
 10
300.723633
 20
934.862366
 10
300.756805
 20
934.873535
 10
300.859558
 20
934.905823
 10
301.024628
 20
934.95697
 10
301.248566
 20
935.023193
 10
301.53006
 20
935.099426
 10
301.862915
 20
935.180481
 10
302.238922
 20
935.261047
 10
302.654633
 20
935.334961
 10
303.104462
 20
935.396729
 10
303.578979
 20
935.441406
 10
304.068542
 20
935.464661
 10
304.563263
 20
935.465027
 10
305.053131
 20
935.442505
 10
305.528259
 20
935.398376
 10
305.979004
 20
935.337158
 10
306.395935
 20
935.263489
 10
306.773224
 20
935.183044
 10
307.107513
 20
935.101929
 10
307.390717
 20
935.025452
 10
307.616486
 20
934.958862
 10
307.783386
 20
934.907104
 10
307.888245
 20
934.874268
 10
307.923645
 20
934.862366
  0
LINE
  5
16A
330
118
100
AcDbEntity
  8
0
  6
Continuous
 62
     0
370
    30
100
AcDbLine
 10
307.823632
 20
956.862348
 30
0.0
 11
307.923636
 21
956.862348
 31
0.0
  0
LINE
  5
16B
330
118
100
AcDbEntity
  8
0
  6
Continuous
 62
     0
370
    30
100
AcDbLine
 10
300.723636
 20
956.862348
 30
0.0
 11
300.823632
 21
956.862348
 31
0.0
  0
LINE
  5
16C
330
118
100
AcDbEntity
  8
0
  6
Continuous
 62
     0
370
    30
100
AcDbLine
 10
300.823632
 20
934.862348
 30
0.0
 11
300.723628
 21
934.862348
 31
0.0
  0
LINE
  5
16D
330
118
100
AcDbEntity
  8
0
  6
Continuous
 62
     0
370
    30
100
AcDbLine
 10
307.923636
 20
934.862348
 30
0.0
 11
307.823632
 21
934.862348
 31
0.0
  0
LINE
  5
16E
330
118
100
AcDbEntity
  8
0
  6
Continuous
 62
     0
370
    30
100
AcDbLine
 10
281.323636
 20
934.862348
 30
0.0
 11
300.000996
 21
934.862348
 31
0.0
  0
LINE
  5
16F
330
118
100
AcDbEntity
  8
0
  6
Continuous
 62
     0
370
    30
100
AcDbLine
 10
311.823636
 20
934.862348
 30
0.0
 11
307.923636
 21
934.862348
 31
0.0
  0
LINE
  5
170
330
118
100
AcDbEntity
  8
0
  6
Continuous
 62
     0
370
    30
100
AcDbLine
 10
276.423636
 20
940.112348
 30
0.0
 11
281.323636
 21
940.112348
 31
0.0
  0
LINE
  5
171
330
118
100
AcDbEntity
  8
0
  6
Continuous
 62
     0
370
    30
100
AcDbLine
 10
302.496532
 20
894.929291
 30
0.0
 11
307.823632
 21
894.929291
 31
0.0
  0
LINE
  5
172
330
118
100
AcDbEntity
  8
0
  6
Continuous
 62
     0
370
    30
100
AcDbLine
 10
300.823632
 20
894.929291
 30
0.0
 11
302.496532
 21
894.929291
 31
0.0
  0
LINE
  5
173
330
118
100
AcDbEntity
  8
0
  6
Continuous
 62
     0
370
    30
100
AcDbLine
 10
302.600938
 20
894.729291
 30
0.0
 11
301.023637
 21
894.729291
 31
0.0
  0
LWPOLYLINE
  5
174
330
118
100
AcDbEntity
  8
0
  6
Continuous
 62
     0
370
    30
100
AcDbPolyline
 90
       15
 70
     0
 43
0.0
 10
307.623627
 20
894.729309
 10
307.586151
 20
894.729309
 10
307.474365
 20
894.729309
 10
307.290771
 20
894.729309
 10
307.039612
 20
894.729309
 10
306.726532
 20
894.729309
 10
306.358765
 20
894.729309
 10
305.94455
 20
894.729309
 10
305.4935
 20
894.729309
 10
305.015717
 20
894.729309
 10
304.522217
 20
894.729309
 10
304.02417
 20
894.729309
 10
303.532928
 20
894.729309
 10
303.059753
 20
894.729309
 10
302.600952
 20
894.729309
  0
LINE
  5
175
330
118
100
AcDbEntity
  8
0
  6
Continuous
 62
     0
370
    30
100
AcDbLine
 10
301.027145
 20
894.732203
 30
0.0
 11
300.830471
 21
894.92926
 31
0.0
  0
LINE
  5
176
330
118
100
AcDbEntity
  8
0
  6
Continuous
 62
     0
370
    30
100
AcDbLine
 10
307.821804
 20
894.929285
 30
0.0
 11
307.622574
 21
894.729951
 31
0.0
  0
LINE
  5
177
330
118
100
AcDbEntity
  8
0
  6
Continuous
 62
     0
370
    30
100
AcDbLine
 10
300.823632
 20
934.862348
 30
0.0
 11
300.823632
 21
894.929291
 31
0.0
  0
LINE
  5
178
330
118
100
AcDbEntity
  8
0
  6
Continuous
 62
     0
370
    30
100
AcDbLine
 10
307.823632
 20
934.862348
 30
0.0
 11
307.823632
 21
894.929291
 31
0.0
  0
LWPOLYLINE
  5
179
330
118
100
AcDbEntity
  8
0
  6
Continuous
 62
     0
370
    30
100
AcDbPolyline
 90
        4
 70
     0
 43
0.0
 10
307.823639
 20
969.194641
 10
307.787354
 20
969.194641
 10
307.684448
 20
969.194641
 10
307.518677
 20
969.194641
  0
LINE
  5
17A
330
118
100
AcDbEntity
  8
0
  6
Continuous
 62
     0
370
    30
100
AcDbLine
 10
307.518683
 20
969.19462
 30
0.0
 11
300.823632
 21
969.19462
 31
0.0
  0
LINE
  5
17B
330
118
100
AcDbEntity
  8
0
  6
Continuous
 62
     0
370
    30
100
AcDbLine
 10
301.023664
 20
969.39462
 30
0.0
 11
307.336109
 21
969.39462
 31
0.0
  0
LINE
  5
17C
330
118
100
AcDbEntity
  8
0
  6
Continuous
 62
     0
370
    30
100
AcDbLine
 10
307.336109
 20
969.39462
 30
0.0
 11
307.6236
 21
969.39462
 31
0.0
  0
LINE
  5
17D
330
118
100
AcDbEntity
  8
0
  6
Continuous
 62
     0
370
    30
100
AcDbLine
 10
301.023127
 20
969.39437
 30
0.0
 11
300.823665
 21
969.194923
 31
0.0
  0
LINE
  5
17E
330
118
100
AcDbEntity
  8
0
  6
Continuous
 62
     0
370
    30
100
AcDbLine
 10
307.819345
 20
969.194623
 30
0.0
 11
307.621592
 21
969.392618
 31
0.0
  0
LINE
  5
17F
330
118
100
AcDbEntity
  8
0
  6
Continuous
 62
     0
370
    30
100
AcDbLine
 10
300.823632
 20
956.862348
 30
0.0
 11
300.823632
 21
969.19462
 31
0.0
  0
LINE
  5
180
330
118
100
AcDbEntity
  8
0
  6
Continuous
 62
     0
370
    30
100
AcDbLine
 10
307.823632
 20
956.862348
 30
0.0
 11
307.823632
 21
969.19462
 31
0.0
  0
LWPOLYLINE
  5
181
330
118
100
AcDbEntity
  8
0
  6
Continuous
 62
     0
370
    30
100
AcDbPolyline
 90
       37
 70
     0
 43
0.0
 10
249.423676
 20
1018.361572
 10
249.423676
 20
1018.4021
 10
249.423676
 20
1018.521423
 10
249.423676
 20
1018.715881
 10
249.423676
 20
1018.981262
 10
249.423676
 20
1019.312988
 10
249.423676
 20
1019.70636
 10
249.423676
 20
1020.15625
 10
249.423676
 20
1020.668396
 10
249.423676
 20
1021.253296
 10
249.423676
 20
1021.912598
 10
249.423676
 20
1022.647278
 10
249.423676
 20
1023.457764
 10
249.423676
 20
1024.343872
 10
249.423676
 20
1025.304688
 10
249.423676
 20
1026.338379
 10
249.423676
 20
1027.442627
 10
249.423676
 20
1028.613892
 10
249.423676
 20
1029.848389
 10
249.423676
 20
1031.141113
 10
249.423676
 20
1032.486816
 10
249.423676
 20
1033.879272
 10
249.423676
 20
1035.31189
 10
249.423676
 20
1036.777832
 10
249.423676
 20
1038.269653
 10
249.423676
 20
1039.779907
 10
249.423676
 20
1041.301025
 10
249.423676
 20
1042.825684
 10
249.423676
 20
1044.346436
 10
249.423676
 20
1045.856201
 10
249.423676
 20
1047.348633
 10
249.423676
 20
1048.817261
 10
249.423676
 20
1050.256714
 10
249.423676
 20
1051.661621
 10
249.423676
 20
1053.027832
 10
249.423676
 20
1054.351318
 10
249.423676
 20
1055.641357
  0
LINE
  5
182
330
118
100
AcDbEntity
  8
0
  6
Continuous
 62
     0
370
    30
100
AcDbLine
 10
249.42368
 20
1055.641369
 30
0.0
 11
249.423679
 21
1073.361574
 31
0.0
  0
LINE
  5
183
330
118
100
AcDbEntity
  8
0
  6
Continuous
 62
     0
370
    30
100
AcDbLine
 10
245.423679
 20
1073.361574
 30
0.0
 11
245.42368
 21
1055.641369
 31
0.0
  0
LINE
  5
184
330
118
100
AcDbEntity
  8
0
  6
Continuous
 62
     0
370
    30
100
AcDbLine
 10
245.42368
 20
1055.641369
 30
0.0
 11
245.423679
 21
1018.361574
 31
0.0
  0
LINE
  5
185
330
118
100
AcDbEntity
  8
0
  6
Continuous
 62
     0
370
    30
100
AcDbLine
 10
249.423679
 20
1018.361574
 30
0.0
 11
245.423679
 21
1018.361574
 31
0.0
  0
LINE
  5
186
330
118
100
AcDbEntity
  8
0
  6
Continuous
 62
     0
370
    30
100
AcDbLine
 10
249.423679
 20
1073.361574
 30
0.0
 11
245.423679
 21
1073.361574
 31
0.0
  0
LINE
  5
187
330
118
100
AcDbEntity
  8
0
  6
Continuous
 62
     0
370
    30
100
AcDbLine
 10
276.423679
 20
1061.861792
 30
0.0
 11
276.423681
 21
1045.861574
 31
0.0
  0
LINE
  5
188
330
118
100
AcDbEntity
  8
0
  6
Continuous
 62
     0
370
    30
100
AcDbLine
 10
276.423681
 20
1045.861574
 30
0.0
 11
276.423679
 21
1029.861356
 31
0.0
  0
LINE
  5
189
330
118
100
AcDbEntity
  8
0
  6
Continuous
 62
     0
370
    30
100
AcDbLine
 10
276.423679
 20
1061.861574
 30
0.0
 11
249.423667
 21
1061.861574
 31
0.0
  0
LINE
  5
18A
330
118
100
AcDbEntity
  8
0
  6
Continuous
 62
     0
370
    30
100
AcDbLine
 10
249.423667
 20
1029.861574
 30
0.0
 11
276.423679
 21
1029.861574
 31
0.0
  0
LINE
  5
18B
330
118
100
AcDbEntity
  8
0
  6
Continuous
 62
     0
370
    30
100
AcDbLine
 10
276.42368
 20
1051.611574
 30
0.0
 11
281.32368
 21
1051.611574
 31
0.0
  0
LWPOLYLINE
  5
18C
330
118
100
AcDbEntity
  8
0
  6
Continuous
 62
     0
370
    30
100
AcDbPolyline
 90
       38
 70
     0
 43
0.0
 10
281.323669
 20
1034.861572
 10
281.323669
 20
1034.901123
 10
281.323669
 20
1035.019775
 10
281.323669
 20
1035.216309
 10
281.323669
 20
1035.489624
 10
281.323669
 20
1035.837769
 10
281.323669
 20
1036.257935
 10
281.323669
 20
1036.747192
 10
281.323669
 20
1037.302124
 10
281.323669
 20
1037.918945
 10
281.323669
 20
1038.592773
 10
281.323669
 20
1039.318848
 10
281.323669
 20
1040.092285
 10
281.323669
 20
1040.907227
 10
281.323669
 20
1041.757812
 10
281.323669
 20
1042.637817
 10
281.323669
 20
1043.541138
 10
281.323669
 20
1044.461304
 10
281.323669
 20
1045.391357
 10
281.323669
 20
1046.324829
 10
281.323669
 20
1047.255005
 10
281.323669
 20
1048.175293
 10
281.323669
 20
1049.078735
 10
281.323669
 20
1049.958984
 10
281.323669
 20
1050.809814
 10
281.323669
 20
1051.625
 10
281.323669
 20
1052.398682
 10
281.323669
 20
1053.125244
 10
281.323669
 20
1053.799438
 10
281.323669
 20
1054.416626
 10
281.323669
 20
1054.972168
 10
281.323669
 20
1055.461792
 10
281.323669
 20
1055.882568
 10
281.323669
 20
1056.231323
 10
281.323669
 20
1056.505127
 10
281.323669
 20
1056.702148
 10
281.323669
 20
1056.821411
 10
281.323669
 20
1056.861572
  0
LINE
  5
18D
330
118
100
AcDbEntity
  8
0
  6
Continuous
 62
     0
370
    30
100
AcDbLine
 10
311.82368
 20
1056.861574
 30
0.0
 11
307.92368
 21
1056.861574
 31
0.0
  0
LINE
  5
18E
330
118
100
AcDbEntity
  8
0
  6
Continuous
 62
     0
370
    30
100
AcDbLine
 10
300.72368
 20
1056.861574
 30
0.0
 11
281.32368
 21
1056.861574
 31
0.0
  0
LINE
  5
18F
330
118
100
AcDbEntity
  8
0
  6
Continuous
 62
     0
370
    30
100
AcDbLine
 10
311.82368
 20
1034.861574
 30
0.0
 11
311.82368
 21
1056.861574
 31
0.0
  0
LWPOLYLINE
  5
190
330
118
100
AcDbEntity
  8
0
  6
Continuous
 62
     0
370
     0
100
AcDbPolyline
 90
       24
 70
     0
 43
0.0
 10
307.923676
 20
1056.861572
 10
307.890594
 20
1056.850464
 10
307.787903
 20
1056.818237
 10
307.622925
 20
1056.766968
 10
307.399048
 20
1056.700806
 10
307.117615
 20
1056.624634
 10
306.784851
 20
1056.543579
 10
306.408844
 20
1056.463013
 10
305.993134
 20
1056.389038
 10
305.543304
 20
1056.327271
 10
305.068756
 20
1056.282593
 10
304.579163
 20
1056.259277
 10
304.084412
 20
1056.258911
 10
303.594482
 20
1056.281372
 10
303.119324
 20
1056.325439
 10
302.668518
 20
1056.386719
 10
302.251587
 20
1056.460449
 10
301.874237
 20
1056.540894
 10
301.539886
 20
1056.621948
 10
301.256622
 20
1056.698486
 10
301.030823
 20
1056.765015
 10
300.863953
 20
1056.816772
 10
300.759094
 20
1056.849731
 10
300.723694
 20
1056.861572
  0
LWPOLYLINE
  5
191
330
118
100
AcDbEntity
  8
0
  6
Continuous
 62
     0
370
     0
100
AcDbPolyline
 90
       24
 70
     0
 43
0.0
 10
300.723694
 20
1034.861572
 10
300.756836
 20
1034.872803
 10
300.859619
 20
1034.905029
 10
301.024658
 20
1034.956177
 10
301.248627
 20
1035.022461
 10
301.530121
 20
1035.098633
 10
301.862976
 20
1035.179688
 10
302.238983
 20
1035.260254
 10
302.654694
 20
1035.334229
 10
303.104523
 20
1035.395996
 10
303.579041
 20
1035.440674
 10
304.068604
 20
1035.463867
 10
304.563324
 20
1035.464233
 10
305.053192
 20
1035.441772
 10
305.52832
 20
1035.397583
 10
305.979065
 20
1035.336304
 10
306.395966
 20
1035.262695
 10
306.773285
 20
1035.182251
 10
307.107544
 20
1035.101196
 10
307.390747
 20
1035.024658
 10
307.616516
 20
1034.95813
 10
307.783447
 20
1034.906372
 10
307.888306
 20
1034.873535
 10
307.923676
 20
1034.861572
  0
LINE
  5
192
330
118
100
AcDbEntity
  8
0
  6
Continuous
 62
     0
370
    30
100
AcDbLine
 10
307.823677
 20
1056.861574
 30
0.0
 11
307.92368
 21
1056.861574
 31
0.0
  0
LINE
  5
193
330
118
100
AcDbEntity
  8
0
  6
Continuous
 62
     0
370
    30
100
AcDbLine
 10
300.72368
 20
1056.861574
 30
0.0
 11
300.823677
 21
1056.861574
 31
0.0
  0
LINE
  5
194
330
118
100
AcDbEntity
  8
0
  6
Continuous
 62
     0
370
    30
100
AcDbLine
 10
300.823677
 20
1034.861574
 30
0.0
 11
300.723673
 21
1034.861574
 31
0.0
  0
LINE
  5
195
330
118
100
AcDbEntity
  8
0
  6
Continuous
 62
     0
370
    30
100
AcDbLine
 10
307.92368
 20
1034.861574
 30
0.0
 11
307.823677
 21
1034.861574
 31
0.0
  0
LINE
  5
196
330
118
100
AcDbEntity
  8
0
  6
Continuous
 62
     0
370
    30
100
AcDbLine
 10
281.32368
 20
1034.861574
 30
0.0
 11
300.00104
 21
1034.861574
 31
0.0
  0
LINE
  5
197
330
118
100
AcDbEntity
  8
0
  6
Continuous
 62
     0
370
    30
100
AcDbLine
 10
311.82368
 20
1034.861574
 30
0.0
 11
307.92368
 21
1034.861574
 31
0.0
  0
LINE
  5
198
330
118
100
AcDbEntity
  8
0
  6
Continuous
 62
     0
370
    30
100
AcDbLine
 10
281.32368
 20
1040.111574
 30
0.0
 11
276.42368
 21
1040.111574
 31
0.0
  0
LINE
  5
199
330
118
100
AcDbEntity
  8
0
  6
Continuous
 62
     0
370
    30
100
AcDbLine
 10
302.496577
 20
994.928518
 30
0.0
 11
307.823677
 21
994.928518
 31
0.0
  0
LINE
  5
19A
330
118
100
AcDbEntity
  8
0
  6
Continuous
 62
     0
370
    30
100
AcDbLine
 10
300.823677
 20
994.928518
 30
0.0
 11
302.496577
 21
994.928518
 31
0.0
  0
LINE
  5
19B
330
118
100
AcDbEntity
  8
0
  6
Continuous
 62
     0
370
    30
100
AcDbLine
 10
302.600983
 20
994.728518
 30
0.0
 11
301.023681
 21
994.728518
 31
0.0
  0
LWPOLYLINE
  5
19C
330
118
100
AcDbEntity
  8
0
  6
Continuous
 62
     0
370
    30
100
AcDbPolyline
 90
       15
 70
     0
 43
0.0
 10
307.623657
 20
994.728516
 10
307.586212
 20
994.728516
 10
307.474426
 20
994.728516
 10
307.290802
 20
994.728516
 10
307.039673
 20
994.728516
 10
306.726562
 20
994.728516
 10
306.358795
 20
994.728516
 10
305.944611
 20
994.728516
 10
305.49353
 20
994.728516
 10
305.015747
 20
994.728516
 10
304.522247
 20
994.728516
 10
304.024231
 20
994.728516
 10
303.53299
 20
994.728516
 10
303.059784
 20
994.728516
 10
302.600983
 20
994.728516
  0
LINE
  5
19D
330
118
100
AcDbEntity
  8
0
  6
Continuous
 62
     0
370
    30
100
AcDbLine
 10
301.027189
 20
994.73143
 30
0.0
 11
300.830516
 21
994.928486
 31
0.0
  0
LINE
  5
19E
330
118
100
AcDbEntity
  8
0
  6
Continuous
 62
     0
370
    30
100
AcDbLine
 10
307.821848
 20
994.928511
 30
0.0
 11
307.622618
 21
994.729177
 31
0.0
  0
LINE
  5
19F
330
118
100
AcDbEntity
  8
0
  6
Continuous
 62
     0
370
    30
100
AcDbLine
 10
300.823677
 20
1034.861574
 30
0.0
 11
300.823677
 21
994.928518
 31
0.0
  0
LINE
  5
1A0
330
118
100
AcDbEntity
  8
0
  6
Continuous
 62
     0
370
    30
100
AcDbLine
 10
307.823677
 20
1034.861574
 30
0.0
 11
307.823677
 21
994.928518
 31
0.0
  0
LWPOLYLINE
  5
1A1
330
118
100
AcDbEntity
  8
0
  6
Continuous
 62
     0
370
    30
100
AcDbPolyline
 90
        4
 70
     0
 43
0.0
 10
307.823669
 20
1069.193848
 10
307.787415
 20
1069.193848
 10
307.684509
 20
1069.193848
 10
307.518738
 20
1069.193848
  0
LINE
  5
1A2
330
118
100
AcDbEntity
  8
0
  6
Continuous
 62
     0
370
    30
100
AcDbLine
 10
307.518728
 20
1069.193847
 30
0.0
 11
300.823677
 21
1069.193847
 31
0.0
  0
LINE
  5
1A3
330
118
100
AcDbEntity
  8
0
  6
Continuous
 62
     0
370
    30
100
AcDbLine
 10
301.023709
 20
1069.393847
 30
0.0
 11
307.336153
 21
1069.393847
 31
0.0
  0
LINE
  5
1A4
330
118
100
AcDbEntity
  8
0
  6
Continuous
 62
     0
370
    30
100
AcDbLine
 10
307.336153
 20
1069.393847
 30
0.0
 11
307.623645
 21
1069.393847
 31
0.0
  0
LINE
  5
1A5
330
118
100
AcDbEntity
  8
0
  6
Continuous
 62
     0
370
    30
100
AcDbLine
 10
301.023172
 20
1069.393596
 30
0.0
 11
300.823709
 21
1069.194149
 31
0.0
  0
LINE
  5
1A6
330
118
100
AcDbEntity
  8
0
  6
Continuous
 62
     0
370
    30
100
AcDbLine
 10
307.819389
 20
1069.193849
 30
0.0
 11
307.621637
 21
1069.391844
 31
0.0
  0
LINE
  5
1A7
330
118
100
AcDbEntity
  8
0
  6
Continuous
 62
     0
370
    30
100
AcDbLine
 10
300.823677
 20
1056.861574
 30
0.0
 11
300.823677
 21
1069.193847
 31
0.0
  0
LINE
  5
1A8
330
118
100
AcDbEntity
  8
0
  6
Continuous
 62
     0
370
    30
100
AcDbLine
 10
307.823677
 20
1056.861574
 30
0.0
 11
307.823677
 21
1069.193847
 31
0.0
  0
LWPOLYLINE
  5
1A9
330
118
100
AcDbEntity
  8
0
  6
Continuous
 62
     0
370
    30
100
AcDbPolyline
 90
       37
 70
     0
 43
0.0
 10
249.423721
 20
1118.360596
 10
249.423721
 20
1118.401123
 10
249.423721
 20
1118.520508
 10
249.423721
 20
1118.714966
 10
249.423721
 20
1118.980225
 10
249.423721
 20
1119.312012
 10
249.423721
 20
1119.705322
 10
249.423721
 20
1120.155273
 10
249.423721
 20
1120.66748
 10
249.423721
 20
1121.252319
 10
249.423721
 20
1121.911621
 10
249.423721
 20
1122.64624
 10
249.423721
 20
1123.456787
 10
249.423721
 20
1124.343018
 10
249.423721
 20
1125.303711
 10
249.423721
 20
1126.337524
 10
249.423721
 20
1127.44165
 10
249.423721
 20
1128.612915
 10
249.423721
 20
1129.847412
 10
249.423721
 20
1131.140137
 10
249.423721
 20
1132.48584
 10
249.423721
 20
1133.878296
 10
249.423721
 20
1135.310913
 10
249.423721
 20
1136.776855
 10
249.423721
 20
1138.268677
 10
249.423721
 20
1139.778931
 10
249.423721
 20
1141.300049
 10
249.423721
 20
1142.824707
 10
249.423721
 20
1144.345459
 10
249.423721
 20
1145.855347
 10
249.423721
 20
1147.347656
 10
249.423721
 20
1148.816284
 10
249.423721
 20
1150.255737
 10
249.423721
 20
1151.660645
 10
249.423721
 20
1153.026855
 10
249.423721
 20
1154.350342
 10
249.423721
 20
1155.640381
  0
LINE
  5
1AA
330
118
100
AcDbEntity
  8
0
  6
Continuous
 62
     0
370
    30
100
AcDbLine
 10
249.423725
 20
1155.640407
 30
0.0
 11
249.423723
 21
1173.360612
 31
0.0
  0
LINE
  5
1AB
330
118
100
AcDbEntity
  8
0
  6
Continuous
 62
     0
370
    30
100
AcDbLine
 10
245.423723
 20
1173.360612
 30
0.0
 11
245.423725
 21
1155.640407
 31
0.0
  0
LINE
  5
1AC
330
118
100
AcDbEntity
  8
0
  6
Continuous
 62
     0
370
    30
100
AcDbLine
 10
245.423725
 20
1155.640407
 30
0.0
 11
245.423723
 21
1118.360612
 31
0.0
  0
LINE
  5
1AD
330
118
100
AcDbEntity
  8
0
  6
Continuous
 62
     0
370
    30
100
AcDbLine
 10
249.423723
 20
1118.360612
 30
0.0
 11
245.423723
 21
1118.360612
 31
0.0
  0
LINE
  5
1AE
330
118
100
AcDbEntity
  8
0
  6
Continuous
 62
     0
370
    30
100
AcDbLine
 10
249.423723
 20
1173.360612
 30
0.0
 11
245.423723
 21
1173.360612
 31
0.0
  0
LINE
  5
1AF
330
118
100
AcDbEntity
  8
0
  6
Continuous
 62
     0
370
    30
100
AcDbLine
 10
276.423724
 20
1161.86083
 30
0.0
 11
276.423726
 21
1145.860612
 31
0.0
  0
LINE
  5
1B0
330
118
100
AcDbEntity
  8
0
  6
Continuous
 62
     0
370
    30
100
AcDbLine
 10
276.423726
 20
1145.860612
 30
0.0
 11
276.423724
 21
1129.860394
 31
0.0
  0
LINE
  5
1B1
330
118
100
AcDbEntity
  8
0
  6
Continuous
 62
     0
370
    30
100
AcDbLine
 10
276.423724
 20
1161.860612
 30
0.0
 11
249.423711
 21
1161.860612
 31
0.0
  0
LINE
  5
1B2
330
118
100
AcDbEntity
  8
0
  6
Continuous
 62
     0
370
    30
100
AcDbLine
 10
249.423711
 20
1129.860612
 30
0.0
 11
276.423724
 21
1129.860612
 31
0.0
  0
LINE
  5
1B3
330
118
100
AcDbEntity
  8
0
  6
Continuous
 62
     0
370
    30
100
AcDbLine
 10
276.423725
 20
1151.610612
 30
0.0
 11
281.323725
 21
1151.610612
 31
0.0
  0
LWPOLYLINE
  5
1B4
330
118
100
AcDbEntity
  8
0
  6
Continuous
 62
     0
370
    30
100
AcDbPolyline
 90
       38
 70
     0
 43
0.0
 10
281.32373
 20
1134.860596
 10
281.32373
 20
1134.900269
 10
281.32373
 20
1135.018799
 10
281.32373
 20
1135.215332
 10
281.32373
 20
1135.488647
 10
281.32373
 20
1135.836792
 10
281.32373
 20
1136.25708
 10
281.32373
 20
1136.746216
 10
281.32373
 20
1137.301147
 10
281.32373
 20
1137.917969
 10
281.32373
 20
1138.591797
 10
281.32373
 20
1139.317871
 10
281.32373
 20
1140.091309
 10
281.32373
 20
1140.90625
 10
281.32373
 20
1141.756836
 10
281.32373
 20
1142.636841
 10
281.32373
 20
1143.540283
 10
281.32373
 20
1144.460327
 10
281.32373
 20
1145.390381
 10
281.32373
 20
1146.323975
 10
281.32373
 20
1147.25415
 10
281.32373
 20
1148.174316
 10
281.32373
 20
1149.077759
 10
281.32373
 20
1149.958008
 10
281.32373
 20
1150.808838
 10
281.32373
 20
1151.624023
 10
281.32373
 20
1152.397827
 10
281.32373
 20
1153.124268
 10
281.32373
 20
1153.798462
 10
281.32373
 20
1154.415649
 10
281.32373
 20
1154.971191
 10
281.32373
 20
1155.460815
 10
281.32373
 20
1155.881592
 10
281.32373
 20
1156.230347
 10
281.32373
 20
1156.50415
 10
281.32373
 20
1156.701172
 10
281.32373
 20
1156.820435
 10
281.32373
 20
1156.860596
  0
LINE
  5
1B5
330
118
100
AcDbEntity
  8
0
  6
Continuous
 62
     0
370
    30
100
AcDbLine
 10
311.823725
 20
1156.860612
 30
0.0
 11
307.923725
 21
1156.860612
 31
0.0
  0
LINE
  5
1B6
330
118
100
AcDbEntity
  8
0
  6
Continuous
 62
     0
370
    30
100
AcDbLine
 10
300.723725
 20
1156.860612
 30
0.0
 11
281.323725
 21
1156.860612
 31
0.0
  0
LINE
  5
1B7
330
118
100
AcDbEntity
  8
0
  6
Continuous
 62
     0
370
    30
100
AcDbLine
 10
311.823725
 20
1134.860612
 30
0.0
 11
311.823725
 21
1156.860612
 31
0.0
  0
LWPOLYLINE
  5
1B8
330
118
100
AcDbEntity
  8
0
  6
Continuous
 62
     0
370
     0
100
AcDbPolyline
 90
       24
 70
     0
 43
0.0
 10
307.923737
 20
1156.860596
 10
307.890656
 20
1156.849487
 10
307.787933
 20
1156.817261
 10
307.622955
 20
1156.766113
 10
307.399078
 20
1156.699829
 10
307.117676
 20
1156.623657
 10
306.784882
 20
1156.542603
 10
306.408875
 20
1156.462036
 10
305.993164
 20
1156.388062
 10
305.543335
 20
1156.326294
 10
305.068817
 20
1156.281616
 10
304.579224
 20
1156.258301
 10
304.084473
 20
1156.257935
 10
303.594543
 20
1156.280396
 10
303.119354
 20
1156.324585
 10
302.668549
 20
1156.385742
 10
302.251617
 20
1156.459473
 10
301.874298
 20
1156.539917
 10
301.539948
 20
1156.620972
 10
301.256653
 20
1156.69751
 10
301.030884
 20
1156.764038
 10
300.863983
 20
1156.815796
 10
300.759155
 20
1156.848755
 10
300.723724
 20
1156.860596
  0
LWPOLYLINE
  5
1B9
330
118
100
AcDbEntity
  8
0
  6
Continuous
 62
     0
370
     0
100
AcDbPolyline
 90
       24
 70
     0
 43
0.0
 10
300.723724
 20
1134.860596
 10
300.756866
 20
1134.871826
 10
300.85965
 20
1134.904053
 10
301.024689
 20
1134.9552
 10
301.248657
 20
1135.021484
 10
301.530151
 20
1135.097656
 10
301.863007
 20
1135.178711
 10
302.239014
 20
1135.259277
 10
302.654724
 20
1135.333252
 10
303.104553
 20
1135.39502
 10
303.579071
 20
1135.439697
 10
304.068634
 20
1135.462891
 10
304.563354
 20
1135.463257
 10
305.053223
 20
1135.440796
 10
305.528351
 20
1135.396606
 10
305.979095
 20
1135.335449
 10
306.396027
 20
1135.261719
 10
306.773315
 20
1135.181274
 10
307.107574
 20
1135.10022
 10
307.390808
 20
1135.023682
 10
307.616577
 20
1134.957153
 10
307.783478
 20
1134.905396
 10
307.888336
 20
1134.872559
 10
307.923737
 20
1134.860596
  0
LINE
  5
1BA
330
118
100
AcDbEntity
  8
0
  6
Continuous
 62
     0
370
    30
100
AcDbLine
 10
307.823721
 20
1156.860612
 30
0.0
 11
307.923725
 21
1156.860612
 31
0.0
  0
LINE
  5
1BB
330
118
100
AcDbEntity
  8
0
  6
Continuous
 62
     0
370
    30
100
AcDbLine
 10
300.723725
 20
1156.860612
 30
0.0
 11
300.823721
 21
1156.860612
 31
0.0
  0
LINE
  5
1BC
330
118
100
AcDbEntity
  8
0
  6
Continuous
 62
     0
370
    30
100
AcDbLine
 10
300.823721
 20
1134.860612
 30
0.0
 11
300.723718
 21
1134.860612
 31
0.0
  0
LINE
  5
1BD
330
118
100
AcDbEntity
  8
0
  6
Continuous
 62
     0
370
    30
100
AcDbLine
 10
307.923725
 20
1134.860612
 30
0.0
 11
307.823721
 21
1134.860612
 31
0.0
  0
LINE
  5
1BE
330
118
100
AcDbEntity
  8
0
  6
Continuous
 62
     0
370
    30
100
AcDbLine
 10
281.323725
 20
1134.860612
 30
0.0
 11
300.001085
 21
1134.860612
 31
0.0
  0
LINE
  5
1BF
330
118
100
AcDbEntity
  8
0
  6
Continuous
 62
     0
370
    30
100
AcDbLine
 10
311.823725
 20
1134.860612
 30
0.0
 11
307.923725
 21
1134.860612
 31
0.0
  0
LINE
  5
1C0
330
118
100
AcDbEntity
  8
0
  6
Continuous
 62
     0
370
    30
100
AcDbLine
 10
281.323725
 20
1140.110612
 30
0.0
 11
276.423725
 21
1140.110612
 31
0.0
  0
LINE
  5
1C1
330
118
100
AcDbEntity
  8
0
  6
Continuous
 62
     0
370
    30
100
AcDbLine
 10
302.496622
 20
1094.927555
 30
0.0
 11
307.823721
 21
1094.927555
 31
0.0
  0
LINE
  5
1C2
330
118
100
AcDbEntity
  8
0
  6
Continuous
 62
     0
370
    30
100
AcDbLine
 10
300.823721
 20
1094.927555
 30
0.0
 11
302.496622
 21
1094.927555
 31
0.0
  0
LINE
  5
1C3
330
118
100
AcDbEntity
  8
0
  6
Continuous
 62
     0
370
    30
100
AcDbLine
 10
302.601027
 20
1094.727555
 30
0.0
 11
301.023726
 21
1094.727555
 31
0.0
  0
LWPOLYLINE
  5
1C4
330
118
100
AcDbEntity
  8
0
  6
Continuous
 62
     0
370
    30
100
AcDbPolyline
 90
       15
 70
     0
 43
0.0
 10
307.623718
 20
1094.727539
 10
307.586243
 20
1094.727539
 10
307.474457
 20
1094.727539
 10
307.290863
 20
1094.727539
 10
307.039703
 20
1094.727539
 10
306.726624
 20
1094.727539
 10
306.358856
 20
1094.727539
 10
305.944641
 20
1094.727539
 10
305.493591
 20
1094.727539
 10
305.015808
 20
1094.727539
 10
304.522308
 20
1094.727539
 10
304.024261
 20
1094.727539
 10
303.53302
 20
1094.727539
 10
303.059845
 20
1094.727539
 10
302.601013
 20
1094.727539
  0
LINE
  5
1C5
330
118
100
AcDbEntity
  8
0
  6
Continuous
 62
     0
370
    30
100
AcDbLine
 10
301.027234
 20
1094.730467
 30
0.0
 11
300.830561
 21
1094.927524
 31
0.0
  0
LINE
  5
1C6
330
118
100
AcDbEntity
  8
0
  6
Continuous
 62
     0
370
    30
100
AcDbLine
 10
307.821893
 20
1094.927549
 30
0.0
 11
307.622663
 21
1094.728215
 31
0.0
  0
LINE
  5
1C7
330
118
100
AcDbEntity
  8
0
  6
Continuous
 62
     0
370
    30
100
AcDbLine
 10
300.823721
 20
1134.860612
 30
0.0
 11
300.823721
 21
1094.927555
 31
0.0
  0
LINE
  5
1C8
330
118
100
AcDbEntity
  8
0
  6
Continuous
 62
     0
370
    30
100
AcDbLine
 10
307.823721
 20
1134.860612
 30
0.0
 11
307.823721
 21
1094.927555
 31
0.0
  0
LWPOLYLINE
  5
1C9
330
118
100
AcDbEntity
  8
0
  6
Continuous
 62
     0
370
    30
100
AcDbPolyline
 90
        4
 70
     0
 43
0.0
 10
307.82373
 20
1169.192871
 10
307.787445
 20
1169.192871
 10
307.68454
 20
1169.192871
 10
307.518768
 20
1169.192871
  0
LINE
  5
1CA
330
118
100
AcDbEntity
  8
0
  6
Continuous
 62
     0
370
    30
100
AcDbLine
 10
307.518772
 20
1169.192884
 30
0.0
 11
300.823721
 21
1169.192884
 31
0.0
  0
LINE
  5
1CB
330
118
100
AcDbEntity
  8
0
  6
Continuous
 62
     0
370
    30
100
AcDbLine
 10
301.023753
 20
1169.392884
 30
0.0
 11
307.336198
 21
1169.392884
 31
0.0
  0
LINE
  5
1CC
330
118
100
AcDbEntity
  8
0
  6
Continuous
 62
     0
370
    30
100
AcDbLine
 10
307.336198
 20
1169.392884
 30
0.0
 11
307.623689
 21
1169.392884
 31
0.0
  0
LINE
  5
1CD
330
118
100
AcDbEntity
  8
0
  6
Continuous
 62
     0
370
    30
100
AcDbLine
 10
301.023216
 20
1169.392634
 30
0.0
 11
300.823754
 21
1169.193187
 31
0.0
  0
LINE
  5
1CE
330
118
100
AcDbEntity
  8
0
  6
Continuous
 62
     0
370
    30
100
AcDbLine
 10
307.819434
 20
1169.192887
 30
0.0
 11
307.621681
 21
1169.390882
 31
0.0
  0
LINE
  5
1CF
330
118
100
AcDbEntity
  8
0
  6
Continuous
 62
     0
370
    30
100
AcDbLine
 10
300.823721
 20
1156.860612
 30
0.0
 11
300.823721
 21
1169.192884
 31
0.0
  0
LINE
  5
1D0
330
118
100
AcDbEntity
  8
0
  6
Continuous
 62
     0
370
    30
100
AcDbLine
 10
307.823721
 20
1156.860612
 30
0.0
 11
307.823721
 21
1169.192884
 31
0.0
  0
ENDBLK
  5
1D2
330
118
100
AcDbEntity
  8
0
100
AcDbBlockEnd
  0
BLOCK
  5
28D
330
1D4
100
AcDbEntity
  8
0
100
AcDbBlockBegin
  2
d
 70
     0
 10
-37.617874
 20
0.0
 30
0.0
  3
d
  1

  0
LWPOLYLINE
  5
1D5
330
1D4
100
AcDbEntity
  8
0
  6
Continuous
 62
     0
370
    30
100
AcDbPolyline
 90
       84
 70
     0
 43
0.0
 10
-76.890335
 20
780.864258
 10
-76.890335
 20
780.825134
 10
-76.890335
 20
780.706848
 10
-76.890335
 20
780.509949
 10
-76.890335
 20
780.234924
 10
-76.890335
 20
779.882202
 10
-76.890335
 20
779.452393
 10
-76.890335
 20
778.945923
 10
-76.890335
 20
778.363281
 10
-76.890335
 20
777.705078
 10
-76.890335
 20
776.97229
 10
-76.890335
 20
776.166321
 10
-76.890335
 20
775.288513
 10
-76.890335
 20
774.34021
 10
-76.890335
 20
773.322754
 10
-76.890335
 20
772.237488
 10
-76.890335
 20
771.085815
 10
-76.890335
 20
769.869019
 10
-76.890335
 20
768.588867
 10
-76.890335
 20
767.247375
 10
-76.890335
 20
765.84668
 10
-76.890335
 20
764.388916
 10
-76.890335
 20
762.876221
 10
-76.890335
 20
761.310669
 10
-76.890335
 20
759.694397
 10
-76.890335
 20
758.029541
 10
-76.890335
 20
756.318359
 10
-76.890335
 20
754.563354
 10
-76.890335
 20
752.767334
 10
-76.890335
 20
750.932861
 10
-76.890335
 20
749.062622
 10
-76.890335
 20
747.159363
 10
-76.890335
 20
745.225586
 10
-76.890335
 20
743.264099
 10
-76.890335
 20
741.277527
 10
-76.890335
 20
739.268799
 10
-76.890335
 20
737.240845
 10
-76.890335
 20
735.196533
 10
-76.890335
 20
733.138977
 10
-76.890335
 20
731.071045
 10
-76.890335
 20
728.995667
 10
-76.890335
 20
726.915833
 10
-76.890335
 20
724.834534
 10
-76.890335
 20
722.7547
 10
-76.890335
 20
720.67926
 10
-76.890335
 20
718.611267
 10
-76.890335
 20
716.553528
 10
-76.890335
 20
714.509094
 10
-76.890335
 20
712.480957
 10
-76.890335
 20
710.471985
 10
-76.890335
 20
708.485168
 10
-76.890335
 20
706.523376
 10
-76.890335
 20
704.589355
 10
-76.890335
 20
702.68573
 10
-76.890335
 20
700.815125
 10
-76.890335
 20
698.980286
 10
-76.890335
 20
697.183838
 10
-76.890335
 20
695.428406
 10
-76.890335
 20
693.716736
 10
-76.890335
 20
692.051392
 10
-76.890335
 20
690.43457
 10
-76.890335
 20
688.86853
 10
-76.890335
 20
687.355225
 10
-76.890335
 20
685.896912
 10
-76.890335
 20
684.495605
 10
-76.890335
 20
683.153442
 10
-76.890335
 20
681.87262
 10
-76.890335
 20
680.655151
 10
-76.890335
 20
679.502808
 10
-76.890335
 20
678.416809
 10
-76.890335
 20
677.398682
 10
-76.890335
 20
676.449585
 10
-76.890335
 20
675.571045
 10
-76.890335
 20
674.764343
 10
-76.890335
 20
674.030762
 10
-76.890335
 20
673.371765
 10
-76.890335
 20
672.78833
 10
-76.890335
 20
672.281067
 10
-76.890335
 20
671.850403
 10
-76.890335
 20
671.496887
 10
-76.890335
 20
671.221069
 10
-76.890335
 20
671.023315
 10
-76.890335
 20
670.904236
 10
-76.890335
 20
670.864258
  0
LINE
  5
1D6
330
1D4
100
AcDbEntity
  8
0
  6
Continuous
 62
     0
370
    30
100
AcDbLine
 10
-76.890335
 20
670.864258
 30
0.0
 11
-80.890336
 21
670.864258
 31
0.0
  0
LINE
  5
1D7
330
1D4
100
AcDbEntity
  8
0
  6
Continuous
 62
     0
370
    30
100
AcDbLine
 10
-80.890336
 20
780.864258
 30
0.0
 11
-80.890336
 21
670.864258
 31
0.0
  0
LWPOLYLINE
  5
1D8
330
1D4
100
AcDbEntity
  8
0
  6
Continuous
 62
     0
370
    30
100
AcDbPolyline
 90
       53
 70
     0
 43
0.0
 10
-133.090332
 20
703.864258
 10
-133.090332
 20
703.904297
 10
-133.090332
 20
704.024719
 10
-133.090332
 20
704.224731
 10
-133.090332
 20
704.503418
 10
-133.090332
 20
704.860107
 10
-133.090332
 20
705.293762
 10
-133.090332
 20
705.802551
 10
-133.090332
 20
706.384399
 10
-133.090332
 20
707.037048
 10
-133.090332
 20
707.75824
 10
-133.090332
 20
708.545837
 10
-133.090332
 20
709.396851
 10
-133.090332
 20
710.307861
 10
-133.090332
 20
711.275391
 10
-133.090332
 20
712.296082
 10
-133.090332
 20
713.366394
 10
-133.090332
 20
714.482483
 10
-133.090332
 20
715.640137
 10
-133.090332
 20
716.8349
 10
-133.090332
 20
718.0625
 10
-133.090332
 20
719.318665
 10
-133.090332
 20
720.598755
 10
-133.090332
 20
721.898132
 10
-133.090332
 20
723.211975
 10
-133.090332
 20
724.5354
 10
-133.090332
 20
725.863647
 10
-133.090332
 20
727.191895
 10
-133.090332
 20
728.515381
 10
-133.090332
 20
729.829163
 10
-133.090332
 20
731.128601
 10
-133.090332
 20
732.408752
 10
-133.090332
 20
733.664856
 10
-133.090332
 20
734.892517
 10
-133.090332
 20
736.087341
 10
-133.090332
 20
737.244995
 10
-133.090332
 20
738.361145
 10
-133.090332
 20
739.431519
 10
-133.090332
 20
740.452209
 10
-133.090332
 20
741.4198
 10
-133.090332
 20
742.330872
 10
-133.090332
 20
743.181946
 10
-133.090332
 20
743.969604
 10
-133.090332
 20
744.690857
 10
-133.090332
 20
745.343567
 10
-133.090332
 20
745.925476
 10
-133.090332
 20
746.434387
 10
-133.090332
 20
746.868042
 10
-133.090332
 20
747.224792
 10
-133.090332
 20
747.503601
 10
-133.090332
 20
747.703613
 10
-133.090332
 20
747.824158
 10
-133.090332
 20
747.864258
  0
LINE
  5
1D9
330
1D4
100
AcDbEntity
  8
0
  6
Continuous
 62
     0
370
    30
100
AcDbLine
 10
-133.090336
 20
747.864267
 30
0.0
 11
-127.640355
 21
747.864267
 31
0.0
  0
LINE
  5
1DA
330
1D4
100
AcDbEntity
  8
0
  6
Continuous
 62
     0
370
    30
100
AcDbLine
 10
-120.540355
 20
747.864267
 30
0.0
 11
-83.090336
 21
747.864267
 31
0.0
  0
LINE
  5
1DB
330
1D4
100
AcDbEntity
  8
0
  6
Continuous
 62
     0
370
    30
100
AcDbLine
 10
-83.090336
 20
703.864249
 30
0.0
 11
-83.090336
 21
747.864267
 31
0.0
  0
LWPOLYLINE
  5
1DC
330
1D4
100
AcDbEntity
  8
0
  6
Continuous
 62
     0
370
     0
100
AcDbPolyline
 90
       23
 70
     0
 43
0.0
 10
-120.540352
 20
747.864258
 10
-120.576393
 20
747.858459
 10
-120.684479
 20
747.841553
 10
-120.861313
 20
747.814941
 10
-121.101173
 20
747.780579
 10
-121.403191
 20
747.741455
 10
-121.761673
 20
747.700745
 10
-122.164505
 20
747.661255
 10
-122.606628
 20
747.626465
 10
-123.080124
 20
747.599426
 10
-123.574265
 20
747.582153
 10
-124.078949
 20
747.575867
 10
-124.58387
 20
747.581604
 10
-125.078674
 20
747.59845
 10
-125.553246
 20
747.625122
 10
-125.997009
 20
747.659607
 10
-126.401772
 20
747.698914
 10
-126.762451
 20
747.739685
 10
-127.06723
 20
747.778931
 10
-127.309914
 20
747.813538
 10
-127.489799
 20
747.840576
 10
-127.601089
 20
747.85791
 10
-127.640358
 20
747.864258
  0
LWPOLYLINE
  5
1DD
330
1D4
100
AcDbEntity
  8
0
  6
Continuous
 62
     0
370
     0
100
AcDbPolyline
 90
       18
 70
     0
 43
0.0
 10
-126.240334
 20
703.864258
 10
-126.203094
 20
703.867798
 10
-126.094978
 20
703.87793
 10
-125.920105
 20
703.893311
 10
-125.681923
 20
703.911743
 10
-125.390312
 20
703.930908
 10
-125.055885
 20
703.948303
 10
-124.686798
 20
703.961426
 10
-124.297279
 20
703.968506
 10
-123.901161
 20
703.968689
 10
-123.510986
 20
703.961853
 10
-123.140602
 20
703.948975
 10
-122.804512
 20
703.931763
 10
-122.510841
 20
703.912598
 10
-122.26992
 20
703.894104
 10
-122.092239
 20
703.87854
 10
-121.981125
 20
703.868164
 10
-121.940361
 20
703.864258
  0
LINE
  5
1DE
330
1D4
100
AcDbEntity
  8
0
  6
Continuous
 62
     0
370
    30
100
AcDbLine
 10
-120.590355
 20
755.514267
 30
0.0
 11
-127.590355
 21
755.514267
 31
0.0
  0
LINE
  5
1DF
330
1D4
100
AcDbEntity
  8
0
  6
Continuous
 62
     0
370
    30
100
AcDbLine
 10
-127.390355
 20
755.714267
 30
0.0
 11
-127.590355
 21
755.514267
 31
0.0
  0
LINE
  5
1E0
330
1D4
100
AcDbEntity
  8
0
  6
Continuous
 62
     0
370
    30
100
AcDbLine
 10
-120.790355
 20
755.714267
 30
0.0
 11
-127.390355
 21
755.714267
 31
0.0
  0
LINE
  5
1E1
330
1D4
100
AcDbEntity
  8
0
  6
Continuous
 62
     0
370
    30
100
AcDbLine
 10
-127.590355
 20
747.864234
 30
0.0
 11
-127.590355
 21
755.514267
 31
0.0
  0
LWPOLYLINE
  5
1E2
330
1D4
100
AcDbEntity
  8
0
  6
Continuous
 62
     0
370
    30
100
AcDbPolyline
 90
       22
 70
     0
 43
0.0
 10
-127.590355
 20
747.864258
 10
-127.55117
 20
747.858032
 10
-127.434479
 20
747.839966
 10
-127.243324
 20
747.811707
 10
-126.981972
 20
747.775696
 10
-126.656387
 20
747.735107
 10
-126.273735
 20
747.693481
 10
-125.842224
 20
747.654663
 10
-125.371216
 20
747.622009
 10
-124.871468
 20
747.598145
 10
-124.353874
 20
747.585754
 10
-123.830055
 20
747.585815
 10
-123.312225
 20
747.598022
 10
-122.812416
 20
747.621765
 10
-122.341415
 20
747.654541
 10
-121.909477
 20
747.693298
 10
-121.526482
 20
747.734863
 10
-121.200516
 20
747.775452
 10
-120.938721
 20
747.811523
 10
-120.747261
 20
747.839722
 10
-120.630234
 20
747.857849
 10
-120.590355
 20
747.864258
  0
LINE
  5
1E3
330
1D4
100
AcDbEntity
  8
0
  6
Continuous
 62
     0
370
    30
100
AcDbLine
 10
-120.590355
 20
755.514267
 30
0.0
 11
-120.790355
 21
755.714267
 31
0.0
  0
LINE
  5
1E4
330
1D4
100
AcDbEntity
  8
0
  6
Continuous
 62
     0
370
    30
100
AcDbLine
 10
-120.590355
 20
755.514267
 30
0.0
 11
-120.590355
 21
747.864234
 31
0.0
  0
LWPOLYLINE
  5
1E5
330
1D4
100
AcDbEntity
  8
0
  6
Continuous
 62
     0
370
    30
100
AcDbPolyline
 90
        3
 70
     0
 43
0.0
 10
-126.240334
 20
703.864258
 10
-124.151787
 20
703.8526
 10
-121.940361
 20
703.864258
  0
LINE
  5
1E6
330
1D4
100
AcDbEntity
  8
0
  6
Continuous
 62
     0
370
    30
100
AcDbLine
 10
-120.540355
 20
747.864267
 30
0.0
 11
-120.590356
 21
747.864234
 31
0.0
  0
LINE
  5
1E7
330
1D4
100
AcDbEntity
  8
0
  6
Continuous
 62
     0
370
    30
100
AcDbLine
 10
-127.640355
 20
747.864267
 30
0.0
 11
-127.590355
 21
747.864234
 31
0.0
  0
LINE
  5
1E8
330
1D4
100
AcDbEntity
  8
0
  6
Continuous
 62
     0
370
    30
100
AcDbLine
 10
-133.090336
 20
703.864249
 30
0.0
 11
-126.240336
 21
703.864249
 31
0.0
  0
LINE
  5
1E9
330
1D4
100
AcDbEntity
  8
0
  6
Continuous
 62
     0
370
    30
100
AcDbLine
 10
-83.090336
 20
703.864249
 30
0.0
 11
-121.940363
 21
703.864249
 31
0.0
  0
LINE
  5
1EA
330
1D4
100
AcDbEntity
  8
0
  6
Continuous
 62
     0
370
    30
100
AcDbLine
 10
-80.890335
 20
705.964258
 30
0.0
 11
-83.090336
 21
705.964258
 31
0.0
  0
LINE
  5
1EB
330
1D4
100
AcDbEntity
  8
0
  6
Continuous
 62
     0
370
    30
100
AcDbLine
 10
-83.090336
 20
745.764258
 30
0.0
 11
-80.890335
 21
745.764258
 31
0.0
  0
LINE
  5
1EC
330
1D4
100
AcDbEntity
  8
0
  6
Continuous
 62
     0
370
    30
100
AcDbLine
 10
-80.890336
 20
780.864258
 30
0.0
 11
-76.890335
 21
780.864258
 31
0.0
  0
LINE
  5
1ED
330
1D4
100
AcDbEntity
  8
0
  6
Continuous
 62
     0
370
    30
100
AcDbLine
 10
-80.890351
 20
836.082991
 30
0.0
 11
-80.89035
 21
818.362785
 31
0.0
  0
LWPOLYLINE
  5
1EE
330
1D4
100
AcDbEntity
  8
0
  6
Continuous
 62
     0
370
    30
100
AcDbPolyline
 90
       37
 70
     0
 43
0.0
 10
-80.89035
 20
873.362793
 10
-80.89035
 20
873.322266
 10
-80.89035
 20
873.202942
 10
-80.89035
 20
873.008484
 10
-80.89035
 20
872.743103
 10
-80.89035
 20
872.411377
 10
-80.89035
 20
872.018005
 10
-80.89035
 20
871.568115
 10
-80.89035
 20
871.055969
 10
-80.89035
 20
870.471069
 10
-80.89035
 20
869.811768
 10
-80.89035
 20
869.077087
 10
-80.89035
 20
868.266602
 10
-80.89035
 20
867.380432
 10
-80.89035
 20
866.419678
 10
-80.89035
 20
865.385925
 10
-80.89035
 20
864.281738
 10
-80.89035
 20
863.110413
 10
-80.89035
 20
861.875977
 10
-80.89035
 20
860.583252
 10
-80.89035
 20
859.23761
 10
-80.89035
 20
857.845154
 10
-80.89035
 20
856.412476
 10
-80.89035
 20
854.946594
 10
-80.89035
 20
853.454773
 10
-80.89035
 20
851.944458
 10
-80.89035
 20
850.42334
 10
-80.89035
 20
848.898682
 10
-80.89035
 20
847.377991
 10
-80.89035
 20
845.868103
 10
-80.89035
 20
844.375732
 10
-80.89035
 20
842.907043
 10
-80.89035
 20
841.467712
 10
-80.89035
 20
840.062683
 10
-80.89035
 20
838.696533
 10
-80.89035
 20
837.373047
 10
-80.89035
 20
836.083008
  0
LINE
  5
1EF
330
1D4
100
AcDbEntity
  8
0
  6
Continuous
 62
     0
370
    30
100
AcDbLine
 10
-76.890351
 20
836.082991
 30
0.0
 11
-76.89035
 21
873.362785
 31
0.0
  0
LINE
  5
1F0
330
1D4
100
AcDbEntity
  8
0
  6
Continuous
 62
     0
370
    30
100
AcDbLine
 10
-76.89035
 20
818.362785
 30
0.0
 11
-76.890351
 21
836.082991
 31
0.0
  0
LINE
  5
1F1
330
1D4
100
AcDbEntity
  8
0
  6
Continuous
 62
     0
370
    30
100
AcDbLine
 10
-80.89035
 20
818.362785
 30
0.0
 11
-76.89035
 21
818.362785
 31
0.0
  0
LINE
  5
1F2
330
1D4
100
AcDbEntity
  8
0
  6
Continuous
 62
     0
370
    30
100
AcDbLine
 10
-80.89035
 20
873.362785
 30
0.0
 11
-76.89035
 21
873.362785
 31
0.0
  0
LINE
  5
1F3
330
1D4
100
AcDbEntity
  8
0
  6
Continuous
 62
     0
370
    30
100
AcDbLine
 10
-107.89035
 20
845.862785
 30
0.0
 11
-107.89035
 21
861.863003
 31
0.0
  0
LINE
  5
1F4
330
1D4
100
AcDbEntity
  8
0
  6
Continuous
 62
     0
370
    30
100
AcDbLine
 10
-107.89035
 20
829.862567
 30
0.0
 11
-107.89035
 21
845.862785
 31
0.0
  0
LINE
  5
1F5
330
1D4
100
AcDbEntity
  8
0
  6
Continuous
 62
     0
370
    30
100
AcDbLine
 10
-107.89035
 20
861.862785
 30
0.0
 11
-80.890338
 21
861.862785
 31
0.0
  0
LINE
  5
1F6
330
1D4
100
AcDbEntity
  8
0
  6
Continuous
 62
     0
370
    30
100
AcDbLine
 10
-80.890338
 20
829.862785
 30
0.0
 11
-107.89035
 21
829.862785
 31
0.0
  0
LINE
  5
1F7
330
1D4
100
AcDbEntity
  8
0
  6
Continuous
 62
     0
370
    30
100
AcDbLine
 10
-107.890349
 20
851.612785
 30
0.0
 11
-112.790352
 21
851.612785
 31
0.0
  0
LWPOLYLINE
  5
1F8
330
1D4
100
AcDbEntity
  8
0
  6
Continuous
 62
     0
370
    30
100
AcDbPolyline
 90
       38
 70
     0
 43
0.0
 10
-112.790352
 20
856.862793
 10
-112.790352
 20
856.823181
 10
-112.790352
 20
856.704529
 10
-112.790352
 20
856.508057
 10
-112.790352
 20
856.234802
 10
-112.790352
 20
855.886597
 10
-112.790352
 20
855.46637
 10
-112.790352
 20
854.977234
 10
-112.790352
 20
854.42218
 10
-112.790352
 20
853.80542
 10
-112.790352
 20
853.131531
 10
-112.790352
 20
852.405457
 10
-112.790352
 20
851.63208
 10
-112.790352
 20
850.817078
 10
-112.790352
 20
849.966614
 10
-112.790352
 20
849.086548
 10
-112.790352
 20
848.183167
 10
-112.790352
 20
847.263062
 10
-112.790352
 20
846.332947
 10
-112.790352
 20
845.399475
 10
-112.790352
 20
844.469299
 10
-112.790352
 20
843.549133
 10
-112.790352
 20
842.645569
 10
-112.790352
 20
841.765381
 10
-112.790352
 20
840.914612
 10
-112.790352
 20
840.099365
 10
-112.790352
 20
839.325623
 10
-112.790352
 20
838.599182
 10
-112.790352
 20
837.924927
 10
-112.790352
 20
837.307678
 10
-112.790352
 20
836.752197
 10
-112.790352
 20
836.262573
 10
-112.790352
 20
835.841797
 10
-112.790352
 20
835.493042
 10
-112.790352
 20
835.219238
 10
-112.790352
 20
835.022156
 10
-112.790352
 20
834.902954
 10
-112.790352
 20
834.862793
  0
LINE
  5
1F9
330
1D4
100
AcDbEntity
  8
0
  6
Continuous
 62
     0
370
    30
100
AcDbLine
 10
-143.290352
 20
856.862785
 30
0.0
 11
-139.390352
 21
856.862785
 31
0.0
  0
LINE
  5
1FA
330
1D4
100
AcDbEntity
  8
0
  6
Continuous
 62
     0
370
    30
100
AcDbLine
 10
-132.190352
 20
856.862785
 30
0.0
 11
-112.790352
 21
856.862785
 31
0.0
  0
LINE
  5
1FB
330
1D4
100
AcDbEntity
  8
0
  6
Continuous
 62
     0
370
    30
100
AcDbLine
 10
-143.290352
 20
856.862785
 30
0.0
 11
-143.290352
 21
834.862785
 31
0.0
  0
LWPOLYLINE
  5
1FC
330
1D4
100
AcDbEntity
  8
0
  6
Continuous
 62
     0
370
     0
100
AcDbPolyline
 90
       24
 70
     0
 43
0.0
 10
-132.190353
 20
856.862793
 10
-132.223465
 20
856.851624
 10
-132.326141
 20
856.819397
 10
-132.491074
 20
856.76825
 10
-132.714935
 20
856.702026
 10
-132.996384
 20
856.625793
 10
-133.329208
 20
856.544739
 10
-133.7052
 20
856.464172
 10
-134.120895
 20
856.390198
 10
-134.570724
 20
856.328491
 10
-135.045258
 20
856.283752
 10
-135.534851
 20
856.260437
 10
-136.029617
 20
856.260071
 10
-136.519531
 20
856.282654
 10
-136.994705
 20
856.326721
 10
-137.445496
 20
856.387939
 10
-137.862457
 20
856.461609
 10
-138.239807
 20
856.542053
 10
-138.574127
 20
856.623169
 10
-138.857361
 20
856.699646
 10
-139.08316
 20
856.766296
 10
-139.250092
 20
856.817993
 10
-139.354965
 20
856.850891
 10
-139.39035
 20
856.862793
  0
LWPOLYLINE
  5
1FD
330
1D4
100
AcDbEntity
  8
0
  6
Continuous
 62
     0
370
     0
100
AcDbPolyline
 90
       24
 70
     0
 43
0.0
 10
-139.39035
 20
834.862793
 10
-139.357285
 20
834.873962
 10
-139.254547
 20
834.906189
 10
-139.089539
 20
834.957336
 10
-138.865616
 20
835.02356
 10
-138.584167
 20
835.099792
 10
-138.251328
 20
835.180847
 10
-137.875244
 20
835.261414
 10
-137.459457
 20
835.335388
 10
-137.009598
 20
835.397156
 10
-136.535034
 20
835.441833
 10
-136.04541
 20
835.465149
 10
-135.550613
 20
835.465454
 10
-135.060654
 20
835.442932
 10
-134.585449
 20
835.398804
 10
-134.134644
 20
835.337524
 10
-133.717712
 20
835.263855
 10
-133.340408
 20
835.183411
 10
-133.006104
 20
835.102234
 10
-132.722885
 20
835.025818
 10
-132.497147
 20
834.959229
 10
-132.330322
 20
834.907471
 10
-132.225586
 20
834.874634
 10
-132.190353
 20
834.862793
  0
LINE
  5
1FE
330
1D4
100
AcDbEntity
  8
0
  6
Continuous
 62
     0
370
    30
100
AcDbLine
 10
-139.290348
 20
856.862785
 30
0.0
 11
-139.390352
 21
856.862785
 31
0.0
  0
LINE
  5
1FF
330
1D4
100
AcDbEntity
  8
0
  6
Continuous
 62
     0
370
    30
100
AcDbLine
 10
-132.190352
 20
856.862785
 30
0.0
 11
-132.290348
 21
856.862785
 31
0.0
  0
LINE
  5
200
330
1D4
100
AcDbEntity
  8
0
  6
Continuous
 62
     0
370
    30
100
AcDbLine
 10
-132.290348
 20
834.862785
 30
0.0
 11
-132.190344
 21
834.862785
 31
0.0
  0
LINE
  5
201
330
1D4
100
AcDbEntity
  8
0
  6
Continuous
 62
     0
370
    30
100
AcDbLine
 10
-139.390352
 20
834.862785
 30
0.0
 11
-139.290348
 21
834.862785
 31
0.0
  0
LINE
  5
202
330
1D4
100
AcDbEntity
  8
0
  6
Continuous
 62
     0
370
    30
100
AcDbLine
 10
-112.790352
 20
834.862785
 30
0.0
 11
-131.467712
 21
834.862785
 31
0.0
  0
LINE
  5
203
330
1D4
100
AcDbEntity
  8
0
  6
Continuous
 62
     0
370
    30
100
AcDbLine
 10
-143.290352
 20
834.862785
 30
0.0
 11
-139.390352
 21
834.862785
 31
0.0
  0
LINE
  5
204
330
1D4
100
AcDbEntity
  8
0
  6
Continuous
 62
     0
370
    30
100
AcDbLine
 10
-112.790352
 20
840.112785
 30
0.0
 11
-107.890349
 21
840.112785
 31
0.0
  0
LWPOLYLINE
  5
205
330
1D4
100
AcDbEntity
  8
0
  6
Continuous
 62
     0
370
    30
100
AcDbPolyline
 90
        9
 70
     0
 43
0.0
 10
-139.290344
 20
794.929749
 10
-139.261017
 20
794.929749
 10
-139.172684
 20
794.929749
 10
-139.027145
 20
794.929749
 10
-138.82901
 20
794.929749
 10
-138.585312
 20
794.929749
 10
-138.304749
 20
794.929749
 10
-137.996887
 20
794.929749
 10
-137.617447
 20
794.929749
  0
LINE
  5
206
330
1D4
100
AcDbEntity
  8
0
  6
Continuous
 62
     0
370
    30
100
AcDbLine
 10
-137.617448
 20
794.929729
 30
0.0
 11
-132.290348
 21
794.929729
 31
0.0
  0
LINE
  5
207
330
1D4
100
AcDbEntity
  8
0
  6
Continuous
 62
     0
370
    30
100
AcDbLine
 10
-132.490353
 20
794.729729
 30
0.0
 11
-137.513042
 21
794.729729
 31
0.0
  0
LINE
  5
208
330
1D4
100
AcDbEntity
  8
0
  6
Continuous
 62
     0
370
    30
100
AcDbLine
 10
-137.513042
 20
794.729729
 30
0.0
 11
-139.090344
 21
794.729729
 31
0.0
  0
LINE
  5
209
330
1D4
100
AcDbEntity
  8
0
  6
Continuous
 62
     0
370
    30
100
AcDbLine
 10
-132.493861
 20
794.732641
 30
0.0
 11
-132.297187
 21
794.929697
 31
0.0
  0
LINE
  5
20A
330
1D4
100
AcDbEntity
  8
0
  6
Continuous
 62
     0
370
    30
100
AcDbLine
 10
-139.28852
 20
794.929722
 30
0.0
 11
-139.08929
 21
794.730388
 31
0.0
  0
LINE
  5
20B
330
1D4
100
AcDbEntity
  8
0
  6
Continuous
 62
     0
370
    30
100
AcDbLine
 10
-132.290348
 20
834.862785
 30
0.0
 11
-132.290348
 21
794.929729
 31
0.0
  0
LINE
  5
20C
330
1D4
100
AcDbEntity
  8
0
  6
Continuous
 62
     0
370
    30
100
AcDbLine
 10
-139.290348
 20
834.862785
 30
0.0
 11
-139.290348
 21
794.929729
 31
0.0
  0
LINE
  5
20D
330
1D4
100
AcDbEntity
  8
0
  6
Continuous
 62
     0
370
    30
100
AcDbLine
 10
-132.595297
 20
869.195058
 30
0.0
 11
-139.290348
 21
869.195058
 31
0.0
  0
LINE
  5
20E
330
1D4
100
AcDbEntity
  8
0
  6
Continuous
 62
     0
370
    30
100
AcDbLine
 10
-132.290348
 20
869.195058
 30
0.0
 11
-132.595297
 21
869.195058
 31
0.0
  0
LINE
  5
20F
330
1D4
100
AcDbEntity
  8
0
  6
Continuous
 62
     0
370
    30
100
AcDbLine
 10
-132.777871
 20
869.395058
 30
0.0
 11
-132.49038
 21
869.395058
 31
0.0
  0
LWPOLYLINE
  5
210
330
1D4
100
AcDbEntity
  8
0
  6
Continuous
 62
     0
370
    30
100
AcDbPolyline
 90
       19
 70
     0
 43
0.0
 10
-139.090317
 20
869.395081
 10
-139.052963
 20
869.395081
 10
-138.941406
 20
869.395081
 10
-138.758286
 20
869.395081
 10
-138.507721
 20
869.395081
 10
-138.195404
 20
869.395081
 10
-137.828461
 20
869.395081
 10
-137.415161
 20
869.395081
 10
-136.964996
 20
869.395081
 10
-136.488098
 20
869.395081
 10
-135.995392
 20
869.395081
 10
-135.497986
 20
869.395081
 10
-135.007233
 20
869.395081
 10
-134.534286
 20
869.395081
 10
-134.089844
 20
869.395081
 10
-133.684128
 20
869.395081
 10
-133.326141
 20
869.395081
 10
-133.024261
 20
869.395081
 10
-132.777878
 20
869.395081
  0
LINE
  5
211
330
1D4
100
AcDbEntity
  8
0
  6
Continuous
 62
     0
370
    30
100
AcDbLine
 10
-132.489843
 20
869.394807
 30
0.0
 11
-132.290381
 21
869.19536
 31
0.0
  0
LINE
  5
212
330
1D4
100
AcDbEntity
  8
0
  6
Continuous
 62
     0
370
    30
100
AcDbLine
 10
-139.286061
 20
869.19506
 30
0.0
 11
-139.088308
 21
869.393055
 31
0.0
  0
LINE
  5
213
330
1D4
100
AcDbEntity
  8
0
  6
Continuous
 62
     0
370
    30
100
AcDbLine
 10
-132.290348
 20
856.862785
 30
0.0
 11
-132.290348
 21
869.195058
 31
0.0
  0
LINE
  5
214
330
1D4
100
AcDbEntity
  8
0
  6
Continuous
 62
     0
370
    30
100
AcDbLine
 10
-139.290348
 20
856.862785
 30
0.0
 11
-139.290348
 21
869.195058
 31
0.0
  0
LINE
  5
215
330
1D4
100
AcDbEntity
  8
0
  6
Continuous
 62
     0
370
    30
100
AcDbLine
 10
-80.890394
 20
936.082554
 30
0.0
 11
-80.890393
 21
918.362348
 31
0.0
  0
LWPOLYLINE
  5
216
330
1D4
100
AcDbEntity
  8
0
  6
Continuous
 62
     0
370
    30
100
AcDbPolyline
 90
       37
 70
     0
 43
0.0
 10
-80.890396
 20
973.362366
 10
-80.890396
 20
973.321838
 10
-80.890396
 20
973.202515
 10
-80.890396
 20
973.008057
 10
-80.890396
 20
972.742676
 10
-80.890396
 20
972.41095
 10
-80.890396
 20
972.017578
 10
-80.890396
 20
971.567688
 10
-80.890396
 20
971.055542
 10
-80.890396
 20
970.470642
 10
-80.890396
 20
969.81134
 10
-80.890396
 20
969.07666
 10
-80.890396
 20
968.266113
 10
-80.890396
 20
967.380005
 10
-80.890396
 20
966.419189
 10
-80.890396
 20
965.385498
 10
-80.890396
 20
964.281311
 10
-80.890396
 20
963.109985
 10
-80.890396
 20
961.875549
 10
-80.890396
 20
960.582825
 10
-80.890396
 20
959.237183
 10
-80.890396
 20
957.844727
 10
-80.890396
 20
956.412048
 10
-80.890396
 20
954.946106
 10
-80.890396
 20
953.454285
 10
-80.890396
 20
951.944031
 10
-80.890396
 20
950.422852
 10
-80.890396
 20
948.898254
 10
-80.890396
 20
947.377563
 10
-80.890396
 20
945.867676
 10
-80.890396
 20
944.375305
 10
-80.890396
 20
942.906616
 10
-80.890396
 20
941.467285
 10
-80.890396
 20
940.062256
 10
-80.890396
 20
938.696106
 10
-80.890396
 20
937.37262
 10
-80.890396
 20
936.082581
  0
LINE
  5
217
330
1D4
100
AcDbEntity
  8
0
  6
Continuous
 62
     0
370
    30
100
AcDbLine
 10
-76.890394
 20
936.082554
 30
0.0
 11
-76.890393
 21
973.362348
 31
0.0
  0
LINE
  5
218
330
1D4
100
AcDbEntity
  8
0
  6
Continuous
 62
     0
370
    30
100
AcDbLine
 10
-76.890393
 20
918.362348
 30
0.0
 11
-76.890394
 21
936.082554
 31
0.0
  0
LINE
  5
219
330
1D4
100
AcDbEntity
  8
0
  6
Continuous
 62
     0
370
    30
100
AcDbLine
 10
-80.890393
 20
918.362348
 30
0.0
 11
-76.890393
 21
918.362348
 31
0.0
  0
LINE
  5
21A
330
1D4
100
AcDbEntity
  8
0
  6
Continuous
 62
     0
370
    30
100
AcDbLine
 10
-80.890393
 20
973.362348
 30
0.0
 11
-76.890393
 21
973.362348
 31
0.0
  0
LINE
  5
21B
330
1D4
100
AcDbEntity
  8
0
  6
Continuous
 62
     0
370
    30
100
AcDbLine
 10
-107.890392
 20
945.862348
 30
0.0
 11
-107.890393
 21
961.862566
 31
0.0
  0
LINE
  5
21C
330
1D4
100
AcDbEntity
  8
0
  6
Continuous
 62
     0
370
    30
100
AcDbLine
 10
-107.890393
 20
929.86213
 30
0.0
 11
-107.890392
 21
945.862348
 31
0.0
  0
LINE
  5
21D
330
1D4
100
AcDbEntity
  8
0
  6
Continuous
 62
     0
370
    30
100
AcDbLine
 10
-107.890393
 20
961.862348
 30
0.0
 11
-80.890381
 21
961.862348
 31
0.0
  0
LINE
  5
21E
330
1D4
100
AcDbEntity
  8
0
  6
Continuous
 62
     0
370
    30
100
AcDbLine
 10
-80.890381
 20
929.862348
 30
0.0
 11
-107.890393
 21
929.862348
 31
0.0
  0
LINE
  5
21F
330
1D4
100
AcDbEntity
  8
0
  6
Continuous
 62
     0
370
    30
100
AcDbLine
 10
-107.890392
 20
951.612348
 30
0.0
 11
-112.790395
 21
951.612348
 31
0.0
  0
LWPOLYLINE
  5
220
330
1D4
100
AcDbEntity
  8
0
  6
Continuous
 62
     0
370
    30
100
AcDbPolyline
 90
       38
 70
     0
 43
0.0
 10
-112.790398
 20
956.862366
 10
-112.790398
 20
956.822754
 10
-112.790398
 20
956.704102
 10
-112.790398
 20
956.507629
 10
-112.790398
 20
956.234375
 10
-112.790398
 20
955.886169
 10
-112.790398
 20
955.465942
 10
-112.790398
 20
954.976746
 10
-112.790398
 20
954.421753
 10
-112.790398
 20
953.804932
 10
-112.790398
 20
953.131104
 10
-112.790398
 20
952.405029
 10
-112.790398
 20
951.631653
 10
-112.790398
 20
950.81665
 10
-112.790398
 20
949.966125
 10
-112.790398
 20
949.086121
 10
-112.790398
 20
948.182739
 10
-112.790398
 20
947.262634
 10
-112.790398
 20
946.33252
 10
-112.790398
 20
945.399048
 10
-112.790398
 20
944.468872
 10
-112.790398
 20
943.548706
 10
-112.790398
 20
942.645142
 10
-112.790398
 20
941.764893
 10
-112.790398
 20
940.914185
 10
-112.790398
 20
940.098938
 10
-112.790398
 20
939.325195
 10
-112.790398
 20
938.598755
 10
-112.790398
 20
937.9245
 10
-112.790398
 20
937.307251
 10
-112.790398
 20
936.75177
 10
-112.790398
 20
936.262085
 10
-112.790398
 20
935.84137
 10
-112.790398
 20
935.492615
 10
-112.790398
 20
935.218811
 10
-112.790398
 20
935.021729
 10
-112.790398
 20
934.902527
 10
-112.790398
 20
934.862366
  0
LINE
  5
221
330
1D4
100
AcDbEntity
  8
0
  6
Continuous
 62
     0
370
    30
100
AcDbLine
 10
-143.290395
 20
956.862348
 30
0.0
 11
-139.390395
 21
956.862348
 31
0.0
  0
LINE
  5
222
330
1D4
100
AcDbEntity
  8
0
  6
Continuous
 62
     0
370
    30
100
AcDbLine
 10
-132.190395
 20
956.862348
 30
0.0
 11
-112.790395
 21
956.862348
 31
0.0
  0
LINE
  5
223
330
1D4
100
AcDbEntity
  8
0
  6
Continuous
 62
     0
370
    30
100
AcDbLine
 10
-143.290395
 20
956.862348
 30
0.0
 11
-143.290395
 21
934.862348
 31
0.0
  0
LWPOLYLINE
  5
224
330
1D4
100
AcDbEntity
  8
0
  6
Continuous
 62
     0
370
     0
100
AcDbPolyline
 90
       24
 70
     0
 43
0.0
 10
-132.190399
 20
956.862366
 10
-132.223511
 20
956.851196
 10
-132.326187
 20
956.81897
 10
-132.491119
 20
956.767822
 10
-132.714981
 20
956.701599
 10
-132.996429
 20
956.625366
 10
-133.329254
 20
956.544312
 10
-133.705246
 20
956.463745
 10
-134.120941
 20
956.389771
 10
-134.57077
 20
956.328064
 10
-135.045303
 20
956.283325
 10
-135.534897
 20
956.26001
 10
-136.029648
 20
956.259644
 10
-136.519577
 20
956.282166
 10
-136.994751
 20
956.326294
 10
-137.445541
 20
956.387512
 10
-137.862503
 20
956.461182
 10
-138.239853
 20
956.541626
 10
-138.574158
 20
956.622742
 10
-138.857407
 20
956.699219
 10
-139.083206
 20
956.765808
 10
-139.250137
 20
956.817566
 10
-139.355011
 20
956.850464
 10
-139.390396
 20
956.862366
  0
LWPOLYLINE
  5
225
330
1D4
100
AcDbEntity
  8
0
  6
Continuous
 62
     0
370
     0
100
AcDbPolyline
 90
       24
 70
     0
 43
0.0
 10
-139.390396
 20
934.862366
 10
-139.357315
 20
934.873535
 10
-139.254593
 20
934.905762
 10
-139.089584
 20
934.956909
 10
-138.865662
 20
935.023132
 10
-138.584198
 20
935.099365
 10
-138.251373
 20
935.18042
 10
-137.87529
 20
935.260986
 10
-137.459503
 20
935.334961
 10
-137.009628
 20
935.396729
 10
-136.53508
 20
935.441406
 10
-136.045456
 20
935.464722
 10
-135.550644
 20
935.465027
 10
-135.060699
 20
935.442444
 10
-134.585495
 20
935.398376
 10
-134.134689
 20
935.337097
 10
-133.717758
 20
935.263428
 10
-133.340454
 20
935.182983
 10
-133.006149
 20
935.101807
 10
-132.722931
 20
935.025391
 10
-132.497192
 20
934.95874
 10
-132.330368
 20
934.907043
 10
-132.225632
 20
934.874207
 10
-132.190399
 20
934.862366
  0
LINE
  5
226
330
1D4
100
AcDbEntity
  8
0
  6
Continuous
 62
     0
370
    30
100
AcDbLine
 10
-139.290391
 20
956.862348
 30
0.0
 11
-139.390395
 21
956.862348
 31
0.0
  0
LINE
  5
227
330
1D4
100
AcDbEntity
  8
0
  6
Continuous
 62
     0
370
    30
100
AcDbLine
 10
-132.190395
 20
956.862348
 30
0.0
 11
-132.290391
 21
956.862348
 31
0.0
  0
LINE
  5
228
330
1D4
100
AcDbEntity
  8
0
  6
Continuous
 62
     0
370
    30
100
AcDbLine
 10
-132.290391
 20
934.862348
 30
0.0
 11
-132.190387
 21
934.862348
 31
0.0
  0
LINE
  5
229
330
1D4
100
AcDbEntity
  8
0
  6
Continuous
 62
     0
370
    30
100
AcDbLine
 10
-139.390395
 20
934.862348
 30
0.0
 11
-139.290391
 21
934.862348
 31
0.0
  0
LINE
  5
22A
330
1D4
100
AcDbEntity
  8
0
  6
Continuous
 62
     0
370
    30
100
AcDbLine
 10
-112.790395
 20
934.862348
 30
0.0
 11
-131.467754
 21
934.862348
 31
0.0
  0
LINE
  5
22B
330
1D4
100
AcDbEntity
  8
0
  6
Continuous
 62
     0
370
    30
100
AcDbLine
 10
-143.290395
 20
934.862348
 30
0.0
 11
-139.390395
 21
934.862348
 31
0.0
  0
LINE
  5
22C
330
1D4
100
AcDbEntity
  8
0
  6
Continuous
 62
     0
370
    30
100
AcDbLine
 10
-107.890392
 20
940.112348
 30
0.0
 11
-112.790395
 21
940.112348
 31
0.0
  0
LWPOLYLINE
  5
22D
330
1D4
100
AcDbEntity
  8
0
  6
Continuous
 62
     0
370
    30
100
AcDbPolyline
 90
        9
 70
     0
 43
0.0
 10
-139.29039
 20
894.929321
 10
-139.261063
 20
894.929321
 10
-139.172729
 20
894.929321
 10
-139.027191
 20
894.929321
 10
-138.829056
 20
894.929321
 10
-138.585342
 20
894.929321
 10
-138.304794
 20
894.929321
 10
-137.996918
 20
894.929321
 10
-137.617493
 20
894.929321
  0
LINE
  5
22E
330
1D4
100
AcDbEntity
  8
0
  6
Continuous
 62
     0
370
    30
100
AcDbLine
 10
-137.617491
 20
894.929291
 30
0.0
 11
-132.290391
 21
894.929291
 31
0.0
  0
LINE
  5
22F
330
1D4
100
AcDbEntity
  8
0
  6
Continuous
 62
     0
370
    30
100
AcDbLine
 10
-132.490395
 20
894.729291
 30
0.0
 11
-137.513085
 21
894.729291
 31
0.0
  0
LINE
  5
230
330
1D4
100
AcDbEntity
  8
0
  6
Continuous
 62
     0
370
    30
100
AcDbLine
 10
-137.513085
 20
894.729291
 30
0.0
 11
-139.090386
 21
894.729291
 31
0.0
  0
LINE
  5
231
330
1D4
100
AcDbEntity
  8
0
  6
Continuous
 62
     0
370
    30
100
AcDbLine
 10
-132.493904
 20
894.732203
 30
0.0
 11
-132.29723
 21
894.92926
 31
0.0
  0
LINE
  5
232
330
1D4
100
AcDbEntity
  8
0
  6
Continuous
 62
     0
370
    30
100
AcDbLine
 10
-139.288563
 20
894.929285
 30
0.0
 11
-139.089333
 21
894.729951
 31
0.0
  0
LINE
  5
233
330
1D4
100
AcDbEntity
  8
0
  6
Continuous
 62
     0
370
    30
100
AcDbLine
 10
-132.290391
 20
934.862348
 30
0.0
 11
-132.290391
 21
894.929291
 31
0.0
  0
LINE
  5
234
330
1D4
100
AcDbEntity
  8
0
  6
Continuous
 62
     0
370
    30
100
AcDbLine
 10
-139.290391
 20
934.862348
 30
0.0
 11
-139.290391
 21
894.929291
 31
0.0
  0
LINE
  5
235
330
1D4
100
AcDbEntity
  8
0
  6
Continuous
 62
     0
370
    30
100
AcDbLine
 10
-132.59534
 20
969.19462
 30
0.0
 11
-139.290391
 21
969.19462
 31
0.0
  0
LINE
  5
236
330
1D4
100
AcDbEntity
  8
0
  6
Continuous
 62
     0
370
    30
100
AcDbLine
 10
-132.290391
 20
969.19462
 30
0.0
 11
-132.59534
 21
969.19462
 31
0.0
  0
LINE
  5
237
330
1D4
100
AcDbEntity
  8
0
  6
Continuous
 62
     0
370
    30
100
AcDbLine
 10
-132.777914
 20
969.39462
 30
0.0
 11
-132.490423
 21
969.39462
 31
0.0
  0
LWPOLYLINE
  5
238
330
1D4
100
AcDbEntity
  8
0
  6
Continuous
 62
     0
370
    30
100
AcDbPolyline
 90
       19
 70
     0
 43
0.0
 10
-139.090363
 20
969.394592
 10
-139.053009
 20
969.394592
 10
-138.941452
 20
969.394592
 10
-138.758331
 20
969.394592
 10
-138.507751
 20
969.394592
 10
-138.195435
 20
969.394592
 10
-137.828506
 20
969.394592
 10
-137.415207
 20
969.394592
 10
-136.965042
 20
969.394592
 10
-136.488144
 20
969.394592
 10
-135.995422
 20
969.394592
 10
-135.498032
 20
969.394592
 10
-135.007278
 20
969.394592
 10
-134.534332
 20
969.394592
 10
-134.08989
 20
969.394592
 10
-133.684158
 20
969.394592
 10
-133.326187
 20
969.394592
 10
-133.024307
 20
969.394592
 10
-132.777908
 20
969.394592
  0
LINE
  5
239
330
1D4
100
AcDbEntity
  8
0
  6
Continuous
 62
     0
370
    30
100
AcDbLine
 10
-132.489886
 20
969.39437
 30
0.0
 11
-132.290424
 21
969.194923
 31
0.0
  0
LINE
  5
23A
330
1D4
100
AcDbEntity
  8
0
  6
Continuous
 62
     0
370
    30
100
AcDbLine
 10
-139.286103
 20
969.194623
 30
0.0
 11
-139.088351
 21
969.392618
 31
0.0
  0
LINE
  5
23B
330
1D4
100
AcDbEntity
  8
0
  6
Continuous
 62
     0
370
    30
100
AcDbLine
 10
-132.290391
 20
956.862348
 30
0.0
 11
-132.290391
 21
969.19462
 31
0.0
  0
LINE
  5
23C
330
1D4
100
AcDbEntity
  8
0
  6
Continuous
 62
     0
370
    30
100
AcDbLine
 10
-139.290391
 20
956.862348
 30
0.0
 11
-139.290391
 21
969.19462
 31
0.0
  0
LINE
  5
23D
330
1D4
100
AcDbEntity
  8
0
  6
Continuous
 62
     0
370
    30
100
AcDbLine
 10
-80.890439
 20
1036.08178
 30
0.0
 11
-80.890438
 21
1018.361574
 31
0.0
  0
LWPOLYLINE
  5
23E
330
1D4
100
AcDbEntity
  8
0
  6
Continuous
 62
     0
370
    30
100
AcDbPolyline
 90
       37
 70
     0
 43
0.0
 10
-80.890434
 20
1073.361572
 10
-80.890434
 20
1073.321045
 10
-80.890434
 20
1073.20166
 10
-80.890434
 20
1073.007324
 10
-80.890434
 20
1072.741943
 10
-80.890434
 20
1072.410156
 10
-80.890434
 20
1072.016846
 10
-80.890434
 20
1071.566895
 10
-80.890442
 20
1071.054688
 10
-80.890442
 20
1070.469849
 10
-80.890442
 20
1069.810547
 10
-80.890442
 20
1069.075928
 10
-80.890442
 20
1068.265381
 10
-80.890442
 20
1067.379272
 10
-80.890442
 20
1066.418457
 10
-80.890442
 20
1065.384766
 10
-80.890442
 20
1064.280518
 10
-80.890442
 20
1063.109253
 10
-80.890442
 20
1061.874756
 10
-80.890442
 20
1060.582031
 10
-80.890442
 20
1059.236328
 10
-80.890442
 20
1057.843872
 10
-80.890442
 20
1056.411255
 10
-80.890442
 20
1054.945312
 10
-80.890442
 20
1053.453491
 10
-80.890442
 20
1051.943237
 10
-80.890442
 20
1050.422119
 10
-80.890442
 20
1048.897461
 10
-80.890442
 20
1047.376709
 10
-80.890442
 20
1045.866943
 10
-80.890442
 20
1044.374512
 10
-80.890442
 20
1042.905884
 10
-80.890442
 20
1041.466431
 10
-80.890442
 20
1040.061523
 10
-80.890442
 20
1038.695312
 10
-80.890442
 20
1037.371826
 10
-80.890442
 20
1036.081787
  0
LINE
  5
23F
330
1D4
100
AcDbEntity
  8
0
  6
Continuous
 62
     0
370
    30
100
AcDbLine
 10
-76.890439
 20
1036.08178
 30
0.0
 11
-76.890438
 21
1073.361574
 31
0.0
  0
LINE
  5
240
330
1D4
100
AcDbEntity
  8
0
  6
Continuous
 62
     0
370
    30
100
AcDbLine
 10
-76.890438
 20
1018.361574
 30
0.0
 11
-76.890439
 21
1036.08178
 31
0.0
  0
LINE
  5
241
330
1D4
100
AcDbEntity
  8
0
  6
Continuous
 62
     0
370
    30
100
AcDbLine
 10
-80.890438
 20
1018.361574
 30
0.0
 11
-76.890438
 21
1018.361574
 31
0.0
  0
LINE
  5
242
330
1D4
100
AcDbEntity
  8
0
  6
Continuous
 62
     0
370
    30
100
AcDbLine
 10
-80.890438
 20
1073.361574
 30
0.0
 11
-76.890438
 21
1073.361574
 31
0.0
  0
LINE
  5
243
330
1D4
100
AcDbEntity
  8
0
  6
Continuous
 62
     0
370
    30
100
AcDbLine
 10
-107.890437
 20
1045.861574
 30
0.0
 11
-107.890438
 21
1061.861792
 31
0.0
  0
LINE
  5
244
330
1D4
100
AcDbEntity
  8
0
  6
Continuous
 62
     0
370
    30
100
AcDbLine
 10
-107.890438
 20
1029.861356
 30
0.0
 11
-107.890437
 21
1045.861574
 31
0.0
  0
LINE
  5
245
330
1D4
100
AcDbEntity
  8
0
  6
Continuous
 62
     0
370
    30
100
AcDbLine
 10
-107.890438
 20
1061.861574
 30
0.0
 11
-80.890425
 21
1061.861574
 31
0.0
  0
LINE
  5
246
330
1D4
100
AcDbEntity
  8
0
  6
Continuous
 62
     0
370
    30
100
AcDbLine
 10
-80.890425
 20
1029.861574
 30
0.0
 11
-107.890438
 21
1029.861574
 31
0.0
  0
LINE
  5
247
330
1D4
100
AcDbEntity
  8
0
  6
Continuous
 62
     0
370
    30
100
AcDbLine
 10
-107.890436
 20
1051.611574
 30
0.0
 11
-112.790439
 21
1051.611574
 31
0.0
  0
LWPOLYLINE
  5
248
330
1D4
100
AcDbEntity
  8
0
  6
Continuous
 62
     0
370
    30
100
AcDbPolyline
 90
       38
 70
     0
 43
0.0
 10
-112.790436
 20
1056.861572
 10
-112.790436
 20
1056.822021
 10
-112.790436
 20
1056.703369
 10
-112.790436
 20
1056.506836
 10
-112.790436
 20
1056.233521
 10
-112.790436
 20
1055.885376
 10
-112.790436
 20
1055.46521
 10
-112.790436
 20
1054.975952
 10
-112.790436
 20
1054.421021
 10
-112.790436
 20
1053.804199
 10
-112.790436
 20
1053.130371
 10
-112.790436
 20
1052.404297
 10
-112.790436
 20
1051.630859
 10
-112.790436
 20
1050.815918
 10
-112.790436
 20
1049.965332
 10
-112.790443
 20
1049.085327
 10
-112.790443
 20
1048.182007
 10
-112.790443
 20
1047.261841
 10
-112.790443
 20
1046.331787
 10
-112.790443
 20
1045.398315
 10
-112.790443
 20
1044.46814
 10
-112.790443
 20
1043.547852
 10
-112.790443
 20
1042.644409
 10
-112.790436
 20
1041.76416
 10
-112.790436
 20
1040.91333
 10
-112.790436
 20
1040.098145
 10
-112.790436
 20
1039.324463
 10
-112.790436
 20
1038.598022
 10
-112.790436
 20
1037.923706
 10
-112.790436
 20
1037.306519
 10
-112.790436
 20
1036.750977
 10
-112.790436
 20
1036.261353
 10
-112.790436
 20
1035.840576
 10
-112.790436
 20
1035.491821
 10
-112.790436
 20
1035.218018
 10
-112.790436
 20
1035.020996
 10
-112.790436
 20
1034.901733
 10
-112.790436
 20
1034.861572
  0
LINE
  5
249
330
1D4
100
AcDbEntity
  8
0
  6
Continuous
 62
     0
370
    30
100
AcDbLine
 10
-143.290439
 20
1056.861574
 30
0.0
 11
-139.390439
 21
1056.861574
 31
0.0
  0
LINE
  5
24A
330
1D4
100
AcDbEntity
  8
0
  6
Continuous
 62
     0
370
    30
100
AcDbLine
 10
-132.190439
 20
1056.861574
 30
0.0
 11
-112.790439
 21
1056.861574
 31
0.0
  0
LINE
  5
24B
330
1D4
100
AcDbEntity
  8
0
  6
Continuous
 62
     0
370
    30
100
AcDbLine
 10
-143.290439
 20
1056.861574
 30
0.0
 11
-143.290439
 21
1034.861574
 31
0.0
  0
LWPOLYLINE
  5
24C
330
1D4
100
AcDbEntity
  8
0
  6
Continuous
 62
     0
370
     0
100
AcDbPolyline
 90
       24
 70
     0
 43
0.0
 10
-132.190445
 20
1056.861572
 10
-132.223557
 20
1056.850464
 10
-132.326233
 20
1056.818237
 10
-132.491165
 20
1056.766968
 10
-132.715027
 20
1056.700806
 10
-132.996475
 20
1056.624634
 10
-133.3293
 20
1056.543579
 10
-133.705292
 20
1056.463013
 10
-134.120987
 20
1056.389038
 10
-134.570816
 20
1056.327271
 10
-135.045349
 20
1056.282593
 10
-135.534943
 20
1056.259277
 10
-136.029694
 20
1056.258911
 10
-136.519623
 20
1056.281372
 10
-136.994797
 20
1056.325439
 10
-137.445587
 20
1056.386719
 10
-137.862549
 20
1056.460449
 10
-138.239899
 20
1056.540894
 10
-138.574203
 20
1056.621948
 10
-138.857452
 20
1056.698486
 10
-139.083252
 20
1056.765015
 10
-139.250183
 20
1056.816772
 10
-139.355057
 20
1056.849731
 10
-139.390442
 20
1056.861572
  0
LWPOLYLINE
  5
24D
330
1D4
100
AcDbEntity
  8
0
  6
Continuous
 62
     0
370
     0
100
AcDbPolyline
 90
       24
 70
     0
 43
0.0
 10
-139.390442
 20
1034.861572
 10
-139.357361
 20
1034.872803
 10
-139.254639
 20
1034.904907
 10
-139.08963
 20
1034.956177
 10
-138.865707
 20
1035.022339
 10
-138.584244
 20
1035.098633
 10
-138.251419
 20
1035.179688
 10
-137.875336
 20
1035.260254
 10
-137.459549
 20
1035.334229
 10
-137.009674
 20
1035.395874
 10
-136.535126
 20
1035.440674
 10
-136.045502
 20
1035.463867
 10
-135.55069
 20
1035.464233
 10
-135.060745
 20
1035.44165
 10
-134.585541
 20
1035.397583
 10
-134.134735
 20
1035.336304
 10
-133.717804
 20
1035.262695
 10
-133.3405
 20
1035.182251
 10
-133.006195
 20
1035.101074
 10
-132.722977
 20
1035.024536
 10
-132.497238
 20
1034.958008
 10
-132.330414
 20
1034.90625
 10
-132.225677
 20
1034.873413
 10
-132.190445
 20
1034.861572
  0
LINE
  5
24E
330
1D4
100
AcDbEntity
  8
0
  6
Continuous
 62
     0
370
    30
100
AcDbLine
 10
-139.290435
 20
1056.861574
 30
0.0
 11
-139.390439
 21
1056.861574
 31
0.0
  0
LINE
  5
24F
330
1D4
100
AcDbEntity
  8
0
  6
Continuous
 62
     0
370
    30
100
AcDbLine
 10
-132.190439
 20
1056.861574
 30
0.0
 11
-132.290435
 21
1056.861574
 31
0.0
  0
LINE
  5
250
330
1D4
100
AcDbEntity
  8
0
  6
Continuous
 62
     0
370
    30
100
AcDbLine
 10
-132.290435
 20
1034.861574
 30
0.0
 11
-132.190432
 21
1034.861574
 31
0.0
  0
LINE
  5
251
330
1D4
100
AcDbEntity
  8
0
  6
Continuous
 62
     0
370
    30
100
AcDbLine
 10
-139.390439
 20
1034.861574
 30
0.0
 11
-139.290435
 21
1034.861574
 31
0.0
  0
LINE
  5
252
330
1D4
100
AcDbEntity
  8
0
  6
Continuous
 62
     0
370
    30
100
AcDbLine
 10
-112.790439
 20
1034.861574
 30
0.0
 11
-131.467799
 21
1034.861574
 31
0.0
  0
LINE
  5
253
330
1D4
100
AcDbEntity
  8
0
  6
Continuous
 62
     0
370
    30
100
AcDbLine
 10
-143.290439
 20
1034.861574
 30
0.0
 11
-139.390439
 21
1034.861574
 31
0.0
  0
LINE
  5
254
330
1D4
100
AcDbEntity
  8
0
  6
Continuous
 62
     0
370
    30
100
AcDbLine
 10
-112.790439
 20
1040.111574
 30
0.0
 11
-107.890436
 21
1040.111574
 31
0.0
  0
LWPOLYLINE
  5
255
330
1D4
100
AcDbEntity
  8
0
  6
Continuous
 62
     0
370
    30
100
AcDbPolyline
 90
        9
 70
     0
 43
0.0
 10
-139.290436
 20
994.928528
 10
-139.261093
 20
994.928528
 10
-139.172775
 20
994.928528
 10
-139.027237
 20
994.928528
 10
-138.829102
 20
994.928528
 10
-138.585388
 20
994.928528
 10
-138.30484
 20
994.928528
 10
-137.996964
 20
994.928528
 10
-137.617538
 20
994.928528
  0
LINE
  5
256
330
1D4
100
AcDbEntity
  8
0
  6
Continuous
 62
     0
370
    30
100
AcDbLine
 10
-137.617535
 20
994.928518
 30
0.0
 11
-132.290435
 21
994.928518
 31
0.0
  0
LINE
  5
257
330
1D4
100
AcDbEntity
  8
0
  6
Continuous
 62
     0
370
    30
100
AcDbLine
 10
-132.49044
 20
994.728518
 30
0.0
 11
-137.51313
 21
994.728518
 31
0.0
  0
LINE
  5
258
330
1D4
100
AcDbEntity
  8
0
  6
Continuous
 62
     0
370
    30
100
AcDbLine
 10
-137.51313
 20
994.728518
 30
0.0
 11
-139.090431
 21
994.728518
 31
0.0
  0
LINE
  5
259
330
1D4
100
AcDbEntity
  8
0
  6
Continuous
 62
     0
370
    30
100
AcDbLine
 10
-132.493948
 20
994.73143
 30
0.0
 11
-132.297275
 21
994.928486
 31
0.0
  0
LINE
  5
25A
330
1D4
100
AcDbEntity
  8
0
  6
Continuous
 62
     0
370
    30
100
AcDbLine
 10
-139.288607
 20
994.928511
 30
0.0
 11
-139.089377
 21
994.729177
 31
0.0
  0
LINE
  5
25B
330
1D4
100
AcDbEntity
  8
0
  6
Continuous
 62
     0
370
    30
100
AcDbLine
 10
-132.290435
 20
1034.861574
 30
0.0
 11
-132.290435
 21
994.928518
 31
0.0
  0
LINE
  5
25C
330
1D4
100
AcDbEntity
  8
0
  6
Continuous
 62
     0
370
    30
100
AcDbLine
 10
-139.290435
 20
1034.861574
 30
0.0
 11
-139.290435
 21
994.928518
 31
0.0
  0
LINE
  5
25D
330
1D4
100
AcDbEntity
  8
0
  6
Continuous
 62
     0
370
    30
100
AcDbLine
 10
-132.595384
 20
1069.193847
 30
0.0
 11
-139.290435
 21
1069.193847
 31
0.0
  0
LINE
  5
25E
330
1D4
100
AcDbEntity
  8
0
  6
Continuous
 62
     0
370
    30
100
AcDbLine
 10
-132.290435
 20
1069.193847
 30
0.0
 11
-132.595384
 21
1069.193847
 31
0.0
  0
LINE
  5
25F
330
1D4
100
AcDbEntity
  8
0
  6
Continuous
 62
     0
370
    30
100
AcDbLine
 10
-132.777959
 20
1069.393847
 30
0.0
 11
-132.490467
 21
1069.393847
 31
0.0
  0
LWPOLYLINE
  5
260
330
1D4
100
AcDbEntity
  8
0
  6
Continuous
 62
     0
370
    30
100
AcDbPolyline
 90
       19
 70
     0
 43
0.0
 10
-139.090408
 20
1069.393799
 10
-139.053055
 20
1069.393799
 10
-138.941498
 20
1069.393799
 10
-138.758377
 20
1069.393799
 10
-138.507797
 20
1069.393799
 10
-138.19548
 20
1069.393799
 10
-137.828552
 20
1069.393799
 10
-137.415253
 20
1069.393799
 10
-136.965088
 20
1069.393799
 10
-136.48819
 20
1069.393799
 10
-135.995468
 20
1069.393799
 10
-135.498077
 20
1069.393799
 10
-135.007324
 20
1069.393799
 10
-134.534378
 20
1069.393799
 10
-134.089935
 20
1069.393799
 10
-133.684204
 20
1069.393799
 10
-133.326233
 20
1069.393799
 10
-133.024353
 20
1069.393799
 10
-132.777954
 20
1069.393799
  0
LINE
  5
261
330
1D4
100
AcDbEntity
  8
0
  6
Continuous
 62
     0
370
    30
100
AcDbLine
 10
-132.489931
 20
1069.393596
 30
0.0
 11
-132.290468
 21
1069.194149
 31
0.0
  0
LINE
  5
262
330
1D4
100
AcDbEntity
  8
0
  6
Continuous
 62
     0
370
    30
100
AcDbLine
 10
-139.286148
 20
1069.193849
 30
0.0
 11
-139.088395
 21
1069.391844
 31
0.0
  0
LINE
  5
263
330
1D4
100
AcDbEntity
  8
0
  6
Continuous
 62
     0
370
    30
100
AcDbLine
 10
-132.290435
 20
1056.861574
 30
0.0
 11
-132.290435
 21
1069.193847
 31
0.0
  0
LINE
  5
264
330
1D4
100
AcDbEntity
  8
0
  6
Continuous
 62
     0
370
    30
100
AcDbLine
 10
-139.290435
 20
1056.861574
 30
0.0
 11
-139.290435
 21
1069.193847
 31
0.0
  0
LINE
  5
265
330
1D4
100
AcDbEntity
  8
0
  6
Continuous
 62
     0
370
    30
100
AcDbLine
 10
-80.890483
 20
1136.080818
 30
0.0
 11
-80.890482
 21
1118.360612
 31
0.0
  0
LWPOLYLINE
  5
266
330
1D4
100
AcDbEntity
  8
0
  6
Continuous
 62
     0
370
    30
100
AcDbPolyline
 90
       37
 70
     0
 43
0.0
 10
-80.89048
 20
1173.360596
 10
-80.89048
 20
1173.320068
 10
-80.89048
 20
1173.200806
 10
-80.89048
 20
1173.006348
 10
-80.89048
 20
1172.740967
 10
-80.89048
 20
1172.40918
 10
-80.89048
 20
1172.015869
 10
-80.89048
 20
1171.565918
 10
-80.89048
 20
1171.053833
 10
-80.89048
 20
1170.468872
 10
-80.89048
 20
1169.80957
 10
-80.89048
 20
1169.074951
 10
-80.89048
 20
1168.264404
 10
-80.89048
 20
1167.378296
 10
-80.89048
 20
1166.41748
 10
-80.89048
 20
1165.383789
 10
-80.89048
 20
1164.279541
 10
-80.89048
 20
1163.108276
 10
-80.89048
 20
1161.873779
 10
-80.89048
 20
1160.581055
 10
-80.89048
 20
1159.235474
 10
-80.89048
 20
1157.843018
 10
-80.89048
 20
1156.410278
 10
-80.89048
 20
1154.944458
 10
-80.89048
 20
1153.452515
 10
-80.89048
 20
1151.942261
 10
-80.89048
 20
1150.421143
 10
-80.89048
 20
1148.896484
 10
-80.89048
 20
1147.375854
 10
-80.89048
 20
1145.865967
 10
-80.89048
 20
1144.373535
 10
-80.89048
 20
1142.904907
 10
-80.89048
 20
1141.465576
 10
-80.89048
 20
1140.060547
 10
-80.89048
 20
1138.694336
 10
-80.89048
 20
1137.37085
 10
-80.89048
 20
1136.080811
  0
LINE
  5
267
330
1D4
100
AcDbEntity
  8
0
  6
Continuous
 62
     0
370
    30
100
AcDbLine
 10
-76.890483
 20
1136.080818
 30
0.0
 11
-76.890482
 21
1173.360612
 31
0.0
  0
LINE
  5
268
330
1D4
100
AcDbEntity
  8
0
  6
Continuous
 62
     0
370
    30
100
AcDbLine
 10
-76.890482
 20
1118.360612
 30
0.0
 11
-76.890483
 21
1136.080818
 31
0.0
  0
LINE
  5
269
330
1D4
100
AcDbEntity
  8
0
  6
Continuous
 62
     0
370
    30
100
AcDbLine
 10
-80.890482
 20
1118.360612
 30
0.0
 11
-76.890482
 21
1118.360612
 31
0.0
  0
LINE
  5
26A
330
1D4
100
AcDbEntity
  8
0
  6
Continuous
 62
     0
370
    30
100
AcDbLine
 10
-80.890482
 20
1173.360612
 30
0.0
 11
-76.890482
 21
1173.360612
 31
0.0
  0
LINE
  5
26B
330
1D4
100
AcDbEntity
  8
0
  6
Continuous
 62
     0
370
    30
100
AcDbLine
 10
-107.890482
 20
1145.860612
 30
0.0
 11
-107.890482
 21
1161.86083
 31
0.0
  0
LINE
  5
26C
330
1D4
100
AcDbEntity
  8
0
  6
Continuous
 62
     0
370
    30
100
AcDbLine
 10
-107.890482
 20
1129.860394
 30
0.0
 11
-107.890482
 21
1145.860612
 31
0.0
  0
LINE
  5
26D
330
1D4
100
AcDbEntity
  8
0
  6
Continuous
 62
     0
370
    30
100
AcDbLine
 10
-107.890482
 20
1161.860612
 30
0.0
 11
-80.89047
 21
1161.860612
 31
0.0
  0
LINE
  5
26E
330
1D4
100
AcDbEntity
  8
0
  6
Continuous
 62
     0
370
    30
100
AcDbLine
 10
-80.89047
 20
1129.860612
 30
0.0
 11
-107.890482
 21
1129.860612
 31
0.0
  0
LINE
  5
26F
330
1D4
100
AcDbEntity
  8
0
  6
Continuous
 62
     0
370
    30
100
AcDbLine
 10
-107.890481
 20
1151.610612
 30
0.0
 11
-112.790484
 21
1151.610612
 31
0.0
  0
LWPOLYLINE
  5
270
330
1D4
100
AcDbEntity
  8
0
  6
Continuous
 62
     0
370
    30
100
AcDbPolyline
 90
       38
 70
     0
 43
0.0
 10
-112.790482
 20
1156.860596
 10
-112.790482
 20
1156.821045
 10
-112.790482
 20
1156.702393
 10
-112.790482
 20
1156.505859
 10
-112.790482
 20
1156.232666
 10
-112.790482
 20
1155.884399
 10
-112.790482
 20
1155.464233
 10
-112.790482
 20
1154.974976
 10
-112.790482
 20
1154.420044
 10
-112.790482
 20
1153.803223
 10
-112.790482
 20
1153.129395
 10
-112.790482
 20
1152.40332
 10
-112.790482
 20
1151.629883
 10
-112.790482
 20
1150.814941
 10
-112.790482
 20
1149.964355
 10
-112.790482
 20
1149.084351
 10
-112.790482
 20
1148.18103
 10
-112.790482
 20
1147.260864
 10
-112.790482
 20
1146.330811
 10
-112.790482
 20
1145.397339
 10
-112.790482
 20
1144.467163
 10
-112.790482
 20
1143.546997
 10
-112.790482
 20
1142.643433
 10
-112.790482
 20
1141.763184
 10
-112.790482
 20
1140.912476
 10
-112.790482
 20
1140.097168
 10
-112.790482
 20
1139.323486
 10
-112.790482
 20
1138.597046
 10
-112.790482
 20
1137.922729
 10
-112.790482
 20
1137.305542
 10
-112.790482
 20
1136.75
 10
-112.790482
 20
1136.260376
 10
-112.790482
 20
1135.8396
 10
-112.790482
 20
1135.490845
 10
-112.790482
 20
1135.217041
 10
-112.790482
 20
1135.02002
 10
-112.790482
 20
1134.900757
 10
-112.790482
 20
1134.860596
  0
LINE
  5
271
330
1D4
100
AcDbEntity
  8
0
  6
Continuous
 62
     0
370
    30
100
AcDbLine
 10
-143.290484
 20
1156.860612
 30
0.0
 11
-139.390484
 21
1156.860612
 31
0.0
  0
LINE
  5
272
330
1D4
100
AcDbEntity
  8
0
  6
Continuous
 62
     0
370
    30
100
AcDbLine
 10
-132.190484
 20
1156.860612
 30
0.0
 11
-112.790484
 21
1156.860612
 31
0.0
  0
LINE
  5
273
330
1D4
100
AcDbEntity
  8
0
  6
Continuous
 62
     0
370
    30
100
AcDbLine
 10
-143.290484
 20
1156.860612
 30
0.0
 11
-143.290484
 21
1134.860612
 31
0.0
  0
LWPOLYLINE
  5
274
330
1D4
100
AcDbEntity
  8
0
  6
Continuous
 62
     0
370
     0
100
AcDbPolyline
 90
       24
 70
     0
 43
0.0
 10
-132.190491
 20
1156.860596
 10
-132.223602
 20
1156.849487
 10
-132.326279
 20
1156.817261
 10
-132.491211
 20
1156.766113
 10
-132.715073
 20
1156.699829
 10
-132.996521
 20
1156.623657
 10
-133.329346
 20
1156.542603
 10
-133.705338
 20
1156.462036
 10
-134.121033
 20
1156.388062
 10
-134.570862
 20
1156.326294
 10
-135.045395
 20
1156.281616
 10
-135.534988
 20
1156.258301
 10
-136.029739
 20
1156.257935
 10
-136.519653
 20
1156.280396
 10
-136.994843
 20
1156.324585
 10
-137.445633
 20
1156.385742
 10
-137.862595
 20
1156.459473
 10
-138.239944
 20
1156.539917
 10
-138.574249
 20
1156.620972
 10
-138.857498
 20
1156.69751
 10
-139.083298
 20
1156.764038
 10
-139.250229
 20
1156.815796
 10
-139.355103
 20
1156.848755
 10
-139.390488
 20
1156.860596
  0
LWPOLYLINE
  5
275
330
1D4
100
AcDbEntity
  8
0
  6
Continuous
 62
     0
370
     0
100
AcDbPolyline
 90
       24
 70
     0
 43
0.0
 10
-139.390488
 20
1134.860596
 10
-139.357407
 20
1134.871826
 10
-139.254669
 20
1134.904053
 10
-139.089676
 20
1134.9552
 10
-138.865753
 20
1135.021362
 10
-138.58429
 20
1135.097656
 10
-138.251465
 20
1135.178711
 10
-137.875381
 20
1135.259277
 10
-137.459595
 20
1135.333252
 10
-137.00972
 20
1135.39502
 10
-136.535172
 20
1135.439697
 10
-136.045547
 20
1135.463013
 10
-135.550735
 20
1135.463257
 10
-135.060791
 20
1135.440674
 10
-134.585587
 20
1135.396606
 10
-134.134781
 20
1135.335327
 10
-133.71785
 20
1135.261719
 10
-133.34053
 20
1135.181274
 10
-133.006241
 20
1135.100098
 10
-132.723022
 20
1135.023682
 10
-132.497284
 20
1134.957031
 10
-132.33046
 20
1134.905273
 10
-132.225723
 20
1134.872437
 10
-132.190491
 20
1134.860596
  0
LINE
  5
276
330
1D4
100
AcDbEntity
  8
0
  6
Continuous
 62
     0
370
    30
100
AcDbLine
 10
-139.29048
 20
1156.860612
 30
0.0
 11
-139.390484
 21
1156.860612
 31
0.0
  0
LINE
  5
277
330
1D4
100
AcDbEntity
  8
0
  6
Continuous
 62
     0
370
    30
100
AcDbLine
 10
-132.190484
 20
1156.860612
 30
0.0
 11
-132.29048
 21
1156.860612
 31
0.0
  0
LINE
  5
278
330
1D4
100
AcDbEntity
  8
0
  6
Continuous
 62
     0
370
    30
100
AcDbLine
 10
-132.29048
 20
1134.860612
 30
0.0
 11
-132.190476
 21
1134.860612
 31
0.0
  0
LINE
  5
279
330
1D4
100
AcDbEntity
  8
0
  6
Continuous
 62
     0
370
    30
100
AcDbLine
 10
-139.390484
 20
1134.860612
 30
0.0
 11
-139.29048
 21
1134.860612
 31
0.0
  0
LINE
  5
27A
330
1D4
100
AcDbEntity
  8
0
  6
Continuous
 62
     0
370
    30
100
AcDbLine
 10
-112.790484
 20
1134.860612
 30
0.0
 11
-131.467843
 21
1134.860612
 31
0.0
  0
LINE
  5
27B
330
1D4
100
AcDbEntity
  8
0
  6
Continuous
 62
     0
370
    30
100
AcDbLine
 10
-143.290484
 20
1134.860612
 30
0.0
 11
-139.390484
 21
1134.860612
 31
0.0
  0
LINE
  5
27C
330
1D4
100
AcDbEntity
  8
0
  6
Continuous
 62
     0
370
    30
100
AcDbLine
 10
-112.790484
 20
1140.110612
 30
0.0
 11
-107.890481
 21
1140.110612
 31
0.0
  0
LWPOLYLINE
  5
27D
330
1D4
100
AcDbEntity
  8
0
  6
Continuous
 62
     0
370
    30
100
AcDbPolyline
 90
        9
 70
     0
 43
0.0
 10
-139.290482
 20
1094.927612
 10
-139.261139
 20
1094.927612
 10
-139.172821
 20
1094.927612
 10
-139.027283
 20
1094.927612
 10
-138.829147
 20
1094.927612
 10
-138.585434
 20
1094.927612
 10
-138.304871
 20
1094.927612
 10
-137.997009
 20
1094.927612
 10
-137.617584
 20
1094.927612
  0
LINE
  5
27E
330
1D4
100
AcDbEntity
  8
0
  6
Continuous
 62
     0
370
    30
100
AcDbLine
 10
-137.61758
 20
1094.927555
 30
0.0
 11
-132.29048
 21
1094.927555
 31
0.0
  0
LINE
  5
27F
330
1D4
100
AcDbEntity
  8
0
  6
Continuous
 62
     0
370
    30
100
AcDbLine
 10
-132.490485
 20
1094.727555
 30
0.0
 11
-137.513174
 21
1094.727555
 31
0.0
  0
LINE
  5
280
330
1D4
100
AcDbEntity
  8
0
  6
Continuous
 62
     0
370
    30
100
AcDbLine
 10
-137.513174
 20
1094.727555
 30
0.0
 11
-139.090475
 21
1094.727555
 31
0.0
  0
LINE
  5
281
330
1D4
100
AcDbEntity
  8
0
  6
Continuous
 62
     0
370
    30
100
AcDbLine
 10
-132.493993
 20
1094.730467
 30
0.0
 11
-132.297319
 21
1094.927524
 31
0.0
  0
LINE
  5
282
330
1D4
100
AcDbEntity
  8
0
  6
Continuous
 62
     0
370
    30
100
AcDbLine
 10
-139.288652
 20
1094.927549
 30
0.0
 11
-139.089422
 21
1094.728215
 31
0.0
  0
LINE
  5
283
330
1D4
100
AcDbEntity
  8
0
  6
Continuous
 62
     0
370
    30
100
AcDbLine
 10
-132.29048
 20
1134.860612
 30
0.0
 11
-132.29048
 21
1094.927555
 31
0.0
  0
LINE
  5
284
330
1D4
100
AcDbEntity
  8
0
  6
Continuous
 62
     0
370
    30
100
AcDbLine
 10
-139.29048
 20
1134.860612
 30
0.0
 11
-139.29048
 21
1094.927555
 31
0.0
  0
LINE
  5
285
330
1D4
100
AcDbEntity
  8
0
  6
Continuous
 62
     0
370
    30
100
AcDbLine
 10
-132.595429
 20
1169.192884
 30
0.0
 11
-139.29048
 21
1169.192884
 31
0.0
  0
LINE
  5
286
330
1D4
100
AcDbEntity
  8
0
  6
Continuous
 62
     0
370
    30
100
AcDbLine
 10
-132.29048
 20
1169.192884
 30
0.0
 11
-132.595429
 21
1169.192884
 31
0.0
  0
LINE
  5
287
330
1D4
100
AcDbEntity
  8
0
  6
Continuous
 62
     0
370
    30
100
AcDbLine
 10
-132.778003
 20
1169.392884
 30
0.0
 11
-132.490512
 21
1169.392884
 31
0.0
  0
LWPOLYLINE
  5
288
330
1D4
100
AcDbEntity
  8
0
  6
Continuous
 62
     0
370
    30
100
AcDbPolyline
 90
       19
 70
     0
 43
0.0
 10
-139.090454
 20
1169.392944
 10
-139.053101
 20
1169.392944
 10
-138.941544
 20
1169.392944
 10
-138.758423
 20
1169.392944
 10
-138.507843
 20
1169.392944
 10
-138.195526
 20
1169.392944
 10
-137.828598
 20
1169.392944
 10
-137.415298
 20
1169.392944
 10
-136.965134
 20
1169.392944
 10
-136.488235
 20
1169.392944
 10
-135.995514
 20
1169.392944
 10
-135.498123
 20
1169.392944
 10
-135.00737
 20
1169.392944
 10
-134.534424
 20
1169.392944
 10
-134.089981
 20
1169.392944
 10
-133.68425
 20
1169.392944
 10
-133.326279
 20
1169.392944
 10
-133.024399
 20
1169.392944
 10
-132.778
 20
1169.392944
  0
LINE
  5
289
330
1D4
100
AcDbEntity
  8
0
  6
Continuous
 62
     0
370
    30
100
AcDbLine
 10
-132.489975
 20
1169.392634
 30
0.0
 11
-132.290513
 21
1169.193187
 31
0.0
  0
LINE
  5
28A
330
1D4
100
AcDbEntity
  8
0
  6
Continuous
 62
     0
370
    30
100
AcDbLine
 10
-139.286192
 20
1169.192887
 30
0.0
 11
-139.08844
 21
1169.390882
 31
0.0
  0
LINE
  5
28B
330
1D4
100
AcDbEntity
  8
0
  6
Continuous
 62
     0
370
    30
100
AcDbLine
 10
-132.29048
 20
1156.860612
 30
0.0
 11
-132.29048
 21
1169.192884
 31
0.0
  0
LINE
  5
28C
330
1D4
100
AcDbEntity
  8
0
  6
Continuous
 62
     0
370
    30
100
AcDbLine
 10
-139.29048
 20
1156.860612
 30
0.0
 11
-139.29048
 21
1169.192884
 31
0.0
  0
ENDBLK
  5
28E
330
1D4
100
AcDbEntity
  8
0
100
AcDbBlockEnd
  0
ENDSEC
  0
SECTION
  2
ENTITIES
  0
INSERT
  5
EE
330
1F
100
AcDbEntity
  8
0
  6
Continuous
 62
     7
370
     0
100
AcDbBlockReference
  2
a
 10
19.798489
 20
106.3806
 30
0.0
  0
INSERT
  5
117
330
1F
100
AcDbEntity
  8
0
  6
Continuous
 62
     7
370
     0
100
AcDbBlockReference
  2
b
 10
19.798489
 20
516.102646
 30
0.0
  0
INSERT
  5
1D3
330
1F
100
AcDbEntity
  8
0
  6
Continuous
 62
     7
370
     0
100
AcDbBlockReference
  2
c
 10
19.798489
 20
106.3806
 30
0.0
  0
INSERT
  5
28F
330
1F
100
AcDbEntity
  8
0
  6
Continuous
 62
     7
370
     0
100
AcDbBlockReference
  2
d
 10
-37.617874
 20
0.0
 30
0.0
  0
ENDSEC
  0
SECTION
  2
OBJECTS
  0
DICTIONARY
  5
C
330
0
100
AcDbDictionary
281
     1
  3
ACAD_GROUP
350
D
  3
ACAD_LAYOUT
350
1A
  3
ACAD_MATERIAL
350
43
  3
ACAD_MLEADERSTYLE
350
6B
  3
ACAD_MLINESTYLE
350
17
  3
ACAD_PLOTSETTINGS
350
19
  3
ACAD_PLOTSTYLENAME
350
E
  3
ACAD_SCALELIST
350
47
  3
ACAD_TABLESTYLE
350
69
  3
ACAD_VISUALSTYLE
350
2A
  3
AcDbVariableDictionary
350
290
  0
DICTIONARY
  5
29B
330
8
100
AcDbDictionary
280
     1
281
     1
  3
ACAD_XREC_ROUNDTRIP
360
29C
  0
DICTIONARY
  5
D
102
{ACAD_REACTORS
330
C
102
}
330
C
100
AcDbDictionary
281
     1
  0
DICTIONARY
  5
1A
102
{ACAD_REACTORS
330
C
102
}
330
C
100
AcDbDictionary
281
     1
  3
Layout1
350
1E
  3
Layout2
350
26
  3
Model
350
22
  0
DICTIONARY
  5
43
102
{ACAD_REACTORS
330
C
102
}
330
C
100
AcDbDictionary
281
     1
  3
ByBlock
350
45
  3
ByLayer
350
44
  3
Global
350
46
  0
DICTIONARY
  5
6B
102
{ACAD_REACTORS
330
C
102
}
330
C
100
AcDbDictionary
281
     1
  3
Standard
350
6C
  0
DICTIONARY
  5
17
102
{ACAD_REACTORS
330
C
102
}
330
C
100
AcDbDictionary
281
     1
  3
Standard
350
18
  0
DICTIONARY
  5
19
102
{ACAD_REACTORS
330
C
102
}
330
C
100
AcDbDictionary
281
     1
  0
ACDBDICTIONARYWDFLT
  5
E
102
{ACAD_REACTORS
330
C
102
}
330
C
100
AcDbDictionary
281
     1
  3
Normal
350
F
100
AcDbDictionaryWithDefault
340
F
  0
DICTIONARY
  5
47
102
{ACAD_REACTORS
330
C
102
}
330
C
100
AcDbDictionary
281
     1
  3
A0
350
48
  3
A1
350
49
  3
A2
350
4A
  3
A3
350
4B
  3
A4
350
4C
  3
A5
350
4D
  3
A6
350
4E
  3
A7
350
4F
  3
A8
350
50
  3
A9
350
51
  3
B0
350
52
  3
B1
350
53
  3
B2
350
54
  3
B3
350
55
  3
B4
350
56
  3
B5
350
57
  3
B6
350
58
  3
B7
350
59
  3
B8
350
5A
  3
B9
350
5B
  3
C0
350
5C
  3
C1
350
5D
  3
C2
350
5E
  3
C3
350
5F
  3
C4
350
60
  3
C5
350
61
  3
C6
350
62
  3
C7
350
63
  3
C8
350
64
  3
C9
350
65
  3
D0
350
66
  3
D1
350
67
  3
D2
350
68
  0
DICTIONARY
  5
69
102
{ACAD_REACTORS
330
C
102
}
330
C
100
AcDbDictionary
281
     1
  3
Standard
350
6A
  0
DICTIONARY
  5
2A
102
{ACAD_REACTORS
330
C
102
}
330
C
100
AcDbDictionary
281
     1
  3
2dWireframe
350
2F
  3
Basic
350
32
  3
Brighten
350
36
  3
ColorChange
350
3A
  3
Conceptual
350
34
  3
Dim
350
35
  3
EdgeColorOff
350
3D
  3
Facepattern
350
39
  3
Flat
350
2B
  3
FlatWithEdges
350
2C
  3
Gouraud
350
2D
  3
GouraudWithEdges
350
2E
  3
Hidden
350
31
  3
JitterOff
350
3B
  3
Linepattern
350
38
  3
OverhangOff
350
3C
  3
Realistic
350
33
  3
Shaded
350
42
  3
Shaded with edges
350
41
  3
Shades of Gray
350
3E
  3
Sketchy
350
3F
  3
Thicken
350
37
  3
Wireframe
350
30
  3
X-Ray
350
40
  0
DICTIONARY
  5
290
102
{ACAD_REACTORS
330
C
102
}
330
C
100
AcDbDictionary
281
     1
  3
CANNOSCALE
350
29D
  3
CENTEREXE
350
297
  3
CENTERLTYPEFILE
350
298
  3
CMLEADERSTYLE
350
292
  3
CTABLESTYLE
350
291
  3
DIMASSOC
350
299
  3
HIDETEXT
350
29A
  3
MSLTSCALE
350
29E
  3
PSOLHEIGHT
350
294
  3
PSOLWIDTH
350
293
  0
XRECORD
  5
29C
102
{ACAD_REACTORS
330
29B
102
}
330
29B
100
AcDbXrecord
280
     1
102
VTR_0.000_0.000_1.000_1.000_VISUALSTYLE
340
2F
102
VTR_0.000_0.000_1.000_1.000_GRIDDISPLAY
 70
     3
102
VTR_0.000_0.000_1.000_1.000_GRIDMAJOR
 70
     5
102
VTR_0.000_0.000_1.000_1.000_DEFAULTLIGHTING
280
     1
102
VTR_0.000_0.000_1.000_1.000_DEFAULTLIGHTINGTYPE
 70
     1
102
VTR_0.000_0.000_1.000_1.000_BRIGHTNESS
141
0.0
102
VTR_0.000_0.000_1.000_1.000_CONTRAST
142
0.0
  0
LAYOUT
  5
1E
102
{ACAD_REACTORS
330
1A
102
}
330
1A
100
AcDbPlotSettings
  1

  2
none_device
  4

  6

 40
0.0
 41
0.0
 42
0.0
 43
0.0
 44
0.0
 45
0.0
 46
0.0
 47
0.0
 48
0.0
 49
0.0
140
0.0
141
0.0
142
1.0
143
1.0
 70
   688
 72
     1
 73
     0
 74
     5
  7

 75
    16
147
1.0
148
0.0
149
0.0
100
AcDbLayout
  1
Layout1
 70
     1
 71
     1
 10
0.0
 20
0.0
 11
420.0
 21
297.0
 12
0.0
 22
0.0
 32
0.0
 14
1.000000E+20
 24
1.000000E+20
 34
1.000000E+20
 15
-1.000000E+20
 25
-1.000000E+20
 35
-1.000000E+20
146
0.0
 13
0.0
 23
0.0
 33
0.0
 16
1.0
 26
0.0
 36
0.0
 17
0.0
 27
1.0
 37
0.0
 76
     0
330
1B
  0
LAYOUT
  5
26
102
{ACAD_REACTORS
330
1A
102
}
330
1A
100
AcDbPlotSettings
  1

  2
none_device
  4

  6

 40
0.0
 41
0.0
 42
0.0
 43
0.0
 44
0.0
 45
0.0
 46
0.0
 47
0.0
 48
0.0
 49
0.0
140
0.0
141
0.0
142
1.0
143
1.0
 70
   688
 72
     1
 73
     0
 74
     5
  7

 75
    16
147
1.0
148
0.0
149
0.0
100
AcDbLayout
  1
Layout2
 70
     1
 71
     2
 10
0.0
 20
0.0
 11
0.0
 21
0.0
 12
0.0
 22
0.0
 32
0.0
 14
0.0
 24
0.0
 34
0.0
 15
0.0
 25
0.0
 35
0.0
146
0.0
 13
0.0
 23
0.0
 33
0.0
 16
1.0
 26
0.0
 36
0.0
 17
0.0
 27
1.0
 37
0.0
 76
     0
330
23
  0
LAYOUT
  5
22
102
{ACAD_REACTORS
330
1A
102
}
330
1A
100
AcDbPlotSettings
  1

  2
none_device
  4
Letter_(8.50_x_11.00_Inches)
  6

 40
6.35
 41
6.35
 42
6.350005
 43
6.350005
 44
215.9
 45
279.4
 46
0.0
 47
0.0
 48
0.0
 49
0.0
140
0.0
141
0.0
142
1.0
143
1.0
 70
  1712
 72
     1
 73
     0
 74
     0
  7

 75
     0
147
1.0
148
0.0
149
0.0
100
AcDbLayout
  1
Model
 70
     1
 71
     0
 10
-143.290482
 20
487.850433
 11
311.82373
 21
1173.360596
 12
0.0
 22
0.0
 32
0.0
 14
-143.290482
 24
487.850433
 34
0.0
 15
311.82373
 25
1173.360596
 35
0.0
146
0.0
 13
0.0
 23
0.0
 33
0.0
 16
1.0
 26
0.0
 36
0.0
 17
0.0
 27
1.0
 37
0.0
 76
     0
330
1F
331
29
  0
MATERIAL
  5
45
102
{ACAD_REACTORS
330
43
102
}
102
{ACAD_XDICTIONARY
360
2D1
102
}
330
43
100
AcDbMaterial
  1
ByBlock
  0
MATERIAL
  5
44
102
{ACAD_REACTORS
330
43
102
}
102
{ACAD_XDICTIONARY
360
2CF
102
}
330
43
100
AcDbMaterial
  1
ByLayer
  0
MATERIAL
  5
46
102
{ACAD_REACTORS
330
43
102
}
102
{ACAD_XDICTIONARY
360
2D3
102
}
330
43
100
AcDbMaterial
  1
Global
  0
MLEADERSTYLE
  5
6C
102
{ACAD_REACTORS
330
6B
102
}
102
{ACAD_XDICTIONARY
360
2D6
102
}
330
6B
100
AcDbMLeaderStyle
170
     2
171
     1
172
     0
 90
        2
 40
0.0
 41
0.0
173
     1
 91
-1056964608
340
14
 92
       -2
290
     1
 42
2.0
291
     1
 43
8.0
  3
Standard
341
0
 44
4.0
300

342
11
174
     1
178
     6
175
     1
176
     0
 93
-1056964608
 45
4.0
292
     0
297
     0
 46
4.0
343
0
 94
-1056964608
 47
1.0
 49
1.0
140
1.0
293
     1
141
0.0
294
     1
177
     0
142
1.0
295
     0
296
     0
143
3.75
1001
ACAD_MLEADERVER
1070
     2
  0
MLINESTYLE
  5
18
102
{ACAD_REACTORS
330
17
102
}
330
17
100
AcDbMlineStyle
  2
Standard
 70
     0
  3

 62
   256
 51
90.0
 52
90.0
 71
     2
 49
0.5
 62
   256
  6
BYLAYER
 49
-0.5
 62
   256
  6
BYLAYER
  0
ACDBPLACEHOLDER
  5
F
102
{ACAD_REACTORS
330
E
102
}
330
E
  0
SCALE
  5
48
102
{ACAD_REACTORS
330
47
102
}
330
47
100
AcDbScale
 70
     0
300
1:1
140
1.0
141
1.0
290
     1
  0
SCALE
  5
49
102
{ACAD_REACTORS
330
47
102
}
330
47
100
AcDbScale
 70
     0
300
1:2
140
1.0
141
2.0
290
     0
  0
SCALE
  5
4A
102
{ACAD_REACTORS
330
47
102
}
330
47
100
AcDbScale
 70
     0
300
1:4
140
1.0
141
4.0
290
     0
  0
SCALE
  5
4B
102
{ACAD_REACTORS
330
47
102
}
330
47
100
AcDbScale
 70
     0
300
1:5
140
1.0
141
5.0
290
     0
  0
SCALE
  5
4C
102
{ACAD_REACTORS
330
47
102
}
330
47
100
AcDbScale
 70
     0
300
1:8
140
1.0
141
8.0
290
     0
  0
SCALE
  5
4D
102
{ACAD_REACTORS
330
47
102
}
330
47
100
AcDbScale
 70
     0
300
1:10
140
1.0
141
10.0
290
     0
  0
SCALE
  5
4E
102
{ACAD_REACTORS
330
47
102
}
330
47
100
AcDbScale
 70
     0
300
1:16
140
1.0
141
16.0
290
     0
  0
SCALE
  5
4F
102
{ACAD_REACTORS
330
47
102
}
330
47
100
AcDbScale
 70
     0
300
1:20
140
1.0
141
20.0
290
     0
  0
SCALE
  5
50
102
{ACAD_REACTORS
330
47
102
}
330
47
100
AcDbScale
 70
     0
300
1:30
140
1.0
141
30.0
290
     0
  0
SCALE
  5
51
102
{ACAD_REACTORS
330
47
102
}
330
47
100
AcDbScale
 70
     0
300
1:40
140
1.0
141
40.0
290
     0
  0
SCALE
  5
52
102
{ACAD_REACTORS
330
47
102
}
330
47
100
AcDbScale
 70
     0
300
1:50
140
1.0
141
50.0
290
     0
  0
SCALE
  5
53
102
{ACAD_REACTORS
330
47
102
}
330
47
100
AcDbScale
 70
     0
300
1:100
140
1.0
141
100.0
290
     0
  0
SCALE
  5
54
102
{ACAD_REACTORS
330
47
102
}
330
47
100
AcDbScale
 70
     0
300
2:1
140
2.0
141
1.0
290
     0
  0
SCALE
  5
55
102
{ACAD_REACTORS
330
47
102
}
330
47
100
AcDbScale
 70
     0
300
4:1
140
4.0
141
1.0
290
     0
  0
SCALE
  5
56
102
{ACAD_REACTORS
330
47
102
}
330
47
100
AcDbScale
 70
     0
300
8:1
140
8.0
141
1.0
290
     0
  0
SCALE
  5
57
102
{ACAD_REACTORS
330
47
102
}
330
47
100
AcDbScale
 70
     0
300
10:1
140
10.0
141
1.0
290
     0
  0
SCALE
  5
58
102
{ACAD_REACTORS
330
47
102
}
330
47
100
AcDbScale
 70
     0
300
100:1
140
100.0
141
1.0
290
     0
  0
SCALE
  5
59
102
{ACAD_REACTORS
330
47
102
}
330
47
100
AcDbScale
 70
     0
300
1/128" = 1'-0"
140
0.007812
141
12.0
290
     0
  0
SCALE
  5
5A
102
{ACAD_REACTORS
330
47
102
}
330
47
100
AcDbScale
 70
     0
300
1/64" = 1'-0"
140
0.015625
141
12.0
290
     0
  0
SCALE
  5
5B
102
{ACAD_REACTORS
330
47
102
}
330
47
100
AcDbScale
 70
     0
300
1/32" = 1'-0"
140
0.03125
141
12.0
290
     0
  0
SCALE
  5
5C
102
{ACAD_REACTORS
330
47
102
}
330
47
100
AcDbScale
 70
     0
300
1/16" = 1'-0"
140
0.0625
141
12.0
290
     0
  0
SCALE
  5
5D
102
{ACAD_REACTORS
330
47
102
}
330
47
100
AcDbScale
 70
     0
300
3/32" = 1'-0"
140
0.09375
141
12.0
290
     0
  0
SCALE
  5
5E
102
{ACAD_REACTORS
330
47
102
}
330
47
100
AcDbScale
 70
     0
300
1/8" = 1'-0"
140
0.125
141
12.0
290
     0
  0
SCALE
  5
5F
102
{ACAD_REACTORS
330
47
102
}
330
47
100
AcDbScale
 70
     0
300
3/16" = 1'-0"
140
0.1875
141
12.0
290
     0
  0
SCALE
  5
60
102
{ACAD_REACTORS
330
47
102
}
330
47
100
AcDbScale
 70
     0
300
1/4" = 1'-0"
140
0.25
141
12.0
290
     0
  0
SCALE
  5
61
102
{ACAD_REACTORS
330
47
102
}
330
47
100
AcDbScale
 70
     0
300
3/8" = 1'-0"
140
0.375
141
12.0
290
     0
  0
SCALE
  5
62
102
{ACAD_REACTORS
330
47
102
}
330
47
100
AcDbScale
 70
     0
300
1/2" = 1'-0"
140
0.5
141
12.0
290
     0
  0
SCALE
  5
63
102
{ACAD_REACTORS
330
47
102
}
330
47
100
AcDbScale
 70
     0
300
3/4" = 1'-0"
140
0.75
141
12.0
290
     0
  0
SCALE
  5
64
102
{ACAD_REACTORS
330
47
102
}
330
47
100
AcDbScale
 70
     0
300
1" = 1'-0"
140
1.0
141
12.0
290
     0
  0
SCALE
  5
65
102
{ACAD_REACTORS
330
47
102
}
330
47
100
AcDbScale
 70
     0
300
1-1/2" = 1'-0"
140
1.5
141
12.0
290
     0
  0
SCALE
  5
66
102
{ACAD_REACTORS
330
47
102
}
330
47
100
AcDbScale
 70
     0
300
3" = 1'-0"
140
3.0
141
12.0
290
     0
  0
SCALE
  5
67
102
{ACAD_REACTORS
330
47
102
}
330
47
100
AcDbScale
 70
     0
300
6" = 1'-0"
140
6.0
141
12.0
290
     0
  0
SCALE
  5
68
102
{ACAD_REACTORS
330
47
102
}
330
47
100
AcDbScale
 70
     0
300
1'-0" = 1'-0"
140
12.0
141
12.0
290
     0
  0
TABLESTYLE
  5
6A
102
{ACAD_REACTORS
330
69
102
}
330
69
100
AcDbTableStyle
  3
Standard
 70
     0
 71
     0
 40
1.5
 41
1.5
280
     0
281
     0
  7
Standard
140
4.5
170
     2
 62
     0
 63
   257
283
     0
274
    -2
284
     1
 64
     0
275
    -2
285
     1
 65
     0
276
    -2
286
     1
 66
     0
277
    -2
287
     1
 67
     0
278
    -2
288
     1
 68
     0
279
    -2
289
     1
 69
     0
  7
Standard
140
6.0
170
     5
 62
     0
 63
   257
283
     0
274
    -2
284
     1
 64
     0
275
    -2
285
     1
 65
     0
276
    -2
286
     1
 66
     0
277
    -2
287
     1
 67
     0
278
    -2
288
     1
 68
     0
279
    -2
289
     1
 69
     0
  7
Standard
140
4.5
170
     5
 62
     0
 63
   257
283
     0
274
    -2
284
     1
 64
     0
275
    -2
285
     1
 65
     0
276
    -2
286
     1
 66
     0
277
    -2
287
     1
 67
     0
278
    -2
288
     1
 68
     0
279
    -2
289
     1
 69
     0
  0
VISUALSTYLE
  5
2F
102
{ACAD_REACTORS
330
2A
102
}
102
{ACAD_XDICTIONARY
360
2A7
102
}
330
2A
100
AcDbVisualStyle
  2
2dWireframe
 70
     4
 71
     0
 72
     2
 73
     0
 90
        0
 40
0.6
 41
30.0
 62
     5
 63
     7
 74
     1
 91
        4
 64
     7
 65
   257
 75
     1
175
     1
 42
1.0
 92
        0
 66
   257
 43
1.0
 76
     1
 77
     6
 78
     2
 67
     7
 79
     5
170
     0
171
     0
290
     0
174
     0
 93
        1
 44
0.0
173
     0
291
     0
 45
0.0
1001
ACAD
1000
AcDbSavedByObjectVersion
1070
     0
  0
VISUALSTYLE
  5
32
102
{ACAD_REACTORS
330
2A
102
}
102
{ACAD_XDICTIONARY
360
2AD
102
}
330
2A
100
AcDbVisualStyle
  2
Basic
 70
     7
 71
     1
 72
     0
 73
     1
 90
        0
 40
0.6
 41
30.0
 62
     5
 63
     7
 74
     0
 91
        4
 64
     7
 65
   257
 75
     1
175
     1
 42
1.0
 92
        8
 66
     7
 43
1.0
 76
     1
 77
     6
 78
     2
 67
     7
 79
     5
170
     0
171
     0
290
     0
174
     0
 93
        1
 44
0.0
173
     0
291
     1
 45
0.0
1001
ACAD
1000
AcDbSavedByObjectVersion
1070
     0
  0
VISUALSTYLE
  5
36
102
{ACAD_REACTORS
330
2A
102
}
102
{ACAD_XDICTIONARY
360
2B5
102
}
330
2A
100
AcDbVisualStyle
  2
Brighten
 70
    12
 71
     2
 72
     2
 73
     0
 90
        0
 40
0.6
 41
30.0
 62
     5
 63
     7
 74
     1
 91
        4
 64
     7
 65
   257
 75
     1
175
     1
 42
1.0
 92
        8
 66
     7
 43
1.0
 76
     1
 77
     6
 78
     2
 67
     7
 79
     5
170
     0
171
     0
290
     0
174
     0
 93
        1
 44
50.0
173
     0
291
     1
 45
0.0
1001
ACAD
1000
AcDbSavedByObjectVersion
1070
     0
  0
VISUALSTYLE
  5
3A
102
{ACAD_REACTORS
330
2A
102
}
102
{ACAD_XDICTIONARY
360
2BD
102
}
330
2A
100
AcDbVisualStyle
  2
ColorChange
 70
    16
 71
     2
 72
     2
 73
     3
 90
        0
 40
0.6
 41
30.0
 62
     5
 63
     8
 74
     1
 91
        4
 64
     7
 65
   257
 75
     1
175
     1
 42
1.0
 92
        8
 66
     8
 43
1.0
 76
     1
 77
     6
 78
     2
 67
     7
 79
     5
170
     0
171
     0
290
     0
174
     0
 93
        1
 44
0.0
173
     0
291
     1
 45
0.0
1001
ACAD
1000
AcDbSavedByObjectVersion
1070
     0
  0
VISUALSTYLE
  5
34
102
{ACAD_REACTORS
330
2A
102
}
102
{ACAD_XDICTIONARY
360
2B1
102
}
330
2A
100
AcDbVisualStyle
  2
Conceptual
 70
     9
 71
     3
 72
     2
 73
     0
 90
        0
 40
0.6
 41
30.0
 62
     5
 63
     7
 74
     2
 91
        2
 64
     7
 65
   257
 75
     1
175
     1
 42
179.0
 92
        8
 66
     7
 43
1.0
 76
     1
 77
     6
 78
     2
 67
     7
 79
     3
170
     0
171
     0
290
     0
174
     0
 93
        1
 44
0.0
173
     0
291
     0
 45
0.0
1001
ACAD
1000
AcDbSavedByObjectVersion
1070
     0
  0
VISUALSTYLE
  5
35
102
{ACAD_REACTORS
330
2A
102
}
102
{ACAD_XDICTIONARY
360
2B3
102
}
330
2A
100
AcDbVisualStyle
  2
Dim
 70
    11
 71
     2
 72
     2
 73
     0
 90
        0
 40
0.6
 41
30.0
 62
     5
 63
     7
 74
     1
 91
        4
 64
     7
 65
   257
 75
     1
175
     1
 42
1.0
 92
        8
 66
     7
 43
1.0
 76
     1
 77
     6
 78
     2
 67
     7
 79
     5
170
     0
171
     0
290
     0
174
     0
 93
        1
 44
-50.0
173
     0
291
     1
 45
0.0
1001
ACAD
1000
AcDbSavedByObjectVersion
1070
     0
  0
VISUALSTYLE
  5
3D
102
{ACAD_REACTORS
330
2A
102
}
102
{ACAD_XDICTIONARY
360
2C3
102
}
330
2A
100
AcDbVisualStyle
  2
EdgeColorOff
 70
    22
 71
     2
 72
     2
 73
     0
 90
        0
 40
0.6
 41
30.0
 62
     5
 63
     7
 74
     1
 91
        4
 64
     7
 65
   257
 75
     1
175
     1
 42
1.0
 92
        8
 66
     7
 43
1.0
 76
     1
 77
     6
 78
     2
 67
     7
 79
     5
170
     0
171
     0
290
     0
174
     0
 93
        1
 44
0.0
173
     0
291
     1
 45
0.0
1001
ACAD
1000
AcDbSavedByObjectVersion
1070
     0
  0
VISUALSTYLE
  5
39
102
{ACAD_REACTORS
330
2A
102
}
102
{ACAD_XDICTIONARY
360
2BB
102
}
330
2A
100
AcDbVisualStyle
  2
Facepattern
 70
    15
 71
     2
 72
     2
 73
     0
 90
        0
 40
0.6
 41
30.0
 62
     5
 63
     7
 74
     1
 91
        4
 64
     7
 65
   257
 75
     1
175
     1
 42
1.0
 92
        8
 66
     7
 43
1.0
 76
     1
 77
     6
 78
     2
 67
     7
 79
     5
170
     0
171
     0
290
     0
174
     0
 93
        1
 44
0.0
173
     0
291
     1
 45
0.0
1001
ACAD
1000
AcDbSavedByObjectVersion
1070
     0
  0
VISUALSTYLE
  5
2B
102
{ACAD_REACTORS
330
2A
102
}
102
{ACAD_XDICTIONARY
360
29F
102
}
330
2A
100
AcDbVisualStyle
  2
Flat
 70
     0
 71
     2
 72
     1
 73
     1
 90
        2
 40
0.6
 41
30.0
 62
     5
 63
     7
 74
     0
 91
        0
 64
     7
 65
   257
 75
     1
175
     1
 42
1.0
 92
        8
 66
     7
 43
1.0
 76
     1
 77
     6
 78
     2
 67
     7
 79
     5
170
     0
171
     0
290
     0
174
     0
 93
       13
 44
0.0
173
     0
291
     1
 45
0.0
1001
ACAD
1000
AcDbSavedByObjectVersion
1070
     0
  0
VISUALSTYLE
  5
2C
102
{ACAD_REACTORS
330
2A
102
}
102
{ACAD_XDICTIONARY
360
2A1
102
}
330
2A
100
AcDbVisualStyle
  2
FlatWithEdges
 70
     1
 71
     2
 72
     1
 73
     1
 90
        2
 40
0.6
 41
30.0
 62
     5
 63
     7
 74
     1
 91
        0
 64
     7
 65
   257
 75
     1
175
     1
 42
1.0
 92
        0
 66
   257
 43
1.0
 76
     1
 77
     6
 78
     2
 67
     7
 79
     5
170
     0
171
     0
290
     0
174
     0
 93
       13
 44
0.0
173
     0
291
     1
 45
0.0
1001
ACAD
1000
AcDbSavedByObjectVersion
1070
     0
  0
VISUALSTYLE
  5
2D
102
{ACAD_REACTORS
330
2A
102
}
102
{ACAD_XDICTIONARY
360
2A3
102
}
330
2A
100
AcDbVisualStyle
  2
Gouraud
 70
     2
 71
     2
 72
     2
 73
     1
 90
        2
 40
0.6
 41
30.0
 62
     5
 63
     7
 74
     0
 91
        0
 64
     7
 65
   257
 75
     1
175
     1
 42
1.0
 92
        0
 66
     7
 43
1.0
 76
     1
 77
     6
 78
     2
 67
     7
 79
     5
170
     0
171
     0
290
     0
174
     0
 93
       13
 44
0.0
173
     0
291
     1
 45
0.0
1001
ACAD
1000
AcDbSavedByObjectVersion
1070
     0
  0
VISUALSTYLE
  5
2E
102
{ACAD_REACTORS
330
2A
102
}
102
{ACAD_XDICTIONARY
360
2A5
102
}
330
2A
100
AcDbVisualStyle
  2
GouraudWithEdges
 70
     3
 71
     2
 72
     2
 73
     1
 90
        2
 40
0.6
 41
30.0
 62
     5
 63
     7
 74
     1
 91
        0
 64
     7
 65
   257
 75
     1
175
     1
 42
1.0
 92
        0
 66
   257
 43
1.0
 76
     1
 77
     6
 78
     2
 67
     7
 79
     5
170
     0
171
     0
290
     0
174
     0
 93
       13
 44
0.0
173
     0
291
     1
 45
0.0
1001
ACAD
1000
AcDbSavedByObjectVersion
1070
     0
  0
VISUALSTYLE
  5
31
102
{ACAD_REACTORS
330
2A
102
}
102
{ACAD_XDICTIONARY
360
2AB
102
}
330
2A
100
AcDbVisualStyle
  2
Hidden
 70
     6
 71
     1
 72
     2
 73
     2
 90
        0
 40
0.6
 41
30.0
 62
     5
 63
     7
 74
     2
 91
        2
 64
     7
 65
   257
 75
     2
175
     1
 42
40.0
 92
        0
 66
   257
 43
1.0
 76
     1
 77
     6
 78
     2
 67
     7
 79
     3
170
     0
171
     0
290
     0
174
     0
 93
        1
 44
0.0
173
     0
291
     0
 45
0.0
1001
ACAD
1000
AcDbSavedByObjectVersion
1070
     0
  0
VISUALSTYLE
  5
3B
102
{ACAD_REACTORS
330
2A
102
}
102
{ACAD_XDICTIONARY
360
2BF
102
}
330
2A
100
AcDbVisualStyle
  2
JitterOff
 70
    20
 71
     2
 72
     2
 73
     0
 90
        0
 40
0.6
 41
30.0
 62
     5
 63
     7
 74
     1
 91
        4
 64
     7
 65
   257
 75
     1
175
     1
 42
1.0
 92
       10
 66
     7
 43
1.0
 76
     1
 77
     6
 78
     2
 67
     7
 79
     5
170
     0
171
     0
290
     0
174
     0
 93
        1
 44
0.0
173
     0
291
     1
 45
0.0
1001
ACAD
1000
AcDbSavedByObjectVersion
1070
     0
  0
VISUALSTYLE
  5
38
102
{ACAD_REACTORS
330
2A
102
}
102
{ACAD_XDICTIONARY
360
2B9
102
}
330
2A
100
AcDbVisualStyle
  2
Linepattern
 70
    14
 71
     2
 72
     2
 73
     0
 90
        0
 40
0.6
 41
30.0
 62
     5
 63
     7
 74
     1
 91
        4
 64
     7
 65
   257
 75
     7
175
     7
 42
1.0
 92
        8
 66
     7
 43
1.0
 76
     1
 77
     6
 78
     2
 67
     7
 79
     5
170
     0
171
     0
290
     0
174
     0
 93
        1
 44
0.0
173
     0
291
     1
 45
0.0
1001
ACAD
1000
AcDbSavedByObjectVersion
1070
     0
  0
VISUALSTYLE
  5
3C
102
{ACAD_REACTORS
330
2A
102
}
102
{ACAD_XDICTIONARY
360
2C1
102
}
330
2A
100
AcDbVisualStyle
  2
OverhangOff
 70
    21
 71
     2
 72
     2
 73
     0
 90
        0
 40
0.6
 41
30.0
 62
     5
 63
     7
 74
     1
 91
        4
 64
     7
 65
   257
 75
     1
175
     1
 42
1.0
 92
        9
 66
     7
 43
1.0
 76
     1
 77
     6
 78
     2
 67
     7
 79
     5
170
     0
171
     0
290
     0
174
     0
 93
        1
 44
0.0
173
     0
291
     1
 45
0.0
1001
ACAD
1000
AcDbSavedByObjectVersion
1070
     0
  0
VISUALSTYLE
  5
33
102
{ACAD_REACTORS
330
2A
102
}
102
{ACAD_XDICTIONARY
360
2AF
102
}
330
2A
100
AcDbVisualStyle
  2
Realistic
 70
     8
 71
     2
 72
     3
 73
     0
 90
        2
 40
0.6
 41
30.0
 62
     5
 63
     7
 74
     0
 91
        0
 64
     7
 65
   257
 75
     1
175
     1
 42
1.0
 92
        8
 66
   257
 43
1.0
 76
     1
 77
     6
 78
     2
 67
     7
 79
     3
170
     0
171
     0
290
     0
174
     0
 93
       13
 44
0.0
173
     0
291
     0
 45
0.0
1001
ACAD
1000
AcDbSavedByObjectVersion
1070
     0
  0
VISUALSTYLE
  5
42
102
{ACAD_REACTORS
330
2A
102
}
102
{ACAD_XDICTIONARY
360
2CD
102
}
330
2A
100
AcDbVisualStyle
  2
Shaded
 70
    27
 71
     2
 72
     2
 73
     1
 90
        2
 40
0.6
 41
30.0
 62
     5
 63
     7
 74
     0
 91
        4
 64
     7
 65
   257
 75
     1
175
     1
 42
1.0
 92
        8
 66
   257
 43
1.0
 76
     1
 77
     6
 78
     2
 67
     8
 79
     3
170
     0
171
     0
290
     0
174
     0
 93
        5
 44
0.0
173
     0
291
     0
 45
0.0
1001
ACAD
1000
AcDbSavedByObjectVersion
1070
     0
  0
VISUALSTYLE
  5
41
102
{ACAD_REACTORS
330
2A
102
}
102
{ACAD_XDICTIONARY
360
2CB
102
}
330
2A
100
AcDbVisualStyle
  2
Shaded with edges
 70
    26
 71
     2
 72
     2
 73
     1
 90
        2
 40
0.6
 41
30.0
 62
     5
 63
     7
 74
     1
 91
       10
 64
     7
 65
   257
 75
     2
175
     1
 42
1.0
 92
        8
 66
   257
 43
1.0
 76
     1
 77
     6
 78
     2
 67
     7
 79
     3
170
     0
171
     0
290
     0
174
     0
 93
        5
 44
0.0
173
     0
291
     0
 45
0.0
1001
ACAD
1000
AcDbSavedByObjectVersion
1070
     0
  0
VISUALSTYLE
  5
3E
102
{ACAD_REACTORS
330
2A
102
}
102
{ACAD_XDICTIONARY
360
2C5
102
}
330
2A
100
AcDbVisualStyle
  2
Shades of Gray
 70
    23
 71
     2
 72
     2
 73
     3
 90
        0
 40
0.6
 41
30.0
 62
     5
 63
     7
 74
     2
 91
        2
 64
     7
 65
     7
 75
     1
175
     1
 42
40.0
 92
        8
 66
     7
 43
1.0
 76
     1
 77
     6
 78
     2
 67
     7
 79
     3
170
     0
171
     0
290
     0
174
     0
 93
        1
 44
0.0
173
     0
291
     0
 45
0.0
1001
ACAD
1000
AcDbSavedByObjectVersion
1070
     0
  0
VISUALSTYLE
  5
3F
102
{ACAD_REACTORS
330
2A
102
}
102
{ACAD_XDICTIONARY
360
2C7
102
}
330
2A
100
AcDbVisualStyle
  2
Sketchy
 70
    24
 71
     1
 72
     2
 73
     2
 90
        0
 40
0.6
 41
30.0
 62
     5
 63
     7
 74
     2
 91
        2
 64
     7
 65
     7
 75
     1
175
     1
 42
40.0
 92
       11
 66
     7
 43
1.0
 76
     1
 77
     6
 78
     2
 67
     7
 79
     6
170
     0
171
     0
290
     0
174
     0
 93
        1
 44
0.0
173
     0
291
     0
 45
0.0
1001
ACAD
1000
AcDbSavedByObjectVersion
1070
     0
  0
VISUALSTYLE
  5
37
102
{ACAD_REACTORS
330
2A
102
}
102
{ACAD_XDICTIONARY
360
2B7
102
}
330
2A
100
AcDbVisualStyle
  2
Thicken
 70
    13
 71
     2
 72
     2
 73
     0
 90
        0
 40
0.6
 41
30.0
 62
     5
 63
     7
 74
     1
 91
        4
 64
     7
 65
   257
 75
     1
175
     1
 42
1.0
 92
       12
 66
     7
 43
1.0
 76
     1
 77
     6
 78
     2
 67
     7
 79
     5
170
     0
171
     0
290
     0
174
     0
 93
        1
 44
0.0
173
     0
291
     1
 45
0.0
1001
ACAD
1000
AcDbSavedByObjectVersion
1070
     0
  0
VISUALSTYLE
  5
30
102
{ACAD_REACTORS
330
2A
102
}
102
{ACAD_XDICTIONARY
360
2A9
102
}
330
2A
100
AcDbVisualStyle
  2
Wireframe
 70
     5
 71
     0
 72
     2
 73
     0
 90
        0
 40
0.6
 41
30.0
 62
     5
 63
     7
 74
     1
 91
        4
 64
     7
 65
   257
 75
     1
175
     1
 42
1.0
 92
        0
 66
   257
 43
1.0
 76
     1
 77
     6
 78
     2
 67
     7
 79
     3
170
     0
171
     0
290
     0
174
     0
 93
        1
 44
0.0
173
     0
291
     0
 45
0.0
1001
ACAD
1000
AcDbSavedByObjectVersion
1070
     0
  0
VISUALSTYLE
  5
40
102
{ACAD_REACTORS
330
2A
102
}
102
{ACAD_XDICTIONARY
360
2C9
102
}
330
2A
100
AcDbVisualStyle
  2
X-Ray
 70
    25
 71
     2
 72
     2
 73
     1
 90
        1
 40
0.5
 41
30.0
 62
     5
 63
     7
 74
     1
 91
        0
 64
     7
 65
   257
 75
     1
175
     1
 42
1.0
 92
        8
 66
     7
 43
1.0
 76
     1
 77
     6
 78
     2
 67
     7
 79
     3
170
     0
171
     0
290
     0
174
     0
 93
       13
 44
0.0
173
     0
291
     0
 45
0.0
1001
ACAD
1000
AcDbSavedByObjectVersion
1070
     0
  0
DICTIONARYVAR
  5
29D
102
{ACAD_REACTORS
330
290
102
}
330
290
100
DictionaryVariables
280
     0
  1
1:1
  0
DICTIONARYVAR
  5
297
102
{ACAD_REACTORS
330
290
102
}
330
290
100
DictionaryVariables
280
     0
  1
3.500000
  0
DICTIONARYVAR
  5
298
102
{ACAD_REACTORS
330
290
102
}
330
290
100
DictionaryVariables
280
     0
  1
acadiso.lin
  0
DICTIONARYVAR
  5
292
102
{ACAD_REACTORS
330
290
102
}
330
290
100
DictionaryVariables
280
     0
  1
Standard
  0
DICTIONARYVAR
  5
291
102
{ACAD_REACTORS
330
290
102
}
330
290
100
DictionaryVariables
280
     0
  1
Standard
  0
DICTIONARYVAR
  5
299
102
{ACAD_REACTORS
330
290
102
}
330
290
100
DictionaryVariables
280
     0
  1
2
  0
DICTIONARYVAR
  5
29A
102
{ACAD_REACTORS
330
290
102
}
330
290
100
DictionaryVariables
280
     0
  1
1
  0
DICTIONARYVAR
  5
29E
102
{ACAD_REACTORS
330
290
102
}
330
290
100
DictionaryVariables
280
     0
  1
1
  0
DICTIONARYVAR
  5
294
102
{ACAD_REACTORS
330
290
102
}
330
290
100
DictionaryVariables
280
     0
  1
80.000000
  0
DICTIONARYVAR
  5
293
102
{ACAD_REACTORS
330
290
102
}
330
290
100
DictionaryVariables
280
     0
  1
5.000000
  0
DICTIONARY
  5
2D1
330
45
100
AcDbDictionary
280
     1
281
     1
  3
ACAD_XREC_ROUNDTRIP
360
2D2
  0
DICTIONARY
  5
2CF
330
44
100
AcDbDictionary
280
     1
281
     1
  3
ACAD_XREC_ROUNDTRIP
360
2D0
  0
DICTIONARY
  5
2D3
330
46
100
AcDbDictionary
280
     1
281
     1
  3
ACAD_XREC_ROUNDTRIP
360
2D4
  0
DICTIONARY
  5
2D6
330
6C
100
AcDbDictionary
280
     1
281
     1
  3
ACAD_XREC_ROUNDTRIP
360
2D7
  0
DICTIONARY
  5
2A7
330
2F
100
AcDbDictionary
280
     1
281
     1
  3
ACAD_XREC_ROUNDTRIP
360
2A8
  0
DICTIONARY
  5
2AD
330
32
100
AcDbDictionary
280
     1
281
     1
  3
ACAD_XREC_ROUNDTRIP
360
2AE
  0
DICTIONARY
  5
2B5
330
36
100
AcDbDictionary
280
     1
281
     1
  3
ACAD_XREC_ROUNDTRIP
360
2B6
  0
DICTIONARY
  5
2BD
330
3A
100
AcDbDictionary
280
     1
281
     1
  3
ACAD_XREC_ROUNDTRIP
360
2BE
  0
DICTIONARY
  5
2B1
330
34
100
AcDbDictionary
280
     1
281
     1
  3
ACAD_XREC_ROUNDTRIP
360
2B2
  0
DICTIONARY
  5
2B3
330
35
100
AcDbDictionary
280
     1
281
     1
  3
ACAD_XREC_ROUNDTRIP
360
2B4
  0
DICTIONARY
  5
2C3
330
3D
100
AcDbDictionary
280
     1
281
     1
  3
ACAD_XREC_ROUNDTRIP
360
2C4
  0
DICTIONARY
  5
2BB
330
39
100
AcDbDictionary
280
     1
281
     1
  3
ACAD_XREC_ROUNDTRIP
360
2BC
  0
DICTIONARY
  5
29F
330
2B
100
AcDbDictionary
280
     1
281
     1
  3
ACAD_XREC_ROUNDTRIP
360
2A0
  0
DICTIONARY
  5
2A1
330
2C
100
AcDbDictionary
280
     1
281
     1
  3
ACAD_XREC_ROUNDTRIP
360
2A2
  0
DICTIONARY
  5
2A3
330
2D
100
AcDbDictionary
280
     1
281
     1
  3
ACAD_XREC_ROUNDTRIP
360
2A4
  0
DICTIONARY
  5
2A5
330
2E
100
AcDbDictionary
280
     1
281
     1
  3
ACAD_XREC_ROUNDTRIP
360
2A6
  0
DICTIONARY
  5
2AB
330
31
100
AcDbDictionary
280
     1
281
     1
  3
ACAD_XREC_ROUNDTRIP
360
2AC
  0
DICTIONARY
  5
2BF
330
3B
100
AcDbDictionary
280
     1
281
     1
  3
ACAD_XREC_ROUNDTRIP
360
2C0
  0
DICTIONARY
  5
2B9
330
38
100
AcDbDictionary
280
     1
281
     1
  3
ACAD_XREC_ROUNDTRIP
360
2BA
  0
DICTIONARY
  5
2C1
330
3C
100
AcDbDictionary
280
     1
281
     1
  3
ACAD_XREC_ROUNDTRIP
360
2C2
  0
DICTIONARY
  5
2AF
330
33
100
AcDbDictionary
280
     1
281
     1
  3
ACAD_XREC_ROUNDTRIP
360
2B0
  0
DICTIONARY
  5
2CD
330
42
100
AcDbDictionary
280
     1
281
     1
  3
ACAD_XREC_ROUNDTRIP
360
2CE
  0
DICTIONARY
  5
2CB
330
41
100
AcDbDictionary
280
     1
281
     1
  3
ACAD_XREC_ROUNDTRIP
360
2CC
  0
DICTIONARY
  5
2C5
330
3E
100
AcDbDictionary
280
     1
281
     1
  3
ACAD_XREC_ROUNDTRIP
360
2C6
  0
DICTIONARY
  5
2C7
330
3F
100
AcDbDictionary
280
     1
281
     1
  3
ACAD_XREC_ROUNDTRIP
360
2C8
  0
DICTIONARY
  5
2B7
330
37
100
AcDbDictionary
280
     1
281
     1
  3
ACAD_XREC_ROUNDTRIP
360
2B8
  0
DICTIONARY
  5
2A9
330
30
100
AcDbDictionary
280
     1
281
     1
  3
ACAD_XREC_ROUNDTRIP
360
2AA
  0
DICTIONARY
  5
2C9
330
40
100
AcDbDictionary
280
     1
281
     1
  3
ACAD_XREC_ROUNDTRIP
360
2CA
  0
XRECORD
  5
2D2
102
{ACAD_REACTORS
330
2D1
102
}
330
2D1
100
AcDbXrecord
280
     1
102
MATERIAL
148
0.0
149
0.0
149
0.0
 93
        0
 94
      127
282
     0
 72
     1
 77
     1
171
     1
175
     1
179
     1
273
     0
  0
XRECORD
  5
2D0
102
{ACAD_REACTORS
330
2CF
102
}
330
2CF
100
AcDbXrecord
280
     1
102
MATERIAL
148
0.0
149
0.0
149
0.0
 93
        0
 94
      127
282
     0
 72
     1
 77
     1
171
     1
175
     1
179
     1
273
     0
  0
XRECORD
  5
2D4
102
{ACAD_REACTORS
330
2D3
102
}
330
2D3
100
AcDbXrecord
280
     1
102
MATERIAL
148
0.0
149
0.0
149
0.0
 93
        0
 94
      127
282
     0
 72
     1
 77
     1
171
     1
175
     1
179
     1
273
     0
  0
XRECORD
  5
2D7
102
{ACAD_REACTORS
330
2D6
102
}
330
2D6
100
AcDbXrecord
280
     1
102
ACAD_ROUNDTRIP_2010_MLEADER_STYLE
  0
XRECORD
  5
2A8
102
{ACAD_REACTORS
330
2A7
102
}
330
2A7
100
AcDbXrecord
280
     1
102
RTVSPropertyOp0
 70
     1
102
RTVSPropertyOp1
 70
     1
102
RTVSPropertyOp2
 70
     1
102
RTVSPropertyOp3
 70
     1
102
RTVSPropertyOp4
 70
     1
102
RTVSPropertyOp5
 70
     1
102
RTVSPropertyOp6
 70
     1
102
RTVSPropertyOp7
 70
     1
102
RTVSPropertyOp8
 70
     1
102
RTVSPropertyOp9
 70
     1
102
RTVSPropertyOp10
 70
     1
102
RTVSPropertyOp11
 70
     1
102
RTVSPropertyOp12
 70
     1
102
RTVSPropertyOp13
 70
     1
102
RTVSPropertyOp14
 70
     1
102
RTVSPropertyOp15
 70
     1
102
RTVSPropertyOp16
 70
     1
102
RTVSPropertyOp17
 70
     1
102
RTVSPropertyOp18
 70
     1
102
RTVSPropertyOp19
 70
     1
102
RTVSPropertyOp20
 70
     1
102
RTVSPropertyOp21
 70
     1
102
RTVSPropertyOp22
 70
     1
102
RTVSPropertyOp23
 70
     1
102
RTVSPropertyOp24
 70
     1
102
RTVSPropertyOp25
 70
     1
102
RTVSPropertyOp26
 70
     1
102
RTVSPropertyOp27
 70
     1
102
RTVSPropertyOp28
 70
     1
102
RTVSPropertyOp29
 70
     1
102
RTVSPropertyOp30
 70
     1
102
RTVSPropertyOp31
 70
     1
102
RTVSPropertyOp32
 70
     1
102
RTVSPropertyOp33
 70
     1
102
RTVSPropertyOp34
 70
     1
102
RTVSPropertyOp35
 70
     1
102
RTVSPropertyOp36
 70
     1
102
RTVSPropertyOp37
 70
     1
102
RTVSPropertyOp38
 70
     1
102
RTVSPropertyOp39
 70
     1
102
RTVSPropertyOp40
 70
     1
102
RTVSPropertyOp41
 70
     1
102
RTVSPropertyOp42
 70
     1
102
RTVSPropertyOp43
 70
     1
102
RTVSPropertyOp44
 70
     1
102
RTVSPropertyOp45
 70
     1
102
RTVSPropertyOp46
 70
     1
102
RTVSPropertyOp47
 70
     1
102
RTVSPropertyOp48
 70
     1
102
RTVSPropertyOp49
 70
     1
102
RTVSPropertyOp50
 70
     1
102
RTVSPropertyOp51
 70
     0
102
RTVSPropertyOp52
 70
     0
102
RTVSPropertyOp53
 70
     1
102
RTVSPropertyOp54
 70
     1
102
RTVSPropertyOp55
 70
     1
102
RTVSPropertyOp56
 70
     1
102
RTVSPropertyOp57
 70
     1
102
RTVSPost2010Prop28
280
     1
102
RTVSPost2010PropOp28
 70
     1
102
RTVSPost2010Prop29
280
     1
102
RTVSPost2010PropOp29
 70
     1
102
RTVSPost2010Prop30
280
     0
102
RTVSPost2010PropOp30
 70
     1
102
RTVSPost2010Prop31
280
     0
102
RTVSPost2010PropOp31
 70
     1
102
RTVSPost2010Prop32
280
     0
102
RTVSPost2010PropOp32
 70
     1
102
RTVSPost2010Prop33
280
     0
102
RTVSPost2010PropOp33
 70
     1
102
RTVSPost2010Prop34
280
     0
102
RTVSPost2010PropOp34
 70
     1
102
RTVSPost2010Prop35
280
     0
102
RTVSPost2010PropOp35
 70
     1
102
RTVSPost2010Prop36
280
     0
102
RTVSPost2010PropOp36
 70
     1
102
RTVSPost2010Prop37
 90
       50
102
RTVSPost2010PropOp37
 70
     1
102
RTVSPost2010Prop38
140
0.0
102
RTVSPost2010PropOp38
 70
     1
102
RTVSPost2010Prop39
140
1.0
102
RTVSPost2010PropOp39
 70
     1
102
RTVSPost2010Prop40
 90
        0
102
RTVSPost2010PropOp40
 70
     1
102
RTVSPost2010Prop41ColorIndex
 90
       18
102
RTVSPost2010Prop41ColorRGB
 90
        0
102
RTVSPost2010PropOp41
 70
     1
102
RTVSPost2010Prop42
 90
       50
102
RTVSPost2010PropOp42
 70
     1
102
RTVSPost2010Prop43
 90
        3
102
RTVSPost2010PropOp43
 70
     1
102
RTVSPost2010Prop44ColorIndex
 90
        5
102
RTVSPost2010Prop44ColorRGB
 90
      255
102
RTVSPost2010PropOp44
 70
     1
102
RTVSPost2010Prop45
280
     0
102
RTVSPost2010PropOp45
 70
     1
102
RTVSPost2010Prop46
 90
       50
102
RTVSPost2010PropOp46
 70
     1
102
RTVSPost2010Prop47
 90
       50
102
RTVSPost2010PropOp47
 70
     1
102
RTVSPost2010Prop48
 90
       50
102
RTVSPost2010PropOp48
 70
     1
102
RTVSPost2010Prop49
280
     0
102
RTVSPost2010PropOp49
 70
     1
102
RTVSPost2010Prop50
 90
       50
102
RTVSPost2010PropOp50
 70
     1
102
RTVSPost2010Prop51ColorIndex
 90
      256
102
RTVSPost2010Prop51ColorRGB
 90
-16777216
102
RTVSPost2010PropOp51
 70
     0
102
RTVSPost2010Prop52
140
1.0
102
RTVSPost2010PropOp52
 70
     0
102
RTVSPost2010Prop53
 90
        2
102
RTVSPost2010PropOp53
 70
     1
102
RTVSPost2010Prop54
  1
strokes_ogs.tif
102
RTVSPost2010PropOp54
 70
     1
102
RTVSPost2010Prop55
280
     0
102
RTVSPost2010PropOp55
 70
     1
102
RTVSPost2010Prop56
140
1.0
102
RTVSPost2010PropOp56
 70
     1
102
RTVSPost2010Prop57
140
1.0
102
RTVSPost2010PropOp57
 70
     1
  0
XRECORD
  5
2AE
102
{ACAD_REACTORS
330
2AD
102
}
330
2AD
100
AcDbXrecord
280
     1
102
RTVSPropertyOp0
 70
     1
102
RTVSPropertyOp1
 70
     1
102
RTVSPropertyOp2
 70
     1
102
RTVSPropertyOp3
 70
     1
102
RTVSPropertyOp4
 70
     1
102
RTVSPropertyOp5
 70
     1
102
RTVSPropertyOp6
 70
     1
102
RTVSPropertyOp7
 70
     1
102
RTVSPropertyOp8
 70
     1
102
RTVSPropertyOp9
 70
     1
102
RTVSPropertyOp10
 70
     1
102
RTVSPropertyOp11
 70
     1
102
RTVSPropertyOp12
 70
     1
102
RTVSPropertyOp13
 70
     1
102
RTVSPropertyOp14
 70
     1
102
RTVSPropertyOp15
 70
     1
102
RTVSPropertyOp16
 70
     1
102
RTVSPropertyOp17
 70
     1
102
RTVSPropertyOp18
 70
     1
102
RTVSPropertyOp19
 70
     1
102
RTVSPropertyOp20
 70
     1
102
RTVSPropertyOp21
 70
     1
102
RTVSPropertyOp22
 70
     1
102
RTVSPropertyOp23
 70
     1
102
RTVSPropertyOp24
 70
     1
102
RTVSPropertyOp25
 70
     1
102
RTVSPropertyOp26
 70
     1
102
RTVSPropertyOp27
 70
     1
102
RTVSPropertyOp28
 70
     1
102
RTVSPropertyOp29
 70
     1
102
RTVSPropertyOp30
 70
     1
102
RTVSPropertyOp31
 70
     1
102
RTVSPropertyOp32
 70
     1
102
RTVSPropertyOp33
 70
     1
102
RTVSPropertyOp34
 70
     1
102
RTVSPropertyOp35
 70
     1
102
RTVSPropertyOp36
 70
     1
102
RTVSPropertyOp37
 70
     1
102
RTVSPropertyOp38
 70
     1
102
RTVSPropertyOp39
 70
     1
102
RTVSPropertyOp40
 70
     1
102
RTVSPropertyOp41
 70
     1
102
RTVSPropertyOp42
 70
     1
102
RTVSPropertyOp43
 70
     1
102
RTVSPropertyOp44
 70
     1
102
RTVSPropertyOp45
 70
     1
102
RTVSPropertyOp46
 70
     1
102
RTVSPropertyOp47
 70
     1
102
RTVSPropertyOp48
 70
     1
102
RTVSPropertyOp49
 70
     1
102
RTVSPropertyOp50
 70
     1
102
RTVSPropertyOp51
 70
     0
102
RTVSPropertyOp52
 70
     0
102
RTVSPropertyOp53
 70
     1
102
RTVSPropertyOp54
 70
     1
102
RTVSPropertyOp55
 70
     1
102
RTVSPropertyOp56
 70
     1
102
RTVSPropertyOp57
 70
     1
102
RTVSPost2010Prop28
280
     0
102
RTVSPost2010PropOp28
 70
     1
102
RTVSPost2010Prop29
280
     1
102
RTVSPost2010PropOp29
 70
     1
102
RTVSPost2010Prop30
280
     1
102
RTVSPost2010PropOp30
 70
     1
102
RTVSPost2010Prop31
280
     0
102
RTVSPost2010PropOp31
 70
     1
102
RTVSPost2010Prop32
280
     0
102
RTVSPost2010PropOp32
 70
     1
102
RTVSPost2010Prop33
280
     0
102
RTVSPost2010PropOp33
 70
     1
102
RTVSPost2010Prop34
280
     0
102
RTVSPost2010PropOp34
 70
     1
102
RTVSPost2010Prop35
280
     0
102
RTVSPost2010PropOp35
 70
     1
102
RTVSPost2010Prop36
280
     0
102
RTVSPost2010PropOp36
 70
     1
102
RTVSPost2010Prop37
 90
       50
102
RTVSPost2010PropOp37
 70
     1
102
RTVSPost2010Prop38
140
0.0
102
RTVSPost2010PropOp38
 70
     1
102
RTVSPost2010Prop39
140
1.0
102
RTVSPost2010PropOp39
 70
     1
102
RTVSPost2010Prop40
 90
        0
102
RTVSPost2010PropOp40
 70
     1
102
RTVSPost2010Prop41ColorIndex
 90
       18
102
RTVSPost2010Prop41ColorRGB
 90
        0
102
RTVSPost2010PropOp41
 70
     1
102
RTVSPost2010Prop42
 90
       50
102
RTVSPost2010PropOp42
 70
     1
102
RTVSPost2010Prop43
 90
        3
102
RTVSPost2010PropOp43
 70
     1
102
RTVSPost2010Prop44ColorIndex
 90
        5
102
RTVSPost2010Prop44ColorRGB
 90
      255
102
RTVSPost2010PropOp44
 70
     1
102
RTVSPost2010Prop45
280
     0
102
RTVSPost2010PropOp45
 70
     1
102
RTVSPost2010Prop46
 90
       50
102
RTVSPost2010PropOp46
 70
     1
102
RTVSPost2010Prop47
 90
       50
102
RTVSPost2010PropOp47
 70
     1
102
RTVSPost2010Prop48
 90
       50
102
RTVSPost2010PropOp48
 70
     1
102
RTVSPost2010Prop49
280
     0
102
RTVSPost2010PropOp49
 70
     1
102
RTVSPost2010Prop50
 90
       50
102
RTVSPost2010PropOp50
 70
     1
102
RTVSPost2010Prop51ColorIndex
 90
      256
102
RTVSPost2010Prop51ColorRGB
 90
-16777216
102
RTVSPost2010PropOp51
 70
     0
102
RTVSPost2010Prop52
140
1.0
102
RTVSPost2010PropOp52
 70
     0
102
RTVSPost2010Prop53
 90
        2
102
RTVSPost2010PropOp53
 70
     1
102
RTVSPost2010Prop54
  1
strokes_ogs.tif
102
RTVSPost2010PropOp54
 70
     1
102
RTVSPost2010Prop55
280
     0
102
RTVSPost2010PropOp55
 70
     1
102
RTVSPost2010Prop56
140
1.0
102
RTVSPost2010PropOp56
 70
     1
102
RTVSPost2010Prop57
140
1.0
102
RTVSPost2010PropOp57
 70
     1
  0
XRECORD
  5
2B6
102
{ACAD_REACTORS
330
2B5
102
}
330
2B5
100
AcDbXrecord
280
     1
102
RTVSPropertyOp0
 70
     1
102
RTVSPropertyOp1
 70
     1
102
RTVSPropertyOp2
 70
     1
102
RTVSPropertyOp3
 70
     1
102
RTVSPropertyOp4
 70
     1
102
RTVSPropertyOp5
 70
     1
102
RTVSPropertyOp6
 70
     1
102
RTVSPropertyOp7
 70
     1
102
RTVSPropertyOp8
 70
     1
102
RTVSPropertyOp9
 70
     1
102
RTVSPropertyOp10
 70
     1
102
RTVSPropertyOp11
 70
     1
102
RTVSPropertyOp12
 70
     1
102
RTVSPropertyOp13
 70
     1
102
RTVSPropertyOp14
 70
     1
102
RTVSPropertyOp15
 70
     1
102
RTVSPropertyOp16
 70
     1
102
RTVSPropertyOp17
 70
     1
102
RTVSPropertyOp18
 70
     1
102
RTVSPropertyOp19
 70
     1
102
RTVSPropertyOp20
 70
     1
102
RTVSPropertyOp21
 70
     1
102
RTVSPropertyOp22
 70
     1
102
RTVSPropertyOp23
 70
     1
102
RTVSPropertyOp24
 70
     1
102
RTVSPropertyOp25
 70
     1
102
RTVSPropertyOp26
 70
     1
102
RTVSPropertyOp27
 70
     1
102
RTVSPropertyOp28
 70
     1
102
RTVSPropertyOp29
 70
     1
102
RTVSPropertyOp30
 70
     1
102
RTVSPropertyOp31
 70
     1
102
RTVSPropertyOp32
 70
     1
102
RTVSPropertyOp33
 70
     1
102
RTVSPropertyOp34
 70
     1
102
RTVSPropertyOp35
 70
     1
102
RTVSPropertyOp36
 70
     1
102
RTVSPropertyOp37
 70
     1
102
RTVSPropertyOp38
 70
     1
102
RTVSPropertyOp39
 70
     1
102
RTVSPropertyOp40
 70
     1
102
RTVSPropertyOp41
 70
     1
102
RTVSPropertyOp42
 70
     1
102
RTVSPropertyOp43
 70
     1
102
RTVSPropertyOp44
 70
     1
102
RTVSPropertyOp45
 70
     1
102
RTVSPropertyOp46
 70
     1
102
RTVSPropertyOp47
 70
     1
102
RTVSPropertyOp48
 70
     1
102
RTVSPropertyOp49
 70
     1
102
RTVSPropertyOp50
 70
     1
102
RTVSPropertyOp51
 70
     0
102
RTVSPropertyOp52
 70
     0
102
RTVSPropertyOp53
 70
     1
102
RTVSPropertyOp54
 70
     1
102
RTVSPropertyOp55
 70
     1
102
RTVSPropertyOp56
 70
     1
102
RTVSPropertyOp57
 70
     1
102
RTVSPost2010Prop28
280
     0
102
RTVSPost2010PropOp28
 70
     1
102
RTVSPost2010Prop29
280
     1
102
RTVSPost2010PropOp29
 70
     1
102
RTVSPost2010Prop30
280
     1
102
RTVSPost2010PropOp30
 70
     1
102
RTVSPost2010Prop31
280
     0
102
RTVSPost2010PropOp31
 70
     1
102
RTVSPost2010Prop32
280
     0
102
RTVSPost2010PropOp32
 70
     1
102
RTVSPost2010Prop33
280
     0
102
RTVSPost2010PropOp33
 70
     1
102
RTVSPost2010Prop34
280
     0
102
RTVSPost2010PropOp34
 70
     1
102
RTVSPost2010Prop35
280
     0
102
RTVSPost2010PropOp35
 70
     1
102
RTVSPost2010Prop36
280
     0
102
RTVSPost2010PropOp36
 70
     1
102
RTVSPost2010Prop37
 90
       50
102
RTVSPost2010PropOp37
 70
     1
102
RTVSPost2010Prop38
140
0.0
102
RTVSPost2010PropOp38
 70
     1
102
RTVSPost2010Prop39
140
1.0
102
RTVSPost2010PropOp39
 70
     1
102
RTVSPost2010Prop40
 90
        0
102
RTVSPost2010PropOp40
 70
     1
102
RTVSPost2010Prop41ColorIndex
 90
       18
102
RTVSPost2010Prop41ColorRGB
 90
        0
102
RTVSPost2010PropOp41
 70
     1
102
RTVSPost2010Prop42
 90
       50
102
RTVSPost2010PropOp42
 70
     1
102
RTVSPost2010Prop43
 90
        3
102
RTVSPost2010PropOp43
 70
     1
102
RTVSPost2010Prop44ColorIndex
 90
        5
102
RTVSPost2010Prop44ColorRGB
 90
      255
102
RTVSPost2010PropOp44
 70
     1
102
RTVSPost2010Prop45
280
     0
102
RTVSPost2010PropOp45
 70
     1
102
RTVSPost2010Prop46
 90
       50
102
RTVSPost2010PropOp46
 70
     1
102
RTVSPost2010Prop47
 90
       50
102
RTVSPost2010PropOp47
 70
     1
102
RTVSPost2010Prop48
 90
       50
102
RTVSPost2010PropOp48
 70
     1
102
RTVSPost2010Prop49
280
     0
102
RTVSPost2010PropOp49
 70
     1
102
RTVSPost2010Prop50
 90
       50
102
RTVSPost2010PropOp50
 70
     1
102
RTVSPost2010Prop51ColorIndex
 90
      256
102
RTVSPost2010Prop51ColorRGB
 90
-16777216
102
RTVSPost2010PropOp51
 70
     0
102
RTVSPost2010Prop52
140
1.0
102
RTVSPost2010PropOp52
 70
     0
102
RTVSPost2010Prop53
 90
        2
102
RTVSPost2010PropOp53
 70
     1
102
RTVSPost2010Prop54
  1
strokes_ogs.tif
102
RTVSPost2010PropOp54
 70
     1
102
RTVSPost2010Prop55
280
     0
102
RTVSPost2010PropOp55
 70
     1
102
RTVSPost2010Prop56
140
1.0
102
RTVSPost2010PropOp56
 70
     1
102
RTVSPost2010Prop57
140
1.0
102
RTVSPost2010PropOp57
 70
     1
  0
XRECORD
  5
2BE
102
{ACAD_REACTORS
330
2BD
102
}
330
2BD
100
AcDbXrecord
280
     1
102
RTVSPropertyOp0
 70
     1
102
RTVSPropertyOp1
 70
     1
102
RTVSPropertyOp2
 70
     1
102
RTVSPropertyOp3
 70
     1
102
RTVSPropertyOp4
 70
     1
102
RTVSPropertyOp5
 70
     1
102
RTVSPropertyOp6
 70
     1
102
RTVSPropertyOp7
 70
     1
102
RTVSPropertyOp8
 70
     1
102
RTVSPropertyOp9
 70
     1
102
RTVSPropertyOp10
 70
     1
102
RTVSPropertyOp11
 70
     1
102
RTVSPropertyOp12
 70
     1
102
RTVSPropertyOp13
 70
     1
102
RTVSPropertyOp14
 70
     1
102
RTVSPropertyOp15
 70
     1
102
RTVSPropertyOp16
 70
     1
102
RTVSPropertyOp17
 70
     1
102
RTVSPropertyOp18
 70
     1
102
RTVSPropertyOp19
 70
     1
102
RTVSPropertyOp20
 70
     1
102
RTVSPropertyOp21
 70
     1
102
RTVSPropertyOp22
 70
     1
102
RTVSPropertyOp23
 70
     1
102
RTVSPropertyOp24
 70
     1
102
RTVSPropertyOp25
 70
     1
102
RTVSPropertyOp26
 70
     1
102
RTVSPropertyOp27
 70
     1
102
RTVSPropertyOp28
 70
     1
102
RTVSPropertyOp29
 70
     1
102
RTVSPropertyOp30
 70
     1
102
RTVSPropertyOp31
 70
     1
102
RTVSPropertyOp32
 70
     1
102
RTVSPropertyOp33
 70
     1
102
RTVSPropertyOp34
 70
     1
102
RTVSPropertyOp35
 70
     1
102
RTVSPropertyOp36
 70
     1
102
RTVSPropertyOp37
 70
     1
102
RTVSPropertyOp38
 70
     1
102
RTVSPropertyOp39
 70
     1
102
RTVSPropertyOp40
 70
     1
102
RTVSPropertyOp41
 70
     1
102
RTVSPropertyOp42
 70
     1
102
RTVSPropertyOp43
 70
     1
102
RTVSPropertyOp44
 70
     1
102
RTVSPropertyOp45
 70
     1
102
RTVSPropertyOp46
 70
     1
102
RTVSPropertyOp47
 70
     1
102
RTVSPropertyOp48
 70
     1
102
RTVSPropertyOp49
 70
     1
102
RTVSPropertyOp50
 70
     1
102
RTVSPropertyOp51
 70
     0
102
RTVSPropertyOp52
 70
     0
102
RTVSPropertyOp53
 70
     1
102
RTVSPropertyOp54
 70
     1
102
RTVSPropertyOp55
 70
     1
102
RTVSPropertyOp56
 70
     1
102
RTVSPropertyOp57
 70
     1
102
RTVSPost2010Prop28
280
     0
102
RTVSPost2010PropOp28
 70
     1
102
RTVSPost2010Prop29
280
     1
102
RTVSPost2010PropOp29
 70
     1
102
RTVSPost2010Prop30
280
     1
102
RTVSPost2010PropOp30
 70
     1
102
RTVSPost2010Prop31
280
     0
102
RTVSPost2010PropOp31
 70
     1
102
RTVSPost2010Prop32
280
     0
102
RTVSPost2010PropOp32
 70
     1
102
RTVSPost2010Prop33
280
     0
102
RTVSPost2010PropOp33
 70
     1
102
RTVSPost2010Prop34
280
     0
102
RTVSPost2010PropOp34
 70
     1
102
RTVSPost2010Prop35
280
     0
102
RTVSPost2010PropOp35
 70
     1
102
RTVSPost2010Prop36
280
     0
102
RTVSPost2010PropOp36
 70
     1
102
RTVSPost2010Prop37
 90
       50
102
RTVSPost2010PropOp37
 70
     1
102
RTVSPost2010Prop38
140
0.0
102
RTVSPost2010PropOp38
 70
     1
102
RTVSPost2010Prop39
140
1.0
102
RTVSPost2010PropOp39
 70
     1
102
RTVSPost2010Prop40
 90
        0
102
RTVSPost2010PropOp40
 70
     1
102
RTVSPost2010Prop41ColorIndex
 90
       18
102
RTVSPost2010Prop41ColorRGB
 90
        0
102
RTVSPost2010PropOp41
 70
     1
102
RTVSPost2010Prop42
 90
       50
102
RTVSPost2010PropOp42
 70
     1
102
RTVSPost2010Prop43
 90
        3
102
RTVSPost2010PropOp43
 70
     1
102
RTVSPost2010Prop44ColorIndex
 90
        5
102
RTVSPost2010Prop44ColorRGB
 90
      255
102
RTVSPost2010PropOp44
 70
     1
102
RTVSPost2010Prop45
280
     0
102
RTVSPost2010PropOp45
 70
     1
102
RTVSPost2010Prop46
 90
       50
102
RTVSPost2010PropOp46
 70
     1
102
RTVSPost2010Prop47
 90
       50
102
RTVSPost2010PropOp47
 70
     1
102
RTVSPost2010Prop48
 90
       50
102
RTVSPost2010PropOp48
 70
     1
102
RTVSPost2010Prop49
280
     0
102
RTVSPost2010PropOp49
 70
     1
102
RTVSPost2010Prop50
 90
       50
102
RTVSPost2010PropOp50
 70
     1
102
RTVSPost2010Prop51ColorIndex
 90
      256
102
RTVSPost2010Prop51ColorRGB
 90
-16777216
102
RTVSPost2010PropOp51
 70
     0
102
RTVSPost2010Prop52
140
1.0
102
RTVSPost2010PropOp52
 70
     0
102
RTVSPost2010Prop53
 90
        2
102
RTVSPost2010PropOp53
 70
     1
102
RTVSPost2010Prop54
  1
strokes_ogs.tif
102
RTVSPost2010PropOp54
 70
     1
102
RTVSPost2010Prop55
280
     0
102
RTVSPost2010PropOp55
 70
     1
102
RTVSPost2010Prop56
140
1.0
102
RTVSPost2010PropOp56
 70
     1
102
RTVSPost2010Prop57
140
1.0
102
RTVSPost2010PropOp57
 70
     1
  0
XRECORD
  5
2B2
102
{ACAD_REACTORS
330
2B1
102
}
330
2B1
100
AcDbXrecord
280
     1
102
RTVSPropertyOp0
 70
     1
102
RTVSPropertyOp1
 70
     1
102
RTVSPropertyOp2
 70
     1
102
RTVSPropertyOp3
 70
     1
102
RTVSPropertyOp4
 70
     1
102
RTVSPropertyOp5
 70
     1
102
RTVSPropertyOp6
 70
     1
102
RTVSPropertyOp7
 70
     1
102
RTVSPropertyOp8
 70
     1
102
RTVSPropertyOp9
 70
     1
102
RTVSPropertyOp10
 70
     1
102
RTVSPropertyOp11
 70
     1
102
RTVSPropertyOp12
 70
     1
102
RTVSPropertyOp13
 70
     1
102
RTVSPropertyOp14
 70
     1
102
RTVSPropertyOp15
 70
     1
102
RTVSPropertyOp16
 70
     1
102
RTVSPropertyOp17
 70
     1
102
RTVSPropertyOp18
 70
     1
102
RTVSPropertyOp19
 70
     1
102
RTVSPropertyOp20
 70
     1
102
RTVSPropertyOp21
 70
     1
102
RTVSPropertyOp22
 70
     1
102
RTVSPropertyOp23
 70
     1
102
RTVSPropertyOp24
 70
     1
102
RTVSPropertyOp25
 70
     1
102
RTVSPropertyOp26
 70
     1
102
RTVSPropertyOp27
 70
     1
102
RTVSPropertyOp28
 70
     1
102
RTVSPropertyOp29
 70
     1
102
RTVSPropertyOp30
 70
     1
102
RTVSPropertyOp31
 70
     1
102
RTVSPropertyOp32
 70
     1
102
RTVSPropertyOp33
 70
     1
102
RTVSPropertyOp34
 70
     1
102
RTVSPropertyOp35
 70
     1
102
RTVSPropertyOp36
 70
     1
102
RTVSPropertyOp37
 70
     1
102
RTVSPropertyOp38
 70
     1
102
RTVSPropertyOp39
 70
     1
102
RTVSPropertyOp40
 70
     1
102
RTVSPropertyOp41
 70
     1
102
RTVSPropertyOp42
 70
     1
102
RTVSPropertyOp43
 70
     1
102
RTVSPropertyOp44
 70
     1
102
RTVSPropertyOp45
 70
     1
102
RTVSPropertyOp46
 70
     1
102
RTVSPropertyOp47
 70
     1
102
RTVSPropertyOp48
 70
     1
102
RTVSPropertyOp49
 70
     1
102
RTVSPropertyOp50
 70
     1
102
RTVSPropertyOp51
 70
     0
102
RTVSPropertyOp52
 70
     0
102
RTVSPropertyOp53
 70
     1
102
RTVSPropertyOp54
 70
     1
102
RTVSPropertyOp55
 70
     1
102
RTVSPropertyOp56
 70
     1
102
RTVSPropertyOp57
 70
     1
102
RTVSPost2010Prop28
280
     0
102
RTVSPost2010PropOp28
 70
     1
102
RTVSPost2010Prop29
280
     1
102
RTVSPost2010PropOp29
 70
     1
102
RTVSPost2010Prop30
280
     1
102
RTVSPost2010PropOp30
 70
     1
102
RTVSPost2010Prop31
280
     0
102
RTVSPost2010PropOp31
 70
     1
102
RTVSPost2010Prop32
280
     0
102
RTVSPost2010PropOp32
 70
     1
102
RTVSPost2010Prop33
280
     0
102
RTVSPost2010PropOp33
 70
     1
102
RTVSPost2010Prop34
280
     0
102
RTVSPost2010PropOp34
 70
     1
102
RTVSPost2010Prop35
280
     0
102
RTVSPost2010PropOp35
 70
     1
102
RTVSPost2010Prop36
280
     0
102
RTVSPost2010PropOp36
 70
     1
102
RTVSPost2010Prop37
 90
       50
102
RTVSPost2010PropOp37
 70
     1
102
RTVSPost2010Prop38
140
0.0
102
RTVSPost2010PropOp38
 70
     1
102
RTVSPost2010Prop39
140
1.0
102
RTVSPost2010PropOp39
 70
     1
102
RTVSPost2010Prop40
 90
        0
102
RTVSPost2010PropOp40
 70
     1
102
RTVSPost2010Prop41ColorIndex
 90
       18
102
RTVSPost2010Prop41ColorRGB
 90
        0
102
RTVSPost2010PropOp41
 70
     1
102
RTVSPost2010Prop42
 90
       50
102
RTVSPost2010PropOp42
 70
     1
102
RTVSPost2010Prop43
 90
        3
102
RTVSPost2010PropOp43
 70
     1
102
RTVSPost2010Prop44ColorIndex
 90
        5
102
RTVSPost2010Prop44ColorRGB
 90
      255
102
RTVSPost2010PropOp44
 70
     1
102
RTVSPost2010Prop45
280
     0
102
RTVSPost2010PropOp45
 70
     1
102
RTVSPost2010Prop46
 90
       50
102
RTVSPost2010PropOp46
 70
     1
102
RTVSPost2010Prop47
 90
       50
102
RTVSPost2010PropOp47
 70
     1
102
RTVSPost2010Prop48
 90
       50
102
RTVSPost2010PropOp48
 70
     1
102
RTVSPost2010Prop49
280
     0
102
RTVSPost2010PropOp49
 70
     1
102
RTVSPost2010Prop50
 90
       50
102
RTVSPost2010PropOp50
 70
     1
102
RTVSPost2010Prop51ColorIndex
 90
      256
102
RTVSPost2010Prop51ColorRGB
 90
-16777216
102
RTVSPost2010PropOp51
 70
     0
102
RTVSPost2010Prop52
140
1.0
102
RTVSPost2010PropOp52
 70
     0
102
RTVSPost2010Prop53
 90
        2
102
RTVSPost2010PropOp53
 70
     1
102
RTVSPost2010Prop54
  1
strokes_ogs.tif
102
RTVSPost2010PropOp54
 70
     1
102
RTVSPost2010Prop55
280
     0
102
RTVSPost2010PropOp55
 70
     1
102
RTVSPost2010Prop56
140
1.0
102
RTVSPost2010PropOp56
 70
     1
102
RTVSPost2010Prop57
140
1.0
102
RTVSPost2010PropOp57
 70
     1
  0
XRECORD
  5
2B4
102
{ACAD_REACTORS
330
2B3
102
}
330
2B3
100
AcDbXrecord
280
     1
102
RTVSPropertyOp0
 70
     1
102
RTVSPropertyOp1
 70
     1
102
RTVSPropertyOp2
 70
     1
102
RTVSPropertyOp3
 70
     1
102
RTVSPropertyOp4
 70
     1
102
RTVSPropertyOp5
 70
     1
102
RTVSPropertyOp6
 70
     1
102
RTVSPropertyOp7
 70
     1
102
RTVSPropertyOp8
 70
     1
102
RTVSPropertyOp9
 70
     1
102
RTVSPropertyOp10
 70
     1
102
RTVSPropertyOp11
 70
     1
102
RTVSPropertyOp12
 70
     1
102
RTVSPropertyOp13
 70
     1
102
RTVSPropertyOp14
 70
     1
102
RTVSPropertyOp15
 70
     1
102
RTVSPropertyOp16
 70
     1
102
RTVSPropertyOp17
 70
     1
102
RTVSPropertyOp18
 70
     1
102
RTVSPropertyOp19
 70
     1
102
RTVSPropertyOp20
 70
     1
102
RTVSPropertyOp21
 70
     1
102
RTVSPropertyOp22
 70
     1
102
RTVSPropertyOp23
 70
     1
102
RTVSPropertyOp24
 70
     1
102
RTVSPropertyOp25
 70
     1
102
RTVSPropertyOp26
 70
     1
102
RTVSPropertyOp27
 70
     1
102
RTVSPropertyOp28
 70
     1
102
RTVSPropertyOp29
 70
     1
102
RTVSPropertyOp30
 70
     1
102
RTVSPropertyOp31
 70
     1
102
RTVSPropertyOp32
 70
     1
102
RTVSPropertyOp33
 70
     1
102
RTVSPropertyOp34
 70
     1
102
RTVSPropertyOp35
 70
     1
102
RTVSPropertyOp36
 70
     1
102
RTVSPropertyOp37
 70
     1
102
RTVSPropertyOp38
 70
     1
102
RTVSPropertyOp39
 70
     1
102
RTVSPropertyOp40
 70
     1
102
RTVSPropertyOp41
 70
     1
102
RTVSPropertyOp42
 70
     1
102
RTVSPropertyOp43
 70
     1
102
RTVSPropertyOp44
 70
     1
102
RTVSPropertyOp45
 70
     1
102
RTVSPropertyOp46
 70
     1
102
RTVSPropertyOp47
 70
     1
102
RTVSPropertyOp48
 70
     1
102
RTVSPropertyOp49
 70
     1
102
RTVSPropertyOp50
 70
     1
102
RTVSPropertyOp51
 70
     0
102
RTVSPropertyOp52
 70
     0
102
RTVSPropertyOp53
 70
     1
102
RTVSPropertyOp54
 70
     1
102
RTVSPropertyOp55
 70
     1
102
RTVSPropertyOp56
 70
     1
102
RTVSPropertyOp57
 70
     1
102
RTVSPost2010Prop28
280
     0
102
RTVSPost2010PropOp28
 70
     1
102
RTVSPost2010Prop29
280
     1
102
RTVSPost2010PropOp29
 70
     1
102
RTVSPost2010Prop30
280
     1
102
RTVSPost2010PropOp30
 70
     1
102
RTVSPost2010Prop31
280
     0
102
RTVSPost2010PropOp31
 70
     1
102
RTVSPost2010Prop32
280
     0
102
RTVSPost2010PropOp32
 70
     1
102
RTVSPost2010Prop33
280
     0
102
RTVSPost2010PropOp33
 70
     1
102
RTVSPost2010Prop34
280
     0
102
RTVSPost2010PropOp34
 70
     1
102
RTVSPost2010Prop35
280
     0
102
RTVSPost2010PropOp35
 70
     1
102
RTVSPost2010Prop36
280
     0
102
RTVSPost2010PropOp36
 70
     1
102
RTVSPost2010Prop37
 90
       50
102
RTVSPost2010PropOp37
 70
     1
102
RTVSPost2010Prop38
140
0.0
102
RTVSPost2010PropOp38
 70
     1
102
RTVSPost2010Prop39
140
1.0
102
RTVSPost2010PropOp39
 70
     1
102
RTVSPost2010Prop40
 90
        0
102
RTVSPost2010PropOp40
 70
     1
102
RTVSPost2010Prop41ColorIndex
 90
       18
102
RTVSPost2010Prop41ColorRGB
 90
        0
102
RTVSPost2010PropOp41
 70
     1
102
RTVSPost2010Prop42
 90
       50
102
RTVSPost2010PropOp42
 70
     1
102
RTVSPost2010Prop43
 90
        3
102
RTVSPost2010PropOp43
 70
     1
102
RTVSPost2010Prop44ColorIndex
 90
        5
102
RTVSPost2010Prop44ColorRGB
 90
      255
102
RTVSPost2010PropOp44
 70
     1
102
RTVSPost2010Prop45
280
     0
102
RTVSPost2010PropOp45
 70
     1
102
RTVSPost2010Prop46
 90
       50
102
RTVSPost2010PropOp46
 70
     1
102
RTVSPost2010Prop47
 90
       50
102
RTVSPost2010PropOp47
 70
     1
102
RTVSPost2010Prop48
 90
       50
102
RTVSPost2010PropOp48
 70
     1
102
RTVSPost2010Prop49
280
     0
102
RTVSPost2010PropOp49
 70
     1
102
RTVSPost2010Prop50
 90
       50
102
RTVSPost2010PropOp50
 70
     1
102
RTVSPost2010Prop51ColorIndex
 90
      256
102
RTVSPost2010Prop51ColorRGB
 90
-16777216
102
RTVSPost2010PropOp51
 70
     0
102
RTVSPost2010Prop52
140
1.0
102
RTVSPost2010PropOp52
 70
     0
102
RTVSPost2010Prop53
 90
        2
102
RTVSPost2010PropOp53
 70
     1
102
RTVSPost2010Prop54
  1
strokes_ogs.tif
102
RTVSPost2010PropOp54
 70
     1
102
RTVSPost2010Prop55
280
     0
102
RTVSPost2010PropOp55
 70
     1
102
RTVSPost2010Prop56
140
1.0
102
RTVSPost2010PropOp56
 70
     1
102
RTVSPost2010Prop57
140
1.0
102
RTVSPost2010PropOp57
 70
     1
  0
XRECORD
  5
2C4
102
{ACAD_REACTORS
330
2C3
102
}
330
2C3
100
AcDbXrecord
280
     1
102
RTVSPropertyOp0
 70
     0
102
RTVSPropertyOp1
 70
     0
102
RTVSPropertyOp2
 70
     0
102
RTVSPropertyOp3
 70
     0
102
RTVSPropertyOp4
 70
     0
102
RTVSPropertyOp5
 70
     0
102
RTVSPropertyOp6
 70
     0
102
RTVSPropertyOp7
 70
     0
102
RTVSPropertyOp8
 70
     0
102
RTVSPropertyOp9
 70
     0
102
RTVSPropertyOp10
 70
     0
102
RTVSPropertyOp11
 70
     0
102
RTVSPropertyOp12
 70
     0
102
RTVSPropertyOp13
 70
     0
102
RTVSPropertyOp14
 70
     2
102
RTVSPropertyOp15
 70
     0
102
RTVSPropertyOp16
 70
     0
102
RTVSPropertyOp17
 70
     0
102
RTVSPropertyOp18
 70
     0
102
RTVSPropertyOp19
 70
     0
102
RTVSPropertyOp20
 70
     0
102
RTVSPropertyOp21
 70
     0
102
RTVSPropertyOp22
 70
     0
102
RTVSPropertyOp23
 70
     0
102
RTVSPropertyOp24
 70
     0
102
RTVSPropertyOp25
 70
     0
102
RTVSPropertyOp26
 70
     0
102
RTVSPropertyOp27
 70
     0
102
RTVSPropertyOp28
 70
     0
102
RTVSPropertyOp29
 70
     0
102
RTVSPropertyOp30
 70
     0
102
RTVSPropertyOp31
 70
     0
102
RTVSPropertyOp32
 70
     0
102
RTVSPropertyOp33
 70
     0
102
RTVSPropertyOp34
 70
     0
102
RTVSPropertyOp35
 70
     0
102
RTVSPropertyOp36
 70
     0
102
RTVSPropertyOp37
 70
     0
102
RTVSPropertyOp38
 70
     0
102
RTVSPropertyOp39
 70
     0
102
RTVSPropertyOp40
 70
     0
102
RTVSPropertyOp41
 70
     0
102
RTVSPropertyOp42
 70
     0
102
RTVSPropertyOp43
 70
     0
102
RTVSPropertyOp44
 70
     0
102
RTVSPropertyOp45
 70
     0
102
RTVSPropertyOp46
 70
     0
102
RTVSPropertyOp47
 70
     0
102
RTVSPropertyOp48
 70
     0
102
RTVSPropertyOp49
 70
     0
102
RTVSPropertyOp50
 70
     0
102
RTVSPropertyOp51
 70
     0
102
RTVSPropertyOp52
 70
     0
102
RTVSPropertyOp53
 70
     0
102
RTVSPropertyOp54
 70
     0
102
RTVSPropertyOp55
 70
     0
102
RTVSPropertyOp56
 70
     0
102
RTVSPropertyOp57
 70
     0
102
RTVSPost2010Prop28
280
     0
102
RTVSPost2010PropOp28
 70
     0
102
RTVSPost2010Prop29
280
     1
102
RTVSPost2010PropOp29
 70
     0
102
RTVSPost2010Prop30
280
     1
102
RTVSPost2010PropOp30
 70
     0
102
RTVSPost2010Prop31
280
     0
102
RTVSPost2010PropOp31
 70
     0
102
RTVSPost2010Prop32
280
     0
102
RTVSPost2010PropOp32
 70
     0
102
RTVSPost2010Prop33
280
     0
102
RTVSPost2010PropOp33
 70
     0
102
RTVSPost2010Prop34
280
     0
102
RTVSPost2010PropOp34
 70
     0
102
RTVSPost2010Prop35
280
     0
102
RTVSPost2010PropOp35
 70
     0
102
RTVSPost2010Prop36
280
     0
102
RTVSPost2010PropOp36
 70
     0
102
RTVSPost2010Prop37
 90
       50
102
RTVSPost2010PropOp37
 70
     0
102
RTVSPost2010Prop38
140
0.0
102
RTVSPost2010PropOp38
 70
     0
102
RTVSPost2010Prop39
140
1.0
102
RTVSPost2010PropOp39
 70
     0
102
RTVSPost2010Prop40
 90
        0
102
RTVSPost2010PropOp40
 70
     0
102
RTVSPost2010Prop41ColorIndex
 90
       18
102
RTVSPost2010Prop41ColorRGB
 90
        0
102
RTVSPost2010PropOp41
 70
     0
102
RTVSPost2010Prop42
 90
       50
102
RTVSPost2010PropOp42
 70
     0
102
RTVSPost2010Prop43
 90
        3
102
RTVSPost2010PropOp43
 70
     0
102
RTVSPost2010Prop44ColorIndex
 90
        5
102
RTVSPost2010Prop44ColorRGB
 90
      255
102
RTVSPost2010PropOp44
 70
     0
102
RTVSPost2010Prop45
280
     0
102
RTVSPost2010PropOp45
 70
     0
102
RTVSPost2010Prop46
 90
       50
102
RTVSPost2010PropOp46
 70
     0
102
RTVSPost2010Prop47
 90
       50
102
RTVSPost2010PropOp47
 70
     0
102
RTVSPost2010Prop48
 90
       50
102
RTVSPost2010PropOp48
 70
     0
102
RTVSPost2010Prop49
280
     0
102
RTVSPost2010PropOp49
 70
     0
102
RTVSPost2010Prop50
 90
       50
102
RTVSPost2010PropOp50
 70
     0
102
RTVSPost2010Prop51ColorIndex
 90
      256
102
RTVSPost2010Prop51ColorRGB
 90
-16777216
102
RTVSPost2010PropOp51
 70
     0
102
RTVSPost2010Prop52
140
1.0
102
RTVSPost2010PropOp52
 70
     0
102
RTVSPost2010Prop53
 90
        2
102
RTVSPost2010PropOp53
 70
     0
102
RTVSPost2010Prop54
  1
strokes_ogs.tif
102
RTVSPost2010PropOp54
 70
     0
102
RTVSPost2010Prop55
280
     0
102
RTVSPost2010PropOp55
 70
     0
102
RTVSPost2010Prop56
140
1.0
102
RTVSPost2010PropOp56
 70
     0
102
RTVSPost2010Prop57
140
1.0
102
RTVSPost2010PropOp57
 70
     0
  0
XRECORD
  5
2BC
102
{ACAD_REACTORS
330
2BB
102
}
330
2BB
100
AcDbXrecord
280
     1
102
RTVSPropertyOp0
 70
     1
102
RTVSPropertyOp1
 70
     1
102
RTVSPropertyOp2
 70
     1
102
RTVSPropertyOp3
 70
     1
102
RTVSPropertyOp4
 70
     1
102
RTVSPropertyOp5
 70
     1
102
RTVSPropertyOp6
 70
     1
102
RTVSPropertyOp7
 70
     1
102
RTVSPropertyOp8
 70
     1
102
RTVSPropertyOp9
 70
     1
102
RTVSPropertyOp10
 70
     1
102
RTVSPropertyOp11
 70
     1
102
RTVSPropertyOp12
 70
     1
102
RTVSPropertyOp13
 70
     1
102
RTVSPropertyOp14
 70
     1
102
RTVSPropertyOp15
 70
     1
102
RTVSPropertyOp16
 70
     1
102
RTVSPropertyOp17
 70
     1
102
RTVSPropertyOp18
 70
     1
102
RTVSPropertyOp19
 70
     1
102
RTVSPropertyOp20
 70
     1
102
RTVSPropertyOp21
 70
     1
102
RTVSPropertyOp22
 70
     1
102
RTVSPropertyOp23
 70
     1
102
RTVSPropertyOp24
 70
     1
102
RTVSPropertyOp25
 70
     1
102
RTVSPropertyOp26
 70
     1
102
RTVSPropertyOp27
 70
     1
102
RTVSPropertyOp28
 70
     1
102
RTVSPropertyOp29
 70
     1
102
RTVSPropertyOp30
 70
     1
102
RTVSPropertyOp31
 70
     1
102
RTVSPropertyOp32
 70
     1
102
RTVSPropertyOp33
 70
     1
102
RTVSPropertyOp34
 70
     1
102
RTVSPropertyOp35
 70
     1
102
RTVSPropertyOp36
 70
     1
102
RTVSPropertyOp37
 70
     1
102
RTVSPropertyOp38
 70
     1
102
RTVSPropertyOp39
 70
     1
102
RTVSPropertyOp40
 70
     1
102
RTVSPropertyOp41
 70
     1
102
RTVSPropertyOp42
 70
     1
102
RTVSPropertyOp43
 70
     1
102
RTVSPropertyOp44
 70
     1
102
RTVSPropertyOp45
 70
     1
102
RTVSPropertyOp46
 70
     1
102
RTVSPropertyOp47
 70
     1
102
RTVSPropertyOp48
 70
     1
102
RTVSPropertyOp49
 70
     1
102
RTVSPropertyOp50
 70
     1
102
RTVSPropertyOp51
 70
     0
102
RTVSPropertyOp52
 70
     0
102
RTVSPropertyOp53
 70
     1
102
RTVSPropertyOp54
 70
     1
102
RTVSPropertyOp55
 70
     1
102
RTVSPropertyOp56
 70
     1
102
RTVSPropertyOp57
 70
     1
102
RTVSPost2010Prop28
280
     0
102
RTVSPost2010PropOp28
 70
     1
102
RTVSPost2010Prop29
280
     1
102
RTVSPost2010PropOp29
 70
     1
102
RTVSPost2010Prop30
280
     1
102
RTVSPost2010PropOp30
 70
     1
102
RTVSPost2010Prop31
280
     0
102
RTVSPost2010PropOp31
 70
     1
102
RTVSPost2010Prop32
280
     0
102
RTVSPost2010PropOp32
 70
     1
102
RTVSPost2010Prop33
280
     0
102
RTVSPost2010PropOp33
 70
     1
102
RTVSPost2010Prop34
280
     0
102
RTVSPost2010PropOp34
 70
     1
102
RTVSPost2010Prop35
280
     0
102
RTVSPost2010PropOp35
 70
     1
102
RTVSPost2010Prop36
280
     0
102
RTVSPost2010PropOp36
 70
     1
102
RTVSPost2010Prop37
 90
       50
102
RTVSPost2010PropOp37
 70
     1
102
RTVSPost2010Prop38
140
0.0
102
RTVSPost2010PropOp38
 70
     1
102
RTVSPost2010Prop39
140
1.0
102
RTVSPost2010PropOp39
 70
     1
102
RTVSPost2010Prop40
 90
        0
102
RTVSPost2010PropOp40
 70
     1
102
RTVSPost2010Prop41ColorIndex
 90
       18
102
RTVSPost2010Prop41ColorRGB
 90
        0
102
RTVSPost2010PropOp41
 70
     1
102
RTVSPost2010Prop42
 90
       50
102
RTVSPost2010PropOp42
 70
     1
102
RTVSPost2010Prop43
 90
        3
102
RTVSPost2010PropOp43
 70
     1
102
RTVSPost2010Prop44ColorIndex
 90
        5
102
RTVSPost2010Prop44ColorRGB
 90
      255
102
RTVSPost2010PropOp44
 70
     1
102
RTVSPost2010Prop45
280
     0
102
RTVSPost2010PropOp45
 70
     1
102
RTVSPost2010Prop46
 90
       50
102
RTVSPost2010PropOp46
 70
     1
102
RTVSPost2010Prop47
 90
       50
102
RTVSPost2010PropOp47
 70
     1
102
RTVSPost2010Prop48
 90
       50
102
RTVSPost2010PropOp48
 70
     1
102
RTVSPost2010Prop49
280
     0
102
RTVSPost2010PropOp49
 70
     1
102
RTVSPost2010Prop50
 90
       50
102
RTVSPost2010PropOp50
 70
     1
102
RTVSPost2010Prop51ColorIndex
 90
      256
102
RTVSPost2010Prop51ColorRGB
 90
-16777216
102
RTVSPost2010PropOp51
 70
     0
102
RTVSPost2010Prop52
140
1.0
102
RTVSPost2010PropOp52
 70
     0
102
RTVSPost2010Prop53
 90
        2
102
RTVSPost2010PropOp53
 70
     1
102
RTVSPost2010Prop54
  1
strokes_ogs.tif
102
RTVSPost2010PropOp54
 70
     1
102
RTVSPost2010Prop55
280
     0
102
RTVSPost2010PropOp55
 70
     1
102
RTVSPost2010Prop56
140
1.0
102
RTVSPost2010PropOp56
 70
     1
102
RTVSPost2010Prop57
140
1.0
102
RTVSPost2010PropOp57
 70
     1
  0
XRECORD
  5
2A0
102
{ACAD_REACTORS
330
29F
102
}
330
29F
100
AcDbXrecord
280
     1
102
RTVSPropertyOp0
 70
     1
102
RTVSPropertyOp1
 70
     1
102
RTVSPropertyOp2
 70
     1
102
RTVSPropertyOp3
 70
     1
102
RTVSPropertyOp4
 70
     1
102
RTVSPropertyOp5
 70
     1
102
RTVSPropertyOp6
 70
     1
102
RTVSPropertyOp7
 70
     1
102
RTVSPropertyOp8
 70
     1
102
RTVSPropertyOp9
 70
     1
102
RTVSPropertyOp10
 70
     1
102
RTVSPropertyOp11
 70
     1
102
RTVSPropertyOp12
 70
     1
102
RTVSPropertyOp13
 70
     1
102
RTVSPropertyOp14
 70
     1
102
RTVSPropertyOp15
 70
     1
102
RTVSPropertyOp16
 70
     1
102
RTVSPropertyOp17
 70
     1
102
RTVSPropertyOp18
 70
     1
102
RTVSPropertyOp19
 70
     1
102
RTVSPropertyOp20
 70
     1
102
RTVSPropertyOp21
 70
     1
102
RTVSPropertyOp22
 70
     1
102
RTVSPropertyOp23
 70
     1
102
RTVSPropertyOp24
 70
     1
102
RTVSPropertyOp25
 70
     1
102
RTVSPropertyOp26
 70
     1
102
RTVSPropertyOp27
 70
     1
102
RTVSPropertyOp28
 70
     1
102
RTVSPropertyOp29
 70
     1
102
RTVSPropertyOp30
 70
     1
102
RTVSPropertyOp31
 70
     1
102
RTVSPropertyOp32
 70
     1
102
RTVSPropertyOp33
 70
     1
102
RTVSPropertyOp34
 70
     1
102
RTVSPropertyOp35
 70
     1
102
RTVSPropertyOp36
 70
     1
102
RTVSPropertyOp37
 70
     1
102
RTVSPropertyOp38
 70
     1
102
RTVSPropertyOp39
 70
     1
102
RTVSPropertyOp40
 70
     1
102
RTVSPropertyOp41
 70
     1
102
RTVSPropertyOp42
 70
     1
102
RTVSPropertyOp43
 70
     1
102
RTVSPropertyOp44
 70
     1
102
RTVSPropertyOp45
 70
     1
102
RTVSPropertyOp46
 70
     1
102
RTVSPropertyOp47
 70
     1
102
RTVSPropertyOp48
 70
     1
102
RTVSPropertyOp49
 70
     1
102
RTVSPropertyOp50
 70
     1
102
RTVSPropertyOp51
 70
     0
102
RTVSPropertyOp52
 70
     0
102
RTVSPropertyOp53
 70
     1
102
RTVSPropertyOp54
 70
     1
102
RTVSPropertyOp55
 70
     1
102
RTVSPropertyOp56
 70
     1
102
RTVSPropertyOp57
 70
     1
102
RTVSPost2010Prop28
280
     0
102
RTVSPost2010PropOp28
 70
     1
102
RTVSPost2010Prop29
280
     1
102
RTVSPost2010PropOp29
 70
     1
102
RTVSPost2010Prop30
280
     1
102
RTVSPost2010PropOp30
 70
     1
102
RTVSPost2010Prop31
280
     0
102
RTVSPost2010PropOp31
 70
     1
102
RTVSPost2010Prop32
280
     0
102
RTVSPost2010PropOp32
 70
     1
102
RTVSPost2010Prop33
280
     0
102
RTVSPost2010PropOp33
 70
     1
102
RTVSPost2010Prop34
280
     0
102
RTVSPost2010PropOp34
 70
     1
102
RTVSPost2010Prop35
280
     0
102
RTVSPost2010PropOp35
 70
     1
102
RTVSPost2010Prop36
280
     0
102
RTVSPost2010PropOp36
 70
     1
102
RTVSPost2010Prop37
 90
       50
102
RTVSPost2010PropOp37
 70
     1
102
RTVSPost2010Prop38
140
0.0
102
RTVSPost2010PropOp38
 70
     1
102
RTVSPost2010Prop39
140
1.0
102
RTVSPost2010PropOp39
 70
     1
102
RTVSPost2010Prop40
 90
        0
102
RTVSPost2010PropOp40
 70
     1
102
RTVSPost2010Prop41ColorIndex
 90
       18
102
RTVSPost2010Prop41ColorRGB
 90
        0
102
RTVSPost2010PropOp41
 70
     1
102
RTVSPost2010Prop42
 90
       50
102
RTVSPost2010PropOp42
 70
     1
102
RTVSPost2010Prop43
 90
        3
102
RTVSPost2010PropOp43
 70
     1
102
RTVSPost2010Prop44ColorIndex
 90
        5
102
RTVSPost2010Prop44ColorRGB
 90
      255
102
RTVSPost2010PropOp44
 70
     1
102
RTVSPost2010Prop45
280
     0
102
RTVSPost2010PropOp45
 70
     1
102
RTVSPost2010Prop46
 90
       50
102
RTVSPost2010PropOp46
 70
     1
102
RTVSPost2010Prop47
 90
       50
102
RTVSPost2010PropOp47
 70
     1
102
RTVSPost2010Prop48
 90
       50
102
RTVSPost2010PropOp48
 70
     1
102
RTVSPost2010Prop49
280
     0
102
RTVSPost2010PropOp49
 70
     1
102
RTVSPost2010Prop50
 90
       50
102
RTVSPost2010PropOp50
 70
     1
102
RTVSPost2010Prop51ColorIndex
 90
      256
102
RTVSPost2010Prop51ColorRGB
 90
-16777216
102
RTVSPost2010PropOp51
 70
     0
102
RTVSPost2010Prop52
140
1.0
102
RTVSPost2010PropOp52
 70
     0
102
RTVSPost2010Prop53
 90
        2
102
RTVSPost2010PropOp53
 70
     1
102
RTVSPost2010Prop54
  1
strokes_ogs.tif
102
RTVSPost2010PropOp54
 70
     1
102
RTVSPost2010Prop55
280
     0
102
RTVSPost2010PropOp55
 70
     1
102
RTVSPost2010Prop56
140
1.0
102
RTVSPost2010PropOp56
 70
     1
102
RTVSPost2010Prop57
140
1.0
102
RTVSPost2010PropOp57
 70
     1
  0
XRECORD
  5
2A2
102
{ACAD_REACTORS
330
2A1
102
}
330
2A1
100
AcDbXrecord
280
     1
102
RTVSPropertyOp0
 70
     1
102
RTVSPropertyOp1
 70
     1
102
RTVSPropertyOp2
 70
     1
102
RTVSPropertyOp3
 70
     1
102
RTVSPropertyOp4
 70
     1
102
RTVSPropertyOp5
 70
     1
102
RTVSPropertyOp6
 70
     1
102
RTVSPropertyOp7
 70
     1
102
RTVSPropertyOp8
 70
     1
102
RTVSPropertyOp9
 70
     1
102
RTVSPropertyOp10
 70
     1
102
RTVSPropertyOp11
 70
     1
102
RTVSPropertyOp12
 70
     1
102
RTVSPropertyOp13
 70
     1
102
RTVSPropertyOp14
 70
     1
102
RTVSPropertyOp15
 70
     1
102
RTVSPropertyOp16
 70
     1
102
RTVSPropertyOp17
 70
     1
102
RTVSPropertyOp18
 70
     1
102
RTVSPropertyOp19
 70
     1
102
RTVSPropertyOp20
 70
     1
102
RTVSPropertyOp21
 70
     1
102
RTVSPropertyOp22
 70
     1
102
RTVSPropertyOp23
 70
     1
102
RTVSPropertyOp24
 70
     1
102
RTVSPropertyOp25
 70
     1
102
RTVSPropertyOp26
 70
     1
102
RTVSPropertyOp27
 70
     1
102
RTVSPropertyOp28
 70
     1
102
RTVSPropertyOp29
 70
     1
102
RTVSPropertyOp30
 70
     1
102
RTVSPropertyOp31
 70
     1
102
RTVSPropertyOp32
 70
     1
102
RTVSPropertyOp33
 70
     1
102
RTVSPropertyOp34
 70
     1
102
RTVSPropertyOp35
 70
     1
102
RTVSPropertyOp36
 70
     1
102
RTVSPropertyOp37
 70
     1
102
RTVSPropertyOp38
 70
     1
102
RTVSPropertyOp39
 70
     1
102
RTVSPropertyOp40
 70
     1
102
RTVSPropertyOp41
 70
     1
102
RTVSPropertyOp42
 70
     1
102
RTVSPropertyOp43
 70
     1
102
RTVSPropertyOp44
 70
     1
102
RTVSPropertyOp45
 70
     1
102
RTVSPropertyOp46
 70
     1
102
RTVSPropertyOp47
 70
     1
102
RTVSPropertyOp48
 70
     1
102
RTVSPropertyOp49
 70
     1
102
RTVSPropertyOp50
 70
     1
102
RTVSPropertyOp51
 70
     0
102
RTVSPropertyOp52
 70
     0
102
RTVSPropertyOp53
 70
     1
102
RTVSPropertyOp54
 70
     1
102
RTVSPropertyOp55
 70
     1
102
RTVSPropertyOp56
 70
     1
102
RTVSPropertyOp57
 70
     1
102
RTVSPost2010Prop28
280
     0
102
RTVSPost2010PropOp28
 70
     1
102
RTVSPost2010Prop29
280
     1
102
RTVSPost2010PropOp29
 70
     1
102
RTVSPost2010Prop30
280
     1
102
RTVSPost2010PropOp30
 70
     1
102
RTVSPost2010Prop31
280
     0
102
RTVSPost2010PropOp31
 70
     1
102
RTVSPost2010Prop32
280
     0
102
RTVSPost2010PropOp32
 70
     1
102
RTVSPost2010Prop33
280
     0
102
RTVSPost2010PropOp33
 70
     1
102
RTVSPost2010Prop34
280
     0
102
RTVSPost2010PropOp34
 70
     1
102
RTVSPost2010Prop35
280
     0
102
RTVSPost2010PropOp35
 70
     1
102
RTVSPost2010Prop36
280
     0
102
RTVSPost2010PropOp36
 70
     1
102
RTVSPost2010Prop37
 90
       50
102
RTVSPost2010PropOp37
 70
     1
102
RTVSPost2010Prop38
140
0.0
102
RTVSPost2010PropOp38
 70
     1
102
RTVSPost2010Prop39
140
1.0
102
RTVSPost2010PropOp39
 70
     1
102
RTVSPost2010Prop40
 90
        0
102
RTVSPost2010PropOp40
 70
     1
102
RTVSPost2010Prop41ColorIndex
 90
       18
102
RTVSPost2010Prop41ColorRGB
 90
        0
102
RTVSPost2010PropOp41
 70
     1
102
RTVSPost2010Prop42
 90
       50
102
RTVSPost2010PropOp42
 70
     1
102
RTVSPost2010Prop43
 90
        3
102
RTVSPost2010PropOp43
 70
     1
102
RTVSPost2010Prop44ColorIndex
 90
        5
102
RTVSPost2010Prop44ColorRGB
 90
      255
102
RTVSPost2010PropOp44
 70
     1
102
RTVSPost2010Prop45
280
     0
102
RTVSPost2010PropOp45
 70
     1
102
RTVSPost2010Prop46
 90
       50
102
RTVSPost2010PropOp46
 70
     1
102
RTVSPost2010Prop47
 90
       50
102
RTVSPost2010PropOp47
 70
     1
102
RTVSPost2010Prop48
 90
       50
102
RTVSPost2010PropOp48
 70
     1
102
RTVSPost2010Prop49
280
     0
102
RTVSPost2010PropOp49
 70
     1
102
RTVSPost2010Prop50
 90
       50
102
RTVSPost2010PropOp50
 70
     1
102
RTVSPost2010Prop51ColorIndex
 90
      256
102
RTVSPost2010Prop51ColorRGB
 90
-16777216
102
RTVSPost2010PropOp51
 70
     0
102
RTVSPost2010Prop52
140
1.0
102
RTVSPost2010PropOp52
 70
     0
102
RTVSPost2010Prop53
 90
        2
102
RTVSPost2010PropOp53
 70
     1
102
RTVSPost2010Prop54
  1
strokes_ogs.tif
102
RTVSPost2010PropOp54
 70
     1
102
RTVSPost2010Prop55
280
     0
102
RTVSPost2010PropOp55
 70
     1
102
RTVSPost2010Prop56
140
1.0
102
RTVSPost2010PropOp56
 70
     1
102
RTVSPost2010Prop57
140
1.0
102
RTVSPost2010PropOp57
 70
     1
  0
XRECORD
  5
2A4
102
{ACAD_REACTORS
330
2A3
102
}
330
2A3
100
AcDbXrecord
280
     1
102
RTVSPropertyOp0
 70
     1
102
RTVSPropertyOp1
 70
     1
102
RTVSPropertyOp2
 70
     1
102
RTVSPropertyOp3
 70
     1
102
RTVSPropertyOp4
 70
     1
102
RTVSPropertyOp5
 70
     1
102
RTVSPropertyOp6
 70
     1
102
RTVSPropertyOp7
 70
     1
102
RTVSPropertyOp8
 70
     1
102
RTVSPropertyOp9
 70
     1
102
RTVSPropertyOp10
 70
     1
102
RTVSPropertyOp11
 70
     1
102
RTVSPropertyOp12
 70
     1
102
RTVSPropertyOp13
 70
     1
102
RTVSPropertyOp14
 70
     1
102
RTVSPropertyOp15
 70
     1
102
RTVSPropertyOp16
 70
     1
102
RTVSPropertyOp17
 70
     1
102
RTVSPropertyOp18
 70
     1
102
RTVSPropertyOp19
 70
     1
102
RTVSPropertyOp20
 70
     1
102
RTVSPropertyOp21
 70
     1
102
RTVSPropertyOp22
 70
     1
102
RTVSPropertyOp23
 70
     1
102
RTVSPropertyOp24
 70
     1
102
RTVSPropertyOp25
 70
     1
102
RTVSPropertyOp26
 70
     1
102
RTVSPropertyOp27
 70
     1
102
RTVSPropertyOp28
 70
     1
102
RTVSPropertyOp29
 70
     1
102
RTVSPropertyOp30
 70
     1
102
RTVSPropertyOp31
 70
     1
102
RTVSPropertyOp32
 70
     1
102
RTVSPropertyOp33
 70
     1
102
RTVSPropertyOp34
 70
     1
102
RTVSPropertyOp35
 70
     1
102
RTVSPropertyOp36
 70
     1
102
RTVSPropertyOp37
 70
     1
102
RTVSPropertyOp38
 70
     1
102
RTVSPropertyOp39
 70
     1
102
RTVSPropertyOp40
 70
     1
102
RTVSPropertyOp41
 70
     1
102
RTVSPropertyOp42
 70
     1
102
RTVSPropertyOp43
 70
     1
102
RTVSPropertyOp44
 70
     1
102
RTVSPropertyOp45
 70
     1
102
RTVSPropertyOp46
 70
     1
102
RTVSPropertyOp47
 70
     1
102
RTVSPropertyOp48
 70
     1
102
RTVSPropertyOp49
 70
     1
102
RTVSPropertyOp50
 70
     1
102
RTVSPropertyOp51
 70
     0
102
RTVSPropertyOp52
 70
     0
102
RTVSPropertyOp53
 70
     1
102
RTVSPropertyOp54
 70
     1
102
RTVSPropertyOp55
 70
     1
102
RTVSPropertyOp56
 70
     1
102
RTVSPropertyOp57
 70
     1
102
RTVSPost2010Prop28
280
     0
102
RTVSPost2010PropOp28
 70
     1
102
RTVSPost2010Prop29
280
     1
102
RTVSPost2010PropOp29
 70
     1
102
RTVSPost2010Prop30
280
     1
102
RTVSPost2010PropOp30
 70
     1
102
RTVSPost2010Prop31
280
     0
102
RTVSPost2010PropOp31
 70
     1
102
RTVSPost2010Prop32
280
     0
102
RTVSPost2010PropOp32
 70
     1
102
RTVSPost2010Prop33
280
     0
102
RTVSPost2010PropOp33
 70
     1
102
RTVSPost2010Prop34
280
     0
102
RTVSPost2010PropOp34
 70
     1
102
RTVSPost2010Prop35
280
     0
102
RTVSPost2010PropOp35
 70
     1
102
RTVSPost2010Prop36
280
     0
102
RTVSPost2010PropOp36
 70
     1
102
RTVSPost2010Prop37
 90
       50
102
RTVSPost2010PropOp37
 70
     1
102
RTVSPost2010Prop38
140
0.0
102
RTVSPost2010PropOp38
 70
     1
102
RTVSPost2010Prop39
140
1.0
102
RTVSPost2010PropOp39
 70
     1
102
RTVSPost2010Prop40
 90
        0
102
RTVSPost2010PropOp40
 70
     1
102
RTVSPost2010Prop41ColorIndex
 90
       18
102
RTVSPost2010Prop41ColorRGB
 90
        0
102
RTVSPost2010PropOp41
 70
     1
102
RTVSPost2010Prop42
 90
       50
102
RTVSPost2010PropOp42
 70
     1
102
RTVSPost2010Prop43
 90
        3
102
RTVSPost2010PropOp43
 70
     1
102
RTVSPost2010Prop44ColorIndex
 90
        5
102
RTVSPost2010Prop44ColorRGB
 90
      255
102
RTVSPost2010PropOp44
 70
     1
102
RTVSPost2010Prop45
280
     0
102
RTVSPost2010PropOp45
 70
     1
102
RTVSPost2010Prop46
 90
       50
102
RTVSPost2010PropOp46
 70
     1
102
RTVSPost2010Prop47
 90
       50
102
RTVSPost2010PropOp47
 70
     1
102
RTVSPost2010Prop48
 90
       50
102
RTVSPost2010PropOp48
 70
     1
102
RTVSPost2010Prop49
280
     0
102
RTVSPost2010PropOp49
 70
     1
102
RTVSPost2010Prop50
 90
       50
102
RTVSPost2010PropOp50
 70
     1
102
RTVSPost2010Prop51ColorIndex
 90
      256
102
RTVSPost2010Prop51ColorRGB
 90
-16777216
102
RTVSPost2010PropOp51
 70
     0
102
RTVSPost2010Prop52
140
1.0
102
RTVSPost2010PropOp52
 70
     0
102
RTVSPost2010Prop53
 90
        2
102
RTVSPost2010PropOp53
 70
     1
102
RTVSPost2010Prop54
  1
strokes_ogs.tif
102
RTVSPost2010PropOp54
 70
     1
102
RTVSPost2010Prop55
280
     0
102
RTVSPost2010PropOp55
 70
     1
102
RTVSPost2010Prop56
140
1.0
102
RTVSPost2010PropOp56
 70
     1
102
RTVSPost2010Prop57
140
1.0
102
RTVSPost2010PropOp57
 70
     1
  0
XRECORD
  5
2A6
102
{ACAD_REACTORS
330
2A5
102
}
330
2A5
100
AcDbXrecord
280
     1
102
RTVSPropertyOp0
 70
     1
102
RTVSPropertyOp1
 70
     1
102
RTVSPropertyOp2
 70
     1
102
RTVSPropertyOp3
 70
     1
102
RTVSPropertyOp4
 70
     1
102
RTVSPropertyOp5
 70
     1
102
RTVSPropertyOp6
 70
     1
102
RTVSPropertyOp7
 70
     1
102
RTVSPropertyOp8
 70
     1
102
RTVSPropertyOp9
 70
     1
102
RTVSPropertyOp10
 70
     1
102
RTVSPropertyOp11
 70
     1
102
RTVSPropertyOp12
 70
     1
102
RTVSPropertyOp13
 70
     1
102
RTVSPropertyOp14
 70
     1
102
RTVSPropertyOp15
 70
     1
102
RTVSPropertyOp16
 70
     1
102
RTVSPropertyOp17
 70
     1
102
RTVSPropertyOp18
 70
     1
102
RTVSPropertyOp19
 70
     1
102
RTVSPropertyOp20
 70
     1
102
RTVSPropertyOp21
 70
     1
102
RTVSPropertyOp22
 70
     1
102
RTVSPropertyOp23
 70
     1
102
RTVSPropertyOp24
 70
     1
102
RTVSPropertyOp25
 70
     1
102
RTVSPropertyOp26
 70
     1
102
RTVSPropertyOp27
 70
     1
102
RTVSPropertyOp28
 70
     1
102
RTVSPropertyOp29
 70
     1
102
RTVSPropertyOp30
 70
     1
102
RTVSPropertyOp31
 70
     1
102
RTVSPropertyOp32
 70
     1
102
RTVSPropertyOp33
 70
     1
102
RTVSPropertyOp34
 70
     1
102
RTVSPropertyOp35
 70
     1
102
RTVSPropertyOp36
 70
     1
102
RTVSPropertyOp37
 70
     1
102
RTVSPropertyOp38
 70
     1
102
RTVSPropertyOp39
 70
     1
102
RTVSPropertyOp40
 70
     1
102
RTVSPropertyOp41
 70
     1
102
RTVSPropertyOp42
 70
     1
102
RTVSPropertyOp43
 70
     1
102
RTVSPropertyOp44
 70
     1
102
RTVSPropertyOp45
 70
     1
102
RTVSPropertyOp46
 70
     1
102
RTVSPropertyOp47
 70
     1
102
RTVSPropertyOp48
 70
     1
102
RTVSPropertyOp49
 70
     1
102
RTVSPropertyOp50
 70
     1
102
RTVSPropertyOp51
 70
     0
102
RTVSPropertyOp52
 70
     0
102
RTVSPropertyOp53
 70
     1
102
RTVSPropertyOp54
 70
     1
102
RTVSPropertyOp55
 70
     1
102
RTVSPropertyOp56
 70
     1
102
RTVSPropertyOp57
 70
     1
102
RTVSPost2010Prop28
280
     0
102
RTVSPost2010PropOp28
 70
     1
102
RTVSPost2010Prop29
280
     1
102
RTVSPost2010PropOp29
 70
     1
102
RTVSPost2010Prop30
280
     1
102
RTVSPost2010PropOp30
 70
     1
102
RTVSPost2010Prop31
280
     0
102
RTVSPost2010PropOp31
 70
     1
102
RTVSPost2010Prop32
280
     0
102
RTVSPost2010PropOp32
 70
     1
102
RTVSPost2010Prop33
280
     0
102
RTVSPost2010PropOp33
 70
     1
102
RTVSPost2010Prop34
280
     0
102
RTVSPost2010PropOp34
 70
     1
102
RTVSPost2010Prop35
280
     0
102
RTVSPost2010PropOp35
 70
     1
102
RTVSPost2010Prop36
280
     0
102
RTVSPost2010PropOp36
 70
     1
102
RTVSPost2010Prop37
 90
       50
102
RTVSPost2010PropOp37
 70
     1
102
RTVSPost2010Prop38
140
0.0
102
RTVSPost2010PropOp38
 70
     1
102
RTVSPost2010Prop39
140
1.0
102
RTVSPost2010PropOp39
 70
     1
102
RTVSPost2010Prop40
 90
        0
102
RTVSPost2010PropOp40
 70
     1
102
RTVSPost2010Prop41ColorIndex
 90
       18
102
RTVSPost2010Prop41ColorRGB
 90
        0
102
RTVSPost2010PropOp41
 70
     1
102
RTVSPost2010Prop42
 90
       50
102
RTVSPost2010PropOp42
 70
     1
102
RTVSPost2010Prop43
 90
        3
102
RTVSPost2010PropOp43
 70
     1
102
RTVSPost2010Prop44ColorIndex
 90
        5
102
RTVSPost2010Prop44ColorRGB
 90
      255
102
RTVSPost2010PropOp44
 70
     1
102
RTVSPost2010Prop45
280
     0
102
RTVSPost2010PropOp45
 70
     1
102
RTVSPost2010Prop46
 90
       50
102
RTVSPost2010PropOp46
 70
     1
102
RTVSPost2010Prop47
 90
       50
102
RTVSPost2010PropOp47
 70
     1
102
RTVSPost2010Prop48
 90
       50
102
RTVSPost2010PropOp48
 70
     1
102
RTVSPost2010Prop49
280
     0
102
RTVSPost2010PropOp49
 70
     1
102
RTVSPost2010Prop50
 90
       50
102
RTVSPost2010PropOp50
 70
     1
102
RTVSPost2010Prop51ColorIndex
 90
      256
102
RTVSPost2010Prop51ColorRGB
 90
-16777216
102
RTVSPost2010PropOp51
 70
     0
102
RTVSPost2010Prop52
140
1.0
102
RTVSPost2010PropOp52
 70
     0
102
RTVSPost2010Prop53
 90
        2
102
RTVSPost2010PropOp53
 70
     1
102
RTVSPost2010Prop54
  1
strokes_ogs.tif
102
RTVSPost2010PropOp54
 70
     1
102
RTVSPost2010Prop55
280
     0
102
RTVSPost2010PropOp55
 70
     1
102
RTVSPost2010Prop56
140
1.0
102
RTVSPost2010PropOp56
 70
     1
102
RTVSPost2010Prop57
140
1.0
102
RTVSPost2010PropOp57
 70
     1
  0
XRECORD
  5
2AC
102
{ACAD_REACTORS
330
2AB
102
}
330
2AB
100
AcDbXrecord
280
     1
102
RTVSPropertyOp0
 70
     1
102
RTVSPropertyOp1
 70
     1
102
RTVSPropertyOp2
 70
     1
102
RTVSPropertyOp3
 70
     1
102
RTVSPropertyOp4
 70
     1
102
RTVSPropertyOp5
 70
     1
102
RTVSPropertyOp6
 70
     1
102
RTVSPropertyOp7
 70
     1
102
RTVSPropertyOp8
 70
     1
102
RTVSPropertyOp9
 70
     1
102
RTVSPropertyOp10
 70
     1
102
RTVSPropertyOp11
 70
     1
102
RTVSPropertyOp12
 70
     1
102
RTVSPropertyOp13
 70
     1
102
RTVSPropertyOp14
 70
     1
102
RTVSPropertyOp15
 70
     1
102
RTVSPropertyOp16
 70
     1
102
RTVSPropertyOp17
 70
     1
102
RTVSPropertyOp18
 70
     1
102
RTVSPropertyOp19
 70
     1
102
RTVSPropertyOp20
 70
     1
102
RTVSPropertyOp21
 70
     1
102
RTVSPropertyOp22
 70
     1
102
RTVSPropertyOp23
 70
     1
102
RTVSPropertyOp24
 70
     1
102
RTVSPropertyOp25
 70
     1
102
RTVSPropertyOp26
 70
     1
102
RTVSPropertyOp27
 70
     1
102
RTVSPropertyOp28
 70
     1
102
RTVSPropertyOp29
 70
     1
102
RTVSPropertyOp30
 70
     1
102
RTVSPropertyOp31
 70
     1
102
RTVSPropertyOp32
 70
     1
102
RTVSPropertyOp33
 70
     1
102
RTVSPropertyOp34
 70
     1
102
RTVSPropertyOp35
 70
     1
102
RTVSPropertyOp36
 70
     1
102
RTVSPropertyOp37
 70
     1
102
RTVSPropertyOp38
 70
     1
102
RTVSPropertyOp39
 70
     1
102
RTVSPropertyOp40
 70
     1
102
RTVSPropertyOp41
 70
     1
102
RTVSPropertyOp42
 70
     1
102
RTVSPropertyOp43
 70
     1
102
RTVSPropertyOp44
 70
     1
102
RTVSPropertyOp45
 70
     1
102
RTVSPropertyOp46
 70
     1
102
RTVSPropertyOp47
 70
     1
102
RTVSPropertyOp48
 70
     1
102
RTVSPropertyOp49
 70
     1
102
RTVSPropertyOp50
 70
     1
102
RTVSPropertyOp51
 70
     0
102
RTVSPropertyOp52
 70
     0
102
RTVSPropertyOp53
 70
     1
102
RTVSPropertyOp54
 70
     1
102
RTVSPropertyOp55
 70
     1
102
RTVSPropertyOp56
 70
     1
102
RTVSPropertyOp57
 70
     1
102
RTVSPost2010Prop28
280
     0
102
RTVSPost2010PropOp28
 70
     1
102
RTVSPost2010Prop29
280
     1
102
RTVSPost2010PropOp29
 70
     1
102
RTVSPost2010Prop30
280
     1
102
RTVSPost2010PropOp30
 70
     1
102
RTVSPost2010Prop31
280
     0
102
RTVSPost2010PropOp31
 70
     1
102
RTVSPost2010Prop32
280
     0
102
RTVSPost2010PropOp32
 70
     1
102
RTVSPost2010Prop33
280
     0
102
RTVSPost2010PropOp33
 70
     1
102
RTVSPost2010Prop34
280
     0
102
RTVSPost2010PropOp34
 70
     1
102
RTVSPost2010Prop35
280
     0
102
RTVSPost2010PropOp35
 70
     1
102
RTVSPost2010Prop36
280
     0
102
RTVSPost2010PropOp36
 70
     1
102
RTVSPost2010Prop37
 90
       50
102
RTVSPost2010PropOp37
 70
     1
102
RTVSPost2010Prop38
140
0.0
102
RTVSPost2010PropOp38
 70
     1
102
RTVSPost2010Prop39
140
1.0
102
RTVSPost2010PropOp39
 70
     1
102
RTVSPost2010Prop40
 90
        0
102
RTVSPost2010PropOp40
 70
     1
102
RTVSPost2010Prop41ColorIndex
 90
       18
102
RTVSPost2010Prop41ColorRGB
 90
        0
102
RTVSPost2010PropOp41
 70
     1
102
RTVSPost2010Prop42
 90
       50
102
RTVSPost2010PropOp42
 70
     1
102
RTVSPost2010Prop43
 90
        3
102
RTVSPost2010PropOp43
 70
     1
102
RTVSPost2010Prop44ColorIndex
 90
        5
102
RTVSPost2010Prop44ColorRGB
 90
      255
102
RTVSPost2010PropOp44
 70
     1
102
RTVSPost2010Prop45
280
     0
102
RTVSPost2010PropOp45
 70
     1
102
RTVSPost2010Prop46
 90
       50
102
RTVSPost2010PropOp46
 70
     1
102
RTVSPost2010Prop47
 90
       50
102
RTVSPost2010PropOp47
 70
     1
102
RTVSPost2010Prop48
 90
       50
102
RTVSPost2010PropOp48
 70
     1
102
RTVSPost2010Prop49
280
     0
102
RTVSPost2010PropOp49
 70
     1
102
RTVSPost2010Prop50
 90
       50
102
RTVSPost2010PropOp50
 70
     1
102
RTVSPost2010Prop51ColorIndex
 90
      256
102
RTVSPost2010Prop51ColorRGB
 90
-16777216
102
RTVSPost2010PropOp51
 70
     0
102
RTVSPost2010Prop52
140
1.0
102
RTVSPost2010PropOp52
 70
     0
102
RTVSPost2010Prop53
 90
        2
102
RTVSPost2010PropOp53
 70
     1
102
RTVSPost2010Prop54
  1
strokes_ogs.tif
102
RTVSPost2010PropOp54
 70
     1
102
RTVSPost2010Prop55
280
     0
102
RTVSPost2010PropOp55
 70
     1
102
RTVSPost2010Prop56
140
1.0
102
RTVSPost2010PropOp56
 70
     1
102
RTVSPost2010Prop57
140
1.0
102
RTVSPost2010PropOp57
 70
     1
  0
XRECORD
  5
2C0
102
{ACAD_REACTORS
330
2BF
102
}
330
2BF
100
AcDbXrecord
280
     1
102
RTVSPropertyOp0
 70
     0
102
RTVSPropertyOp1
 70
     0
102
RTVSPropertyOp2
 70
     0
102
RTVSPropertyOp3
 70
     0
102
RTVSPropertyOp4
 70
     0
102
RTVSPropertyOp5
 70
     0
102
RTVSPropertyOp6
 70
     0
102
RTVSPropertyOp7
 70
     0
102
RTVSPropertyOp8
 70
     0
102
RTVSPropertyOp9
 70
     0
102
RTVSPropertyOp10
 70
     0
102
RTVSPropertyOp11
 70
     0
102
RTVSPropertyOp12
 70
     0
102
RTVSPropertyOp13
 70
     0
102
RTVSPropertyOp14
 70
     2
102
RTVSPropertyOp15
 70
     0
102
RTVSPropertyOp16
 70
     0
102
RTVSPropertyOp17
 70
     0
102
RTVSPropertyOp18
 70
     0
102
RTVSPropertyOp19
 70
     0
102
RTVSPropertyOp20
 70
     0
102
RTVSPropertyOp21
 70
     0
102
RTVSPropertyOp22
 70
     0
102
RTVSPropertyOp23
 70
     0
102
RTVSPropertyOp24
 70
     0
102
RTVSPropertyOp25
 70
     0
102
RTVSPropertyOp26
 70
     0
102
RTVSPropertyOp27
 70
     0
102
RTVSPropertyOp28
 70
     0
102
RTVSPropertyOp29
 70
     0
102
RTVSPropertyOp30
 70
     0
102
RTVSPropertyOp31
 70
     0
102
RTVSPropertyOp32
 70
     0
102
RTVSPropertyOp33
 70
     0
102
RTVSPropertyOp34
 70
     0
102
RTVSPropertyOp35
 70
     0
102
RTVSPropertyOp36
 70
     0
102
RTVSPropertyOp37
 70
     0
102
RTVSPropertyOp38
 70
     0
102
RTVSPropertyOp39
 70
     0
102
RTVSPropertyOp40
 70
     0
102
RTVSPropertyOp41
 70
     0
102
RTVSPropertyOp42
 70
     0
102
RTVSPropertyOp43
 70
     0
102
RTVSPropertyOp44
 70
     0
102
RTVSPropertyOp45
 70
     0
102
RTVSPropertyOp46
 70
     0
102
RTVSPropertyOp47
 70
     0
102
RTVSPropertyOp48
 70
     0
102
RTVSPropertyOp49
 70
     0
102
RTVSPropertyOp50
 70
     0
102
RTVSPropertyOp51
 70
     0
102
RTVSPropertyOp52
 70
     0
102
RTVSPropertyOp53
 70
     0
102
RTVSPropertyOp54
 70
     0
102
RTVSPropertyOp55
 70
     0
102
RTVSPropertyOp56
 70
     0
102
RTVSPropertyOp57
 70
     0
102
RTVSPost2010Prop28
280
     0
102
RTVSPost2010PropOp28
 70
     0
102
RTVSPost2010Prop29
280
     1
102
RTVSPost2010PropOp29
 70
     0
102
RTVSPost2010Prop30
280
     1
102
RTVSPost2010PropOp30
 70
     0
102
RTVSPost2010Prop31
280
     0
102
RTVSPost2010PropOp31
 70
     0
102
RTVSPost2010Prop32
280
     0
102
RTVSPost2010PropOp32
 70
     0
102
RTVSPost2010Prop33
280
     0
102
RTVSPost2010PropOp33
 70
     0
102
RTVSPost2010Prop34
280
     0
102
RTVSPost2010PropOp34
 70
     0
102
RTVSPost2010Prop35
280
     0
102
RTVSPost2010PropOp35
 70
     0
102
RTVSPost2010Prop36
280
     0
102
RTVSPost2010PropOp36
 70
     0
102
RTVSPost2010Prop37
 90
       50
102
RTVSPost2010PropOp37
 70
     0
102
RTVSPost2010Prop38
140
0.0
102
RTVSPost2010PropOp38
 70
     0
102
RTVSPost2010Prop39
140
1.0
102
RTVSPost2010PropOp39
 70
     0
102
RTVSPost2010Prop40
 90
        0
102
RTVSPost2010PropOp40
 70
     0
102
RTVSPost2010Prop41ColorIndex
 90
       18
102
RTVSPost2010Prop41ColorRGB
 90
        0
102
RTVSPost2010PropOp41
 70
     0
102
RTVSPost2010Prop42
 90
       50
102
RTVSPost2010PropOp42
 70
     0
102
RTVSPost2010Prop43
 90
        3
102
RTVSPost2010PropOp43
 70
     0
102
RTVSPost2010Prop44ColorIndex
 90
        5
102
RTVSPost2010Prop44ColorRGB
 90
      255
102
RTVSPost2010PropOp44
 70
     0
102
RTVSPost2010Prop45
280
     0
102
RTVSPost2010PropOp45
 70
     0
102
RTVSPost2010Prop46
 90
       50
102
RTVSPost2010PropOp46
 70
     0
102
RTVSPost2010Prop47
 90
       50
102
RTVSPost2010PropOp47
 70
     0
102
RTVSPost2010Prop48
 90
       50
102
RTVSPost2010PropOp48
 70
     0
102
RTVSPost2010Prop49
280
     0
102
RTVSPost2010PropOp49
 70
     0
102
RTVSPost2010Prop50
 90
       50
102
RTVSPost2010PropOp50
 70
     0
102
RTVSPost2010Prop51ColorIndex
 90
      256
102
RTVSPost2010Prop51ColorRGB
 90
-16777216
102
RTVSPost2010PropOp51
 70
     0
102
RTVSPost2010Prop52
140
1.0
102
RTVSPost2010PropOp52
 70
     0
102
RTVSPost2010Prop53
 90
        2
102
RTVSPost2010PropOp53
 70
     0
102
RTVSPost2010Prop54
  1
strokes_ogs.tif
102
RTVSPost2010PropOp54
 70
     0
102
RTVSPost2010Prop55
280
     0
102
RTVSPost2010PropOp55
 70
     0
102
RTVSPost2010Prop56
140
1.0
102
RTVSPost2010PropOp56
 70
     0
102
RTVSPost2010Prop57
140
1.0
102
RTVSPost2010PropOp57
 70
     0
  0
XRECORD
  5
2BA
102
{ACAD_REACTORS
330
2B9
102
}
330
2B9
100
AcDbXrecord
280
     1
102
RTVSPropertyOp0
 70
     1
102
RTVSPropertyOp1
 70
     1
102
RTVSPropertyOp2
 70
     1
102
RTVSPropertyOp3
 70
     1
102
RTVSPropertyOp4
 70
     1
102
RTVSPropertyOp5
 70
     1
102
RTVSPropertyOp6
 70
     1
102
RTVSPropertyOp7
 70
     1
102
RTVSPropertyOp8
 70
     1
102
RTVSPropertyOp9
 70
     1
102
RTVSPropertyOp10
 70
     1
102
RTVSPropertyOp11
 70
     1
102
RTVSPropertyOp12
 70
     1
102
RTVSPropertyOp13
 70
     1
102
RTVSPropertyOp14
 70
     1
102
RTVSPropertyOp15
 70
     1
102
RTVSPropertyOp16
 70
     1
102
RTVSPropertyOp17
 70
     1
102
RTVSPropertyOp18
 70
     1
102
RTVSPropertyOp19
 70
     1
102
RTVSPropertyOp20
 70
     1
102
RTVSPropertyOp21
 70
     1
102
RTVSPropertyOp22
 70
     1
102
RTVSPropertyOp23
 70
     1
102
RTVSPropertyOp24
 70
     1
102
RTVSPropertyOp25
 70
     1
102
RTVSPropertyOp26
 70
     1
102
RTVSPropertyOp27
 70
     1
102
RTVSPropertyOp28
 70
     1
102
RTVSPropertyOp29
 70
     1
102
RTVSPropertyOp30
 70
     1
102
RTVSPropertyOp31
 70
     1
102
RTVSPropertyOp32
 70
     1
102
RTVSPropertyOp33
 70
     1
102
RTVSPropertyOp34
 70
     1
102
RTVSPropertyOp35
 70
     1
102
RTVSPropertyOp36
 70
     1
102
RTVSPropertyOp37
 70
     1
102
RTVSPropertyOp38
 70
     1
102
RTVSPropertyOp39
 70
     1
102
RTVSPropertyOp40
 70
     1
102
RTVSPropertyOp41
 70
     1
102
RTVSPropertyOp42
 70
     1
102
RTVSPropertyOp43
 70
     1
102
RTVSPropertyOp44
 70
     1
102
RTVSPropertyOp45
 70
     1
102
RTVSPropertyOp46
 70
     1
102
RTVSPropertyOp47
 70
     1
102
RTVSPropertyOp48
 70
     1
102
RTVSPropertyOp49
 70
     1
102
RTVSPropertyOp50
 70
     1
102
RTVSPropertyOp51
 70
     0
102
RTVSPropertyOp52
 70
     0
102
RTVSPropertyOp53
 70
     1
102
RTVSPropertyOp54
 70
     1
102
RTVSPropertyOp55
 70
     1
102
RTVSPropertyOp56
 70
     1
102
RTVSPropertyOp57
 70
     1
102
RTVSPost2010Prop28
280
     0
102
RTVSPost2010PropOp28
 70
     1
102
RTVSPost2010Prop29
280
     1
102
RTVSPost2010PropOp29
 70
     1
102
RTVSPost2010Prop30
280
     1
102
RTVSPost2010PropOp30
 70
     1
102
RTVSPost2010Prop31
280
     0
102
RTVSPost2010PropOp31
 70
     1
102
RTVSPost2010Prop32
280
     0
102
RTVSPost2010PropOp32
 70
     1
102
RTVSPost2010Prop33
280
     0
102
RTVSPost2010PropOp33
 70
     1
102
RTVSPost2010Prop34
280
     0
102
RTVSPost2010PropOp34
 70
     1
102
RTVSPost2010Prop35
280
     0
102
RTVSPost2010PropOp35
 70
     1
102
RTVSPost2010Prop36
280
     0
102
RTVSPost2010PropOp36
 70
     1
102
RTVSPost2010Prop37
 90
       50
102
RTVSPost2010PropOp37
 70
     1
102
RTVSPost2010Prop38
140
0.0
102
RTVSPost2010PropOp38
 70
     1
102
RTVSPost2010Prop39
140
1.0
102
RTVSPost2010PropOp39
 70
     1
102
RTVSPost2010Prop40
 90
        0
102
RTVSPost2010PropOp40
 70
     1
102
RTVSPost2010Prop41ColorIndex
 90
       18
102
RTVSPost2010Prop41ColorRGB
 90
        0
102
RTVSPost2010PropOp41
 70
     1
102
RTVSPost2010Prop42
 90
       50
102
RTVSPost2010PropOp42
 70
     1
102
RTVSPost2010Prop43
 90
        3
102
RTVSPost2010PropOp43
 70
     1
102
RTVSPost2010Prop44ColorIndex
 90
        5
102
RTVSPost2010Prop44ColorRGB
 90
      255
102
RTVSPost2010PropOp44
 70
     1
102
RTVSPost2010Prop45
280
     0
102
RTVSPost2010PropOp45
 70
     1
102
RTVSPost2010Prop46
 90
       50
102
RTVSPost2010PropOp46
 70
     1
102
RTVSPost2010Prop47
 90
       50
102
RTVSPost2010PropOp47
 70
     1
102
RTVSPost2010Prop48
 90
       50
102
RTVSPost2010PropOp48
 70
     1
102
RTVSPost2010Prop49
280
     0
102
RTVSPost2010PropOp49
 70
     1
102
RTVSPost2010Prop50
 90
       50
102
RTVSPost2010PropOp50
 70
     1
102
RTVSPost2010Prop51ColorIndex
 90
      256
102
RTVSPost2010Prop51ColorRGB
 90
-16777216
102
RTVSPost2010PropOp51
 70
     0
102
RTVSPost2010Prop52
140
1.0
102
RTVSPost2010PropOp52
 70
     0
102
RTVSPost2010Prop53
 90
        2
102
RTVSPost2010PropOp53
 70
     1
102
RTVSPost2010Prop54
  1
strokes_ogs.tif
102
RTVSPost2010PropOp54
 70
     1
102
RTVSPost2010Prop55
280
     0
102
RTVSPost2010PropOp55
 70
     1
102
RTVSPost2010Prop56
140
1.0
102
RTVSPost2010PropOp56
 70
     1
102
RTVSPost2010Prop57
140
1.0
102
RTVSPost2010PropOp57
 70
     1
  0
XRECORD
  5
2C2
102
{ACAD_REACTORS
330
2C1
102
}
330
2C1
100
AcDbXrecord
280
     1
102
RTVSPropertyOp0
 70
     0
102
RTVSPropertyOp1
 70
     0
102
RTVSPropertyOp2
 70
     0
102
RTVSPropertyOp3
 70
     0
102
RTVSPropertyOp4
 70
     0
102
RTVSPropertyOp5
 70
     0
102
RTVSPropertyOp6
 70
     0
102
RTVSPropertyOp7
 70
     0
102
RTVSPropertyOp8
 70
     0
102
RTVSPropertyOp9
 70
     0
102
RTVSPropertyOp10
 70
     0
102
RTVSPropertyOp11
 70
     0
102
RTVSPropertyOp12
 70
     0
102
RTVSPropertyOp13
 70
     0
102
RTVSPropertyOp14
 70
     2
102
RTVSPropertyOp15
 70
     0
102
RTVSPropertyOp16
 70
     0
102
RTVSPropertyOp17
 70
     0
102
RTVSPropertyOp18
 70
     0
102
RTVSPropertyOp19
 70
     0
102
RTVSPropertyOp20
 70
     0
102
RTVSPropertyOp21
 70
     0
102
RTVSPropertyOp22
 70
     0
102
RTVSPropertyOp23
 70
     0
102
RTVSPropertyOp24
 70
     0
102
RTVSPropertyOp25
 70
     0
102
RTVSPropertyOp26
 70
     0
102
RTVSPropertyOp27
 70
     0
102
RTVSPropertyOp28
 70
     0
102
RTVSPropertyOp29
 70
     0
102
RTVSPropertyOp30
 70
     0
102
RTVSPropertyOp31
 70
     0
102
RTVSPropertyOp32
 70
     0
102
RTVSPropertyOp33
 70
     0
102
RTVSPropertyOp34
 70
     0
102
RTVSPropertyOp35
 70
     0
102
RTVSPropertyOp36
 70
     0
102
RTVSPropertyOp37
 70
     0
102
RTVSPropertyOp38
 70
     0
102
RTVSPropertyOp39
 70
     0
102
RTVSPropertyOp40
 70
     0
102
RTVSPropertyOp41
 70
     0
102
RTVSPropertyOp42
 70
     0
102
RTVSPropertyOp43
 70
     0
102
RTVSPropertyOp44
 70
     0
102
RTVSPropertyOp45
 70
     0
102
RTVSPropertyOp46
 70
     0
102
RTVSPropertyOp47
 70
     0
102
RTVSPropertyOp48
 70
     0
102
RTVSPropertyOp49
 70
     0
102
RTVSPropertyOp50
 70
     0
102
RTVSPropertyOp51
 70
     0
102
RTVSPropertyOp52
 70
     0
102
RTVSPropertyOp53
 70
     0
102
RTVSPropertyOp54
 70
     0
102
RTVSPropertyOp55
 70
     0
102
RTVSPropertyOp56
 70
     0
102
RTVSPropertyOp57
 70
     0
102
RTVSPost2010Prop28
280
     0
102
RTVSPost2010PropOp28
 70
     0
102
RTVSPost2010Prop29
280
     1
102
RTVSPost2010PropOp29
 70
     0
102
RTVSPost2010Prop30
280
     1
102
RTVSPost2010PropOp30
 70
     0
102
RTVSPost2010Prop31
280
     0
102
RTVSPost2010PropOp31
 70
     0
102
RTVSPost2010Prop32
280
     0
102
RTVSPost2010PropOp32
 70
     0
102
RTVSPost2010Prop33
280
     0
102
RTVSPost2010PropOp33
 70
     0
102
RTVSPost2010Prop34
280
     0
102
RTVSPost2010PropOp34
 70
     0
102
RTVSPost2010Prop35
280
     0
102
RTVSPost2010PropOp35
 70
     0
102
RTVSPost2010Prop36
280
     0
102
RTVSPost2010PropOp36
 70
     0
102
RTVSPost2010Prop37
 90
       50
102
RTVSPost2010PropOp37
 70
     0
102
RTVSPost2010Prop38
140
0.0
102
RTVSPost2010PropOp38
 70
     0
102
RTVSPost2010Prop39
140
1.0
102
RTVSPost2010PropOp39
 70
     0
102
RTVSPost2010Prop40
 90
        0
102
RTVSPost2010PropOp40
 70
     0
102
RTVSPost2010Prop41ColorIndex
 90
       18
102
RTVSPost2010Prop41ColorRGB
 90
        0
102
RTVSPost2010PropOp41
 70
     0
102
RTVSPost2010Prop42
 90
       50
102
RTVSPost2010PropOp42
 70
     0
102
RTVSPost2010Prop43
 90
        3
102
RTVSPost2010PropOp43
 70
     0
102
RTVSPost2010Prop44ColorIndex
 90
        5
102
RTVSPost2010Prop44ColorRGB
 90
      255
102
RTVSPost2010PropOp44
 70
     0
102
RTVSPost2010Prop45
280
     0
102
RTVSPost2010PropOp45
 70
     0
102
RTVSPost2010Prop46
 90
       50
102
RTVSPost2010PropOp46
 70
     0
102
RTVSPost2010Prop47
 90
       50
102
RTVSPost2010PropOp47
 70
     0
102
RTVSPost2010Prop48
 90
       50
102
RTVSPost2010PropOp48
 70
     0
102
RTVSPost2010Prop49
280
     0
102
RTVSPost2010PropOp49
 70
     0
102
RTVSPost2010Prop50
 90
       50
102
RTVSPost2010PropOp50
 70
     0
102
RTVSPost2010Prop51ColorIndex
 90
      256
102
RTVSPost2010Prop51ColorRGB
 90
-16777216
102
RTVSPost2010PropOp51
 70
     0
102
RTVSPost2010Prop52
140
1.0
102
RTVSPost2010PropOp52
 70
     0
102
RTVSPost2010Prop53
 90
        2
102
RTVSPost2010PropOp53
 70
     0
102
RTVSPost2010Prop54
  1
strokes_ogs.tif
102
RTVSPost2010PropOp54
 70
     0
102
RTVSPost2010Prop55
280
     0
102
RTVSPost2010PropOp55
 70
     0
102
RTVSPost2010Prop56
140
1.0
102
RTVSPost2010PropOp56
 70
     0
102
RTVSPost2010Prop57
140
1.0
102
RTVSPost2010PropOp57
 70
     0
  0
XRECORD
  5
2B0
102
{ACAD_REACTORS
330
2AF
102
}
330
2AF
100
AcDbXrecord
280
     1
102
RTVSPropertyOp0
 70
     1
102
RTVSPropertyOp1
 70
     1
102
RTVSPropertyOp2
 70
     1
102
RTVSPropertyOp3
 70
     1
102
RTVSPropertyOp4
 70
     1
102
RTVSPropertyOp5
 70
     1
102
RTVSPropertyOp6
 70
     1
102
RTVSPropertyOp7
 70
     1
102
RTVSPropertyOp8
 70
     1
102
RTVSPropertyOp9
 70
     1
102
RTVSPropertyOp10
 70
     1
102
RTVSPropertyOp11
 70
     1
102
RTVSPropertyOp12
 70
     1
102
RTVSPropertyOp13
 70
     1
102
RTVSPropertyOp14
 70
     1
102
RTVSPropertyOp15
 70
     1
102
RTVSPropertyOp16
 70
     1
102
RTVSPropertyOp17
 70
     1
102
RTVSPropertyOp18
 70
     1
102
RTVSPropertyOp19
 70
     1
102
RTVSPropertyOp20
 70
     1
102
RTVSPropertyOp21
 70
     1
102
RTVSPropertyOp22
 70
     1
102
RTVSPropertyOp23
 70
     1
102
RTVSPropertyOp24
 70
     1
102
RTVSPropertyOp25
 70
     1
102
RTVSPropertyOp26
 70
     1
102
RTVSPropertyOp27
 70
     1
102
RTVSPropertyOp28
 70
     1
102
RTVSPropertyOp29
 70
     1
102
RTVSPropertyOp30
 70
     1
102
RTVSPropertyOp31
 70
     1
102
RTVSPropertyOp32
 70
     1
102
RTVSPropertyOp33
 70
     1
102
RTVSPropertyOp34
 70
     1
102
RTVSPropertyOp35
 70
     1
102
RTVSPropertyOp36
 70
     1
102
RTVSPropertyOp37
 70
     1
102
RTVSPropertyOp38
 70
     1
102
RTVSPropertyOp39
 70
     1
102
RTVSPropertyOp40
 70
     1
102
RTVSPropertyOp41
 70
     1
102
RTVSPropertyOp42
 70
     1
102
RTVSPropertyOp43
 70
     1
102
RTVSPropertyOp44
 70
     1
102
RTVSPropertyOp45
 70
     1
102
RTVSPropertyOp46
 70
     1
102
RTVSPropertyOp47
 70
     1
102
RTVSPropertyOp48
 70
     1
102
RTVSPropertyOp49
 70
     1
102
RTVSPropertyOp50
 70
     1
102
RTVSPropertyOp51
 70
     0
102
RTVSPropertyOp52
 70
     0
102
RTVSPropertyOp53
 70
     1
102
RTVSPropertyOp54
 70
     1
102
RTVSPropertyOp55
 70
     1
102
RTVSPropertyOp56
 70
     1
102
RTVSPropertyOp57
 70
     1
102
RTVSPost2010Prop28
280
     0
102
RTVSPost2010PropOp28
 70
     1
102
RTVSPost2010Prop29
280
     1
102
RTVSPost2010PropOp29
 70
     1
102
RTVSPost2010Prop30
280
     1
102
RTVSPost2010PropOp30
 70
     1
102
RTVSPost2010Prop31
280
     0
102
RTVSPost2010PropOp31
 70
     1
102
RTVSPost2010Prop32
280
     0
102
RTVSPost2010PropOp32
 70
     1
102
RTVSPost2010Prop33
280
     0
102
RTVSPost2010PropOp33
 70
     1
102
RTVSPost2010Prop34
280
     0
102
RTVSPost2010PropOp34
 70
     1
102
RTVSPost2010Prop35
280
     0
102
RTVSPost2010PropOp35
 70
     1
102
RTVSPost2010Prop36
280
     0
102
RTVSPost2010PropOp36
 70
     1
102
RTVSPost2010Prop37
 90
       50
102
RTVSPost2010PropOp37
 70
     1
102
RTVSPost2010Prop38
140
0.0
102
RTVSPost2010PropOp38
 70
     1
102
RTVSPost2010Prop39
140
1.0
102
RTVSPost2010PropOp39
 70
     1
102
RTVSPost2010Prop40
 90
        0
102
RTVSPost2010PropOp40
 70
     1
102
RTVSPost2010Prop41ColorIndex
 90
       18
102
RTVSPost2010Prop41ColorRGB
 90
        0
102
RTVSPost2010PropOp41
 70
     1
102
RTVSPost2010Prop42
 90
       50
102
RTVSPost2010PropOp42
 70
     1
102
RTVSPost2010Prop43
 90
        3
102
RTVSPost2010PropOp43
 70
     1
102
RTVSPost2010Prop44ColorIndex
 90
        5
102
RTVSPost2010Prop44ColorRGB
 90
      255
102
RTVSPost2010PropOp44
 70
     1
102
RTVSPost2010Prop45
280
     0
102
RTVSPost2010PropOp45
 70
     1
102
RTVSPost2010Prop46
 90
       50
102
RTVSPost2010PropOp46
 70
     1
102
RTVSPost2010Prop47
 90
       50
102
RTVSPost2010PropOp47
 70
     1
102
RTVSPost2010Prop48
 90
       50
102
RTVSPost2010PropOp48
 70
     1
102
RTVSPost2010Prop49
280
     0
102
RTVSPost2010PropOp49
 70
     1
102
RTVSPost2010Prop50
 90
       50
102
RTVSPost2010PropOp50
 70
     1
102
RTVSPost2010Prop51ColorIndex
 90
      256
102
RTVSPost2010Prop51ColorRGB
 90
-16777216
102
RTVSPost2010PropOp51
 70
     0
102
RTVSPost2010Prop52
140
1.0
102
RTVSPost2010PropOp52
 70
     0
102
RTVSPost2010Prop53
 90
        2
102
RTVSPost2010PropOp53
 70
     1
102
RTVSPost2010Prop54
  1
strokes_ogs.tif
102
RTVSPost2010PropOp54
 70
     1
102
RTVSPost2010Prop55
280
     0
102
RTVSPost2010PropOp55
 70
     1
102
RTVSPost2010Prop56
140
1.0
102
RTVSPost2010PropOp56
 70
     1
102
RTVSPost2010Prop57
140
1.0
102
RTVSPost2010PropOp57
 70
     1
  0
XRECORD
  5
2CE
102
{ACAD_REACTORS
330
2CD
102
}
330
2CD
100
AcDbXrecord
280
     1
102
RTVSPropertyOp0
 70
     1
102
RTVSPropertyOp1
 70
     1
102
RTVSPropertyOp2
 70
     1
102
RTVSPropertyOp3
 70
     1
102
RTVSPropertyOp4
 70
     1
102
RTVSPropertyOp5
 70
     1
102
RTVSPropertyOp6
 70
     1
102
RTVSPropertyOp7
 70
     1
102
RTVSPropertyOp8
 70
     1
102
RTVSPropertyOp9
 70
     1
102
RTVSPropertyOp10
 70
     1
102
RTVSPropertyOp11
 70
     1
102
RTVSPropertyOp12
 70
     1
102
RTVSPropertyOp13
 70
     1
102
RTVSPropertyOp14
 70
     1
102
RTVSPropertyOp15
 70
     1
102
RTVSPropertyOp16
 70
     1
102
RTVSPropertyOp17
 70
     1
102
RTVSPropertyOp18
 70
     1
102
RTVSPropertyOp19
 70
     1
102
RTVSPropertyOp20
 70
     1
102
RTVSPropertyOp21
 70
     1
102
RTVSPropertyOp22
 70
     1
102
RTVSPropertyOp23
 70
     1
102
RTVSPropertyOp24
 70
     1
102
RTVSPropertyOp25
 70
     1
102
RTVSPropertyOp26
 70
     1
102
RTVSPropertyOp27
 70
     1
102
RTVSPropertyOp28
 70
     1
102
RTVSPropertyOp29
 70
     1
102
RTVSPropertyOp30
 70
     1
102
RTVSPropertyOp31
 70
     1
102
RTVSPropertyOp32
 70
     1
102
RTVSPropertyOp33
 70
     1
102
RTVSPropertyOp34
 70
     1
102
RTVSPropertyOp35
 70
     1
102
RTVSPropertyOp36
 70
     1
102
RTVSPropertyOp37
 70
     1
102
RTVSPropertyOp38
 70
     1
102
RTVSPropertyOp39
 70
     1
102
RTVSPropertyOp40
 70
     1
102
RTVSPropertyOp41
 70
     1
102
RTVSPropertyOp42
 70
     1
102
RTVSPropertyOp43
 70
     1
102
RTVSPropertyOp44
 70
     1
102
RTVSPropertyOp45
 70
     1
102
RTVSPropertyOp46
 70
     1
102
RTVSPropertyOp47
 70
     1
102
RTVSPropertyOp48
 70
     1
102
RTVSPropertyOp49
 70
     1
102
RTVSPropertyOp50
 70
     1
102
RTVSPropertyOp51
 70
     0
102
RTVSPropertyOp52
 70
     0
102
RTVSPropertyOp53
 70
     1
102
RTVSPropertyOp54
 70
     1
102
RTVSPropertyOp55
 70
     1
102
RTVSPropertyOp56
 70
     1
102
RTVSPropertyOp57
 70
     1
102
RTVSPost2010Prop28
280
     0
102
RTVSPost2010PropOp28
 70
     1
102
RTVSPost2010Prop29
280
     1
102
RTVSPost2010PropOp29
 70
     1
102
RTVSPost2010Prop30
280
     1
102
RTVSPost2010PropOp30
 70
     1
102
RTVSPost2010Prop31
280
     0
102
RTVSPost2010PropOp31
 70
     1
102
RTVSPost2010Prop32
280
     0
102
RTVSPost2010PropOp32
 70
     1
102
RTVSPost2010Prop33
280
     0
102
RTVSPost2010PropOp33
 70
     1
102
RTVSPost2010Prop34
280
     0
102
RTVSPost2010PropOp34
 70
     1
102
RTVSPost2010Prop35
280
     0
102
RTVSPost2010PropOp35
 70
     1
102
RTVSPost2010Prop36
280
     0
102
RTVSPost2010PropOp36
 70
     1
102
RTVSPost2010Prop37
 90
       50
102
RTVSPost2010PropOp37
 70
     1
102
RTVSPost2010Prop38
140
0.0
102
RTVSPost2010PropOp38
 70
     1
102
RTVSPost2010Prop39
140
1.0
102
RTVSPost2010PropOp39
 70
     1
102
RTVSPost2010Prop40
 90
        0
102
RTVSPost2010PropOp40
 70
     1
102
RTVSPost2010Prop41ColorIndex
 90
       18
102
RTVSPost2010Prop41ColorRGB
 90
        0
102
RTVSPost2010PropOp41
 70
     1
102
RTVSPost2010Prop42
 90
       50
102
RTVSPost2010PropOp42
 70
     1
102
RTVSPost2010Prop43
 90
        3
102
RTVSPost2010PropOp43
 70
     1
102
RTVSPost2010Prop44ColorIndex
 90
        5
102
RTVSPost2010Prop44ColorRGB
 90
      255
102
RTVSPost2010PropOp44
 70
     1
102
RTVSPost2010Prop45
280
     0
102
RTVSPost2010PropOp45
 70
     1
102
RTVSPost2010Prop46
 90
       50
102
RTVSPost2010PropOp46
 70
     1
102
RTVSPost2010Prop47
 90
       50
102
RTVSPost2010PropOp47
 70
     1
102
RTVSPost2010Prop48
 90
       50
102
RTVSPost2010PropOp48
 70
     1
102
RTVSPost2010Prop49
280
     0
102
RTVSPost2010PropOp49
 70
     1
102
RTVSPost2010Prop50
 90
       50
102
RTVSPost2010PropOp50
 70
     1
102
RTVSPost2010Prop51ColorIndex
 90
      256
102
RTVSPost2010Prop51ColorRGB
 90
-16777216
102
RTVSPost2010PropOp51
 70
     0
102
RTVSPost2010Prop52
140
1.0
102
RTVSPost2010PropOp52
 70
     0
102
RTVSPost2010Prop53
 90
        2
102
RTVSPost2010PropOp53
 70
     1
102
RTVSPost2010Prop54
  1
strokes_ogs.tif
102
RTVSPost2010PropOp54
 70
     1
102
RTVSPost2010Prop55
280
     0
102
RTVSPost2010PropOp55
 70
     1
102
RTVSPost2010Prop56
140
1.0
102
RTVSPost2010PropOp56
 70
     1
102
RTVSPost2010Prop57
140
1.0
102
RTVSPost2010PropOp57
 70
     1
  0
XRECORD
  5
2CC
102
{ACAD_REACTORS
330
2CB
102
}
330
2CB
100
AcDbXrecord
280
     1
102
RTVSPropertyOp0
 70
     1
102
RTVSPropertyOp1
 70
     1
102
RTVSPropertyOp2
 70
     1
102
RTVSPropertyOp3
 70
     1
102
RTVSPropertyOp4
 70
     1
102
RTVSPropertyOp5
 70
     1
102
RTVSPropertyOp6
 70
     1
102
RTVSPropertyOp7
 70
     1
102
RTVSPropertyOp8
 70
     1
102
RTVSPropertyOp9
 70
     1
102
RTVSPropertyOp10
 70
     1
102
RTVSPropertyOp11
 70
     1
102
RTVSPropertyOp12
 70
     1
102
RTVSPropertyOp13
 70
     1
102
RTVSPropertyOp14
 70
     1
102
RTVSPropertyOp15
 70
     1
102
RTVSPropertyOp16
 70
     1
102
RTVSPropertyOp17
 70
     1
102
RTVSPropertyOp18
 70
     1
102
RTVSPropertyOp19
 70
     1
102
RTVSPropertyOp20
 70
     1
102
RTVSPropertyOp21
 70
     1
102
RTVSPropertyOp22
 70
     1
102
RTVSPropertyOp23
 70
     1
102
RTVSPropertyOp24
 70
     1
102
RTVSPropertyOp25
 70
     1
102
RTVSPropertyOp26
 70
     1
102
RTVSPropertyOp27
 70
     1
102
RTVSPropertyOp28
 70
     1
102
RTVSPropertyOp29
 70
     1
102
RTVSPropertyOp30
 70
     1
102
RTVSPropertyOp31
 70
     1
102
RTVSPropertyOp32
 70
     1
102
RTVSPropertyOp33
 70
     1
102
RTVSPropertyOp34
 70
     1
102
RTVSPropertyOp35
 70
     1
102
RTVSPropertyOp36
 70
     1
102
RTVSPropertyOp37
 70
     1
102
RTVSPropertyOp38
 70
     1
102
RTVSPropertyOp39
 70
     1
102
RTVSPropertyOp40
 70
     1
102
RTVSPropertyOp41
 70
     1
102
RTVSPropertyOp42
 70
     1
102
RTVSPropertyOp43
 70
     1
102
RTVSPropertyOp44
 70
     1
102
RTVSPropertyOp45
 70
     1
102
RTVSPropertyOp46
 70
     1
102
RTVSPropertyOp47
 70
     1
102
RTVSPropertyOp48
 70
     1
102
RTVSPropertyOp49
 70
     1
102
RTVSPropertyOp50
 70
     1
102
RTVSPropertyOp51
 70
     0
102
RTVSPropertyOp52
 70
     0
102
RTVSPropertyOp53
 70
     1
102
RTVSPropertyOp54
 70
     1
102
RTVSPropertyOp55
 70
     1
102
RTVSPropertyOp56
 70
     1
102
RTVSPropertyOp57
 70
     1
102
RTVSPost2010Prop28
280
     0
102
RTVSPost2010PropOp28
 70
     1
102
RTVSPost2010Prop29
280
     1
102
RTVSPost2010PropOp29
 70
     1
102
RTVSPost2010Prop30
280
     1
102
RTVSPost2010PropOp30
 70
     1
102
RTVSPost2010Prop31
280
     0
102
RTVSPost2010PropOp31
 70
     1
102
RTVSPost2010Prop32
280
     0
102
RTVSPost2010PropOp32
 70
     1
102
RTVSPost2010Prop33
280
     0
102
RTVSPost2010PropOp33
 70
     1
102
RTVSPost2010Prop34
280
     0
102
RTVSPost2010PropOp34
 70
     1
102
RTVSPost2010Prop35
280
     0
102
RTVSPost2010PropOp35
 70
     1
102
RTVSPost2010Prop36
280
     0
102
RTVSPost2010PropOp36
 70
     1
102
RTVSPost2010Prop37
 90
       50
102
RTVSPost2010PropOp37
 70
     1
102
RTVSPost2010Prop38
140
0.0
102
RTVSPost2010PropOp38
 70
     1
102
RTVSPost2010Prop39
140
1.0
102
RTVSPost2010PropOp39
 70
     1
102
RTVSPost2010Prop40
 90
        0
102
RTVSPost2010PropOp40
 70
     1
102
RTVSPost2010Prop41ColorIndex
 90
       18
102
RTVSPost2010Prop41ColorRGB
 90
        0
102
RTVSPost2010PropOp41
 70
     1
102
RTVSPost2010Prop42
 90
       50
102
RTVSPost2010PropOp42
 70
     1
102
RTVSPost2010Prop43
 90
        3
102
RTVSPost2010PropOp43
 70
     1
102
RTVSPost2010Prop44ColorIndex
 90
        5
102
RTVSPost2010Prop44ColorRGB
 90
      255
102
RTVSPost2010PropOp44
 70
     1
102
RTVSPost2010Prop45
280
     0
102
RTVSPost2010PropOp45
 70
     1
102
RTVSPost2010Prop46
 90
       50
102
RTVSPost2010PropOp46
 70
     1
102
RTVSPost2010Prop47
 90
       50
102
RTVSPost2010PropOp47
 70
     1
102
RTVSPost2010Prop48
 90
       50
102
RTVSPost2010PropOp48
 70
     1
102
RTVSPost2010Prop49
280
     0
102
RTVSPost2010PropOp49
 70
     1
102
RTVSPost2010Prop50
 90
       50
102
RTVSPost2010PropOp50
 70
     1
102
RTVSPost2010Prop51ColorIndex
 90
      256
102
RTVSPost2010Prop51ColorRGB
 90
-16777216
102
RTVSPost2010PropOp51
 70
     0
102
RTVSPost2010Prop52
140
1.0
102
RTVSPost2010PropOp52
 70
     0
102
RTVSPost2010Prop53
 90
        2
102
RTVSPost2010PropOp53
 70
     1
102
RTVSPost2010Prop54
  1
strokes_ogs.tif
102
RTVSPost2010PropOp54
 70
     1
102
RTVSPost2010Prop55
280
     0
102
RTVSPost2010PropOp55
 70
     1
102
RTVSPost2010Prop56
140
1.0
102
RTVSPost2010PropOp56
 70
     1
102
RTVSPost2010Prop57
140
1.0
102
RTVSPost2010PropOp57
 70
     1
  0
XRECORD
  5
2C6
102
{ACAD_REACTORS
330
2C5
102
}
330
2C5
100
AcDbXrecord
280
     1
102
RTVSPropertyOp0
 70
     1
102
RTVSPropertyOp1
 70
     1
102
RTVSPropertyOp2
 70
     1
102
RTVSPropertyOp3
 70
     1
102
RTVSPropertyOp4
 70
     1
102
RTVSPropertyOp5
 70
     1
102
RTVSPropertyOp6
 70
     1
102
RTVSPropertyOp7
 70
     1
102
RTVSPropertyOp8
 70
     1
102
RTVSPropertyOp9
 70
     1
102
RTVSPropertyOp10
 70
     1
102
RTVSPropertyOp11
 70
     1
102
RTVSPropertyOp12
 70
     1
102
RTVSPropertyOp13
 70
     1
102
RTVSPropertyOp14
 70
     1
102
RTVSPropertyOp15
 70
     1
102
RTVSPropertyOp16
 70
     1
102
RTVSPropertyOp17
 70
     1
102
RTVSPropertyOp18
 70
     1
102
RTVSPropertyOp19
 70
     1
102
RTVSPropertyOp20
 70
     1
102
RTVSPropertyOp21
 70
     1
102
RTVSPropertyOp22
 70
     1
102
RTVSPropertyOp23
 70
     1
102
RTVSPropertyOp24
 70
     1
102
RTVSPropertyOp25
 70
     1
102
RTVSPropertyOp26
 70
     1
102
RTVSPropertyOp27
 70
     1
102
RTVSPropertyOp28
 70
     1
102
RTVSPropertyOp29
 70
     1
102
RTVSPropertyOp30
 70
     1
102
RTVSPropertyOp31
 70
     1
102
RTVSPropertyOp32
 70
     1
102
RTVSPropertyOp33
 70
     1
102
RTVSPropertyOp34
 70
     1
102
RTVSPropertyOp35
 70
     1
102
RTVSPropertyOp36
 70
     1
102
RTVSPropertyOp37
 70
     1
102
RTVSPropertyOp38
 70
     1
102
RTVSPropertyOp39
 70
     1
102
RTVSPropertyOp40
 70
     1
102
RTVSPropertyOp41
 70
     1
102
RTVSPropertyOp42
 70
     1
102
RTVSPropertyOp43
 70
     1
102
RTVSPropertyOp44
 70
     1
102
RTVSPropertyOp45
 70
     1
102
RTVSPropertyOp46
 70
     1
102
RTVSPropertyOp47
 70
     1
102
RTVSPropertyOp48
 70
     1
102
RTVSPropertyOp49
 70
     1
102
RTVSPropertyOp50
 70
     1
102
RTVSPropertyOp51
 70
     0
102
RTVSPropertyOp52
 70
     0
102
RTVSPropertyOp53
 70
     1
102
RTVSPropertyOp54
 70
     1
102
RTVSPropertyOp55
 70
     1
102
RTVSPropertyOp56
 70
     1
102
RTVSPropertyOp57
 70
     1
102
RTVSPost2010Prop28
280
     0
102
RTVSPost2010PropOp28
 70
     1
102
RTVSPost2010Prop29
280
     1
102
RTVSPost2010PropOp29
 70
     1
102
RTVSPost2010Prop30
280
     1
102
RTVSPost2010PropOp30
 70
     1
102
RTVSPost2010Prop31
280
     0
102
RTVSPost2010PropOp31
 70
     1
102
RTVSPost2010Prop32
280
     0
102
RTVSPost2010PropOp32
 70
     1
102
RTVSPost2010Prop33
280
     0
102
RTVSPost2010PropOp33
 70
     1
102
RTVSPost2010Prop34
280
     0
102
RTVSPost2010PropOp34
 70
     1
102
RTVSPost2010Prop35
280
     0
102
RTVSPost2010PropOp35
 70
     1
102
RTVSPost2010Prop36
280
     0
102
RTVSPost2010PropOp36
 70
     1
102
RTVSPost2010Prop37
 90
       50
102
RTVSPost2010PropOp37
 70
     1
102
RTVSPost2010Prop38
140
0.0
102
RTVSPost2010PropOp38
 70
     1
102
RTVSPost2010Prop39
140
1.0
102
RTVSPost2010PropOp39
 70
     1
102
RTVSPost2010Prop40
 90
        0
102
RTVSPost2010PropOp40
 70
     1
102
RTVSPost2010Prop41ColorIndex
 90
       18
102
RTVSPost2010Prop41ColorRGB
 90
        0
102
RTVSPost2010PropOp41
 70
     1
102
RTVSPost2010Prop42
 90
       50
102
RTVSPost2010PropOp42
 70
     1
102
RTVSPost2010Prop43
 90
        3
102
RTVSPost2010PropOp43
 70
     1
102
RTVSPost2010Prop44ColorIndex
 90
        5
102
RTVSPost2010Prop44ColorRGB
 90
      255
102
RTVSPost2010PropOp44
 70
     1
102
RTVSPost2010Prop45
280
     0
102
RTVSPost2010PropOp45
 70
     1
102
RTVSPost2010Prop46
 90
       50
102
RTVSPost2010PropOp46
 70
     1
102
RTVSPost2010Prop47
 90
       50
102
RTVSPost2010PropOp47
 70
     1
102
RTVSPost2010Prop48
 90
       50
102
RTVSPost2010PropOp48
 70
     1
102
RTVSPost2010Prop49
280
     0
102
RTVSPost2010PropOp49
 70
     1
102
RTVSPost2010Prop50
 90
       50
102
RTVSPost2010PropOp50
 70
     1
102
RTVSPost2010Prop51ColorIndex
 90
      256
102
RTVSPost2010Prop51ColorRGB
 90
-16777216
102
RTVSPost2010PropOp51
 70
     0
102
RTVSPost2010Prop52
140
1.0
102
RTVSPost2010PropOp52
 70
     0
102
RTVSPost2010Prop53
 90
        2
102
RTVSPost2010PropOp53
 70
     1
102
RTVSPost2010Prop54
  1
strokes_ogs.tif
102
RTVSPost2010PropOp54
 70
     1
102
RTVSPost2010Prop55
280
     0
102
RTVSPost2010PropOp55
 70
     1
102
RTVSPost2010Prop56
140
1.0
102
RTVSPost2010PropOp56
 70
     1
102
RTVSPost2010Prop57
140
1.0
102
RTVSPost2010PropOp57
 70
     1
  0
XRECORD
  5
2C8
102
{ACAD_REACTORS
330
2C7
102
}
330
2C7
100
AcDbXrecord
280
     1
102
RTVSPropertyOp0
 70
     1
102
RTVSPropertyOp1
 70
     1
102
RTVSPropertyOp2
 70
     1
102
RTVSPropertyOp3
 70
     1
102
RTVSPropertyOp4
 70
     1
102
RTVSPropertyOp5
 70
     1
102
RTVSPropertyOp6
 70
     1
102
RTVSPropertyOp7
 70
     1
102
RTVSPropertyOp8
 70
     1
102
RTVSPropertyOp9
 70
     1
102
RTVSPropertyOp10
 70
     1
102
RTVSPropertyOp11
 70
     1
102
RTVSPropertyOp12
 70
     1
102
RTVSPropertyOp13
 70
     1
102
RTVSPropertyOp14
 70
     1
102
RTVSPropertyOp15
 70
     1
102
RTVSPropertyOp16
 70
     1
102
RTVSPropertyOp17
 70
     1
102
RTVSPropertyOp18
 70
     1
102
RTVSPropertyOp19
 70
     1
102
RTVSPropertyOp20
 70
     1
102
RTVSPropertyOp21
 70
     1
102
RTVSPropertyOp22
 70
     1
102
RTVSPropertyOp23
 70
     1
102
RTVSPropertyOp24
 70
     1
102
RTVSPropertyOp25
 70
     1
102
RTVSPropertyOp26
 70
     1
102
RTVSPropertyOp27
 70
     1
102
RTVSPropertyOp28
 70
     1
102
RTVSPropertyOp29
 70
     1
102
RTVSPropertyOp30
 70
     1
102
RTVSPropertyOp31
 70
     1
102
RTVSPropertyOp32
 70
     1
102
RTVSPropertyOp33
 70
     1
102
RTVSPropertyOp34
 70
     1
102
RTVSPropertyOp35
 70
     1
102
RTVSPropertyOp36
 70
     1
102
RTVSPropertyOp37
 70
     1
102
RTVSPropertyOp38
 70
     1
102
RTVSPropertyOp39
 70
     1
102
RTVSPropertyOp40
 70
     1
102
RTVSPropertyOp41
 70
     1
102
RTVSPropertyOp42
 70
     1
102
RTVSPropertyOp43
 70
     1
102
RTVSPropertyOp44
 70
     1
102
RTVSPropertyOp45
 70
     1
102
RTVSPropertyOp46
 70
     1
102
RTVSPropertyOp47
 70
     1
102
RTVSPropertyOp48
 70
     1
102
RTVSPropertyOp49
 70
     1
102
RTVSPropertyOp50
 70
     1
102
RTVSPropertyOp51
 70
     0
102
RTVSPropertyOp52
 70
     0
102
RTVSPropertyOp53
 70
     1
102
RTVSPropertyOp54
 70
     1
102
RTVSPropertyOp55
 70
     1
102
RTVSPropertyOp56
 70
     1
102
RTVSPropertyOp57
 70
     1
102
RTVSPost2010Prop28
280
     0
102
RTVSPost2010PropOp28
 70
     1
102
RTVSPost2010Prop29
280
     1
102
RTVSPost2010PropOp29
 70
     1
102
RTVSPost2010Prop30
280
     1
102
RTVSPost2010PropOp30
 70
     1
102
RTVSPost2010Prop31
280
     0
102
RTVSPost2010PropOp31
 70
     1
102
RTVSPost2010Prop32
280
     0
102
RTVSPost2010PropOp32
 70
     1
102
RTVSPost2010Prop33
280
     0
102
RTVSPost2010PropOp33
 70
     1
102
RTVSPost2010Prop34
280
     0
102
RTVSPost2010PropOp34
 70
     1
102
RTVSPost2010Prop35
280
     0
102
RTVSPost2010PropOp35
 70
     1
102
RTVSPost2010Prop36
280
     0
102
RTVSPost2010PropOp36
 70
     1
102
RTVSPost2010Prop37
 90
       50
102
RTVSPost2010PropOp37
 70
     1
102
RTVSPost2010Prop38
140
0.0
102
RTVSPost2010PropOp38
 70
     1
102
RTVSPost2010Prop39
140
1.0
102
RTVSPost2010PropOp39
 70
     1
102
RTVSPost2010Prop40
 90
        0
102
RTVSPost2010PropOp40
 70
     1
102
RTVSPost2010Prop41ColorIndex
 90
       18
102
RTVSPost2010Prop41ColorRGB
 90
        0
102
RTVSPost2010PropOp41
 70
     1
102
RTVSPost2010Prop42
 90
       50
102
RTVSPost2010PropOp42
 70
     1
102
RTVSPost2010Prop43
 90
        3
102
RTVSPost2010PropOp43
 70
     1
102
RTVSPost2010Prop44ColorIndex
 90
        5
102
RTVSPost2010Prop44ColorRGB
 90
      255
102
RTVSPost2010PropOp44
 70
     1
102
RTVSPost2010Prop45
280
     0
102
RTVSPost2010PropOp45
 70
     1
102
RTVSPost2010Prop46
 90
       50
102
RTVSPost2010PropOp46
 70
     1
102
RTVSPost2010Prop47
 90
       50
102
RTVSPost2010PropOp47
 70
     1
102
RTVSPost2010Prop48
 90
       50
102
RTVSPost2010PropOp48
 70
     1
102
RTVSPost2010Prop49
280
     0
102
RTVSPost2010PropOp49
 70
     1
102
RTVSPost2010Prop50
 90
       50
102
RTVSPost2010PropOp50
 70
     1
102
RTVSPost2010Prop51ColorIndex
 90
      256
102
RTVSPost2010Prop51ColorRGB
 90
-16777216
102
RTVSPost2010PropOp51
 70
     0
102
RTVSPost2010Prop52
140
1.0
102
RTVSPost2010PropOp52
 70
     0
102
RTVSPost2010Prop53
 90
        2
102
RTVSPost2010PropOp53
 70
     1
102
RTVSPost2010Prop54
  1
strokes_ogs.tif
102
RTVSPost2010PropOp54
 70
     1
102
RTVSPost2010Prop55
280
     0
102
RTVSPost2010PropOp55
 70
     1
102
RTVSPost2010Prop56
140
1.0
102
RTVSPost2010PropOp56
 70
     1
102
RTVSPost2010Prop57
140
1.0
102
RTVSPost2010PropOp57
 70
     1
  0
XRECORD
  5
2B8
102
{ACAD_REACTORS
330
2B7
102
}
330
2B7
100
AcDbXrecord
280
     1
102
RTVSPropertyOp0
 70
     1
102
RTVSPropertyOp1
 70
     1
102
RTVSPropertyOp2
 70
     1
102
RTVSPropertyOp3
 70
     1
102
RTVSPropertyOp4
 70
     1
102
RTVSPropertyOp5
 70
     1
102
RTVSPropertyOp6
 70
     1
102
RTVSPropertyOp7
 70
     1
102
RTVSPropertyOp8
 70
     1
102
RTVSPropertyOp9
 70
     1
102
RTVSPropertyOp10
 70
     1
102
RTVSPropertyOp11
 70
     1
102
RTVSPropertyOp12
 70
     1
102
RTVSPropertyOp13
 70
     1
102
RTVSPropertyOp14
 70
     1
102
RTVSPropertyOp15
 70
     1
102
RTVSPropertyOp16
 70
     1
102
RTVSPropertyOp17
 70
     1
102
RTVSPropertyOp18
 70
     1
102
RTVSPropertyOp19
 70
     1
102
RTVSPropertyOp20
 70
     1
102
RTVSPropertyOp21
 70
     1
102
RTVSPropertyOp22
 70
     1
102
RTVSPropertyOp23
 70
     1
102
RTVSPropertyOp24
 70
     1
102
RTVSPropertyOp25
 70
     1
102
RTVSPropertyOp26
 70
     1
102
RTVSPropertyOp27
 70
     1
102
RTVSPropertyOp28
 70
     1
102
RTVSPropertyOp29
 70
     1
102
RTVSPropertyOp30
 70
     1
102
RTVSPropertyOp31
 70
     1
102
RTVSPropertyOp32
 70
     1
102
RTVSPropertyOp33
 70
     1
102
RTVSPropertyOp34
 70
     1
102
RTVSPropertyOp35
 70
     1
102
RTVSPropertyOp36
 70
     1
102
RTVSPropertyOp37
 70
     1
102
RTVSPropertyOp38
 70
     1
102
RTVSPropertyOp39
 70
     1
102
RTVSPropertyOp40
 70
     1
102
RTVSPropertyOp41
 70
     1
102
RTVSPropertyOp42
 70
     1
102
RTVSPropertyOp43
 70
     1
102
RTVSPropertyOp44
 70
     1
102
RTVSPropertyOp45
 70
     1
102
RTVSPropertyOp46
 70
     1
102
RTVSPropertyOp47
 70
     1
102
RTVSPropertyOp48
 70
     1
102
RTVSPropertyOp49
 70
     1
102
RTVSPropertyOp50
 70
     1
102
RTVSPropertyOp51
 70
     0
102
RTVSPropertyOp52
 70
     0
102
RTVSPropertyOp53
 70
     1
102
RTVSPropertyOp54
 70
     1
102
RTVSPropertyOp55
 70
     1
102
RTVSPropertyOp56
 70
     1
102
RTVSPropertyOp57
 70
     1
102
RTVSPost2010Prop28
280
     0
102
RTVSPost2010PropOp28
 70
     1
102
RTVSPost2010Prop29
280
     1
102
RTVSPost2010PropOp29
 70
     1
102
RTVSPost2010Prop30
280
     1
102
RTVSPost2010PropOp30
 70
     1
102
RTVSPost2010Prop31
280
     0
102
RTVSPost2010PropOp31
 70
     1
102
RTVSPost2010Prop32
280
     0
102
RTVSPost2010PropOp32
 70
     1
102
RTVSPost2010Prop33
280
     0
102
RTVSPost2010PropOp33
 70
     1
102
RTVSPost2010Prop34
280
     0
102
RTVSPost2010PropOp34
 70
     1
102
RTVSPost2010Prop35
280
     0
102
RTVSPost2010PropOp35
 70
     1
102
RTVSPost2010Prop36
280
     0
102
RTVSPost2010PropOp36
 70
     1
102
RTVSPost2010Prop37
 90
       50
102
RTVSPost2010PropOp37
 70
     1
102
RTVSPost2010Prop38
140
0.0
102
RTVSPost2010PropOp38
 70
     1
102
RTVSPost2010Prop39
140
1.0
102
RTVSPost2010PropOp39
 70
     1
102
RTVSPost2010Prop40
 90
        0
102
RTVSPost2010PropOp40
 70
     1
102
RTVSPost2010Prop41ColorIndex
 90
       18
102
RTVSPost2010Prop41ColorRGB
 90
        0
102
RTVSPost2010PropOp41
 70
     1
102
RTVSPost2010Prop42
 90
       50
102
RTVSPost2010PropOp42
 70
     1
102
RTVSPost2010Prop43
 90
        3
102
RTVSPost2010PropOp43
 70
     1
102
RTVSPost2010Prop44ColorIndex
 90
        5
102
RTVSPost2010Prop44ColorRGB
 90
      255
102
RTVSPost2010PropOp44
 70
     1
102
RTVSPost2010Prop45
280
     0
102
RTVSPost2010PropOp45
 70
     1
102
RTVSPost2010Prop46
 90
       50
102
RTVSPost2010PropOp46
 70
     1
102
RTVSPost2010Prop47
 90
       50
102
RTVSPost2010PropOp47
 70
     1
102
RTVSPost2010Prop48
 90
       50
102
RTVSPost2010PropOp48
 70
     1
102
RTVSPost2010Prop49
280
     0
102
RTVSPost2010PropOp49
 70
     1
102
RTVSPost2010Prop50
 90
       50
102
RTVSPost2010PropOp50
 70
     1
102
RTVSPost2010Prop51ColorIndex
 90
      256
102
RTVSPost2010Prop51ColorRGB
 90
-16777216
102
RTVSPost2010PropOp51
 70
     0
102
RTVSPost2010Prop52
140
1.0
102
RTVSPost2010PropOp52
 70
     0
102
RTVSPost2010Prop53
 90
        2
102
RTVSPost2010PropOp53
 70
     1
102
RTVSPost2010Prop54
  1
strokes_ogs.tif
102
RTVSPost2010PropOp54
 70
     1
102
RTVSPost2010Prop55
280
     0
102
RTVSPost2010PropOp55
 70
     1
102
RTVSPost2010Prop56
140
1.0
102
RTVSPost2010PropOp56
 70
     1
102
RTVSPost2010Prop57
140
1.0
102
RTVSPost2010PropOp57
 70
     1
  0
XRECORD
  5
2AA
102
{ACAD_REACTORS
330
2A9
102
}
330
2A9
100
AcDbXrecord
280
     1
102
RTVSPropertyOp0
 70
     1
102
RTVSPropertyOp1
 70
     1
102
RTVSPropertyOp2
 70
     1
102
RTVSPropertyOp3
 70
     1
102
RTVSPropertyOp4
 70
     1
102
RTVSPropertyOp5
 70
     1
102
RTVSPropertyOp6
 70
     1
102
RTVSPropertyOp7
 70
     1
102
RTVSPropertyOp8
 70
     1
102
RTVSPropertyOp9
 70
     1
102
RTVSPropertyOp10
 70
     1
102
RTVSPropertyOp11
 70
     1
102
RTVSPropertyOp12
 70
     1
102
RTVSPropertyOp13
 70
     1
102
RTVSPropertyOp14
 70
     1
102
RTVSPropertyOp15
 70
     1
102
RTVSPropertyOp16
 70
     1
102
RTVSPropertyOp17
 70
     1
102
RTVSPropertyOp18
 70
     1
102
RTVSPropertyOp19
 70
     1
102
RTVSPropertyOp20
 70
     1
102
RTVSPropertyOp21
 70
     1
102
RTVSPropertyOp22
 70
     1
102
RTVSPropertyOp23
 70
     1
102
RTVSPropertyOp24
 70
     1
102
RTVSPropertyOp25
 70
     1
102
RTVSPropertyOp26
 70
     1
102
RTVSPropertyOp27
 70
     1
102
RTVSPropertyOp28
 70
     1
102
RTVSPropertyOp29
 70
     1
102
RTVSPropertyOp30
 70
     1
102
RTVSPropertyOp31
 70
     1
102
RTVSPropertyOp32
 70
     1
102
RTVSPropertyOp33
 70
     1
102
RTVSPropertyOp34
 70
     1
102
RTVSPropertyOp35
 70
     1
102
RTVSPropertyOp36
 70
     1
102
RTVSPropertyOp37
 70
     1
102
RTVSPropertyOp38
 70
     1
102
RTVSPropertyOp39
 70
     1
102
RTVSPropertyOp40
 70
     1
102
RTVSPropertyOp41
 70
     1
102
RTVSPropertyOp42
 70
     1
102
RTVSPropertyOp43
 70
     1
102
RTVSPropertyOp44
 70
     1
102
RTVSPropertyOp45
 70
     1
102
RTVSPropertyOp46
 70
     1
102
RTVSPropertyOp47
 70
     1
102
RTVSPropertyOp48
 70
     1
102
RTVSPropertyOp49
 70
     1
102
RTVSPropertyOp50
 70
     1
102
RTVSPropertyOp51
 70
     0
102
RTVSPropertyOp52
 70
     0
102
RTVSPropertyOp53
 70
     1
102
RTVSPropertyOp54
 70
     1
102
RTVSPropertyOp55
 70
     1
102
RTVSPropertyOp56
 70
     1
102
RTVSPropertyOp57
 70
     1
102
RTVSPost2010Prop28
280
     0
102
RTVSPost2010PropOp28
 70
     1
102
RTVSPost2010Prop29
280
     1
102
RTVSPost2010PropOp29
 70
     1
102
RTVSPost2010Prop30
280
     1
102
RTVSPost2010PropOp30
 70
     1
102
RTVSPost2010Prop31
280
     0
102
RTVSPost2010PropOp31
 70
     1
102
RTVSPost2010Prop32
280
     0
102
RTVSPost2010PropOp32
 70
     1
102
RTVSPost2010Prop33
280
     0
102
RTVSPost2010PropOp33
 70
     1
102
RTVSPost2010Prop34
280
     0
102
RTVSPost2010PropOp34
 70
     1
102
RTVSPost2010Prop35
280
     0
102
RTVSPost2010PropOp35
 70
     1
102
RTVSPost2010Prop36
280
     0
102
RTVSPost2010PropOp36
 70
     1
102
RTVSPost2010Prop37
 90
       50
102
RTVSPost2010PropOp37
 70
     1
102
RTVSPost2010Prop38
140
0.0
102
RTVSPost2010PropOp38
 70
     1
102
RTVSPost2010Prop39
140
1.0
102
RTVSPost2010PropOp39
 70
     1
102
RTVSPost2010Prop40
 90
        0
102
RTVSPost2010PropOp40
 70
     1
102
RTVSPost2010Prop41ColorIndex
 90
       18
102
RTVSPost2010Prop41ColorRGB
 90
        0
102
RTVSPost2010PropOp41
 70
     1
102
RTVSPost2010Prop42
 90
       50
102
RTVSPost2010PropOp42
 70
     1
102
RTVSPost2010Prop43
 90
        3
102
RTVSPost2010PropOp43
 70
     1
102
RTVSPost2010Prop44ColorIndex
 90
        5
102
RTVSPost2010Prop44ColorRGB
 90
      255
102
RTVSPost2010PropOp44
 70
     1
102
RTVSPost2010Prop45
280
     0
102
RTVSPost2010PropOp45
 70
     1
102
RTVSPost2010Prop46
 90
       50
102
RTVSPost2010PropOp46
 70
     1
102
RTVSPost2010Prop47
 90
       50
102
RTVSPost2010PropOp47
 70
     1
102
RTVSPost2010Prop48
 90
       50
102
RTVSPost2010PropOp48
 70
     1
102
RTVSPost2010Prop49
280
     0
102
RTVSPost2010PropOp49
 70
     1
102
RTVSPost2010Prop50
 90
       50
102
RTVSPost2010PropOp50
 70
     1
102
RTVSPost2010Prop51ColorIndex
 90
      256
102
RTVSPost2010Prop51ColorRGB
 90
-16777216
102
RTVSPost2010PropOp51
 70
     0
102
RTVSPost2010Prop52
140
1.0
102
RTVSPost2010PropOp52
 70
     0
102
RTVSPost2010Prop53
 90
        2
102
RTVSPost2010PropOp53
 70
     1
102
RTVSPost2010Prop54
  1
strokes_ogs.tif
102
RTVSPost2010PropOp54
 70
     1
102
RTVSPost2010Prop55
280
     0
102
RTVSPost2010PropOp55
 70
     1
102
RTVSPost2010Prop56
140
1.0
102
RTVSPost2010PropOp56
 70
     1
102
RTVSPost2010Prop57
140
1.0
102
RTVSPost2010PropOp57
 70
     1
  0
XRECORD
  5
2CA
102
{ACAD_REACTORS
330
2C9
102
}
330
2C9
100
AcDbXrecord
280
     1
102
RTVSPropertyOp0
 70
     1
102
RTVSPropertyOp1
 70
     1
102
RTVSPropertyOp2
 70
     1
102
RTVSPropertyOp3
 70
     1
102
RTVSPropertyOp4
 70
     1
102
RTVSPropertyOp5
 70
     1
102
RTVSPropertyOp6
 70
     1
102
RTVSPropertyOp7
 70
     1
102
RTVSPropertyOp8
 70
     1
102
RTVSPropertyOp9
 70
     1
102
RTVSPropertyOp10
 70
     1
102
RTVSPropertyOp11
 70
     1
102
RTVSPropertyOp12
 70
     1
102
RTVSPropertyOp13
 70
     1
102
RTVSPropertyOp14
 70
     1
102
RTVSPropertyOp15
 70
     1
102
RTVSPropertyOp16
 70
     1
102
RTVSPropertyOp17
 70
     1
102
RTVSPropertyOp18
 70
     1
102
RTVSPropertyOp19
 70
     1
102
RTVSPropertyOp20
 70
     1
102
RTVSPropertyOp21
 70
     1
102
RTVSPropertyOp22
 70
     1
102
RTVSPropertyOp23
 70
     1
102
RTVSPropertyOp24
 70
     1
102
RTVSPropertyOp25
 70
     1
102
RTVSPropertyOp26
 70
     1
102
RTVSPropertyOp27
 70
     1
102
RTVSPropertyOp28
 70
     1
102
RTVSPropertyOp29
 70
     1
102
RTVSPropertyOp30
 70
     1
102
RTVSPropertyOp31
 70
     1
102
RTVSPropertyOp32
 70
     1
102
RTVSPropertyOp33
 70
     1
102
RTVSPropertyOp34
 70
     1
102
RTVSPropertyOp35
 70
     1
102
RTVSPropertyOp36
 70
     1
102
RTVSPropertyOp37
 70
     1
102
RTVSPropertyOp38
 70
     1
102
RTVSPropertyOp39
 70
     1
102
RTVSPropertyOp40
 70
     1
102
RTVSPropertyOp41
 70
     1
102
RTVSPropertyOp42
 70
     1
102
RTVSPropertyOp43
 70
     1
102
RTVSPropertyOp44
 70
     1
102
RTVSPropertyOp45
 70
     1
102
RTVSPropertyOp46
 70
     1
102
RTVSPropertyOp47
 70
     1
102
RTVSPropertyOp48
 70
     1
102
RTVSPropertyOp49
 70
     1
102
RTVSPropertyOp50
 70
     1
102
RTVSPropertyOp51
 70
     0
102
RTVSPropertyOp52
 70
     0
102
RTVSPropertyOp53
 70
     1
102
RTVSPropertyOp54
 70
     1
102
RTVSPropertyOp55
 70
     1
102
RTVSPropertyOp56
 70
     1
102
RTVSPropertyOp57
 70
     1
102
RTVSPost2010Prop28
280
     0
102
RTVSPost2010PropOp28
 70
     1
102
RTVSPost2010Prop29
280
     1
102
RTVSPost2010PropOp29
 70
     1
102
RTVSPost2010Prop30
280
     1
102
RTVSPost2010PropOp30
 70
     1
102
RTVSPost2010Prop31
280
     0
102
RTVSPost2010PropOp31
 70
     1
102
RTVSPost2010Prop32
280
     0
102
RTVSPost2010PropOp32
 70
     1
102
RTVSPost2010Prop33
280
     0
102
RTVSPost2010PropOp33
 70
     1
102
RTVSPost2010Prop34
280
     0
102
RTVSPost2010PropOp34
 70
     1
102
RTVSPost2010Prop35
280
     0
102
RTVSPost2010PropOp35
 70
     1
102
RTVSPost2010Prop36
280
     0
102
RTVSPost2010PropOp36
 70
     1
102
RTVSPost2010Prop37
 90
       50
102
RTVSPost2010PropOp37
 70
     1
102
RTVSPost2010Prop38
140
0.0
102
RTVSPost2010PropOp38
 70
     1
102
RTVSPost2010Prop39
140
1.0
102
RTVSPost2010PropOp39
 70
     1
102
RTVSPost2010Prop40
 90
        0
102
RTVSPost2010PropOp40
 70
     1
102
RTVSPost2010Prop41ColorIndex
 90
       18
102
RTVSPost2010Prop41ColorRGB
 90
        0
102
RTVSPost2010PropOp41
 70
     1
102
RTVSPost2010Prop42
 90
       50
102
RTVSPost2010PropOp42
 70
     1
102
RTVSPost2010Prop43
 90
        3
102
RTVSPost2010PropOp43
 70
     1
102
RTVSPost2010Prop44ColorIndex
 90
        5
102
RTVSPost2010Prop44ColorRGB
 90
      255
102
RTVSPost2010PropOp44
 70
     1
102
RTVSPost2010Prop45
280
     0
102
RTVSPost2010PropOp45
 70
     1
102
RTVSPost2010Prop46
 90
       50
102
RTVSPost2010PropOp46
 70
     1
102
RTVSPost2010Prop47
 90
       50
102
RTVSPost2010PropOp47
 70
     1
102
RTVSPost2010Prop48
 90
       50
102
RTVSPost2010PropOp48
 70
     1
102
RTVSPost2010Prop49
280
     0
102
RTVSPost2010PropOp49
 70
     1
102
RTVSPost2010Prop50
 90
       50
102
RTVSPost2010PropOp50
 70
     1
102
RTVSPost2010Prop51ColorIndex
 90
      256
102
RTVSPost2010Prop51ColorRGB
 90
-16777216
102
RTVSPost2010PropOp51
 70
     0
102
RTVSPost2010Prop52
140
1.0
102
RTVSPost2010PropOp52
 70
     0
102
RTVSPost2010Prop53
 90
        2
102
RTVSPost2010PropOp53
 70
     1
102
RTVSPost2010Prop54
  1
strokes_ogs.tif
102
RTVSPost2010PropOp54
 70
     1
102
RTVSPost2010Prop55
280
     0
102
RTVSPost2010PropOp55
 70
     1
102
RTVSPost2010Prop56
140
1.0
102
RTVSPost2010PropOp56
 70
     1
102
RTVSPost2010Prop57
140
1.0
102
RTVSPost2010PropOp57
 70
     1
  0
ENDSEC
  0
EOF
