  0
SECTION
  2
HEADER
  9
$ACADVER
  1
AC1015
  9
$ACADMAINTVER
 70
     6
  9
$DWGCODEPAGE
  3
ANSI_1252
  9
$INSBASE
 10
0.0
 20
0.0
 30
0.0
  9
$EXTMIN
 10
-205.91124
 20
525.038513
 30
0.0
  9
$EXTMAX
 10
390.285431
 20
1296.12439
 30
0.0
  9
$LIMMIN
 10
-205.91124
 20
525.038513
  9
$LIMMAX
 10
390.285431
 20
1296.12439
  9
$ORTHOMODE
 70
     0
  9
$REGENMODE
 70
     1
  9
$FILLMODE
 70
     1
  9
$QTEXTMODE
 70
     0
  9
$MIRRTEXT
 70
     1
  9
$LTSCALE
 40
1.0
  9
$ATTMODE
 70
     1
  9
$TEXTSIZE
 40
2.5
  9
$TRACEWID
 40
1.0
  9
$TEXTSTYLE
  7
Standard
  9
$CLAYER
  8
0
  9
$CELTYPE
  6
ByLayer
  9
$CECOLOR
 62
   256
  9
$CELTSCALE
 40
1.0
  9
$DISPSILH
 70
     0
  9
$DIMSCALE
 40
1.0
  9
$DIMASZ
 40
2.5
  9
$DIMEXO
 40
0.625
  9
$DIMDLI
 40
3.75
  9
$DIMRND
 40
0.0
  9
$DIMDLE
 40
0.0
  9
$DIMEXE
 40
1.25
  9
$DIMTP
 40
0.0
  9
$DIMTM
 40
0.0
  9
$DIMTXT
 40
2.5
  9
$DIMCEN
 40
2.5
  9
$DIMTSZ
 40
0.0
  9
$DIMTOL
 70
     0
  9
$DIMLIM
 70
     0
  9
$DIMTIH
 70
     0
  9
$DIMTOH
 70
     0
  9
$DIMSE1
 70
     0
  9
$DIMSE2
 70
     0
  9
$DIMTAD
 70
     1
  9
$DIMZIN
 70
     8
  9
$DIMBLK
  1

  9
$DIMASO
 70
     1
  9
$DIMSHO
 70
     1
  9
$DIMPOST
  1

  9
$DIMAPOST
  1

  9
$DIMALT
 70
     0
  9
$DIMALTD
 70
     3
  9
$DIMALTF
 40
0.03937
  9
$DIMLFAC
 40
1.0
  9
$DIMTOFL
 70
     1
  9
$DIMTVP
 40
0.0
  9
$DIMTIX
 70
     0
  9
$DIMSOXD
 70
     0
  9
$DIMSAH
 70
     0
  9
$DIMBLK1
  1

  9
$DIMBLK2
  1

  9
$DIMSTYLE
  2
ISO-25
  9
$DIMCLRD
 70
     0
  9
$DIMCLRE
 70
     0
  9
$DIMCLRT
 70
     0
  9
$DIMTFAC
 40
1.0
  9
$DIMGAP
 40
0.625
  9
$DIMJUST
 70
     0
  9
$DIMSD1
 70
     0
  9
$DIMSD2
 70
     0
  9
$DIMTOLJ
 70
     0
  9
$DIMTZIN
 70
     8
  9
$DIMALTZ
 70
     0
  9
$DIMALTTZ
 70
     0
  9
$DIMUPT
 70
     0
  9
$DIMDEC
 70
     2
  9
$DIMTDEC
 70
     2
  9
$DIMALTU
 70
     2
  9
$DIMALTTD
 70
     3
  9
$DIMTXSTY
  7
Standard
  9
$DIMAUNIT
 70
     0
  9
$DIMADEC
 70
     0
  9
$DIMALTRND
 40
0.0
  9
$DIMAZIN
 70
     0
  9
$DIMDSEP
 70
    44
  9
$DIMATFIT
 70
     3
  9
$DIMFRAC
 70
     0
  9
$DIMLDRBLK
  1

  9
$DIMLUNIT
 70
     2
  9
$DIMLWD
 70
    -2
  9
$DIMLWE
 70
    -2
  9
$DIMTMOVE
 70
     0
  9
$LUNITS
 70
     2
  9
$LUPREC
 70
     4
  9
$SKETCHINC
 40
1.0
  9
$FILLETRAD
 40
10.0
  9
$AUNITS
 70
     0
  9
$AUPREC
 70
     0
  9
$MENU
  1
.
  9
$ELEVATION
 40
0.0
  9
$PELEVATION
 40
0.0
  9
$THICKNESS
 40
0.0
  9
$LIMCHECK
 70
     0
  9
$CHAMFERA
 40
0.0
  9
$CHAMFERB
 40
0.0
  9
$CHAMFERC
 40
0.0
  9
$CHAMFERD
 40
0.0
  9
$SKPOLY
 70
     0
  9
$TDCREATE
 40
2458898.675878298
  9
$TDUCREATE
 40
2458898.634211632
  9
$TDUPDATE
 40
2458898.675879201
  9
$TDUUPDATE
 40
2458898.634212535
  9
$TDINDWG
 40
0.0000000116
  9
$TDUSRTIMER
 40
0.0000000116
  9
$USRTIMER
 70
     1
  9
$ANGBASE
 50
0.0
  9
$ANGDIR
 70
     0
  9
$PDMODE
 70
     0
  9
$PDSIZE
 40
0.0
  9
$PLINEWID
 40
0.0
  9
$SPLFRAME
 70
     0
  9
$SPLINETYPE
 70
     6
  9
$SPLINESEGS
 70
     8
  9
$HANDSEED
  5
37B
  9
$SURFTAB1
 70
     6
  9
$SURFTAB2
 70
     6
  9
$SURFTYPE
 70
     6
  9
$SURFU
 70
     6
  9
$SURFV
 70
     6
  9
$UCSBASE
  2

  9
$UCSNAME
  2

  9
$UCSORG
 10
0.0
 20
0.0
 30
0.0
  9
$UCSXDIR
 10
1.0
 20
0.0
 30
0.0
  9
$UCSYDIR
 10
0.0
 20
1.0
 30
0.0
  9
$UCSORTHOREF
  2

  9
$UCSORTHOVIEW
 70
     0
  9
$UCSORGTOP
 10
0.0
 20
0.0
 30
0.0
  9
$UCSORGBOTTOM
 10
0.0
 20
0.0
 30
0.0
  9
$UCSORGLEFT
 10
0.0
 20
0.0
 30
0.0
  9
$UCSORGRIGHT
 10
0.0
 20
0.0
 30
0.0
  9
$UCSORGFRONT
 10
0.0
 20
0.0
 30
0.0
  9
$UCSORGBACK
 10
0.0
 20
0.0
 30
0.0
  9
$PUCSBASE
  2

  9
$PUCSNAME
  2

  9
$PUCSORG
 10
0.0
 20
0.0
 30
0.0
  9
$PUCSXDIR
 10
1.0
 20
0.0
 30
0.0
  9
$PUCSYDIR
 10
0.0
 20
1.0
 30
0.0
  9
$PUCSORTHOREF
  2

  9
$PUCSORTHOVIEW
 70
     0
  9
$PUCSORGTOP
 10
0.0
 20
0.0
 30
0.0
  9
$PUCSORGBOTTOM
 10
0.0
 20
0.0
 30
0.0
  9
$PUCSORGLEFT
 10
0.0
 20
0.0
 30
0.0
  9
$PUCSORGRIGHT
 10
0.0
 20
0.0
 30
0.0
  9
$PUCSORGFRONT
 10
0.0
 20
0.0
 30
0.0
  9
$PUCSORGBACK
 10
0.0
 20
0.0
 30
0.0
  9
$USERI1
 70
     0
  9
$USERI2
 70
     0
  9
$USERI3
 70
     0
  9
$USERI4
 70
     0
  9
$USERI5
 70
     0
  9
$USERR1
 40
0.0
  9
$USERR2
 40
0.0
  9
$USERR3
 40
0.0
  9
$USERR4
 40
0.0
  9
$USERR5
 40
0.0
  9
$WORLDVIEW
 70
     1
  9
$SHADEDGE
 70
     3
  9
$SHADEDIF
 70
    70
  9
$TILEMODE
 70
     1
  9
$MAXACTVP
 70
    64
  9
$PINSBASE
 10
0.0
 20
0.0
 30
0.0
  9
$PLIMCHECK
 70
     0
  9
$PEXTMIN
 10
1.000000E+20
 20
1.000000E+20
 30
1.000000E+20
  9
$PEXTMAX
 10
-1.000000E+20
 20
-1.000000E+20
 30
-1.000000E+20
  9
$PLIMMIN
 10
0.0
 20
0.0
  9
$PLIMMAX
 10
420.0
 20
297.0
  9
$UNITMODE
 70
     0
  9
$VISRETAIN
 70
     1
  9
$PLINEGEN
 70
     0
  9
$PSLTSCALE
 70
     1
  9
$TREEDEPTH
 70
  3020
  9
$CMLSTYLE
  2
Standard
  9
$CMLJUST
 70
     0
  9
$CMLSCALE
 40
20.0
  9
$PROXYGRAPHICS
 70
     1
  9
$MEASUREMENT
 70
     1
  9
$CELWEIGHT
370
    -1
  9
$ENDCAPS
280
     0
  9
$JOINSTYLE
280
     0
  9
$LWDISPLAY
290
     0
  9
$INSUNITS
 70
     4
  9
$HYPERLINKBASE
  1

  9
$STYLESHEET
  1

  9
$XEDIT
290
     1
  9
$CEPSNTYPE
380
     0
  9
$PSTYLEMODE
290
     1
  9
$FINGERPRINTGUID
  2
{e4f59ba9-265d-4fd6-ac71-d05768f5801e}
  9
$VERSIONGUID
  2
{FAEB1C32-E019-11D5-929B-00C0DF256EC4}
  9
$EXTNAMES
290
     1
  9
$PSVPSCALE
 40
0.0
  9
$OLESTARTUP
290
     0
  0
ENDSEC
  0
SECTION
  2
CLASSES
  0
CLASS
  1
ACDBDICTIONARYWDFLT
  2
AcDbDictionaryWithDefault
  3
ObjectDBX Classes
 90
        0
280
     0
281
     0
  0
CLASS
  1
VISUALSTYLE
  2
AcDbVisualStyle
  3
ObjectDBX Classes
 90
     4095
280
     0
281
     0
  0
CLASS
  1
MATERIAL
  2
AcDbMaterial
  3
ObjectDBX Classes
 90
     1153
280
     0
281
     0
  0
CLASS
  1
SCALE
  2
AcDbScale
  3
ObjectDBX Classes
 90
     1153
280
     0
281
     0
  0
CLASS
  1
TABLESTYLE
  2
AcDbTableStyle
  3
ObjectDBX Classes
 90
     4095
280
     0
281
     0
  0
CLASS
  1
MLEADERSTYLE
  2
AcDbMLeaderStyle
  3
ACDB_MLEADERSTYLE_CLASS
 90
     4095
280
     0
281
     0
  0
CLASS
  1
SUN
  2
AcDbSun
  3
SCENEOE
 90
     1153
280
     0
281
     0
  0
CLASS
  1
DICTIONARYVAR
  2
AcDbDictionaryVar
  3
ObjectDBX Classes
 90
        0
280
     0
281
     0
  0
CLASS
  1
ACDBPLACEHOLDER
  2
AcDbPlaceHolder
  3
ObjectDBX Classes
 90
        0
280
     0
281
     0
  0
CLASS
  1
LAYOUT
  2
AcDbLayout
  3
ObjectDBX Classes
 90
        0
280
     0
281
     0
  0
ENDSEC
  0
SECTION
  2
TABLES
  0
TABLE
  2
VPORT
  5
8
102
{ACAD_XDICTIONARY
360
33E
102
}
330
0
100
AcDbSymbolTable
 70
     1
  0
VPORT
  5
29
330
8
100
AcDbSymbolTableRecord
100
AcDbViewportTableRecord
  2
*Active
 70
     0
 10
0.0
 20
0.0
 11
1.0
 21
1.0
 12
344.186916
 22
148.5
 13
0.0
 23
0.0
 14
10.0
 24
10.0
 15
10.0
 25
10.0
 16
0.0
 26
0.0
 36
1.0
 17
0.0
 27
0.0
 37
0.0
 40
297.0
 41
1.972973
 42
50.0
 43
0.0
 44
0.0
 50
0.0
 51
0.0
 71
     0
 72
   100
 73
     1
 74
     3
 75
     0
 76
     0
 77
     0
 78
     0
281
     0
 65
     1
110
0.0
120
0.0
130
0.0
111
1.0
121
0.0
131
0.0
112
0.0
122
1.0
132
0.0
 79
     0
146
0.0
  0
ENDTAB
  0
TABLE
  2
LTYPE
  5
5
330
0
100
AcDbSymbolTable
 70
     1
  0
LTYPE
  5
14
330
5
100
AcDbSymbolTableRecord
100
AcDbLinetypeTableRecord
  2
ByBlock
 70
     0
  3

 72
    65
 73
     0
 40
0.0
  0
LTYPE
  5
15
330
5
100
AcDbSymbolTableRecord
100
AcDbLinetypeTableRecord
  2
ByLayer
 70
     0
  3

 72
    65
 73
     0
 40
0.0
  0
LTYPE
  5
16
330
5
100
AcDbSymbolTableRecord
100
AcDbLinetypeTableRecord
  2
Continuous
 70
     0
  3
Solid line
 72
    65
 73
     0
 40
0.0
  0
ENDTAB
  0
TABLE
  2
LAYER
  5
2
330
0
100
AcDbSymbolTable
 70
     1
  0
LAYER
  5
10
330
2
100
AcDbSymbolTableRecord
100
AcDbLayerTableRecord
  2
0
 70
     0
 62
   106
  6
Continuous
370
     0
390
F
  0
ENDTAB
  0
TABLE
  2
STYLE
  5
3
330
0
100
AcDbSymbolTable
 70
     4
  0
STYLE
  5
11
330
3
100
AcDbSymbolTableRecord
100
AcDbTextStyleTableRecord
  2
Standard
 70
     0
 40
0.0
 41
1.0
 50
0.0
 71
     0
 42
2.5
  3
txt
  4

  0
STYLE
  5
6E
330
3
100
AcDbSymbolTableRecord
100
AcDbTextStyleTableRecord
  2
Default
 70
     0
 40
0.0
 41
1.0
 50
0.0
 71
     0
 42
2.5
  3

  4

1001
ACAD
1000
txt
1071
        0
  0
STYLE
  5
6F
330
3
100
AcDbSymbolTableRecord
100
AcDbTextStyleTableRecord
  2
ISO
 70
     0
 40
0.0
 41
1.0
 50
0.0
 71
     0
 42
2.5
  3

  4

1001
ACAD
1000
txt
1071
        0
  0
STYLE
  5
70
330
3
100
AcDbSymbolTableRecord
100
AcDbTextStyleTableRecord
  2
zucchetti
 70
     0
 40
0.0
 41
1.0
 50
0.0
 71
     0
 42
2.5
  3

  4

1001
ACAD
1000
Arial
1071
        0
  0
ENDTAB
  0
TABLE
  2
VIEW
  5
6
330
0
100
AcDbSymbolTable
 70
     0
  0
ENDTAB
  0
TABLE
  2
UCS
  5
7
330
0
100
AcDbSymbolTable
 70
     0
  0
ENDTAB
  0
TABLE
  2
APPID
  5
9
330
0
100
AcDbSymbolTable
 70
     2
  0
APPID
  5
12
330
9
100
AcDbSymbolTableRecord
100
AcDbRegAppTableRecord
  2
ACAD
 70
     0
  0
APPID
  5
378
330
9
100
AcDbSymbolTableRecord
100
AcDbRegAppTableRecord
  2
ACAD_MLEADERVER
 70
     0
  0
ENDTAB
  0
TABLE
  2
DIMSTYLE
  5
A
330
0
100
AcDbSymbolTable
 70
     4
100
AcDbDimStyleTable
  0
DIMSTYLE
105
27
330
A
100
AcDbSymbolTableRecord
100
AcDbDimStyleTableRecord
  2
ISO-25
 70
     0
 41
2.5
 42
0.625
 43
3.75
 44
1.25
 73
     0
 74
     0
 77
     1
 78
     8
140
2.5
141
2.5
143
0.03937
147
0.625
171
     3
172
     1
178
     0
271
     2
272
     2
274
     3
278
    44
283
     0
284
     8
340
11
  0
DIMSTYLE
105
71
330
A
100
AcDbSymbolTableRecord
100
AcDbDimStyleTableRecord
  2
Default
 70
     0
  3
<>
 41
4.375
 42
1.05
 44
2.1
 73
     0
 74
     0
 77
     1
 78
     8
140
3.5
146
0.4
147
1.75
172
     1
271
     2
178
     3
271
     2
272
     3
284
     8
340
6E
341
72
342
72
  0
DIMSTYLE
105
79
330
A
100
AcDbSymbolTableRecord
100
AcDbDimStyleTableRecord
  2
ISO
 70
     0
  3
<>
 41
4.375
 42
1.05
 44
2.1
 73
     0
 74
     0
 77
     1
 78
     8
140
3.5
146
0.4
147
1.75
172
     1
271
     2
178
     3
271
     2
272
     3
284
     8
340
6F
341
72
342
72
  0
DIMSTYLE
105
7A
330
A
100
AcDbSymbolTableRecord
100
AcDbDimStyleTableRecord
  2
zucchetti
 70
     0
  3
<>
 41
3.0
 42
0.9
 44
1.8
 73
     0
 74
     0
 77
     1
 78
     8
140
3.0
146
0.6
147
1.5
172
     1
176
     3
177
     3
271
     2
178
     3
271
     2
272
     2
284
     8
340
70
  0
ENDTAB
  0
TABLE
  2
BLOCK_RECORD
  5
1
330
0
100
AcDbSymbolTable
 70
     6
  0
BLOCK_RECORD
  5
1F
330
1
100
AcDbSymbolTableRecord
100
AcDbBlockTableRecord
  2
*Model_Space
340
22
  0
BLOCK_RECORD
  5
1B
330
1
100
AcDbSymbolTableRecord
100
AcDbBlockTableRecord
  2
*Paper_Space
340
1E
  0
BLOCK_RECORD
  5
23
330
1
100
AcDbSymbolTableRecord
100
AcDbBlockTableRecord
  2
*Paper_Space0
340
26
  0
BLOCK_RECORD
  5
72
330
1
100
AcDbSymbolTableRecord
100
AcDbBlockTableRecord
  2
_Closed
340
0
  0
BLOCK_RECORD
  5
7B
330
1
100
AcDbSymbolTableRecord
100
AcDbBlockTableRecord
  2
a
340
0
102
{BLKREFS
331
12B
102
}
  0
BLOCK_RECORD
  5
12C
330
1
100
AcDbSymbolTableRecord
100
AcDbBlockTableRecord
  2
b
340
0
102
{BLKREFS
331
180
102
}
  0
BLOCK_RECORD
  5
181
330
1
100
AcDbSymbolTableRecord
100
AcDbBlockTableRecord
  2
c
340
0
102
{BLKREFS
331
259
102
}
  0
BLOCK_RECORD
  5
25A
330
1
100
AcDbSymbolTableRecord
100
AcDbBlockTableRecord
  2
d
340
0
102
{BLKREFS
331
332
102
}
  0
ENDTAB
  0
ENDSEC
  0
SECTION
  2
BLOCKS
  0
BLOCK
  5
20
330
1F
100
AcDbEntity
  8
0
100
AcDbBlockBegin
  2
*Model_Space
 70
     0
 10
0.0
 20
0.0
 30
0.0
  3
*Model_Space
  1

  0
ENDBLK
  5
21
330
1F
100
AcDbEntity
  8
0
100
AcDbBlockEnd
  0
BLOCK
  5
1C
330
1B
100
AcDbEntity
 67
     1
  8
0
100
AcDbBlockBegin
  2
*Paper_Space
 70
     0
 10
0.0
 20
0.0
 30
0.0
  3
*Paper_Space
  1

  0
ENDBLK
  5
1D
330
1B
100
AcDbEntity
 67
     1
  8
0
100
AcDbBlockEnd
  0
BLOCK
  5
24
330
23
100
AcDbEntity
  8
0
100
AcDbBlockBegin
  2
*Paper_Space0
 70
     0
 10
0.0
 20
0.0
 30
0.0
  3
*Paper_Space0
  1

  0
ENDBLK
  5
25
330
23
100
AcDbEntity
  8
0
100
AcDbBlockEnd
  0
BLOCK
  5
73
330
72
100
AcDbEntity
  8
0
100
AcDbBlockBegin
  2
_Closed
 70
     0
 10
0.0
 20
0.0
 30
0.0
  3
_Closed
  1

  0
LINE
  5
75
330
72
100
AcDbEntity
  8
0
  6
ByBlock
 62
     0
370
    -2
100
AcDbLine
 10
-1.0
 20
0.166667
 30
0.0
 11
0.0
 21
0.0
 31
0.0
  0
LINE
  5
76
330
72
100
AcDbEntity
  8
0
  6
ByBlock
 62
     0
370
    -2
100
AcDbLine
 10
0.0
 20
0.0
 30
0.0
 11
-1.0
 21
-0.166667
 31
0.0
  0
LINE
  5
77
330
72
100
AcDbEntity
  8
0
  6
ByBlock
 62
     0
370
    -2
100
AcDbLine
 10
-1.0
 20
0.166667
 30
0.0
 11
-1.0
 21
-0.166667
 31
0.0
  0
LINE
  5
78
330
72
100
AcDbEntity
  8
0
  6
ByBlock
 62
     0
370
    -2
100
AcDbLine
 10
0.0
 20
0.0
 30
0.0
 11
-1.0
 21
0.0
 31
0.0
  0
ENDBLK
  5
74
330
72
100
AcDbEntity
  8
0
100
AcDbBlockEnd
  0
BLOCK
  5
129
330
7B
100
AcDbEntity
  8
0
100
AcDbBlockBegin
  2
a
 70
     0
 10
23.378845
 20
113.188637
 30
0.0
  3
a
  1

  0
LINE
  5
7C
330
7B
100
AcDbEntity
  8
0
  6
Continuous
 62
     0
370
    30
100
AcDbLine
 10
98.454887
 20
963.121543
 30
0.0
 11
98.454887
 21
943.192851
 31
0.0
  0
LINE
  5
7D
330
7B
100
AcDbEntity
  8
0
  6
Continuous
 62
     0
370
    30
100
AcDbLine
 10
84.454887
 20
964.121554
 30
0.0
 11
97.454887
 21
964.121554
 31
0.0
  0
ARC
  5
7E
330
7B
100
AcDbEntity
  8
0
  6
Continuous
 62
     0
370
    30
100
AcDbCircle
 10
97.454887
 20
963.121543
 30
0.0
 40
1.0
100
AcDbArc
 50
0.0
 51
90.0
  0
ELLIPSE
  5
7F
330
7B
100
AcDbEntity
  8
0
  6
Continuous
 62
     0
370
     0
100
AcDbEllipse
 10
97.454887
 20
963.121543
 30
0.0
 11
-5.455482895975850E-9
 21
1.0
 31
0.0
210
0.0
220
0.0
230
-1.0
 40
0.008135
 41
0.0000000131552246
 42
1.570796339950113
  0
LINE
  5
80
330
7B
100
AcDbEntity
  8
0
  6
Continuous
 62
     0
370
     0
100
AcDbLine
 10
97.463022
 20
963.121543
 30
0.0
 11
98.454887
 21
963.121543
 31
0.0
  0
LINE
  5
81
330
7B
100
AcDbEntity
  8
0
  6
Continuous
 62
     0
370
     0
100
AcDbLine
 10
97.463022
 20
943.192851
 30
0.0
 11
97.463022
 21
963.121543
 31
0.0
  0
ELLIPSE
  5
82
330
7B
100
AcDbEntity
  8
0
  6
Continuous
 62
     0
370
     0
100
AcDbEllipse
 10
84.454887
 20
963.121543
 30
0.0
 11
-5.241441790529604E-9
 21
1.0
 31
0.0
210
0.0
220
0.0
230
1.0
 40
0.008135
 41
0.0000000131553666
 42
1.570796339950112
  0
LINE
  5
83
330
7B
100
AcDbEntity
  8
0
  6
Continuous
 62
     0
370
     0
100
AcDbLine
 10
84.446752
 20
963.121554
 30
0.0
 11
97.463022
 21
963.121554
 31
0.0
  0
SPLINE
  5
84
330
7B
100
AcDbEntity
  8
0
  6
Continuous
 62
     0
370
     0
100
AcDbSpline
210
0.0
220
0.0
230
1.0
 70
     8
 71
     3
 72
    35
 73
    31
 74
     0
 42
0.000000001
 43
0.0
 40
0.0
 40
0.0
 40
0.0
 40
0.0
 40
3.441841583726246
 40
6.882852512287561
 40
10.32313745608455
 40
13.76274326813165
 40
17.20191509642661
 40
20.64091833849005
 40
24.08005407847498
 40
27.51961152377158
 40
30.95977415881267
 40
34.40069259768723
 40
37.8424409908414
 40
41.28489904790865
 40
44.72789785151544
 40
48.17118409310792
 40
51.61446761388596
 40
55.05746120483949
 40
58.49991683290023
 40
61.94165561409898
 40
65.38259805037588
 40
68.82278773743839
 40
72.26234447888223
 40
75.70149456209352
 40
79.1405112156677
 40
82.57969419747484
 40
86.0193194231972
 40
89.45958122423197
 40
92.90057834620421
 40
96.34243528771587
 40
96.34243528771587
 40
96.34243528771587
 40
96.34243528771587
 10
81.50429828947547
 20
938.0325305821913
 30
0.0
 10
80.51730577074738
 20
937.4477550588574
 30
0.0
 10
78.64816747886721
 20
936.090734723988
 30
0.0
 10
76.2724741308774
 20
933.5755399340354
 30
0.0
 10
74.40357751944228
 20
930.6633215464303
 30
0.0
 10
73.10658243853644
 20
927.4561911899375
 30
0.0
 10
72.42635905134522
 20
924.0645077731978
 30
0.0
 10
72.3864094017957
 20
920.6056537445343
 30
0.0
 10
72.9882103531775
 20
917.1992282204191
 30
0.0
 10
74.21075498324794
 20
913.9629439364442
 30
0.0
 10
76.01222448101962
 20
911.0089531450641
 30
0.0
 10
78.32941559345511
 20
908.4386349932959
 30
0.0
 10
81.08308276885622
 20
906.3413093791471
 30
0.0
 10
84.17780213064312
 20
904.7891481387703
 30
0.0
 10
87.50675382337862
 20
903.8358519933608
 30
0.0
 10
90.95488816033118
 20
903.5143874660067
 30
0.0
 10
94.40301994182339
 20
903.8358610015641
 30
0.0
 10
97.73196736066593
 20
904.7891463273692
 30
0.0
 10
100.8267021416168
 20
906.3412790815528
 30
0.0
 10
103.5803403703974
 20
908.4386224888138
 30
0.0
 10
105.8977501708726
 20
911.0087815791671
 30
0.0
 10
107.698977334934
 20
913.9629493969396
 30
0.0
 10
108.9216241618672
 20
917.1991912217721
 30
0.0
 10
109.5234122330089
 20
920.6056367246483
 30
0.0
 10
109.4834840794128
 20
924.064504145691
 30
0.0
 10
108.8032299012091
 20
927.456190099768
 30
0.0
 10
107.5062429953921
 20
930.6633537892047
 30
0.0
 10
105.6370489763422
 20
933.5753373382317
 30
0.0
 10
103.2617721614381
 20
936.0909130735039
 30
0.0
 10
101.3924727109255
 20
937.4477525611901
 30
0.0
 10
100.405475781749
 20
938.0325306832835
 30
0.0
  0
ARC
  5
85
330
7B
100
AcDbEntity
  8
0
  6
Continuous
 62
     0
370
     0
100
AcDbCircle
 10
103.460733
 20
943.193726
 30
0.0
 40
5.997710869422978
100
AcDbArc
 50
180.008362
 51
239.375869
  0
LINE
  5
86
330
7B
100
AcDbEntity
  8
0
  6
Continuous
 62
     0
370
     0
100
AcDbLine
 10
84.446752
 20
963.121543
 30
0.0
 11
84.446752
 21
943.192851
 31
0.0
  0
ARC
  5
87
330
7B
100
AcDbEntity
  8
0
  6
Continuous
 62
     0
370
     0
100
AcDbCircle
 10
78.449041
 20
943.193726
 30
0.0
 40
5.997710779294551
100
AcDbArc
 50
300.624131
 51
359.991639
  0
LINE
  5
88
330
7B
100
AcDbEntity
  8
0
  6
Continuous
 62
     0
370
     0
100
AcDbLine
 10
84.446752
 20
963.121543
 30
0.0
 11
83.454887
 21
963.121543
 31
0.0
  0
LINE
  5
89
330
7B
100
AcDbEntity
  8
0
  6
Continuous
 62
     0
370
    30
100
AcDbLine
 10
83.454887
 20
963.121543
 30
0.0
 11
83.454887
 21
943.192851
 31
0.0
  0
ARC
  5
8A
330
7B
100
AcDbEntity
  8
0
  6
Continuous
 62
     0
370
    30
100
AcDbCircle
 10
84.454887
 20
963.121543
 30
0.0
 40
1.0
100
AcDbArc
 50
90.0
 51
180.0
  0
ARC
  5
8B
330
7B
100
AcDbEntity
  8
0
  6
Continuous
 62
     0
370
    30
100
AcDbCircle
 10
90.954887
 20
922.121543
 30
0.0
 40
19.50000000033902
100
AcDbArc
 50
120.677425
 51
59.322576
  0
ARC
  5
8C
330
7B
100
AcDbEntity
  8
0
  6
Continuous
 62
     0
370
    30
100
AcDbCircle
 10
103.453849
 20
943.19226
 30
0.0
 40
4.99896228032442
100
AcDbArc
 50
179.993227
 51
239.32935
  0
ELLIPSE
  5
8D
330
7B
100
AcDbEntity
  8
0
  6
Continuous
 62
     0
370
     0
100
AcDbEllipse
 10
100.393663
 20
938.032531
 30
0.0
 11
0.5102040769052009
 21
0.8600533703843072
 31
0.0
210
0.0
220
0.0
230
-1.0
 40
0.01016
 41
0.0000000145918528
 42
1.564769143704869
  0
ARC
  5
8E
330
7B
100
AcDbEntity
  8
0
  6
Continuous
 62
     0
370
    30
100
AcDbCircle
 10
78.455925
 20
943.19226
 30
0.0
 40
4.998962282315782
100
AcDbArc
 50
300.670651
 51
0.006774
  0
ELLIPSE
  5
8F
330
7B
100
AcDbEntity
  8
0
  6
Continuous
 62
     0
370
     0
100
AcDbEllipse
 10
81.516112
 20
938.032531
 30
0.0
 11
0.5102040861623904
 21
-0.8600533648926791
 31
0.0
210
0.0
220
0.0
230
-1.0
 40
0.01016
 41
1.576823516439776
 42
3.141592645552677
  0
LINE
  5
90
330
7B
100
AcDbEntity
  8
0
  6
Continuous
 62
     0
370
     0
100
AcDbLine
 10
98.454887
 20
943.192851
 30
0.0
 11
97.463022
 21
943.192851
 31
0.0
  0
LINE
  5
91
330
7B
100
AcDbEntity
  8
0
  6
Continuous
 62
     0
370
     0
100
AcDbLine
 10
83.454887
 20
943.192851
 30
0.0
 11
84.446752
 21
943.192851
 31
0.0
  0
LINE
  5
92
330
7B
100
AcDbEntity
  8
0
  6
Continuous
 62
     0
370
    30
100
AcDbLine
 10
94.90697
 20
831.454263
 30
0.0
 11
87.00697
 21
831.454263
 31
0.0
  0
CIRCLE
  5
93
330
7B
100
AcDbEntity
  8
0
  6
Continuous
 62
     0
370
    30
100
AcDbCircle
 10
90.95697
 20
802.124263
 30
0.0
 40
21.99999999553032
  0
LINE
  5
94
330
7B
100
AcDbEntity
  8
0
  6
Continuous
 62
     0
370
    30
100
AcDbLine
 10
94.40697
 20
831.954263
 30
0.0
 11
87.50697
 21
831.954263
 31
0.0
  0
CIRCLE
  5
95
330
7B
100
AcDbEntity
  8
0
  6
Continuous
 62
     0
370
    30
100
AcDbCircle
 10
90.95697
 20
802.124263
 30
0.0
 40
21.49999999542638
  0
LINE
  5
96
330
7B
100
AcDbEntity
  8
0
  6
Continuous
 62
     0
370
    30
100
AcDbLine
 10
87.00697
 20
831.454263
 30
0.0
 11
87.00697
 21
823.76688
 31
0.0
  0
LINE
  5
97
330
7B
100
AcDbEntity
  8
0
  6
Continuous
 62
     0
370
    30
100
AcDbLine
 10
94.90697
 20
831.454263
 30
0.0
 11
94.90697
 21
823.76695
 31
0.0
  0
LINE
  5
98
330
7B
100
AcDbEntity
  8
0
  6
Continuous
 62
     0
370
    30
100
AcDbLine
 10
87.50697
 20
831.954263
 30
0.0
 11
87.00697
 21
831.454263
 31
0.0
  0
LINE
  5
99
330
7B
100
AcDbEntity
  8
0
  6
Continuous
 62
     0
370
    30
100
AcDbLine
 10
94.40697
 20
831.954263
 30
0.0
 11
94.90697
 21
831.454263
 31
0.0
  0
LINE
  5
9A
330
7B
100
AcDbEntity
  8
0
  6
Continuous
 62
     0
370
    30
100
AcDbLine
 10
98.454887
 20
1063.121543
 30
0.0
 11
98.454887
 21
1043.192851
 31
0.0
  0
LINE
  5
9B
330
7B
100
AcDbEntity
  8
0
  6
Continuous
 62
     0
370
    30
100
AcDbLine
 10
84.454887
 20
1064.121554
 30
0.0
 11
97.454887
 21
1064.121554
 31
0.0
  0
ARC
  5
9C
330
7B
100
AcDbEntity
  8
0
  6
Continuous
 62
     0
370
    30
100
AcDbCircle
 10
97.454887
 20
1063.121543
 30
0.0
 40
1.0
100
AcDbArc
 50
0.0
 51
90.0
  0
ELLIPSE
  5
9D
330
7B
100
AcDbEntity
  8
0
  6
Continuous
 62
     0
370
     0
100
AcDbEllipse
 10
97.454887
 20
1063.121543
 30
0.0
 11
-5.455482895975850E-9
 21
1.0
 31
0.0
210
0.0
220
0.0
230
-1.0
 40
0.008135
 41
0.0000000131552246
 42
1.570796339950099
  0
LINE
  5
9E
330
7B
100
AcDbEntity
  8
0
  6
Continuous
 62
     0
370
     0
100
AcDbLine
 10
97.463022
 20
1063.121543
 30
0.0
 11
98.454887
 21
1063.121543
 31
0.0
  0
LINE
  5
9F
330
7B
100
AcDbEntity
  8
0
  6
Continuous
 62
     0
370
     0
100
AcDbLine
 10
97.463022
 20
1043.192851
 30
0.0
 11
97.463022
 21
1063.121543
 31
0.0
  0
LINE
  5
A0
330
7B
100
AcDbEntity
  8
0
  6
Continuous
 62
     0
370
     0
100
AcDbLine
 10
98.454887
 20
1043.192851
 30
0.0
 11
97.463022
 21
1043.192851
 31
0.0
  0
ELLIPSE
  5
A1
330
7B
100
AcDbEntity
  8
0
  6
Continuous
 62
     0
370
     0
100
AcDbEllipse
 10
84.454887
 20
1063.121543
 30
0.0
 11
-5.241441790529604E-9
 21
1.0
 31
0.0
210
0.0
220
0.0
230
1.0
 40
0.008135
 41
0.0000000131553666
 42
1.570796339950105
  0
LINE
  5
A2
330
7B
100
AcDbEntity
  8
0
  6
Continuous
 62
     0
370
     0
100
AcDbLine
 10
84.446752
 20
1063.121554
 30
0.0
 11
97.463022
 21
1063.121554
 31
0.0
  0
SPLINE
  5
A3
330
7B
100
AcDbEntity
  8
0
  6
Continuous
 62
     0
370
     0
100
AcDbSpline
210
0.0
220
0.0
230
1.0
 70
     8
 71
     3
 72
    35
 73
    31
 74
     0
 42
0.000000001
 43
0.0
 40
0.0
 40
0.0
 40
0.0
 40
0.0
 40
3.441841583726254
 40
6.882852512287559
 40
10.32313745608454
 40
13.76274326813164
 40
17.20191509642663
 40
20.64091833849005
 40
24.08005407847499
 40
27.51961152377159
 40
30.95977415881267
 40
34.40069259768724
 40
37.8424409908414
 40
41.28489904790866
 40
44.72789785151545
 40
48.17118409310793
 40
51.61446761388596
 40
55.0574612048395
 40
58.49991683290024
 40
61.94165561409899
 40
65.38259805037588
 40
68.8227877374384
 40
72.26234447888223
 40
75.70149456209352
 40
79.1405112156677
 40
82.57969419747484
 40
86.0193194231972
 40
89.45958122423195
 40
92.9005783462042
 40
96.34243528771586
 40
96.34243528771586
 40
96.34243528771586
 40
96.34243528771586
 10
81.50429828947547
 20
1038.032530582191
 30
0.0
 10
80.51730577074737
 20
1037.447755058857
 30
0.0
 10
78.64816747886721
 20
1036.090734723988
 30
0.0
 10
76.27247413087738
 20
1033.575539934036
 30
0.0
 10
74.40357751944228
 20
1030.66332154643
 30
0.0
 10
73.10658243853644
 20
1027.456191189937
 30
0.0
 10
72.4263590513452
 20
1024.064507773198
 30
0.0
 10
72.3864094017957
 20
1020.605653744534
 30
0.0
 10
72.98821035317746
 20
1017.199228220419
 30
0.0
 10
74.21075498324794
 20
1013.962943936444
 30
0.0
 10
76.01222448101962
 20
1011.008953145064
 30
0.0
 10
78.32941559345511
 20
1008.438634993296
 30
0.0
 10
81.08308276885623
 20
1006.341309379147
 30
0.0
 10
84.1778021306431
 20
1004.78914813877
 30
0.0
 10
87.50675382337862
 20
1003.835851993361
 30
0.0
 10
90.95488816033118
 20
1003.514387466007
 30
0.0
 10
94.40301994182339
 20
1003.835861001564
 30
0.0
 10
97.73196736066593
 20
1004.789146327369
 30
0.0
 10
100.8267021416168
 20
1006.341279081553
 30
0.0
 10
103.5803403703974
 20
1008.438622488814
 30
0.0
 10
105.8977501708726
 20
1011.008781579167
 30
0.0
 10
107.698977334934
 20
1013.96294939694
 30
0.0
 10
108.9216241618672
 20
1017.199191221772
 30
0.0
 10
109.5234122330089
 20
1020.605636724648
 30
0.0
 10
109.4834840794128
 20
1024.064504145691
 30
0.0
 10
108.8032299012091
 20
1027.456190099768
 30
0.0
 10
107.5062429953921
 20
1030.663353789205
 30
0.0
 10
105.6370489763422
 20
1033.575337338232
 30
0.0
 10
103.2617721614381
 20
1036.090913073504
 30
0.0
 10
101.3924727109255
 20
1037.44775256119
 30
0.0
 10
100.405475781749
 20
1038.032530683284
 30
0.0
  0
ARC
  5
A4
330
7B
100
AcDbEntity
  8
0
  6
Continuous
 62
     0
370
     0
100
AcDbCircle
 10
103.460733
 20
1043.193726
 30
0.0
 40
5.9977108694234
100
AcDbArc
 50
180.008362
 51
239.375869
  0
LINE
  5
A5
330
7B
100
AcDbEntity
  8
0
  6
Continuous
 62
     0
370
     0
100
AcDbLine
 10
84.446752
 20
1063.121543
 30
0.0
 11
84.446752
 21
1043.192851
 31
0.0
  0
ARC
  5
A6
330
7B
100
AcDbEntity
  8
0
  6
Continuous
 62
     0
370
     0
100
AcDbCircle
 10
78.449041
 20
1043.193726
 30
0.0
 40
5.99771077929385
100
AcDbArc
 50
300.624131
 51
359.991639
  0
LINE
  5
A7
330
7B
100
AcDbEntity
  8
0
  6
Continuous
 62
     0
370
     0
100
AcDbLine
 10
84.446752
 20
1063.121543
 30
0.0
 11
83.454887
 21
1063.121543
 31
0.0
  0
LINE
  5
A8
330
7B
100
AcDbEntity
  8
0
  6
Continuous
 62
     0
370
    30
100
AcDbLine
 10
83.454887
 20
1063.121543
 30
0.0
 11
83.454887
 21
1043.192851
 31
0.0
  0
LINE
  5
A9
330
7B
100
AcDbEntity
  8
0
  6
Continuous
 62
     0
370
     0
100
AcDbLine
 10
83.454887
 20
1043.192851
 30
0.0
 11
84.446752
 21
1043.192851
 31
0.0
  0
ARC
  5
AA
330
7B
100
AcDbEntity
  8
0
  6
Continuous
 62
     0
370
    30
100
AcDbCircle
 10
84.454887
 20
1063.121543
 30
0.0
 40
1.0
100
AcDbArc
 50
90.0
 51
180.0
  0
ARC
  5
AB
330
7B
100
AcDbEntity
  8
0
  6
Continuous
 62
     0
370
    30
100
AcDbCircle
 10
90.954887
 20
1022.121543
 30
0.0
 40
19.50000000033902
100
AcDbArc
 50
120.677425
 51
59.322576
  0
ARC
  5
AC
330
7B
100
AcDbEntity
  8
0
  6
Continuous
 62
     0
370
    30
100
AcDbCircle
 10
103.453849
 20
1043.19226
 30
0.0
 40
4.998962280325063
100
AcDbArc
 50
179.993227
 51
239.32935
  0
ELLIPSE
  5
AD
330
7B
100
AcDbEntity
  8
0
  6
Continuous
 62
     0
370
     0
100
AcDbEllipse
 10
100.393663
 20
1038.032531
 30
0.0
 11
0.5102040769052009
 21
0.8600533703843072
 31
0.0
210
0.0
220
0.0
230
-1.0
 40
0.01016
 41
0.0000000145920331
 42
1.564769143704869
  0
ARC
  5
AE
330
7B
100
AcDbEntity
  8
0
  6
Continuous
 62
     0
370
    30
100
AcDbCircle
 10
78.455925
 20
1043.19226
 30
0.0
 40
4.998962282316047
100
AcDbArc
 50
300.670651
 51
0.006774
  0
ELLIPSE
  5
AF
330
7B
100
AcDbEntity
  8
0
  6
Continuous
 62
     0
370
     0
100
AcDbEllipse
 10
81.516112
 20
1038.032531
 30
0.0
 11
0.5102040861623904
 21
-0.8600533648926791
 31
0.0
210
0.0
220
0.0
230
-1.0
 40
0.01016
 41
1.576823516439776
 42
3.141592645552502
  0
LINE
  5
B0
330
7B
100
AcDbEntity
  8
0
  6
Continuous
 62
     0
370
    30
100
AcDbLine
 10
98.454887
 20
1163.124262
 30
0.0
 11
98.454887
 21
1143.195569
 31
0.0
  0
LINE
  5
B1
330
7B
100
AcDbEntity
  8
0
  6
Continuous
 62
     0
370
    30
100
AcDbLine
 10
84.454887
 20
1164.124272
 30
0.0
 11
97.454887
 21
1164.124272
 31
0.0
  0
ARC
  5
B2
330
7B
100
AcDbEntity
  8
0
  6
Continuous
 62
     0
370
    30
100
AcDbCircle
 10
97.454887
 20
1163.124262
 30
0.0
 40
1.0
100
AcDbArc
 50
0.0
 51
90.0
  0
ELLIPSE
  5
B3
330
7B
100
AcDbEntity
  8
0
  6
Continuous
 62
     0
370
     0
100
AcDbEllipse
 10
97.454887
 20
1163.124262
 30
0.0
 11
-5.455482895975850E-9
 21
1.0
 31
0.0
210
0.0
220
0.0
230
-1.0
 40
0.008135
 41
0.0000000131552246
 42
1.570796339950099
  0
LINE
  5
B4
330
7B
100
AcDbEntity
  8
0
  6
Continuous
 62
     0
370
     0
100
AcDbLine
 10
97.463022
 20
1163.124262
 30
0.0
 11
98.454887
 21
1163.124262
 31
0.0
  0
LINE
  5
B5
330
7B
100
AcDbEntity
  8
0
  6
Continuous
 62
     0
370
     0
100
AcDbLine
 10
97.463022
 20
1143.195569
 30
0.0
 11
97.463022
 21
1163.124262
 31
0.0
  0
LINE
  5
B6
330
7B
100
AcDbEntity
  8
0
  6
Continuous
 62
     0
370
     0
100
AcDbLine
 10
98.454887
 20
1143.195569
 30
0.0
 11
97.463022
 21
1143.195569
 31
0.0
  0
ELLIPSE
  5
B7
330
7B
100
AcDbEntity
  8
0
  6
Continuous
 62
     0
370
     0
100
AcDbEllipse
 10
84.454887
 20
1163.124262
 30
0.0
 11
-5.241441790529604E-9
 21
1.0
 31
0.0
210
0.0
220
0.0
230
1.0
 40
0.008135
 41
0.0000000131553666
 42
1.570796339950105
  0
LINE
  5
B8
330
7B
100
AcDbEntity
  8
0
  6
Continuous
 62
     0
370
     0
100
AcDbLine
 10
84.446752
 20
1163.124272
 30
0.0
 11
97.463022
 21
1163.124272
 31
0.0
  0
SPLINE
  5
B9
330
7B
100
AcDbEntity
  8
0
  6
Continuous
 62
     0
370
     0
100
AcDbSpline
210
0.0
220
0.0
230
1.0
 70
     8
 71
     3
 72
    35
 73
    31
 74
     0
 42
0.000000001
 43
0.0
 40
0.0
 40
0.0
 40
0.0
 40
0.0
 40
3.441841583726212
 40
6.882852512287517
 40
10.32313745608452
 40
13.76274326813163
 40
17.20191509642661
 40
20.64091833848999
 40
24.08005407847496
 40
27.51961152377153
 40
30.95977415881266
 40
34.40069259768724
 40
37.8424409908414
 40
41.28489904790864
 40
44.72789785151543
 40
48.1711840931079
 40
51.61446761388594
 40
55.05746120483946
 40
58.49991683290023
 40
61.94165561409898
 40
65.38259805037585
 40
68.82278773743839
 40
72.2623444788822
 40
75.70149456209353
 40
79.14051121566767
 40
82.5796941974748
 40
86.01931942319719
 40
89.45958122423195
 40
92.90057834620418
 40
96.34243528771584
 40
96.34243528771584
 40
96.34243528771584
 40
96.34243528771584
 10
81.50429828947546
 20
1138.035248944639
 30
0.0
 10
80.51730577074737
 20
1137.450473421305
 30
0.0
 10
78.64816747886718
 20
1136.093453086436
 30
0.0
 10
76.27247413087736
 20
1133.578258296483
 30
0.0
 10
74.40357751944227
 20
1130.666039908878
 30
0.0
 10
73.1065824385364
 20
1127.458909552385
 30
0.0
 10
72.4263590513452
 20
1124.067226135645
 30
0.0
 10
72.38640940179569
 20
1120.608372106982
 30
0.0
 10
72.98821035317744
 20
1117.201946582867
 30
0.0
 10
74.21075498324794
 20
1113.965662298892
 30
0.0
 10
76.01222448101957
 20
1111.011671507512
 30
0.0
 10
78.32941559345508
 20
1108.441353355744
 30
0.0
 10
81.0830827688562
 20
1106.344027741595
 30
0.0
 10
84.17780213064309
 20
1104.791866501218
 30
0.0
 10
87.50675382337859
 20
1103.838570355809
 30
0.0
 10
90.95488816033117
 20
1103.517105828455
 30
0.0
 10
94.40301994182336
 20
1103.838579364012
 30
0.0
 10
97.73196736066593
 20
1104.791864689817
 30
0.0
 10
100.8267021416168
 20
1106.343997444
 30
0.0
 10
103.5803403703973
 20
1108.441340851262
 30
0.0
 10
105.8977501708726
 20
1111.011499941615
 30
0.0
 10
107.698977334934
 20
1113.965667759387
 30
0.0
 10
108.9216241618672
 20
1117.20190958422
 30
0.0
 10
109.5234122330089
 20
1120.608355087096
 30
0.0
 10
109.4834840794127
 20
1124.067222508139
 30
0.0
 10
108.8032299012091
 20
1127.458908462216
 30
0.0
 10
107.5062429953921
 20
1130.666072151652
 30
0.0
 10
105.6370489763422
 20
1133.578055700679
 30
0.0
 10
103.2617721614381
 20
1136.093631435951
 30
0.0
 10
101.3924727109255
 20
1137.450470923638
 30
0.0
 10
100.405475781749
 20
1138.035249045731
 30
0.0
  0
ARC
  5
BA
330
7B
100
AcDbEntity
  8
0
  6
Continuous
 62
     0
370
     0
100
AcDbCircle
 10
103.460733
 20
1143.196445
 30
0.0
 40
5.997710869422992
100
AcDbArc
 50
180.008362
 51
239.375869
  0
LINE
  5
BB
330
7B
100
AcDbEntity
  8
0
  6
Continuous
 62
     0
370
     0
100
AcDbLine
 10
84.446752
 20
1163.124262
 30
0.0
 11
84.446752
 21
1143.195569
 31
0.0
  0
ARC
  5
BC
330
7B
100
AcDbEntity
  8
0
  6
Continuous
 62
     0
370
     0
100
AcDbCircle
 10
78.449041
 20
1143.196444
 30
0.0
 40
5.997710779291232
100
AcDbArc
 50
300.624131
 51
359.991639
  0
LINE
  5
BD
330
7B
100
AcDbEntity
  8
0
  6
Continuous
 62
     0
370
     0
100
AcDbLine
 10
84.446752
 20
1163.124262
 30
0.0
 11
83.454887
 21
1163.124262
 31
0.0
  0
LINE
  5
BE
330
7B
100
AcDbEntity
  8
0
  6
Continuous
 62
     0
370
    30
100
AcDbLine
 10
83.454887
 20
1163.124262
 30
0.0
 11
83.454887
 21
1143.195569
 31
0.0
  0
LINE
  5
BF
330
7B
100
AcDbEntity
  8
0
  6
Continuous
 62
     0
370
     0
100
AcDbLine
 10
83.454887
 20
1143.195569
 30
0.0
 11
84.446752
 21
1143.195569
 31
0.0
  0
ARC
  5
C0
330
7B
100
AcDbEntity
  8
0
  6
Continuous
 62
     0
370
    30
100
AcDbCircle
 10
84.454887
 20
1163.124262
 30
0.0
 40
1.0
100
AcDbArc
 50
90.0
 51
180.0
  0
ARC
  5
C1
330
7B
100
AcDbEntity
  8
0
  6
Continuous
 62
     0
370
    30
100
AcDbCircle
 10
90.954887
 20
1122.124262
 30
0.0
 40
19.50000000033905
100
AcDbArc
 50
120.677425
 51
59.322576
  0
ARC
  5
C2
330
7B
100
AcDbEntity
  8
0
  6
Continuous
 62
     0
370
    30
100
AcDbCircle
 10
103.453849
 20
1143.194978
 30
0.0
 40
4.998962280324486
100
AcDbArc
 50
179.993227
 51
239.32935
  0
ELLIPSE
  5
C3
330
7B
100
AcDbEntity
  8
0
  6
Continuous
 62
     0
370
     0
100
AcDbEllipse
 10
100.393663
 20
1138.035249
 30
0.0
 11
0.5102040769052009
 21
0.8600533703843072
 31
0.0
210
0.0
220
0.0
230
-1.0
 40
0.01016
 41
0.0000000145920331
 42
1.564769143704885
  0
ARC
  5
C4
330
7B
100
AcDbEntity
  8
0
  6
Continuous
 62
     0
370
    30
100
AcDbCircle
 10
78.455925
 20
1143.194978
 30
0.0
 40
4.998962282317271
100
AcDbArc
 50
300.670651
 51
0.006774
  0
ELLIPSE
  5
C5
330
7B
100
AcDbEntity
  8
0
  6
Continuous
 62
     0
370
     0
100
AcDbEllipse
 10
81.516112
 20
1138.035249
 30
0.0
 11
0.5102040861623904
 21
-0.8600533648926791
 31
0.0
210
0.0
220
0.0
230
-1.0
 40
0.01016
 41
1.576823516439792
 42
3.141592645552502
  0
LINE
  5
C6
330
7B
100
AcDbEntity
  8
0
  6
Continuous
 62
     0
370
    30
100
AcDbLine
 10
83.878844
 20
733.624056
 30
0.0
 11
83.878844
 21
733.937216
 31
0.0
  0
LINE
  5
C7
330
7B
100
AcDbEntity
  8
0
  6
Continuous
 62
     0
370
    30
100
AcDbLine
 10
83.878844
 20
733.937216
 30
0.0
 11
82.357076
 21
733.937216
 31
0.0
  0
LINE
  5
C8
330
7B
100
AcDbEntity
  8
0
  6
Continuous
 62
     0
370
    30
100
AcDbLine
 10
82.357076
 20
733.937216
 30
0.0
 11
83.853833
 21
735.839323
 31
0.0
  0
LINE
  5
C9
330
7B
100
AcDbEntity
  8
0
  6
Continuous
 62
     0
370
    30
100
AcDbLine
 10
83.853833
 20
735.839323
 30
0.0
 11
83.853833
 21
736.191343
 31
0.0
  0
LINE
  5
CA
330
7B
100
AcDbEntity
  8
0
  6
Continuous
 62
     0
370
    30
100
AcDbLine
 10
83.853833
 20
736.191343
 30
0.0
 11
81.987279
 21
736.191343
 31
0.0
  0
LINE
  5
CB
330
7B
100
AcDbEntity
  8
0
  6
Continuous
 62
     0
370
    30
100
AcDbLine
 10
81.987279
 20
736.191343
 30
0.0
 11
81.987279
 21
735.87839
 31
0.0
  0
LINE
  5
CC
330
7B
100
AcDbEntity
  8
0
  6
Continuous
 62
     0
370
    30
100
AcDbLine
 10
81.987279
 20
735.87839
 30
0.0
 11
83.430809
 21
735.87839
 31
0.0
  0
LINE
  5
CD
330
7B
100
AcDbEntity
  8
0
  6
Continuous
 62
     0
370
    30
100
AcDbLine
 10
83.430809
 20
735.87839
 30
0.0
 11
81.948211
 21
733.979797
 31
0.0
  0
LINE
  5
CE
330
7B
100
AcDbEntity
  8
0
  6
Continuous
 62
     0
370
    30
100
AcDbLine
 10
81.948211
 20
733.979797
 30
0.0
 11
81.948211
 21
733.624056
 31
0.0
  0
LINE
  5
CF
330
7B
100
AcDbEntity
  8
0
  6
Continuous
 62
     0
370
    30
100
AcDbLine
 10
81.948211
 20
733.624056
 30
0.0
 11
83.878844
 21
733.624056
 31
0.0
  0
LINE
  5
D0
330
7B
100
AcDbEntity
  8
0
  6
Continuous
 62
     0
370
    30
100
AcDbLine
 10
85.866146
 20
736.191706
 30
0.0
 11
85.866146
 21
734.616607
 31
0.0
  0
SPLINE
  5
D1
330
7B
100
AcDbEntity
  8
0
  6
Continuous
 62
     0
370
    30
100
AcDbSpline
210
0.0
220
0.0
230
1.0
 70
     8
 71
     3
 72
    20
 73
    16
 74
     0
 42
0.000000001
 43
0.0
 40
0.0
 40
0.0
 40
0.0
 40
0.0
 40
0.0985802499584069
 40
0.2261161742996847
 40
0.3704554942159247
 40
0.525419399410002
 40
0.6950552896762036
 40
0.8962342041647691
 40
1.154760334890613
 40
1.234881342654472
 40
1.32143215815359
 40
1.412617215381665
 40
1.604984726032944
 40
1.707644108006214
 40
1.8172645059867
 40
1.8172645059867
 40
1.8172645059867
 40
1.8172645059867
 10
85.8661463134518
 20
734.6166070634724
 30
0.0
 10
85.8661463134518
 20
734.5837469801529
 30
0.0
 10
85.86538615181519
 20
734.5083433077328
 30
0.0
 10
85.85243151819401
 20
734.385222586441
 30
0.0
 10
85.81579552731543
 20
734.2468707713138
 30
0.0
 10
85.74095155392966
 20
734.1073214215802
 30
0.0
 10
85.61078705834584
 20
733.9846269803357
 30
0.0
 10
85.4135681363889
 20
733.9021793498102
 30
0.0
 10
85.2322319107194
 20
733.8850826677758
 30
0.0
 10
85.09059049194752
 20
733.8895620565897
 30
0.0
 10
85.00502525036191
 20
733.8992655758489
 30
0.0
 10
84.88430016690148
 20
733.9251374025944
 30
0.0
 10
84.76365126357932
 20
733.9760722909516
 30
0.0
 10
84.65584717602684
 20
734.0581724583657
 30
0.0
 10
84.60812050559795
 20
734.1111042866837
 30
0.0
 10
84.58622359442376
 20
734.1403567494151
 30
0.0
  0
SPLINE
  5
D2
330
7B
100
AcDbEntity
  8
0
  6
Continuous
 62
     0
370
    30
100
AcDbSpline
210
0.0
220
0.0
230
1.0
 70
     8
 71
     3
 72
    10
 73
     6
 74
     0
 42
0.000000001
 43
0.0
 40
0.0
 40
0.0
 40
0.0
 40
0.0
 40
0.1063055637575288
 40
0.257625326065793
 40
0.4834268713521042
 40
0.4834268713521042
 40
0.4834268713521042
 40
0.4834268713521042
 10
84.58622359442376
 20
734.1403567494151
 30
0.0
 10
84.5655555233229
 20
734.1691401366347
 30
0.0
 10
84.52164786418311
 20
734.243857766176
 30
0.0
 10
84.47923196908444
 20
734.401100895953
 30
0.0
 10
84.47232866254629
 20
734.5272838828581
 30
0.0
 10
84.4723286625463
 20
734.6025510646202
 30
0.0
  0
LINE
  5
D3
330
7B
100
AcDbEntity
  8
0
  6
Continuous
 62
     0
370
    30
100
AcDbLine
 10
84.472329
 20
734.602551
 30
0.0
 11
84.472329
 21
736.191706
 31
0.0
  0
LINE
  5
D4
330
7B
100
AcDbEntity
  8
0
  6
Continuous
 62
     0
370
    30
100
AcDbLine
 10
84.472329
 20
736.191706
 30
0.0
 11
84.116898
 21
736.191706
 31
0.0
  0
LINE
  5
D5
330
7B
100
AcDbEntity
  8
0
  6
Continuous
 62
     0
370
    30
100
AcDbLine
 10
84.116898
 20
736.191706
 30
0.0
 11
84.116898
 21
734.627356
 31
0.0
  0
SPLINE
  5
D6
330
7B
100
AcDbEntity
  8
0
  6
Continuous
 62
     0
370
    30
100
AcDbSpline
210
0.0
220
0.0
230
1.0
 70
     8
 71
     3
 72
    14
 73
    10
 74
     0
 42
0.000000001
 43
0.0
 40
0.0
 40
0.0
 40
0.0
 40
0.0
 40
0.1508594322469493
 40
0.2769465215427925
 40
0.3822979674458142
 40
0.4709669259270551
 40
0.5469207751738884
 40
0.6138622682598172
 40
0.6750268464730154
 40
0.6750268464730154
 40
0.6750268464730154
 40
0.6750268464730154
 10
84.11689792686005
 20
734.627355768477
 30
0.0
 10
84.11689792686005
 20
734.5770692910613
 30
0.0
 10
84.11909117030785
 20
734.4847193642036
 30
0.0
 10
84.1303880828102
 20
734.3576814198581
 30
0.0
 10
84.14832333510597
 20
734.2523578978838
 30
0.0
 10
84.17187492997017
 20
734.1653402094979
 30
0.0
 10
84.19999028594084
 20
734.0932856966338
 30
0.0
 10
84.2315174577646
 20
734.0328792653145
 30
0.0
 10
84.25469888871373
 20
733.9969648775148
 30
0.0
 10
84.2662429146663
 20
733.980159703671
 30
0.0
  0
SPLINE
  5
D7
330
7B
100
AcDbEntity
  8
0
  6
Continuous
 62
     0
370
    30
100
AcDbSpline
210
0.0
220
0.0
230
1.0
 70
     8
 71
     3
 72
    16
 73
    12
 74
     0
 42
0.000000001
 43
0.0
 40
0.0
 40
0.0
 40
0.0
 40
0.0
 40
0.1720980561970475
 40
0.3355330557108159
 40
0.6437127996714569
 40
0.9175194989370672
 40
1.122211209971647
 40
1.358461465653035
 40
1.641108561204676
 40
1.796118124290732
 40
1.962197589856759
 40
1.962197589856759
 40
1.962197589856759
 40
1.962197589856759
 10
84.2662429146663
 20
733.980159703671
 30
0.0
 10
84.29907515717841
 20
733.9331181905488
 30
0.0
 10
84.37291943640412
 20
733.8478167289452
 30
0.0
 10
84.54371765511141
 20
733.7160804103737
 30
0.0
 10
84.77581048452859
 20
733.6170314161425
 30
0.0
 10
85.03552877084151
 20
733.5714751368396
 30
0.0
 10
85.2745910696498
 20
733.5690935893582
 30
0.0
 10
85.51412719549225
 20
733.6062331230104
 30
0.0
 10
85.72617953676438
 20
733.6895682990438
 30
0.0
 10
85.89150470554551
 20
733.8059373556475
 30
0.0
 10
85.96658020363154
 20
733.8833637803982
 30
0.0
 10
86.00112524360844
 20
733.9266228845133
 30
0.0
  0
SPLINE
  5
D8
330
7B
100
AcDbEntity
  8
0
  6
Continuous
 62
     0
370
    30
100
AcDbSpline
210
0.0
220
0.0
230
1.0
 70
     8
 71
     3
 72
    14
 73
    10
 74
     0
 42
0.000000001
 43
0.0
 40
0.0
 40
0.0
 40
0.0
 40
0.0
 40
0.1350863586482201
 40
0.2599474943214963
 40
0.3756672015374965
 40
0.4820781664013626
 40
0.5779572254626734
 40
0.6612539844996099
 40
0.7293112773412922
 40
0.7293112773412922
 40
0.7293112773412922
 40
0.7293112773412922
 10
86.00112524360844
 20
733.9266228845133
 30
0.0
 10
86.0293664601998
 20
733.9616946006608
 30
0.0
 10
86.07877047221658
 20
734.0333591876436
 30
0.0
 10
86.13425612110058
 20
734.1460403065262
 30
0.0
 10
86.17155385703313
 20
734.2558286407934
 30
0.0
 10
86.19433410963765
 20
734.3595400571095
 30
0.0
 10
86.206202773956
 20
734.4540977664653
 30
0.0
 10
86.21068926443783
 20
734.5364356432221
 30
0.0
 10
86.21103504999932
 20
734.5868932997657
 30
0.0
 10
86.21103504999932
 20
734.6095790640463
 30
0.0
  0
LINE
  5
D9
330
7B
100
AcDbEntity
  8
0
  6
Continuous
 62
     0
370
    30
100
AcDbLine
 10
86.211035
 20
734.609579
 30
0.0
 11
86.211035
 21
736.191706
 31
0.0
  0
LINE
  5
DA
330
7B
100
AcDbEntity
  8
0
  6
Continuous
 62
     0
370
    30
100
AcDbLine
 10
86.211035
 20
736.191706
 30
0.0
 11
85.866146
 21
736.191706
 31
0.0
  0
LINE
  5
DB
330
7B
100
AcDbEntity
  8
0
  6
Continuous
 62
     0
370
    30
100
AcDbLine
 10
88.116587
 20
735.49798
 30
0.0
 11
88.496926
 21
735.49798
 31
0.0
  0
SPLINE
  5
DC
330
7B
100
AcDbEntity
  8
0
  6
Continuous
 62
     0
370
    30
100
AcDbSpline
210
0.0
220
0.0
230
1.0
 70
     8
 71
     3
 72
    34
 73
    30
 74
     0
 42
0.000000001
 43
0.0
 40
0.0
 40
0.0
 40
0.0
 40
0.0
 40
0.2287597908212498
 40
0.4273049203183272
 40
0.6115138486215324
 40
0.7910936764686571
 40
1.141136945726614
 40
1.304169985160942
 40
1.657197080711819
 40
1.95747717188801
 40
2.234252382997625
 40
2.505278170316029
 40
2.775098764739941
 40
3.038345096562264
 40
3.283614222187765
 40
3.512282735173414
 40
3.761849059225943
 40
4.019975439354599
 40
4.280543110084606
 40
4.54778455120683
 40
4.83984558674185
 40
5.186848012762154
 40
5.376503596134847
 40
5.565440562493801
 40
5.751059894796701
 40
5.932883240972898
 40
6.113701445657363
 40
6.30053704945176
 40
6.504515650177732
 40
6.504515650177732
 40
6.504515650177732
 40
6.504515650177732
 10
88.49692592628585
 20
735.4979796605664
 30
0.0
 10
88.49090346364945
 20
735.5739947258794
 30
0.0
 10
88.46366034193336
 20
735.7158707058979
 30
0.0
 10
88.3680849103511
 20
735.8992136852803
 30
0.0
 10
88.23518609595432
 20
736.0348837311269
 30
0.0
 10
88.02971296792434
 20
736.1585049864805
 30
0.0
 10
87.80125258695162
 20
736.2168341661148
 30
0.0
 10
87.51313194917446
 20
736.233446026898
 30
0.0
 10
87.2386919626236
 20
736.2019126312953
 30
0.0
 10
86.95144508470315
 20
736.0716953745363
 30
0.0
 10
86.74153481838788
 20
735.8758198657242
 30
0.0
 10
86.59864759286509
 20
735.6407065992332
 30
0.0
 10
86.50927545927644
 20
735.3864965575139
 30
0.0
 10
86.46236367855785
 20
735.1304960899886
 30
0.0
 10
86.44825364050112
 20
734.8846341598277
 30
0.0
 10
86.46101894690365
 20
734.6433614693506
 30
0.0
 10
86.50256511554983
 20
734.4007213511827
 30
0.0
 10
86.58429713440584
 20
734.1566163096593
 30
0.0
 10
86.71827731420606
 20
733.9285430668886
 30
0.0
 10
86.91937860095982
 20
733.7369935625354
 30
0.0
 10
87.19917945601397
 20
733.6092158608242
 30
0.0
 10
87.47761204327489
 20
733.5776214626287
 30
0.0
 10
87.71937646080347
 20
733.5936190943129
 30
0.0
 10
87.90404146873018
 20
733.633270548079
 30
0.0
 10
88.07752012372784
 20
733.7014871043993
 30
0.0
 10
88.2326052222617
 20
733.8007640735123
 30
0.0
 10
88.36116456027551
 20
733.9339701230592
 30
0.0
 10
88.45357668855277
 20
734.1032762251225
 30
0.0
 10
88.48274047331518
 20
734.2320906653426
 30
0.0
 10
88.48989792685953
 20
734.2997057584005
 30
0.0
  0
LINE
  5
DD
330
7B
100
AcDbEntity
  8
0
  6
Continuous
 62
     0
370
    30
100
AcDbLine
 10
88.489898
 20
734.299706
 30
0.0
 11
88.09881
 21
734.299706
 31
0.0
  0
SPLINE
  5
DE
330
7B
100
AcDbEntity
  8
0
  6
Continuous
 62
     0
370
    30
100
AcDbSpline
210
0.0
220
0.0
230
1.0
 70
     8
 71
     3
 72
    10
 73
     6
 74
     0
 42
0.000000001
 43
0.0
 40
0.0
 40
0.0
 40
0.0
 40
0.0
 40
0.0765300141122539
 40
0.1780463896689133
 40
0.3014382732618228
 40
0.3014382732618228
 40
0.3014382732618228
 40
0.3014382732618228
 10
88.09881042937869
 20
734.2997057584005
 30
0.0
 10
88.09433791728847
 20
734.2745908828164
 30
0.0
 10
88.08237792853005
 20
734.2163464209971
 30
0.0
 10
88.04604166087405
 20
734.121929312392
 30
0.0
 10
88.00225512763704
 20
734.0596836758525
 30
0.0
 10
87.97427014542923
 20
734.0295411922232
 30
0.0
  0
SPLINE
  5
DF
330
7B
100
AcDbEntity
  8
0
  6
Continuous
 62
     0
370
    30
100
AcDbSpline
210
0.0
220
0.0
230
1.0
 70
     8
 71
     3
 72
    33
 73
    29
 74
     0
 42
0.000000001
 43
0.0
 40
0.0
 40
0.0
 40
0.0
 40
0.0
 40
0.1306537800052167
 40
0.2581966716604603
 40
0.3881871851662422
 40
0.4546944769091475
 40
0.6816244822014548
 40
0.8763711781741125
 40
1.0604229266226
 40
1.248308546162646
 40
1.445580647173872
 40
1.650976994019696
 40
1.859151400398541
 40
2.052407825186364
 40
2.258008685772062
 40
2.465168329214263
 40
2.667129455065446
 40
2.864572477587778
 40
3.06994148018528
 40
3.307898940208455
 40
3.407235802777532
 40
3.494877004289797
 40
3.642573679741445
 40
3.765374026350222
 40
3.872401769342473
 40
3.966131038921321
 40
4.043247619435543
 40
4.096606172608644
 40
4.096606172608644
 40
4.096606172608644
 40
4.096606172608644
 10
87.97427014542923
 20
734.0295411922232
 30
0.0
 10
87.9439618873959
 20
733.99826625429
 30
0.0
 10
87.87475357870748
 20
733.9447288249736
 30
0.0
 10
87.753405402863
 20
733.896270243496
 30
0.0
 10
87.64601632403523
 20
733.8790859065776
 30
0.0
 10
87.50500435803843
 20
733.8741690242153
 30
0.0
 10
87.3407701756225
 20
733.8929093684119
 30
0.0
 10
87.15457113197986
 20
733.9806228132871
 30
0.0
 10
87.01859413815806
 20
734.1163782386674
 30
0.0
 10
86.92639227010181
 20
734.284322817379
 30
0.0
 10
86.86876512595094
 20
734.4735668939254
 30
0.0
 10
86.8386670976262
 20
734.6754767563644
 30
0.0
 10
86.83039942986284
 20
734.877856664388
 30
0.0
 10
86.83815945568148
 20
735.0802548399947
 30
0.0
 10
86.86501207582577
 20
735.2808824067025
 30
0.0
 10
86.9185158922683
 20
735.4795061944703
 30
0.0
 10
87.00682456747887
 20
735.6631891109604
 30
0.0
 10
87.1411412135603
 20
735.8179476778553
 30
0.0
 10
87.33285361045705
 20
735.9228828727971
 30
0.0
 10
87.51583419279665
 20
735.9464845943314
 30
0.0
 10
87.65738751272389
 20
735.9393593574421
 30
0.0
 10
87.7676566367292
 20
735.9211659250043
 30
0.0
 10
87.88141993553585
 20
735.8797767144454
 30
0.0
 10
87.98334906922584
 20
735.8029268196292
 30
0.0
 10
88.04887646322625
 20
735.7157901985559
 30
0.0
 10
88.08705867830213
 20
735.6308083326157
 30
0.0
 10
88.1067451558387
 20
735.5584818180109
 30
0.0
 10
88.113742773122
 20
735.5155369373332
 30
0.0
 10
88.1165871338105
 20
735.4979796605664
 30
0.0
  0
SPLINE
  5
E0
330
7B
100
AcDbEntity
  8
0
  6
Continuous
 62
     0
370
    30
100
AcDbSpline
210
0.0
220
0.0
230
1.0
 70
     8
 71
     3
 72
    34
 73
    30
 74
     0
 42
0.000000001
 43
0.0
 40
0.0
 40
0.0
 40
0.0
 40
0.0
 40
0.2287597908215512
 40
0.4273049203188516
 40
0.6115138486222763
 40
0.7910936764690966
 40
1.141136945726561
 40
1.304169985160718
 40
1.657197080711983
 40
1.957477171888257
 40
2.234252382997649
 40
2.505278170316048
 40
2.775098764739764
 40
3.038345096562214
 40
3.283614222187972
 40
3.512282735173278
 40
3.761849059225517
 40
4.01997543935409
 40
4.280543110083972
 40
4.547784551206332
 40
4.839845586741136
 40
5.186848012761271
 40
5.376503596133644
 40
5.565440562492566
 40
5.751059894795235
 40
5.932883240971289
 40
6.11370144565619
 40
6.300537049450704
 40
6.504515650176997
 40
6.504515650176997
 40
6.504515650176997
 40
6.504515650176997
 10
90.72614533251406
 20
735.4979796605446
 30
0.0
 10
90.72012286987766
 20
735.5739947258576
 30
0.0
 10
90.69287974816157
 20
735.7158707058766
 30
0.0
 10
90.59730431657877
 20
735.8992136852587
 30
0.0
 10
90.46440550218195
 20
736.0348837311055
 30
0.0
 10
90.25893237415218
 20
736.158504986459
 30
0.0
 10
90.03047199317972
 20
736.2168341660931
 30
0.0
 10
89.74235135540266
 20
736.2334460268763
 30
0.0
 10
89.46791136885176
 20
736.2019126312734
 30
0.0
 10
89.180664490931
 20
736.0716953745147
 30
0.0
 10
88.97075422461596
 20
735.8758198657025
 30
0.0
 10
88.82786699909283
 20
735.640706599212
 30
0.0
 10
88.73849486550493
 20
735.3864965574921
 30
0.0
 10
88.6915830847863
 20
735.130496089967
 30
0.0
 10
88.67747304672955
 20
734.8846341598061
 30
0.0
 10
88.69023835313203
 20
734.6433614693292
 30
0.0
 10
88.73178452177808
 20
734.4007213511613
 30
0.0
 10
88.8135165406344
 20
734.1566163096384
 30
0.0
 10
88.9474967204344
 20
733.9285430668674
 30
0.0
 10
89.14859800718835
 20
733.7369935625146
 30
0.0
 10
89.42839886224235
 20
733.6092158608034
 30
0.0
 10
89.70683144950304
 20
733.577621462608
 30
0.0
 10
89.94859586703147
 20
733.5936190942919
 30
0.0
 10
90.13326087495798
 20
733.633270548058
 30
0.0
 10
90.30673952995562
 20
733.701487104378
 30
0.0
 10
90.46182462848935
 20
733.8007640734912
 30
0.0
 10
90.59038396650371
 20
733.9339701230379
 30
0.0
 10
90.68279609478087
 20
734.1032762251015
 30
0.0
 10
90.71195987954339
 20
734.2320906653217
 30
0.0
 10
90.71911733308796
 20
734.2997057583796
 30
0.0
  0
LINE
  5
E1
330
7B
100
AcDbEntity
  8
0
  6
Continuous
 62
     0
370
    30
100
AcDbLine
 10
90.719117
 20
734.299706
 30
0.0
 11
90.32803
 21
734.299706
 31
0.0
  0
SPLINE
  5
E2
330
7B
100
AcDbEntity
  8
0
  6
Continuous
 62
     0
370
    30
100
AcDbSpline
210
0.0
220
0.0
230
1.0
 70
     8
 71
     3
 72
    10
 73
     6
 74
     0
 42
0.000000001
 43
0.0
 40
0.0
 40
0.0
 40
0.0
 40
0.0
 40
0.076530014112297
 40
0.1780463896690139
 40
0.3014382732618989
 40
0.3014382732618989
 40
0.3014382732618989
 40
0.3014382732618989
 10
90.32802983560727
 20
734.2997057583796
 30
0.0
 10
90.32355732351702
 20
734.2745908827956
 30
0.0
 10
90.31159733475856
 20
734.2163464209762
 30
0.0
 10
90.27526106710246
 20
734.1219293123711
 30
0.0
 10
90.23147453386548
 20
734.0596836758316
 30
0.0
 10
90.2034895516577
 20
734.0295411922023
 30
0.0
  0
SPLINE
  5
E3
330
7B
100
AcDbEntity
  8
0
  6
Continuous
 62
     0
370
    30
100
AcDbSpline
210
0.0
220
0.0
230
1.0
 70
     8
 71
     3
 72
    33
 73
    29
 74
     0
 42
0.000000001
 43
0.0
 40
0.0
 40
0.0
 40
0.0
 40
0.0
 40
0.1306537800060091
 40
0.2581966716617574
 40
0.3881871851676701
 40
0.4546944769105329
 40
0.6816244822027069
 40
0.8763711781752095
 40
1.060422926623684
 40
1.248308546163728
 40
1.445580647174942
 40
1.650976994020606
 40
1.859151400399191
 40
2.052407825187326
 40
2.258008685773262
 40
2.465168329215519
 40
2.667129455066722
 40
2.864572477589088
 40
3.069941480186741
 40
3.307898940210308
 40
3.407235802779445
 40
3.494877004291757
 40
3.642573679743315
 40
3.765374026351944
 40
3.872401769344218
 40
3.966131038923169
 40
4.043247619437566
 40
4.096606172610939
 40
4.096606172610939
 40
4.096606172610939
 40
4.096606172610939
 10
90.2034895516577
 20
734.0295411922023
 30
0.0
 10
90.1731812936242
 20
733.9982662542689
 30
0.0
 10
90.10397298493552
 20
733.9447288249522
 30
0.0
 10
89.98262480909061
 20
733.8962702434742
 30
0.0
 10
89.87523573026265
 20
733.8790859065559
 30
0.0
 10
89.73422376426588
 20
733.8741690241936
 30
0.0
 10
89.56998958185004
 20
733.8929093683901
 30
0.0
 10
89.38379053820756
 20
733.9806228132654
 30
0.0
 10
89.24781354438598
 20
734.116378238646
 30
0.0
 10
89.1556116763299
 20
734.2843228173576
 30
0.0
 10
89.09798453217917
 20
734.473566893904
 30
0.0
 10
89.06788650385452
 20
734.6754767563427
 30
0.0
 10
89.05961883609129
 20
734.8778566643665
 30
0.0
 10
89.0673788619099
 20
735.0802548399732
 30
0.0
 10
89.09423148205413
 20
735.2808824066813
 30
0.0
 10
89.14773529849624
 20
735.4795061944492
 30
0.0
 10
89.23604397370677
 20
735.6631891109394
 30
0.0
 10
89.37036061978814
 20
735.8179476778346
 30
0.0
 10
89.56207301668515
 20
735.9228828727762
 30
0.0
 10
89.74505359902496
 20
735.9464845943105
 30
0.0
 10
89.88660691895235
 20
735.9393593574212
 30
0.0
 10
89.99687604295765
 20
735.9211659249831
 30
0.0
 10
90.11063934176427
 20
735.8797767144245
 30
0.0
 10
90.21256847545413
 20
735.8029268196083
 30
0.0
 10
90.27809586945442
 20
735.7157901985347
 30
0.0
 10
90.31627808453013
 20
735.6308083325946
 30
0.0
 10
90.33596456206644
 20
735.5584818179893
 30
0.0
 10
90.34296217934951
 20
735.5155369373115
 30
0.0
 10
90.3458065400378
 20
735.4979796605446
 30
0.0
  0
LINE
  5
E4
330
7B
100
AcDbEntity
  8
0
  6
Continuous
 62
     0
370
    30
100
AcDbLine
 10
90.345807
 20
735.49798
 30
0.0
 11
90.726145
 21
735.49798
 31
0.0
  0
LINE
  5
E5
330
7B
100
AcDbEntity
  8
0
  6
Continuous
 62
     0
370
    30
100
AcDbLine
 10
90.95697
 20
733.624263
 30
0.0
 11
91.312504
 21
733.624263
 31
0.0
  0
LINE
  5
E6
330
7B
100
AcDbEntity
  8
0
  6
Continuous
 62
     0
370
    30
100
AcDbLine
 10
91.312504
 20
733.624263
 30
0.0
 11
91.312504
 21
734.783469
 31
0.0
  0
LINE
  5
E7
330
7B
100
AcDbEntity
  8
0
  6
Continuous
 62
     0
370
    30
100
AcDbLine
 10
91.312504
 20
734.783469
 30
0.0
 11
92.532069
 21
734.783469
 31
0.0
  0
LINE
  5
E8
330
7B
100
AcDbEntity
  8
0
  6
Continuous
 62
     0
370
    30
100
AcDbLine
 10
92.532069
 20
734.783469
 30
0.0
 11
92.532069
 21
733.624263
 31
0.0
  0
LINE
  5
E9
330
7B
100
AcDbEntity
  8
0
  6
Continuous
 62
     0
370
    30
100
AcDbLine
 10
92.532069
 20
733.624263
 30
0.0
 11
92.887499
 21
733.624263
 31
0.0
  0
LINE
  5
EA
330
7B
100
AcDbEntity
  8
0
  6
Continuous
 62
     0
370
    30
100
AcDbLine
 10
92.887499
 20
733.624263
 30
0.0
 11
92.887499
 21
736.191343
 31
0.0
  0
LINE
  5
EB
330
7B
100
AcDbEntity
  8
0
  6
Continuous
 62
     0
370
    30
100
AcDbLine
 10
92.887499
 20
736.191343
 30
0.0
 11
92.532069
 21
736.191343
 31
0.0
  0
LINE
  5
EC
330
7B
100
AcDbEntity
  8
0
  6
Continuous
 62
     0
370
    30
100
AcDbLine
 10
92.532069
 20
736.191343
 30
0.0
 11
92.532069
 21
735.089187
 31
0.0
  0
LINE
  5
ED
330
7B
100
AcDbEntity
  8
0
  6
Continuous
 62
     0
370
    30
100
AcDbLine
 10
92.532069
 20
735.089187
 30
0.0
 11
91.312504
 21
735.089187
 31
0.0
  0
LINE
  5
EE
330
7B
100
AcDbEntity
  8
0
  6
Continuous
 62
     0
370
    30
100
AcDbLine
 10
91.312504
 20
735.089187
 30
0.0
 11
91.312504
 21
736.191343
 31
0.0
  0
LINE
  5
EF
330
7B
100
AcDbEntity
  8
0
  6
Continuous
 62
     0
370
    30
100
AcDbLine
 10
91.312504
 20
736.191343
 30
0.0
 11
90.95697
 21
736.191343
 31
0.0
  0
LINE
  5
F0
330
7B
100
AcDbEntity
  8
0
  6
Continuous
 62
     0
370
    30
100
AcDbLine
 10
90.95697
 20
736.191343
 30
0.0
 11
90.95697
 21
733.624263
 31
0.0
  0
LINE
  5
F1
330
7B
100
AcDbEntity
  8
0
  6
Continuous
 62
     0
370
    30
100
AcDbLine
 10
93.196835
 20
736.191343
 30
0.0
 11
93.196835
 21
733.624263
 31
0.0
  0
LINE
  5
F2
330
7B
100
AcDbEntity
  8
0
  6
Continuous
 62
     0
370
    30
100
AcDbLine
 10
93.196835
 20
733.624263
 30
0.0
 11
94.835805
 21
733.624263
 31
0.0
  0
LINE
  5
F3
330
7B
100
AcDbEntity
  8
0
  6
Continuous
 62
     0
370
    30
100
AcDbLine
 10
94.835805
 20
733.624263
 30
0.0
 11
94.835805
 21
733.937216
 31
0.0
  0
LINE
  5
F4
330
7B
100
AcDbEntity
  8
0
  6
Continuous
 62
     0
370
    30
100
AcDbLine
 10
94.835805
 20
733.937216
 30
0.0
 11
93.552369
 21
733.937216
 31
0.0
  0
LINE
  5
F5
330
7B
100
AcDbEntity
  8
0
  6
Continuous
 62
     0
370
    30
100
AcDbLine
 10
93.552369
 20
733.937216
 30
0.0
 11
93.552369
 21
734.783469
 31
0.0
  0
LINE
  5
F6
330
7B
100
AcDbEntity
  8
0
  6
Continuous
 62
     0
370
    30
100
AcDbLine
 10
93.552369
 20
734.783469
 30
0.0
 11
94.747025
 21
734.783469
 31
0.0
  0
LINE
  5
F7
330
7B
100
AcDbEntity
  8
0
  6
Continuous
 62
     0
370
    30
100
AcDbLine
 10
94.747025
 20
734.783469
 30
0.0
 11
94.747025
 21
735.089187
 31
0.0
  0
LINE
  5
F8
330
7B
100
AcDbEntity
  8
0
  6
Continuous
 62
     0
370
    30
100
AcDbLine
 10
94.747025
 20
735.089187
 30
0.0
 11
93.552369
 21
735.089187
 31
0.0
  0
LINE
  5
F9
330
7B
100
AcDbEntity
  8
0
  6
Continuous
 62
     0
370
    30
100
AcDbLine
 10
93.552369
 20
735.089187
 30
0.0
 11
93.552369
 21
735.878184
 31
0.0
  0
LINE
  5
FA
330
7B
100
AcDbEntity
  8
0
  6
Continuous
 62
     0
370
    30
100
AcDbLine
 10
93.552369
 20
735.878184
 30
0.0
 11
95.891762
 21
735.878184
 31
0.0
  0
LINE
  5
FB
330
7B
100
AcDbEntity
  8
0
  6
Continuous
 62
     0
370
    30
100
AcDbLine
 10
95.891762
 20
735.878184
 30
0.0
 11
95.891762
 21
733.624263
 31
0.0
  0
LINE
  5
FC
330
7B
100
AcDbEntity
  8
0
  6
Continuous
 62
     0
370
    30
100
AcDbLine
 10
95.891762
 20
733.624263
 30
0.0
 11
96.243576
 21
733.624263
 31
0.0
  0
LINE
  5
FD
330
7B
100
AcDbEntity
  8
0
  6
Continuous
 62
     0
370
    30
100
AcDbLine
 10
96.243576
 20
733.624263
 30
0.0
 11
96.243576
 21
735.878184
 31
0.0
  0
LINE
  5
FE
330
7B
100
AcDbEntity
  8
0
  6
Continuous
 62
     0
370
    30
100
AcDbLine
 10
96.243576
 20
735.878184
 30
0.0
 11
97.468618
 21
735.878184
 31
0.0
  0
LINE
  5
FF
330
7B
100
AcDbEntity
  8
0
  6
Continuous
 62
     0
370
    30
100
AcDbLine
 10
97.468618
 20
735.878184
 30
0.0
 11
97.468618
 21
733.624263
 31
0.0
  0
LINE
  5
100
330
7B
100
AcDbEntity
  8
0
  6
Continuous
 62
     0
370
    30
100
AcDbLine
 10
97.468618
 20
733.624263
 30
0.0
 11
97.820535
 21
733.624263
 31
0.0
  0
LINE
  5
101
330
7B
100
AcDbEntity
  8
0
  6
Continuous
 62
     0
370
    30
100
AcDbLine
 10
97.820535
 20
733.624263
 30
0.0
 11
97.820535
 21
735.878184
 31
0.0
  0
LINE
  5
102
330
7B
100
AcDbEntity
  8
0
  6
Continuous
 62
     0
370
    30
100
AcDbLine
 10
97.820535
 20
735.878184
 30
0.0
 11
98.680948
 21
735.878184
 31
0.0
  0
LINE
  5
103
330
7B
100
AcDbEntity
  8
0
  6
Continuous
 62
     0
370
    30
100
AcDbLine
 10
98.680948
 20
735.878184
 30
0.0
 11
98.680948
 21
736.191343
 31
0.0
  0
LINE
  5
104
330
7B
100
AcDbEntity
  8
0
  6
Continuous
 62
     0
370
    30
100
AcDbLine
 10
98.680948
 20
736.191343
 30
0.0
 11
93.196835
 21
736.191343
 31
0.0
  0
LINE
  5
105
330
7B
100
AcDbEntity
  8
0
  6
Continuous
 62
     0
370
    30
100
AcDbLine
 10
99.303133
 20
736.191343
 30
0.0
 11
98.947495
 21
736.191343
 31
0.0
  0
LINE
  5
106
330
7B
100
AcDbEntity
  8
0
  6
Continuous
 62
     0
370
    30
100
AcDbLine
 10
98.947495
 20
736.191343
 30
0.0
 11
98.947495
 21
733.624263
 31
0.0
  0
LINE
  5
107
330
7B
100
AcDbEntity
  8
0
  6
Continuous
 62
     0
370
    30
100
AcDbLine
 10
98.947495
 20
733.624263
 30
0.0
 11
99.303133
 21
733.624263
 31
0.0
  0
LINE
  5
108
330
7B
100
AcDbEntity
  8
0
  6
Continuous
 62
     0
370
    30
100
AcDbLine
 10
99.303133
 20
733.624263
 30
0.0
 11
99.303133
 21
736.191343
 31
0.0
  0
LINE
  5
109
330
7B
100
AcDbEntity
  8
0
  6
Continuous
 62
     0
370
    30
100
AcDbLine
 10
99.793133
 20
734.299778
 30
0.0
 11
99.793133
 21
733.624263
 31
0.0
  0
LINE
  5
10A
330
7B
100
AcDbEntity
  8
0
  6
Continuous
 62
     0
370
    30
100
AcDbLine
 10
99.793133
 20
733.624263
 30
0.0
 11
100.150424
 21
733.624263
 31
0.0
  0
LINE
  5
10B
330
7B
100
AcDbEntity
  8
0
  6
Continuous
 62
     0
370
    30
100
AcDbLine
 10
100.150424
 20
733.624263
 30
0.0
 11
100.150424
 21
734.299778
 31
0.0
  0
LINE
  5
10C
330
7B
100
AcDbEntity
  8
0
  6
Continuous
 62
     0
370
    30
100
AcDbLine
 10
100.150424
 20
734.299778
 30
0.0
 11
99.793133
 21
734.299778
 31
0.0
  0
LINE
  5
10D
330
7B
100
AcDbEntity
  8
0
  6
Continuous
 62
     0
370
    30
100
AcDbLine
 10
98.454887
 20
1263.124262
 30
0.0
 11
98.454887
 21
1243.195569
 31
0.0
  0
LINE
  5
10E
330
7B
100
AcDbEntity
  8
0
  6
Continuous
 62
     0
370
    30
100
AcDbLine
 10
84.454887
 20
1264.124272
 30
0.0
 11
97.454887
 21
1264.124272
 31
0.0
  0
ARC
  5
10F
330
7B
100
AcDbEntity
  8
0
  6
Continuous
 62
     0
370
    30
100
AcDbCircle
 10
97.454887
 20
1263.124262
 30
0.0
 40
1.0
100
AcDbArc
 50
0.0
 51
90.0
  0
ELLIPSE
  5
110
330
7B
100
AcDbEntity
  8
0
  6
Continuous
 62
     0
370
     0
100
AcDbEllipse
 10
97.454887
 20
1263.124262
 30
0.0
 11
-5.455482895975850E-9
 21
1.0
 31
0.0
210
0.0
220
0.0
230
-1.0
 40
0.008135
 41
0.0000000131552246
 42
1.570796339950099
  0
LINE
  5
111
330
7B
100
AcDbEntity
  8
0
  6
Continuous
 62
     0
370
     0
100
AcDbLine
 10
97.463022
 20
1263.124262
 30
0.0
 11
98.454887
 21
1263.124262
 31
0.0
  0
LINE
  5
112
330
7B
100
AcDbEntity
  8
0
  6
Continuous
 62
     0
370
     0
100
AcDbLine
 10
97.463022
 20
1243.195569
 30
0.0
 11
97.463022
 21
1263.124262
 31
0.0
  0
LINE
  5
113
330
7B
100
AcDbEntity
  8
0
  6
Continuous
 62
     0
370
     0
100
AcDbLine
 10
98.454887
 20
1243.195569
 30
0.0
 11
97.463022
 21
1243.195569
 31
0.0
  0
ELLIPSE
  5
114
330
7B
100
AcDbEntity
  8
0
  6
Continuous
 62
     0
370
     0
100
AcDbEllipse
 10
84.454887
 20
1263.124262
 30
0.0
 11
-5.241441790529604E-9
 21
1.0
 31
0.0
210
0.0
220
0.0
230
1.0
 40
0.008135
 41
0.0000000131553666
 42
1.570796339950105
  0
LINE
  5
115
330
7B
100
AcDbEntity
  8
0
  6
Continuous
 62
     0
370
     0
100
AcDbLine
 10
84.446752
 20
1263.124272
 30
0.0
 11
97.463022
 21
1263.124272
 31
0.0
  0
SPLINE
  5
116
330
7B
100
AcDbEntity
  8
0
  6
Continuous
 62
     0
370
     0
100
AcDbSpline
210
0.0
220
0.0
230
1.0
 70
     8
 71
     3
 72
    35
 73
    31
 74
     0
 42
0.000000001
 43
0.0
 40
0.0
 40
0.0
 40
0.0
 40
0.0
 40
3.441841583726196
 40
6.882852512287542
 40
10.32313745608452
 40
13.76274326813163
 40
17.20191509642661
 40
20.64091833848999
 40
24.08005407847496
 40
27.51961152377153
 40
30.95977415881266
 40
34.40069259768726
 40
37.84244099084142
 40
41.28489904790865
 40
44.72789785151544
 40
48.17118409310791
 40
51.61446761388595
 40
55.05746120483947
 40
58.49991683290023
 40
61.94165561409899
 40
65.38259805037585
 40
68.8227877374384
 40
72.2623444788822
 40
75.70149456209353
 40
79.14051121566767
 40
82.5796941974748
 40
86.01931942319722
 40
89.45958122423195
 40
92.90057834620418
 40
96.34243528771583
 40
96.34243528771583
 40
96.34243528771583
 40
96.34243528771583
 10
81.50429828947544
 20
1238.035248944639
 30
0.0
 10
80.51730577074737
 20
1237.450473421305
 30
0.0
 10
78.64816747886712
 20
1236.093453086436
 30
0.0
 10
76.27247413087738
 20
1233.578258296483
 30
0.0
 10
74.40357751944225
 20
1230.666039908878
 30
0.0
 10
73.1065824385364
 20
1227.458909552385
 30
0.0
 10
72.42635905134519
 20
1224.067226135646
 30
0.0
 10
72.38640940179567
 20
1220.608372106982
 30
0.0
 10
72.98821035317744
 20
1217.201946582867
 30
0.0
 10
74.21075498324794
 20
1213.965662298892
 30
0.0
 10
76.01222448101957
 20
1211.011671507512
 30
0.0
 10
78.32941559345507
 20
1208.441353355744
 30
0.0
 10
81.08308276885619
 20
1206.344027741595
 30
0.0
 10
84.17780213064309
 20
1204.791866501218
 30
0.0
 10
87.50675382337859
 20
1203.838570355809
 30
0.0
 10
90.95488816033115
 20
1203.517105828455
 30
0.0
 10
94.40301994182335
 20
1203.838579364012
 30
0.0
 10
97.73196736066593
 20
1204.791864689817
 30
0.0
 10
100.8267021416168
 20
1206.343997444001
 30
0.0
 10
103.5803403703973
 20
1208.441340851262
 30
0.0
 10
105.8977501708726
 20
1211.011499941615
 30
0.0
 10
107.698977334934
 20
1213.965667759387
 30
0.0
 10
108.9216241618672
 20
1217.20190958422
 30
0.0
 10
109.5234122330089
 20
1220.608355087096
 30
0.0
 10
109.4834840794127
 20
1224.067222508139
 30
0.0
 10
108.8032299012091
 20
1227.458908462216
 30
0.0
 10
107.5062429953921
 20
1230.666072151653
 30
0.0
 10
105.6370489763422
 20
1233.578055700679
 30
0.0
 10
103.2617721614381
 20
1236.093631435952
 30
0.0
 10
101.3924727109254
 20
1237.450470923638
 30
0.0
 10
100.4054757817489
 20
1238.035249045731
 30
0.0
  0
ARC
  5
117
330
7B
100
AcDbEntity
  8
0
  6
Continuous
 62
     0
370
     0
100
AcDbCircle
 10
103.460733
 20
1243.196445
 30
0.0
 40
5.997710869424138
100
AcDbArc
 50
180.008362
 51
239.375869
  0
LINE
  5
118
330
7B
100
AcDbEntity
  8
0
  6
Continuous
 62
     0
370
     0
100
AcDbLine
 10
84.446752
 20
1263.124262
 30
0.0
 11
84.446752
 21
1243.195569
 31
0.0
  0
ARC
  5
119
330
7B
100
AcDbEntity
  8
0
  6
Continuous
 62
     0
370
     0
100
AcDbCircle
 10
78.449041
 20
1243.196444
 30
0.0
 40
5.997710779297047
100
AcDbArc
 50
300.624131
 51
359.991639
  0
LINE
  5
11A
330
7B
100
AcDbEntity
  8
0
  6
Continuous
 62
     0
370
     0
100
AcDbLine
 10
84.446752
 20
1263.124262
 30
0.0
 11
83.454887
 21
1263.124262
 31
0.0
  0
LINE
  5
11B
330
7B
100
AcDbEntity
  8
0
  6
Continuous
 62
     0
370
    30
100
AcDbLine
 10
83.454887
 20
1263.124262
 30
0.0
 11
83.454887
 21
1243.195569
 31
0.0
  0
LINE
  5
11C
330
7B
100
AcDbEntity
  8
0
  6
Continuous
 62
     0
370
     0
100
AcDbLine
 10
83.454887
 20
1243.195569
 30
0.0
 11
84.446752
 21
1243.195569
 31
0.0
  0
ARC
  5
11D
330
7B
100
AcDbEntity
  8
0
  6
Continuous
 62
     0
370
    30
100
AcDbCircle
 10
84.454887
 20
1263.124262
 30
0.0
 40
1.0
100
AcDbArc
 50
90.0
 51
180.0
  0
ARC
  5
11E
330
7B
100
AcDbEntity
  8
0
  6
Continuous
 62
     0
370
    30
100
AcDbCircle
 10
90.954887
 20
1222.124262
 30
0.0
 40
19.50000000033885
100
AcDbArc
 50
120.677425
 51
59.322576
  0
ARC
  5
11F
330
7B
100
AcDbEntity
  8
0
  6
Continuous
 62
     0
370
    30
100
AcDbCircle
 10
103.453849
 20
1243.194978
 30
0.0
 40
4.998962280333055
100
AcDbArc
 50
179.993227
 51
239.32935
  0
ELLIPSE
  5
120
330
7B
100
AcDbEntity
  8
0
  6
Continuous
 62
     0
370
     0
100
AcDbEllipse
 10
100.393663
 20
1238.035249
 30
0.0
 11
0.5102040769052009
 21
0.8600533703843072
 31
0.0
210
0.0
220
0.0
230
-1.0
 40
0.01016
 41
0.0000000145920331
 42
1.564769143704885
  0
ARC
  5
121
330
7B
100
AcDbEntity
  8
0
  6
Continuous
 62
     0
370
    30
100
AcDbCircle
 10
78.455925
 20
1243.194978
 30
0.0
 40
4.998962282315711
100
AcDbArc
 50
300.670651
 51
0.006774
  0
ELLIPSE
  5
122
330
7B
100
AcDbEntity
  8
0
  6
Continuous
 62
     0
370
     0
100
AcDbEllipse
 10
81.516112
 20
1238.035249
 30
0.0
 11
0.5102040861623904
 21
-0.8600533648926791
 31
0.0
210
0.0
220
0.0
230
-1.0
 40
0.01016
 41
1.576823516439759
 42
3.141592645552502
  0
ARC
  5
123
330
7B
100
AcDbEntity
  8
0
  6
Continuous
 62
     0
370
    30
100
AcDbCircle
 10
90.95697
 20
1256.124263
 30
0.0
 40
40.0
100
AcDbArc
 50
0.0
 51
90.0
  0
ARC
  5
124
330
7B
100
AcDbEntity
  8
0
  6
Continuous
 62
     0
370
    30
100
AcDbCircle
 10
90.95697
 20
1256.124263
 30
0.0
 40
39.99999999999999
100
AcDbArc
 50
90.0
 51
180.0
  0
ARC
  5
125
330
7B
100
AcDbEntity
  8
0
  6
Continuous
 62
     0
370
    30
100
AcDbCircle
 10
90.95697
 20
768.124263
 30
0.0
 40
40.0
100
AcDbArc
 50
180.0
 51
270.0
  0
ARC
  5
126
330
7B
100
AcDbEntity
  8
0
  6
Continuous
 62
     0
370
    30
100
AcDbCircle
 10
90.95697
 20
768.124263
 30
0.0
 40
40.0
100
AcDbArc
 50
270.0
 51
360.0
  0
LINE
  5
127
330
7B
100
AcDbEntity
  8
0
  6
Continuous
 62
     0
370
    30
100
AcDbLine
 10
50.95697
 20
768.124263
 30
0.0
 11
50.95697
 21
1256.124263
 31
0.0
  0
LINE
  5
128
330
7B
100
AcDbEntity
  8
0
  6
Continuous
 62
     0
370
    30
100
AcDbLine
 10
130.95697
 20
1256.124263
 30
0.0
 11
130.95697
 21
768.124263
 31
0.0
  0
ENDBLK
  5
12A
330
7B
100
AcDbEntity
  8
0
100
AcDbBlockEnd
  0
BLOCK
  5
17E
330
12C
100
AcDbEntity
  8
0
100
AcDbBlockBegin
  2
b
 70
     0
 10
23.378845
 20
556.071266
 30
0.0
  3
b
  1

  0
ARC
  5
12D
330
12C
100
AcDbEntity
  8
0
  6
Continuous
 62
     0
370
    30
100
AcDbCircle
 10
90.95697
 20
542.050537
 30
0.0
 40
3.950000000000017
100
AcDbArc
 50
196.789728
 51
343.21057
  0
LINE
  5
12E
330
12C
100
AcDbEntity
  8
0
  6
Continuous
 62
     0
370
    30
100
AcDbLine
 10
112.95697
 20
533.550539
 30
0.0
 11
68.95697
 21
533.550539
 31
0.0
  0
LINE
  5
12F
330
12C
100
AcDbEntity
  8
0
  6
Continuous
 62
     0
370
    30
100
AcDbLine
 10
74.95697
 20
583.050539
 30
0.0
 11
68.95697
 21
583.050539
 31
0.0
  0
LINE
  5
130
330
12C
100
AcDbEntity
  8
0
  6
Continuous
 62
     0
370
    30
100
AcDbLine
 10
112.95697
 20
583.050539
 30
0.0
 11
106.95697
 21
583.050539
 31
0.0
  0
ARC
  5
131
330
12C
100
AcDbEntity
  8
0
  6
Continuous
 62
     0
370
    30
100
AcDbCircle
 10
90.95697
 20
542.050537
 30
0.0
 40
3.450000000000017
100
AcDbArc
 50
199.353457
 51
340.646841
  0
LINE
  5
132
330
12C
100
AcDbEntity
  8
0
  6
Continuous
 62
     0
370
    30
100
AcDbLine
 10
69.45697
 20
533.050539
 30
0.0
 11
112.45697
 21
533.050539
 31
0.0
  0
LINE
  5
133
330
12C
100
AcDbEntity
  8
0
  6
Continuous
 62
     0
370
    30
100
AcDbLine
 10
68.95697
 20
533.550539
 30
0.0
 11
69.45697
 21
533.050539
 31
0.0
  0
LINE
  5
134
330
12C
100
AcDbEntity
  8
0
  6
Continuous
 62
     0
370
    30
100
AcDbLine
 10
112.95697
 20
533.550539
 30
0.0
 11
112.45697
 21
533.050539
 31
0.0
  0
LINE
  5
135
330
12C
100
AcDbEntity
  8
0
  6
Continuous
 62
     0
370
    30
100
AcDbLine
 10
68.95697
 20
583.050539
 30
0.0
 11
68.95697
 21
533.550539
 31
0.0
  0
LINE
  5
136
330
12C
100
AcDbEntity
  8
0
  6
Continuous
 62
     0
370
    30
100
AcDbLine
 10
112.95697
 20
583.050539
 30
0.0
 11
112.95697
 21
533.550539
 31
0.0
  0
LINE
  5
137
330
12C
100
AcDbEntity
  8
0
  6
Continuous
 62
     0
370
    30
100
AcDbLine
 10
69.95697
 20
585.050539
 30
0.0
 11
69.95697
 21
583.050539
 31
0.0
  0
LINE
  5
138
330
12C
100
AcDbEntity
  8
0
  6
Continuous
 62
     0
370
    30
100
AcDbLine
 10
111.95697
 20
585.050539
 30
0.0
 11
111.95697
 21
583.050539
 31
0.0
  0
LINE
  5
139
330
12C
100
AcDbEntity
  8
0
  6
Continuous
 62
     0
370
     0
100
AcDbLine
 10
108.45697
 20
584.137162
 30
0.0
 11
73.45697
 21
584.137162
 31
0.0
  0
LINE
  5
13A
330
12C
100
AcDbEntity
  8
0
  6
Continuous
 62
     0
370
     0
100
AcDbLine
 10
108.161944
 20
583.837199
 30
0.0
 11
73.751995
 21
583.837199
 31
0.0
  0
LINE
  5
13B
330
12C
100
AcDbEntity
  8
0
  6
Continuous
 62
     0
370
    30
100
AcDbLine
 10
106.956884
 20
583.817124
 30
0.0
 11
74.957056
 21
583.817124
 31
0.0
  0
LINE
  5
13C
330
12C
100
AcDbEntity
  8
0
  6
Continuous
 62
     0
370
    30
100
AcDbLine
 10
98.454887
 20
544.423115
 30
0.0
 11
98.454887
 21
543.900594
 31
0.0
  0
LINE
  5
13D
330
12C
100
AcDbEntity
  8
0
  6
Continuous
 62
     0
370
    30
100
AcDbLine
 10
98.454887
 20
543.900593
 30
0.0
 11
98.454887
 21
541.927032
 31
0.0
  0
LINE
  5
13E
330
12C
100
AcDbEntity
  8
0
  6
Continuous
 62
     0
370
     0
100
AcDbLine
 10
97.454887
 20
541.927032
 30
0.0
 11
97.454887
 21
543.900593
 31
0.0
  0
LINE
  5
13F
330
12C
100
AcDbEntity
  8
0
  6
Continuous
 62
     0
370
     0
100
AcDbLine
 10
97.454887
 20
543.900593
 30
0.0
 11
84.454887
 21
543.900593
 31
0.0
  0
LINE
  5
140
330
12C
100
AcDbEntity
  8
0
  6
Continuous
 62
     0
370
     0
100
AcDbLine
 10
84.454887
 20
543.900593
 30
0.0
 11
84.454887
 21
541.927032
 31
0.0
  0
ARC
  5
141
330
12C
100
AcDbEntity
  8
0
  6
Continuous
 62
     0
370
     0
100
AcDbCircle
 10
90.954892
 20
1340.900593
 30
0.0
 40
799.0000000000001
100
AcDbArc
 50
269.533884
 51
270.466116
  0
LINE
  5
142
330
12C
100
AcDbEntity
  8
0
  6
Continuous
 62
     0
370
     0
100
AcDbLine
 10
98.454887
 20
541.927032
 30
0.0
 11
97.454887
 21
541.927032
 31
0.0
  0
LINE
  5
143
330
12C
100
AcDbEntity
  8
0
  6
Continuous
 62
     0
370
     0
100
AcDbLine
 10
97.454887
 20
543.900593
 30
0.0
 11
98.454887
 21
543.900593
 31
0.0
  0
LINE
  5
144
330
12C
100
AcDbEntity
  8
0
  6
Continuous
 62
     0
370
     0
100
AcDbLine
 10
97.454887
 20
541.927032
 30
0.0
 11
97.463022
 21
540.927065
 31
0.0
  0
ARC
  5
145
330
12C
100
AcDbEntity
  8
0
  6
Continuous
 62
     0
370
    30
100
AcDbCircle
 10
97.454887
 20
541.927032
 30
0.0
 40
1.0
100
AcDbArc
 50
270.466116
 51
360.0
  0
LINE
  5
146
330
12C
100
AcDbEntity
  8
0
  6
Continuous
 62
     0
370
     0
100
AcDbLine
 10
84.454887
 20
541.927032
 30
0.0
 11
84.446752
 21
540.927065
 31
0.0
  0
ARC
  5
147
330
12C
100
AcDbEntity
  8
0
  6
Continuous
 62
     0
370
    30
100
AcDbCircle
 10
90.954892
 20
1340.900593
 30
0.0
 40
800.0
100
AcDbArc
 50
269.533884
 51
270.466116
  0
ARC
  5
148
330
12C
100
AcDbEntity
  8
0
  6
Continuous
 62
     0
370
    30
100
AcDbCircle
 10
97.454887
 20
543.900593
 30
0.0
 40
1.0
100
AcDbArc
 50
360.0
 51
90.0
  0
LINE
  5
149
330
12C
100
AcDbEntity
  8
0
  6
Continuous
 62
     0
370
     0
100
AcDbLine
 10
97.454887
 20
544.900593
 30
0.0
 11
97.454887
 21
543.900593
 31
0.0
  0
LINE
  5
14A
330
12C
100
AcDbEntity
  8
0
  6
Continuous
 62
     0
370
    30
100
AcDbLine
 10
97.454887
 20
544.900593
 30
0.0
 11
84.454887
 21
544.900593
 31
0.0
  0
LINE
  5
14B
330
12C
100
AcDbEntity
  8
0
  6
Continuous
 62
     0
370
     0
100
AcDbLine
 10
84.454887
 20
544.900593
 30
0.0
 11
84.454887
 21
543.900593
 31
0.0
  0
ARC
  5
14C
330
12C
100
AcDbEntity
  8
0
  6
Continuous
 62
     0
370
    30
100
AcDbCircle
 10
90.951571
 20
1341.106603
 30
0.0
 40
800.2060342825434
100
AcDbArc
 50
270.676927
 51
271.326633
  0
ARC
  5
14D
330
12C
100
AcDbEntity
  8
0
  6
Continuous
 62
     0
370
    30
100
AcDbCircle
 10
90.958122
 20
1341.10132
 30
0.0
 40
800.2007502884533
100
AcDbArc
 50
268.673368
 51
269.323074
  0
ARC
  5
14E
330
12C
100
AcDbEntity
  8
0
  6
Continuous
 62
     0
370
    30
100
AcDbCircle
 10
90.982876
 20
1338.087177
 30
0.0
 40
797.1864490556911
100
AcDbArc
 50
270.465749
 51
270.677242
  0
ARC
  5
14F
330
12C
100
AcDbEntity
  8
0
  6
Continuous
 62
     0
370
    30
100
AcDbCircle
 10
90.926969
 20
1338.09325
 30
0.0
 40
797.1925217445463
100
AcDbArc
 50
269.322759
 51
269.534249
  0
ARC
  5
150
330
12C
100
AcDbEntity
  8
0
  6
Continuous
 62
     0
370
    30
100
AcDbCircle
 10
84.454887
 20
541.927032
 30
0.0
 40
0.9999999999999836
100
AcDbArc
 50
180.0
 51
269.533884
  0
LINE
  5
151
330
12C
100
AcDbEntity
  8
0
  6
Continuous
 62
     0
370
    30
100
AcDbLine
 10
83.454887
 20
544.423115
 30
0.0
 11
83.454887
 21
543.900594
 31
0.0
  0
LINE
  5
152
330
12C
100
AcDbEntity
  8
0
  6
Continuous
 62
     0
370
    30
100
AcDbLine
 10
83.454887
 20
543.900593
 30
0.0
 11
83.454887
 21
541.927032
 31
0.0
  0
ARC
  5
153
330
12C
100
AcDbEntity
  8
0
  6
Continuous
 62
     0
370
    30
100
AcDbCircle
 10
84.454887
 20
543.900593
 30
0.0
 40
1.0
100
AcDbArc
 50
90.0
 51
180.0
  0
LINE
  5
154
330
12C
100
AcDbEntity
  8
0
  6
Continuous
 62
     0
370
     0
100
AcDbLine
 10
83.454887
 20
541.927032
 30
0.0
 11
84.454887
 21
541.927032
 31
0.0
  0
LINE
  5
155
330
12C
100
AcDbEntity
  8
0
  6
Continuous
 62
     0
370
     0
100
AcDbLine
 10
84.454887
 20
543.900593
 30
0.0
 11
83.454887
 21
543.900593
 31
0.0
  0
LINE
  5
156
330
12C
100
AcDbEntity
  8
0
  6
Continuous
 62
     0
370
     0
100
AcDbLine
 10
90.954887
 20
549.900595
 30
0.0
 11
100.903867
 21
549.900595
 31
0.0
  0
LINE
  5
157
330
12C
100
AcDbEntity
  8
0
  6
Continuous
 62
     0
370
     0
100
AcDbLine
 10
100.903867
 20
549.900594
 30
0.0
 11
100.903867
 21
541.956347
 31
0.0
  0
ARC
  5
158
330
12C
100
AcDbEntity
  8
0
  6
Continuous
 62
     0
370
     0
100
AcDbCircle
 10
90.951658
 20
1429.464299
 30
0.0
 40
887.5636782812555
100
AcDbArc
 50
268.741308
 51
269.357949
  0
ARC
  5
159
330
12C
100
AcDbEntity
  8
0
  6
Continuous
 62
     0
370
     0
100
AcDbCircle
 10
90.963236
 20
1429.124666
 30
0.0
 40
887.2240091523299
100
AcDbArc
 50
270.641967
 51
271.258843
  0
LINE
  5
15A
330
12C
100
AcDbEntity
  8
0
  6
Continuous
 62
     0
370
     0
100
AcDbLine
 10
81.005907
 20
541.956347
 30
0.0
 11
81.005907
 21
549.900594
 31
0.0
  0
LINE
  5
15B
330
12C
100
AcDbEntity
  8
0
  6
Continuous
 62
     0
370
     0
100
AcDbLine
 10
81.005907
 20
549.900595
 30
0.0
 11
90.954887
 21
549.900595
 31
0.0
  0
LINE
  5
15C
330
12C
100
AcDbEntity
  8
0
  6
Continuous
 62
     0
370
    30
100
AcDbLine
 10
110.454887
 20
582.900595
 30
0.0
 11
90.954887
 21
582.900595
 31
0.0
  0
LINE
  5
15D
330
12C
100
AcDbEntity
  8
0
  6
Continuous
 62
     0
370
    30
100
AcDbLine
 10
90.954887
 20
582.900595
 30
0.0
 11
71.454887
 21
582.900595
 31
0.0
  0
LINE
  5
15E
330
12C
100
AcDbEntity
  8
0
  6
Continuous
 62
     0
370
     0
100
AcDbLine
 10
90.954887
 20
549.900594
 30
0.0
 11
90.954887
 21
544.900594
 31
0.0
  0
SPLINE
  5
15F
330
12C
100
AcDbEntity
  8
0
  6
Continuous
 62
     0
370
     0
100
AcDbSpline
210
0.0
220
0.0
230
1.0
 70
     8
 71
     3
 72
     8
 73
     4
 74
     0
 42
0.000000001
 43
0.0
 40
0.0
 40
0.0
 40
0.0
 40
0.0
 40
2.207417189781259
 40
2.207417189781259
 40
2.207417189781259
 40
2.207417189781259
 10
97.45488701970514
 20
544.9005935641617
 30
0.0
 10
97.49196092961078
 20
544.9005936057129
 30
0.0
 10
97.53359499807124
 20
545.0520557699613
 30
0.0
 10
97.5751986102671
 20
545.3360278306108
 30
0.0
  0
SPLINE
  5
160
330
12C
100
AcDbEntity
  8
0
  6
Continuous
 62
     0
370
     0
100
AcDbSpline
210
0.0
220
0.0
230
1.0
 70
     8
 71
     3
 72
    14
 73
    10
 74
     0
 42
0.000000001
 43
0.0
 40
0.0
 40
0.0
 40
0.0
 40
0.0
 40
1.021268063453688
 40
2.067961234983266
 40
3.137215120319828
 40
4.224835717853878
 40
5.325938614456973
 40
6.435853999810911
 40
7.550179266023636
 40
7.550179266023636
 40
7.550179266023636
 40
7.550179266023636
 10
97.5751986102671
 20
545.3360278306108
 30
0.0
 10
97.59444664396757
 20
545.4674083407368
 30
0.0
 10
97.70352646547032
 20
545.7829030301268
 30
0.0
 10
98.02032355589645
 20
546.3551208091683
 30
0.0
 10
98.4546980072254
 20
546.9984179059267
 30
0.0
 10
98.9763013599486
 20
547.6893294407503
 30
0.0
 10
99.56554040129079
 20
548.4111780092592
 30
0.0
 10
100.2087590023769
 20
549.1515974248343
 30
0.0
 10
100.6675707904929
 20
549.6506262727892
 30
0.0
 10
100.9038666803012
 20
549.9005939315966
 30
0.0
  0
SPLINE
  5
161
330
12C
100
AcDbEntity
  8
0
  6
Continuous
 62
     0
370
     0
100
AcDbSpline
210
0.0
220
0.0
230
1.0
 70
     8
 71
     3
 72
    14
 73
    10
 74
     0
 42
0.000000001
 43
0.0
 40
0.0
 40
0.0
 40
0.0
 40
0.0
 40
1.111306881563105
 40
2.219857884916669
 40
3.322884962567433
 40
4.416823507814997
 40
5.497282355506054
 40
6.558912704919983
 40
7.596828781826654
 40
7.596828781826654
 40
7.596828781826654
 40
7.596828781826654
 10
100.9038666803012
 20
549.9005939315966
 30
0.0
 10
100.7170078522335
 20
549.6005625750499
 30
0.0
 10
100.3580602002098
 20
549.0008956184345
 30
0.0
 10
99.864539274157
 20
548.1120074124133
 30
0.0
 10
99.42133788825979
 20
547.245258445856
 30
0.0
 10
99.03709023503376
 20
546.4160768612886
 30
0.0
 10
98.72672272588675
 20
545.6443178531448
 30
0.0
 10
98.51257727786366
 20
544.9590956196703
 30
0.0
 10
98.45488703294096
 20
544.5809506288574
 30
0.0
 10
98.45488703028047
 20
544.4231146760094
 30
0.0
  0
ARC
  5
162
330
12C
100
AcDbEntity
  8
0
  6
Continuous
 62
     0
370
     0
100
AcDbCircle
 10
93.058011
 20
1095.116583
 30
0.0
 40
553.2158751360444
100
AcDbArc
 50
270.558956
 51
270.812611
  0
ELLIPSE
  5
163
330
12C
100
AcDbEntity
  8
0
  6
Continuous
 62
     0
370
     0
100
AcDbEllipse
 10
100.393663
 20
541.956347
 30
0.0
 11
-0.01181326319952643
 21
0.9999302209717806
 31
0.0
210
0.0
220
0.0
230
-1.0
 40
0.510178
 41
1.576823590516863
 42
3.14159271962987
  0
ARC
  5
164
330
12C
100
AcDbEntity
  8
0
  6
Continuous
 62
     0
370
     0
100
AcDbCircle
 10
88.842019
 20
1094.301907
 30
0.0
 40
552.4011420865903
100
AcDbArc
 50
269.187201
 51
269.441231
  0
SPLINE
  5
165
330
12C
100
AcDbEntity
  8
0
  6
Continuous
 62
     0
370
     0
100
AcDbSpline
210
0.0
220
0.0
230
1.0
 70
     8
 71
     3
 72
    14
 73
    10
 74
     0
 42
0.000000001
 43
0.0
 40
0.0
 40
0.0
 40
0.0
 40
0.0
 40
1.037916076906669
 40
2.09954642632061
 40
3.180005274011688
 40
4.273943819259226
 40
5.376970896910004
 40
6.485521900263555
 40
7.596828781826676
 40
7.596828781826676
 40
7.596828781826676
 40
7.596828781826676
 10
83.45488703028047
 20
544.4231147723607
 30
0.0
 10
83.45488703294096
 20
544.5809507252088
 30
0.0
 10
83.39719679923137
 20
544.9590957167627
 30
0.0
 10
83.18305136841776
 20
545.6443179529883
 30
0.0
 10
82.87268387658546
 20
546.4160769651194
 30
0.0
 10
82.48843624045462
 20
547.2452585546232
 30
0.0
 10
82.04523487124817
 20
548.1120075268741
 30
0.0
 10
81.55171396134708
 20
549.0008957392356
 30
0.0
 10
81.19276631965526
 20
549.6005627004624
 30
0.0
 10
81.00590749662773
 20
549.9005940594096
 30
0.0
  0
SPLINE
  5
166
330
12C
100
AcDbEntity
  8
0
  6
Continuous
 62
     0
370
     0
100
AcDbSpline
210
0.0
220
0.0
230
1.0
 70
     8
 71
     3
 72
    11
 73
     7
 74
     0
 42
0.000000001
 43
0.0
 40
0.0
 40
0.0
 40
0.0
 40
0.0
 40
2.507622620637867
 40
4.092273613909081
 40
5.804541291925845
 40
7.555111087882607
 40
7.555111087882607
 40
7.555111087882607
 40
7.555111087882607
 10
81.00590749662773
 20
549.9005940594096
 30
0.0
 10
81.55535837247447
 20
549.3193526608286
 30
0.0
 10
82.3961731282546
 20
548.3699959679866
 30
0.0
 10
83.39450066010858
 20
547.0975027642978
 30
0.0
 10
84.06664788053801
 20
546.093732884312
 30
0.0
 10
84.30363462309565
 20
545.5472195516086
 30
0.0
 10
84.3345754578499
 20
545.3360279156609
 30
0.0
  0
ELLIPSE
  5
167
330
12C
100
AcDbEntity
  8
0
  6
Continuous
 62
     0
370
     0
100
AcDbEllipse
 10
84.454887
 20
544.423115
 30
0.0
 11
1.000000000000007
 21
-1.894253655413847E-8
 31
0.0
210
0.0
220
0.0
230
1.0
 40
0.919593
 41
1.691400072841635
 42
3.141592667203522
  0
ELLIPSE
  5
168
330
12C
100
AcDbEntity
  8
0
  6
Continuous
 62
     0
370
     0
100
AcDbEllipse
 10
81.516112
 20
541.956347
 30
0.0
 11
-0.01181327612042302
 21
-0.9999302208190943
 31
0.0
210
0.0
220
0.0
230
-1.0
 40
0.510178
 41
-0.000000066186999
 42
1.564769062926024
  0
SPLINE
  5
169
330
12C
100
AcDbEntity
  8
0
  6
Continuous
 62
     0
370
     0
100
AcDbSpline
210
0.0
220
0.0
230
1.0
 70
     8
 71
     3
 72
     9
 73
     5
 74
     0
 42
0.000000001
 43
0.0
 40
0.0
 40
0.0
 40
0.0
 40
0.0
 40
1.018265700864359
 40
2.221869069088174
 40
2.221869069088174
 40
2.221869069088174
 40
2.221869069088174
 10
84.45488701970513
 20
544.9005936476663
 30
0.0
 10
84.43781440176116
 20
544.90059366702
 30
0.0
 10
84.39885323482747
 20
544.9685041524972
 30
0.0
 10
84.35727939782069
 20
545.1810585276994
 30
0.0
 10
84.3345754578499
 20
545.3360279156609
 30
0.0
  0
ELLIPSE
  5
16A
330
12C
100
AcDbEntity
  8
0
  6
Continuous
 62
     0
370
     0
100
AcDbEllipse
 10
97.454887
 20
544.423115
 30
0.0
 11
-1.000000000000004
 21
1.894249988794321E-8
 31
0.0
210
0.0
220
0.0
230
-1.0
 40
0.919593
 41
1.691400045614166
 42
3.141592639976074
  0
ARC
  5
16B
330
12C
100
AcDbEntity
  8
0
  6
Continuous
 62
     0
370
    30
100
AcDbCircle
 10
109.454803
 20
542.114813
 30
0.0
 40
1.000021658250611
100
AcDbArc
 50
271.328132
 51
359.998792
  0
ARC
  5
16C
330
12C
100
AcDbEntity
  8
0
  6
Continuous
 62
     0
370
    30
100
AcDbCircle
 10
72.454918
 20
542.11482
 30
0.0
 40
1.000023477132503
100
AcDbArc
 50
180.001313
 51
268.671922
  0
LINE
  5
16D
330
12C
100
AcDbEntity
  8
0
  6
Continuous
 62
     0
370
    30
100
AcDbLine
 10
71.454887
 20
582.900595
 30
0.0
 11
71.454887
 21
542.114779
 31
0.0
  0
LINE
  5
16E
330
12C
100
AcDbEntity
  8
0
  6
Continuous
 62
     0
370
    30
100
AcDbLine
 10
110.454887
 20
582.900595
 30
0.0
 11
110.454887
 21
542.114784
 31
0.0
  0
LINE
  5
16F
330
12C
100
AcDbEntity
  8
0
  6
Continuous
 62
     0
370
    30
100
AcDbLine
 10
74.95697
 20
583.817124
 30
0.0
 11
74.95697
 21
582.900595
 31
0.0
  0
LINE
  5
170
330
12C
100
AcDbEntity
  8
0
  6
Continuous
 62
     0
370
    30
100
AcDbLine
 10
106.95697
 20
583.817124
 30
0.0
 11
106.95697
 21
582.900595
 31
0.0
  0
LINE
  5
171
330
12C
100
AcDbEntity
  8
0
  6
Continuous
 62
     0
370
    30
100
AcDbLine
 10
73.751995
 20
583.837199
 30
0.0
 11
74.957056
 21
583.817124
 31
0.0
  0
LINE
  5
172
330
12C
100
AcDbEntity
  8
0
  6
Continuous
 62
     0
370
    30
100
AcDbLine
 10
108.161944
 20
583.837199
 30
0.0
 11
106.956884
 21
583.817124
 31
0.0
  0
ARC
  5
173
330
12C
100
AcDbEntity
  8
0
  6
Continuous
 62
     0
370
    30
100
AcDbCircle
 10
73.756995
 20
584.13716
 30
0.0
 40
0.3000023806503267
100
AcDbArc
 50
179.99963
 51
269.045162
  0
ARC
  5
174
330
12C
100
AcDbEntity
  8
0
  6
Continuous
 62
     0
370
    30
100
AcDbCircle
 10
108.156945
 20
584.13716
 30
0.0
 40
0.3000023806502796
100
AcDbArc
 50
270.954838
 51
0.00037
  0
LINE
  5
175
330
12C
100
AcDbEntity
  8
0
  6
Continuous
 62
     0
370
    30
100
AcDbLine
 10
73.45697
 20
585.05052
 30
0.0
 11
73.45697
 21
584.137162
 31
0.0
  0
LINE
  5
176
330
12C
100
AcDbEntity
  8
0
  6
Continuous
 62
     0
370
    30
100
AcDbLine
 10
108.45697
 20
585.05052
 30
0.0
 11
108.45697
 21
584.137162
 31
0.0
  0
LINE
  5
177
330
12C
100
AcDbEntity
  8
0
  6
Continuous
 62
     0
370
    30
100
AcDbLine
 10
130.95697
 20
587.050519
 30
0.0
 11
90.95697
 21
587.050519
 31
0.0
  0
LINE
  5
178
330
12C
100
AcDbEntity
  8
0
  6
Continuous
 62
     0
370
     0
100
AcDbLine
 10
90.95697
 20
587.050517
 30
0.0
 11
90.95697
 21
585.050517
 31
0.0
  0
LINE
  5
179
330
12C
100
AcDbEntity
  8
0
  6
Continuous
 62
     0
370
    30
100
AcDbLine
 10
90.95697
 20
585.050519
 30
0.0
 11
130.95697
 21
585.050519
 31
0.0
  0
LINE
  5
17A
330
12C
100
AcDbEntity
  8
0
  6
Continuous
 62
     0
370
    30
100
AcDbLine
 10
130.95697
 20
585.050519
 30
0.0
 11
130.95697
 21
587.050519
 31
0.0
  0
LINE
  5
17B
330
12C
100
AcDbEntity
  8
0
  6
Continuous
 62
     0
370
    30
100
AcDbLine
 10
90.95697
 20
587.050519
 30
0.0
 11
50.95697
 21
587.050519
 31
0.0
  0
LINE
  5
17C
330
12C
100
AcDbEntity
  8
0
  6
Continuous
 62
     0
370
    30
100
AcDbLine
 10
50.95697
 20
587.050519
 30
0.0
 11
50.95697
 21
585.050519
 31
0.0
  0
LINE
  5
17D
330
12C
100
AcDbEntity
  8
0
  6
Continuous
 62
     0
370
    30
100
AcDbLine
 10
50.95697
 20
585.050519
 30
0.0
 11
90.95697
 21
585.050519
 31
0.0
  0
ENDBLK
  5
17F
330
12C
100
AcDbEntity
  8
0
100
AcDbBlockEnd
  0
BLOCK
  5
257
330
181
100
AcDbEntity
  8
0
100
AcDbBlockBegin
  2
c
 70
     0
 10
109.429626
 20
113.188637
 30
0.0
  3
c
  1

  0
LINE
  5
182
330
181
100
AcDbEntity
  8
0
  6
Continuous
 62
     0
370
     0
100
AcDbLine
 10
339.198799
 20
939.621484
 30
0.0
 11
339.198799
 21
904.621483
 31
0.0
  0
LINE
  5
183
330
181
100
AcDbEntity
  8
0
  6
Continuous
 62
     0
370
    30
100
AcDbLine
 10
339.198799
 20
904.621483
 30
0.0
 11
338.28544
 21
904.621483
 31
0.0
  0
ARC
  5
184
330
181
100
AcDbEntity
  8
0
  6
Continuous
 62
     0
370
    30
100
AcDbCircle
 10
339.198801
 20
904.921508
 30
0.0
 40
0.3000023806501448
100
AcDbArc
 50
269.99963
 51
359.045162
  0
LINE
  5
185
330
181
100
AcDbEntity
  8
0
  6
Continuous
 62
     0
370
     0
100
AcDbLine
 10
339.498762
 20
939.326458
 30
0.0
 11
339.498762
 21
904.916509
 31
0.0
  0
LINE
  5
186
330
181
100
AcDbEntity
  8
0
  6
Continuous
 62
     0
370
    30
100
AcDbLine
 10
339.498762
 20
904.916509
 30
0.0
 11
339.518837
 21
906.12157
 31
0.0
  0
LINE
  5
187
330
181
100
AcDbEntity
  8
0
  6
Continuous
 62
     0
370
    30
100
AcDbLine
 10
339.518837
 20
938.121397
 30
0.0
 11
339.518837
 21
906.12157
 31
0.0
  0
LINE
  5
188
330
181
100
AcDbEntity
  8
0
  6
Continuous
 62
     0
370
    30
100
AcDbLine
 10
339.518837
 20
906.121483
 30
0.0
 11
340.435365
 21
906.121483
 31
0.0
  0
LINE
  5
189
330
181
100
AcDbEntity
  8
0
  6
Continuous
 62
     0
370
    30
100
AcDbLine
 10
379.435366
 20
964.121482
 30
0.0
 11
381.408927
 21
964.121482
 31
0.0
  0
LINE
  5
18A
330
181
100
AcDbEntity
  8
0
  6
Continuous
 62
     0
370
    30
100
AcDbLine
 10
381.408927
 20
964.121482
 30
0.0
 11
381.435366
 21
964.121482
 31
0.0
  0
ARC
  5
18B
330
181
100
AcDbEntity
  8
0
  6
Continuous
 62
     0
370
     0
100
AcDbCircle
 10
381.40891
 20
963.121499
 30
0.0
 40
0.9999834550975664
100
AcDbArc
 50
359.999051
 51
89.999051
  0
LINE
  5
18C
330
181
100
AcDbEntity
  8
0
  6
Continuous
 62
     0
370
     0
100
AcDbLine
 10
382.408894
 20
963.121482
 30
0.0
 11
382.435366
 21
963.121482
 31
0.0
  0
ARC
  5
18D
330
181
100
AcDbEntity
  8
0
  6
Continuous
 62
     0
370
    30
100
AcDbCircle
 10
379.435366
 20
963.121482
 30
0.0
 40
1.0
100
AcDbArc
 50
89.999999
 51
179.999999
  0
SPLINE
  5
18E
330
181
100
AcDbEntity
  8
0
  6
Continuous
 62
     0
370
     0
100
AcDbSpline
210
0.0
220
0.0
230
1.0
 70
     8
 71
     3
 72
    21
 73
    17
 74
     0
 42
0.000000001
 43
0.0
 40
0.0
 40
0.0
 40
0.0
 40
0.0
 40
3.441841583726246
 40
6.882852512287561
 40
10.32313745608455
 40
13.76274326813165
 40
17.20191509642661
 40
20.64091833849005
 40
24.08005407847498
 40
27.51961152377158
 40
30.95977415881267
 40
34.40069259768723
 40
37.8424409908414
 40
41.28489904790865
 40
44.72789785151544
 40
48.17121764385794
 40
48.17121764385794
 40
48.17121764385794
 40
48.17121764385794
 10
382.3795432736711
 20
938.032469547035
 30
0.0
 10
382.3678829136093
 20
937.4476940237012
 30
0.0
 10
382.3421106285189
 20
936.0906736888318
 30
0.0
 10
382.3015616323744
 20
933.5754788988792
 30
0.0
 10
382.2646493023719
 20
930.6632605112741
 30
0.0
 10
382.2364332314307
 20
927.4561301547812
 30
0.0
 10
382.2207842622572
 20
924.0644467380415
 30
0.0
 10
382.2198469455407
 20
920.605592709378
 30
0.0
 10
382.2337519672924
 20
917.1991671852628
 30
0.0
 10
382.2605888522587
 20
913.9628829012879
 30
0.0
 10
382.2966869068447
 20
911.0088921099078
 30
0.0
 10
382.3370818274606
 20
908.4385739581396
 30
0.0
 10
382.3762542708734
 20
906.3412483439909
 30
0.0
 10
382.4088320855255
 20
904.7890871036141
 30
0.0
 10
382.4303540833747
 20
903.8357909582046
 30
0.0
 10
382.435365504654
 20
903.6214831544936
 30
0.0
 10
382.4353654335143
 20
903.6214857694821
 30
0.0
  0
LINE
  5
18F
330
181
100
AcDbEntity
  8
0
  6
Continuous
 62
     0
370
     0
100
AcDbLine
 10
382.408894
 20
963.121482
 30
0.0
 11
382.408893
 21
943.19279
 31
0.0
  0
SPLINE
  5
190
330
181
100
AcDbEntity
  8
0
  6
Continuous
 62
     0
370
     0
100
AcDbSpline
210
0.0
220
0.0
230
1.0
 70
     8
 71
     3
 72
    10
 73
     6
 74
     0
 42
0.000000001
 43
0.0
 40
0.0
 40
0.0
 40
0.0
 40
0.0
 40
2.060580258957641
 40
4.121723488388604
 40
6.18371435482061
 40
6.18371435482061
 40
6.18371435482061
 40
6.18371435482061
 10
382.4088933691258
 20
943.1927897678654
 30
0.0
 10
382.4088933600904
 20
942.5059296815463
 30
0.0
 10
382.4069818191369
 20
941.1201040226068
 30
0.0
 10
382.3978139476497
 20
939.2967350647564
 30
0.0
 10
382.3865289397345
 20
938.3828057721911
 30
0.0
 10
382.3795432736711
 20
938.032469547035
 30
0.0
  0
LINE
  5
191
330
181
100
AcDbEntity
  8
0
  6
Continuous
 62
     0
370
     0
100
AcDbLine
 10
382.408894
 20
963.121482
 30
0.0
 11
381.408927
 21
963.121482
 31
0.0
  0
LINE
  5
192
330
181
100
AcDbEntity
  8
0
  6
Continuous
 62
     0
370
     0
100
AcDbLine
 10
381.408927
 20
963.121482
 30
0.0
 11
381.408926
 21
943.19279
 31
0.0
  0
LINE
  5
193
330
181
100
AcDbEntity
  8
0
  6
Continuous
 62
     0
370
     0
100
AcDbLine
 10
381.408926
 20
943.19279
 30
0.0
 11
378.912845
 21
943.19279
 31
0.0
  0
ARC
  5
194
330
181
100
AcDbEntity
  8
0
  6
Continuous
 62
     0
370
     0
100
AcDbCircle
 10
372.937396
 20
945.745754
 30
0.0
 40
6.497970205870628
100
AcDbArc
 50
336.865776
 51
359.980174
  0
LINE
  5
195
330
181
100
AcDbEntity
  8
0
  6
Continuous
 62
     0
370
     0
100
AcDbLine
 10
379.435366
 20
945.743506
 30
0.0
 11
379.435366
 21
963.121482
 31
0.0
  0
LINE
  5
196
330
181
100
AcDbEntity
  8
0
  6
Continuous
 62
     0
370
     0
100
AcDbLine
 10
379.435366
 20
963.121482
 30
0.0
 11
381.408927
 21
963.121482
 31
0.0
  0
LINE
  5
197
330
181
100
AcDbEntity
  8
0
  6
Continuous
 62
     0
370
    30
100
AcDbLine
 10
378.435366
 20
963.121482
 30
0.0
 11
378.435366
 21
945.743506
 31
0.0
  0
LINE
  5
198
330
181
100
AcDbEntity
  8
0
  6
Continuous
 62
     0
370
     0
100
AcDbLine
 10
379.435366
 20
963.121482
 30
0.0
 11
378.435366
 21
963.121482
 31
0.0
  0
LINE
  5
199
330
181
100
AcDbEntity
  8
0
  6
Continuous
 62
     0
370
     0
100
AcDbLine
 10
381.408927
 20
963.121482
 30
0.0
 11
381.408927
 21
964.121482
 31
0.0
  0
LINE
  5
19A
330
181
100
AcDbEntity
  8
0
  6
Continuous
 62
     0
370
     0
100
AcDbLine
 10
379.435366
 20
964.121482
 30
0.0
 11
379.435366
 21
963.121482
 31
0.0
  0
SPLINE
  5
19B
330
181
100
AcDbEntity
  8
0
  6
Continuous
 62
     0
370
     0
100
AcDbSpline
210
0.0
220
0.0
230
1.0
 70
     8
 71
     3
 72
    21
 73
    17
 74
     0
 42
0.000000001
 43
0.0
 40
50.74862133349282
 40
50.74862133349282
 40
50.74862133349282
 40
50.74862133349282
 40
54.37352077922174
 40
57.99842141517796
 40
61.62332340279635
 40
65.24822631733699
 40
68.87312970096795
 40
72.49803229904767
 40
76.12293325255027
 40
79.74783309166499
 40
83.37273265358228
 40
86.99763251981683
 40
90.62253396381332
 40
94.24743574225704
 40
97.87234117703659
 40
101.4972426669856
 40
101.4972426669856
 40
101.4972426669856
 40
101.4972426669856
 10
381.4353500180142
 20
902.6214823097752
 30
0.0
 10
381.4353499179483
 20
902.6214823024836
 30
0.0
 10
381.4303397463899
 20
902.84739867603
 30
0.0
 10
381.4088608954893
 20
903.8522897014046
 30
0.0
 10
381.3763238984523
 20
905.4884247711872
 30
0.0
 10
381.3371952450307
 20
907.699237373233
 30
0.0
 10
381.29685376487
 20
910.4083529675302
 30
0.0
 10
381.2608151877709
 20
913.5222188667426
 30
0.0
 10
381.2340100926331
 20
916.9332933686937
 30
0.0
 10
381.2201195162689
 20
920.5237200608701
 30
0.0
 10
381.2210620500008
 20
924.1693834637518
 30
0.0
 10
381.2366893315366
 20
927.7442572797145
 30
0.0
 10
381.2648719207365
 20
931.1247133303774
 30
0.0
 10
381.3017252913111
 20
934.1941837950618
 30
0.0
 10
381.3422100409755
 20
936.8458290459267
 30
0.0
 10
381.3679660484826
 20
938.2760717150632
 30
0.0
 10
381.3796130822751
 20
938.8925229251031
 30
0.0
  0
LINE
  5
19C
330
181
100
AcDbEntity
  8
0
  6
Continuous
 62
     0
370
     0
100
AcDbLine
 10
381.379613
 20
938.892523
 30
0.0
 11
373.435366
 21
938.892523
 31
0.0
  0
LINE
  5
19D
330
181
100
AcDbEntity
  8
0
  6
Continuous
 62
     0
370
     0
100
AcDbLine
 10
373.435366
 20
938.892523
 30
0.0
 11
373.435366
 21
941.621482
 31
0.0
  0
LINE
  5
19E
330
181
100
AcDbEntity
  8
0
  6
Continuous
 62
     0
370
    30
100
AcDbLine
 10
373.435366
 20
941.621482
 30
0.0
 11
340.435366
 21
941.621483
 31
0.0
  0
LINE
  5
19F
330
181
100
AcDbEntity
  8
0
  6
Continuous
 62
     0
370
    30
100
AcDbLine
 10
340.435366
 20
941.621483
 30
0.0
 11
340.435365
 21
902.621483
 31
0.0
  0
ARC
  5
1A0
330
181
100
AcDbEntity
  8
0
  6
Continuous
 62
     0
370
    30
100
AcDbCircle
 10
373.435366
 20
946.621482
 30
0.0
 40
5.0
100
AcDbArc
 50
269.999999
 51
359.999999
  0
SPLINE
  5
1A1
330
181
100
AcDbEntity
  8
0
  6
Continuous
 62
     0
370
     0
100
AcDbSpline
210
0.0
220
0.0
230
1.0
 70
     8
 71
     3
 72
    10
 73
     6
 74
     0
 42
0.000000001
 43
0.0
 40
0.0
 40
0.0
 40
0.0
 40
0.0
 40
1.717118880988115
 40
3.434234350498483
 40
5.151328931939018
 40
5.151328931939018
 40
5.151328931939018
 40
5.151328931939018
 10
381.3796130822751
 20
938.8925229251031
 30
0.0
 10
381.3865914163349
 20
939.1845282433956
 30
0.0
 10
381.3978165715237
 20
939.9463140133271
 30
0.0
 10
381.4070682051185
 20
941.4657737170737
 30
0.0
 10
381.4089264896157
 20
942.6204249152347
 30
0.0
 10
381.408926497145
 20
943.1927897757149
 30
0.0
  0
SPLINE
  5
1A2
330
181
100
AcDbEntity
  8
0
  6
Continuous
 62
     0
370
     0
100
AcDbSpline
210
0.0
220
0.0
230
1.0
 70
     8
 71
     3
 72
    14
 73
    10
 74
     0
 42
0.000000001
 43
0.0
 40
0.0
 40
0.0
 40
0.0
 40
0.0
 40
1.037916076906672
 40
2.099546426320613
 40
3.18000527401169
 40
4.27394381925923
 40
5.376970896909995
 40
6.485521900263557
 40
7.59682878182667
 40
7.59682878182667
 40
7.59682878182667
 40
7.59682878182667
 10
378.9128452605065
 20
943.1927898085503
 30
0.0
 10
378.7550093211158
 20
942.8849189610199
 30
0.0
 10
378.376864358053
 20
942.2908104105873
 30
0.0
 10
377.69164216554
 20
941.5049258858361
 30
0.0
 10
376.9198831972146
 20
940.8131371867692
 30
0.0
 10
376.0907016508345
 20
940.2108301615848
 30
0.0
 10
375.2239527206592
 20
939.6914504818128
 30
0.0
 10
374.3350645492081
 20
939.2490508944205
 30
0.0
 10
373.7353976144105
 20
939.0033721193764
 30
0.0
 10
373.4353662684765
 20
938.8925230296079
 30
0.0
  0
SPLINE
  5
1A3
330
181
100
AcDbEntity
  8
0
  6
Continuous
 62
     0
370
     0
100
AcDbSpline
210
0.0
220
0.0
230
1.0
 70
     8
 71
     3
 72
    11
 73
     7
 74
     0
 42
0.000000001
 43
0.0
 40
0.0
 40
0.0
 40
0.0
 40
0.0
 40
2.507622620637867
 40
4.092273613909081
 40
5.804541291925845
 40
7.555111087882607
 40
7.555111087882607
 40
7.555111087882607
 40
7.555111087882607
 10
373.4353662684765
 20
938.8925230296079
 30
0.0
 10
374.0166076287927
 20
939.2184703357016
 30
0.0
 10
374.9659642574467
 20
939.8461044508457
 30
0.0
 10
376.2384573683752
 20
940.9698842564445
 30
0.0
 10
377.2422271681351
 20
942.1330942371661
 30
0.0
 10
377.7887404491356
 20
943.0789299988173
 30
0.0
 10
377.9999320617055
 20
943.5828086281548
 30
0.0
  0
LINE
  5
1A4
330
181
100
AcDbEntity
  8
0
  6
Continuous
 62
     0
370
     0
100
AcDbLine
 10
377.999932
 20
943.582809
 30
0.0
 11
378.912845
 21
943.19279
 31
0.0
  0
ELLIPSE
  5
1A5
330
181
100
AcDbEntity
  8
0
  6
Continuous
 62
     0
370
     0
100
AcDbEllipse
 10
381.379613
 20
938.03247
 30
0.0
 11
0.9998017560326858
 21
-0.01991101790411386
 31
0.0
210
0.0
220
0.0
230
1.0
 40
0.860009
 41
0.02315254236286
 42
1.587921671475886
  0
ARC
  5
1A6
330
181
100
AcDbEntity
  8
0
  6
Continuous
 62
     0
370
     0
100
AcDbCircle
 10
372.838535
 20
945.747182
 30
0.0
 40
5.596832020100238
100
AcDbArc
 50
337.249807
 51
359.962365
  0
LINE
  5
1A7
330
181
100
AcDbEntity
  8
0
  6
Continuous
 62
     0
370
     0
100
AcDbLine
 10
378.435366
 20
945.743506
 30
0.0
 11
379.435366
 21
945.743506
 31
0.0
  0
LINE
  5
1A8
330
181
100
AcDbEntity
  8
0
  6
Continuous
 62
     0
370
     0
100
AcDbLine
 10
381.408926
 20
943.19279
 30
0.0
 11
382.408893
 21
943.19279
 31
0.0
  0
ARC
  5
1A9
330
181
100
AcDbEntity
  8
0
  6
Continuous
 62
     0
370
    30
100
AcDbCircle
 10
381.435349
 20
903.621502
 30
0.0
 40
1.000015948502753
100
AcDbArc
 50
270.000913
 51
359.99908
  0
LINE
  5
1AA
330
181
100
AcDbEntity
  8
0
  6
Continuous
 62
     0
370
    30
100
AcDbLine
 10
340.435365
 20
902.621483
 30
0.0
 11
381.43535
 21
902.621482
 31
0.0
  0
LINE
  5
1AB
330
181
100
AcDbEntity
  8
0
  6
Continuous
 62
     0
370
    30
100
AcDbLine
 10
382.435366
 20
963.121482
 30
0.0
 11
382.435365
 21
903.621486
 31
0.0
  0
ARC
  5
1AC
330
181
100
AcDbEntity
  8
0
  6
Continuous
 62
     0
370
    30
100
AcDbCircle
 10
381.435366
 20
963.121482
 30
0.0
 40
1.0
100
AcDbArc
 50
359.999999
 51
89.999999
  0
LINE
  5
1AD
330
181
100
AcDbEntity
  8
0
  6
Continuous
 62
     0
370
    30
100
AcDbLine
 10
339.518837
 20
938.121484
 30
0.0
 11
340.435366
 21
938.121484
 31
0.0
  0
LINE
  5
1AE
330
181
100
AcDbEntity
  8
0
  6
Continuous
 62
     0
370
    30
100
AcDbLine
 10
339.498762
 20
939.326458
 30
0.0
 11
339.518837
 21
938.121397
 31
0.0
  0
ARC
  5
1AF
330
181
100
AcDbEntity
  8
0
  6
Continuous
 62
     0
370
    30
100
AcDbCircle
 10
339.198801
 20
939.321459
 30
0.0
 40
0.300002380650031
100
AcDbArc
 50
0.954838
 51
90.00037
  0
LINE
  5
1B0
330
181
100
AcDbEntity
  8
0
  6
Continuous
 62
     0
370
    30
100
AcDbLine
 10
338.28544
 20
939.621484
 30
0.0
 11
339.198799
 21
939.621484
 31
0.0
  0
LINE
  5
1B1
330
181
100
AcDbEntity
  8
0
  6
Continuous
 62
     0
370
    30
100
AcDbLine
 10
377.83544
 20
831.954202
 30
0.0
 11
377.33544
 21
831.454202
 31
0.0
  0
LINE
  5
1B2
330
181
100
AcDbEntity
  8
0
  6
Continuous
 62
     0
370
    30
100
AcDbLine
 10
385.23544
 20
831.454202
 30
0.0
 11
377.33544
 21
831.454202
 31
0.0
  0
LINE
  5
1B3
330
181
100
AcDbEntity
  8
0
  6
Continuous
 62
     0
370
    30
100
AcDbLine
 10
377.33544
 20
831.454202
 30
0.0
 11
377.33544
 21
824.124202
 31
0.0
  0
SPLINE
  5
1B4
330
181
100
AcDbEntity
  8
0
  6
Continuous
 62
     0
370
    30
100
AcDbSpline
210
0.0
220
0.0
230
1.0
 70
     8
 71
     3
 72
    15
 73
    11
 74
     0
 42
0.000000001
 43
0.0
 40
12.34072682343842
 40
12.34072682343842
 40
12.34072682343842
 40
12.34072682343842
 40
14.10180021068016
 40
15.86348897177187
 40
17.62493407063296
 40
19.38586365374512
 40
21.14726085775806
 40
22.90889941438921
 40
23.79523450824811
 40
24.68145364687684
 40
24.68145364687684
 40
24.68145364687684
 40
24.68145364687684
 10
385.2354404580137
 20
824.1239585376817
 30
0.0
 10
385.2354418189076
 20
824.1239632496137
 30
0.0
 10
384.9639478404251
 20
824.0729551674409
 30
0.0
 10
383.8330612623791
 20
823.9010278058348
 30
0.0
 10
382.1975049726839
 20
823.761523669286
 30
0.0
 10
380.3733044782817
 20
823.7613692821067
 30
0.0
 10
378.7380215787374
 20
823.9010218014573
 30
0.0
 10
377.7935999085319
 20
824.0447931562574
 30
0.0
 10
377.4025802876622
 20
824.1112914233834
 30
0.0
 10
377.3354404709478
 20
824.12420183788
 30
0.0
 10
377.3354404580352
 20
824.12420183788
 30
0.0
  0
LINE
  5
1B5
330
181
100
AcDbEntity
  8
0
  6
Continuous
 62
     0
370
    30
100
AcDbLine
 10
340.28544
 20
781.124202
 30
0.0
 11
338.28544
 21
781.124202
 31
0.0
  0
LINE
  5
1B6
330
181
100
AcDbEntity
  8
0
  6
Continuous
 62
     0
370
    30
100
AcDbLine
 10
340.28544
 20
780.124202
 30
0.0
 11
389.78544
 21
780.124202
 31
0.0
  0
LINE
  5
1B7
330
181
100
AcDbEntity
  8
0
  6
Continuous
 62
     0
370
    30
100
AcDbLine
 10
389.78544
 20
824.124202
 30
0.0
 11
389.78544
 21
780.124202
 31
0.0
  0
LINE
  5
1B8
330
181
100
AcDbEntity
  8
0
  6
Continuous
 62
     0
370
    30
100
AcDbLine
 10
389.78544
 20
780.124202
 30
0.0
 11
390.28544
 21
780.624202
 31
0.0
  0
LINE
  5
1B9
330
181
100
AcDbEntity
  8
0
  6
Continuous
 62
     0
370
    30
100
AcDbLine
 10
340.28544
 20
824.124202
 30
0.0
 11
340.28544
 21
780.124202
 31
0.0
  0
LINE
  5
1BA
330
181
100
AcDbEntity
  8
0
  6
Continuous
 62
     0
370
    30
100
AcDbLine
 10
384.73544
 20
831.954202
 30
0.0
 11
377.83544
 21
831.954202
 31
0.0
  0
LINE
  5
1BB
330
181
100
AcDbEntity
  8
0
  6
Continuous
 62
     0
370
    30
100
AcDbLine
 10
390.28544
 20
780.624202
 30
0.0
 11
390.28544
 21
823.624202
 31
0.0
  0
LINE
  5
1BC
330
181
100
AcDbEntity
  8
0
  6
Continuous
 62
     0
370
    30
100
AcDbLine
 10
389.78544
 20
824.124202
 30
0.0
 11
390.28544
 21
823.624202
 31
0.0
  0
LINE
  5
1BD
330
181
100
AcDbEntity
  8
0
  6
Continuous
 62
     0
370
    30
100
AcDbLine
 10
340.28544
 20
824.124202
 30
0.0
 11
377.33544
 21
824.124202
 31
0.0
  0
LINE
  5
1BE
330
181
100
AcDbEntity
  8
0
  6
Continuous
 62
     0
370
    30
100
AcDbLine
 10
385.235064
 20
824.124202
 30
0.0
 11
389.78544
 21
824.124202
 31
0.0
  0
LINE
  5
1BF
330
181
100
AcDbEntity
  8
0
  6
Continuous
 62
     0
370
    30
100
AcDbLine
 10
338.28544
 20
823.124202
 30
0.0
 11
340.28544
 21
823.124202
 31
0.0
  0
LINE
  5
1C0
330
181
100
AcDbEntity
  8
0
  6
Continuous
 62
     0
370
    30
100
AcDbLine
 10
385.23544
 20
831.454202
 30
0.0
 11
385.23544
 21
824.123959
 31
0.0
  0
LINE
  5
1C1
330
181
100
AcDbEntity
  8
0
  6
Continuous
 62
     0
370
    30
100
AcDbLine
 10
384.73544
 20
831.954202
 30
0.0
 11
385.23544
 21
831.454202
 31
0.0
  0
LINE
  5
1C2
330
181
100
AcDbEntity
  8
0
  6
Continuous
 62
     0
370
     0
100
AcDbLine
 10
339.198799
 20
1039.621484
 30
0.0
 11
339.198799
 21
1004.621483
 31
0.0
  0
LINE
  5
1C3
330
181
100
AcDbEntity
  8
0
  6
Continuous
 62
     0
370
    30
100
AcDbLine
 10
339.198799
 20
1004.621483
 30
0.0
 11
338.28544
 21
1004.621483
 31
0.0
  0
ARC
  5
1C4
330
181
100
AcDbEntity
  8
0
  6
Continuous
 62
     0
370
    30
100
AcDbCircle
 10
339.198801
 20
1004.921508
 30
0.0
 40
0.3000023806495018
100
AcDbArc
 50
269.99963
 51
359.045162
  0
LINE
  5
1C5
330
181
100
AcDbEntity
  8
0
  6
Continuous
 62
     0
370
     0
100
AcDbLine
 10
339.498762
 20
1039.326458
 30
0.0
 11
339.498762
 21
1004.916509
 31
0.0
  0
LINE
  5
1C6
330
181
100
AcDbEntity
  8
0
  6
Continuous
 62
     0
370
    30
100
AcDbLine
 10
339.498762
 20
1004.916509
 30
0.0
 11
339.518837
 21
1006.12157
 31
0.0
  0
LINE
  5
1C7
330
181
100
AcDbEntity
  8
0
  6
Continuous
 62
     0
370
    30
100
AcDbLine
 10
339.518837
 20
1038.121397
 30
0.0
 11
339.518837
 21
1006.12157
 31
0.0
  0
LINE
  5
1C8
330
181
100
AcDbEntity
  8
0
  6
Continuous
 62
     0
370
    30
100
AcDbLine
 10
339.518837
 20
1006.121483
 30
0.0
 11
340.435365
 21
1006.121483
 31
0.0
  0
LINE
  5
1C9
330
181
100
AcDbEntity
  8
0
  6
Continuous
 62
     0
370
    30
100
AcDbLine
 10
379.435366
 20
1064.121482
 30
0.0
 11
381.408927
 21
1064.121482
 31
0.0
  0
LINE
  5
1CA
330
181
100
AcDbEntity
  8
0
  6
Continuous
 62
     0
370
    30
100
AcDbLine
 10
381.408927
 20
1064.121482
 30
0.0
 11
381.435366
 21
1064.121482
 31
0.0
  0
ARC
  5
1CB
330
181
100
AcDbEntity
  8
0
  6
Continuous
 62
     0
370
     0
100
AcDbCircle
 10
381.40891
 20
1063.121499
 30
0.0
 40
0.9999834550988417
100
AcDbArc
 50
359.999051
 51
89.999051
  0
LINE
  5
1CC
330
181
100
AcDbEntity
  8
0
  6
Continuous
 62
     0
370
     0
100
AcDbLine
 10
382.408894
 20
1063.121482
 30
0.0
 11
382.435366
 21
1063.121482
 31
0.0
  0
ARC
  5
1CD
330
181
100
AcDbEntity
  8
0
  6
Continuous
 62
     0
370
    30
100
AcDbCircle
 10
379.435366
 20
1063.121482
 30
0.0
 40
1.0
100
AcDbArc
 50
89.999999
 51
179.999999
  0
SPLINE
  5
1CE
330
181
100
AcDbEntity
  8
0
  6
Continuous
 62
     0
370
     0
100
AcDbSpline
210
0.0
220
0.0
230
1.0
 70
     8
 71
     3
 72
    21
 73
    17
 74
     0
 42
0.000000001
 43
0.0
 40
0.0
 40
0.0
 40
0.0
 40
0.0
 40
3.441841583726254
 40
6.882852512287559
 40
10.32313745608454
 40
13.76274326813164
 40
17.20191509642663
 40
20.64091833849005
 40
24.08005407847499
 40
27.51961152377159
 40
30.95977415881267
 40
34.40069259768724
 40
37.8424409908414
 40
41.28489904790866
 40
44.72789785151545
 40
48.17121764385794
 40
48.17121764385794
 40
48.17121764385794
 40
48.17121764385794
 10
382.3795432736711
 20
1038.032469547035
 30
0.0
 10
382.3678829136093
 20
1037.447694023701
 30
0.0
 10
382.3421106285188
 20
1036.090673688832
 30
0.0
 10
382.3015616323744
 20
1033.575478898879
 30
0.0
 10
382.2646493023719
 20
1030.663260511274
 30
0.0
 10
382.2364332314307
 20
1027.456130154781
 30
0.0
 10
382.2207842622572
 20
1024.064446738042
 30
0.0
 10
382.2198469455407
 20
1020.605592709378
 30
0.0
 10
382.2337519672924
 20
1017.199167185263
 30
0.0
 10
382.2605888522587
 20
1013.962882901288
 30
0.0
 10
382.2966869068447
 20
1011.008892109908
 30
0.0
 10
382.3370818274605
 20
1008.43857395814
 30
0.0
 10
382.3762542708735
 20
1006.341248343991
 30
0.0
 10
382.4088320855255
 20
1004.789087103614
 30
0.0
 10
382.4303540833747
 20
1003.835790958205
 30
0.0
 10
382.435365504654
 20
1003.621483154494
 30
0.0
 10
382.4353654335142
 20
1003.621485769482
 30
0.0
  0
LINE
  5
1CF
330
181
100
AcDbEntity
  8
0
  6
Continuous
 62
     0
370
     0
100
AcDbLine
 10
382.408894
 20
1063.121482
 30
0.0
 11
382.408893
 21
1043.19279
 31
0.0
  0
SPLINE
  5
1D0
330
181
100
AcDbEntity
  8
0
  6
Continuous
 62
     0
370
     0
100
AcDbSpline
210
0.0
220
0.0
230
1.0
 70
     8
 71
     3
 72
    10
 73
     6
 74
     0
 42
0.000000001
 43
0.0
 40
0.0
 40
0.0
 40
0.0
 40
0.0
 40
2.060580258957656
 40
4.121723488388605
 40
6.183714354820611
 40
6.183714354820611
 40
6.183714354820611
 40
6.183714354820611
 10
382.4088933691258
 20
1043.192789767865
 30
0.0
 10
382.4088933600904
 20
1042.505929681546
 30
0.0
 10
382.406981819137
 20
1041.120104022607
 30
0.0
 10
382.3978139476496
 20
1039.296735064756
 30
0.0
 10
382.3865289397345
 20
1038.382805772191
 30
0.0
 10
382.3795432736711
 20
1038.032469547035
 30
0.0
  0
LINE
  5
1D1
330
181
100
AcDbEntity
  8
0
  6
Continuous
 62
     0
370
     0
100
AcDbLine
 10
382.408894
 20
1063.121482
 30
0.0
 11
381.408927
 21
1063.121482
 31
0.0
  0
LINE
  5
1D2
330
181
100
AcDbEntity
  8
0
  6
Continuous
 62
     0
370
     0
100
AcDbLine
 10
381.408927
 20
1063.121482
 30
0.0
 11
381.408926
 21
1043.19279
 31
0.0
  0
LINE
  5
1D3
330
181
100
AcDbEntity
  8
0
  6
Continuous
 62
     0
370
     0
100
AcDbLine
 10
381.408926
 20
1043.19279
 30
0.0
 11
382.408893
 21
1043.19279
 31
0.0
  0
LINE
  5
1D4
330
181
100
AcDbEntity
  8
0
  6
Continuous
 62
     0
370
     0
100
AcDbLine
 10
381.408926
 20
1043.19279
 30
0.0
 11
378.912845
 21
1043.19279
 31
0.0
  0
ARC
  5
1D5
330
181
100
AcDbEntity
  8
0
  6
Continuous
 62
     0
370
     0
100
AcDbCircle
 10
372.937396
 20
1045.745754
 30
0.0
 40
6.497970205870127
100
AcDbArc
 50
336.865776
 51
359.980174
  0
LINE
  5
1D6
330
181
100
AcDbEntity
  8
0
  6
Continuous
 62
     0
370
     0
100
AcDbLine
 10
379.435366
 20
1045.743506
 30
0.0
 11
379.435366
 21
1063.121482
 31
0.0
  0
LINE
  5
1D7
330
181
100
AcDbEntity
  8
0
  6
Continuous
 62
     0
370
     0
100
AcDbLine
 10
379.435366
 20
1063.121482
 30
0.0
 11
381.408927
 21
1063.121482
 31
0.0
  0
LINE
  5
1D8
330
181
100
AcDbEntity
  8
0
  6
Continuous
 62
     0
370
    30
100
AcDbLine
 10
378.435366
 20
1063.121482
 30
0.0
 11
378.435366
 21
1045.743506
 31
0.0
  0
LINE
  5
1D9
330
181
100
AcDbEntity
  8
0
  6
Continuous
 62
     0
370
     0
100
AcDbLine
 10
378.435366
 20
1045.743506
 30
0.0
 11
379.435366
 21
1045.743506
 31
0.0
  0
LINE
  5
1DA
330
181
100
AcDbEntity
  8
0
  6
Continuous
 62
     0
370
     0
100
AcDbLine
 10
379.435366
 20
1063.121482
 30
0.0
 11
378.435366
 21
1063.121482
 31
0.0
  0
LINE
  5
1DB
330
181
100
AcDbEntity
  8
0
  6
Continuous
 62
     0
370
     0
100
AcDbLine
 10
381.408927
 20
1063.121482
 30
0.0
 11
381.408927
 21
1064.121482
 31
0.0
  0
LINE
  5
1DC
330
181
100
AcDbEntity
  8
0
  6
Continuous
 62
     0
370
     0
100
AcDbLine
 10
379.435366
 20
1064.121482
 30
0.0
 11
379.435366
 21
1063.121482
 31
0.0
  0
SPLINE
  5
1DD
330
181
100
AcDbEntity
  8
0
  6
Continuous
 62
     0
370
     0
100
AcDbSpline
210
0.0
220
0.0
230
1.0
 70
     8
 71
     3
 72
    21
 73
    17
 74
     0
 42
0.000000001
 43
0.0
 40
50.74862133349281
 40
50.74862133349281
 40
50.74862133349281
 40
50.74862133349281
 40
54.37352077922173
 40
57.99842141517794
 40
61.62332340279634
 40
65.24822631733697
 40
68.87312970096792
 40
72.49803229904764
 40
76.12293325255023
 40
79.74783309166496
 40
83.37273265358225
 40
86.9976325198168
 40
90.62253396381331
 40
94.24743574225703
 40
97.87234117703656
 40
101.4972426669856
 40
101.4972426669856
 40
101.4972426669856
 40
101.4972426669856
 10
381.4353500180142
 20
1002.621482309775
 30
0.0
 10
381.4353499179483
 20
1002.621482302484
 30
0.0
 10
381.4303397463899
 20
1002.84739867603
 30
0.0
 10
381.4088608954893
 20
1003.852289701405
 30
0.0
 10
381.3763238984523
 20
1005.488424771187
 30
0.0
 10
381.3371952450307
 20
1007.699237373233
 30
0.0
 10
381.29685376487
 20
1010.40835296753
 30
0.0
 10
381.2608151877709
 20
1013.522218866743
 30
0.0
 10
381.2340100926331
 20
1016.933293368694
 30
0.0
 10
381.2201195162689
 20
1020.52372006087
 30
0.0
 10
381.2210620500008
 20
1024.169383463752
 30
0.0
 10
381.2366893315367
 20
1027.744257279714
 30
0.0
 10
381.2648719207365
 20
1031.124713330377
 30
0.0
 10
381.3017252913111
 20
1034.194183795062
 30
0.0
 10
381.3422100409755
 20
1036.845829045927
 30
0.0
 10
381.3679660484826
 20
1038.276071715063
 30
0.0
 10
381.3796130822751
 20
1038.892522925103
 30
0.0
  0
LINE
  5
1DE
330
181
100
AcDbEntity
  8
0
  6
Continuous
 62
     0
370
     0
100
AcDbLine
 10
381.379613
 20
1038.892523
 30
0.0
 11
373.435366
 21
1038.892523
 31
0.0
  0
LINE
  5
1DF
330
181
100
AcDbEntity
  8
0
  6
Continuous
 62
     0
370
     0
100
AcDbLine
 10
373.435366
 20
1038.892523
 30
0.0
 11
373.435366
 21
1041.621482
 31
0.0
  0
LINE
  5
1E0
330
181
100
AcDbEntity
  8
0
  6
Continuous
 62
     0
370
    30
100
AcDbLine
 10
373.435366
 20
1041.621482
 30
0.0
 11
340.435366
 21
1041.621483
 31
0.0
  0
LINE
  5
1E1
330
181
100
AcDbEntity
  8
0
  6
Continuous
 62
     0
370
    30
100
AcDbLine
 10
340.435366
 20
1041.621483
 30
0.0
 11
340.435365
 21
1002.621483
 31
0.0
  0
ARC
  5
1E2
330
181
100
AcDbEntity
  8
0
  6
Continuous
 62
     0
370
    30
100
AcDbCircle
 10
373.435366
 20
1046.621482
 30
0.0
 40
5.0
100
AcDbArc
 50
269.999999
 51
359.999999
  0
SPLINE
  5
1E3
330
181
100
AcDbEntity
  8
0
  6
Continuous
 62
     0
370
     0
100
AcDbSpline
210
0.0
220
0.0
230
1.0
 70
     8
 71
     3
 72
    10
 73
     6
 74
     0
 42
0.000000001
 43
0.0
 40
0.0
 40
0.0
 40
0.0
 40
0.0
 40
1.717118880988121
 40
3.434234350498481
 40
5.151328931939009
 40
5.151328931939009
 40
5.151328931939009
 40
5.151328931939009
 10
381.3796130822751
 20
1038.892522925103
 30
0.0
 10
381.3865914163349
 20
1039.184528243396
 30
0.0
 10
381.3978165715237
 20
1039.946314013327
 30
0.0
 10
381.4070682051185
 20
1041.465773717074
 30
0.0
 10
381.4089264896157
 20
1042.620424915235
 30
0.0
 10
381.408926497145
 20
1043.192789775715
 30
0.0
  0
SPLINE
  5
1E4
330
181
100
AcDbEntity
  8
0
  6
Continuous
 62
     0
370
     0
100
AcDbSpline
210
0.0
220
0.0
230
1.0
 70
     8
 71
     3
 72
    14
 73
    10
 74
     0
 42
0.000000001
 43
0.0
 40
0.0
 40
0.0
 40
0.0
 40
0.0
 40
1.037916076906669
 40
2.09954642632061
 40
3.180005274011688
 40
4.273943819259234
 40
5.376970896909993
 40
6.485521900263554
 40
7.596828781826666
 40
7.596828781826666
 40
7.596828781826666
 40
7.596828781826666
 10
378.9128452605065
 20
1043.19278980855
 30
0.0
 10
378.7550093211158
 20
1042.88491896102
 30
0.0
 10
378.376864358053
 20
1042.290810410587
 30
0.0
 10
377.69164216554
 20
1041.504925885836
 30
0.0
 10
376.9198831972146
 20
1040.813137186769
 30
0.0
 10
376.0907016508345
 20
1040.210830161585
 30
0.0
 10
375.2239527206592
 20
1039.691450481813
 30
0.0
 10
374.3350645492081
 20
1039.249050894421
 30
0.0
 10
373.7353976144105
 20
1039.003372119376
 30
0.0
 10
373.4353662684765
 20
1038.892523029608
 30
0.0
  0
SPLINE
  5
1E5
330
181
100
AcDbEntity
  8
0
  6
Continuous
 62
     0
370
     0
100
AcDbSpline
210
0.0
220
0.0
230
1.0
 70
     8
 71
     3
 72
    11
 73
     7
 74
     0
 42
0.000000001
 43
0.0
 40
0.0
 40
0.0
 40
0.0
 40
0.0
 40
2.507622620637867
 40
4.092273613909081
 40
5.804541291925845
 40
7.555111087882607
 40
7.555111087882607
 40
7.555111087882607
 40
7.555111087882607
 10
373.4353662684765
 20
1038.892523029608
 30
0.0
 10
374.0166076287927
 20
1039.218470335702
 30
0.0
 10
374.9659642574467
 20
1039.846104450846
 30
0.0
 10
376.2384573683752
 20
1040.969884256444
 30
0.0
 10
377.2422271681351
 20
1042.133094237166
 30
0.0
 10
377.7887404491356
 20
1043.078929998817
 30
0.0
 10
377.9999320617055
 20
1043.582808628155
 30
0.0
  0
LINE
  5
1E6
330
181
100
AcDbEntity
  8
0
  6
Continuous
 62
     0
370
     0
100
AcDbLine
 10
377.999932
 20
1043.582809
 30
0.0
 11
378.912845
 21
1043.19279
 31
0.0
  0
ELLIPSE
  5
1E7
330
181
100
AcDbEntity
  8
0
  6
Continuous
 62
     0
370
     0
100
AcDbEllipse
 10
381.379613
 20
1038.03247
 30
0.0
 11
0.9998017560326858
 21
-0.01991101790411386
 31
0.0
210
0.0
220
0.0
230
1.0
 40
0.860009
 41
0.02315254236286
 42
1.587921671475886
  0
ARC
  5
1E8
330
181
100
AcDbEntity
  8
0
  6
Continuous
 62
     0
370
     0
100
AcDbCircle
 10
372.838535
 20
1045.747182
 30
0.0
 40
5.596832020094996
100
AcDbArc
 50
337.249807
 51
359.962365
  0
ARC
  5
1E9
330
181
100
AcDbEntity
  8
0
  6
Continuous
 62
     0
370
    30
100
AcDbCircle
 10
381.435349
 20
1003.621502
 30
0.0
 40
1.000015948502787
100
AcDbArc
 50
270.000913
 51
359.99908
  0
LINE
  5
1EA
330
181
100
AcDbEntity
  8
0
  6
Continuous
 62
     0
370
    30
100
AcDbLine
 10
340.435365
 20
1002.621483
 30
0.0
 11
381.43535
 21
1002.621482
 31
0.0
  0
LINE
  5
1EB
330
181
100
AcDbEntity
  8
0
  6
Continuous
 62
     0
370
    30
100
AcDbLine
 10
382.435366
 20
1063.121482
 30
0.0
 11
382.435365
 21
1003.621486
 31
0.0
  0
ARC
  5
1EC
330
181
100
AcDbEntity
  8
0
  6
Continuous
 62
     0
370
    30
100
AcDbCircle
 10
381.435366
 20
1063.121482
 30
0.0
 40
1.0
100
AcDbArc
 50
359.999999
 51
89.999999
  0
LINE
  5
1ED
330
181
100
AcDbEntity
  8
0
  6
Continuous
 62
     0
370
    30
100
AcDbLine
 10
339.518837
 20
1038.121484
 30
0.0
 11
340.435366
 21
1038.121484
 31
0.0
  0
LINE
  5
1EE
330
181
100
AcDbEntity
  8
0
  6
Continuous
 62
     0
370
    30
100
AcDbLine
 10
339.498762
 20
1039.326458
 30
0.0
 11
339.518837
 21
1038.121397
 31
0.0
  0
ARC
  5
1EF
330
181
100
AcDbEntity
  8
0
  6
Continuous
 62
     0
370
    30
100
AcDbCircle
 10
339.198801
 20
1039.321459
 30
0.0
 40
0.3000023806445378
100
AcDbArc
 50
0.954838
 51
90.00037
  0
LINE
  5
1F0
330
181
100
AcDbEntity
  8
0
  6
Continuous
 62
     0
370
    30
100
AcDbLine
 10
338.28544
 20
1039.621484
 30
0.0
 11
339.198799
 21
1039.621484
 31
0.0
  0
LINE
  5
1F1
330
181
100
AcDbEntity
  8
0
  6
Continuous
 62
     0
370
     0
100
AcDbLine
 10
339.198799
 20
1139.624202
 30
0.0
 11
339.198799
 21
1104.624202
 31
0.0
  0
LINE
  5
1F2
330
181
100
AcDbEntity
  8
0
  6
Continuous
 62
     0
370
    30
100
AcDbLine
 10
339.198799
 20
1104.624202
 30
0.0
 11
338.28544
 21
1104.624202
 31
0.0
  0
ARC
  5
1F3
330
181
100
AcDbEntity
  8
0
  6
Continuous
 62
     0
370
    30
100
AcDbCircle
 10
339.198801
 20
1104.924227
 30
0.0
 40
0.3000023806494043
100
AcDbArc
 50
269.99963
 51
359.045162
  0
LINE
  5
1F4
330
181
100
AcDbEntity
  8
0
  6
Continuous
 62
     0
370
     0
100
AcDbLine
 10
339.498762
 20
1139.329176
 30
0.0
 11
339.498762
 21
1104.919227
 31
0.0
  0
LINE
  5
1F5
330
181
100
AcDbEntity
  8
0
  6
Continuous
 62
     0
370
    30
100
AcDbLine
 10
339.498762
 20
1104.919227
 30
0.0
 11
339.518837
 21
1106.124288
 31
0.0
  0
LINE
  5
1F6
330
181
100
AcDbEntity
  8
0
  6
Continuous
 62
     0
370
    30
100
AcDbLine
 10
339.518837
 20
1138.124116
 30
0.0
 11
339.518837
 21
1106.124288
 31
0.0
  0
LINE
  5
1F7
330
181
100
AcDbEntity
  8
0
  6
Continuous
 62
     0
370
    30
100
AcDbLine
 10
339.518837
 20
1106.124202
 30
0.0
 11
340.435365
 21
1106.124202
 31
0.0
  0
LINE
  5
1F8
330
181
100
AcDbEntity
  8
0
  6
Continuous
 62
     0
370
    30
100
AcDbLine
 10
379.435366
 20
1164.124201
 30
0.0
 11
381.408927
 21
1164.124201
 31
0.0
  0
ARC
  5
1F9
330
181
100
AcDbEntity
  8
0
  6
Continuous
 62
     0
370
     0
100
AcDbCircle
 10
381.40891
 20
1163.124217
 30
0.0
 40
0.9999834551005683
100
AcDbArc
 50
359.999051
 51
89.999051
  0
LINE
  5
1FA
330
181
100
AcDbEntity
  8
0
  6
Continuous
 62
     0
370
     0
100
AcDbLine
 10
382.408894
 20
1163.124201
 30
0.0
 11
382.435366
 21
1163.124201
 31
0.0
  0
ARC
  5
1FB
330
181
100
AcDbEntity
  8
0
  6
Continuous
 62
     0
370
    30
100
AcDbCircle
 10
379.435366
 20
1163.124201
 30
0.0
 40
1.0
100
AcDbArc
 50
89.999999
 51
179.999999
  0
SPLINE
  5
1FC
330
181
100
AcDbEntity
  8
0
  6
Continuous
 62
     0
370
     0
100
AcDbSpline
210
0.0
220
0.0
230
1.0
 70
     8
 71
     3
 72
    21
 73
    17
 74
     0
 42
0.000000001
 43
0.0
 40
0.0
 40
0.0
 40
0.0
 40
0.0
 40
3.441841583726212
 40
6.882852512287517
 40
10.32313745608452
 40
13.76274326813163
 40
17.20191509642661
 40
20.64091833848999
 40
24.08005407847496
 40
27.51961152377153
 40
30.95977415881266
 40
34.40069259768724
 40
37.8424409908414
 40
41.28489904790864
 40
44.72789785151543
 40
48.17121764385792
 40
48.17121764385792
 40
48.17121764385792
 40
48.17121764385792
 10
382.379543273672
 20
1138.035187909483
 30
0.0
 10
382.3678829136102
 20
1137.450412386149
 30
0.0
 10
382.3421106285198
 20
1136.093392051279
 30
0.0
 10
382.3015616323753
 20
1133.578197261327
 30
0.0
 10
382.2646493023728
 20
1130.665978873722
 30
0.0
 10
382.2364332314316
 20
1127.458848517229
 30
0.0
 10
382.2207842622581
 20
1124.067165100489
 30
0.0
 10
382.2198469455416
 20
1120.608311071826
 30
0.0
 10
382.2337519672934
 20
1117.20188554771
 30
0.0
 10
382.2605888522596
 20
1113.965601263736
 30
0.0
 10
382.2966869068457
 20
1111.011610472356
 30
0.0
 10
382.3370818274614
 20
1108.441292320587
 30
0.0
 10
382.3762542708744
 20
1106.343966706439
 30
0.0
 10
382.4088320855264
 20
1104.791805466062
 30
0.0
 10
382.4303540833756
 20
1103.838509320652
 30
0.0
 10
382.435365504655
 20
1103.624201516941
 30
0.0
 10
382.4353654335152
 20
1103.62420413193
 30
0.0
  0
LINE
  5
1FD
330
181
100
AcDbEntity
  8
0
  6
Continuous
 62
     0
370
     0
100
AcDbLine
 10
382.408894
 20
1163.124201
 30
0.0
 11
382.408893
 21
1143.195508
 31
0.0
  0
SPLINE
  5
1FE
330
181
100
AcDbEntity
  8
0
  6
Continuous
 62
     0
370
     0
100
AcDbSpline
210
0.0
220
0.0
230
1.0
 70
     8
 71
     3
 72
    10
 73
     6
 74
     0
 42
0.000000001
 43
0.0
 40
0.0
 40
0.0
 40
0.0
 40
0.0
 40
2.060580258957641
 40
4.121723488388591
 40
6.183714354820633
 40
6.183714354820633
 40
6.183714354820633
 40
6.183714354820633
 10
382.4088933691268
 20
1143.195508130313
 30
0.0
 10
382.4088933600913
 20
1142.508648043994
 30
0.0
 10
382.4069818191379
 20
1141.122822385055
 30
0.0
 10
382.3978139476506
 20
1139.299453427204
 30
0.0
 10
382.3865289397354
 20
1138.385524134639
 30
0.0
 10
382.379543273672
 20
1138.035187909483
 30
0.0
  0
LINE
  5
1FF
330
181
100
AcDbEntity
  8
0
  6
Continuous
 62
     0
370
     0
100
AcDbLine
 10
382.408894
 20
1163.124201
 30
0.0
 11
381.408927
 21
1163.124201
 31
0.0
  0
LINE
  5
200
330
181
100
AcDbEntity
  8
0
  6
Continuous
 62
     0
370
     0
100
AcDbLine
 10
381.408927
 20
1163.124201
 30
0.0
 11
381.408926
 21
1143.195508
 31
0.0
  0
LINE
  5
201
330
181
100
AcDbEntity
  8
0
  6
Continuous
 62
     0
370
     0
100
AcDbLine
 10
381.408926
 20
1143.195508
 30
0.0
 11
382.408893
 21
1143.195508
 31
0.0
  0
LINE
  5
202
330
181
100
AcDbEntity
  8
0
  6
Continuous
 62
     0
370
     0
100
AcDbLine
 10
381.408926
 20
1143.195508
 30
0.0
 11
378.912845
 21
1143.195508
 31
0.0
  0
ARC
  5
203
330
181
100
AcDbEntity
  8
0
  6
Continuous
 62
     0
370
     0
100
AcDbCircle
 10
372.937396
 20
1145.748473
 30
0.0
 40
6.497970205878163
100
AcDbArc
 50
336.865776
 51
359.980174
  0
LINE
  5
204
330
181
100
AcDbEntity
  8
0
  6
Continuous
 62
     0
370
     0
100
AcDbLine
 10
379.435366
 20
1145.746224
 30
0.0
 11
379.435366
 21
1163.124201
 31
0.0
  0
LINE
  5
205
330
181
100
AcDbEntity
  8
0
  6
Continuous
 62
     0
370
     0
100
AcDbLine
 10
379.435366
 20
1163.124201
 30
0.0
 11
381.408927
 21
1163.124201
 31
0.0
  0
LINE
  5
206
330
181
100
AcDbEntity
  8
0
  6
Continuous
 62
     0
370
    30
100
AcDbLine
 10
378.435366
 20
1163.124201
 30
0.0
 11
378.435366
 21
1145.746224
 31
0.0
  0
LINE
  5
207
330
181
100
AcDbEntity
  8
0
  6
Continuous
 62
     0
370
     0
100
AcDbLine
 10
378.435366
 20
1145.746224
 30
0.0
 11
379.435366
 21
1145.746224
 31
0.0
  0
LINE
  5
208
330
181
100
AcDbEntity
  8
0
  6
Continuous
 62
     0
370
     0
100
AcDbLine
 10
379.435366
 20
1163.124201
 30
0.0
 11
378.435366
 21
1163.124201
 31
0.0
  0
LINE
  5
209
330
181
100
AcDbEntity
  8
0
  6
Continuous
 62
     0
370
     0
100
AcDbLine
 10
381.408927
 20
1163.124201
 30
0.0
 11
381.408927
 21
1164.124201
 31
0.0
  0
LINE
  5
20A
330
181
100
AcDbEntity
  8
0
  6
Continuous
 62
     0
370
     0
100
AcDbLine
 10
379.435366
 20
1164.124201
 30
0.0
 11
379.435366
 21
1163.124201
 31
0.0
  0
SPLINE
  5
20B
330
181
100
AcDbEntity
  8
0
  6
Continuous
 62
     0
370
     0
100
AcDbSpline
210
0.0
220
0.0
230
1.0
 70
     8
 71
     3
 72
    21
 73
    17
 74
     0
 42
0.000000001
 43
0.0
 40
50.74862133349283
 40
50.74862133349283
 40
50.74862133349283
 40
50.74862133349283
 40
54.37352077922175
 40
57.99842141517797
 40
61.62332340279636
 40
65.24822631733699
 40
68.87312970096797
 40
72.4980322990477
 40
76.12293325255028
 40
79.74783309166497
 40
83.37273265358229
 40
86.99763251981685
 40
90.62253396381332
 40
94.24743574225707
 40
97.8723411770366
 40
101.4972426669857
 40
101.4972426669857
 40
101.4972426669857
 40
101.4972426669857
 10
381.4353500180151
 20
1102.624200672223
 30
0.0
 10
381.4353499179492
 20
1102.624200664931
 30
0.0
 10
381.4303397463908
 20
1102.850117038477
 30
0.0
 10
381.4088608954902
 20
1103.855008063852
 30
0.0
 10
381.3763238984532
 20
1105.491143133635
 30
0.0
 10
381.3371952450316
 20
1107.701955735681
 30
0.0
 10
381.2968537648709
 20
1110.411071329978
 30
0.0
 10
381.2608151877718
 20
1113.52493722919
 30
0.0
 10
381.234010092634
 20
1116.936011731141
 30
0.0
 10
381.2201195162698
 20
1120.526438423318
 30
0.0
 10
381.2210620500017
 20
1124.1721018262
 30
0.0
 10
381.2366893315375
 20
1127.746975642162
 30
0.0
 10
381.2648719207374
 20
1131.127431692825
 30
0.0
 10
381.301725291312
 20
1134.196902157509
 30
0.0
 10
381.3422100409764
 20
1136.848547408375
 30
0.0
 10
381.3679660484835
 20
1138.278790077511
 30
0.0
 10
381.379613082276
 20
1138.895241287551
 30
0.0
  0
LINE
  5
20C
330
181
100
AcDbEntity
  8
0
  6
Continuous
 62
     0
370
     0
100
AcDbLine
 10
381.379613
 20
1138.895241
 30
0.0
 11
373.435366
 21
1138.895241
 31
0.0
  0
LINE
  5
20D
330
181
100
AcDbEntity
  8
0
  6
Continuous
 62
     0
370
     0
100
AcDbLine
 10
373.435366
 20
1138.895241
 30
0.0
 11
373.435366
 21
1141.624201
 31
0.0
  0
LINE
  5
20E
330
181
100
AcDbEntity
  8
0
  6
Continuous
 62
     0
370
    30
100
AcDbLine
 10
373.435366
 20
1141.624201
 30
0.0
 11
340.435366
 21
1141.624201
 31
0.0
  0
LINE
  5
20F
330
181
100
AcDbEntity
  8
0
  6
Continuous
 62
     0
370
    30
100
AcDbLine
 10
340.435366
 20
1141.624201
 30
0.0
 11
340.435365
 21
1102.624201
 31
0.0
  0
ARC
  5
210
330
181
100
AcDbEntity
  8
0
  6
Continuous
 62
     0
370
    30
100
AcDbCircle
 10
373.435366
 20
1146.624201
 30
0.0
 40
5.0
100
AcDbArc
 50
269.999999
 51
359.999999
  0
SPLINE
  5
211
330
181
100
AcDbEntity
  8
0
  6
Continuous
 62
     0
370
     0
100
AcDbSpline
210
0.0
220
0.0
230
1.0
 70
     8
 71
     3
 72
    10
 73
     6
 74
     0
 42
0.000000001
 43
0.0
 40
0.0
 40
0.0
 40
0.0
 40
0.0
 40
1.717118880988121
 40
3.434234350498481
 40
5.151328931939037
 40
5.151328931939037
 40
5.151328931939037
 40
5.151328931939037
 10
381.379613082276
 20
1138.895241287551
 30
0.0
 10
381.3865914163358
 20
1139.187246605843
 30
0.0
 10
381.3978165715246
 20
1139.949032375775
 30
0.0
 10
381.4070682051194
 20
1141.468492079522
 30
0.0
 10
381.4089264896166
 20
1142.623143277682
 30
0.0
 10
381.408926497146
 20
1143.195508138162
 30
0.0
  0
SPLINE
  5
212
330
181
100
AcDbEntity
  8
0
  6
Continuous
 62
     0
370
     0
100
AcDbSpline
210
0.0
220
0.0
230
1.0
 70
     8
 71
     3
 72
    14
 73
    10
 74
     0
 42
0.000000001
 43
0.0
 40
0.0
 40
0.0
 40
0.0
 40
0.0
 40
1.037916076906717
 40
2.099546426320637
 40
3.180005274011714
 40
4.273943819259252
 40
5.376970896910018
 40
6.485521900263591
 40
7.596828781826694
 40
7.596828781826694
 40
7.596828781826694
 40
7.596828781826694
 10
378.9128452605074
 20
1143.195508170998
 30
0.0
 10
378.7550093211167
 20
1142.887637323468
 30
0.0
 10
378.3768643580539
 20
1142.293528773035
 30
0.0
 10
377.6916421655409
 20
1141.507644248284
 30
0.0
 10
376.9198831972155
 20
1140.815855549217
 30
0.0
 10
376.0907016508354
 20
1140.213548524032
 30
0.0
 10
375.2239527206601
 20
1139.694168844261
 30
0.0
 10
374.3350645492091
 20
1139.251769256868
 30
0.0
 10
373.7353976144114
 20
1139.006090481824
 30
0.0
 10
373.4353662684774
 20
1138.895241392056
 30
0.0
  0
SPLINE
  5
213
330
181
100
AcDbEntity
  8
0
  6
Continuous
 62
     0
370
     0
100
AcDbSpline
210
0.0
220
0.0
230
1.0
 70
     8
 71
     3
 72
    11
 73
     7
 74
     0
 42
0.000000001
 43
0.0
 40
0.0
 40
0.0
 40
0.0
 40
0.0
 40
2.507622620637867
 40
4.092273613909081
 40
5.804541291925845
 40
7.555111087882607
 40
7.555111087882607
 40
7.555111087882607
 40
7.555111087882607
 10
373.4353662684774
 20
1138.895241392056
 30
0.0
 10
374.0166076287936
 20
1139.221188698149
 30
0.0
 10
374.9659642574476
 20
1139.848822813294
 30
0.0
 10
376.2384573683761
 20
1140.972602618892
 30
0.0
 10
377.242227168136
 20
1142.135812599614
 30
0.0
 10
377.7887404491365
 20
1143.081648361265
 30
0.0
 10
377.9999320617064
 20
1143.585526990602
 30
0.0
  0
LINE
  5
214
330
181
100
AcDbEntity
  8
0
  6
Continuous
 62
     0
370
     0
100
AcDbLine
 10
377.999932
 20
1143.585527
 30
0.0
 11
378.912845
 21
1143.195508
 31
0.0
  0
ELLIPSE
  5
215
330
181
100
AcDbEntity
  8
0
  6
Continuous
 62
     0
370
     0
100
AcDbEllipse
 10
381.379613
 20
1138.035188
 30
0.0
 11
0.9998017560326858
 21
-0.01991101790411386
 31
0.0
210
0.0
220
0.0
230
1.0
 40
0.860009
 41
0.0231525423628769
 42
1.587921671475886
  0
ARC
  5
216
330
181
100
AcDbEntity
  8
0
  6
Continuous
 62
     0
370
     0
100
AcDbCircle
 10
372.838535
 20
1145.749901
 30
0.0
 40
5.596832020090589
100
AcDbArc
 50
337.249807
 51
359.962365
  0
ARC
  5
217
330
181
100
AcDbEntity
  8
0
  6
Continuous
 62
     0
370
    30
100
AcDbCircle
 10
381.435349
 20
1103.62422
 30
0.0
 40
1.000015948502289
100
AcDbArc
 50
270.000913
 51
359.99908
  0
LINE
  5
218
330
181
100
AcDbEntity
  8
0
  6
Continuous
 62
     0
370
    30
100
AcDbLine
 10
340.435365
 20
1102.624201
 30
0.0
 11
381.43535
 21
1102.624201
 31
0.0
  0
LINE
  5
219
330
181
100
AcDbEntity
  8
0
  6
Continuous
 62
     0
370
    30
100
AcDbLine
 10
382.435366
 20
1163.124201
 30
0.0
 11
382.435365
 21
1103.624204
 31
0.0
  0
ARC
  5
21A
330
181
100
AcDbEntity
  8
0
  6
Continuous
 62
     0
370
    30
100
AcDbCircle
 10
381.435366
 20
1163.124201
 30
0.0
 40
1.0
100
AcDbArc
 50
359.999999
 51
89.999999
  0
LINE
  5
21B
330
181
100
AcDbEntity
  8
0
  6
Continuous
 62
     0
370
    30
100
AcDbLine
 10
339.518837
 20
1138.124202
 30
0.0
 11
340.435366
 21
1138.124202
 31
0.0
  0
LINE
  5
21C
330
181
100
AcDbEntity
  8
0
  6
Continuous
 62
     0
370
    30
100
AcDbLine
 10
339.498762
 20
1139.329176
 30
0.0
 11
339.518837
 21
1138.124116
 31
0.0
  0
ARC
  5
21D
330
181
100
AcDbEntity
  8
0
  6
Continuous
 62
     0
370
    30
100
AcDbCircle
 10
339.198801
 20
1139.324177
 30
0.0
 40
0.3000023806442151
100
AcDbArc
 50
0.954838
 51
90.00037
  0
LINE
  5
21E
330
181
100
AcDbEntity
  8
0
  6
Continuous
 62
     0
370
    30
100
AcDbLine
 10
338.28544
 20
1139.624202
 30
0.0
 11
339.198799
 21
1139.624202
 31
0.0
  0
LINE
  5
21F
330
181
100
AcDbEntity
  8
0
  6
Continuous
 62
     0
370
     0
100
AcDbLine
 10
339.198799
 20
1239.624202
 30
0.0
 11
339.198799
 21
1204.624202
 31
0.0
  0
LINE
  5
220
330
181
100
AcDbEntity
  8
0
  6
Continuous
 62
     0
370
    30
100
AcDbLine
 10
339.198799
 20
1204.624202
 30
0.0
 11
338.28544
 21
1204.624202
 31
0.0
  0
ARC
  5
221
330
181
100
AcDbEntity
  8
0
  6
Continuous
 62
     0
370
    30
100
AcDbCircle
 10
339.198801
 20
1204.924227
 30
0.0
 40
0.3000023806364929
100
AcDbArc
 50
269.99963
 51
359.045162
  0
LINE
  5
222
330
181
100
AcDbEntity
  8
0
  6
Continuous
 62
     0
370
     0
100
AcDbLine
 10
339.498762
 20
1239.329176
 30
0.0
 11
339.498762
 21
1204.919227
 31
0.0
  0
LINE
  5
223
330
181
100
AcDbEntity
  8
0
  6
Continuous
 62
     0
370
    30
100
AcDbLine
 10
339.498762
 20
1204.919227
 30
0.0
 11
339.518837
 21
1206.124288
 31
0.0
  0
LINE
  5
224
330
181
100
AcDbEntity
  8
0
  6
Continuous
 62
     0
370
    30
100
AcDbLine
 10
339.518837
 20
1238.124116
 30
0.0
 11
339.518837
 21
1206.124288
 31
0.0
  0
LINE
  5
225
330
181
100
AcDbEntity
  8
0
  6
Continuous
 62
     0
370
    30
100
AcDbLine
 10
339.518837
 20
1206.124202
 30
0.0
 11
340.435365
 21
1206.124202
 31
0.0
  0
LINE
  5
226
330
181
100
AcDbEntity
  8
0
  6
Continuous
 62
     0
370
    30
100
AcDbLine
 10
379.435366
 20
1264.124201
 30
0.0
 11
381.408927
 21
1264.124201
 31
0.0
  0
ARC
  5
227
330
181
100
AcDbEntity
  8
0
  6
Continuous
 62
     0
370
     0
100
AcDbCircle
 10
381.40891
 20
1263.124217
 30
0.0
 40
0.9999834550838564
100
AcDbArc
 50
359.999051
 51
89.999051
  0
LINE
  5
228
330
181
100
AcDbEntity
  8
0
  6
Continuous
 62
     0
370
     0
100
AcDbLine
 10
382.408894
 20
1263.124201
 30
0.0
 11
382.435366
 21
1263.124201
 31
0.0
  0
ARC
  5
229
330
181
100
AcDbEntity
  8
0
  6
Continuous
 62
     0
370
    30
100
AcDbCircle
 10
379.435366
 20
1263.124201
 30
0.0
 40
1.0
100
AcDbArc
 50
89.999999
 51
179.999999
  0
SPLINE
  5
22A
330
181
100
AcDbEntity
  8
0
  6
Continuous
 62
     0
370
     0
100
AcDbSpline
210
0.0
220
0.0
230
1.0
 70
     8
 71
     3
 72
    21
 73
    17
 74
     0
 42
0.000000001
 43
0.0
 40
0.0
 40
0.0
 40
0.0
 40
0.0
 40
3.441841583726196
 40
6.882852512287542
 40
10.32313745608452
 40
13.76274326813163
 40
17.20191509642661
 40
20.64091833848999
 40
24.08005407847496
 40
27.51961152377153
 40
30.95977415881266
 40
34.40069259768726
 40
37.84244099084142
 40
41.28489904790865
 40
44.72789785151544
 40
48.17121764385791
 40
48.17121764385791
 40
48.17121764385791
 40
48.17121764385791
 10
382.379543273672
 20
1238.035187909483
 30
0.0
 10
382.3678829136102
 20
1237.450412386149
 30
0.0
 10
382.3421106285198
 20
1236.09339205128
 30
0.0
 10
382.3015616323754
 20
1233.578197261327
 30
0.0
 10
382.2646493023728
 20
1230.665978873722
 30
0.0
 10
382.2364332314316
 20
1227.458848517229
 30
0.0
 10
382.2207842622581
 20
1224.067165100489
 30
0.0
 10
382.2198469455416
 20
1220.608311071826
 30
0.0
 10
382.2337519672934
 20
1217.20188554771
 30
0.0
 10
382.2605888522596
 20
1213.965601263736
 30
0.0
 10
382.2966869068457
 20
1211.011610472356
 30
0.0
 10
382.3370818274614
 20
1208.441292320587
 30
0.0
 10
382.3762542708744
 20
1206.343966706439
 30
0.0
 10
382.4088320855264
 20
1204.791805466062
 30
0.0
 10
382.4303540833756
 20
1203.838509320652
 30
0.0
 10
382.435365504655
 20
1203.624201516941
 30
0.0
 10
382.4353654335152
 20
1203.62420413193
 30
0.0
  0
LINE
  5
22B
330
181
100
AcDbEntity
  8
0
  6
Continuous
 62
     0
370
     0
100
AcDbLine
 10
382.408894
 20
1263.124201
 30
0.0
 11
382.408893
 21
1243.195508
 31
0.0
  0
SPLINE
  5
22C
330
181
100
AcDbEntity
  8
0
  6
Continuous
 62
     0
370
     0
100
AcDbSpline
210
0.0
220
0.0
230
1.0
 70
     8
 71
     3
 72
    10
 73
     6
 74
     0
 42
0.000000001
 43
0.0
 40
0.0
 40
0.0
 40
0.0
 40
0.0
 40
2.060580258957641
 40
4.121723488388591
 40
6.183714354820633
 40
6.183714354820633
 40
6.183714354820633
 40
6.183714354820633
 10
382.4088933691268
 20
1243.195508130313
 30
0.0
 10
382.4088933600913
 20
1242.508648043994
 30
0.0
 10
382.4069818191379
 20
1241.122822385054
 30
0.0
 10
382.3978139476506
 20
1239.299453427204
 30
0.0
 10
382.3865289397354
 20
1238.385524134639
 30
0.0
 10
382.379543273672
 20
1238.035187909483
 30
0.0
  0
LINE
  5
22D
330
181
100
AcDbEntity
  8
0
  6
Continuous
 62
     0
370
     0
100
AcDbLine
 10
382.408894
 20
1263.124201
 30
0.0
 11
381.408927
 21
1263.124201
 31
0.0
  0
LINE
  5
22E
330
181
100
AcDbEntity
  8
0
  6
Continuous
 62
     0
370
     0
100
AcDbLine
 10
381.408927
 20
1263.124201
 30
0.0
 11
381.408926
 21
1243.195508
 31
0.0
  0
LINE
  5
22F
330
181
100
AcDbEntity
  8
0
  6
Continuous
 62
     0
370
     0
100
AcDbLine
 10
381.408926
 20
1243.195508
 30
0.0
 11
382.408893
 21
1243.195508
 31
0.0
  0
LINE
  5
230
330
181
100
AcDbEntity
  8
0
  6
Continuous
 62
     0
370
     0
100
AcDbLine
 10
381.408926
 20
1243.195508
 30
0.0
 11
378.912845
 21
1243.195508
 31
0.0
  0
ARC
  5
231
330
181
100
AcDbEntity
  8
0
  6
Continuous
 62
     0
370
     0
100
AcDbCircle
 10
372.937396
 20
1245.748473
 30
0.0
 40
6.497970205893751
100
AcDbArc
 50
336.865776
 51
359.980174
  0
LINE
  5
232
330
181
100
AcDbEntity
  8
0
  6
Continuous
 62
     0
370
     0
100
AcDbLine
 10
379.435366
 20
1245.746224
 30
0.0
 11
379.435366
 21
1263.124201
 31
0.0
  0
LINE
  5
233
330
181
100
AcDbEntity
  8
0
  6
Continuous
 62
     0
370
     0
100
AcDbLine
 10
379.435366
 20
1263.124201
 30
0.0
 11
381.408927
 21
1263.124201
 31
0.0
  0
LINE
  5
234
330
181
100
AcDbEntity
  8
0
  6
Continuous
 62
     0
370
    30
100
AcDbLine
 10
378.435366
 20
1263.124201
 30
0.0
 11
378.435366
 21
1245.746224
 31
0.0
  0
LINE
  5
235
330
181
100
AcDbEntity
  8
0
  6
Continuous
 62
     0
370
     0
100
AcDbLine
 10
378.435366
 20
1245.746224
 30
0.0
 11
379.435366
 21
1245.746224
 31
0.0
  0
LINE
  5
236
330
181
100
AcDbEntity
  8
0
  6
Continuous
 62
     0
370
     0
100
AcDbLine
 10
379.435366
 20
1263.124201
 30
0.0
 11
378.435366
 21
1263.124201
 31
0.0
  0
LINE
  5
237
330
181
100
AcDbEntity
  8
0
  6
Continuous
 62
     0
370
     0
100
AcDbLine
 10
381.408927
 20
1263.124201
 30
0.0
 11
381.408927
 21
1264.124201
 31
0.0
  0
LINE
  5
238
330
181
100
AcDbEntity
  8
0
  6
Continuous
 62
     0
370
     0
100
AcDbLine
 10
379.435366
 20
1264.124201
 30
0.0
 11
379.435366
 21
1263.124201
 31
0.0
  0
SPLINE
  5
239
330
181
100
AcDbEntity
  8
0
  6
Continuous
 62
     0
370
     0
100
AcDbSpline
210
0.0
220
0.0
230
1.0
 70
     8
 71
     3
 72
    21
 73
    17
 74
     0
 42
0.000000001
 43
0.0
 40
50.74862133349284
 40
50.74862133349284
 40
50.74862133349284
 40
50.74862133349284
 40
54.37352077922175
 40
57.99842141517795
 40
61.62332340279637
 40
65.24822631733699
 40
68.87312970096797
 40
72.4980322990477
 40
76.12293325255028
 40
79.747833091665
 40
83.37273265358229
 40
86.99763251981688
 40
90.62253396381335
 40
94.24743574225705
 40
97.87234117703663
 40
101.4972426669857
 40
101.4972426669857
 40
101.4972426669857
 40
101.4972426669857
 10
381.4353500180151
 20
1202.624200672223
 30
0.0
 10
381.4353499179492
 20
1202.624200664931
 30
0.0
 10
381.4303397463908
 20
1202.850117038478
 30
0.0
 10
381.4088608954902
 20
1203.855008063852
 30
0.0
 10
381.3763238984532
 20
1205.491143133635
 30
0.0
 10
381.3371952450316
 20
1207.701955735681
 30
0.0
 10
381.2968537648709
 20
1210.411071329978
 30
0.0
 10
381.2608151877718
 20
1213.52493722919
 30
0.0
 10
381.234010092634
 20
1216.936011731141
 30
0.0
 10
381.2201195162698
 20
1220.526438423318
 30
0.0
 10
381.2210620500016
 20
1224.172101826199
 30
0.0
 10
381.2366893315376
 20
1227.746975642162
 30
0.0
 10
381.2648719207374
 20
1231.127431692825
 30
0.0
 10
381.301725291312
 20
1234.196902157509
 30
0.0
 10
381.3422100409764
 20
1236.848547408375
 30
0.0
 10
381.3679660484835
 20
1238.278790077511
 30
0.0
 10
381.379613082276
 20
1238.895241287551
 30
0.0
  0
LINE
  5
23A
330
181
100
AcDbEntity
  8
0
  6
Continuous
 62
     0
370
     0
100
AcDbLine
 10
381.379613
 20
1238.895241
 30
0.0
 11
373.435366
 21
1238.895241
 31
0.0
  0
LINE
  5
23B
330
181
100
AcDbEntity
  8
0
  6
Continuous
 62
     0
370
     0
100
AcDbLine
 10
373.435366
 20
1238.895241
 30
0.0
 11
373.435366
 21
1241.624201
 31
0.0
  0
LINE
  5
23C
330
181
100
AcDbEntity
  8
0
  6
Continuous
 62
     0
370
    30
100
AcDbLine
 10
373.435366
 20
1241.624201
 30
0.0
 11
340.435366
 21
1241.624201
 31
0.0
  0
LINE
  5
23D
330
181
100
AcDbEntity
  8
0
  6
Continuous
 62
     0
370
    30
100
AcDbLine
 10
340.435366
 20
1241.624201
 30
0.0
 11
340.435365
 21
1202.624201
 31
0.0
  0
ARC
  5
23E
330
181
100
AcDbEntity
  8
0
  6
Continuous
 62
     0
370
    30
100
AcDbCircle
 10
373.435366
 20
1246.624201
 30
0.0
 40
5.0
100
AcDbArc
 50
269.999999
 51
359.999999
  0
SPLINE
  5
23F
330
181
100
AcDbEntity
  8
0
  6
Continuous
 62
     0
370
     0
100
AcDbSpline
210
0.0
220
0.0
230
1.0
 70
     8
 71
     3
 72
    10
 73
     6
 74
     0
 42
0.000000001
 43
0.0
 40
0.0
 40
0.0
 40
0.0
 40
0.0
 40
1.717118880988082
 40
3.434234350498468
 40
5.151328931939053
 40
5.151328931939053
 40
5.151328931939053
 40
5.151328931939053
 10
381.379613082276
 20
1238.895241287551
 30
0.0
 10
381.3865914163358
 20
1239.187246605843
 30
0.0
 10
381.3978165715246
 20
1239.949032375775
 30
0.0
 10
381.4070682051194
 20
1241.468492079521
 30
0.0
 10
381.4089264896166
 20
1242.623143277682
 30
0.0
 10
381.408926497146
 20
1243.195508138162
 30
0.0
  0
SPLINE
  5
240
330
181
100
AcDbEntity
  8
0
  6
Continuous
 62
     0
370
     0
100
AcDbSpline
210
0.0
220
0.0
230
1.0
 70
     8
 71
     3
 72
    14
 73
    10
 74
     0
 42
0.000000001
 43
0.0
 40
0.0
 40
0.0
 40
0.0
 40
0.0
 40
1.037916076906669
 40
2.09954642632061
 40
3.180005274011688
 40
4.273943819259226
 40
5.376970896910004
 40
6.485521900263555
 40
7.596828781826676
 40
7.596828781826676
 40
7.596828781826676
 40
7.596828781826676
 10
378.9128452605074
 20
1243.195508170998
 30
0.0
 10
378.7550093211167
 20
1242.887637323468
 30
0.0
 10
378.3768643580539
 20
1242.293528773035
 30
0.0
 10
377.6916421655409
 20
1241.507644248284
 30
0.0
 10
376.9198831972155
 20
1240.815855549217
 30
0.0
 10
376.0907016508353
 20
1240.213548524032
 30
0.0
 10
375.2239527206602
 20
1239.694168844261
 30
0.0
 10
374.3350645492091
 20
1239.251769256868
 30
0.0
 10
373.7353976144114
 20
1239.006090481824
 30
0.0
 10
373.4353662684774
 20
1238.895241392056
 30
0.0
  0
SPLINE
  5
241
330
181
100
AcDbEntity
  8
0
  6
Continuous
 62
     0
370
     0
100
AcDbSpline
210
0.0
220
0.0
230
1.0
 70
     8
 71
     3
 72
    11
 73
     7
 74
     0
 42
0.000000001
 43
0.0
 40
0.0
 40
0.0
 40
0.0
 40
0.0
 40
2.507622620637867
 40
4.092273613909081
 40
5.804541291925845
 40
7.555111087882607
 40
7.555111087882607
 40
7.555111087882607
 40
7.555111087882607
 10
373.4353662684774
 20
1238.895241392056
 30
0.0
 10
374.0166076287936
 20
1239.221188698149
 30
0.0
 10
374.9659642574476
 20
1239.848822813293
 30
0.0
 10
376.2384573683761
 20
1240.972602618892
 30
0.0
 10
377.242227168136
 20
1242.135812599614
 30
0.0
 10
377.7887404491365
 20
1243.081648361265
 30
0.0
 10
377.9999320617064
 20
1243.585526990602
 30
0.0
  0
LINE
  5
242
330
181
100
AcDbEntity
  8
0
  6
Continuous
 62
     0
370
     0
100
AcDbLine
 10
377.999932
 20
1243.585527
 30
0.0
 11
378.912845
 21
1243.195508
 31
0.0
  0
ELLIPSE
  5
243
330
181
100
AcDbEntity
  8
0
  6
Continuous
 62
     0
370
     0
100
AcDbEllipse
 10
381.379613
 20
1238.035188
 30
0.0
 11
0.9998017560326858
 21
-0.01991101790411386
 31
0.0
210
0.0
220
0.0
230
1.0
 40
0.860009
 41
0.023152542362844
 42
1.587921671475886
  0
ARC
  5
244
330
181
100
AcDbEntity
  8
0
  6
Continuous
 62
     0
370
     0
100
AcDbCircle
 10
372.838535
 20
1245.749901
 30
0.0
 40
5.596832020077902
100
AcDbArc
 50
337.249807
 51
359.962365
  0
ARC
  5
245
330
181
100
AcDbEntity
  8
0
  6
Continuous
 62
     0
370
    30
100
AcDbCircle
 10
381.435349
 20
1203.62422
 30
0.0
 40
1.00001594850958
100
AcDbArc
 50
270.000913
 51
359.99908
  0
LINE
  5
246
330
181
100
AcDbEntity
  8
0
  6
Continuous
 62
     0
370
    30
100
AcDbLine
 10
340.435365
 20
1202.624201
 30
0.0
 11
381.43535
 21
1202.624201
 31
0.0
  0
LINE
  5
247
330
181
100
AcDbEntity
  8
0
  6
Continuous
 62
     0
370
    30
100
AcDbLine
 10
382.435366
 20
1263.124201
 30
0.0
 11
382.435365
 21
1203.624204
 31
0.0
  0
ARC
  5
248
330
181
100
AcDbEntity
  8
0
  6
Continuous
 62
     0
370
    30
100
AcDbCircle
 10
381.435366
 20
1263.124201
 30
0.0
 40
1.0
100
AcDbArc
 50
359.999999
 51
89.999999
  0
LINE
  5
249
330
181
100
AcDbEntity
  8
0
  6
Continuous
 62
     0
370
    30
100
AcDbLine
 10
339.518837
 20
1238.124202
 30
0.0
 11
340.435366
 21
1238.124202
 31
0.0
  0
LINE
  5
24A
330
181
100
AcDbEntity
  8
0
  6
Continuous
 62
     0
370
    30
100
AcDbLine
 10
339.498762
 20
1239.329176
 30
0.0
 11
339.518837
 21
1238.124116
 31
0.0
  0
ARC
  5
24B
330
181
100
AcDbEntity
  8
0
  6
Continuous
 62
     0
370
    30
100
AcDbCircle
 10
339.198801
 20
1239.324177
 30
0.0
 40
0.3000023806364364
100
AcDbArc
 50
0.954838
 51
90.00037
  0
LINE
  5
24C
330
181
100
AcDbEntity
  8
0
  6
Continuous
 62
     0
370
    30
100
AcDbLine
 10
338.28544
 20
1239.624202
 30
0.0
 11
339.198799
 21
1239.624202
 31
0.0
  0
LINE
  5
24D
330
181
100
AcDbEntity
  8
0
  6
Continuous
 62
     0
370
    30
100
AcDbLine
 10
336.28544
 20
1296.124202
 30
0.0
 11
338.28544
 21
1296.124202
 31
0.0
  0
LINE
  5
24E
330
181
100
AcDbEntity
  8
0
  6
Continuous
 62
     0
370
    30
100
AcDbLine
 10
336.28544
 20
1296.124202
 30
0.0
 11
336.28544
 21
1256.124202
 31
0.0
  0
LINE
  5
24F
330
181
100
AcDbEntity
  8
0
  6
Continuous
 62
     0
370
     0
100
AcDbLine
 10
336.285442
 20
1256.124202
 30
0.0
 11
338.285442
 21
1256.124202
 31
0.0
  0
LINE
  5
250
330
181
100
AcDbEntity
  8
0
  6
Continuous
 62
     0
370
    30
100
AcDbLine
 10
338.28544
 20
1256.124202
 30
0.0
 11
338.28544
 21
1296.124202
 31
0.0
  0
LINE
  5
251
330
181
100
AcDbEntity
  8
0
  6
Continuous
 62
     0
370
     0
100
AcDbLine
 10
336.285442
 20
768.124202
 30
0.0
 11
338.285442
 21
768.124202
 31
0.0
  0
LINE
  5
252
330
181
100
AcDbEntity
  8
0
  6
Continuous
 62
     0
370
    30
100
AcDbLine
 10
338.28544
 20
768.124202
 30
0.0
 11
338.28544
 21
728.124202
 31
0.0
  0
LINE
  5
253
330
181
100
AcDbEntity
  8
0
  6
Continuous
 62
     0
370
    30
100
AcDbLine
 10
336.28544
 20
728.124202
 30
0.0
 11
336.28544
 21
768.124202
 31
0.0
  0
LINE
  5
254
330
181
100
AcDbEntity
  8
0
  6
Continuous
 62
     0
370
    30
100
AcDbLine
 10
336.28544
 20
728.124202
 30
0.0
 11
338.28544
 21
728.124202
 31
0.0
  0
LINE
  5
255
330
181
100
AcDbEntity
  8
0
  6
Continuous
 62
     0
370
    30
100
AcDbLine
 10
336.285442
 20
1256.124202
 30
0.0
 11
336.285442
 21
768.124202
 31
0.0
  0
LINE
  5
256
330
181
100
AcDbEntity
  8
0
  6
Continuous
 62
     0
370
    30
100
AcDbLine
 10
338.285442
 20
768.124202
 30
0.0
 11
338.285442
 21
1256.124202
 31
0.0
  0
ENDBLK
  5
258
330
181
100
AcDbEntity
  8
0
100
AcDbBlockEnd
  0
BLOCK
  5
330
330
25A
100
AcDbEntity
  8
0
100
AcDbBlockBegin
  2
d
 70
     0
 10
-109.413551
 20
0.0
 30
0.0
  3
d
  1

  0
LINE
  5
25B
330
25A
100
AcDbEntity
  8
0
  6
Continuous
 62
     0
370
     0
100
AcDbLine
 10
-154.82459
 20
904.621628
 30
0.0
 11
-154.82459
 21
939.621628
 31
0.0
  0
LINE
  5
25C
330
25A
100
AcDbEntity
  8
0
  6
Continuous
 62
     0
370
    30
100
AcDbLine
 10
-154.82459
 20
904.621628
 30
0.0
 11
-153.911232
 21
904.621628
 31
0.0
  0
ARC
  5
25D
330
25A
100
AcDbEntity
  8
0
  6
Continuous
 62
     0
370
    30
100
AcDbCircle
 10
-154.824592
 20
904.921653
 30
0.0
 40
0.30000238064997
100
AcDbArc
 50
180.954838
 51
270.00037
  0
LINE
  5
25E
330
25A
100
AcDbEntity
  8
0
  6
Continuous
 62
     0
370
     0
100
AcDbLine
 10
-155.124553
 20
904.916654
 30
0.0
 11
-155.124553
 21
939.326603
 31
0.0
  0
LINE
  5
25F
330
25A
100
AcDbEntity
  8
0
  6
Continuous
 62
     0
370
    30
100
AcDbLine
 10
-155.124553
 20
904.916654
 30
0.0
 11
-155.144628
 21
906.121715
 31
0.0
  0
LINE
  5
260
330
25A
100
AcDbEntity
  8
0
  6
Continuous
 62
     0
370
    30
100
AcDbLine
 10
-155.144628
 20
906.121715
 30
0.0
 11
-155.144628
 21
938.121542
 31
0.0
  0
LINE
  5
261
330
25A
100
AcDbEntity
  8
0
  6
Continuous
 62
     0
370
    30
100
AcDbLine
 10
-155.144628
 20
906.121628
 30
0.0
 11
-156.061157
 21
906.121628
 31
0.0
  0
LINE
  5
262
330
25A
100
AcDbEntity
  8
0
  6
Continuous
 62
     0
370
     0
100
AcDbLine
 10
-197.034718
 20
943.192935
 30
0.0
 11
-194.538637
 21
943.192935
 31
0.0
  0
ARC
  5
263
330
25A
100
AcDbEntity
  8
0
  6
Continuous
 62
     0
370
     0
100
AcDbCircle
 10
-188.563195
 20
945.745898
 30
0.0
 40
6.497962822428528
100
AcDbArc
 50
180.019813
 51
203.134237
  0
LINE
  5
264
330
25A
100
AcDbEntity
  8
0
  6
Continuous
 62
     0
370
     0
100
AcDbLine
 10
-195.061158
 20
945.743651
 30
0.0
 11
-195.061158
 21
963.121627
 31
0.0
  0
LINE
  5
265
330
25A
100
AcDbEntity
  8
0
  6
Continuous
 62
     0
370
     0
100
AcDbLine
 10
-195.061158
 20
963.121627
 30
0.0
 11
-197.034718
 21
963.121627
 31
0.0
  0
LINE
  5
266
330
25A
100
AcDbEntity
  8
0
  6
Continuous
 62
     0
370
     0
100
AcDbLine
 10
-197.034718
 20
963.121627
 30
0.0
 11
-197.034718
 21
943.192935
 31
0.0
  0
LINE
  5
267
330
25A
100
AcDbEntity
  8
0
  6
Continuous
 62
     0
370
    30
100
AcDbLine
 10
-197.034718
 20
964.121627
 30
0.0
 11
-195.061158
 21
964.121627
 31
0.0
  0
LINE
  5
268
330
25A
100
AcDbEntity
  8
0
  6
Continuous
 62
     0
370
    30
100
AcDbLine
 10
-197.061158
 20
964.121627
 30
0.0
 11
-197.034718
 21
964.121627
 31
0.0
  0
LINE
  5
269
330
25A
100
AcDbEntity
  8
0
  6
Continuous
 62
     0
370
     0
100
AcDbLine
 10
-197.034718
 20
963.121627
 30
0.0
 11
-197.034718
 21
964.121627
 31
0.0
  0
LINE
  5
26A
330
25A
100
AcDbEntity
  8
0
  6
Continuous
 62
     0
370
     0
100
AcDbLine
 10
-195.061158
 20
964.121627
 30
0.0
 11
-195.061158
 21
963.121627
 31
0.0
  0
ARC
  5
26B
330
25A
100
AcDbEntity
  8
0
  6
Continuous
 62
     0
370
    30
100
AcDbCircle
 10
-197.034702
 20
963.121644
 30
0.0
 40
0.9999834550448069
100
AcDbArc
 50
90.000949
 51
180.000949
  0
LINE
  5
26C
330
25A
100
AcDbEntity
  8
0
  6
Continuous
 62
     0
370
     0
100
AcDbLine
 10
-198.034685
 20
963.121627
 30
0.0
 11
-197.034718
 21
963.121627
 31
0.0
  0
LINE
  5
26D
330
25A
100
AcDbEntity
  8
0
  6
Continuous
 62
     0
370
     0
100
AcDbLine
 10
-198.034685
 20
943.192935
 30
0.0
 11
-198.034685
 21
963.121627
 31
0.0
  0
LINE
  5
26E
330
25A
100
AcDbEntity
  8
0
  6
Continuous
 62
     0
370
     0
100
AcDbLine
 10
-198.061158
 20
963.121627
 30
0.0
 11
-198.034685
 21
963.121627
 31
0.0
  0
LINE
  5
26F
330
25A
100
AcDbEntity
  8
0
  6
Continuous
 62
     0
370
     0
100
AcDbLine
 10
-195.061158
 20
963.121627
 30
0.0
 11
-194.061158
 21
963.121627
 31
0.0
  0
ARC
  5
270
330
25A
100
AcDbEntity
  8
0
  6
Continuous
 62
     0
370
    30
100
AcDbCircle
 10
-195.061158
 20
963.121627
 30
0.0
 40
1.0
100
AcDbArc
 50
0.000001
 51
90.000001
  0
LINE
  5
271
330
25A
100
AcDbEntity
  8
0
  6
Continuous
 62
     0
370
    30
100
AcDbLine
 10
-194.061158
 20
963.121627
 30
0.0
 11
-194.061158
 21
945.743651
 31
0.0
  0
SPLINE
  5
272
330
25A
100
AcDbEntity
  8
0
  6
Continuous
 62
     0
370
     0
100
AcDbSpline
210
0.0
220
0.0
230
1.0
 70
     8
 71
     3
 72
    21
 73
    17
 74
     0
 42
0.000000001
 43
0.0
 40
48.17121764385794
 40
48.17121764385794
 40
48.17121764385794
 40
48.17121764385794
 40
51.61446761388596
 40
55.05746120483949
 40
58.49991683290023
 40
61.94165561409898
 40
65.38259805037588
 40
68.82278773743839
 40
72.26234447888223
 40
75.70149456209352
 40
79.1405112156677
 40
82.57969419747484
 40
86.0193194231972
 40
89.45958122423197
 40
92.90057834620421
 40
96.34243528771587
 40
96.34243528771587
 40
96.34243528771587
 40
96.34243528771587
 10
-198.0611569832
 20
903.6216307279782
 30
0.0
 10
-198.0611569881299
 20
903.6216343870084
 30
0.0
 10
-198.0561455940052
 20
903.835948021454
 30
0.0
 10
-198.0346237948388
 20
904.789230250709
 30
0.0
 10
-198.0020457570229
 20
906.3413630048926
 30
0.0
 10
-197.9628739832993
 20
908.4387064121537
 30
0.0
 10
-197.9224749078776
 20
911.008865502507
 30
0.0
 10
-197.8863813927623
 20
913.9630333202795
 30
0.0
 10
-197.859542459502
 20
917.199275145112
 30
0.0
 10
-197.8456376103175
 20
920.6057206479882
 30
0.0
 10
-197.84657447716
 20
924.0645880690308
 30
0.0
 10
-197.862224106336
 20
927.4562740231079
 30
0.0
 10
-197.8904403123482
 20
930.6634377125446
 30
0.0
 10
-197.9273578477391
 20
933.5754212615716
 30
0.0
 10
-197.967899618003
 20
936.0909969968437
 30
0.0
 10
-197.9936745453524
 20
937.44783648453
 30
0.0
 10
-198.0053349447639
 20
938.0326146066234
 30
0.0
  0
SPLINE
  5
273
330
25A
100
AcDbEntity
  8
0
  6
Continuous
 62
     0
370
     0
100
AcDbSpline
210
0.0
220
0.0
230
1.0
 70
     8
 71
     3
 72
    10
 73
     6
 74
     0
 42
0.000000001
 43
0.0
 40
0.0
 40
0.0
 40
0.0
 40
0.0
 40
2.061993518247284
 40
4.123136734629859
 40
6.183714339278842
 40
6.183714339278842
 40
6.183714339278842
 40
6.183714339278842
 10
-198.0053349447639
 20
938.0326146066234
 30
0.0
 10
-198.0123206122148
 20
938.3829512760028
 30
0.0
 10
-198.0236058177537
 20
939.2968623975006
 30
0.0
 10
-198.0327732168656
 20
941.1202600376733
 30
0.0
 10
-198.0346849933821
 20
942.5060755944289
 30
0.0
 10
-198.0346850024176
 20
943.1929347959785
 30
0.0
  0
LINE
  5
274
330
25A
100
AcDbEntity
  8
0
  6
Continuous
 62
     0
370
     0
100
AcDbLine
 10
-189.061157
 20
941.621627
 30
0.0
 11
-189.061157
 21
938.892668
 31
0.0
  0
LINE
  5
275
330
25A
100
AcDbEntity
  8
0
  6
Continuous
 62
     0
370
     0
100
AcDbLine
 10
-189.061158
 20
938.892668
 30
0.0
 11
-197.005405
 21
938.892668
 31
0.0
  0
SPLINE
  5
276
330
25A
100
AcDbEntity
  8
0
  6
Continuous
 62
     0
370
     0
100
AcDbSpline
210
0.0
220
0.0
230
1.0
 70
     8
 71
     3
 72
    21
 73
    17
 74
     0
 42
0.000000001
 43
0.0
 40
0.0
 40
0.0
 40
0.0
 40
0.0
 40
3.624901490165045
 40
7.249806925673177
 40
10.87470871046786
 40
14.49961016686268
 40
18.1245100502871
 40
21.74940963257128
 40
25.37430948422121
 40
28.99921043498261
 40
32.62411302821398
 40
36.24901640786733
 40
39.87391932285272
 40
43.49882131204579
 40
47.12372194853266
 40
50.74862133349282
 40
50.74862133349282
 40
50.74862133349282
 40
50.74862133349282
 10
-197.0054047597707
 20
938.8926679900227
 30
0.0
 10
-196.9937577393274
 20
938.2762167910618
 30
0.0
 10
-196.9680010794364
 20
936.8459741479866
 30
0.0
 10
-196.9275180897734
 20
934.1943289077075
 30
0.0
 10
-196.8906633976875
 20
931.1248584699653
 30
0.0
 10
-196.8624759010467
 20
927.7444024609539
 30
0.0
 10
-196.8468462695112
 20
924.169528640448
 30
0.0
 10
-196.8459069384745
 20
920.5238652150408
 30
0.0
 10
-196.8598019746703
 20
916.9334385227553
 30
0.0
 10
-196.8866120037396
 20
913.5223640427027
 30
0.0
 10
-196.9226490286638
 20
910.4084981117119
 30
0.0
 10
-196.9629860662476
 20
907.6993824577457
 30
0.0
 10
-197.0021171465835
 20
905.4885698446127
 30
0.0
 10
-197.0346541875248
 20
903.852434736662
 30
0.0
 10
-197.0561322138883
 20
902.8475436754354
 30
0.0
 10
-197.0611417735265
 20
902.6216272765153
 30
0.0
 10
-197.0611415676968
 20
902.6216272682713
 30
0.0
  0
LINE
  5
277
330
25A
100
AcDbEntity
  8
0
  6
Continuous
 62
     0
370
    30
100
AcDbLine
 10
-189.061157
 20
941.621627
 30
0.0
 11
-156.061157
 21
941.621628
 31
0.0
  0
LINE
  5
278
330
25A
100
AcDbEntity
  8
0
  6
Continuous
 62
     0
370
    30
100
AcDbLine
 10
-156.061157
 20
902.621628
 30
0.0
 11
-156.061157
 21
941.621628
 31
0.0
  0
ARC
  5
279
330
25A
100
AcDbEntity
  8
0
  6
Continuous
 62
     0
370
    30
100
AcDbCircle
 10
-189.061158
 20
946.621627
 30
0.0
 40
5.0
100
AcDbArc
 50
180.000001
 51
270.000001
  0
ARC
  5
27A
330
25A
100
AcDbEntity
  8
0
  6
Continuous
 62
     0
370
     0
100
AcDbCircle
 10
-188.417004
 20
945.756864
 30
0.0
 40
5.644169357542813
100
AcDbArc
 50
180.134131
 51
202.653697
  0
SPLINE
  5
27B
330
25A
100
AcDbEntity
  8
0
  6
Continuous
 62
     0
370
     0
100
AcDbSpline
210
0.0
220
0.0
230
1.0
 70
     8
 71
     3
 72
    14
 73
    10
 74
     0
 42
0.000000001
 43
0.0
 40
0.0
 40
0.0
 40
0.0
 40
0.0
 40
1.021268063453735
 40
2.067961234983277
 40
3.13721512031983
 40
4.224835717853899
 40
5.32593861445698
 40
6.435853999810886
 40
7.550179266023622
 40
7.550179266023622
 40
7.550179266023622
 40
7.550179266023622
 10
-193.6257236964383
 20
943.5829536574679
 30
0.0
 10
-193.4943432008552
 20
943.2694950721027
 30
0.0
 10
-193.1788485429481
 20
942.6583326173962
 30
0.0
 10
-192.6066308136745
 20
941.836573618299
 30
0.0
 10
-191.963333768163
 20
941.0985564199583
 30
0.0
 10
-191.2724222849383
 20
940.4397144296248
 30
0.0
 10
-190.5505737678139
 20
939.8534134175652
 30
0.0
 10
-189.8101544030212
 20
939.3348649740317
 30
0.0
 10
-189.3111255883233
 20
939.0328444218126
 30
0.0
 10
-189.061157945972
 20
938.8926680945275
 30
0.0
  0
SPLINE
  5
27C
330
25A
100
AcDbEntity
  8
0
  6
Continuous
 62
     0
370
     0
100
AcDbSpline
210
0.0
220
0.0
230
1.0
 70
     8
 71
     3
 72
    14
 73
    10
 74
     0
 42
0.000000001
 43
0.0
 40
0.0
 40
0.0
 40
0.0
 40
0.0
 40
1.111306881563107
 40
2.219857884916666
 40
3.322884962567415
 40
4.41682350781497
 40
5.497282355506057
 40
6.558912704919988
 40
7.596828781826671
 40
7.596828781826671
 40
7.596828781826671
 40
7.596828781826671
 10
-189.061157945972
 20
938.8926680945275
 30
0.0
 10
-189.3611892895055
 20
939.0035171822972
 30
0.0
 10
-189.9608562196918
 20
939.2491959535017
 30
0.0
 10
-190.8497443848027
 20
939.6915955356149
 30
0.0
 10
-191.7164933092842
 20
940.2109752106459
 30
0.0
 10
-192.545674850728
 20
940.8132822317199
 30
0.0
 10
-193.3174338150662
 20
941.5050709274669
 30
0.0
 10
-194.002656004828
 20
942.2909554499274
 30
0.0
 10
-194.3808009671497
 20
942.885063999743
 30
0.0
 10
-194.5386369065404
 20
943.1929348472734
 30
0.0
  0
SPLINE
  5
27D
330
25A
100
AcDbEntity
  8
0
  6
Continuous
 62
     0
370
     0
100
AcDbSpline
210
0.0
220
0.0
230
1.0
 70
     8
 71
     3
 72
    10
 73
     6
 74
     0
 42
0.000000001
 43
0.0
 40
0.0
 40
0.0
 40
0.0
 40
0.0
 40
1.717093728849344
 40
3.434209228894742
 40
5.151328921808096
 40
5.151328921808096
 40
5.151328921808096
 40
5.151328921808096
 10
-197.034718143179
 20
943.1929348144379
 30
0.0
 10
-197.0347181356497
 20
942.6205702381548
 30
0.0
 10
-197.0328578110066
 20
941.4659193334062
 30
0.0
 10
-197.0236069376217
 20
939.9464594903205
 30
0.0
 10
-197.0123830908064
 20
939.1846734411221
 30
0.0
 10
-197.0054047597707
 20
938.8926679900227
 30
0.0
  0
ELLIPSE
  5
27E
330
25A
100
AcDbEntity
  8
0
  6
Continuous
 62
     0
370
     0
100
AcDbEllipse
 10
-197.005405
 20
938.032615
 30
0.0
 11
0.9998017564565976
 21
0.01991099661990343
 31
0.0
210
0.0
220
0.0
230
1.0
 40
0.860009
 41
1.553671006867658
 42
3.118440135980666
  0
LINE
  5
27F
330
25A
100
AcDbEntity
  8
0
  6
Continuous
 62
     0
370
     0
100
AcDbLine
 10
-193.625724
 20
943.582954
 30
0.0
 11
-194.538637
 21
943.192935
 31
0.0
  0
LINE
  5
280
330
25A
100
AcDbEntity
  8
0
  6
Continuous
 62
     0
370
     0
100
AcDbLine
 10
-197.034718
 20
943.192935
 30
0.0
 11
-198.034685
 21
943.192935
 31
0.0
  0
LINE
  5
281
330
25A
100
AcDbEntity
  8
0
  6
Continuous
 62
     0
370
     0
100
AcDbLine
 10
-194.061158
 20
945.743651
 30
0.0
 11
-195.061158
 21
945.743651
 31
0.0
  0
ARC
  5
282
330
25A
100
AcDbEntity
  8
0
  6
Continuous
 62
     0
370
    30
100
AcDbCircle
 10
-197.061141
 20
903.621647
 30
0.0
 40
1.000015948766503
100
AcDbArc
 50
180.00092
 51
269.999087
  0
LINE
  5
283
330
25A
100
AcDbEntity
  8
0
  6
Continuous
 62
     0
370
    30
100
AcDbLine
 10
-156.061157
 20
902.621628
 30
0.0
 11
-197.061142
 21
902.621627
 31
0.0
  0
LINE
  5
284
330
25A
100
AcDbEntity
  8
0
  6
Continuous
 62
     0
370
    30
100
AcDbLine
 10
-198.061158
 20
963.121627
 30
0.0
 11
-198.061157
 21
903.621631
 31
0.0
  0
ARC
  5
285
330
25A
100
AcDbEntity
  8
0
  6
Continuous
 62
     0
370
    30
100
AcDbCircle
 10
-197.061158
 20
963.121627
 30
0.0
 40
1.0
100
AcDbArc
 50
90.000001
 51
180.000001
  0
LINE
  5
286
330
25A
100
AcDbEntity
  8
0
  6
Continuous
 62
     0
370
    30
100
AcDbLine
 10
-155.144628
 20
938.121628
 30
0.0
 11
-156.061157
 21
938.121628
 31
0.0
  0
LINE
  5
287
330
25A
100
AcDbEntity
  8
0
  6
Continuous
 62
     0
370
    30
100
AcDbLine
 10
-155.124553
 20
939.326603
 30
0.0
 11
-155.144628
 21
938.121542
 31
0.0
  0
ARC
  5
288
330
25A
100
AcDbEntity
  8
0
  6
Continuous
 62
     0
370
    30
100
AcDbCircle
 10
-154.824592
 20
939.321604
 30
0.0
 40
0.30000238064986
100
AcDbArc
 50
89.99963
 51
179.045162
  0
LINE
  5
289
330
25A
100
AcDbEntity
  8
0
  6
Continuous
 62
     0
370
    30
100
AcDbLine
 10
-153.911232
 20
939.621628
 30
0.0
 11
-154.82459
 21
939.621628
 31
0.0
  0
LINE
  5
28A
330
25A
100
AcDbEntity
  8
0
  6
Continuous
 62
     0
370
    30
100
AcDbLine
 10
-193.461232
 20
831.954347
 30
0.0
 11
-192.961232
 21
831.454347
 31
0.0
  0
LINE
  5
28B
330
25A
100
AcDbEntity
  8
0
  6
Continuous
 62
     0
370
    30
100
AcDbLine
 10
-192.961232
 20
831.454347
 30
0.0
 11
-200.861232
 21
831.454347
 31
0.0
  0
LINE
  5
28C
330
25A
100
AcDbEntity
  8
0
  6
Continuous
 62
     0
370
    30
100
AcDbLine
 10
-192.961232
 20
831.454347
 30
0.0
 11
-192.961232
 21
824.124347
 31
0.0
  0
SPLINE
  5
28D
330
25A
100
AcDbEntity
  8
0
  6
Continuous
 62
     0
370
    30
100
AcDbSpline
210
0.0
220
0.0
230
1.0
 70
     8
 71
     3
 72
    15
 73
    11
 74
     0
 42
0.000000001
 43
0.0
 40
0.0
 40
0.0
 40
0.0
 40
0.0
 40
0.886272403327727
 40
1.772579167633888
 40
3.534200500235897
 40
5.295619524058289
 40
7.056576248147227
 40
8.818013398157177
 40
10.5796838485517
 40
12.34072682343842
 40
12.34072682343842
 40
12.34072682343842
 40
12.34072682343842
 10
-192.9612320078999
 20
824.1243467963761
 30
0.0
 10
-192.9612320208133
 20
824.1243467963761
 30
0.0
 10
-193.0283812632381
 20
824.1120763052759
 30
0.0
 10
-193.4193998754287
 20
824.04464455254
 30
0.0
 10
-194.3638139876715
 20
823.9011949098591
 30
0.0
 10
-195.999106493255
 20
823.7614463010813
 30
0.0
 10
-197.8233258694002
 20
823.7615274505547
 30
0.0
 10
-199.4588659272274
 20
823.9011895902869
 30
0.0
 10
-200.5897383333509
 20
824.0730732116269
 30
0.0
 10
-200.8612301623766
 20
824.1240986835542
 30
0.0
 10
-200.8612320078795
 20
824.1241034961778
 30
0.0
  0
LINE
  5
28E
330
25A
100
AcDbEntity
  8
0
  6
Continuous
 62
     0
370
    30
100
AcDbLine
 10
-155.911232
 20
781.124347
 30
0.0
 11
-153.911232
 21
781.124347
 31
0.0
  0
LINE
  5
28F
330
25A
100
AcDbEntity
  8
0
  6
Continuous
 62
     0
370
    30
100
AcDbLine
 10
-155.911232
 20
780.124347
 30
0.0
 11
-205.411232
 21
780.124347
 31
0.0
  0
LINE
  5
290
330
25A
100
AcDbEntity
  8
0
  6
Continuous
 62
     0
370
    30
100
AcDbLine
 10
-205.411232
 20
780.124347
 30
0.0
 11
-205.411232
 21
824.124347
 31
0.0
  0
LINE
  5
291
330
25A
100
AcDbEntity
  8
0
  6
Continuous
 62
     0
370
    30
100
AcDbLine
 10
-205.411232
 20
780.124347
 30
0.0
 11
-205.911232
 21
780.624347
 31
0.0
  0
LINE
  5
292
330
25A
100
AcDbEntity
  8
0
  6
Continuous
 62
     0
370
    30
100
AcDbLine
 10
-155.911232
 20
780.124347
 30
0.0
 11
-155.911232
 21
824.124347
 31
0.0
  0
LINE
  5
293
330
25A
100
AcDbEntity
  8
0
  6
Continuous
 62
     0
370
    30
100
AcDbLine
 10
-193.461232
 20
831.954347
 30
0.0
 11
-200.361232
 21
831.954347
 31
0.0
  0
LINE
  5
294
330
25A
100
AcDbEntity
  8
0
  6
Continuous
 62
     0
370
    30
100
AcDbLine
 10
-205.911232
 20
823.624347
 30
0.0
 11
-205.911232
 21
780.624347
 31
0.0
  0
LINE
  5
295
330
25A
100
AcDbEntity
  8
0
  6
Continuous
 62
     0
370
    30
100
AcDbLine
 10
-205.411232
 20
824.124347
 30
0.0
 11
-205.911232
 21
823.624347
 31
0.0
  0
LINE
  5
296
330
25A
100
AcDbEntity
  8
0
  6
Continuous
 62
     0
370
    30
100
AcDbLine
 10
-155.911232
 20
824.124347
 30
0.0
 11
-192.961232
 21
824.124347
 31
0.0
  0
LINE
  5
297
330
25A
100
AcDbEntity
  8
0
  6
Continuous
 62
     0
370
    30
100
AcDbLine
 10
-200.860856
 20
824.124347
 30
0.0
 11
-205.411232
 21
824.124347
 31
0.0
  0
LINE
  5
298
330
25A
100
AcDbEntity
  8
0
  6
Continuous
 62
     0
370
    30
100
AcDbLine
 10
-153.911232
 20
823.124347
 30
0.0
 11
-155.911232
 21
823.124347
 31
0.0
  0
LINE
  5
299
330
25A
100
AcDbEntity
  8
0
  6
Continuous
 62
     0
370
    30
100
AcDbLine
 10
-200.861232
 20
831.454347
 30
0.0
 11
-200.861232
 21
824.124103
 31
0.0
  0
LINE
  5
29A
330
25A
100
AcDbEntity
  8
0
  6
Continuous
 62
     0
370
    30
100
AcDbLine
 10
-200.361232
 20
831.954347
 30
0.0
 11
-200.861232
 21
831.454347
 31
0.0
  0
LINE
  5
29B
330
25A
100
AcDbEntity
  8
0
  6
Continuous
 62
     0
370
     0
100
AcDbLine
 10
-154.82459
 20
1004.621628
 30
0.0
 11
-154.82459
 21
1039.621628
 31
0.0
  0
LINE
  5
29C
330
25A
100
AcDbEntity
  8
0
  6
Continuous
 62
     0
370
    30
100
AcDbLine
 10
-154.82459
 20
1004.621628
 30
0.0
 11
-153.911232
 21
1004.621628
 31
0.0
  0
ARC
  5
29D
330
25A
100
AcDbEntity
  8
0
  6
Continuous
 62
     0
370
    30
100
AcDbCircle
 10
-154.824592
 20
1004.921653
 30
0.0
 40
0.300002380648262
100
AcDbArc
 50
180.954838
 51
270.00037
  0
LINE
  5
29E
330
25A
100
AcDbEntity
  8
0
  6
Continuous
 62
     0
370
     0
100
AcDbLine
 10
-155.124553
 20
1004.916654
 30
0.0
 11
-155.124553
 21
1039.326603
 31
0.0
  0
LINE
  5
29F
330
25A
100
AcDbEntity
  8
0
  6
Continuous
 62
     0
370
    30
100
AcDbLine
 10
-155.124553
 20
1004.916654
 30
0.0
 11
-155.144628
 21
1006.121715
 31
0.0
  0
LINE
  5
2A0
330
25A
100
AcDbEntity
  8
0
  6
Continuous
 62
     0
370
    30
100
AcDbLine
 10
-155.144628
 20
1006.121715
 30
0.0
 11
-155.144628
 21
1038.121542
 31
0.0
  0
LINE
  5
2A1
330
25A
100
AcDbEntity
  8
0
  6
Continuous
 62
     0
370
    30
100
AcDbLine
 10
-155.144628
 20
1006.121628
 30
0.0
 11
-156.061157
 21
1006.121628
 31
0.0
  0
LINE
  5
2A2
330
25A
100
AcDbEntity
  8
0
  6
Continuous
 62
     0
370
     0
100
AcDbLine
 10
-197.034718
 20
1043.192935
 30
0.0
 11
-194.538637
 21
1043.192935
 31
0.0
  0
ARC
  5
2A3
330
25A
100
AcDbEntity
  8
0
  6
Continuous
 62
     0
370
     0
100
AcDbCircle
 10
-188.563195
 20
1045.745898
 30
0.0
 40
6.497962822427816
100
AcDbArc
 50
180.019813
 51
203.134237
  0
LINE
  5
2A4
330
25A
100
AcDbEntity
  8
0
  6
Continuous
 62
     0
370
     0
100
AcDbLine
 10
-195.061158
 20
1045.743651
 30
0.0
 11
-195.061158
 21
1063.121627
 31
0.0
  0
LINE
  5
2A5
330
25A
100
AcDbEntity
  8
0
  6
Continuous
 62
     0
370
     0
100
AcDbLine
 10
-195.061158
 20
1063.121627
 30
0.0
 11
-197.034718
 21
1063.121627
 31
0.0
  0
LINE
  5
2A6
330
25A
100
AcDbEntity
  8
0
  6
Continuous
 62
     0
370
     0
100
AcDbLine
 10
-197.034718
 20
1063.121627
 30
0.0
 11
-197.034718
 21
1043.192935
 31
0.0
  0
LINE
  5
2A7
330
25A
100
AcDbEntity
  8
0
  6
Continuous
 62
     0
370
    30
100
AcDbLine
 10
-197.034718
 20
1064.121627
 30
0.0
 11
-195.061158
 21
1064.121627
 31
0.0
  0
LINE
  5
2A8
330
25A
100
AcDbEntity
  8
0
  6
Continuous
 62
     0
370
    30
100
AcDbLine
 10
-197.061158
 20
1064.121627
 30
0.0
 11
-197.034718
 21
1064.121627
 31
0.0
  0
LINE
  5
2A9
330
25A
100
AcDbEntity
  8
0
  6
Continuous
 62
     0
370
     0
100
AcDbLine
 10
-197.034718
 20
1063.121627
 30
0.0
 11
-197.034718
 21
1064.121627
 31
0.0
  0
LINE
  5
2AA
330
25A
100
AcDbEntity
  8
0
  6
Continuous
 62
     0
370
     0
100
AcDbLine
 10
-195.061158
 20
1064.121627
 30
0.0
 11
-195.061158
 21
1063.121627
 31
0.0
  0
ARC
  5
2AB
330
25A
100
AcDbEntity
  8
0
  6
Continuous
 62
     0
370
    30
100
AcDbCircle
 10
-197.034702
 20
1063.121644
 30
0.0
 40
0.9999834550461533
100
AcDbArc
 50
90.000949
 51
180.000949
  0
LINE
  5
2AC
330
25A
100
AcDbEntity
  8
0
  6
Continuous
 62
     0
370
     0
100
AcDbLine
 10
-198.034685
 20
1063.121627
 30
0.0
 11
-197.034718
 21
1063.121627
 31
0.0
  0
LINE
  5
2AD
330
25A
100
AcDbEntity
  8
0
  6
Continuous
 62
     0
370
     0
100
AcDbLine
 10
-198.034685
 20
1043.192935
 30
0.0
 11
-198.034685
 21
1063.121627
 31
0.0
  0
LINE
  5
2AE
330
25A
100
AcDbEntity
  8
0
  6
Continuous
 62
     0
370
     0
100
AcDbLine
 10
-197.034718
 20
1043.192935
 30
0.0
 11
-198.034685
 21
1043.192935
 31
0.0
  0
LINE
  5
2AF
330
25A
100
AcDbEntity
  8
0
  6
Continuous
 62
     0
370
     0
100
AcDbLine
 10
-198.061158
 20
1063.121627
 30
0.0
 11
-198.034685
 21
1063.121627
 31
0.0
  0
LINE
  5
2B0
330
25A
100
AcDbEntity
  8
0
  6
Continuous
 62
     0
370
     0
100
AcDbLine
 10
-195.061158
 20
1063.121627
 30
0.0
 11
-194.061158
 21
1063.121627
 31
0.0
  0
ARC
  5
2B1
330
25A
100
AcDbEntity
  8
0
  6
Continuous
 62
     0
370
    30
100
AcDbCircle
 10
-195.061158
 20
1063.121627
 30
0.0
 40
1.0
100
AcDbArc
 50
0.000001
 51
90.000001
  0
LINE
  5
2B2
330
25A
100
AcDbEntity
  8
0
  6
Continuous
 62
     0
370
     0
100
AcDbLine
 10
-194.061158
 20
1045.743651
 30
0.0
 11
-195.061158
 21
1045.743651
 31
0.0
  0
LINE
  5
2B3
330
25A
100
AcDbEntity
  8
0
  6
Continuous
 62
     0
370
    30
100
AcDbLine
 10
-194.061158
 20
1063.121627
 30
0.0
 11
-194.061158
 21
1045.743651
 31
0.0
  0
SPLINE
  5
2B4
330
25A
100
AcDbEntity
  8
0
  6
Continuous
 62
     0
370
     0
100
AcDbSpline
210
0.0
220
0.0
230
1.0
 70
     8
 71
     3
 72
    21
 73
    17
 74
     0
 42
0.000000001
 43
0.0
 40
48.17121764385794
 40
48.17121764385794
 40
48.17121764385794
 40
48.17121764385794
 40
51.61446761388596
 40
55.0574612048395
 40
58.49991683290024
 40
61.94165561409899
 40
65.38259805037588
 40
68.8227877374384
 40
72.26234447888223
 40
75.70149456209352
 40
79.1405112156677
 40
82.57969419747484
 40
86.0193194231972
 40
89.45958122423195
 40
92.9005783462042
 40
96.34243528771586
 40
96.34243528771586
 40
96.34243528771586
 40
96.34243528771586
 10
-198.0611569831999
 20
1003.621630727978
 30
0.0
 10
-198.0611569881299
 20
1003.621634387008
 30
0.0
 10
-198.0561455940052
 20
1003.835948021454
 30
0.0
 10
-198.0346237948388
 20
1004.789230250709
 30
0.0
 10
-198.0020457570229
 20
1006.341363004893
 30
0.0
 10
-197.9628739832994
 20
1008.438706412154
 30
0.0
 10
-197.9224749078776
 20
1011.008865502507
 30
0.0
 10
-197.8863813927623
 20
1013.963033320279
 30
0.0
 10
-197.859542459502
 20
1017.199275145112
 30
0.0
 10
-197.8456376103175
 20
1020.605720647988
 30
0.0
 10
-197.84657447716
 20
1024.064588069031
 30
0.0
 10
-197.862224106336
 20
1027.456274023108
 30
0.0
 10
-197.8904403123482
 20
1030.663437712545
 30
0.0
 10
-197.9273578477391
 20
1033.575421261572
 30
0.0
 10
-197.967899618003
 20
1036.090996996844
 30
0.0
 10
-197.9936745453524
 20
1037.44783648453
 30
0.0
 10
-198.0053349447639
 20
1038.032614606623
 30
0.0
  0
SPLINE
  5
2B5
330
25A
100
AcDbEntity
  8
0
  6
Continuous
 62
     0
370
     0
100
AcDbSpline
210
0.0
220
0.0
230
1.0
 70
     8
 71
     3
 72
    10
 73
     6
 74
     0
 42
0.000000001
 43
0.0
 40
0.0
 40
0.0
 40
0.0
 40
0.0
 40
2.061993518247285
 40
4.123136734629847
 40
6.183714339278858
 40
6.183714339278858
 40
6.183714339278858
 40
6.183714339278858
 10
-198.0053349447639
 20
1038.032614606623
 30
0.0
 10
-198.0123206122148
 20
1038.382951276003
 30
0.0
 10
-198.0236058177537
 20
1039.296862397501
 30
0.0
 10
-198.0327732168657
 20
1041.120260037673
 30
0.0
 10
-198.0346849933821
 20
1042.506075594429
 30
0.0
 10
-198.0346850024176
 20
1043.192934795979
 30
0.0
  0
LINE
  5
2B6
330
25A
100
AcDbEntity
  8
0
  6
Continuous
 62
     0
370
     0
100
AcDbLine
 10
-189.061157
 20
1041.621627
 30
0.0
 11
-189.061157
 21
1038.892668
 31
0.0
  0
LINE
  5
2B7
330
25A
100
AcDbEntity
  8
0
  6
Continuous
 62
     0
370
     0
100
AcDbLine
 10
-189.061158
 20
1038.892668
 30
0.0
 11
-197.005405
 21
1038.892668
 31
0.0
  0
SPLINE
  5
2B8
330
25A
100
AcDbEntity
  8
0
  6
Continuous
 62
     0
370
     0
100
AcDbSpline
210
0.0
220
0.0
230
1.0
 70
     8
 71
     3
 72
    21
 73
    17
 74
     0
 42
0.000000001
 43
0.0
 40
0.0
 40
0.0
 40
0.0
 40
0.0
 40
3.624901490165047
 40
7.249806925673176
 40
10.87470871046785
 40
14.49961016686268
 40
18.1245100502871
 40
21.74940963257126
 40
25.3743094842212
 40
28.99921043498261
 40
32.62411302821397
 40
36.24901640786732
 40
39.87391932285271
 40
43.49882131204578
 40
47.12372194853265
 40
50.74862133349281
 40
50.74862133349281
 40
50.74862133349281
 40
50.74862133349281
 10
-197.0054047597707
 20
1038.892667990023
 30
0.0
 10
-196.9937577393274
 20
1038.276216791062
 30
0.0
 10
-196.9680010794364
 20
1036.845974147986
 30
0.0
 10
-196.9275180897734
 20
1034.194328907708
 30
0.0
 10
-196.8906633976875
 20
1031.124858469965
 30
0.0
 10
-196.8624759010467
 20
1027.744402460954
 30
0.0
 10
-196.8468462695112
 20
1024.169528640448
 30
0.0
 10
-196.8459069384744
 20
1020.523865215041
 30
0.0
 10
-196.8598019746703
 20
1016.933438522755
 30
0.0
 10
-196.8866120037396
 20
1013.522364042703
 30
0.0
 10
-196.9226490286638
 20
1010.408498111712
 30
0.0
 10
-196.9629860662476
 20
1007.699382457746
 30
0.0
 10
-197.0021171465835
 20
1005.488569844613
 30
0.0
 10
-197.0346541875248
 20
1003.852434736662
 30
0.0
 10
-197.0561322138883
 20
1002.847543675435
 30
0.0
 10
-197.0611417735266
 20
1002.621627276515
 30
0.0
 10
-197.0611415676968
 20
1002.621627268271
 30
0.0
  0
LINE
  5
2B9
330
25A
100
AcDbEntity
  8
0
  6
Continuous
 62
     0
370
    30
100
AcDbLine
 10
-189.061157
 20
1041.621627
 30
0.0
 11
-156.061157
 21
1041.621628
 31
0.0
  0
LINE
  5
2BA
330
25A
100
AcDbEntity
  8
0
  6
Continuous
 62
     0
370
    30
100
AcDbLine
 10
-156.061157
 20
1002.621628
 30
0.0
 11
-156.061157
 21
1041.621628
 31
0.0
  0
ARC
  5
2BB
330
25A
100
AcDbEntity
  8
0
  6
Continuous
 62
     0
370
    30
100
AcDbCircle
 10
-189.061158
 20
1046.621627
 30
0.0
 40
5.0
100
AcDbArc
 50
180.000001
 51
270.000001
  0
ARC
  5
2BC
330
25A
100
AcDbEntity
  8
0
  6
Continuous
 62
     0
370
     0
100
AcDbCircle
 10
-188.417004
 20
1045.756864
 30
0.0
 40
5.644169357541923
100
AcDbArc
 50
180.134131
 51
202.653697
  0
SPLINE
  5
2BD
330
25A
100
AcDbEntity
  8
0
  6
Continuous
 62
     0
370
     0
100
AcDbSpline
210
0.0
220
0.0
230
1.0
 70
     8
 71
     3
 72
    14
 73
    10
 74
     0
 42
0.000000001
 43
0.0
 40
0.0
 40
0.0
 40
0.0
 40
0.0
 40
1.021268063453741
 40
2.067961234983272
 40
3.137215120319827
 40
4.224835717853896
 40
5.325938614456978
 40
6.43585399981089
 40
7.550179266023624
 40
7.550179266023624
 40
7.550179266023624
 40
7.550179266023624
 10
-193.6257236964383
 20
1043.582953657468
 30
0.0
 10
-193.4943432008552
 20
1043.269495072103
 30
0.0
 10
-193.1788485429481
 20
1042.658332617396
 30
0.0
 10
-192.6066308136745
 20
1041.836573618299
 30
0.0
 10
-191.963333768163
 20
1041.098556419958
 30
0.0
 10
-191.2724222849383
 20
1040.439714429625
 30
0.0
 10
-190.5505737678139
 20
1039.853413417565
 30
0.0
 10
-189.8101544030211
 20
1039.334864974032
 30
0.0
 10
-189.3111255883233
 20
1039.032844421813
 30
0.0
 10
-189.061157945972
 20
1038.892668094528
 30
0.0
  0
SPLINE
  5
2BE
330
25A
100
AcDbEntity
  8
0
  6
Continuous
 62
     0
370
     0
100
AcDbSpline
210
0.0
220
0.0
230
1.0
 70
     8
 71
     3
 72
    14
 73
    10
 74
     0
 42
0.000000001
 43
0.0
 40
0.0
 40
0.0
 40
0.0
 40
0.0
 40
1.111306881563105
 40
2.219857884916669
 40
3.322884962567414
 40
4.41682350781497
 40
5.497282355506054
 40
6.558912704919983
 40
7.596828781826666
 40
7.596828781826666
 40
7.596828781826666
 40
7.596828781826666
 10
-189.061157945972
 20
1038.892668094528
 30
0.0
 10
-189.3611892895055
 20
1039.003517182297
 30
0.0
 10
-189.9608562196919
 20
1039.249195953502
 30
0.0
 10
-190.8497443848027
 20
1039.691595535615
 30
0.0
 10
-191.7164933092842
 20
1040.210975210646
 30
0.0
 10
-192.545674850728
 20
1040.81328223172
 30
0.0
 10
-193.3174338150662
 20
1041.505070927467
 30
0.0
 10
-194.002656004828
 20
1042.290955449927
 30
0.0
 10
-194.3808009671497
 20
1042.885063999743
 30
0.0
 10
-194.5386369065404
 20
1043.192934847273
 30
0.0
  0
SPLINE
  5
2BF
330
25A
100
AcDbEntity
  8
0
  6
Continuous
 62
     0
370
     0
100
AcDbSpline
210
0.0
220
0.0
230
1.0
 70
     8
 71
     3
 72
    10
 73
     6
 74
     0
 42
0.000000001
 43
0.0
 40
0.0
 40
0.0
 40
0.0
 40
0.0
 40
1.717093728849341
 40
3.43420922889473
 40
5.151328921808091
 40
5.151328921808091
 40
5.151328921808091
 40
5.151328921808091
 10
-197.034718143179
 20
1043.192934814438
 30
0.0
 10
-197.0347181356497
 20
1042.620570238155
 30
0.0
 10
-197.0328578110066
 20
1041.465919333406
 30
0.0
 10
-197.0236069376217
 20
1039.946459490321
 30
0.0
 10
-197.0123830908064
 20
1039.184673441122
 30
0.0
 10
-197.0054047597707
 20
1038.892667990023
 30
0.0
  0
ELLIPSE
  5
2C0
330
25A
100
AcDbEntity
  8
0
  6
Continuous
 62
     0
370
     0
100
AcDbEllipse
 10
-197.005405
 20
1038.032615
 30
0.0
 11
0.9998017564565976
 21
0.01991099661990343
 31
0.0
210
0.0
220
0.0
230
1.0
 40
0.860009
 41
1.553671006867658
 42
3.118440135980666
  0
LINE
  5
2C1
330
25A
100
AcDbEntity
  8
0
  6
Continuous
 62
     0
370
     0
100
AcDbLine
 10
-193.625724
 20
1043.582954
 30
0.0
 11
-194.538637
 21
1043.192935
 31
0.0
  0
ARC
  5
2C2
330
25A
100
AcDbEntity
  8
0
  6
Continuous
 62
     0
370
    30
100
AcDbCircle
 10
-197.061141
 20
1003.621647
 30
0.0
 40
1.000015948765293
100
AcDbArc
 50
180.00092
 51
269.999087
  0
LINE
  5
2C3
330
25A
100
AcDbEntity
  8
0
  6
Continuous
 62
     0
370
    30
100
AcDbLine
 10
-156.061157
 20
1002.621628
 30
0.0
 11
-197.061142
 21
1002.621627
 31
0.0
  0
LINE
  5
2C4
330
25A
100
AcDbEntity
  8
0
  6
Continuous
 62
     0
370
    30
100
AcDbLine
 10
-198.061158
 20
1063.121627
 30
0.0
 11
-198.061157
 21
1003.621631
 31
0.0
  0
ARC
  5
2C5
330
25A
100
AcDbEntity
  8
0
  6
Continuous
 62
     0
370
    30
100
AcDbCircle
 10
-197.061158
 20
1063.121627
 30
0.0
 40
1.0
100
AcDbArc
 50
90.000001
 51
180.000001
  0
LINE
  5
2C6
330
25A
100
AcDbEntity
  8
0
  6
Continuous
 62
     0
370
    30
100
AcDbLine
 10
-155.144628
 20
1038.121628
 30
0.0
 11
-156.061157
 21
1038.121628
 31
0.0
  0
LINE
  5
2C7
330
25A
100
AcDbEntity
  8
0
  6
Continuous
 62
     0
370
    30
100
AcDbLine
 10
-155.124553
 20
1039.326603
 30
0.0
 11
-155.144628
 21
1038.121542
 31
0.0
  0
ARC
  5
2C8
330
25A
100
AcDbEntity
  8
0
  6
Continuous
 62
     0
370
    30
100
AcDbCircle
 10
-154.824592
 20
1039.321604
 30
0.0
 40
0.3000023806489643
100
AcDbArc
 50
89.99963
 51
179.045162
  0
LINE
  5
2C9
330
25A
100
AcDbEntity
  8
0
  6
Continuous
 62
     0
370
    30
100
AcDbLine
 10
-153.911232
 20
1039.621628
 30
0.0
 11
-154.82459
 21
1039.621628
 31
0.0
  0
LINE
  5
2CA
330
25A
100
AcDbEntity
  8
0
  6
Continuous
 62
     0
370
     0
100
AcDbLine
 10
-154.82459
 20
1104.624347
 30
0.0
 11
-154.82459
 21
1139.624347
 31
0.0
  0
LINE
  5
2CB
330
25A
100
AcDbEntity
  8
0
  6
Continuous
 62
     0
370
    30
100
AcDbLine
 10
-154.82459
 20
1104.624347
 30
0.0
 11
-153.911232
 21
1104.624347
 31
0.0
  0
ARC
  5
2CC
330
25A
100
AcDbEntity
  8
0
  6
Continuous
 62
     0
370
    30
100
AcDbCircle
 10
-154.824592
 20
1104.924372
 30
0.0
 40
0.3000023806349393
100
AcDbArc
 50
180.954838
 51
270.00037
  0
LINE
  5
2CD
330
25A
100
AcDbEntity
  8
0
  6
Continuous
 62
     0
370
     0
100
AcDbLine
 10
-155.124553
 20
1104.919372
 30
0.0
 11
-155.124553
 21
1139.329321
 31
0.0
  0
LINE
  5
2CE
330
25A
100
AcDbEntity
  8
0
  6
Continuous
 62
     0
370
    30
100
AcDbLine
 10
-155.124553
 20
1104.919372
 30
0.0
 11
-155.144628
 21
1106.124433
 31
0.0
  0
LINE
  5
2CF
330
25A
100
AcDbEntity
  8
0
  6
Continuous
 62
     0
370
    30
100
AcDbLine
 10
-155.144628
 20
1106.124433
 30
0.0
 11
-155.144628
 21
1138.124261
 31
0.0
  0
LINE
  5
2D0
330
25A
100
AcDbEntity
  8
0
  6
Continuous
 62
     0
370
    30
100
AcDbLine
 10
-155.144628
 20
1106.124347
 30
0.0
 11
-156.061157
 21
1106.124347
 31
0.0
  0
LINE
  5
2D1
330
25A
100
AcDbEntity
  8
0
  6
Continuous
 62
     0
370
     0
100
AcDbLine
 10
-197.034718
 20
1143.195653
 30
0.0
 11
-194.538637
 21
1143.195653
 31
0.0
  0
ARC
  5
2D2
330
25A
100
AcDbEntity
  8
0
  6
Continuous
 62
     0
370
     0
100
AcDbCircle
 10
-188.563195
 20
1145.748616
 30
0.0
 40
6.497962822440232
100
AcDbArc
 50
180.019813
 51
203.134237
  0
LINE
  5
2D3
330
25A
100
AcDbEntity
  8
0
  6
Continuous
 62
     0
370
     0
100
AcDbLine
 10
-195.061158
 20
1145.746369
 30
0.0
 11
-195.061158
 21
1163.124346
 31
0.0
  0
LINE
  5
2D4
330
25A
100
AcDbEntity
  8
0
  6
Continuous
 62
     0
370
     0
100
AcDbLine
 10
-195.061158
 20
1163.124346
 30
0.0
 11
-197.034718
 21
1163.124346
 31
0.0
  0
LINE
  5
2D5
330
25A
100
AcDbEntity
  8
0
  6
Continuous
 62
     0
370
     0
100
AcDbLine
 10
-197.034718
 20
1163.124346
 30
0.0
 11
-197.034718
 21
1143.195653
 31
0.0
  0
LINE
  5
2D6
330
25A
100
AcDbEntity
  8
0
  6
Continuous
 62
     0
370
    30
100
AcDbLine
 10
-197.034718
 20
1164.124346
 30
0.0
 11
-195.061158
 21
1164.124346
 31
0.0
  0
LINE
  5
2D7
330
25A
100
AcDbEntity
  8
0
  6
Continuous
 62
     0
370
     0
100
AcDbLine
 10
-197.034718
 20
1163.124346
 30
0.0
 11
-197.034718
 21
1164.124346
 31
0.0
  0
LINE
  5
2D8
330
25A
100
AcDbEntity
  8
0
  6
Continuous
 62
     0
370
     0
100
AcDbLine
 10
-195.061158
 20
1164.124346
 30
0.0
 11
-195.061158
 21
1163.124346
 31
0.0
  0
ARC
  5
2D9
330
25A
100
AcDbEntity
  8
0
  6
Continuous
 62
     0
370
    30
100
AcDbCircle
 10
-197.034702
 20
1163.124362
 30
0.0
 40
0.999983455046864
100
AcDbArc
 50
90.000949
 51
180.000949
  0
LINE
  5
2DA
330
25A
100
AcDbEntity
  8
0
  6
Continuous
 62
     0
370
     0
100
AcDbLine
 10
-198.034685
 20
1163.124346
 30
0.0
 11
-197.034718
 21
1163.124346
 31
0.0
  0
LINE
  5
2DB
330
25A
100
AcDbEntity
  8
0
  6
Continuous
 62
     0
370
     0
100
AcDbLine
 10
-198.034685
 20
1143.195653
 30
0.0
 11
-198.034685
 21
1163.124346
 31
0.0
  0
LINE
  5
2DC
330
25A
100
AcDbEntity
  8
0
  6
Continuous
 62
     0
370
     0
100
AcDbLine
 10
-197.034718
 20
1143.195653
 30
0.0
 11
-198.034685
 21
1143.195653
 31
0.0
  0
LINE
  5
2DD
330
25A
100
AcDbEntity
  8
0
  6
Continuous
 62
     0
370
     0
100
AcDbLine
 10
-198.061158
 20
1163.124346
 30
0.0
 11
-198.034685
 21
1163.124346
 31
0.0
  0
LINE
  5
2DE
330
25A
100
AcDbEntity
  8
0
  6
Continuous
 62
     0
370
     0
100
AcDbLine
 10
-195.061158
 20
1163.124346
 30
0.0
 11
-194.061158
 21
1163.124346
 31
0.0
  0
ARC
  5
2DF
330
25A
100
AcDbEntity
  8
0
  6
Continuous
 62
     0
370
    30
100
AcDbCircle
 10
-195.061158
 20
1163.124346
 30
0.0
 40
1.0
100
AcDbArc
 50
0.000001
 51
90.000001
  0
LINE
  5
2E0
330
25A
100
AcDbEntity
  8
0
  6
Continuous
 62
     0
370
     0
100
AcDbLine
 10
-194.061158
 20
1145.746369
 30
0.0
 11
-195.061158
 21
1145.746369
 31
0.0
  0
LINE
  5
2E1
330
25A
100
AcDbEntity
  8
0
  6
Continuous
 62
     0
370
    30
100
AcDbLine
 10
-194.061158
 20
1163.124346
 30
0.0
 11
-194.061158
 21
1145.746369
 31
0.0
  0
SPLINE
  5
2E2
330
25A
100
AcDbEntity
  8
0
  6
Continuous
 62
     0
370
     0
100
AcDbSpline
210
0.0
220
0.0
230
1.0
 70
     8
 71
     3
 72
    21
 73
    17
 74
     0
 42
0.000000001
 43
0.0
 40
48.17121764385792
 40
48.17121764385792
 40
48.17121764385792
 40
48.17121764385792
 40
51.61446761388594
 40
55.05746120483946
 40
58.49991683290023
 40
61.94165561409898
 40
65.38259805037585
 40
68.82278773743839
 40
72.2623444788822
 40
75.70149456209353
 40
79.14051121566767
 40
82.5796941974748
 40
86.01931942319719
 40
89.45958122423195
 40
92.90057834620418
 40
96.34243528771584
 40
96.34243528771584
 40
96.34243528771584
 40
96.34243528771584
 10
-198.0611569832009
 20
1103.624349090426
 30
0.0
 10
-198.0611569881308
 20
1103.624352749456
 30
0.0
 10
-198.0561455940062
 20
1103.838666383902
 30
0.0
 10
-198.0346237948397
 20
1104.791948613157
 30
0.0
 10
-198.0020457570238
 20
1106.34408136734
 30
0.0
 10
-197.9628739833003
 20
1108.441424774602
 30
0.0
 10
-197.9224749078785
 20
1111.011583864955
 30
0.0
 10
-197.8863813927632
 20
1113.965751682727
 30
0.0
 10
-197.8595424595029
 20
1117.20199350756
 30
0.0
 10
-197.8456376103184
 20
1120.608439010436
 30
0.0
 10
-197.8465744771609
 20
1124.067306431479
 30
0.0
 10
-197.8622241063369
 20
1127.458992385556
 30
0.0
 10
-197.8904403123491
 20
1130.666156074992
 30
0.0
 10
-197.92735784774
 20
1133.578139624019
 30
0.0
 10
-197.967899618004
 20
1136.093715359291
 30
0.0
 10
-197.9936745453533
 20
1137.450554846978
 30
0.0
 10
-198.0053349447649
 20
1138.035332969071
 30
0.0
  0
SPLINE
  5
2E3
330
25A
100
AcDbEntity
  8
0
  6
Continuous
 62
     0
370
     0
100
AcDbSpline
210
0.0
220
0.0
230
1.0
 70
     8
 71
     3
 72
    10
 73
     6
 74
     0
 42
0.000000001
 43
0.0
 40
0.0
 40
0.0
 40
0.0
 40
0.0
 40
2.061993518247285
 40
4.12313673462986
 40
6.183714339278856
 40
6.183714339278856
 40
6.183714339278856
 40
6.183714339278856
 10
-198.0053349447649
 20
1138.035332969071
 30
0.0
 10
-198.0123206122157
 20
1138.385669638451
 30
0.0
 10
-198.0236058177546
 20
1139.299580759948
 30
0.0
 10
-198.0327732168666
 20
1141.122978400121
 30
0.0
 10
-198.0346849933831
 20
1142.508793956877
 30
0.0
 10
-198.0346850024185
 20
1143.195653158426
 30
0.0
  0
LINE
  5
2E4
330
25A
100
AcDbEntity
  8
0
  6
Continuous
 62
     0
370
     0
100
AcDbLine
 10
-189.061157
 20
1141.624346
 30
0.0
 11
-189.061157
 21
1138.895386
 31
0.0
  0
LINE
  5
2E5
330
25A
100
AcDbEntity
  8
0
  6
Continuous
 62
     0
370
     0
100
AcDbLine
 10
-189.061158
 20
1138.895386
 30
0.0
 11
-197.005405
 21
1138.895386
 31
0.0
  0
SPLINE
  5
2E6
330
25A
100
AcDbEntity
  8
0
  6
Continuous
 62
     0
370
     0
100
AcDbSpline
210
0.0
220
0.0
230
1.0
 70
     8
 71
     3
 72
    21
 73
    17
 74
     0
 42
0.000000001
 43
0.0
 40
0.0
 40
0.0
 40
0.0
 40
0.0
 40
3.624901490165039
 40
7.249806925673178
 40
10.87470871046786
 40
14.49961016686269
 40
18.12451005028709
 40
21.74940963257129
 40
25.37430948422123
 40
28.99921043498261
 40
32.624113028214
 40
36.24901640786733
 40
39.87391932285273
 40
43.4988213120458
 40
47.12372194853267
 40
50.74862133349283
 40
50.74862133349283
 40
50.74862133349283
 40
50.74862133349283
 10
-197.0054047597716
 20
1138.89538635247
 30
0.0
 10
-196.9937577393283
 20
1138.27893515351
 30
0.0
 10
-196.9680010794373
 20
1136.848692510434
 30
0.0
 10
-196.9275180897743
 20
1134.197047270155
 30
0.0
 10
-196.8906633976885
 20
1131.127576832413
 30
0.0
 10
-196.8624759010476
 20
1127.747120823401
 30
0.0
 10
-196.8468462695121
 20
1124.172247002896
 30
0.0
 10
-196.8459069384754
 20
1120.526583577489
 30
0.0
 10
-196.8598019746712
 20
1116.936156885203
 30
0.0
 10
-196.8866120037405
 20
1113.52508240515
 30
0.0
 10
-196.9226490286647
 20
1110.41121647416
 30
0.0
 10
-196.9629860662485
 20
1107.702100820194
 30
0.0
 10
-197.0021171465844
 20
1105.49128820706
 30
0.0
 10
-197.0346541875257
 20
1103.85515309911
 30
0.0
 10
-197.0561322138892
 20
1102.850262037883
 30
0.0
 10
-197.0611417735275
 20
1102.624345638963
 30
0.0
 10
-197.0611415676977
 20
1102.624345630719
 30
0.0
  0
LINE
  5
2E7
330
25A
100
AcDbEntity
  8
0
  6
Continuous
 62
     0
370
    30
100
AcDbLine
 10
-189.061157
 20
1141.624346
 30
0.0
 11
-156.061157
 21
1141.624346
 31
0.0
  0
LINE
  5
2E8
330
25A
100
AcDbEntity
  8
0
  6
Continuous
 62
     0
370
    30
100
AcDbLine
 10
-156.061157
 20
1102.624346
 30
0.0
 11
-156.061157
 21
1141.624346
 31
0.0
  0
ARC
  5
2E9
330
25A
100
AcDbEntity
  8
0
  6
Continuous
 62
     0
370
    30
100
AcDbCircle
 10
-189.061158
 20
1146.624346
 30
0.0
 40
5.0
100
AcDbArc
 50
180.000001
 51
270.000001
  0
ARC
  5
2EA
330
25A
100
AcDbEntity
  8
0
  6
Continuous
 62
     0
370
     0
100
AcDbCircle
 10
-188.417004
 20
1145.759582
 30
0.0
 40
5.644169357546387
100
AcDbArc
 50
180.134131
 51
202.653697
  0
SPLINE
  5
2EB
330
25A
100
AcDbEntity
  8
0
  6
Continuous
 62
     0
370
     0
100
AcDbSpline
210
0.0
220
0.0
230
1.0
 70
     8
 71
     3
 72
    14
 73
    10
 74
     0
 42
0.000000001
 43
0.0
 40
0.0
 40
0.0
 40
0.0
 40
0.0
 40
1.021268063453741
 40
2.067961234983294
 40
3.137215120319839
 40
4.224835717853908
 40
5.325938614456986
 40
6.435853999810894
 40
7.550179266023628
 40
7.550179266023628
 40
7.550179266023628
 40
7.550179266023628
 10
-193.6257236964392
 20
1143.585672019916
 30
0.0
 10
-193.4943432008562
 20
1143.27221343455
 30
0.0
 10
-193.178848542949
 20
1142.661050979844
 30
0.0
 10
-192.6066308136754
 20
1141.839291980747
 30
0.0
 10
-191.9633337681639
 20
1141.101274782406
 30
0.0
 10
-191.2724222849392
 20
1140.442432792072
 30
0.0
 10
-190.5505737678149
 20
1139.856131780013
 30
0.0
 10
-189.810154403022
 20
1139.337583336479
 30
0.0
 10
-189.3111255883242
 20
1139.03556278426
 30
0.0
 10
-189.061157945973
 20
1138.895386456975
 30
0.0
  0
SPLINE
  5
2EC
330
25A
100
AcDbEntity
  8
0
  6
Continuous
 62
     0
370
     0
100
AcDbSpline
210
0.0
220
0.0
230
1.0
 70
     8
 71
     3
 72
    14
 73
    10
 74
     0
 42
0.000000001
 43
0.0
 40
0.0
 40
0.0
 40
0.0
 40
0.0
 40
1.111306881563105
 40
2.219857884916669
 40
3.322884962567406
 40
4.41682350781497
 40
5.497282355506063
 40
6.558912704919971
 40
7.59682878182669
 40
7.59682878182669
 40
7.59682878182669
 40
7.59682878182669
 10
-189.061157945973
 20
1138.895386456975
 30
0.0
 10
-189.3611892895064
 20
1139.006235544745
 30
0.0
 10
-189.9608562196928
 20
1139.251914315949
 30
0.0
 10
-190.8497443848036
 20
1139.694313898062
 30
0.0
 10
-191.7164933092852
 20
1140.213693573094
 30
0.0
 10
-192.5456748507289
 20
1140.816000594168
 30
0.0
 10
-193.3174338150671
 20
1141.507789289915
 30
0.0
 10
-194.0026560048289
 20
1142.293673812375
 30
0.0
 10
-194.3808009671506
 20
1142.887782362191
 30
0.0
 10
-194.5386369065413
 20
1143.195653209721
 30
0.0
  0
SPLINE
  5
2ED
330
25A
100
AcDbEntity
  8
0
  6
Continuous
 62
     0
370
     0
100
AcDbSpline
210
0.0
220
0.0
230
1.0
 70
     8
 71
     3
 72
    10
 73
     6
 74
     0
 42
0.000000001
 43
0.0
 40
0.0
 40
0.0
 40
0.0
 40
0.0
 40
1.717093728849327
 40
3.434209228894753
 40
5.151328921808095
 40
5.151328921808095
 40
5.151328921808095
 40
5.151328921808095
 10
-197.03471814318
 20
1143.195653176886
 30
0.0
 10
-197.0347181356506
 20
1142.623288600603
 30
0.0
 10
-197.0328578110076
 20
1141.468637695854
 30
0.0
 10
-197.0236069376226
 20
1139.949177852768
 30
0.0
 10
-197.0123830908073
 20
1139.18739180357
 30
0.0
 10
-197.0054047597716
 20
1138.89538635247
 30
0.0
  0
ELLIPSE
  5
2EE
330
25A
100
AcDbEntity
  8
0
  6
Continuous
 62
     0
370
     0
100
AcDbEllipse
 10
-197.005405
 20
1138.035333
 30
0.0
 11
0.9998017564565976
 21
0.01991099661990343
 31
0.0
210
0.0
220
0.0
230
1.0
 40
0.860009
 41
1.553671006867658
 42
3.118440135980683
  0
LINE
  5
2EF
330
25A
100
AcDbEntity
  8
0
  6
Continuous
 62
     0
370
     0
100
AcDbLine
 10
-193.625724
 20
1143.585672
 30
0.0
 11
-194.538637
 21
1143.195653
 31
0.0
  0
ARC
  5
2F0
330
25A
100
AcDbEntity
  8
0
  6
Continuous
 62
     0
370
    30
100
AcDbCircle
 10
-197.061141
 20
1103.624365
 30
0.0
 40
1.00001594876972
100
AcDbArc
 50
180.00092
 51
269.999087
  0
LINE
  5
2F1
330
25A
100
AcDbEntity
  8
0
  6
Continuous
 62
     0
370
    30
100
AcDbLine
 10
-156.061157
 20
1102.624346
 30
0.0
 11
-197.061142
 21
1102.624346
 31
0.0
  0
LINE
  5
2F2
330
25A
100
AcDbEntity
  8
0
  6
Continuous
 62
     0
370
    30
100
AcDbLine
 10
-198.061158
 20
1163.124346
 30
0.0
 11
-198.061157
 21
1103.624349
 31
0.0
  0
ARC
  5
2F3
330
25A
100
AcDbEntity
  8
0
  6
Continuous
 62
     0
370
    30
100
AcDbCircle
 10
-197.061158
 20
1163.124346
 30
0.0
 40
1.0
100
AcDbArc
 50
90.000001
 51
180.000001
  0
LINE
  5
2F4
330
25A
100
AcDbEntity
  8
0
  6
Continuous
 62
     0
370
    30
100
AcDbLine
 10
-155.144628
 20
1138.124347
 30
0.0
 11
-156.061157
 21
1138.124347
 31
0.0
  0
LINE
  5
2F5
330
25A
100
AcDbEntity
  8
0
  6
Continuous
 62
     0
370
    30
100
AcDbLine
 10
-155.124553
 20
1139.329321
 30
0.0
 11
-155.144628
 21
1138.124261
 31
0.0
  0
ARC
  5
2F6
330
25A
100
AcDbEntity
  8
0
  6
Continuous
 62
     0
370
    30
100
AcDbCircle
 10
-154.824592
 20
1139.324322
 30
0.0
 40
0.3000023806298218
100
AcDbArc
 50
89.99963
 51
179.045162
  0
LINE
  5
2F7
330
25A
100
AcDbEntity
  8
0
  6
Continuous
 62
     0
370
    30
100
AcDbLine
 10
-153.911232
 20
1139.624347
 30
0.0
 11
-154.82459
 21
1139.624347
 31
0.0
  0
LINE
  5
2F8
330
25A
100
AcDbEntity
  8
0
  6
Continuous
 62
     0
370
     0
100
AcDbLine
 10
-154.82459
 20
1204.624347
 30
0.0
 11
-154.82459
 21
1239.624347
 31
0.0
  0
LINE
  5
2F9
330
25A
100
AcDbEntity
  8
0
  6
Continuous
 62
     0
370
    30
100
AcDbLine
 10
-154.82459
 20
1204.624347
 30
0.0
 11
-153.911232
 21
1204.624347
 31
0.0
  0
ARC
  5
2FA
330
25A
100
AcDbEntity
  8
0
  6
Continuous
 62
     0
370
    30
100
AcDbCircle
 10
-154.824592
 20
1204.924372
 30
0.0
 40
0.3000023806070765
100
AcDbArc
 50
180.954838
 51
270.00037
  0
LINE
  5
2FB
330
25A
100
AcDbEntity
  8
0
  6
Continuous
 62
     0
370
     0
100
AcDbLine
 10
-155.124553
 20
1204.919372
 30
0.0
 11
-155.124553
 21
1239.329321
 31
0.0
  0
LINE
  5
2FC
330
25A
100
AcDbEntity
  8
0
  6
Continuous
 62
     0
370
    30
100
AcDbLine
 10
-155.124553
 20
1204.919372
 30
0.0
 11
-155.144628
 21
1206.124433
 31
0.0
  0
LINE
  5
2FD
330
25A
100
AcDbEntity
  8
0
  6
Continuous
 62
     0
370
    30
100
AcDbLine
 10
-155.144628
 20
1206.124433
 30
0.0
 11
-155.144628
 21
1238.124261
 31
0.0
  0
LINE
  5
2FE
330
25A
100
AcDbEntity
  8
0
  6
Continuous
 62
     0
370
    30
100
AcDbLine
 10
-155.144628
 20
1206.124347
 30
0.0
 11
-156.061157
 21
1206.124347
 31
0.0
  0
LINE
  5
2FF
330
25A
100
AcDbEntity
  8
0
  6
Continuous
 62
     0
370
     0
100
AcDbLine
 10
-197.034718
 20
1243.195653
 30
0.0
 11
-194.538637
 21
1243.195653
 31
0.0
  0
ARC
  5
300
330
25A
100
AcDbEntity
  8
0
  6
Continuous
 62
     0
370
     0
100
AcDbCircle
 10
-188.563195
 20
1245.748616
 30
0.0
 40
6.497962822463563
100
AcDbArc
 50
180.019813
 51
203.134237
  0
LINE
  5
301
330
25A
100
AcDbEntity
  8
0
  6
Continuous
 62
     0
370
     0
100
AcDbLine
 10
-195.061158
 20
1245.746369
 30
0.0
 11
-195.061158
 21
1263.124346
 31
0.0
  0
LINE
  5
302
330
25A
100
AcDbEntity
  8
0
  6
Continuous
 62
     0
370
     0
100
AcDbLine
 10
-195.061158
 20
1263.124346
 30
0.0
 11
-197.034718
 21
1263.124346
 31
0.0
  0
LINE
  5
303
330
25A
100
AcDbEntity
  8
0
  6
Continuous
 62
     0
370
     0
100
AcDbLine
 10
-197.034718
 20
1263.124346
 30
0.0
 11
-197.034718
 21
1243.195653
 31
0.0
  0
LINE
  5
304
330
25A
100
AcDbEntity
  8
0
  6
Continuous
 62
     0
370
    30
100
AcDbLine
 10
-197.034718
 20
1264.124346
 30
0.0
 11
-195.061158
 21
1264.124346
 31
0.0
  0
LINE
  5
305
330
25A
100
AcDbEntity
  8
0
  6
Continuous
 62
     0
370
     0
100
AcDbLine
 10
-197.034718
 20
1263.124346
 30
0.0
 11
-197.034718
 21
1264.124346
 31
0.0
  0
LINE
  5
306
330
25A
100
AcDbEntity
  8
0
  6
Continuous
 62
     0
370
     0
100
AcDbLine
 10
-195.061158
 20
1264.124346
 30
0.0
 11
-195.061158
 21
1263.124346
 31
0.0
  0
ARC
  5
307
330
25A
100
AcDbEntity
  8
0
  6
Continuous
 62
     0
370
    30
100
AcDbCircle
 10
-197.034702
 20
1263.124362
 30
0.0
 40
0.9999834550364332
100
AcDbArc
 50
90.000949
 51
180.000949
  0
LINE
  5
308
330
25A
100
AcDbEntity
  8
0
  6
Continuous
 62
     0
370
     0
100
AcDbLine
 10
-198.034685
 20
1263.124346
 30
0.0
 11
-197.034718
 21
1263.124346
 31
0.0
  0
LINE
  5
309
330
25A
100
AcDbEntity
  8
0
  6
Continuous
 62
     0
370
     0
100
AcDbLine
 10
-198.034685
 20
1243.195653
 30
0.0
 11
-198.034685
 21
1263.124346
 31
0.0
  0
LINE
  5
30A
330
25A
100
AcDbEntity
  8
0
  6
Continuous
 62
     0
370
     0
100
AcDbLine
 10
-197.034718
 20
1243.195653
 30
0.0
 11
-198.034685
 21
1243.195653
 31
0.0
  0
LINE
  5
30B
330
25A
100
AcDbEntity
  8
0
  6
Continuous
 62
     0
370
     0
100
AcDbLine
 10
-198.061158
 20
1263.124346
 30
0.0
 11
-198.034685
 21
1263.124346
 31
0.0
  0
LINE
  5
30C
330
25A
100
AcDbEntity
  8
0
  6
Continuous
 62
     0
370
     0
100
AcDbLine
 10
-195.061158
 20
1263.124346
 30
0.0
 11
-194.061158
 21
1263.124346
 31
0.0
  0
ARC
  5
30D
330
25A
100
AcDbEntity
  8
0
  6
Continuous
 62
     0
370
    30
100
AcDbCircle
 10
-195.061158
 20
1263.124346
 30
0.0
 40
1.0
100
AcDbArc
 50
0.000001
 51
90.000001
  0
LINE
  5
30E
330
25A
100
AcDbEntity
  8
0
  6
Continuous
 62
     0
370
     0
100
AcDbLine
 10
-194.061158
 20
1245.746369
 30
0.0
 11
-195.061158
 21
1245.746369
 31
0.0
  0
LINE
  5
30F
330
25A
100
AcDbEntity
  8
0
  6
Continuous
 62
     0
370
    30
100
AcDbLine
 10
-194.061158
 20
1263.124346
 30
0.0
 11
-194.061158
 21
1245.746369
 31
0.0
  0
SPLINE
  5
310
330
25A
100
AcDbEntity
  8
0
  6
Continuous
 62
     0
370
     0
100
AcDbSpline
210
0.0
220
0.0
230
1.0
 70
     8
 71
     3
 72
    21
 73
    17
 74
     0
 42
0.000000001
 43
0.0
 40
48.17121764385791
 40
48.17121764385791
 40
48.17121764385791
 40
48.17121764385791
 40
51.61446761388595
 40
55.05746120483947
 40
58.49991683290023
 40
61.94165561409899
 40
65.38259805037585
 40
68.8227877374384
 40
72.2623444788822
 40
75.70149456209353
 40
79.14051121566767
 40
82.5796941974748
 40
86.01931942319722
 40
89.45958122423195
 40
92.90057834620418
 40
96.34243528771583
 40
96.34243528771583
 40
96.34243528771583
 40
96.34243528771583
 10
-198.0611569832009
 20
1203.624349090426
 30
0.0
 10
-198.0611569881308
 20
1203.624352749456
 30
0.0
 10
-198.0561455940062
 20
1203.838666383902
 30
0.0
 10
-198.0346237948397
 20
1204.791948613157
 30
0.0
 10
-198.0020457570238
 20
1206.344081367341
 30
0.0
 10
-197.9628739833003
 20
1208.441424774602
 30
0.0
 10
-197.9224749078786
 20
1211.011583864955
 30
0.0
 10
-197.8863813927632
 20
1213.965751682727
 30
0.0
 10
-197.8595424595029
 20
1217.20199350756
 30
0.0
 10
-197.8456376103184
 20
1220.608439010436
 30
0.0
 10
-197.8465744771609
 20
1224.067306431479
 30
0.0
 10
-197.8622241063369
 20
1227.458992385556
 30
0.0
 10
-197.8904403123491
 20
1230.666156074992
 30
0.0
 10
-197.92735784774
 20
1233.578139624019
 30
0.0
 10
-197.967899618004
 20
1236.093715359292
 30
0.0
 10
-197.9936745453533
 20
1237.450554846978
 30
0.0
 10
-198.0053349447649
 20
1238.035332969071
 30
0.0
  0
SPLINE
  5
311
330
25A
100
AcDbEntity
  8
0
  6
Continuous
 62
     0
370
     0
100
AcDbSpline
210
0.0
220
0.0
230
1.0
 70
     8
 71
     3
 72
    10
 73
     6
 74
     0
 42
0.000000001
 43
0.0
 40
0.0
 40
0.0
 40
0.0
 40
0.0
 40
2.061993518247285
 40
4.12313673462986
 40
6.183714339278856
 40
6.183714339278856
 40
6.183714339278856
 40
6.183714339278856
 10
-198.0053349447649
 20
1238.035332969071
 30
0.0
 10
-198.0123206122157
 20
1238.385669638451
 30
0.0
 10
-198.0236058177546
 20
1239.299580759948
 30
0.0
 10
-198.0327732168666
 20
1241.122978400121
 30
0.0
 10
-198.0346849933831
 20
1242.508793956877
 30
0.0
 10
-198.0346850024185
 20
1243.195653158426
 30
0.0
  0
LINE
  5
312
330
25A
100
AcDbEntity
  8
0
  6
Continuous
 62
     0
370
     0
100
AcDbLine
 10
-189.061157
 20
1241.624346
 30
0.0
 11
-189.061157
 21
1238.895386
 31
0.0
  0
LINE
  5
313
330
25A
100
AcDbEntity
  8
0
  6
Continuous
 62
     0
370
     0
100
AcDbLine
 10
-189.061158
 20
1238.895386
 30
0.0
 11
-197.005405
 21
1238.895386
 31
0.0
  0
SPLINE
  5
314
330
25A
100
AcDbEntity
  8
0
  6
Continuous
 62
     0
370
     0
100
AcDbSpline
210
0.0
220
0.0
230
1.0
 70
     8
 71
     3
 72
    21
 73
    17
 74
     0
 42
0.000000001
 43
0.0
 40
0.0
 40
0.0
 40
0.0
 40
0.0
 40
3.624901490165072
 40
7.24980692567319
 40
10.87470871046785
 40
14.49961016686271
 40
18.12451005028713
 40
21.74940963257128
 40
25.37430948422124
 40
28.9992104349826
 40
32.62411302821401
 40
36.24901640786734
 40
39.87391932285274
 40
43.4988213120458
 40
47.12372194853267
 40
50.74862133349284
 40
50.74862133349284
 40
50.74862133349284
 40
50.74862133349284
 10
-197.0054047597716
 20
1238.89538635247
 30
0.0
 10
-196.9937577393283
 20
1238.27893515351
 30
0.0
 10
-196.9680010794373
 20
1236.848692510434
 30
0.0
 10
-196.9275180897743
 20
1234.197047270155
 30
0.0
 10
-196.8906633976885
 20
1231.127576832413
 30
0.0
 10
-196.8624759010476
 20
1227.747120823401
 30
0.0
 10
-196.8468462695121
 20
1224.172247002896
 30
0.0
 10
-196.8459069384754
 20
1220.526583577489
 30
0.0
 10
-196.8598019746712
 20
1216.936156885203
 30
0.0
 10
-196.8866120037405
 20
1213.52508240515
 30
0.0
 10
-196.9226490286647
 20
1210.41121647416
 30
0.0
 10
-196.9629860662485
 20
1207.702100820194
 30
0.0
 10
-197.0021171465844
 20
1205.49128820706
 30
0.0
 10
-197.0346541875257
 20
1203.85515309911
 30
0.0
 10
-197.0561322138892
 20
1202.850262037883
 30
0.0
 10
-197.0611417735275
 20
1202.624345638963
 30
0.0
 10
-197.0611415676977
 20
1202.624345630719
 30
0.0
  0
LINE
  5
315
330
25A
100
AcDbEntity
  8
0
  6
Continuous
 62
     0
370
    30
100
AcDbLine
 10
-189.061157
 20
1241.624346
 30
0.0
 11
-156.061157
 21
1241.624346
 31
0.0
  0
LINE
  5
316
330
25A
100
AcDbEntity
  8
0
  6
Continuous
 62
     0
370
    30
100
AcDbLine
 10
-156.061157
 20
1202.624346
 30
0.0
 11
-156.061157
 21
1241.624346
 31
0.0
  0
ARC
  5
317
330
25A
100
AcDbEntity
  8
0
  6
Continuous
 62
     0
370
    30
100
AcDbCircle
 10
-189.061158
 20
1246.624346
 30
0.0
 40
5.0
100
AcDbArc
 50
180.000001
 51
270.000001
  0
ARC
  5
318
330
25A
100
AcDbEntity
  8
0
  6
Continuous
 62
     0
370
     0
100
AcDbCircle
 10
-188.417004
 20
1245.759582
 30
0.0
 40
5.64416935754306
100
AcDbArc
 50
180.134131
 51
202.653697
  0
SPLINE
  5
319
330
25A
100
AcDbEntity
  8
0
  6
Continuous
 62
     0
370
     0
100
AcDbSpline
210
0.0
220
0.0
230
1.0
 70
     8
 71
     3
 72
    14
 73
    10
 74
     0
 42
0.000000001
 43
0.0
 40
0.0
 40
0.0
 40
0.0
 40
0.0
 40
1.021268063453688
 40
2.067961234983266
 40
3.137215120319828
 40
4.224835717853878
 40
5.325938614456973
 40
6.435853999810911
 40
7.550179266023636
 40
7.550179266023636
 40
7.550179266023636
 40
7.550179266023636
 10
-193.6257236964392
 20
1243.585672019916
 30
0.0
 10
-193.4943432008562
 20
1243.27221343455
 30
0.0
 10
-193.178848542949
 20
1242.661050979844
 30
0.0
 10
-192.6066308136755
 20
1241.839291980747
 30
0.0
 10
-191.9633337681639
 20
1241.101274782406
 30
0.0
 10
-191.2724222849392
 20
1240.442432792072
 30
0.0
 10
-190.5505737678149
 20
1239.856131780013
 30
0.0
 10
-189.8101544030221
 20
1239.337583336479
 30
0.0
 10
-189.3111255883242
 20
1239.03556278426
 30
0.0
 10
-189.061157945973
 20
1238.895386456975
 30
0.0
  0
SPLINE
  5
31A
330
25A
100
AcDbEntity
  8
0
  6
Continuous
 62
     0
370
     0
100
AcDbSpline
210
0.0
220
0.0
230
1.0
 70
     8
 71
     3
 72
    14
 73
    10
 74
     0
 42
0.000000001
 43
0.0
 40
0.0
 40
0.0
 40
0.0
 40
0.0
 40
1.111306881563105
 40
2.219857884916669
 40
3.322884962567433
 40
4.416823507814997
 40
5.497282355506054
 40
6.558912704919983
 40
7.596828781826654
 40
7.596828781826654
 40
7.596828781826654
 40
7.596828781826654
 10
-189.061157945973
 20
1238.895386456975
 30
0.0
 10
-189.3611892895064
 20
1239.006235544745
 30
0.0
 10
-189.9608562196928
 20
1239.251914315949
 30
0.0
 10
-190.8497443848036
 20
1239.694313898062
 30
0.0
 10
-191.7164933092851
 20
1240.213693573094
 30
0.0
 10
-192.5456748507289
 20
1240.816000594168
 30
0.0
 10
-193.3174338150671
 20
1241.507789289914
 30
0.0
 10
-194.0026560048289
 20
1242.293673812375
 30
0.0
 10
-194.3808009671506
 20
1242.887782362191
 30
0.0
 10
-194.5386369065413
 20
1243.195653209721
 30
0.0
  0
SPLINE
  5
31B
330
25A
100
AcDbEntity
  8
0
  6
Continuous
 62
     0
370
     0
100
AcDbSpline
210
0.0
220
0.0
230
1.0
 70
     8
 71
     3
 72
    10
 73
     6
 74
     0
 42
0.000000001
 43
0.0
 40
0.0
 40
0.0
 40
0.0
 40
0.0
 40
1.717093728849383
 40
3.434209228894734
 40
5.151328921808094
 40
5.151328921808094
 40
5.151328921808094
 40
5.151328921808094
 10
-197.03471814318
 20
1243.195653176886
 30
0.0
 10
-197.0347181356506
 20
1242.623288600602
 30
0.0
 10
-197.0328578110076
 20
1241.468637695854
 30
0.0
 10
-197.0236069376226
 20
1239.949177852768
 30
0.0
 10
-197.0123830908073
 20
1239.18739180357
 30
0.0
 10
-197.0054047597716
 20
1238.89538635247
 30
0.0
  0
ELLIPSE
  5
31C
330
25A
100
AcDbEntity
  8
0
  6
Continuous
 62
     0
370
     0
100
AcDbEllipse
 10
-197.005405
 20
1238.035333
 30
0.0
 11
0.9998017564565976
 21
0.01991099661990343
 31
0.0
210
0.0
220
0.0
230
1.0
 40
0.860009
 41
1.553671006867658
 42
3.118440135980683
  0
LINE
  5
31D
330
25A
100
AcDbEntity
  8
0
  6
Continuous
 62
     0
370
     0
100
AcDbLine
 10
-193.625724
 20
1243.585672
 30
0.0
 11
-194.538637
 21
1243.195653
 31
0.0
  0
ARC
  5
31E
330
25A
100
AcDbEntity
  8
0
  6
Continuous
 62
     0
370
    30
100
AcDbCircle
 10
-197.061141
 20
1203.624365
 30
0.0
 40
1.000015948770871
100
AcDbArc
 50
180.00092
 51
269.999087
  0
LINE
  5
31F
330
25A
100
AcDbEntity
  8
0
  6
Continuous
 62
     0
370
    30
100
AcDbLine
 10
-156.061157
 20
1202.624346
 30
0.0
 11
-197.061142
 21
1202.624346
 31
0.0
  0
LINE
  5
320
330
25A
100
AcDbEntity
  8
0
  6
Continuous
 62
     0
370
    30
100
AcDbLine
 10
-198.061158
 20
1263.124346
 30
0.0
 11
-198.061157
 21
1203.624349
 31
0.0
  0
ARC
  5
321
330
25A
100
AcDbEntity
  8
0
  6
Continuous
 62
     0
370
    30
100
AcDbCircle
 10
-197.061158
 20
1263.124346
 30
0.0
 40
1.0
100
AcDbArc
 50
90.000001
 51
180.000001
  0
LINE
  5
322
330
25A
100
AcDbEntity
  8
0
  6
Continuous
 62
     0
370
    30
100
AcDbLine
 10
-155.144628
 20
1238.124347
 30
0.0
 11
-156.061157
 21
1238.124347
 31
0.0
  0
LINE
  5
323
330
25A
100
AcDbEntity
  8
0
  6
Continuous
 62
     0
370
    30
100
AcDbLine
 10
-155.124553
 20
1239.329321
 30
0.0
 11
-155.144628
 21
1238.124261
 31
0.0
  0
ARC
  5
324
330
25A
100
AcDbEntity
  8
0
  6
Continuous
 62
     0
370
    30
100
AcDbCircle
 10
-154.824592
 20
1239.324322
 30
0.0
 40
0.3000023806069054
100
AcDbArc
 50
89.99963
 51
179.045162
  0
LINE
  5
325
330
25A
100
AcDbEntity
  8
0
  6
Continuous
 62
     0
370
    30
100
AcDbLine
 10
-153.911232
 20
1239.624347
 30
0.0
 11
-154.82459
 21
1239.624347
 31
0.0
  0
LINE
  5
326
330
25A
100
AcDbEntity
  8
0
  6
Continuous
 62
     0
370
    30
100
AcDbLine
 10
-151.911232
 20
1256.124347
 30
0.0
 11
-151.911232
 21
1296.124347
 31
0.0
  0
LINE
  5
327
330
25A
100
AcDbEntity
  8
0
  6
Continuous
 62
     0
370
    30
100
AcDbLine
 10
-151.911232
 20
1296.124347
 30
0.0
 11
-153.911232
 21
1296.124347
 31
0.0
  0
LINE
  5
328
330
25A
100
AcDbEntity
  8
0
  6
Continuous
 62
     0
370
    30
100
AcDbLine
 10
-153.911232
 20
1296.124347
 30
0.0
 11
-153.911232
 21
1256.124347
 31
0.0
  0
LINE
  5
329
330
25A
100
AcDbEntity
  8
0
  6
Continuous
 62
     0
370
     0
100
AcDbLine
 10
-153.911234
 20
1256.124347
 30
0.0
 11
-151.911234
 21
1256.124347
 31
0.0
  0
LINE
  5
32A
330
25A
100
AcDbEntity
  8
0
  6
Continuous
 62
     0
370
     0
100
AcDbLine
 10
-153.911234
 20
768.124347
 30
0.0
 11
-151.911234
 21
768.124347
 31
0.0
  0
LINE
  5
32B
330
25A
100
AcDbEntity
  8
0
  6
Continuous
 62
     0
370
    30
100
AcDbLine
 10
-153.911232
 20
728.124347
 30
0.0
 11
-153.911232
 21
768.124347
 31
0.0
  0
LINE
  5
32C
330
25A
100
AcDbEntity
  8
0
  6
Continuous
 62
     0
370
    30
100
AcDbLine
 10
-151.911232
 20
768.124347
 30
0.0
 11
-151.911232
 21
728.124347
 31
0.0
  0
LINE
  5
32D
330
25A
100
AcDbEntity
  8
0
  6
Continuous
 62
     0
370
    30
100
AcDbLine
 10
-151.911232
 20
728.124347
 30
0.0
 11
-153.911232
 21
728.124347
 31
0.0
  0
LINE
  5
32E
330
25A
100
AcDbEntity
  8
0
  6
Continuous
 62
     0
370
    30
100
AcDbLine
 10
-151.911234
 20
768.124347
 30
0.0
 11
-151.911234
 21
1256.124347
 31
0.0
  0
LINE
  5
32F
330
25A
100
AcDbEntity
  8
0
  6
Continuous
 62
     0
370
    30
100
AcDbLine
 10
-153.911234
 20
1256.124347
 30
0.0
 11
-153.911234
 21
768.124347
 31
0.0
  0
ENDBLK
  5
331
330
25A
100
AcDbEntity
  8
0
100
AcDbBlockEnd
  0
ENDSEC
  0
SECTION
  2
ENTITIES
  0
INSERT
  5
12B
330
1F
100
AcDbEntity
  8
0
  6
Continuous
 62
     7
370
     0
100
AcDbBlockReference
  2
a
 10
23.378845
 20
113.188637
 30
0.0
  0
INSERT
  5
180
330
1F
100
AcDbEntity
  8
0
  6
Continuous
 62
     7
370
     0
100
AcDbBlockReference
  2
b
 10
23.378845
 20
556.071266
 30
0.0
  0
INSERT
  5
259
330
1F
100
AcDbEntity
  8
0
  6
Continuous
 62
     7
370
     0
100
AcDbBlockReference
  2
c
 10
109.429626
 20
113.188637
 30
0.0
  0
INSERT
  5
332
330
1F
100
AcDbEntity
  8
0
  6
Continuous
 62
     7
370
     0
100
AcDbBlockReference
  2
d
 10
-109.413551
 20
0.0
 30
0.0
  0
ENDSEC
  0
SECTION
  2
OBJECTS
  0
DICTIONARY
  5
C
330
0
100
AcDbDictionary
281
     1
  3
ACAD_GROUP
350
D
  3
ACAD_LAYOUT
350
1A
  3
ACAD_MATERIAL
350
43
  3
ACAD_MLEADERSTYLE
350
6B
  3
ACAD_MLINESTYLE
350
17
  3
ACAD_PLOTSETTINGS
350
19
  3
ACAD_PLOTSTYLENAME
350
E
  3
ACAD_SCALELIST
350
47
  3
ACAD_TABLESTYLE
350
69
  3
ACAD_VISUALSTYLE
350
2A
  3
AcDbVariableDictionary
350
333
  0
DICTIONARY
  5
33E
330
8
100
AcDbDictionary
280
     1
281
     1
  3
ACAD_XREC_ROUNDTRIP
360
33F
  0
DICTIONARY
  5
D
102
{ACAD_REACTORS
330
C
102
}
330
C
100
AcDbDictionary
281
     1
  0
DICTIONARY
  5
1A
102
{ACAD_REACTORS
330
C
102
}
330
C
100
AcDbDictionary
281
     1
  3
Layout1
350
1E
  3
Layout2
350
26
  3
Model
350
22
  0
DICTIONARY
  5
43
102
{ACAD_REACTORS
330
C
102
}
330
C
100
AcDbDictionary
281
     1
  3
ByBlock
350
45
  3
ByLayer
350
44
  3
Global
350
46
  0
DICTIONARY
  5
6B
102
{ACAD_REACTORS
330
C
102
}
330
C
100
AcDbDictionary
281
     1
  3
Standard
350
6C
  0
DICTIONARY
  5
17
102
{ACAD_REACTORS
330
C
102
}
330
C
100
AcDbDictionary
281
     1
  3
Standard
350
18
  0
DICTIONARY
  5
19
102
{ACAD_REACTORS
330
C
102
}
330
C
100
AcDbDictionary
281
     1
  0
ACDBDICTIONARYWDFLT
  5
E
102
{ACAD_REACTORS
330
C
102
}
330
C
100
AcDbDictionary
281
     1
  3
Normal
350
F
100
AcDbDictionaryWithDefault
340
F
  0
DICTIONARY
  5
47
102
{ACAD_REACTORS
330
C
102
}
330
C
100
AcDbDictionary
281
     1
  3
A0
350
48
  3
A1
350
49
  3
A2
350
4A
  3
A3
350
4B
  3
A4
350
4C
  3
A5
350
4D
  3
A6
350
4E
  3
A7
350
4F
  3
A8
350
50
  3
A9
350
51
  3
B0
350
52
  3
B1
350
53
  3
B2
350
54
  3
B3
350
55
  3
B4
350
56
  3
B5
350
57
  3
B6
350
58
  3
B7
350
59
  3
B8
350
5A
  3
B9
350
5B
  3
C0
350
5C
  3
C1
350
5D
  3
C2
350
5E
  3
C3
350
5F
  3
C4
350
60
  3
C5
350
61
  3
C6
350
62
  3
C7
350
63
  3
C8
350
64
  3
C9
350
65
  3
D0
350
66
  3
D1
350
67
  3
D2
350
68
  0
DICTIONARY
  5
69
102
{ACAD_REACTORS
330
C
102
}
330
C
100
AcDbDictionary
281
     1
  3
Standard
350
6A
  0
DICTIONARY
  5
2A
102
{ACAD_REACTORS
330
C
102
}
330
C
100
AcDbDictionary
281
     1
  3
2dWireframe
350
2F
  3
Basic
350
32
  3
Brighten
350
36
  3
ColorChange
350
3A
  3
Conceptual
350
34
  3
Dim
350
35
  3
EdgeColorOff
350
3D
  3
Facepattern
350
39
  3
Flat
350
2B
  3
FlatWithEdges
350
2C
  3
Gouraud
350
2D
  3
GouraudWithEdges
350
2E
  3
Hidden
350
31
  3
JitterOff
350
3B
  3
Linepattern
350
38
  3
OverhangOff
350
3C
  3
Realistic
350
33
  3
Shaded
350
42
  3
Shaded with edges
350
41
  3
Shades of Gray
350
3E
  3
Sketchy
350
3F
  3
Thicken
350
37
  3
Wireframe
350
30
  3
X-Ray
350
40
  0
DICTIONARY
  5
333
102
{ACAD_REACTORS
330
C
102
}
330
C
100
AcDbDictionary
281
     1
  3
CANNOSCALE
350
340
  3
CENTEREXE
350
33A
  3
CENTERLTYPEFILE
350
33B
  3
CMLEADERSTYLE
350
335
  3
CTABLESTYLE
350
334
  3
DIMASSOC
350
33C
  3
HIDETEXT
350
33D
  3
MSLTSCALE
350
341
  3
PSOLHEIGHT
350
337
  3
PSOLWIDTH
350
336
  0
XRECORD
  5
33F
102
{ACAD_REACTORS
330
33E
102
}
330
33E
100
AcDbXrecord
280
     1
102
VTR_0.000_0.000_1.000_1.000_VISUALSTYLE
340
2F
102
VTR_0.000_0.000_1.000_1.000_GRIDDISPLAY
 70
     3
102
VTR_0.000_0.000_1.000_1.000_GRIDMAJOR
 70
     5
102
VTR_0.000_0.000_1.000_1.000_DEFAULTLIGHTING
280
     1
102
VTR_0.000_0.000_1.000_1.000_DEFAULTLIGHTINGTYPE
 70
     1
102
VTR_0.000_0.000_1.000_1.000_BRIGHTNESS
141
0.0
102
VTR_0.000_0.000_1.000_1.000_CONTRAST
142
0.0
  0
LAYOUT
  5
1E
102
{ACAD_REACTORS
330
1A
102
}
330
1A
100
AcDbPlotSettings
  1

  2
none_device
  4

  6

 40
0.0
 41
0.0
 42
0.0
 43
0.0
 44
0.0
 45
0.0
 46
0.0
 47
0.0
 48
0.0
 49
0.0
140
0.0
141
0.0
142
1.0
143
1.0
 70
   688
 72
     1
 73
     0
 74
     5
  7

 75
    16
147
1.0
148
0.0
149
0.0
100
AcDbLayout
  1
Layout1
 70
     1
 71
     1
 10
0.0
 20
0.0
 11
420.0
 21
297.0
 12
0.0
 22
0.0
 32
0.0
 14
1.000000E+20
 24
1.000000E+20
 34
1.000000E+20
 15
-1.000000E+20
 25
-1.000000E+20
 35
-1.000000E+20
146
0.0
 13
0.0
 23
0.0
 33
0.0
 16
1.0
 26
0.0
 36
0.0
 17
0.0
 27
1.0
 37
0.0
 76
     0
330
1B
  0
LAYOUT
  5
26
102
{ACAD_REACTORS
330
1A
102
}
330
1A
100
AcDbPlotSettings
  1

  2
none_device
  4

  6

 40
0.0
 41
0.0
 42
0.0
 43
0.0
 44
0.0
 45
0.0
 46
0.0
 47
0.0
 48
0.0
 49
0.0
140
0.0
141
0.0
142
1.0
143
1.0
 70
   688
 72
     1
 73
     0
 74
     5
  7

 75
    16
147
1.0
148
0.0
149
0.0
100
AcDbLayout
  1
Layout2
 70
     1
 71
     2
 10
0.0
 20
0.0
 11
0.0
 21
0.0
 12
0.0
 22
0.0
 32
0.0
 14
0.0
 24
0.0
 34
0.0
 15
0.0
 25
0.0
 35
0.0
146
0.0
 13
0.0
 23
0.0
 33
0.0
 16
1.0
 26
0.0
 36
0.0
 17
0.0
 27
1.0
 37
0.0
 76
     0
330
23
  0
LAYOUT
  5
22
102
{ACAD_REACTORS
330
1A
102
}
330
1A
100
AcDbPlotSettings
  1

  2
none_device
  4
Letter_(8.50_x_11.00_Inches)
  6

 40
6.35
 41
6.35
 42
6.350005
 43
6.350005
 44
215.9
 45
279.4
 46
0.0
 47
0.0
 48
0.0
 49
0.0
140
0.0
141
0.0
142
1.0
143
1.0
 70
  1712
 72
     1
 73
     0
 74
     0
  7

 75
     0
147
1.0
148
0.0
149
0.0
100
AcDbLayout
  1
Model
 70
     1
 71
     0
 10
-205.91124
 20
525.038513
 11
390.285431
 21
1296.12439
 12
0.0
 22
0.0
 32
0.0
 14
-205.91124
 24
525.038513
 34
0.0
 15
390.285431
 25
1296.12439
 35
0.0
146
0.0
 13
0.0
 23
0.0
 33
0.0
 16
1.0
 26
0.0
 36
0.0
 17
0.0
 27
1.0
 37
0.0
 76
     0
330
1F
331
29
  0
MATERIAL
  5
45
102
{ACAD_REACTORS
330
43
102
}
102
{ACAD_XDICTIONARY
360
374
102
}
330
43
100
AcDbMaterial
  1
ByBlock
  0
MATERIAL
  5
44
102
{ACAD_REACTORS
330
43
102
}
102
{ACAD_XDICTIONARY
360
372
102
}
330
43
100
AcDbMaterial
  1
ByLayer
  0
MATERIAL
  5
46
102
{ACAD_REACTORS
330
43
102
}
102
{ACAD_XDICTIONARY
360
376
102
}
330
43
100
AcDbMaterial
  1
Global
  0
MLEADERSTYLE
  5
6C
102
{ACAD_REACTORS
330
6B
102
}
102
{ACAD_XDICTIONARY
360
379
102
}
330
6B
100
AcDbMLeaderStyle
170
     2
171
     1
172
     0
 90
        2
 40
0.0
 41
0.0
173
     1
 91
-1056964608
340
14
 92
       -2
290
     1
 42
2.0
291
     1
 43
8.0
  3
Standard
341
0
 44
4.0
300

342
11
174
     1
178
     6
175
     1
176
     0
 93
-1056964608
 45
4.0
292
     0
297
     0
 46
4.0
343
0
 94
-1056964608
 47
1.0
 49
1.0
140
1.0
293
     1
141
0.0
294
     1
177
     0
142
1.0
295
     0
296
     0
143
3.75
1001
ACAD_MLEADERVER
1070
     2
  0
MLINESTYLE
  5
18
102
{ACAD_REACTORS
330
17
102
}
330
17
100
AcDbMlineStyle
  2
Standard
 70
     0
  3

 62
   256
 51
90.0
 52
90.0
 71
     2
 49
0.5
 62
   256
  6
BYLAYER
 49
-0.5
 62
   256
  6
BYLAYER
  0
ACDBPLACEHOLDER
  5
F
102
{ACAD_REACTORS
330
E
102
}
330
E
  0
SCALE
  5
48
102
{ACAD_REACTORS
330
47
102
}
330
47
100
AcDbScale
 70
     0
300
1:1
140
1.0
141
1.0
290
     1
  0
SCALE
  5
49
102
{ACAD_REACTORS
330
47
102
}
330
47
100
AcDbScale
 70
     0
300
1:2
140
1.0
141
2.0
290
     0
  0
SCALE
  5
4A
102
{ACAD_REACTORS
330
47
102
}
330
47
100
AcDbScale
 70
     0
300
1:4
140
1.0
141
4.0
290
     0
  0
SCALE
  5
4B
102
{ACAD_REACTORS
330
47
102
}
330
47
100
AcDbScale
 70
     0
300
1:5
140
1.0
141
5.0
290
     0
  0
SCALE
  5
4C
102
{ACAD_REACTORS
330
47
102
}
330
47
100
AcDbScale
 70
     0
300
1:8
140
1.0
141
8.0
290
     0
  0
SCALE
  5
4D
102
{ACAD_REACTORS
330
47
102
}
330
47
100
AcDbScale
 70
     0
300
1:10
140
1.0
141
10.0
290
     0
  0
SCALE
  5
4E
102
{ACAD_REACTORS
330
47
102
}
330
47
100
AcDbScale
 70
     0
300
1:16
140
1.0
141
16.0
290
     0
  0
SCALE
  5
4F
102
{ACAD_REACTORS
330
47
102
}
330
47
100
AcDbScale
 70
     0
300
1:20
140
1.0
141
20.0
290
     0
  0
SCALE
  5
50
102
{ACAD_REACTORS
330
47
102
}
330
47
100
AcDbScale
 70
     0
300
1:30
140
1.0
141
30.0
290
     0
  0
SCALE
  5
51
102
{ACAD_REACTORS
330
47
102
}
330
47
100
AcDbScale
 70
     0
300
1:40
140
1.0
141
40.0
290
     0
  0
SCALE
  5
52
102
{ACAD_REACTORS
330
47
102
}
330
47
100
AcDbScale
 70
     0
300
1:50
140
1.0
141
50.0
290
     0
  0
SCALE
  5
53
102
{ACAD_REACTORS
330
47
102
}
330
47
100
AcDbScale
 70
     0
300
1:100
140
1.0
141
100.0
290
     0
  0
SCALE
  5
54
102
{ACAD_REACTORS
330
47
102
}
330
47
100
AcDbScale
 70
     0
300
2:1
140
2.0
141
1.0
290
     0
  0
SCALE
  5
55
102
{ACAD_REACTORS
330
47
102
}
330
47
100
AcDbScale
 70
     0
300
4:1
140
4.0
141
1.0
290
     0
  0
SCALE
  5
56
102
{ACAD_REACTORS
330
47
102
}
330
47
100
AcDbScale
 70
     0
300
8:1
140
8.0
141
1.0
290
     0
  0
SCALE
  5
57
102
{ACAD_REACTORS
330
47
102
}
330
47
100
AcDbScale
 70
     0
300
10:1
140
10.0
141
1.0
290
     0
  0
SCALE
  5
58
102
{ACAD_REACTORS
330
47
102
}
330
47
100
AcDbScale
 70
     0
300
100:1
140
100.0
141
1.0
290
     0
  0
SCALE
  5
59
102
{ACAD_REACTORS
330
47
102
}
330
47
100
AcDbScale
 70
     0
300
1/128" = 1'-0"
140
0.007812
141
12.0
290
     0
  0
SCALE
  5
5A
102
{ACAD_REACTORS
330
47
102
}
330
47
100
AcDbScale
 70
     0
300
1/64" = 1'-0"
140
0.015625
141
12.0
290
     0
  0
SCALE
  5
5B
102
{ACAD_REACTORS
330
47
102
}
330
47
100
AcDbScale
 70
     0
300
1/32" = 1'-0"
140
0.03125
141
12.0
290
     0
  0
SCALE
  5
5C
102
{ACAD_REACTORS
330
47
102
}
330
47
100
AcDbScale
 70
     0
300
1/16" = 1'-0"
140
0.0625
141
12.0
290
     0
  0
SCALE
  5
5D
102
{ACAD_REACTORS
330
47
102
}
330
47
100
AcDbScale
 70
     0
300
3/32" = 1'-0"
140
0.09375
141
12.0
290
     0
  0
SCALE
  5
5E
102
{ACAD_REACTORS
330
47
102
}
330
47
100
AcDbScale
 70
     0
300
1/8" = 1'-0"
140
0.125
141
12.0
290
     0
  0
SCALE
  5
5F
102
{ACAD_REACTORS
330
47
102
}
330
47
100
AcDbScale
 70
     0
300
3/16" = 1'-0"
140
0.1875
141
12.0
290
     0
  0
SCALE
  5
60
102
{ACAD_REACTORS
330
47
102
}
330
47
100
AcDbScale
 70
     0
300
1/4" = 1'-0"
140
0.25
141
12.0
290
     0
  0
SCALE
  5
61
102
{ACAD_REACTORS
330
47
102
}
330
47
100
AcDbScale
 70
     0
300
3/8" = 1'-0"
140
0.375
141
12.0
290
     0
  0
SCALE
  5
62
102
{ACAD_REACTORS
330
47
102
}
330
47
100
AcDbScale
 70
     0
300
1/2" = 1'-0"
140
0.5
141
12.0
290
     0
  0
SCALE
  5
63
102
{ACAD_REACTORS
330
47
102
}
330
47
100
AcDbScale
 70
     0
300
3/4" = 1'-0"
140
0.75
141
12.0
290
     0
  0
SCALE
  5
64
102
{ACAD_REACTORS
330
47
102
}
330
47
100
AcDbScale
 70
     0
300
1" = 1'-0"
140
1.0
141
12.0
290
     0
  0
SCALE
  5
65
102
{ACAD_REACTORS
330
47
102
}
330
47
100
AcDbScale
 70
     0
300
1-1/2" = 1'-0"
140
1.5
141
12.0
290
     0
  0
SCALE
  5
66
102
{ACAD_REACTORS
330
47
102
}
330
47
100
AcDbScale
 70
     0
300
3" = 1'-0"
140
3.0
141
12.0
290
     0
  0
SCALE
  5
67
102
{ACAD_REACTORS
330
47
102
}
330
47
100
AcDbScale
 70
     0
300
6" = 1'-0"
140
6.0
141
12.0
290
     0
  0
SCALE
  5
68
102
{ACAD_REACTORS
330
47
102
}
330
47
100
AcDbScale
 70
     0
300
1'-0" = 1'-0"
140
12.0
141
12.0
290
     0
  0
TABLESTYLE
  5
6A
102
{ACAD_REACTORS
330
69
102
}
330
69
100
AcDbTableStyle
  3
Standard
 70
     0
 71
     0
 40
1.5
 41
1.5
280
     0
281
     0
  7
Standard
140
4.5
170
     2
 62
     0
 63
   257
283
     0
274
    -2
284
     1
 64
     0
275
    -2
285
     1
 65
     0
276
    -2
286
     1
 66
     0
277
    -2
287
     1
 67
     0
278
    -2
288
     1
 68
     0
279
    -2
289
     1
 69
     0
  7
Standard
140
6.0
170
     5
 62
     0
 63
   257
283
     0
274
    -2
284
     1
 64
     0
275
    -2
285
     1
 65
     0
276
    -2
286
     1
 66
     0
277
    -2
287
     1
 67
     0
278
    -2
288
     1
 68
     0
279
    -2
289
     1
 69
     0
  7
Standard
140
4.5
170
     5
 62
     0
 63
   257
283
     0
274
    -2
284
     1
 64
     0
275
    -2
285
     1
 65
     0
276
    -2
286
     1
 66
     0
277
    -2
287
     1
 67
     0
278
    -2
288
     1
 68
     0
279
    -2
289
     1
 69
     0
  0
VISUALSTYLE
  5
2F
102
{ACAD_REACTORS
330
2A
102
}
102
{ACAD_XDICTIONARY
360
34A
102
}
330
2A
100
AcDbVisualStyle
  2
2dWireframe
 70
     4
 71
     0
 72
     2
 73
     0
 90
        0
 40
0.6
 41
30.0
 62
     5
 63
     7
 74
     1
 91
        4
 64
     7
 65
   257
 75
     1
175
     1
 42
1.0
 92
        0
 66
   257
 43
1.0
 76
     1
 77
     6
 78
     2
 67
     7
 79
     5
170
     0
171
     0
290
     0
174
     0
 93
        1
 44
0.0
173
     0
291
     0
 45
0.0
1001
ACAD
1000
AcDbSavedByObjectVersion
1070
     0
  0
VISUALSTYLE
  5
32
102
{ACAD_REACTORS
330
2A
102
}
102
{ACAD_XDICTIONARY
360
350
102
}
330
2A
100
AcDbVisualStyle
  2
Basic
 70
     7
 71
     1
 72
     0
 73
     1
 90
        0
 40
0.6
 41
30.0
 62
     5
 63
     7
 74
     0
 91
        4
 64
     7
 65
   257
 75
     1
175
     1
 42
1.0
 92
        8
 66
     7
 43
1.0
 76
     1
 77
     6
 78
     2
 67
     7
 79
     5
170
     0
171
     0
290
     0
174
     0
 93
        1
 44
0.0
173
     0
291
     1
 45
0.0
1001
ACAD
1000
AcDbSavedByObjectVersion
1070
     0
  0
VISUALSTYLE
  5
36
102
{ACAD_REACTORS
330
2A
102
}
102
{ACAD_XDICTIONARY
360
358
102
}
330
2A
100
AcDbVisualStyle
  2
Brighten
 70
    12
 71
     2
 72
     2
 73
     0
 90
        0
 40
0.6
 41
30.0
 62
     5
 63
     7
 74
     1
 91
        4
 64
     7
 65
   257
 75
     1
175
     1
 42
1.0
 92
        8
 66
     7
 43
1.0
 76
     1
 77
     6
 78
     2
 67
     7
 79
     5
170
     0
171
     0
290
     0
174
     0
 93
        1
 44
50.0
173
     0
291
     1
 45
0.0
1001
ACAD
1000
AcDbSavedByObjectVersion
1070
     0
  0
VISUALSTYLE
  5
3A
102
{ACAD_REACTORS
330
2A
102
}
102
{ACAD_XDICTIONARY
360
360
102
}
330
2A
100
AcDbVisualStyle
  2
ColorChange
 70
    16
 71
     2
 72
     2
 73
     3
 90
        0
 40
0.6
 41
30.0
 62
     5
 63
     8
 74
     1
 91
        4
 64
     7
 65
   257
 75
     1
175
     1
 42
1.0
 92
        8
 66
     8
 43
1.0
 76
     1
 77
     6
 78
     2
 67
     7
 79
     5
170
     0
171
     0
290
     0
174
     0
 93
        1
 44
0.0
173
     0
291
     1
 45
0.0
1001
ACAD
1000
AcDbSavedByObjectVersion
1070
     0
  0
VISUALSTYLE
  5
34
102
{ACAD_REACTORS
330
2A
102
}
102
{ACAD_XDICTIONARY
360
354
102
}
330
2A
100
AcDbVisualStyle
  2
Conceptual
 70
     9
 71
     3
 72
     2
 73
     0
 90
        0
 40
0.6
 41
30.0
 62
     5
 63
     7
 74
     2
 91
        2
 64
     7
 65
   257
 75
     1
175
     1
 42
179.0
 92
        8
 66
     7
 43
1.0
 76
     1
 77
     6
 78
     2
 67
     7
 79
     3
170
     0
171
     0
290
     0
174
     0
 93
        1
 44
0.0
173
     0
291
     0
 45
0.0
1001
ACAD
1000
AcDbSavedByObjectVersion
1070
     0
  0
VISUALSTYLE
  5
35
102
{ACAD_REACTORS
330
2A
102
}
102
{ACAD_XDICTIONARY
360
356
102
}
330
2A
100
AcDbVisualStyle
  2
Dim
 70
    11
 71
     2
 72
     2
 73
     0
 90
        0
 40
0.6
 41
30.0
 62
     5
 63
     7
 74
     1
 91
        4
 64
     7
 65
   257
 75
     1
175
     1
 42
1.0
 92
        8
 66
     7
 43
1.0
 76
     1
 77
     6
 78
     2
 67
     7
 79
     5
170
     0
171
     0
290
     0
174
     0
 93
        1
 44
-50.0
173
     0
291
     1
 45
0.0
1001
ACAD
1000
AcDbSavedByObjectVersion
1070
     0
  0
VISUALSTYLE
  5
3D
102
{ACAD_REACTORS
330
2A
102
}
102
{ACAD_XDICTIONARY
360
366
102
}
330
2A
100
AcDbVisualStyle
  2
EdgeColorOff
 70
    22
 71
     2
 72
     2
 73
     0
 90
        0
 40
0.6
 41
30.0
 62
     5
 63
     7
 74
     1
 91
        4
 64
     7
 65
   257
 75
     1
175
     1
 42
1.0
 92
        8
 66
     7
 43
1.0
 76
     1
 77
     6
 78
     2
 67
     7
 79
     5
170
     0
171
     0
290
     0
174
     0
 93
        1
 44
0.0
173
     0
291
     1
 45
0.0
1001
ACAD
1000
AcDbSavedByObjectVersion
1070
     0
  0
VISUALSTYLE
  5
39
102
{ACAD_REACTORS
330
2A
102
}
102
{ACAD_XDICTIONARY
360
35E
102
}
330
2A
100
AcDbVisualStyle
  2
Facepattern
 70
    15
 71
     2
 72
     2
 73
     0
 90
        0
 40
0.6
 41
30.0
 62
     5
 63
     7
 74
     1
 91
        4
 64
     7
 65
   257
 75
     1
175
     1
 42
1.0
 92
        8
 66
     7
 43
1.0
 76
     1
 77
     6
 78
     2
 67
     7
 79
     5
170
     0
171
     0
290
     0
174
     0
 93
        1
 44
0.0
173
     0
291
     1
 45
0.0
1001
ACAD
1000
AcDbSavedByObjectVersion
1070
     0
  0
VISUALSTYLE
  5
2B
102
{ACAD_REACTORS
330
2A
102
}
102
{ACAD_XDICTIONARY
360
342
102
}
330
2A
100
AcDbVisualStyle
  2
Flat
 70
     0
 71
     2
 72
     1
 73
     1
 90
        2
 40
0.6
 41
30.0
 62
     5
 63
     7
 74
     0
 91
        0
 64
     7
 65
   257
 75
     1
175
     1
 42
1.0
 92
        8
 66
     7
 43
1.0
 76
     1
 77
     6
 78
     2
 67
     7
 79
     5
170
     0
171
     0
290
     0
174
     0
 93
       13
 44
0.0
173
     0
291
     1
 45
0.0
1001
ACAD
1000
AcDbSavedByObjectVersion
1070
     0
  0
VISUALSTYLE
  5
2C
102
{ACAD_REACTORS
330
2A
102
}
102
{ACAD_XDICTIONARY
360
344
102
}
330
2A
100
AcDbVisualStyle
  2
FlatWithEdges
 70
     1
 71
     2
 72
     1
 73
     1
 90
        2
 40
0.6
 41
30.0
 62
     5
 63
     7
 74
     1
 91
        0
 64
     7
 65
   257
 75
     1
175
     1
 42
1.0
 92
        0
 66
   257
 43
1.0
 76
     1
 77
     6
 78
     2
 67
     7
 79
     5
170
     0
171
     0
290
     0
174
     0
 93
       13
 44
0.0
173
     0
291
     1
 45
0.0
1001
ACAD
1000
AcDbSavedByObjectVersion
1070
     0
  0
VISUALSTYLE
  5
2D
102
{ACAD_REACTORS
330
2A
102
}
102
{ACAD_XDICTIONARY
360
346
102
}
330
2A
100
AcDbVisualStyle
  2
Gouraud
 70
     2
 71
     2
 72
     2
 73
     1
 90
        2
 40
0.6
 41
30.0
 62
     5
 63
     7
 74
     0
 91
        0
 64
     7
 65
   257
 75
     1
175
     1
 42
1.0
 92
        0
 66
     7
 43
1.0
 76
     1
 77
     6
 78
     2
 67
     7
 79
     5
170
     0
171
     0
290
     0
174
     0
 93
       13
 44
0.0
173
     0
291
     1
 45
0.0
1001
ACAD
1000
AcDbSavedByObjectVersion
1070
     0
  0
VISUALSTYLE
  5
2E
102
{ACAD_REACTORS
330
2A
102
}
102
{ACAD_XDICTIONARY
360
348
102
}
330
2A
100
AcDbVisualStyle
  2
GouraudWithEdges
 70
     3
 71
     2
 72
     2
 73
     1
 90
        2
 40
0.6
 41
30.0
 62
     5
 63
     7
 74
     1
 91
        0
 64
     7
 65
   257
 75
     1
175
     1
 42
1.0
 92
        0
 66
   257
 43
1.0
 76
     1
 77
     6
 78
     2
 67
     7
 79
     5
170
     0
171
     0
290
     0
174
     0
 93
       13
 44
0.0
173
     0
291
     1
 45
0.0
1001
ACAD
1000
AcDbSavedByObjectVersion
1070
     0
  0
VISUALSTYLE
  5
31
102
{ACAD_REACTORS
330
2A
102
}
102
{ACAD_XDICTIONARY
360
34E
102
}
330
2A
100
AcDbVisualStyle
  2
Hidden
 70
     6
 71
     1
 72
     2
 73
     2
 90
        0
 40
0.6
 41
30.0
 62
     5
 63
     7
 74
     2
 91
        2
 64
     7
 65
   257
 75
     2
175
     1
 42
40.0
 92
        0
 66
   257
 43
1.0
 76
     1
 77
     6
 78
     2
 67
     7
 79
     3
170
     0
171
     0
290
     0
174
     0
 93
        1
 44
0.0
173
     0
291
     0
 45
0.0
1001
ACAD
1000
AcDbSavedByObjectVersion
1070
     0
  0
VISUALSTYLE
  5
3B
102
{ACAD_REACTORS
330
2A
102
}
102
{ACAD_XDICTIONARY
360
362
102
}
330
2A
100
AcDbVisualStyle
  2
JitterOff
 70
    20
 71
     2
 72
     2
 73
     0
 90
        0
 40
0.6
 41
30.0
 62
     5
 63
     7
 74
     1
 91
        4
 64
     7
 65
   257
 75
     1
175
     1
 42
1.0
 92
       10
 66
     7
 43
1.0
 76
     1
 77
     6
 78
     2
 67
     7
 79
     5
170
     0
171
     0
290
     0
174
     0
 93
        1
 44
0.0
173
     0
291
     1
 45
0.0
1001
ACAD
1000
AcDbSavedByObjectVersion
1070
     0
  0
VISUALSTYLE
  5
38
102
{ACAD_REACTORS
330
2A
102
}
102
{ACAD_XDICTIONARY
360
35C
102
}
330
2A
100
AcDbVisualStyle
  2
Linepattern
 70
    14
 71
     2
 72
     2
 73
     0
 90
        0
 40
0.6
 41
30.0
 62
     5
 63
     7
 74
     1
 91
        4
 64
     7
 65
   257
 75
     7
175
     7
 42
1.0
 92
        8
 66
     7
 43
1.0
 76
     1
 77
     6
 78
     2
 67
     7
 79
     5
170
     0
171
     0
290
     0
174
     0
 93
        1
 44
0.0
173
     0
291
     1
 45
0.0
1001
ACAD
1000
AcDbSavedByObjectVersion
1070
     0
  0
VISUALSTYLE
  5
3C
102
{ACAD_REACTORS
330
2A
102
}
102
{ACAD_XDICTIONARY
360
364
102
}
330
2A
100
AcDbVisualStyle
  2
OverhangOff
 70
    21
 71
     2
 72
     2
 73
     0
 90
        0
 40
0.6
 41
30.0
 62
     5
 63
     7
 74
     1
 91
        4
 64
     7
 65
   257
 75
     1
175
     1
 42
1.0
 92
        9
 66
     7
 43
1.0
 76
     1
 77
     6
 78
     2
 67
     7
 79
     5
170
     0
171
     0
290
     0
174
     0
 93
        1
 44
0.0
173
     0
291
     1
 45
0.0
1001
ACAD
1000
AcDbSavedByObjectVersion
1070
     0
  0
VISUALSTYLE
  5
33
102
{ACAD_REACTORS
330
2A
102
}
102
{ACAD_XDICTIONARY
360
352
102
}
330
2A
100
AcDbVisualStyle
  2
Realistic
 70
     8
 71
     2
 72
     3
 73
     0
 90
        2
 40
0.6
 41
30.0
 62
     5
 63
     7
 74
     0
 91
        0
 64
     7
 65
   257
 75
     1
175
     1
 42
1.0
 92
        8
 66
   257
 43
1.0
 76
     1
 77
     6
 78
     2
 67
     7
 79
     3
170
     0
171
     0
290
     0
174
     0
 93
       13
 44
0.0
173
     0
291
     0
 45
0.0
1001
ACAD
1000
AcDbSavedByObjectVersion
1070
     0
  0
VISUALSTYLE
  5
42
102
{ACAD_REACTORS
330
2A
102
}
102
{ACAD_XDICTIONARY
360
370
102
}
330
2A
100
AcDbVisualStyle
  2
Shaded
 70
    27
 71
     2
 72
     2
 73
     1
 90
        2
 40
0.6
 41
30.0
 62
     5
 63
     7
 74
     0
 91
        4
 64
     7
 65
   257
 75
     1
175
     1
 42
1.0
 92
        8
 66
   257
 43
1.0
 76
     1
 77
     6
 78
     2
 67
     8
 79
     3
170
     0
171
     0
290
     0
174
     0
 93
        5
 44
0.0
173
     0
291
     0
 45
0.0
1001
ACAD
1000
AcDbSavedByObjectVersion
1070
     0
  0
VISUALSTYLE
  5
41
102
{ACAD_REACTORS
330
2A
102
}
102
{ACAD_XDICTIONARY
360
36E
102
}
330
2A
100
AcDbVisualStyle
  2
Shaded with edges
 70
    26
 71
     2
 72
     2
 73
     1
 90
        2
 40
0.6
 41
30.0
 62
     5
 63
     7
 74
     1
 91
       10
 64
     7
 65
   257
 75
     2
175
     1
 42
1.0
 92
        8
 66
   257
 43
1.0
 76
     1
 77
     6
 78
     2
 67
     7
 79
     3
170
     0
171
     0
290
     0
174
     0
 93
        5
 44
0.0
173
     0
291
     0
 45
0.0
1001
ACAD
1000
AcDbSavedByObjectVersion
1070
     0
  0
VISUALSTYLE
  5
3E
102
{ACAD_REACTORS
330
2A
102
}
102
{ACAD_XDICTIONARY
360
368
102
}
330
2A
100
AcDbVisualStyle
  2
Shades of Gray
 70
    23
 71
     2
 72
     2
 73
     3
 90
        0
 40
0.6
 41
30.0
 62
     5
 63
     7
 74
     2
 91
        2
 64
     7
 65
     7
 75
     1
175
     1
 42
40.0
 92
        8
 66
     7
 43
1.0
 76
     1
 77
     6
 78
     2
 67
     7
 79
     3
170
     0
171
     0
290
     0
174
     0
 93
        1
 44
0.0
173
     0
291
     0
 45
0.0
1001
ACAD
1000
AcDbSavedByObjectVersion
1070
     0
  0
VISUALSTYLE
  5
3F
102
{ACAD_REACTORS
330
2A
102
}
102
{ACAD_XDICTIONARY
360
36A
102
}
330
2A
100
AcDbVisualStyle
  2
Sketchy
 70
    24
 71
     1
 72
     2
 73
     2
 90
        0
 40
0.6
 41
30.0
 62
     5
 63
     7
 74
     2
 91
        2
 64
     7
 65
     7
 75
     1
175
     1
 42
40.0
 92
       11
 66
     7
 43
1.0
 76
     1
 77
     6
 78
     2
 67
     7
 79
     6
170
     0
171
     0
290
     0
174
     0
 93
        1
 44
0.0
173
     0
291
     0
 45
0.0
1001
ACAD
1000
AcDbSavedByObjectVersion
1070
     0
  0
VISUALSTYLE
  5
37
102
{ACAD_REACTORS
330
2A
102
}
102
{ACAD_XDICTIONARY
360
35A
102
}
330
2A
100
AcDbVisualStyle
  2
Thicken
 70
    13
 71
     2
 72
     2
 73
     0
 90
        0
 40
0.6
 41
30.0
 62
     5
 63
     7
 74
     1
 91
        4
 64
     7
 65
   257
 75
     1
175
     1
 42
1.0
 92
       12
 66
     7
 43
1.0
 76
     1
 77
     6
 78
     2
 67
     7
 79
     5
170
     0
171
     0
290
     0
174
     0
 93
        1
 44
0.0
173
     0
291
     1
 45
0.0
1001
ACAD
1000
AcDbSavedByObjectVersion
1070
     0
  0
VISUALSTYLE
  5
30
102
{ACAD_REACTORS
330
2A
102
}
102
{ACAD_XDICTIONARY
360
34C
102
}
330
2A
100
AcDbVisualStyle
  2
Wireframe
 70
     5
 71
     0
 72
     2
 73
     0
 90
        0
 40
0.6
 41
30.0
 62
     5
 63
     7
 74
     1
 91
        4
 64
     7
 65
   257
 75
     1
175
     1
 42
1.0
 92
        0
 66
   257
 43
1.0
 76
     1
 77
     6
 78
     2
 67
     7
 79
     3
170
     0
171
     0
290
     0
174
     0
 93
        1
 44
0.0
173
     0
291
     0
 45
0.0
1001
ACAD
1000
AcDbSavedByObjectVersion
1070
     0
  0
VISUALSTYLE
  5
40
102
{ACAD_REACTORS
330
2A
102
}
102
{ACAD_XDICTIONARY
360
36C
102
}
330
2A
100
AcDbVisualStyle
  2
X-Ray
 70
    25
 71
     2
 72
     2
 73
     1
 90
        1
 40
0.5
 41
30.0
 62
     5
 63
     7
 74
     1
 91
        0
 64
     7
 65
   257
 75
     1
175
     1
 42
1.0
 92
        8
 66
     7
 43
1.0
 76
     1
 77
     6
 78
     2
 67
     7
 79
     3
170
     0
171
     0
290
     0
174
     0
 93
       13
 44
0.0
173
     0
291
     0
 45
0.0
1001
ACAD
1000
AcDbSavedByObjectVersion
1070
     0
  0
DICTIONARYVAR
  5
340
102
{ACAD_REACTORS
330
333
102
}
330
333
100
DictionaryVariables
280
     0
  1
1:1
  0
DICTIONARYVAR
  5
33A
102
{ACAD_REACTORS
330
333
102
}
330
333
100
DictionaryVariables
280
     0
  1
3.500000
  0
DICTIONARYVAR
  5
33B
102
{ACAD_REACTORS
330
333
102
}
330
333
100
DictionaryVariables
280
     0
  1
acadiso.lin
  0
DICTIONARYVAR
  5
335
102
{ACAD_REACTORS
330
333
102
}
330
333
100
DictionaryVariables
280
     0
  1
Standard
  0
DICTIONARYVAR
  5
334
102
{ACAD_REACTORS
330
333
102
}
330
333
100
DictionaryVariables
280
     0
  1
Standard
  0
DICTIONARYVAR
  5
33C
102
{ACAD_REACTORS
330
333
102
}
330
333
100
DictionaryVariables
280
     0
  1
2
  0
DICTIONARYVAR
  5
33D
102
{ACAD_REACTORS
330
333
102
}
330
333
100
DictionaryVariables
280
     0
  1
1
  0
DICTIONARYVAR
  5
341
102
{ACAD_REACTORS
330
333
102
}
330
333
100
DictionaryVariables
280
     0
  1
1
  0
DICTIONARYVAR
  5
337
102
{ACAD_REACTORS
330
333
102
}
330
333
100
DictionaryVariables
280
     0
  1
80.000000
  0
DICTIONARYVAR
  5
336
102
{ACAD_REACTORS
330
333
102
}
330
333
100
DictionaryVariables
280
     0
  1
5.000000
  0
DICTIONARY
  5
374
330
45
100
AcDbDictionary
280
     1
281
     1
  3
ACAD_XREC_ROUNDTRIP
360
375
  0
DICTIONARY
  5
372
330
44
100
AcDbDictionary
280
     1
281
     1
  3
ACAD_XREC_ROUNDTRIP
360
373
  0
DICTIONARY
  5
376
330
46
100
AcDbDictionary
280
     1
281
     1
  3
ACAD_XREC_ROUNDTRIP
360
377
  0
DICTIONARY
  5
379
330
6C
100
AcDbDictionary
280
     1
281
     1
  3
ACAD_XREC_ROUNDTRIP
360
37A
  0
DICTIONARY
  5
34A
330
2F
100
AcDbDictionary
280
     1
281
     1
  3
ACAD_XREC_ROUNDTRIP
360
34B
  0
DICTIONARY
  5
350
330
32
100
AcDbDictionary
280
     1
281
     1
  3
ACAD_XREC_ROUNDTRIP
360
351
  0
DICTIONARY
  5
358
330
36
100
AcDbDictionary
280
     1
281
     1
  3
ACAD_XREC_ROUNDTRIP
360
359
  0
DICTIONARY
  5
360
330
3A
100
AcDbDictionary
280
     1
281
     1
  3
ACAD_XREC_ROUNDTRIP
360
361
  0
DICTIONARY
  5
354
330
34
100
AcDbDictionary
280
     1
281
     1
  3
ACAD_XREC_ROUNDTRIP
360
355
  0
DICTIONARY
  5
356
330
35
100
AcDbDictionary
280
     1
281
     1
  3
ACAD_XREC_ROUNDTRIP
360
357
  0
DICTIONARY
  5
366
330
3D
100
AcDbDictionary
280
     1
281
     1
  3
ACAD_XREC_ROUNDTRIP
360
367
  0
DICTIONARY
  5
35E
330
39
100
AcDbDictionary
280
     1
281
     1
  3
ACAD_XREC_ROUNDTRIP
360
35F
  0
DICTIONARY
  5
342
330
2B
100
AcDbDictionary
280
     1
281
     1
  3
ACAD_XREC_ROUNDTRIP
360
343
  0
DICTIONARY
  5
344
330
2C
100
AcDbDictionary
280
     1
281
     1
  3
ACAD_XREC_ROUNDTRIP
360
345
  0
DICTIONARY
  5
346
330
2D
100
AcDbDictionary
280
     1
281
     1
  3
ACAD_XREC_ROUNDTRIP
360
347
  0
DICTIONARY
  5
348
330
2E
100
AcDbDictionary
280
     1
281
     1
  3
ACAD_XREC_ROUNDTRIP
360
349
  0
DICTIONARY
  5
34E
330
31
100
AcDbDictionary
280
     1
281
     1
  3
ACAD_XREC_ROUNDTRIP
360
34F
  0
DICTIONARY
  5
362
330
3B
100
AcDbDictionary
280
     1
281
     1
  3
ACAD_XREC_ROUNDTRIP
360
363
  0
DICTIONARY
  5
35C
330
38
100
AcDbDictionary
280
     1
281
     1
  3
ACAD_XREC_ROUNDTRIP
360
35D
  0
DICTIONARY
  5
364
330
3C
100
AcDbDictionary
280
     1
281
     1
  3
ACAD_XREC_ROUNDTRIP
360
365
  0
DICTIONARY
  5
352
330
33
100
AcDbDictionary
280
     1
281
     1
  3
ACAD_XREC_ROUNDTRIP
360
353
  0
DICTIONARY
  5
370
330
42
100
AcDbDictionary
280
     1
281
     1
  3
ACAD_XREC_ROUNDTRIP
360
371
  0
DICTIONARY
  5
36E
330
41
100
AcDbDictionary
280
     1
281
     1
  3
ACAD_XREC_ROUNDTRIP
360
36F
  0
DICTIONARY
  5
368
330
3E
100
AcDbDictionary
280
     1
281
     1
  3
ACAD_XREC_ROUNDTRIP
360
369
  0
DICTIONARY
  5
36A
330
3F
100
AcDbDictionary
280
     1
281
     1
  3
ACAD_XREC_ROUNDTRIP
360
36B
  0
DICTIONARY
  5
35A
330
37
100
AcDbDictionary
280
     1
281
     1
  3
ACAD_XREC_ROUNDTRIP
360
35B
  0
DICTIONARY
  5
34C
330
30
100
AcDbDictionary
280
     1
281
     1
  3
ACAD_XREC_ROUNDTRIP
360
34D
  0
DICTIONARY
  5
36C
330
40
100
AcDbDictionary
280
     1
281
     1
  3
ACAD_XREC_ROUNDTRIP
360
36D
  0
XRECORD
  5
375
102
{ACAD_REACTORS
330
374
102
}
330
374
100
AcDbXrecord
280
     1
102
MATERIAL
148
0.0
149
0.0
149
0.0
 93
        0
 94
      127
282
     0
 72
     1
 77
     1
171
     1
175
     1
179
     1
273
     0
  0
XRECORD
  5
373
102
{ACAD_REACTORS
330
372
102
}
330
372
100
AcDbXrecord
280
     1
102
MATERIAL
148
0.0
149
0.0
149
0.0
 93
        0
 94
      127
282
     0
 72
     1
 77
     1
171
     1
175
     1
179
     1
273
     0
  0
XRECORD
  5
377
102
{ACAD_REACTORS
330
376
102
}
330
376
100
AcDbXrecord
280
     1
102
MATERIAL
148
0.0
149
0.0
149
0.0
 93
        0
 94
      127
282
     0
 72
     1
 77
     1
171
     1
175
     1
179
     1
273
     0
  0
XRECORD
  5
37A
102
{ACAD_REACTORS
330
379
102
}
330
379
100
AcDbXrecord
280
     1
102
ACAD_ROUNDTRIP_2010_MLEADER_STYLE
  0
XRECORD
  5
34B
102
{ACAD_REACTORS
330
34A
102
}
330
34A
100
AcDbXrecord
280
     1
102
RTVSPropertyOp0
 70
     1
102
RTVSPropertyOp1
 70
     1
102
RTVSPropertyOp2
 70
     1
102
RTVSPropertyOp3
 70
     1
102
RTVSPropertyOp4
 70
     1
102
RTVSPropertyOp5
 70
     1
102
RTVSPropertyOp6
 70
     1
102
RTVSPropertyOp7
 70
     1
102
RTVSPropertyOp8
 70
     1
102
RTVSPropertyOp9
 70
     1
102
RTVSPropertyOp10
 70
     1
102
RTVSPropertyOp11
 70
     1
102
RTVSPropertyOp12
 70
     1
102
RTVSPropertyOp13
 70
     1
102
RTVSPropertyOp14
 70
     1
102
RTVSPropertyOp15
 70
     1
102
RTVSPropertyOp16
 70
     1
102
RTVSPropertyOp17
 70
     1
102
RTVSPropertyOp18
 70
     1
102
RTVSPropertyOp19
 70
     1
102
RTVSPropertyOp20
 70
     1
102
RTVSPropertyOp21
 70
     1
102
RTVSPropertyOp22
 70
     1
102
RTVSPropertyOp23
 70
     1
102
RTVSPropertyOp24
 70
     1
102
RTVSPropertyOp25
 70
     1
102
RTVSPropertyOp26
 70
     1
102
RTVSPropertyOp27
 70
     1
102
RTVSPropertyOp28
 70
     1
102
RTVSPropertyOp29
 70
     1
102
RTVSPropertyOp30
 70
     1
102
RTVSPropertyOp31
 70
     1
102
RTVSPropertyOp32
 70
     1
102
RTVSPropertyOp33
 70
     1
102
RTVSPropertyOp34
 70
     1
102
RTVSPropertyOp35
 70
     1
102
RTVSPropertyOp36
 70
     1
102
RTVSPropertyOp37
 70
     1
102
RTVSPropertyOp38
 70
     1
102
RTVSPropertyOp39
 70
     1
102
RTVSPropertyOp40
 70
     1
102
RTVSPropertyOp41
 70
     1
102
RTVSPropertyOp42
 70
     1
102
RTVSPropertyOp43
 70
     1
102
RTVSPropertyOp44
 70
     1
102
RTVSPropertyOp45
 70
     1
102
RTVSPropertyOp46
 70
     1
102
RTVSPropertyOp47
 70
     1
102
RTVSPropertyOp48
 70
     1
102
RTVSPropertyOp49
 70
     1
102
RTVSPropertyOp50
 70
     1
102
RTVSPropertyOp51
 70
     0
102
RTVSPropertyOp52
 70
     0
102
RTVSPropertyOp53
 70
     1
102
RTVSPropertyOp54
 70
     1
102
RTVSPropertyOp55
 70
     1
102
RTVSPropertyOp56
 70
     1
102
RTVSPropertyOp57
 70
     1
102
RTVSPost2010Prop28
280
     1
102
RTVSPost2010PropOp28
 70
     1
102
RTVSPost2010Prop29
280
     1
102
RTVSPost2010PropOp29
 70
     1
102
RTVSPost2010Prop30
280
     0
102
RTVSPost2010PropOp30
 70
     1
102
RTVSPost2010Prop31
280
     0
102
RTVSPost2010PropOp31
 70
     1
102
RTVSPost2010Prop32
280
     0
102
RTVSPost2010PropOp32
 70
     1
102
RTVSPost2010Prop33
280
     0
102
RTVSPost2010PropOp33
 70
     1
102
RTVSPost2010Prop34
280
     0
102
RTVSPost2010PropOp34
 70
     1
102
RTVSPost2010Prop35
280
     0
102
RTVSPost2010PropOp35
 70
     1
102
RTVSPost2010Prop36
280
     0
102
RTVSPost2010PropOp36
 70
     1
102
RTVSPost2010Prop37
 90
       50
102
RTVSPost2010PropOp37
 70
     1
102
RTVSPost2010Prop38
140
0.0
102
RTVSPost2010PropOp38
 70
     1
102
RTVSPost2010Prop39
140
1.0
102
RTVSPost2010PropOp39
 70
     1
102
RTVSPost2010Prop40
 90
        0
102
RTVSPost2010PropOp40
 70
     1
102
RTVSPost2010Prop41ColorIndex
 90
       18
102
RTVSPost2010Prop41ColorRGB
 90
        0
102
RTVSPost2010PropOp41
 70
     1
102
RTVSPost2010Prop42
 90
       50
102
RTVSPost2010PropOp42
 70
     1
102
RTVSPost2010Prop43
 90
        3
102
RTVSPost2010PropOp43
 70
     1
102
RTVSPost2010Prop44ColorIndex
 90
        5
102
RTVSPost2010Prop44ColorRGB
 90
      255
102
RTVSPost2010PropOp44
 70
     1
102
RTVSPost2010Prop45
280
     0
102
RTVSPost2010PropOp45
 70
     1
102
RTVSPost2010Prop46
 90
       50
102
RTVSPost2010PropOp46
 70
     1
102
RTVSPost2010Prop47
 90
       50
102
RTVSPost2010PropOp47
 70
     1
102
RTVSPost2010Prop48
 90
       50
102
RTVSPost2010PropOp48
 70
     1
102
RTVSPost2010Prop49
280
     0
102
RTVSPost2010PropOp49
 70
     1
102
RTVSPost2010Prop50
 90
       50
102
RTVSPost2010PropOp50
 70
     1
102
RTVSPost2010Prop51ColorIndex
 90
      256
102
RTVSPost2010Prop51ColorRGB
 90
-16777216
102
RTVSPost2010PropOp51
 70
     0
102
RTVSPost2010Prop52
140
1.0
102
RTVSPost2010PropOp52
 70
     0
102
RTVSPost2010Prop53
 90
        2
102
RTVSPost2010PropOp53
 70
     1
102
RTVSPost2010Prop54
  1
strokes_ogs.tif
102
RTVSPost2010PropOp54
 70
     1
102
RTVSPost2010Prop55
280
     0
102
RTVSPost2010PropOp55
 70
     1
102
RTVSPost2010Prop56
140
1.0
102
RTVSPost2010PropOp56
 70
     1
102
RTVSPost2010Prop57
140
1.0
102
RTVSPost2010PropOp57
 70
     1
  0
XRECORD
  5
351
102
{ACAD_REACTORS
330
350
102
}
330
350
100
AcDbXrecord
280
     1
102
RTVSPropertyOp0
 70
     1
102
RTVSPropertyOp1
 70
     1
102
RTVSPropertyOp2
 70
     1
102
RTVSPropertyOp3
 70
     1
102
RTVSPropertyOp4
 70
     1
102
RTVSPropertyOp5
 70
     1
102
RTVSPropertyOp6
 70
     1
102
RTVSPropertyOp7
 70
     1
102
RTVSPropertyOp8
 70
     1
102
RTVSPropertyOp9
 70
     1
102
RTVSPropertyOp10
 70
     1
102
RTVSPropertyOp11
 70
     1
102
RTVSPropertyOp12
 70
     1
102
RTVSPropertyOp13
 70
     1
102
RTVSPropertyOp14
 70
     1
102
RTVSPropertyOp15
 70
     1
102
RTVSPropertyOp16
 70
     1
102
RTVSPropertyOp17
 70
     1
102
RTVSPropertyOp18
 70
     1
102
RTVSPropertyOp19
 70
     1
102
RTVSPropertyOp20
 70
     1
102
RTVSPropertyOp21
 70
     1
102
RTVSPropertyOp22
 70
     1
102
RTVSPropertyOp23
 70
     1
102
RTVSPropertyOp24
 70
     1
102
RTVSPropertyOp25
 70
     1
102
RTVSPropertyOp26
 70
     1
102
RTVSPropertyOp27
 70
     1
102
RTVSPropertyOp28
 70
     1
102
RTVSPropertyOp29
 70
     1
102
RTVSPropertyOp30
 70
     1
102
RTVSPropertyOp31
 70
     1
102
RTVSPropertyOp32
 70
     1
102
RTVSPropertyOp33
 70
     1
102
RTVSPropertyOp34
 70
     1
102
RTVSPropertyOp35
 70
     1
102
RTVSPropertyOp36
 70
     1
102
RTVSPropertyOp37
 70
     1
102
RTVSPropertyOp38
 70
     1
102
RTVSPropertyOp39
 70
     1
102
RTVSPropertyOp40
 70
     1
102
RTVSPropertyOp41
 70
     1
102
RTVSPropertyOp42
 70
     1
102
RTVSPropertyOp43
 70
     1
102
RTVSPropertyOp44
 70
     1
102
RTVSPropertyOp45
 70
     1
102
RTVSPropertyOp46
 70
     1
102
RTVSPropertyOp47
 70
     1
102
RTVSPropertyOp48
 70
     1
102
RTVSPropertyOp49
 70
     1
102
RTVSPropertyOp50
 70
     1
102
RTVSPropertyOp51
 70
     0
102
RTVSPropertyOp52
 70
     0
102
RTVSPropertyOp53
 70
     1
102
RTVSPropertyOp54
 70
     1
102
RTVSPropertyOp55
 70
     1
102
RTVSPropertyOp56
 70
     1
102
RTVSPropertyOp57
 70
     1
102
RTVSPost2010Prop28
280
     0
102
RTVSPost2010PropOp28
 70
     1
102
RTVSPost2010Prop29
280
     1
102
RTVSPost2010PropOp29
 70
     1
102
RTVSPost2010Prop30
280
     1
102
RTVSPost2010PropOp30
 70
     1
102
RTVSPost2010Prop31
280
     0
102
RTVSPost2010PropOp31
 70
     1
102
RTVSPost2010Prop32
280
     0
102
RTVSPost2010PropOp32
 70
     1
102
RTVSPost2010Prop33
280
     0
102
RTVSPost2010PropOp33
 70
     1
102
RTVSPost2010Prop34
280
     0
102
RTVSPost2010PropOp34
 70
     1
102
RTVSPost2010Prop35
280
     0
102
RTVSPost2010PropOp35
 70
     1
102
RTVSPost2010Prop36
280
     0
102
RTVSPost2010PropOp36
 70
     1
102
RTVSPost2010Prop37
 90
       50
102
RTVSPost2010PropOp37
 70
     1
102
RTVSPost2010Prop38
140
0.0
102
RTVSPost2010PropOp38
 70
     1
102
RTVSPost2010Prop39
140
1.0
102
RTVSPost2010PropOp39
 70
     1
102
RTVSPost2010Prop40
 90
        0
102
RTVSPost2010PropOp40
 70
     1
102
RTVSPost2010Prop41ColorIndex
 90
       18
102
RTVSPost2010Prop41ColorRGB
 90
        0
102
RTVSPost2010PropOp41
 70
     1
102
RTVSPost2010Prop42
 90
       50
102
RTVSPost2010PropOp42
 70
     1
102
RTVSPost2010Prop43
 90
        3
102
RTVSPost2010PropOp43
 70
     1
102
RTVSPost2010Prop44ColorIndex
 90
        5
102
RTVSPost2010Prop44ColorRGB
 90
      255
102
RTVSPost2010PropOp44
 70
     1
102
RTVSPost2010Prop45
280
     0
102
RTVSPost2010PropOp45
 70
     1
102
RTVSPost2010Prop46
 90
       50
102
RTVSPost2010PropOp46
 70
     1
102
RTVSPost2010Prop47
 90
       50
102
RTVSPost2010PropOp47
 70
     1
102
RTVSPost2010Prop48
 90
       50
102
RTVSPost2010PropOp48
 70
     1
102
RTVSPost2010Prop49
280
     0
102
RTVSPost2010PropOp49
 70
     1
102
RTVSPost2010Prop50
 90
       50
102
RTVSPost2010PropOp50
 70
     1
102
RTVSPost2010Prop51ColorIndex
 90
      256
102
RTVSPost2010Prop51ColorRGB
 90
-16777216
102
RTVSPost2010PropOp51
 70
     0
102
RTVSPost2010Prop52
140
1.0
102
RTVSPost2010PropOp52
 70
     0
102
RTVSPost2010Prop53
 90
        2
102
RTVSPost2010PropOp53
 70
     1
102
RTVSPost2010Prop54
  1
strokes_ogs.tif
102
RTVSPost2010PropOp54
 70
     1
102
RTVSPost2010Prop55
280
     0
102
RTVSPost2010PropOp55
 70
     1
102
RTVSPost2010Prop56
140
1.0
102
RTVSPost2010PropOp56
 70
     1
102
RTVSPost2010Prop57
140
1.0
102
RTVSPost2010PropOp57
 70
     1
  0
XRECORD
  5
359
102
{ACAD_REACTORS
330
358
102
}
330
358
100
AcDbXrecord
280
     1
102
RTVSPropertyOp0
 70
     1
102
RTVSPropertyOp1
 70
     1
102
RTVSPropertyOp2
 70
     1
102
RTVSPropertyOp3
 70
     1
102
RTVSPropertyOp4
 70
     1
102
RTVSPropertyOp5
 70
     1
102
RTVSPropertyOp6
 70
     1
102
RTVSPropertyOp7
 70
     1
102
RTVSPropertyOp8
 70
     1
102
RTVSPropertyOp9
 70
     1
102
RTVSPropertyOp10
 70
     1
102
RTVSPropertyOp11
 70
     1
102
RTVSPropertyOp12
 70
     1
102
RTVSPropertyOp13
 70
     1
102
RTVSPropertyOp14
 70
     1
102
RTVSPropertyOp15
 70
     1
102
RTVSPropertyOp16
 70
     1
102
RTVSPropertyOp17
 70
     1
102
RTVSPropertyOp18
 70
     1
102
RTVSPropertyOp19
 70
     1
102
RTVSPropertyOp20
 70
     1
102
RTVSPropertyOp21
 70
     1
102
RTVSPropertyOp22
 70
     1
102
RTVSPropertyOp23
 70
     1
102
RTVSPropertyOp24
 70
     1
102
RTVSPropertyOp25
 70
     1
102
RTVSPropertyOp26
 70
     1
102
RTVSPropertyOp27
 70
     1
102
RTVSPropertyOp28
 70
     1
102
RTVSPropertyOp29
 70
     1
102
RTVSPropertyOp30
 70
     1
102
RTVSPropertyOp31
 70
     1
102
RTVSPropertyOp32
 70
     1
102
RTVSPropertyOp33
 70
     1
102
RTVSPropertyOp34
 70
     1
102
RTVSPropertyOp35
 70
     1
102
RTVSPropertyOp36
 70
     1
102
RTVSPropertyOp37
 70
     1
102
RTVSPropertyOp38
 70
     1
102
RTVSPropertyOp39
 70
     1
102
RTVSPropertyOp40
 70
     1
102
RTVSPropertyOp41
 70
     1
102
RTVSPropertyOp42
 70
     1
102
RTVSPropertyOp43
 70
     1
102
RTVSPropertyOp44
 70
     1
102
RTVSPropertyOp45
 70
     1
102
RTVSPropertyOp46
 70
     1
102
RTVSPropertyOp47
 70
     1
102
RTVSPropertyOp48
 70
     1
102
RTVSPropertyOp49
 70
     1
102
RTVSPropertyOp50
 70
     1
102
RTVSPropertyOp51
 70
     0
102
RTVSPropertyOp52
 70
     0
102
RTVSPropertyOp53
 70
     1
102
RTVSPropertyOp54
 70
     1
102
RTVSPropertyOp55
 70
     1
102
RTVSPropertyOp56
 70
     1
102
RTVSPropertyOp57
 70
     1
102
RTVSPost2010Prop28
280
     0
102
RTVSPost2010PropOp28
 70
     1
102
RTVSPost2010Prop29
280
     1
102
RTVSPost2010PropOp29
 70
     1
102
RTVSPost2010Prop30
280
     1
102
RTVSPost2010PropOp30
 70
     1
102
RTVSPost2010Prop31
280
     0
102
RTVSPost2010PropOp31
 70
     1
102
RTVSPost2010Prop32
280
     0
102
RTVSPost2010PropOp32
 70
     1
102
RTVSPost2010Prop33
280
     0
102
RTVSPost2010PropOp33
 70
     1
102
RTVSPost2010Prop34
280
     0
102
RTVSPost2010PropOp34
 70
     1
102
RTVSPost2010Prop35
280
     0
102
RTVSPost2010PropOp35
 70
     1
102
RTVSPost2010Prop36
280
     0
102
RTVSPost2010PropOp36
 70
     1
102
RTVSPost2010Prop37
 90
       50
102
RTVSPost2010PropOp37
 70
     1
102
RTVSPost2010Prop38
140
0.0
102
RTVSPost2010PropOp38
 70
     1
102
RTVSPost2010Prop39
140
1.0
102
RTVSPost2010PropOp39
 70
     1
102
RTVSPost2010Prop40
 90
        0
102
RTVSPost2010PropOp40
 70
     1
102
RTVSPost2010Prop41ColorIndex
 90
       18
102
RTVSPost2010Prop41ColorRGB
 90
        0
102
RTVSPost2010PropOp41
 70
     1
102
RTVSPost2010Prop42
 90
       50
102
RTVSPost2010PropOp42
 70
     1
102
RTVSPost2010Prop43
 90
        3
102
RTVSPost2010PropOp43
 70
     1
102
RTVSPost2010Prop44ColorIndex
 90
        5
102
RTVSPost2010Prop44ColorRGB
 90
      255
102
RTVSPost2010PropOp44
 70
     1
102
RTVSPost2010Prop45
280
     0
102
RTVSPost2010PropOp45
 70
     1
102
RTVSPost2010Prop46
 90
       50
102
RTVSPost2010PropOp46
 70
     1
102
RTVSPost2010Prop47
 90
       50
102
RTVSPost2010PropOp47
 70
     1
102
RTVSPost2010Prop48
 90
       50
102
RTVSPost2010PropOp48
 70
     1
102
RTVSPost2010Prop49
280
     0
102
RTVSPost2010PropOp49
 70
     1
102
RTVSPost2010Prop50
 90
       50
102
RTVSPost2010PropOp50
 70
     1
102
RTVSPost2010Prop51ColorIndex
 90
      256
102
RTVSPost2010Prop51ColorRGB
 90
-16777216
102
RTVSPost2010PropOp51
 70
     0
102
RTVSPost2010Prop52
140
1.0
102
RTVSPost2010PropOp52
 70
     0
102
RTVSPost2010Prop53
 90
        2
102
RTVSPost2010PropOp53
 70
     1
102
RTVSPost2010Prop54
  1
strokes_ogs.tif
102
RTVSPost2010PropOp54
 70
     1
102
RTVSPost2010Prop55
280
     0
102
RTVSPost2010PropOp55
 70
     1
102
RTVSPost2010Prop56
140
1.0
102
RTVSPost2010PropOp56
 70
     1
102
RTVSPost2010Prop57
140
1.0
102
RTVSPost2010PropOp57
 70
     1
  0
XRECORD
  5
361
102
{ACAD_REACTORS
330
360
102
}
330
360
100
AcDbXrecord
280
     1
102
RTVSPropertyOp0
 70
     1
102
RTVSPropertyOp1
 70
     1
102
RTVSPropertyOp2
 70
     1
102
RTVSPropertyOp3
 70
     1
102
RTVSPropertyOp4
 70
     1
102
RTVSPropertyOp5
 70
     1
102
RTVSPropertyOp6
 70
     1
102
RTVSPropertyOp7
 70
     1
102
RTVSPropertyOp8
 70
     1
102
RTVSPropertyOp9
 70
     1
102
RTVSPropertyOp10
 70
     1
102
RTVSPropertyOp11
 70
     1
102
RTVSPropertyOp12
 70
     1
102
RTVSPropertyOp13
 70
     1
102
RTVSPropertyOp14
 70
     1
102
RTVSPropertyOp15
 70
     1
102
RTVSPropertyOp16
 70
     1
102
RTVSPropertyOp17
 70
     1
102
RTVSPropertyOp18
 70
     1
102
RTVSPropertyOp19
 70
     1
102
RTVSPropertyOp20
 70
     1
102
RTVSPropertyOp21
 70
     1
102
RTVSPropertyOp22
 70
     1
102
RTVSPropertyOp23
 70
     1
102
RTVSPropertyOp24
 70
     1
102
RTVSPropertyOp25
 70
     1
102
RTVSPropertyOp26
 70
     1
102
RTVSPropertyOp27
 70
     1
102
RTVSPropertyOp28
 70
     1
102
RTVSPropertyOp29
 70
     1
102
RTVSPropertyOp30
 70
     1
102
RTVSPropertyOp31
 70
     1
102
RTVSPropertyOp32
 70
     1
102
RTVSPropertyOp33
 70
     1
102
RTVSPropertyOp34
 70
     1
102
RTVSPropertyOp35
 70
     1
102
RTVSPropertyOp36
 70
     1
102
RTVSPropertyOp37
 70
     1
102
RTVSPropertyOp38
 70
     1
102
RTVSPropertyOp39
 70
     1
102
RTVSPropertyOp40
 70
     1
102
RTVSPropertyOp41
 70
     1
102
RTVSPropertyOp42
 70
     1
102
RTVSPropertyOp43
 70
     1
102
RTVSPropertyOp44
 70
     1
102
RTVSPropertyOp45
 70
     1
102
RTVSPropertyOp46
 70
     1
102
RTVSPropertyOp47
 70
     1
102
RTVSPropertyOp48
 70
     1
102
RTVSPropertyOp49
 70
     1
102
RTVSPropertyOp50
 70
     1
102
RTVSPropertyOp51
 70
     0
102
RTVSPropertyOp52
 70
     0
102
RTVSPropertyOp53
 70
     1
102
RTVSPropertyOp54
 70
     1
102
RTVSPropertyOp55
 70
     1
102
RTVSPropertyOp56
 70
     1
102
RTVSPropertyOp57
 70
     1
102
RTVSPost2010Prop28
280
     0
102
RTVSPost2010PropOp28
 70
     1
102
RTVSPost2010Prop29
280
     1
102
RTVSPost2010PropOp29
 70
     1
102
RTVSPost2010Prop30
280
     1
102
RTVSPost2010PropOp30
 70
     1
102
RTVSPost2010Prop31
280
     0
102
RTVSPost2010PropOp31
 70
     1
102
RTVSPost2010Prop32
280
     0
102
RTVSPost2010PropOp32
 70
     1
102
RTVSPost2010Prop33
280
     0
102
RTVSPost2010PropOp33
 70
     1
102
RTVSPost2010Prop34
280
     0
102
RTVSPost2010PropOp34
 70
     1
102
RTVSPost2010Prop35
280
     0
102
RTVSPost2010PropOp35
 70
     1
102
RTVSPost2010Prop36
280
     0
102
RTVSPost2010PropOp36
 70
     1
102
RTVSPost2010Prop37
 90
       50
102
RTVSPost2010PropOp37
 70
     1
102
RTVSPost2010Prop38
140
0.0
102
RTVSPost2010PropOp38
 70
     1
102
RTVSPost2010Prop39
140
1.0
102
RTVSPost2010PropOp39
 70
     1
102
RTVSPost2010Prop40
 90
        0
102
RTVSPost2010PropOp40
 70
     1
102
RTVSPost2010Prop41ColorIndex
 90
       18
102
RTVSPost2010Prop41ColorRGB
 90
        0
102
RTVSPost2010PropOp41
 70
     1
102
RTVSPost2010Prop42
 90
       50
102
RTVSPost2010PropOp42
 70
     1
102
RTVSPost2010Prop43
 90
        3
102
RTVSPost2010PropOp43
 70
     1
102
RTVSPost2010Prop44ColorIndex
 90
        5
102
RTVSPost2010Prop44ColorRGB
 90
      255
102
RTVSPost2010PropOp44
 70
     1
102
RTVSPost2010Prop45
280
     0
102
RTVSPost2010PropOp45
 70
     1
102
RTVSPost2010Prop46
 90
       50
102
RTVSPost2010PropOp46
 70
     1
102
RTVSPost2010Prop47
 90
       50
102
RTVSPost2010PropOp47
 70
     1
102
RTVSPost2010Prop48
 90
       50
102
RTVSPost2010PropOp48
 70
     1
102
RTVSPost2010Prop49
280
     0
102
RTVSPost2010PropOp49
 70
     1
102
RTVSPost2010Prop50
 90
       50
102
RTVSPost2010PropOp50
 70
     1
102
RTVSPost2010Prop51ColorIndex
 90
      256
102
RTVSPost2010Prop51ColorRGB
 90
-16777216
102
RTVSPost2010PropOp51
 70
     0
102
RTVSPost2010Prop52
140
1.0
102
RTVSPost2010PropOp52
 70
     0
102
RTVSPost2010Prop53
 90
        2
102
RTVSPost2010PropOp53
 70
     1
102
RTVSPost2010Prop54
  1
strokes_ogs.tif
102
RTVSPost2010PropOp54
 70
     1
102
RTVSPost2010Prop55
280
     0
102
RTVSPost2010PropOp55
 70
     1
102
RTVSPost2010Prop56
140
1.0
102
RTVSPost2010PropOp56
 70
     1
102
RTVSPost2010Prop57
140
1.0
102
RTVSPost2010PropOp57
 70
     1
  0
XRECORD
  5
355
102
{ACAD_REACTORS
330
354
102
}
330
354
100
AcDbXrecord
280
     1
102
RTVSPropertyOp0
 70
     1
102
RTVSPropertyOp1
 70
     1
102
RTVSPropertyOp2
 70
     1
102
RTVSPropertyOp3
 70
     1
102
RTVSPropertyOp4
 70
     1
102
RTVSPropertyOp5
 70
     1
102
RTVSPropertyOp6
 70
     1
102
RTVSPropertyOp7
 70
     1
102
RTVSPropertyOp8
 70
     1
102
RTVSPropertyOp9
 70
     1
102
RTVSPropertyOp10
 70
     1
102
RTVSPropertyOp11
 70
     1
102
RTVSPropertyOp12
 70
     1
102
RTVSPropertyOp13
 70
     1
102
RTVSPropertyOp14
 70
     1
102
RTVSPropertyOp15
 70
     1
102
RTVSPropertyOp16
 70
     1
102
RTVSPropertyOp17
 70
     1
102
RTVSPropertyOp18
 70
     1
102
RTVSPropertyOp19
 70
     1
102
RTVSPropertyOp20
 70
     1
102
RTVSPropertyOp21
 70
     1
102
RTVSPropertyOp22
 70
     1
102
RTVSPropertyOp23
 70
     1
102
RTVSPropertyOp24
 70
     1
102
RTVSPropertyOp25
 70
     1
102
RTVSPropertyOp26
 70
     1
102
RTVSPropertyOp27
 70
     1
102
RTVSPropertyOp28
 70
     1
102
RTVSPropertyOp29
 70
     1
102
RTVSPropertyOp30
 70
     1
102
RTVSPropertyOp31
 70
     1
102
RTVSPropertyOp32
 70
     1
102
RTVSPropertyOp33
 70
     1
102
RTVSPropertyOp34
 70
     1
102
RTVSPropertyOp35
 70
     1
102
RTVSPropertyOp36
 70
     1
102
RTVSPropertyOp37
 70
     1
102
RTVSPropertyOp38
 70
     1
102
RTVSPropertyOp39
 70
     1
102
RTVSPropertyOp40
 70
     1
102
RTVSPropertyOp41
 70
     1
102
RTVSPropertyOp42
 70
     1
102
RTVSPropertyOp43
 70
     1
102
RTVSPropertyOp44
 70
     1
102
RTVSPropertyOp45
 70
     1
102
RTVSPropertyOp46
 70
     1
102
RTVSPropertyOp47
 70
     1
102
RTVSPropertyOp48
 70
     1
102
RTVSPropertyOp49
 70
     1
102
RTVSPropertyOp50
 70
     1
102
RTVSPropertyOp51
 70
     0
102
RTVSPropertyOp52
 70
     0
102
RTVSPropertyOp53
 70
     1
102
RTVSPropertyOp54
 70
     1
102
RTVSPropertyOp55
 70
     1
102
RTVSPropertyOp56
 70
     1
102
RTVSPropertyOp57
 70
     1
102
RTVSPost2010Prop28
280
     0
102
RTVSPost2010PropOp28
 70
     1
102
RTVSPost2010Prop29
280
     1
102
RTVSPost2010PropOp29
 70
     1
102
RTVSPost2010Prop30
280
     1
102
RTVSPost2010PropOp30
 70
     1
102
RTVSPost2010Prop31
280
     0
102
RTVSPost2010PropOp31
 70
     1
102
RTVSPost2010Prop32
280
     0
102
RTVSPost2010PropOp32
 70
     1
102
RTVSPost2010Prop33
280
     0
102
RTVSPost2010PropOp33
 70
     1
102
RTVSPost2010Prop34
280
     0
102
RTVSPost2010PropOp34
 70
     1
102
RTVSPost2010Prop35
280
     0
102
RTVSPost2010PropOp35
 70
     1
102
RTVSPost2010Prop36
280
     0
102
RTVSPost2010PropOp36
 70
     1
102
RTVSPost2010Prop37
 90
       50
102
RTVSPost2010PropOp37
 70
     1
102
RTVSPost2010Prop38
140
0.0
102
RTVSPost2010PropOp38
 70
     1
102
RTVSPost2010Prop39
140
1.0
102
RTVSPost2010PropOp39
 70
     1
102
RTVSPost2010Prop40
 90
        0
102
RTVSPost2010PropOp40
 70
     1
102
RTVSPost2010Prop41ColorIndex
 90
       18
102
RTVSPost2010Prop41ColorRGB
 90
        0
102
RTVSPost2010PropOp41
 70
     1
102
RTVSPost2010Prop42
 90
       50
102
RTVSPost2010PropOp42
 70
     1
102
RTVSPost2010Prop43
 90
        3
102
RTVSPost2010PropOp43
 70
     1
102
RTVSPost2010Prop44ColorIndex
 90
        5
102
RTVSPost2010Prop44ColorRGB
 90
      255
102
RTVSPost2010PropOp44
 70
     1
102
RTVSPost2010Prop45
280
     0
102
RTVSPost2010PropOp45
 70
     1
102
RTVSPost2010Prop46
 90
       50
102
RTVSPost2010PropOp46
 70
     1
102
RTVSPost2010Prop47
 90
       50
102
RTVSPost2010PropOp47
 70
     1
102
RTVSPost2010Prop48
 90
       50
102
RTVSPost2010PropOp48
 70
     1
102
RTVSPost2010Prop49
280
     0
102
RTVSPost2010PropOp49
 70
     1
102
RTVSPost2010Prop50
 90
       50
102
RTVSPost2010PropOp50
 70
     1
102
RTVSPost2010Prop51ColorIndex
 90
      256
102
RTVSPost2010Prop51ColorRGB
 90
-16777216
102
RTVSPost2010PropOp51
 70
     0
102
RTVSPost2010Prop52
140
1.0
102
RTVSPost2010PropOp52
 70
     0
102
RTVSPost2010Prop53
 90
        2
102
RTVSPost2010PropOp53
 70
     1
102
RTVSPost2010Prop54
  1
strokes_ogs.tif
102
RTVSPost2010PropOp54
 70
     1
102
RTVSPost2010Prop55
280
     0
102
RTVSPost2010PropOp55
 70
     1
102
RTVSPost2010Prop56
140
1.0
102
RTVSPost2010PropOp56
 70
     1
102
RTVSPost2010Prop57
140
1.0
102
RTVSPost2010PropOp57
 70
     1
  0
XRECORD
  5
357
102
{ACAD_REACTORS
330
356
102
}
330
356
100
AcDbXrecord
280
     1
102
RTVSPropertyOp0
 70
     1
102
RTVSPropertyOp1
 70
     1
102
RTVSPropertyOp2
 70
     1
102
RTVSPropertyOp3
 70
     1
102
RTVSPropertyOp4
 70
     1
102
RTVSPropertyOp5
 70
     1
102
RTVSPropertyOp6
 70
     1
102
RTVSPropertyOp7
 70
     1
102
RTVSPropertyOp8
 70
     1
102
RTVSPropertyOp9
 70
     1
102
RTVSPropertyOp10
 70
     1
102
RTVSPropertyOp11
 70
     1
102
RTVSPropertyOp12
 70
     1
102
RTVSPropertyOp13
 70
     1
102
RTVSPropertyOp14
 70
     1
102
RTVSPropertyOp15
 70
     1
102
RTVSPropertyOp16
 70
     1
102
RTVSPropertyOp17
 70
     1
102
RTVSPropertyOp18
 70
     1
102
RTVSPropertyOp19
 70
     1
102
RTVSPropertyOp20
 70
     1
102
RTVSPropertyOp21
 70
     1
102
RTVSPropertyOp22
 70
     1
102
RTVSPropertyOp23
 70
     1
102
RTVSPropertyOp24
 70
     1
102
RTVSPropertyOp25
 70
     1
102
RTVSPropertyOp26
 70
     1
102
RTVSPropertyOp27
 70
     1
102
RTVSPropertyOp28
 70
     1
102
RTVSPropertyOp29
 70
     1
102
RTVSPropertyOp30
 70
     1
102
RTVSPropertyOp31
 70
     1
102
RTVSPropertyOp32
 70
     1
102
RTVSPropertyOp33
 70
     1
102
RTVSPropertyOp34
 70
     1
102
RTVSPropertyOp35
 70
     1
102
RTVSPropertyOp36
 70
     1
102
RTVSPropertyOp37
 70
     1
102
RTVSPropertyOp38
 70
     1
102
RTVSPropertyOp39
 70
     1
102
RTVSPropertyOp40
 70
     1
102
RTVSPropertyOp41
 70
     1
102
RTVSPropertyOp42
 70
     1
102
RTVSPropertyOp43
 70
     1
102
RTVSPropertyOp44
 70
     1
102
RTVSPropertyOp45
 70
     1
102
RTVSPropertyOp46
 70
     1
102
RTVSPropertyOp47
 70
     1
102
RTVSPropertyOp48
 70
     1
102
RTVSPropertyOp49
 70
     1
102
RTVSPropertyOp50
 70
     1
102
RTVSPropertyOp51
 70
     0
102
RTVSPropertyOp52
 70
     0
102
RTVSPropertyOp53
 70
     1
102
RTVSPropertyOp54
 70
     1
102
RTVSPropertyOp55
 70
     1
102
RTVSPropertyOp56
 70
     1
102
RTVSPropertyOp57
 70
     1
102
RTVSPost2010Prop28
280
     0
102
RTVSPost2010PropOp28
 70
     1
102
RTVSPost2010Prop29
280
     1
102
RTVSPost2010PropOp29
 70
     1
102
RTVSPost2010Prop30
280
     1
102
RTVSPost2010PropOp30
 70
     1
102
RTVSPost2010Prop31
280
     0
102
RTVSPost2010PropOp31
 70
     1
102
RTVSPost2010Prop32
280
     0
102
RTVSPost2010PropOp32
 70
     1
102
RTVSPost2010Prop33
280
     0
102
RTVSPost2010PropOp33
 70
     1
102
RTVSPost2010Prop34
280
     0
102
RTVSPost2010PropOp34
 70
     1
102
RTVSPost2010Prop35
280
     0
102
RTVSPost2010PropOp35
 70
     1
102
RTVSPost2010Prop36
280
     0
102
RTVSPost2010PropOp36
 70
     1
102
RTVSPost2010Prop37
 90
       50
102
RTVSPost2010PropOp37
 70
     1
102
RTVSPost2010Prop38
140
0.0
102
RTVSPost2010PropOp38
 70
     1
102
RTVSPost2010Prop39
140
1.0
102
RTVSPost2010PropOp39
 70
     1
102
RTVSPost2010Prop40
 90
        0
102
RTVSPost2010PropOp40
 70
     1
102
RTVSPost2010Prop41ColorIndex
 90
       18
102
RTVSPost2010Prop41ColorRGB
 90
        0
102
RTVSPost2010PropOp41
 70
     1
102
RTVSPost2010Prop42
 90
       50
102
RTVSPost2010PropOp42
 70
     1
102
RTVSPost2010Prop43
 90
        3
102
RTVSPost2010PropOp43
 70
     1
102
RTVSPost2010Prop44ColorIndex
 90
        5
102
RTVSPost2010Prop44ColorRGB
 90
      255
102
RTVSPost2010PropOp44
 70
     1
102
RTVSPost2010Prop45
280
     0
102
RTVSPost2010PropOp45
 70
     1
102
RTVSPost2010Prop46
 90
       50
102
RTVSPost2010PropOp46
 70
     1
102
RTVSPost2010Prop47
 90
       50
102
RTVSPost2010PropOp47
 70
     1
102
RTVSPost2010Prop48
 90
       50
102
RTVSPost2010PropOp48
 70
     1
102
RTVSPost2010Prop49
280
     0
102
RTVSPost2010PropOp49
 70
     1
102
RTVSPost2010Prop50
 90
       50
102
RTVSPost2010PropOp50
 70
     1
102
RTVSPost2010Prop51ColorIndex
 90
      256
102
RTVSPost2010Prop51ColorRGB
 90
-16777216
102
RTVSPost2010PropOp51
 70
     0
102
RTVSPost2010Prop52
140
1.0
102
RTVSPost2010PropOp52
 70
     0
102
RTVSPost2010Prop53
 90
        2
102
RTVSPost2010PropOp53
 70
     1
102
RTVSPost2010Prop54
  1
strokes_ogs.tif
102
RTVSPost2010PropOp54
 70
     1
102
RTVSPost2010Prop55
280
     0
102
RTVSPost2010PropOp55
 70
     1
102
RTVSPost2010Prop56
140
1.0
102
RTVSPost2010PropOp56
 70
     1
102
RTVSPost2010Prop57
140
1.0
102
RTVSPost2010PropOp57
 70
     1
  0
XRECORD
  5
367
102
{ACAD_REACTORS
330
366
102
}
330
366
100
AcDbXrecord
280
     1
102
RTVSPropertyOp0
 70
     0
102
RTVSPropertyOp1
 70
     0
102
RTVSPropertyOp2
 70
     0
102
RTVSPropertyOp3
 70
     0
102
RTVSPropertyOp4
 70
     0
102
RTVSPropertyOp5
 70
     0
102
RTVSPropertyOp6
 70
     0
102
RTVSPropertyOp7
 70
     0
102
RTVSPropertyOp8
 70
     0
102
RTVSPropertyOp9
 70
     0
102
RTVSPropertyOp10
 70
     0
102
RTVSPropertyOp11
 70
     0
102
RTVSPropertyOp12
 70
     0
102
RTVSPropertyOp13
 70
     0
102
RTVSPropertyOp14
 70
     2
102
RTVSPropertyOp15
 70
     0
102
RTVSPropertyOp16
 70
     0
102
RTVSPropertyOp17
 70
     0
102
RTVSPropertyOp18
 70
     0
102
RTVSPropertyOp19
 70
     0
102
RTVSPropertyOp20
 70
     0
102
RTVSPropertyOp21
 70
     0
102
RTVSPropertyOp22
 70
     0
102
RTVSPropertyOp23
 70
     0
102
RTVSPropertyOp24
 70
     0
102
RTVSPropertyOp25
 70
     0
102
RTVSPropertyOp26
 70
     0
102
RTVSPropertyOp27
 70
     0
102
RTVSPropertyOp28
 70
     0
102
RTVSPropertyOp29
 70
     0
102
RTVSPropertyOp30
 70
     0
102
RTVSPropertyOp31
 70
     0
102
RTVSPropertyOp32
 70
     0
102
RTVSPropertyOp33
 70
     0
102
RTVSPropertyOp34
 70
     0
102
RTVSPropertyOp35
 70
     0
102
RTVSPropertyOp36
 70
     0
102
RTVSPropertyOp37
 70
     0
102
RTVSPropertyOp38
 70
     0
102
RTVSPropertyOp39
 70
     0
102
RTVSPropertyOp40
 70
     0
102
RTVSPropertyOp41
 70
     0
102
RTVSPropertyOp42
 70
     0
102
RTVSPropertyOp43
 70
     0
102
RTVSPropertyOp44
 70
     0
102
RTVSPropertyOp45
 70
     0
102
RTVSPropertyOp46
 70
     0
102
RTVSPropertyOp47
 70
     0
102
RTVSPropertyOp48
 70
     0
102
RTVSPropertyOp49
 70
     0
102
RTVSPropertyOp50
 70
     0
102
RTVSPropertyOp51
 70
     0
102
RTVSPropertyOp52
 70
     0
102
RTVSPropertyOp53
 70
     0
102
RTVSPropertyOp54
 70
     0
102
RTVSPropertyOp55
 70
     0
102
RTVSPropertyOp56
 70
     0
102
RTVSPropertyOp57
 70
     0
102
RTVSPost2010Prop28
280
     0
102
RTVSPost2010PropOp28
 70
     0
102
RTVSPost2010Prop29
280
     1
102
RTVSPost2010PropOp29
 70
     0
102
RTVSPost2010Prop30
280
     1
102
RTVSPost2010PropOp30
 70
     0
102
RTVSPost2010Prop31
280
     0
102
RTVSPost2010PropOp31
 70
     0
102
RTVSPost2010Prop32
280
     0
102
RTVSPost2010PropOp32
 70
     0
102
RTVSPost2010Prop33
280
     0
102
RTVSPost2010PropOp33
 70
     0
102
RTVSPost2010Prop34
280
     0
102
RTVSPost2010PropOp34
 70
     0
102
RTVSPost2010Prop35
280
     0
102
RTVSPost2010PropOp35
 70
     0
102
RTVSPost2010Prop36
280
     0
102
RTVSPost2010PropOp36
 70
     0
102
RTVSPost2010Prop37
 90
       50
102
RTVSPost2010PropOp37
 70
     0
102
RTVSPost2010Prop38
140
0.0
102
RTVSPost2010PropOp38
 70
     0
102
RTVSPost2010Prop39
140
1.0
102
RTVSPost2010PropOp39
 70
     0
102
RTVSPost2010Prop40
 90
        0
102
RTVSPost2010PropOp40
 70
     0
102
RTVSPost2010Prop41ColorIndex
 90
       18
102
RTVSPost2010Prop41ColorRGB
 90
        0
102
RTVSPost2010PropOp41
 70
     0
102
RTVSPost2010Prop42
 90
       50
102
RTVSPost2010PropOp42
 70
     0
102
RTVSPost2010Prop43
 90
        3
102
RTVSPost2010PropOp43
 70
     0
102
RTVSPost2010Prop44ColorIndex
 90
        5
102
RTVSPost2010Prop44ColorRGB
 90
      255
102
RTVSPost2010PropOp44
 70
     0
102
RTVSPost2010Prop45
280
     0
102
RTVSPost2010PropOp45
 70
     0
102
RTVSPost2010Prop46
 90
       50
102
RTVSPost2010PropOp46
 70
     0
102
RTVSPost2010Prop47
 90
       50
102
RTVSPost2010PropOp47
 70
     0
102
RTVSPost2010Prop48
 90
       50
102
RTVSPost2010PropOp48
 70
     0
102
RTVSPost2010Prop49
280
     0
102
RTVSPost2010PropOp49
 70
     0
102
RTVSPost2010Prop50
 90
       50
102
RTVSPost2010PropOp50
 70
     0
102
RTVSPost2010Prop51ColorIndex
 90
      256
102
RTVSPost2010Prop51ColorRGB
 90
-16777216
102
RTVSPost2010PropOp51
 70
     0
102
RTVSPost2010Prop52
140
1.0
102
RTVSPost2010PropOp52
 70
     0
102
RTVSPost2010Prop53
 90
        2
102
RTVSPost2010PropOp53
 70
     0
102
RTVSPost2010Prop54
  1
strokes_ogs.tif
102
RTVSPost2010PropOp54
 70
     0
102
RTVSPost2010Prop55
280
     0
102
RTVSPost2010PropOp55
 70
     0
102
RTVSPost2010Prop56
140
1.0
102
RTVSPost2010PropOp56
 70
     0
102
RTVSPost2010Prop57
140
1.0
102
RTVSPost2010PropOp57
 70
     0
  0
XRECORD
  5
35F
102
{ACAD_REACTORS
330
35E
102
}
330
35E
100
AcDbXrecord
280
     1
102
RTVSPropertyOp0
 70
     1
102
RTVSPropertyOp1
 70
     1
102
RTVSPropertyOp2
 70
     1
102
RTVSPropertyOp3
 70
     1
102
RTVSPropertyOp4
 70
     1
102
RTVSPropertyOp5
 70
     1
102
RTVSPropertyOp6
 70
     1
102
RTVSPropertyOp7
 70
     1
102
RTVSPropertyOp8
 70
     1
102
RTVSPropertyOp9
 70
     1
102
RTVSPropertyOp10
 70
     1
102
RTVSPropertyOp11
 70
     1
102
RTVSPropertyOp12
 70
     1
102
RTVSPropertyOp13
 70
     1
102
RTVSPropertyOp14
 70
     1
102
RTVSPropertyOp15
 70
     1
102
RTVSPropertyOp16
 70
     1
102
RTVSPropertyOp17
 70
     1
102
RTVSPropertyOp18
 70
     1
102
RTVSPropertyOp19
 70
     1
102
RTVSPropertyOp20
 70
     1
102
RTVSPropertyOp21
 70
     1
102
RTVSPropertyOp22
 70
     1
102
RTVSPropertyOp23
 70
     1
102
RTVSPropertyOp24
 70
     1
102
RTVSPropertyOp25
 70
     1
102
RTVSPropertyOp26
 70
     1
102
RTVSPropertyOp27
 70
     1
102
RTVSPropertyOp28
 70
     1
102
RTVSPropertyOp29
 70
     1
102
RTVSPropertyOp30
 70
     1
102
RTVSPropertyOp31
 70
     1
102
RTVSPropertyOp32
 70
     1
102
RTVSPropertyOp33
 70
     1
102
RTVSPropertyOp34
 70
     1
102
RTVSPropertyOp35
 70
     1
102
RTVSPropertyOp36
 70
     1
102
RTVSPropertyOp37
 70
     1
102
RTVSPropertyOp38
 70
     1
102
RTVSPropertyOp39
 70
     1
102
RTVSPropertyOp40
 70
     1
102
RTVSPropertyOp41
 70
     1
102
RTVSPropertyOp42
 70
     1
102
RTVSPropertyOp43
 70
     1
102
RTVSPropertyOp44
 70
     1
102
RTVSPropertyOp45
 70
     1
102
RTVSPropertyOp46
 70
     1
102
RTVSPropertyOp47
 70
     1
102
RTVSPropertyOp48
 70
     1
102
RTVSPropertyOp49
 70
     1
102
RTVSPropertyOp50
 70
     1
102
RTVSPropertyOp51
 70
     0
102
RTVSPropertyOp52
 70
     0
102
RTVSPropertyOp53
 70
     1
102
RTVSPropertyOp54
 70
     1
102
RTVSPropertyOp55
 70
     1
102
RTVSPropertyOp56
 70
     1
102
RTVSPropertyOp57
 70
     1
102
RTVSPost2010Prop28
280
     0
102
RTVSPost2010PropOp28
 70
     1
102
RTVSPost2010Prop29
280
     1
102
RTVSPost2010PropOp29
 70
     1
102
RTVSPost2010Prop30
280
     1
102
RTVSPost2010PropOp30
 70
     1
102
RTVSPost2010Prop31
280
     0
102
RTVSPost2010PropOp31
 70
     1
102
RTVSPost2010Prop32
280
     0
102
RTVSPost2010PropOp32
 70
     1
102
RTVSPost2010Prop33
280
     0
102
RTVSPost2010PropOp33
 70
     1
102
RTVSPost2010Prop34
280
     0
102
RTVSPost2010PropOp34
 70
     1
102
RTVSPost2010Prop35
280
     0
102
RTVSPost2010PropOp35
 70
     1
102
RTVSPost2010Prop36
280
     0
102
RTVSPost2010PropOp36
 70
     1
102
RTVSPost2010Prop37
 90
       50
102
RTVSPost2010PropOp37
 70
     1
102
RTVSPost2010Prop38
140
0.0
102
RTVSPost2010PropOp38
 70
     1
102
RTVSPost2010Prop39
140
1.0
102
RTVSPost2010PropOp39
 70
     1
102
RTVSPost2010Prop40
 90
        0
102
RTVSPost2010PropOp40
 70
     1
102
RTVSPost2010Prop41ColorIndex
 90
       18
102
RTVSPost2010Prop41ColorRGB
 90
        0
102
RTVSPost2010PropOp41
 70
     1
102
RTVSPost2010Prop42
 90
       50
102
RTVSPost2010PropOp42
 70
     1
102
RTVSPost2010Prop43
 90
        3
102
RTVSPost2010PropOp43
 70
     1
102
RTVSPost2010Prop44ColorIndex
 90
        5
102
RTVSPost2010Prop44ColorRGB
 90
      255
102
RTVSPost2010PropOp44
 70
     1
102
RTVSPost2010Prop45
280
     0
102
RTVSPost2010PropOp45
 70
     1
102
RTVSPost2010Prop46
 90
       50
102
RTVSPost2010PropOp46
 70
     1
102
RTVSPost2010Prop47
 90
       50
102
RTVSPost2010PropOp47
 70
     1
102
RTVSPost2010Prop48
 90
       50
102
RTVSPost2010PropOp48
 70
     1
102
RTVSPost2010Prop49
280
     0
102
RTVSPost2010PropOp49
 70
     1
102
RTVSPost2010Prop50
 90
       50
102
RTVSPost2010PropOp50
 70
     1
102
RTVSPost2010Prop51ColorIndex
 90
      256
102
RTVSPost2010Prop51ColorRGB
 90
-16777216
102
RTVSPost2010PropOp51
 70
     0
102
RTVSPost2010Prop52
140
1.0
102
RTVSPost2010PropOp52
 70
     0
102
RTVSPost2010Prop53
 90
        2
102
RTVSPost2010PropOp53
 70
     1
102
RTVSPost2010Prop54
  1
strokes_ogs.tif
102
RTVSPost2010PropOp54
 70
     1
102
RTVSPost2010Prop55
280
     0
102
RTVSPost2010PropOp55
 70
     1
102
RTVSPost2010Prop56
140
1.0
102
RTVSPost2010PropOp56
 70
     1
102
RTVSPost2010Prop57
140
1.0
102
RTVSPost2010PropOp57
 70
     1
  0
XRECORD
  5
343
102
{ACAD_REACTORS
330
342
102
}
330
342
100
AcDbXrecord
280
     1
102
RTVSPropertyOp0
 70
     1
102
RTVSPropertyOp1
 70
     1
102
RTVSPropertyOp2
 70
     1
102
RTVSPropertyOp3
 70
     1
102
RTVSPropertyOp4
 70
     1
102
RTVSPropertyOp5
 70
     1
102
RTVSPropertyOp6
 70
     1
102
RTVSPropertyOp7
 70
     1
102
RTVSPropertyOp8
 70
     1
102
RTVSPropertyOp9
 70
     1
102
RTVSPropertyOp10
 70
     1
102
RTVSPropertyOp11
 70
     1
102
RTVSPropertyOp12
 70
     1
102
RTVSPropertyOp13
 70
     1
102
RTVSPropertyOp14
 70
     1
102
RTVSPropertyOp15
 70
     1
102
RTVSPropertyOp16
 70
     1
102
RTVSPropertyOp17
 70
     1
102
RTVSPropertyOp18
 70
     1
102
RTVSPropertyOp19
 70
     1
102
RTVSPropertyOp20
 70
     1
102
RTVSPropertyOp21
 70
     1
102
RTVSPropertyOp22
 70
     1
102
RTVSPropertyOp23
 70
     1
102
RTVSPropertyOp24
 70
     1
102
RTVSPropertyOp25
 70
     1
102
RTVSPropertyOp26
 70
     1
102
RTVSPropertyOp27
 70
     1
102
RTVSPropertyOp28
 70
     1
102
RTVSPropertyOp29
 70
     1
102
RTVSPropertyOp30
 70
     1
102
RTVSPropertyOp31
 70
     1
102
RTVSPropertyOp32
 70
     1
102
RTVSPropertyOp33
 70
     1
102
RTVSPropertyOp34
 70
     1
102
RTVSPropertyOp35
 70
     1
102
RTVSPropertyOp36
 70
     1
102
RTVSPropertyOp37
 70
     1
102
RTVSPropertyOp38
 70
     1
102
RTVSPropertyOp39
 70
     1
102
RTVSPropertyOp40
 70
     1
102
RTVSPropertyOp41
 70
     1
102
RTVSPropertyOp42
 70
     1
102
RTVSPropertyOp43
 70
     1
102
RTVSPropertyOp44
 70
     1
102
RTVSPropertyOp45
 70
     1
102
RTVSPropertyOp46
 70
     1
102
RTVSPropertyOp47
 70
     1
102
RTVSPropertyOp48
 70
     1
102
RTVSPropertyOp49
 70
     1
102
RTVSPropertyOp50
 70
     1
102
RTVSPropertyOp51
 70
     0
102
RTVSPropertyOp52
 70
     0
102
RTVSPropertyOp53
 70
     1
102
RTVSPropertyOp54
 70
     1
102
RTVSPropertyOp55
 70
     1
102
RTVSPropertyOp56
 70
     1
102
RTVSPropertyOp57
 70
     1
102
RTVSPost2010Prop28
280
     0
102
RTVSPost2010PropOp28
 70
     1
102
RTVSPost2010Prop29
280
     1
102
RTVSPost2010PropOp29
 70
     1
102
RTVSPost2010Prop30
280
     1
102
RTVSPost2010PropOp30
 70
     1
102
RTVSPost2010Prop31
280
     0
102
RTVSPost2010PropOp31
 70
     1
102
RTVSPost2010Prop32
280
     0
102
RTVSPost2010PropOp32
 70
     1
102
RTVSPost2010Prop33
280
     0
102
RTVSPost2010PropOp33
 70
     1
102
RTVSPost2010Prop34
280
     0
102
RTVSPost2010PropOp34
 70
     1
102
RTVSPost2010Prop35
280
     0
102
RTVSPost2010PropOp35
 70
     1
102
RTVSPost2010Prop36
280
     0
102
RTVSPost2010PropOp36
 70
     1
102
RTVSPost2010Prop37
 90
       50
102
RTVSPost2010PropOp37
 70
     1
102
RTVSPost2010Prop38
140
0.0
102
RTVSPost2010PropOp38
 70
     1
102
RTVSPost2010Prop39
140
1.0
102
RTVSPost2010PropOp39
 70
     1
102
RTVSPost2010Prop40
 90
        0
102
RTVSPost2010PropOp40
 70
     1
102
RTVSPost2010Prop41ColorIndex
 90
       18
102
RTVSPost2010Prop41ColorRGB
 90
        0
102
RTVSPost2010PropOp41
 70
     1
102
RTVSPost2010Prop42
 90
       50
102
RTVSPost2010PropOp42
 70
     1
102
RTVSPost2010Prop43
 90
        3
102
RTVSPost2010PropOp43
 70
     1
102
RTVSPost2010Prop44ColorIndex
 90
        5
102
RTVSPost2010Prop44ColorRGB
 90
      255
102
RTVSPost2010PropOp44
 70
     1
102
RTVSPost2010Prop45
280
     0
102
RTVSPost2010PropOp45
 70
     1
102
RTVSPost2010Prop46
 90
       50
102
RTVSPost2010PropOp46
 70
     1
102
RTVSPost2010Prop47
 90
       50
102
RTVSPost2010PropOp47
 70
     1
102
RTVSPost2010Prop48
 90
       50
102
RTVSPost2010PropOp48
 70
     1
102
RTVSPost2010Prop49
280
     0
102
RTVSPost2010PropOp49
 70
     1
102
RTVSPost2010Prop50
 90
       50
102
RTVSPost2010PropOp50
 70
     1
102
RTVSPost2010Prop51ColorIndex
 90
      256
102
RTVSPost2010Prop51ColorRGB
 90
-16777216
102
RTVSPost2010PropOp51
 70
     0
102
RTVSPost2010Prop52
140
1.0
102
RTVSPost2010PropOp52
 70
     0
102
RTVSPost2010Prop53
 90
        2
102
RTVSPost2010PropOp53
 70
     1
102
RTVSPost2010Prop54
  1
strokes_ogs.tif
102
RTVSPost2010PropOp54
 70
     1
102
RTVSPost2010Prop55
280
     0
102
RTVSPost2010PropOp55
 70
     1
102
RTVSPost2010Prop56
140
1.0
102
RTVSPost2010PropOp56
 70
     1
102
RTVSPost2010Prop57
140
1.0
102
RTVSPost2010PropOp57
 70
     1
  0
XRECORD
  5
345
102
{ACAD_REACTORS
330
344
102
}
330
344
100
AcDbXrecord
280
     1
102
RTVSPropertyOp0
 70
     1
102
RTVSPropertyOp1
 70
     1
102
RTVSPropertyOp2
 70
     1
102
RTVSPropertyOp3
 70
     1
102
RTVSPropertyOp4
 70
     1
102
RTVSPropertyOp5
 70
     1
102
RTVSPropertyOp6
 70
     1
102
RTVSPropertyOp7
 70
     1
102
RTVSPropertyOp8
 70
     1
102
RTVSPropertyOp9
 70
     1
102
RTVSPropertyOp10
 70
     1
102
RTVSPropertyOp11
 70
     1
102
RTVSPropertyOp12
 70
     1
102
RTVSPropertyOp13
 70
     1
102
RTVSPropertyOp14
 70
     1
102
RTVSPropertyOp15
 70
     1
102
RTVSPropertyOp16
 70
     1
102
RTVSPropertyOp17
 70
     1
102
RTVSPropertyOp18
 70
     1
102
RTVSPropertyOp19
 70
     1
102
RTVSPropertyOp20
 70
     1
102
RTVSPropertyOp21
 70
     1
102
RTVSPropertyOp22
 70
     1
102
RTVSPropertyOp23
 70
     1
102
RTVSPropertyOp24
 70
     1
102
RTVSPropertyOp25
 70
     1
102
RTVSPropertyOp26
 70
     1
102
RTVSPropertyOp27
 70
     1
102
RTVSPropertyOp28
 70
     1
102
RTVSPropertyOp29
 70
     1
102
RTVSPropertyOp30
 70
     1
102
RTVSPropertyOp31
 70
     1
102
RTVSPropertyOp32
 70
     1
102
RTVSPropertyOp33
 70
     1
102
RTVSPropertyOp34
 70
     1
102
RTVSPropertyOp35
 70
     1
102
RTVSPropertyOp36
 70
     1
102
RTVSPropertyOp37
 70
     1
102
RTVSPropertyOp38
 70
     1
102
RTVSPropertyOp39
 70
     1
102
RTVSPropertyOp40
 70
     1
102
RTVSPropertyOp41
 70
     1
102
RTVSPropertyOp42
 70
     1
102
RTVSPropertyOp43
 70
     1
102
RTVSPropertyOp44
 70
     1
102
RTVSPropertyOp45
 70
     1
102
RTVSPropertyOp46
 70
     1
102
RTVSPropertyOp47
 70
     1
102
RTVSPropertyOp48
 70
     1
102
RTVSPropertyOp49
 70
     1
102
RTVSPropertyOp50
 70
     1
102
RTVSPropertyOp51
 70
     0
102
RTVSPropertyOp52
 70
     0
102
RTVSPropertyOp53
 70
     1
102
RTVSPropertyOp54
 70
     1
102
RTVSPropertyOp55
 70
     1
102
RTVSPropertyOp56
 70
     1
102
RTVSPropertyOp57
 70
     1
102
RTVSPost2010Prop28
280
     0
102
RTVSPost2010PropOp28
 70
     1
102
RTVSPost2010Prop29
280
     1
102
RTVSPost2010PropOp29
 70
     1
102
RTVSPost2010Prop30
280
     1
102
RTVSPost2010PropOp30
 70
     1
102
RTVSPost2010Prop31
280
     0
102
RTVSPost2010PropOp31
 70
     1
102
RTVSPost2010Prop32
280
     0
102
RTVSPost2010PropOp32
 70
     1
102
RTVSPost2010Prop33
280
     0
102
RTVSPost2010PropOp33
 70
     1
102
RTVSPost2010Prop34
280
     0
102
RTVSPost2010PropOp34
 70
     1
102
RTVSPost2010Prop35
280
     0
102
RTVSPost2010PropOp35
 70
     1
102
RTVSPost2010Prop36
280
     0
102
RTVSPost2010PropOp36
 70
     1
102
RTVSPost2010Prop37
 90
       50
102
RTVSPost2010PropOp37
 70
     1
102
RTVSPost2010Prop38
140
0.0
102
RTVSPost2010PropOp38
 70
     1
102
RTVSPost2010Prop39
140
1.0
102
RTVSPost2010PropOp39
 70
     1
102
RTVSPost2010Prop40
 90
        0
102
RTVSPost2010PropOp40
 70
     1
102
RTVSPost2010Prop41ColorIndex
 90
       18
102
RTVSPost2010Prop41ColorRGB
 90
        0
102
RTVSPost2010PropOp41
 70
     1
102
RTVSPost2010Prop42
 90
       50
102
RTVSPost2010PropOp42
 70
     1
102
RTVSPost2010Prop43
 90
        3
102
RTVSPost2010PropOp43
 70
     1
102
RTVSPost2010Prop44ColorIndex
 90
        5
102
RTVSPost2010Prop44ColorRGB
 90
      255
102
RTVSPost2010PropOp44
 70
     1
102
RTVSPost2010Prop45
280
     0
102
RTVSPost2010PropOp45
 70
     1
102
RTVSPost2010Prop46
 90
       50
102
RTVSPost2010PropOp46
 70
     1
102
RTVSPost2010Prop47
 90
       50
102
RTVSPost2010PropOp47
 70
     1
102
RTVSPost2010Prop48
 90
       50
102
RTVSPost2010PropOp48
 70
     1
102
RTVSPost2010Prop49
280
     0
102
RTVSPost2010PropOp49
 70
     1
102
RTVSPost2010Prop50
 90
       50
102
RTVSPost2010PropOp50
 70
     1
102
RTVSPost2010Prop51ColorIndex
 90
      256
102
RTVSPost2010Prop51ColorRGB
 90
-16777216
102
RTVSPost2010PropOp51
 70
     0
102
RTVSPost2010Prop52
140
1.0
102
RTVSPost2010PropOp52
 70
     0
102
RTVSPost2010Prop53
 90
        2
102
RTVSPost2010PropOp53
 70
     1
102
RTVSPost2010Prop54
  1
strokes_ogs.tif
102
RTVSPost2010PropOp54
 70
     1
102
RTVSPost2010Prop55
280
     0
102
RTVSPost2010PropOp55
 70
     1
102
RTVSPost2010Prop56
140
1.0
102
RTVSPost2010PropOp56
 70
     1
102
RTVSPost2010Prop57
140
1.0
102
RTVSPost2010PropOp57
 70
     1
  0
XRECORD
  5
347
102
{ACAD_REACTORS
330
346
102
}
330
346
100
AcDbXrecord
280
     1
102
RTVSPropertyOp0
 70
     1
102
RTVSPropertyOp1
 70
     1
102
RTVSPropertyOp2
 70
     1
102
RTVSPropertyOp3
 70
     1
102
RTVSPropertyOp4
 70
     1
102
RTVSPropertyOp5
 70
     1
102
RTVSPropertyOp6
 70
     1
102
RTVSPropertyOp7
 70
     1
102
RTVSPropertyOp8
 70
     1
102
RTVSPropertyOp9
 70
     1
102
RTVSPropertyOp10
 70
     1
102
RTVSPropertyOp11
 70
     1
102
RTVSPropertyOp12
 70
     1
102
RTVSPropertyOp13
 70
     1
102
RTVSPropertyOp14
 70
     1
102
RTVSPropertyOp15
 70
     1
102
RTVSPropertyOp16
 70
     1
102
RTVSPropertyOp17
 70
     1
102
RTVSPropertyOp18
 70
     1
102
RTVSPropertyOp19
 70
     1
102
RTVSPropertyOp20
 70
     1
102
RTVSPropertyOp21
 70
     1
102
RTVSPropertyOp22
 70
     1
102
RTVSPropertyOp23
 70
     1
102
RTVSPropertyOp24
 70
     1
102
RTVSPropertyOp25
 70
     1
102
RTVSPropertyOp26
 70
     1
102
RTVSPropertyOp27
 70
     1
102
RTVSPropertyOp28
 70
     1
102
RTVSPropertyOp29
 70
     1
102
RTVSPropertyOp30
 70
     1
102
RTVSPropertyOp31
 70
     1
102
RTVSPropertyOp32
 70
     1
102
RTVSPropertyOp33
 70
     1
102
RTVSPropertyOp34
 70
     1
102
RTVSPropertyOp35
 70
     1
102
RTVSPropertyOp36
 70
     1
102
RTVSPropertyOp37
 70
     1
102
RTVSPropertyOp38
 70
     1
102
RTVSPropertyOp39
 70
     1
102
RTVSPropertyOp40
 70
     1
102
RTVSPropertyOp41
 70
     1
102
RTVSPropertyOp42
 70
     1
102
RTVSPropertyOp43
 70
     1
102
RTVSPropertyOp44
 70
     1
102
RTVSPropertyOp45
 70
     1
102
RTVSPropertyOp46
 70
     1
102
RTVSPropertyOp47
 70
     1
102
RTVSPropertyOp48
 70
     1
102
RTVSPropertyOp49
 70
     1
102
RTVSPropertyOp50
 70
     1
102
RTVSPropertyOp51
 70
     0
102
RTVSPropertyOp52
 70
     0
102
RTVSPropertyOp53
 70
     1
102
RTVSPropertyOp54
 70
     1
102
RTVSPropertyOp55
 70
     1
102
RTVSPropertyOp56
 70
     1
102
RTVSPropertyOp57
 70
     1
102
RTVSPost2010Prop28
280
     0
102
RTVSPost2010PropOp28
 70
     1
102
RTVSPost2010Prop29
280
     1
102
RTVSPost2010PropOp29
 70
     1
102
RTVSPost2010Prop30
280
     1
102
RTVSPost2010PropOp30
 70
     1
102
RTVSPost2010Prop31
280
     0
102
RTVSPost2010PropOp31
 70
     1
102
RTVSPost2010Prop32
280
     0
102
RTVSPost2010PropOp32
 70
     1
102
RTVSPost2010Prop33
280
     0
102
RTVSPost2010PropOp33
 70
     1
102
RTVSPost2010Prop34
280
     0
102
RTVSPost2010PropOp34
 70
     1
102
RTVSPost2010Prop35
280
     0
102
RTVSPost2010PropOp35
 70
     1
102
RTVSPost2010Prop36
280
     0
102
RTVSPost2010PropOp36
 70
     1
102
RTVSPost2010Prop37
 90
       50
102
RTVSPost2010PropOp37
 70
     1
102
RTVSPost2010Prop38
140
0.0
102
RTVSPost2010PropOp38
 70
     1
102
RTVSPost2010Prop39
140
1.0
102
RTVSPost2010PropOp39
 70
     1
102
RTVSPost2010Prop40
 90
        0
102
RTVSPost2010PropOp40
 70
     1
102
RTVSPost2010Prop41ColorIndex
 90
       18
102
RTVSPost2010Prop41ColorRGB
 90
        0
102
RTVSPost2010PropOp41
 70
     1
102
RTVSPost2010Prop42
 90
       50
102
RTVSPost2010PropOp42
 70
     1
102
RTVSPost2010Prop43
 90
        3
102
RTVSPost2010PropOp43
 70
     1
102
RTVSPost2010Prop44ColorIndex
 90
        5
102
RTVSPost2010Prop44ColorRGB
 90
      255
102
RTVSPost2010PropOp44
 70
     1
102
RTVSPost2010Prop45
280
     0
102
RTVSPost2010PropOp45
 70
     1
102
RTVSPost2010Prop46
 90
       50
102
RTVSPost2010PropOp46
 70
     1
102
RTVSPost2010Prop47
 90
       50
102
RTVSPost2010PropOp47
 70
     1
102
RTVSPost2010Prop48
 90
       50
102
RTVSPost2010PropOp48
 70
     1
102
RTVSPost2010Prop49
280
     0
102
RTVSPost2010PropOp49
 70
     1
102
RTVSPost2010Prop50
 90
       50
102
RTVSPost2010PropOp50
 70
     1
102
RTVSPost2010Prop51ColorIndex
 90
      256
102
RTVSPost2010Prop51ColorRGB
 90
-16777216
102
RTVSPost2010PropOp51
 70
     0
102
RTVSPost2010Prop52
140
1.0
102
RTVSPost2010PropOp52
 70
     0
102
RTVSPost2010Prop53
 90
        2
102
RTVSPost2010PropOp53
 70
     1
102
RTVSPost2010Prop54
  1
strokes_ogs.tif
102
RTVSPost2010PropOp54
 70
     1
102
RTVSPost2010Prop55
280
     0
102
RTVSPost2010PropOp55
 70
     1
102
RTVSPost2010Prop56
140
1.0
102
RTVSPost2010PropOp56
 70
     1
102
RTVSPost2010Prop57
140
1.0
102
RTVSPost2010PropOp57
 70
     1
  0
XRECORD
  5
349
102
{ACAD_REACTORS
330
348
102
}
330
348
100
AcDbXrecord
280
     1
102
RTVSPropertyOp0
 70
     1
102
RTVSPropertyOp1
 70
     1
102
RTVSPropertyOp2
 70
     1
102
RTVSPropertyOp3
 70
     1
102
RTVSPropertyOp4
 70
     1
102
RTVSPropertyOp5
 70
     1
102
RTVSPropertyOp6
 70
     1
102
RTVSPropertyOp7
 70
     1
102
RTVSPropertyOp8
 70
     1
102
RTVSPropertyOp9
 70
     1
102
RTVSPropertyOp10
 70
     1
102
RTVSPropertyOp11
 70
     1
102
RTVSPropertyOp12
 70
     1
102
RTVSPropertyOp13
 70
     1
102
RTVSPropertyOp14
 70
     1
102
RTVSPropertyOp15
 70
     1
102
RTVSPropertyOp16
 70
     1
102
RTVSPropertyOp17
 70
     1
102
RTVSPropertyOp18
 70
     1
102
RTVSPropertyOp19
 70
     1
102
RTVSPropertyOp20
 70
     1
102
RTVSPropertyOp21
 70
     1
102
RTVSPropertyOp22
 70
     1
102
RTVSPropertyOp23
 70
     1
102
RTVSPropertyOp24
 70
     1
102
RTVSPropertyOp25
 70
     1
102
RTVSPropertyOp26
 70
     1
102
RTVSPropertyOp27
 70
     1
102
RTVSPropertyOp28
 70
     1
102
RTVSPropertyOp29
 70
     1
102
RTVSPropertyOp30
 70
     1
102
RTVSPropertyOp31
 70
     1
102
RTVSPropertyOp32
 70
     1
102
RTVSPropertyOp33
 70
     1
102
RTVSPropertyOp34
 70
     1
102
RTVSPropertyOp35
 70
     1
102
RTVSPropertyOp36
 70
     1
102
RTVSPropertyOp37
 70
     1
102
RTVSPropertyOp38
 70
     1
102
RTVSPropertyOp39
 70
     1
102
RTVSPropertyOp40
 70
     1
102
RTVSPropertyOp41
 70
     1
102
RTVSPropertyOp42
 70
     1
102
RTVSPropertyOp43
 70
     1
102
RTVSPropertyOp44
 70
     1
102
RTVSPropertyOp45
 70
     1
102
RTVSPropertyOp46
 70
     1
102
RTVSPropertyOp47
 70
     1
102
RTVSPropertyOp48
 70
     1
102
RTVSPropertyOp49
 70
     1
102
RTVSPropertyOp50
 70
     1
102
RTVSPropertyOp51
 70
     0
102
RTVSPropertyOp52
 70
     0
102
RTVSPropertyOp53
 70
     1
102
RTVSPropertyOp54
 70
     1
102
RTVSPropertyOp55
 70
     1
102
RTVSPropertyOp56
 70
     1
102
RTVSPropertyOp57
 70
     1
102
RTVSPost2010Prop28
280
     0
102
RTVSPost2010PropOp28
 70
     1
102
RTVSPost2010Prop29
280
     1
102
RTVSPost2010PropOp29
 70
     1
102
RTVSPost2010Prop30
280
     1
102
RTVSPost2010PropOp30
 70
     1
102
RTVSPost2010Prop31
280
     0
102
RTVSPost2010PropOp31
 70
     1
102
RTVSPost2010Prop32
280
     0
102
RTVSPost2010PropOp32
 70
     1
102
RTVSPost2010Prop33
280
     0
102
RTVSPost2010PropOp33
 70
     1
102
RTVSPost2010Prop34
280
     0
102
RTVSPost2010PropOp34
 70
     1
102
RTVSPost2010Prop35
280
     0
102
RTVSPost2010PropOp35
 70
     1
102
RTVSPost2010Prop36
280
     0
102
RTVSPost2010PropOp36
 70
     1
102
RTVSPost2010Prop37
 90
       50
102
RTVSPost2010PropOp37
 70
     1
102
RTVSPost2010Prop38
140
0.0
102
RTVSPost2010PropOp38
 70
     1
102
RTVSPost2010Prop39
140
1.0
102
RTVSPost2010PropOp39
 70
     1
102
RTVSPost2010Prop40
 90
        0
102
RTVSPost2010PropOp40
 70
     1
102
RTVSPost2010Prop41ColorIndex
 90
       18
102
RTVSPost2010Prop41ColorRGB
 90
        0
102
RTVSPost2010PropOp41
 70
     1
102
RTVSPost2010Prop42
 90
       50
102
RTVSPost2010PropOp42
 70
     1
102
RTVSPost2010Prop43
 90
        3
102
RTVSPost2010PropOp43
 70
     1
102
RTVSPost2010Prop44ColorIndex
 90
        5
102
RTVSPost2010Prop44ColorRGB
 90
      255
102
RTVSPost2010PropOp44
 70
     1
102
RTVSPost2010Prop45
280
     0
102
RTVSPost2010PropOp45
 70
     1
102
RTVSPost2010Prop46
 90
       50
102
RTVSPost2010PropOp46
 70
     1
102
RTVSPost2010Prop47
 90
       50
102
RTVSPost2010PropOp47
 70
     1
102
RTVSPost2010Prop48
 90
       50
102
RTVSPost2010PropOp48
 70
     1
102
RTVSPost2010Prop49
280
     0
102
RTVSPost2010PropOp49
 70
     1
102
RTVSPost2010Prop50
 90
       50
102
RTVSPost2010PropOp50
 70
     1
102
RTVSPost2010Prop51ColorIndex
 90
      256
102
RTVSPost2010Prop51ColorRGB
 90
-16777216
102
RTVSPost2010PropOp51
 70
     0
102
RTVSPost2010Prop52
140
1.0
102
RTVSPost2010PropOp52
 70
     0
102
RTVSPost2010Prop53
 90
        2
102
RTVSPost2010PropOp53
 70
     1
102
RTVSPost2010Prop54
  1
strokes_ogs.tif
102
RTVSPost2010PropOp54
 70
     1
102
RTVSPost2010Prop55
280
     0
102
RTVSPost2010PropOp55
 70
     1
102
RTVSPost2010Prop56
140
1.0
102
RTVSPost2010PropOp56
 70
     1
102
RTVSPost2010Prop57
140
1.0
102
RTVSPost2010PropOp57
 70
     1
  0
XRECORD
  5
34F
102
{ACAD_REACTORS
330
34E
102
}
330
34E
100
AcDbXrecord
280
     1
102
RTVSPropertyOp0
 70
     1
102
RTVSPropertyOp1
 70
     1
102
RTVSPropertyOp2
 70
     1
102
RTVSPropertyOp3
 70
     1
102
RTVSPropertyOp4
 70
     1
102
RTVSPropertyOp5
 70
     1
102
RTVSPropertyOp6
 70
     1
102
RTVSPropertyOp7
 70
     1
102
RTVSPropertyOp8
 70
     1
102
RTVSPropertyOp9
 70
     1
102
RTVSPropertyOp10
 70
     1
102
RTVSPropertyOp11
 70
     1
102
RTVSPropertyOp12
 70
     1
102
RTVSPropertyOp13
 70
     1
102
RTVSPropertyOp14
 70
     1
102
RTVSPropertyOp15
 70
     1
102
RTVSPropertyOp16
 70
     1
102
RTVSPropertyOp17
 70
     1
102
RTVSPropertyOp18
 70
     1
102
RTVSPropertyOp19
 70
     1
102
RTVSPropertyOp20
 70
     1
102
RTVSPropertyOp21
 70
     1
102
RTVSPropertyOp22
 70
     1
102
RTVSPropertyOp23
 70
     1
102
RTVSPropertyOp24
 70
     1
102
RTVSPropertyOp25
 70
     1
102
RTVSPropertyOp26
 70
     1
102
RTVSPropertyOp27
 70
     1
102
RTVSPropertyOp28
 70
     1
102
RTVSPropertyOp29
 70
     1
102
RTVSPropertyOp30
 70
     1
102
RTVSPropertyOp31
 70
     1
102
RTVSPropertyOp32
 70
     1
102
RTVSPropertyOp33
 70
     1
102
RTVSPropertyOp34
 70
     1
102
RTVSPropertyOp35
 70
     1
102
RTVSPropertyOp36
 70
     1
102
RTVSPropertyOp37
 70
     1
102
RTVSPropertyOp38
 70
     1
102
RTVSPropertyOp39
 70
     1
102
RTVSPropertyOp40
 70
     1
102
RTVSPropertyOp41
 70
     1
102
RTVSPropertyOp42
 70
     1
102
RTVSPropertyOp43
 70
     1
102
RTVSPropertyOp44
 70
     1
102
RTVSPropertyOp45
 70
     1
102
RTVSPropertyOp46
 70
     1
102
RTVSPropertyOp47
 70
     1
102
RTVSPropertyOp48
 70
     1
102
RTVSPropertyOp49
 70
     1
102
RTVSPropertyOp50
 70
     1
102
RTVSPropertyOp51
 70
     0
102
RTVSPropertyOp52
 70
     0
102
RTVSPropertyOp53
 70
     1
102
RTVSPropertyOp54
 70
     1
102
RTVSPropertyOp55
 70
     1
102
RTVSPropertyOp56
 70
     1
102
RTVSPropertyOp57
 70
     1
102
RTVSPost2010Prop28
280
     0
102
RTVSPost2010PropOp28
 70
     1
102
RTVSPost2010Prop29
280
     1
102
RTVSPost2010PropOp29
 70
     1
102
RTVSPost2010Prop30
280
     1
102
RTVSPost2010PropOp30
 70
     1
102
RTVSPost2010Prop31
280
     0
102
RTVSPost2010PropOp31
 70
     1
102
RTVSPost2010Prop32
280
     0
102
RTVSPost2010PropOp32
 70
     1
102
RTVSPost2010Prop33
280
     0
102
RTVSPost2010PropOp33
 70
     1
102
RTVSPost2010Prop34
280
     0
102
RTVSPost2010PropOp34
 70
     1
102
RTVSPost2010Prop35
280
     0
102
RTVSPost2010PropOp35
 70
     1
102
RTVSPost2010Prop36
280
     0
102
RTVSPost2010PropOp36
 70
     1
102
RTVSPost2010Prop37
 90
       50
102
RTVSPost2010PropOp37
 70
     1
102
RTVSPost2010Prop38
140
0.0
102
RTVSPost2010PropOp38
 70
     1
102
RTVSPost2010Prop39
140
1.0
102
RTVSPost2010PropOp39
 70
     1
102
RTVSPost2010Prop40
 90
        0
102
RTVSPost2010PropOp40
 70
     1
102
RTVSPost2010Prop41ColorIndex
 90
       18
102
RTVSPost2010Prop41ColorRGB
 90
        0
102
RTVSPost2010PropOp41
 70
     1
102
RTVSPost2010Prop42
 90
       50
102
RTVSPost2010PropOp42
 70
     1
102
RTVSPost2010Prop43
 90
        3
102
RTVSPost2010PropOp43
 70
     1
102
RTVSPost2010Prop44ColorIndex
 90
        5
102
RTVSPost2010Prop44ColorRGB
 90
      255
102
RTVSPost2010PropOp44
 70
     1
102
RTVSPost2010Prop45
280
     0
102
RTVSPost2010PropOp45
 70
     1
102
RTVSPost2010Prop46
 90
       50
102
RTVSPost2010PropOp46
 70
     1
102
RTVSPost2010Prop47
 90
       50
102
RTVSPost2010PropOp47
 70
     1
102
RTVSPost2010Prop48
 90
       50
102
RTVSPost2010PropOp48
 70
     1
102
RTVSPost2010Prop49
280
     0
102
RTVSPost2010PropOp49
 70
     1
102
RTVSPost2010Prop50
 90
       50
102
RTVSPost2010PropOp50
 70
     1
102
RTVSPost2010Prop51ColorIndex
 90
      256
102
RTVSPost2010Prop51ColorRGB
 90
-16777216
102
RTVSPost2010PropOp51
 70
     0
102
RTVSPost2010Prop52
140
1.0
102
RTVSPost2010PropOp52
 70
     0
102
RTVSPost2010Prop53
 90
        2
102
RTVSPost2010PropOp53
 70
     1
102
RTVSPost2010Prop54
  1
strokes_ogs.tif
102
RTVSPost2010PropOp54
 70
     1
102
RTVSPost2010Prop55
280
     0
102
RTVSPost2010PropOp55
 70
     1
102
RTVSPost2010Prop56
140
1.0
102
RTVSPost2010PropOp56
 70
     1
102
RTVSPost2010Prop57
140
1.0
102
RTVSPost2010PropOp57
 70
     1
  0
XRECORD
  5
363
102
{ACAD_REACTORS
330
362
102
}
330
362
100
AcDbXrecord
280
     1
102
RTVSPropertyOp0
 70
     0
102
RTVSPropertyOp1
 70
     0
102
RTVSPropertyOp2
 70
     0
102
RTVSPropertyOp3
 70
     0
102
RTVSPropertyOp4
 70
     0
102
RTVSPropertyOp5
 70
     0
102
RTVSPropertyOp6
 70
     0
102
RTVSPropertyOp7
 70
     0
102
RTVSPropertyOp8
 70
     0
102
RTVSPropertyOp9
 70
     0
102
RTVSPropertyOp10
 70
     0
102
RTVSPropertyOp11
 70
     0
102
RTVSPropertyOp12
 70
     0
102
RTVSPropertyOp13
 70
     0
102
RTVSPropertyOp14
 70
     2
102
RTVSPropertyOp15
 70
     0
102
RTVSPropertyOp16
 70
     0
102
RTVSPropertyOp17
 70
     0
102
RTVSPropertyOp18
 70
     0
102
RTVSPropertyOp19
 70
     0
102
RTVSPropertyOp20
 70
     0
102
RTVSPropertyOp21
 70
     0
102
RTVSPropertyOp22
 70
     0
102
RTVSPropertyOp23
 70
     0
102
RTVSPropertyOp24
 70
     0
102
RTVSPropertyOp25
 70
     0
102
RTVSPropertyOp26
 70
     0
102
RTVSPropertyOp27
 70
     0
102
RTVSPropertyOp28
 70
     0
102
RTVSPropertyOp29
 70
     0
102
RTVSPropertyOp30
 70
     0
102
RTVSPropertyOp31
 70
     0
102
RTVSPropertyOp32
 70
     0
102
RTVSPropertyOp33
 70
     0
102
RTVSPropertyOp34
 70
     0
102
RTVSPropertyOp35
 70
     0
102
RTVSPropertyOp36
 70
     0
102
RTVSPropertyOp37
 70
     0
102
RTVSPropertyOp38
 70
     0
102
RTVSPropertyOp39
 70
     0
102
RTVSPropertyOp40
 70
     0
102
RTVSPropertyOp41
 70
     0
102
RTVSPropertyOp42
 70
     0
102
RTVSPropertyOp43
 70
     0
102
RTVSPropertyOp44
 70
     0
102
RTVSPropertyOp45
 70
     0
102
RTVSPropertyOp46
 70
     0
102
RTVSPropertyOp47
 70
     0
102
RTVSPropertyOp48
 70
     0
102
RTVSPropertyOp49
 70
     0
102
RTVSPropertyOp50
 70
     0
102
RTVSPropertyOp51
 70
     0
102
RTVSPropertyOp52
 70
     0
102
RTVSPropertyOp53
 70
     0
102
RTVSPropertyOp54
 70
     0
102
RTVSPropertyOp55
 70
     0
102
RTVSPropertyOp56
 70
     0
102
RTVSPropertyOp57
 70
     0
102
RTVSPost2010Prop28
280
     0
102
RTVSPost2010PropOp28
 70
     0
102
RTVSPost2010Prop29
280
     1
102
RTVSPost2010PropOp29
 70
     0
102
RTVSPost2010Prop30
280
     1
102
RTVSPost2010PropOp30
 70
     0
102
RTVSPost2010Prop31
280
     0
102
RTVSPost2010PropOp31
 70
     0
102
RTVSPost2010Prop32
280
     0
102
RTVSPost2010PropOp32
 70
     0
102
RTVSPost2010Prop33
280
     0
102
RTVSPost2010PropOp33
 70
     0
102
RTVSPost2010Prop34
280
     0
102
RTVSPost2010PropOp34
 70
     0
102
RTVSPost2010Prop35
280
     0
102
RTVSPost2010PropOp35
 70
     0
102
RTVSPost2010Prop36
280
     0
102
RTVSPost2010PropOp36
 70
     0
102
RTVSPost2010Prop37
 90
       50
102
RTVSPost2010PropOp37
 70
     0
102
RTVSPost2010Prop38
140
0.0
102
RTVSPost2010PropOp38
 70
     0
102
RTVSPost2010Prop39
140
1.0
102
RTVSPost2010PropOp39
 70
     0
102
RTVSPost2010Prop40
 90
        0
102
RTVSPost2010PropOp40
 70
     0
102
RTVSPost2010Prop41ColorIndex
 90
       18
102
RTVSPost2010Prop41ColorRGB
 90
        0
102
RTVSPost2010PropOp41
 70
     0
102
RTVSPost2010Prop42
 90
       50
102
RTVSPost2010PropOp42
 70
     0
102
RTVSPost2010Prop43
 90
        3
102
RTVSPost2010PropOp43
 70
     0
102
RTVSPost2010Prop44ColorIndex
 90
        5
102
RTVSPost2010Prop44ColorRGB
 90
      255
102
RTVSPost2010PropOp44
 70
     0
102
RTVSPost2010Prop45
280
     0
102
RTVSPost2010PropOp45
 70
     0
102
RTVSPost2010Prop46
 90
       50
102
RTVSPost2010PropOp46
 70
     0
102
RTVSPost2010Prop47
 90
       50
102
RTVSPost2010PropOp47
 70
     0
102
RTVSPost2010Prop48
 90
       50
102
RTVSPost2010PropOp48
 70
     0
102
RTVSPost2010Prop49
280
     0
102
RTVSPost2010PropOp49
 70
     0
102
RTVSPost2010Prop50
 90
       50
102
RTVSPost2010PropOp50
 70
     0
102
RTVSPost2010Prop51ColorIndex
 90
      256
102
RTVSPost2010Prop51ColorRGB
 90
-16777216
102
RTVSPost2010PropOp51
 70
     0
102
RTVSPost2010Prop52
140
1.0
102
RTVSPost2010PropOp52
 70
     0
102
RTVSPost2010Prop53
 90
        2
102
RTVSPost2010PropOp53
 70
     0
102
RTVSPost2010Prop54
  1
strokes_ogs.tif
102
RTVSPost2010PropOp54
 70
     0
102
RTVSPost2010Prop55
280
     0
102
RTVSPost2010PropOp55
 70
     0
102
RTVSPost2010Prop56
140
1.0
102
RTVSPost2010PropOp56
 70
     0
102
RTVSPost2010Prop57
140
1.0
102
RTVSPost2010PropOp57
 70
     0
  0
XRECORD
  5
35D
102
{ACAD_REACTORS
330
35C
102
}
330
35C
100
AcDbXrecord
280
     1
102
RTVSPropertyOp0
 70
     1
102
RTVSPropertyOp1
 70
     1
102
RTVSPropertyOp2
 70
     1
102
RTVSPropertyOp3
 70
     1
102
RTVSPropertyOp4
 70
     1
102
RTVSPropertyOp5
 70
     1
102
RTVSPropertyOp6
 70
     1
102
RTVSPropertyOp7
 70
     1
102
RTVSPropertyOp8
 70
     1
102
RTVSPropertyOp9
 70
     1
102
RTVSPropertyOp10
 70
     1
102
RTVSPropertyOp11
 70
     1
102
RTVSPropertyOp12
 70
     1
102
RTVSPropertyOp13
 70
     1
102
RTVSPropertyOp14
 70
     1
102
RTVSPropertyOp15
 70
     1
102
RTVSPropertyOp16
 70
     1
102
RTVSPropertyOp17
 70
     1
102
RTVSPropertyOp18
 70
     1
102
RTVSPropertyOp19
 70
     1
102
RTVSPropertyOp20
 70
     1
102
RTVSPropertyOp21
 70
     1
102
RTVSPropertyOp22
 70
     1
102
RTVSPropertyOp23
 70
     1
102
RTVSPropertyOp24
 70
     1
102
RTVSPropertyOp25
 70
     1
102
RTVSPropertyOp26
 70
     1
102
RTVSPropertyOp27
 70
     1
102
RTVSPropertyOp28
 70
     1
102
RTVSPropertyOp29
 70
     1
102
RTVSPropertyOp30
 70
     1
102
RTVSPropertyOp31
 70
     1
102
RTVSPropertyOp32
 70
     1
102
RTVSPropertyOp33
 70
     1
102
RTVSPropertyOp34
 70
     1
102
RTVSPropertyOp35
 70
     1
102
RTVSPropertyOp36
 70
     1
102
RTVSPropertyOp37
 70
     1
102
RTVSPropertyOp38
 70
     1
102
RTVSPropertyOp39
 70
     1
102
RTVSPropertyOp40
 70
     1
102
RTVSPropertyOp41
 70
     1
102
RTVSPropertyOp42
 70
     1
102
RTVSPropertyOp43
 70
     1
102
RTVSPropertyOp44
 70
     1
102
RTVSPropertyOp45
 70
     1
102
RTVSPropertyOp46
 70
     1
102
RTVSPropertyOp47
 70
     1
102
RTVSPropertyOp48
 70
     1
102
RTVSPropertyOp49
 70
     1
102
RTVSPropertyOp50
 70
     1
102
RTVSPropertyOp51
 70
     0
102
RTVSPropertyOp52
 70
     0
102
RTVSPropertyOp53
 70
     1
102
RTVSPropertyOp54
 70
     1
102
RTVSPropertyOp55
 70
     1
102
RTVSPropertyOp56
 70
     1
102
RTVSPropertyOp57
 70
     1
102
RTVSPost2010Prop28
280
     0
102
RTVSPost2010PropOp28
 70
     1
102
RTVSPost2010Prop29
280
     1
102
RTVSPost2010PropOp29
 70
     1
102
RTVSPost2010Prop30
280
     1
102
RTVSPost2010PropOp30
 70
     1
102
RTVSPost2010Prop31
280
     0
102
RTVSPost2010PropOp31
 70
     1
102
RTVSPost2010Prop32
280
     0
102
RTVSPost2010PropOp32
 70
     1
102
RTVSPost2010Prop33
280
     0
102
RTVSPost2010PropOp33
 70
     1
102
RTVSPost2010Prop34
280
     0
102
RTVSPost2010PropOp34
 70
     1
102
RTVSPost2010Prop35
280
     0
102
RTVSPost2010PropOp35
 70
     1
102
RTVSPost2010Prop36
280
     0
102
RTVSPost2010PropOp36
 70
     1
102
RTVSPost2010Prop37
 90
       50
102
RTVSPost2010PropOp37
 70
     1
102
RTVSPost2010Prop38
140
0.0
102
RTVSPost2010PropOp38
 70
     1
102
RTVSPost2010Prop39
140
1.0
102
RTVSPost2010PropOp39
 70
     1
102
RTVSPost2010Prop40
 90
        0
102
RTVSPost2010PropOp40
 70
     1
102
RTVSPost2010Prop41ColorIndex
 90
       18
102
RTVSPost2010Prop41ColorRGB
 90
        0
102
RTVSPost2010PropOp41
 70
     1
102
RTVSPost2010Prop42
 90
       50
102
RTVSPost2010PropOp42
 70
     1
102
RTVSPost2010Prop43
 90
        3
102
RTVSPost2010PropOp43
 70
     1
102
RTVSPost2010Prop44ColorIndex
 90
        5
102
RTVSPost2010Prop44ColorRGB
 90
      255
102
RTVSPost2010PropOp44
 70
     1
102
RTVSPost2010Prop45
280
     0
102
RTVSPost2010PropOp45
 70
     1
102
RTVSPost2010Prop46
 90
       50
102
RTVSPost2010PropOp46
 70
     1
102
RTVSPost2010Prop47
 90
       50
102
RTVSPost2010PropOp47
 70
     1
102
RTVSPost2010Prop48
 90
       50
102
RTVSPost2010PropOp48
 70
     1
102
RTVSPost2010Prop49
280
     0
102
RTVSPost2010PropOp49
 70
     1
102
RTVSPost2010Prop50
 90
       50
102
RTVSPost2010PropOp50
 70
     1
102
RTVSPost2010Prop51ColorIndex
 90
      256
102
RTVSPost2010Prop51ColorRGB
 90
-16777216
102
RTVSPost2010PropOp51
 70
     0
102
RTVSPost2010Prop52
140
1.0
102
RTVSPost2010PropOp52
 70
     0
102
RTVSPost2010Prop53
 90
        2
102
RTVSPost2010PropOp53
 70
     1
102
RTVSPost2010Prop54
  1
strokes_ogs.tif
102
RTVSPost2010PropOp54
 70
     1
102
RTVSPost2010Prop55
280
     0
102
RTVSPost2010PropOp55
 70
     1
102
RTVSPost2010Prop56
140
1.0
102
RTVSPost2010PropOp56
 70
     1
102
RTVSPost2010Prop57
140
1.0
102
RTVSPost2010PropOp57
 70
     1
  0
XRECORD
  5
365
102
{ACAD_REACTORS
330
364
102
}
330
364
100
AcDbXrecord
280
     1
102
RTVSPropertyOp0
 70
     0
102
RTVSPropertyOp1
 70
     0
102
RTVSPropertyOp2
 70
     0
102
RTVSPropertyOp3
 70
     0
102
RTVSPropertyOp4
 70
     0
102
RTVSPropertyOp5
 70
     0
102
RTVSPropertyOp6
 70
     0
102
RTVSPropertyOp7
 70
     0
102
RTVSPropertyOp8
 70
     0
102
RTVSPropertyOp9
 70
     0
102
RTVSPropertyOp10
 70
     0
102
RTVSPropertyOp11
 70
     0
102
RTVSPropertyOp12
 70
     0
102
RTVSPropertyOp13
 70
     0
102
RTVSPropertyOp14
 70
     2
102
RTVSPropertyOp15
 70
     0
102
RTVSPropertyOp16
 70
     0
102
RTVSPropertyOp17
 70
     0
102
RTVSPropertyOp18
 70
     0
102
RTVSPropertyOp19
 70
     0
102
RTVSPropertyOp20
 70
     0
102
RTVSPropertyOp21
 70
     0
102
RTVSPropertyOp22
 70
     0
102
RTVSPropertyOp23
 70
     0
102
RTVSPropertyOp24
 70
     0
102
RTVSPropertyOp25
 70
     0
102
RTVSPropertyOp26
 70
     0
102
RTVSPropertyOp27
 70
     0
102
RTVSPropertyOp28
 70
     0
102
RTVSPropertyOp29
 70
     0
102
RTVSPropertyOp30
 70
     0
102
RTVSPropertyOp31
 70
     0
102
RTVSPropertyOp32
 70
     0
102
RTVSPropertyOp33
 70
     0
102
RTVSPropertyOp34
 70
     0
102
RTVSPropertyOp35
 70
     0
102
RTVSPropertyOp36
 70
     0
102
RTVSPropertyOp37
 70
     0
102
RTVSPropertyOp38
 70
     0
102
RTVSPropertyOp39
 70
     0
102
RTVSPropertyOp40
 70
     0
102
RTVSPropertyOp41
 70
     0
102
RTVSPropertyOp42
 70
     0
102
RTVSPropertyOp43
 70
     0
102
RTVSPropertyOp44
 70
     0
102
RTVSPropertyOp45
 70
     0
102
RTVSPropertyOp46
 70
     0
102
RTVSPropertyOp47
 70
     0
102
RTVSPropertyOp48
 70
     0
102
RTVSPropertyOp49
 70
     0
102
RTVSPropertyOp50
 70
     0
102
RTVSPropertyOp51
 70
     0
102
RTVSPropertyOp52
 70
     0
102
RTVSPropertyOp53
 70
     0
102
RTVSPropertyOp54
 70
     0
102
RTVSPropertyOp55
 70
     0
102
RTVSPropertyOp56
 70
     0
102
RTVSPropertyOp57
 70
     0
102
RTVSPost2010Prop28
280
     0
102
RTVSPost2010PropOp28
 70
     0
102
RTVSPost2010Prop29
280
     1
102
RTVSPost2010PropOp29
 70
     0
102
RTVSPost2010Prop30
280
     1
102
RTVSPost2010PropOp30
 70
     0
102
RTVSPost2010Prop31
280
     0
102
RTVSPost2010PropOp31
 70
     0
102
RTVSPost2010Prop32
280
     0
102
RTVSPost2010PropOp32
 70
     0
102
RTVSPost2010Prop33
280
     0
102
RTVSPost2010PropOp33
 70
     0
102
RTVSPost2010Prop34
280
     0
102
RTVSPost2010PropOp34
 70
     0
102
RTVSPost2010Prop35
280
     0
102
RTVSPost2010PropOp35
 70
     0
102
RTVSPost2010Prop36
280
     0
102
RTVSPost2010PropOp36
 70
     0
102
RTVSPost2010Prop37
 90
       50
102
RTVSPost2010PropOp37
 70
     0
102
RTVSPost2010Prop38
140
0.0
102
RTVSPost2010PropOp38
 70
     0
102
RTVSPost2010Prop39
140
1.0
102
RTVSPost2010PropOp39
 70
     0
102
RTVSPost2010Prop40
 90
        0
102
RTVSPost2010PropOp40
 70
     0
102
RTVSPost2010Prop41ColorIndex
 90
       18
102
RTVSPost2010Prop41ColorRGB
 90
        0
102
RTVSPost2010PropOp41
 70
     0
102
RTVSPost2010Prop42
 90
       50
102
RTVSPost2010PropOp42
 70
     0
102
RTVSPost2010Prop43
 90
        3
102
RTVSPost2010PropOp43
 70
     0
102
RTVSPost2010Prop44ColorIndex
 90
        5
102
RTVSPost2010Prop44ColorRGB
 90
      255
102
RTVSPost2010PropOp44
 70
     0
102
RTVSPost2010Prop45
280
     0
102
RTVSPost2010PropOp45
 70
     0
102
RTVSPost2010Prop46
 90
       50
102
RTVSPost2010PropOp46
 70
     0
102
RTVSPost2010Prop47
 90
       50
102
RTVSPost2010PropOp47
 70
     0
102
RTVSPost2010Prop48
 90
       50
102
RTVSPost2010PropOp48
 70
     0
102
RTVSPost2010Prop49
280
     0
102
RTVSPost2010PropOp49
 70
     0
102
RTVSPost2010Prop50
 90
       50
102
RTVSPost2010PropOp50
 70
     0
102
RTVSPost2010Prop51ColorIndex
 90
      256
102
RTVSPost2010Prop51ColorRGB
 90
-16777216
102
RTVSPost2010PropOp51
 70
     0
102
RTVSPost2010Prop52
140
1.0
102
RTVSPost2010PropOp52
 70
     0
102
RTVSPost2010Prop53
 90
        2
102
RTVSPost2010PropOp53
 70
     0
102
RTVSPost2010Prop54
  1
strokes_ogs.tif
102
RTVSPost2010PropOp54
 70
     0
102
RTVSPost2010Prop55
280
     0
102
RTVSPost2010PropOp55
 70
     0
102
RTVSPost2010Prop56
140
1.0
102
RTVSPost2010PropOp56
 70
     0
102
RTVSPost2010Prop57
140
1.0
102
RTVSPost2010PropOp57
 70
     0
  0
XRECORD
  5
353
102
{ACAD_REACTORS
330
352
102
}
330
352
100
AcDbXrecord
280
     1
102
RTVSPropertyOp0
 70
     1
102
RTVSPropertyOp1
 70
     1
102
RTVSPropertyOp2
 70
     1
102
RTVSPropertyOp3
 70
     1
102
RTVSPropertyOp4
 70
     1
102
RTVSPropertyOp5
 70
     1
102
RTVSPropertyOp6
 70
     1
102
RTVSPropertyOp7
 70
     1
102
RTVSPropertyOp8
 70
     1
102
RTVSPropertyOp9
 70
     1
102
RTVSPropertyOp10
 70
     1
102
RTVSPropertyOp11
 70
     1
102
RTVSPropertyOp12
 70
     1
102
RTVSPropertyOp13
 70
     1
102
RTVSPropertyOp14
 70
     1
102
RTVSPropertyOp15
 70
     1
102
RTVSPropertyOp16
 70
     1
102
RTVSPropertyOp17
 70
     1
102
RTVSPropertyOp18
 70
     1
102
RTVSPropertyOp19
 70
     1
102
RTVSPropertyOp20
 70
     1
102
RTVSPropertyOp21
 70
     1
102
RTVSPropertyOp22
 70
     1
102
RTVSPropertyOp23
 70
     1
102
RTVSPropertyOp24
 70
     1
102
RTVSPropertyOp25
 70
     1
102
RTVSPropertyOp26
 70
     1
102
RTVSPropertyOp27
 70
     1
102
RTVSPropertyOp28
 70
     1
102
RTVSPropertyOp29
 70
     1
102
RTVSPropertyOp30
 70
     1
102
RTVSPropertyOp31
 70
     1
102
RTVSPropertyOp32
 70
     1
102
RTVSPropertyOp33
 70
     1
102
RTVSPropertyOp34
 70
     1
102
RTVSPropertyOp35
 70
     1
102
RTVSPropertyOp36
 70
     1
102
RTVSPropertyOp37
 70
     1
102
RTVSPropertyOp38
 70
     1
102
RTVSPropertyOp39
 70
     1
102
RTVSPropertyOp40
 70
     1
102
RTVSPropertyOp41
 70
     1
102
RTVSPropertyOp42
 70
     1
102
RTVSPropertyOp43
 70
     1
102
RTVSPropertyOp44
 70
     1
102
RTVSPropertyOp45
 70
     1
102
RTVSPropertyOp46
 70
     1
102
RTVSPropertyOp47
 70
     1
102
RTVSPropertyOp48
 70
     1
102
RTVSPropertyOp49
 70
     1
102
RTVSPropertyOp50
 70
     1
102
RTVSPropertyOp51
 70
     0
102
RTVSPropertyOp52
 70
     0
102
RTVSPropertyOp53
 70
     1
102
RTVSPropertyOp54
 70
     1
102
RTVSPropertyOp55
 70
     1
102
RTVSPropertyOp56
 70
     1
102
RTVSPropertyOp57
 70
     1
102
RTVSPost2010Prop28
280
     0
102
RTVSPost2010PropOp28
 70
     1
102
RTVSPost2010Prop29
280
     1
102
RTVSPost2010PropOp29
 70
     1
102
RTVSPost2010Prop30
280
     1
102
RTVSPost2010PropOp30
 70
     1
102
RTVSPost2010Prop31
280
     0
102
RTVSPost2010PropOp31
 70
     1
102
RTVSPost2010Prop32
280
     0
102
RTVSPost2010PropOp32
 70
     1
102
RTVSPost2010Prop33
280
     0
102
RTVSPost2010PropOp33
 70
     1
102
RTVSPost2010Prop34
280
     0
102
RTVSPost2010PropOp34
 70
     1
102
RTVSPost2010Prop35
280
     0
102
RTVSPost2010PropOp35
 70
     1
102
RTVSPost2010Prop36
280
     0
102
RTVSPost2010PropOp36
 70
     1
102
RTVSPost2010Prop37
 90
       50
102
RTVSPost2010PropOp37
 70
     1
102
RTVSPost2010Prop38
140
0.0
102
RTVSPost2010PropOp38
 70
     1
102
RTVSPost2010Prop39
140
1.0
102
RTVSPost2010PropOp39
 70
     1
102
RTVSPost2010Prop40
 90
        0
102
RTVSPost2010PropOp40
 70
     1
102
RTVSPost2010Prop41ColorIndex
 90
       18
102
RTVSPost2010Prop41ColorRGB
 90
        0
102
RTVSPost2010PropOp41
 70
     1
102
RTVSPost2010Prop42
 90
       50
102
RTVSPost2010PropOp42
 70
     1
102
RTVSPost2010Prop43
 90
        3
102
RTVSPost2010PropOp43
 70
     1
102
RTVSPost2010Prop44ColorIndex
 90
        5
102
RTVSPost2010Prop44ColorRGB
 90
      255
102
RTVSPost2010PropOp44
 70
     1
102
RTVSPost2010Prop45
280
     0
102
RTVSPost2010PropOp45
 70
     1
102
RTVSPost2010Prop46
 90
       50
102
RTVSPost2010PropOp46
 70
     1
102
RTVSPost2010Prop47
 90
       50
102
RTVSPost2010PropOp47
 70
     1
102
RTVSPost2010Prop48
 90
       50
102
RTVSPost2010PropOp48
 70
     1
102
RTVSPost2010Prop49
280
     0
102
RTVSPost2010PropOp49
 70
     1
102
RTVSPost2010Prop50
 90
       50
102
RTVSPost2010PropOp50
 70
     1
102
RTVSPost2010Prop51ColorIndex
 90
      256
102
RTVSPost2010Prop51ColorRGB
 90
-16777216
102
RTVSPost2010PropOp51
 70
     0
102
RTVSPost2010Prop52
140
1.0
102
RTVSPost2010PropOp52
 70
     0
102
RTVSPost2010Prop53
 90
        2
102
RTVSPost2010PropOp53
 70
     1
102
RTVSPost2010Prop54
  1
strokes_ogs.tif
102
RTVSPost2010PropOp54
 70
     1
102
RTVSPost2010Prop55
280
     0
102
RTVSPost2010PropOp55
 70
     1
102
RTVSPost2010Prop56
140
1.0
102
RTVSPost2010PropOp56
 70
     1
102
RTVSPost2010Prop57
140
1.0
102
RTVSPost2010PropOp57
 70
     1
  0
XRECORD
  5
371
102
{ACAD_REACTORS
330
370
102
}
330
370
100
AcDbXrecord
280
     1
102
RTVSPropertyOp0
 70
     1
102
RTVSPropertyOp1
 70
     1
102
RTVSPropertyOp2
 70
     1
102
RTVSPropertyOp3
 70
     1
102
RTVSPropertyOp4
 70
     1
102
RTVSPropertyOp5
 70
     1
102
RTVSPropertyOp6
 70
     1
102
RTVSPropertyOp7
 70
     1
102
RTVSPropertyOp8
 70
     1
102
RTVSPropertyOp9
 70
     1
102
RTVSPropertyOp10
 70
     1
102
RTVSPropertyOp11
 70
     1
102
RTVSPropertyOp12
 70
     1
102
RTVSPropertyOp13
 70
     1
102
RTVSPropertyOp14
 70
     1
102
RTVSPropertyOp15
 70
     1
102
RTVSPropertyOp16
 70
     1
102
RTVSPropertyOp17
 70
     1
102
RTVSPropertyOp18
 70
     1
102
RTVSPropertyOp19
 70
     1
102
RTVSPropertyOp20
 70
     1
102
RTVSPropertyOp21
 70
     1
102
RTVSPropertyOp22
 70
     1
102
RTVSPropertyOp23
 70
     1
102
RTVSPropertyOp24
 70
     1
102
RTVSPropertyOp25
 70
     1
102
RTVSPropertyOp26
 70
     1
102
RTVSPropertyOp27
 70
     1
102
RTVSPropertyOp28
 70
     1
102
RTVSPropertyOp29
 70
     1
102
RTVSPropertyOp30
 70
     1
102
RTVSPropertyOp31
 70
     1
102
RTVSPropertyOp32
 70
     1
102
RTVSPropertyOp33
 70
     1
102
RTVSPropertyOp34
 70
     1
102
RTVSPropertyOp35
 70
     1
102
RTVSPropertyOp36
 70
     1
102
RTVSPropertyOp37
 70
     1
102
RTVSPropertyOp38
 70
     1
102
RTVSPropertyOp39
 70
     1
102
RTVSPropertyOp40
 70
     1
102
RTVSPropertyOp41
 70
     1
102
RTVSPropertyOp42
 70
     1
102
RTVSPropertyOp43
 70
     1
102
RTVSPropertyOp44
 70
     1
102
RTVSPropertyOp45
 70
     1
102
RTVSPropertyOp46
 70
     1
102
RTVSPropertyOp47
 70
     1
102
RTVSPropertyOp48
 70
     1
102
RTVSPropertyOp49
 70
     1
102
RTVSPropertyOp50
 70
     1
102
RTVSPropertyOp51
 70
     0
102
RTVSPropertyOp52
 70
     0
102
RTVSPropertyOp53
 70
     1
102
RTVSPropertyOp54
 70
     1
102
RTVSPropertyOp55
 70
     1
102
RTVSPropertyOp56
 70
     1
102
RTVSPropertyOp57
 70
     1
102
RTVSPost2010Prop28
280
     0
102
RTVSPost2010PropOp28
 70
     1
102
RTVSPost2010Prop29
280
     1
102
RTVSPost2010PropOp29
 70
     1
102
RTVSPost2010Prop30
280
     1
102
RTVSPost2010PropOp30
 70
     1
102
RTVSPost2010Prop31
280
     0
102
RTVSPost2010PropOp31
 70
     1
102
RTVSPost2010Prop32
280
     0
102
RTVSPost2010PropOp32
 70
     1
102
RTVSPost2010Prop33
280
     0
102
RTVSPost2010PropOp33
 70
     1
102
RTVSPost2010Prop34
280
     0
102
RTVSPost2010PropOp34
 70
     1
102
RTVSPost2010Prop35
280
     0
102
RTVSPost2010PropOp35
 70
     1
102
RTVSPost2010Prop36
280
     0
102
RTVSPost2010PropOp36
 70
     1
102
RTVSPost2010Prop37
 90
       50
102
RTVSPost2010PropOp37
 70
     1
102
RTVSPost2010Prop38
140
0.0
102
RTVSPost2010PropOp38
 70
     1
102
RTVSPost2010Prop39
140
1.0
102
RTVSPost2010PropOp39
 70
     1
102
RTVSPost2010Prop40
 90
        0
102
RTVSPost2010PropOp40
 70
     1
102
RTVSPost2010Prop41ColorIndex
 90
       18
102
RTVSPost2010Prop41ColorRGB
 90
        0
102
RTVSPost2010PropOp41
 70
     1
102
RTVSPost2010Prop42
 90
       50
102
RTVSPost2010PropOp42
 70
     1
102
RTVSPost2010Prop43
 90
        3
102
RTVSPost2010PropOp43
 70
     1
102
RTVSPost2010Prop44ColorIndex
 90
        5
102
RTVSPost2010Prop44ColorRGB
 90
      255
102
RTVSPost2010PropOp44
 70
     1
102
RTVSPost2010Prop45
280
     0
102
RTVSPost2010PropOp45
 70
     1
102
RTVSPost2010Prop46
 90
       50
102
RTVSPost2010PropOp46
 70
     1
102
RTVSPost2010Prop47
 90
       50
102
RTVSPost2010PropOp47
 70
     1
102
RTVSPost2010Prop48
 90
       50
102
RTVSPost2010PropOp48
 70
     1
102
RTVSPost2010Prop49
280
     0
102
RTVSPost2010PropOp49
 70
     1
102
RTVSPost2010Prop50
 90
       50
102
RTVSPost2010PropOp50
 70
     1
102
RTVSPost2010Prop51ColorIndex
 90
      256
102
RTVSPost2010Prop51ColorRGB
 90
-16777216
102
RTVSPost2010PropOp51
 70
     0
102
RTVSPost2010Prop52
140
1.0
102
RTVSPost2010PropOp52
 70
     0
102
RTVSPost2010Prop53
 90
        2
102
RTVSPost2010PropOp53
 70
     1
102
RTVSPost2010Prop54
  1
strokes_ogs.tif
102
RTVSPost2010PropOp54
 70
     1
102
RTVSPost2010Prop55
280
     0
102
RTVSPost2010PropOp55
 70
     1
102
RTVSPost2010Prop56
140
1.0
102
RTVSPost2010PropOp56
 70
     1
102
RTVSPost2010Prop57
140
1.0
102
RTVSPost2010PropOp57
 70
     1
  0
XRECORD
  5
36F
102
{ACAD_REACTORS
330
36E
102
}
330
36E
100
AcDbXrecord
280
     1
102
RTVSPropertyOp0
 70
     1
102
RTVSPropertyOp1
 70
     1
102
RTVSPropertyOp2
 70
     1
102
RTVSPropertyOp3
 70
     1
102
RTVSPropertyOp4
 70
     1
102
RTVSPropertyOp5
 70
     1
102
RTVSPropertyOp6
 70
     1
102
RTVSPropertyOp7
 70
     1
102
RTVSPropertyOp8
 70
     1
102
RTVSPropertyOp9
 70
     1
102
RTVSPropertyOp10
 70
     1
102
RTVSPropertyOp11
 70
     1
102
RTVSPropertyOp12
 70
     1
102
RTVSPropertyOp13
 70
     1
102
RTVSPropertyOp14
 70
     1
102
RTVSPropertyOp15
 70
     1
102
RTVSPropertyOp16
 70
     1
102
RTVSPropertyOp17
 70
     1
102
RTVSPropertyOp18
 70
     1
102
RTVSPropertyOp19
 70
     1
102
RTVSPropertyOp20
 70
     1
102
RTVSPropertyOp21
 70
     1
102
RTVSPropertyOp22
 70
     1
102
RTVSPropertyOp23
 70
     1
102
RTVSPropertyOp24
 70
     1
102
RTVSPropertyOp25
 70
     1
102
RTVSPropertyOp26
 70
     1
102
RTVSPropertyOp27
 70
     1
102
RTVSPropertyOp28
 70
     1
102
RTVSPropertyOp29
 70
     1
102
RTVSPropertyOp30
 70
     1
102
RTVSPropertyOp31
 70
     1
102
RTVSPropertyOp32
 70
     1
102
RTVSPropertyOp33
 70
     1
102
RTVSPropertyOp34
 70
     1
102
RTVSPropertyOp35
 70
     1
102
RTVSPropertyOp36
 70
     1
102
RTVSPropertyOp37
 70
     1
102
RTVSPropertyOp38
 70
     1
102
RTVSPropertyOp39
 70
     1
102
RTVSPropertyOp40
 70
     1
102
RTVSPropertyOp41
 70
     1
102
RTVSPropertyOp42
 70
     1
102
RTVSPropertyOp43
 70
     1
102
RTVSPropertyOp44
 70
     1
102
RTVSPropertyOp45
 70
     1
102
RTVSPropertyOp46
 70
     1
102
RTVSPropertyOp47
 70
     1
102
RTVSPropertyOp48
 70
     1
102
RTVSPropertyOp49
 70
     1
102
RTVSPropertyOp50
 70
     1
102
RTVSPropertyOp51
 70
     0
102
RTVSPropertyOp52
 70
     0
102
RTVSPropertyOp53
 70
     1
102
RTVSPropertyOp54
 70
     1
102
RTVSPropertyOp55
 70
     1
102
RTVSPropertyOp56
 70
     1
102
RTVSPropertyOp57
 70
     1
102
RTVSPost2010Prop28
280
     0
102
RTVSPost2010PropOp28
 70
     1
102
RTVSPost2010Prop29
280
     1
102
RTVSPost2010PropOp29
 70
     1
102
RTVSPost2010Prop30
280
     1
102
RTVSPost2010PropOp30
 70
     1
102
RTVSPost2010Prop31
280
     0
102
RTVSPost2010PropOp31
 70
     1
102
RTVSPost2010Prop32
280
     0
102
RTVSPost2010PropOp32
 70
     1
102
RTVSPost2010Prop33
280
     0
102
RTVSPost2010PropOp33
 70
     1
102
RTVSPost2010Prop34
280
     0
102
RTVSPost2010PropOp34
 70
     1
102
RTVSPost2010Prop35
280
     0
102
RTVSPost2010PropOp35
 70
     1
102
RTVSPost2010Prop36
280
     0
102
RTVSPost2010PropOp36
 70
     1
102
RTVSPost2010Prop37
 90
       50
102
RTVSPost2010PropOp37
 70
     1
102
RTVSPost2010Prop38
140
0.0
102
RTVSPost2010PropOp38
 70
     1
102
RTVSPost2010Prop39
140
1.0
102
RTVSPost2010PropOp39
 70
     1
102
RTVSPost2010Prop40
 90
        0
102
RTVSPost2010PropOp40
 70
     1
102
RTVSPost2010Prop41ColorIndex
 90
       18
102
RTVSPost2010Prop41ColorRGB
 90
        0
102
RTVSPost2010PropOp41
 70
     1
102
RTVSPost2010Prop42
 90
       50
102
RTVSPost2010PropOp42
 70
     1
102
RTVSPost2010Prop43
 90
        3
102
RTVSPost2010PropOp43
 70
     1
102
RTVSPost2010Prop44ColorIndex
 90
        5
102
RTVSPost2010Prop44ColorRGB
 90
      255
102
RTVSPost2010PropOp44
 70
     1
102
RTVSPost2010Prop45
280
     0
102
RTVSPost2010PropOp45
 70
     1
102
RTVSPost2010Prop46
 90
       50
102
RTVSPost2010PropOp46
 70
     1
102
RTVSPost2010Prop47
 90
       50
102
RTVSPost2010PropOp47
 70
     1
102
RTVSPost2010Prop48
 90
       50
102
RTVSPost2010PropOp48
 70
     1
102
RTVSPost2010Prop49
280
     0
102
RTVSPost2010PropOp49
 70
     1
102
RTVSPost2010Prop50
 90
       50
102
RTVSPost2010PropOp50
 70
     1
102
RTVSPost2010Prop51ColorIndex
 90
      256
102
RTVSPost2010Prop51ColorRGB
 90
-16777216
102
RTVSPost2010PropOp51
 70
     0
102
RTVSPost2010Prop52
140
1.0
102
RTVSPost2010PropOp52
 70
     0
102
RTVSPost2010Prop53
 90
        2
102
RTVSPost2010PropOp53
 70
     1
102
RTVSPost2010Prop54
  1
strokes_ogs.tif
102
RTVSPost2010PropOp54
 70
     1
102
RTVSPost2010Prop55
280
     0
102
RTVSPost2010PropOp55
 70
     1
102
RTVSPost2010Prop56
140
1.0
102
RTVSPost2010PropOp56
 70
     1
102
RTVSPost2010Prop57
140
1.0
102
RTVSPost2010PropOp57
 70
     1
  0
XRECORD
  5
369
102
{ACAD_REACTORS
330
368
102
}
330
368
100
AcDbXrecord
280
     1
102
RTVSPropertyOp0
 70
     1
102
RTVSPropertyOp1
 70
     1
102
RTVSPropertyOp2
 70
     1
102
RTVSPropertyOp3
 70
     1
102
RTVSPropertyOp4
 70
     1
102
RTVSPropertyOp5
 70
     1
102
RTVSPropertyOp6
 70
     1
102
RTVSPropertyOp7
 70
     1
102
RTVSPropertyOp8
 70
     1
102
RTVSPropertyOp9
 70
     1
102
RTVSPropertyOp10
 70
     1
102
RTVSPropertyOp11
 70
     1
102
RTVSPropertyOp12
 70
     1
102
RTVSPropertyOp13
 70
     1
102
RTVSPropertyOp14
 70
     1
102
RTVSPropertyOp15
 70
     1
102
RTVSPropertyOp16
 70
     1
102
RTVSPropertyOp17
 70
     1
102
RTVSPropertyOp18
 70
     1
102
RTVSPropertyOp19
 70
     1
102
RTVSPropertyOp20
 70
     1
102
RTVSPropertyOp21
 70
     1
102
RTVSPropertyOp22
 70
     1
102
RTVSPropertyOp23
 70
     1
102
RTVSPropertyOp24
 70
     1
102
RTVSPropertyOp25
 70
     1
102
RTVSPropertyOp26
 70
     1
102
RTVSPropertyOp27
 70
     1
102
RTVSPropertyOp28
 70
     1
102
RTVSPropertyOp29
 70
     1
102
RTVSPropertyOp30
 70
     1
102
RTVSPropertyOp31
 70
     1
102
RTVSPropertyOp32
 70
     1
102
RTVSPropertyOp33
 70
     1
102
RTVSPropertyOp34
 70
     1
102
RTVSPropertyOp35
 70
     1
102
RTVSPropertyOp36
 70
     1
102
RTVSPropertyOp37
 70
     1
102
RTVSPropertyOp38
 70
     1
102
RTVSPropertyOp39
 70
     1
102
RTVSPropertyOp40
 70
     1
102
RTVSPropertyOp41
 70
     1
102
RTVSPropertyOp42
 70
     1
102
RTVSPropertyOp43
 70
     1
102
RTVSPropertyOp44
 70
     1
102
RTVSPropertyOp45
 70
     1
102
RTVSPropertyOp46
 70
     1
102
RTVSPropertyOp47
 70
     1
102
RTVSPropertyOp48
 70
     1
102
RTVSPropertyOp49
 70
     1
102
RTVSPropertyOp50
 70
     1
102
RTVSPropertyOp51
 70
     0
102
RTVSPropertyOp52
 70
     0
102
RTVSPropertyOp53
 70
     1
102
RTVSPropertyOp54
 70
     1
102
RTVSPropertyOp55
 70
     1
102
RTVSPropertyOp56
 70
     1
102
RTVSPropertyOp57
 70
     1
102
RTVSPost2010Prop28
280
     0
102
RTVSPost2010PropOp28
 70
     1
102
RTVSPost2010Prop29
280
     1
102
RTVSPost2010PropOp29
 70
     1
102
RTVSPost2010Prop30
280
     1
102
RTVSPost2010PropOp30
 70
     1
102
RTVSPost2010Prop31
280
     0
102
RTVSPost2010PropOp31
 70
     1
102
RTVSPost2010Prop32
280
     0
102
RTVSPost2010PropOp32
 70
     1
102
RTVSPost2010Prop33
280
     0
102
RTVSPost2010PropOp33
 70
     1
102
RTVSPost2010Prop34
280
     0
102
RTVSPost2010PropOp34
 70
     1
102
RTVSPost2010Prop35
280
     0
102
RTVSPost2010PropOp35
 70
     1
102
RTVSPost2010Prop36
280
     0
102
RTVSPost2010PropOp36
 70
     1
102
RTVSPost2010Prop37
 90
       50
102
RTVSPost2010PropOp37
 70
     1
102
RTVSPost2010Prop38
140
0.0
102
RTVSPost2010PropOp38
 70
     1
102
RTVSPost2010Prop39
140
1.0
102
RTVSPost2010PropOp39
 70
     1
102
RTVSPost2010Prop40
 90
        0
102
RTVSPost2010PropOp40
 70
     1
102
RTVSPost2010Prop41ColorIndex
 90
       18
102
RTVSPost2010Prop41ColorRGB
 90
        0
102
RTVSPost2010PropOp41
 70
     1
102
RTVSPost2010Prop42
 90
       50
102
RTVSPost2010PropOp42
 70
     1
102
RTVSPost2010Prop43
 90
        3
102
RTVSPost2010PropOp43
 70
     1
102
RTVSPost2010Prop44ColorIndex
 90
        5
102
RTVSPost2010Prop44ColorRGB
 90
      255
102
RTVSPost2010PropOp44
 70
     1
102
RTVSPost2010Prop45
280
     0
102
RTVSPost2010PropOp45
 70
     1
102
RTVSPost2010Prop46
 90
       50
102
RTVSPost2010PropOp46
 70
     1
102
RTVSPost2010Prop47
 90
       50
102
RTVSPost2010PropOp47
 70
     1
102
RTVSPost2010Prop48
 90
       50
102
RTVSPost2010PropOp48
 70
     1
102
RTVSPost2010Prop49
280
     0
102
RTVSPost2010PropOp49
 70
     1
102
RTVSPost2010Prop50
 90
       50
102
RTVSPost2010PropOp50
 70
     1
102
RTVSPost2010Prop51ColorIndex
 90
      256
102
RTVSPost2010Prop51ColorRGB
 90
-16777216
102
RTVSPost2010PropOp51
 70
     0
102
RTVSPost2010Prop52
140
1.0
102
RTVSPost2010PropOp52
 70
     0
102
RTVSPost2010Prop53
 90
        2
102
RTVSPost2010PropOp53
 70
     1
102
RTVSPost2010Prop54
  1
strokes_ogs.tif
102
RTVSPost2010PropOp54
 70
     1
102
RTVSPost2010Prop55
280
     0
102
RTVSPost2010PropOp55
 70
     1
102
RTVSPost2010Prop56
140
1.0
102
RTVSPost2010PropOp56
 70
     1
102
RTVSPost2010Prop57
140
1.0
102
RTVSPost2010PropOp57
 70
     1
  0
XRECORD
  5
36B
102
{ACAD_REACTORS
330
36A
102
}
330
36A
100
AcDbXrecord
280
     1
102
RTVSPropertyOp0
 70
     1
102
RTVSPropertyOp1
 70
     1
102
RTVSPropertyOp2
 70
     1
102
RTVSPropertyOp3
 70
     1
102
RTVSPropertyOp4
 70
     1
102
RTVSPropertyOp5
 70
     1
102
RTVSPropertyOp6
 70
     1
102
RTVSPropertyOp7
 70
     1
102
RTVSPropertyOp8
 70
     1
102
RTVSPropertyOp9
 70
     1
102
RTVSPropertyOp10
 70
     1
102
RTVSPropertyOp11
 70
     1
102
RTVSPropertyOp12
 70
     1
102
RTVSPropertyOp13
 70
     1
102
RTVSPropertyOp14
 70
     1
102
RTVSPropertyOp15
 70
     1
102
RTVSPropertyOp16
 70
     1
102
RTVSPropertyOp17
 70
     1
102
RTVSPropertyOp18
 70
     1
102
RTVSPropertyOp19
 70
     1
102
RTVSPropertyOp20
 70
     1
102
RTVSPropertyOp21
 70
     1
102
RTVSPropertyOp22
 70
     1
102
RTVSPropertyOp23
 70
     1
102
RTVSPropertyOp24
 70
     1
102
RTVSPropertyOp25
 70
     1
102
RTVSPropertyOp26
 70
     1
102
RTVSPropertyOp27
 70
     1
102
RTVSPropertyOp28
 70
     1
102
RTVSPropertyOp29
 70
     1
102
RTVSPropertyOp30
 70
     1
102
RTVSPropertyOp31
 70
     1
102
RTVSPropertyOp32
 70
     1
102
RTVSPropertyOp33
 70
     1
102
RTVSPropertyOp34
 70
     1
102
RTVSPropertyOp35
 70
     1
102
RTVSPropertyOp36
 70
     1
102
RTVSPropertyOp37
 70
     1
102
RTVSPropertyOp38
 70
     1
102
RTVSPropertyOp39
 70
     1
102
RTVSPropertyOp40
 70
     1
102
RTVSPropertyOp41
 70
     1
102
RTVSPropertyOp42
 70
     1
102
RTVSPropertyOp43
 70
     1
102
RTVSPropertyOp44
 70
     1
102
RTVSPropertyOp45
 70
     1
102
RTVSPropertyOp46
 70
     1
102
RTVSPropertyOp47
 70
     1
102
RTVSPropertyOp48
 70
     1
102
RTVSPropertyOp49
 70
     1
102
RTVSPropertyOp50
 70
     1
102
RTVSPropertyOp51
 70
     0
102
RTVSPropertyOp52
 70
     0
102
RTVSPropertyOp53
 70
     1
102
RTVSPropertyOp54
 70
     1
102
RTVSPropertyOp55
 70
     1
102
RTVSPropertyOp56
 70
     1
102
RTVSPropertyOp57
 70
     1
102
RTVSPost2010Prop28
280
     0
102
RTVSPost2010PropOp28
 70
     1
102
RTVSPost2010Prop29
280
     1
102
RTVSPost2010PropOp29
 70
     1
102
RTVSPost2010Prop30
280
     1
102
RTVSPost2010PropOp30
 70
     1
102
RTVSPost2010Prop31
280
     0
102
RTVSPost2010PropOp31
 70
     1
102
RTVSPost2010Prop32
280
     0
102
RTVSPost2010PropOp32
 70
     1
102
RTVSPost2010Prop33
280
     0
102
RTVSPost2010PropOp33
 70
     1
102
RTVSPost2010Prop34
280
     0
102
RTVSPost2010PropOp34
 70
     1
102
RTVSPost2010Prop35
280
     0
102
RTVSPost2010PropOp35
 70
     1
102
RTVSPost2010Prop36
280
     0
102
RTVSPost2010PropOp36
 70
     1
102
RTVSPost2010Prop37
 90
       50
102
RTVSPost2010PropOp37
 70
     1
102
RTVSPost2010Prop38
140
0.0
102
RTVSPost2010PropOp38
 70
     1
102
RTVSPost2010Prop39
140
1.0
102
RTVSPost2010PropOp39
 70
     1
102
RTVSPost2010Prop40
 90
        0
102
RTVSPost2010PropOp40
 70
     1
102
RTVSPost2010Prop41ColorIndex
 90
       18
102
RTVSPost2010Prop41ColorRGB
 90
        0
102
RTVSPost2010PropOp41
 70
     1
102
RTVSPost2010Prop42
 90
       50
102
RTVSPost2010PropOp42
 70
     1
102
RTVSPost2010Prop43
 90
        3
102
RTVSPost2010PropOp43
 70
     1
102
RTVSPost2010Prop44ColorIndex
 90
        5
102
RTVSPost2010Prop44ColorRGB
 90
      255
102
RTVSPost2010PropOp44
 70
     1
102
RTVSPost2010Prop45
280
     0
102
RTVSPost2010PropOp45
 70
     1
102
RTVSPost2010Prop46
 90
       50
102
RTVSPost2010PropOp46
 70
     1
102
RTVSPost2010Prop47
 90
       50
102
RTVSPost2010PropOp47
 70
     1
102
RTVSPost2010Prop48
 90
       50
102
RTVSPost2010PropOp48
 70
     1
102
RTVSPost2010Prop49
280
     0
102
RTVSPost2010PropOp49
 70
     1
102
RTVSPost2010Prop50
 90
       50
102
RTVSPost2010PropOp50
 70
     1
102
RTVSPost2010Prop51ColorIndex
 90
      256
102
RTVSPost2010Prop51ColorRGB
 90
-16777216
102
RTVSPost2010PropOp51
 70
     0
102
RTVSPost2010Prop52
140
1.0
102
RTVSPost2010PropOp52
 70
     0
102
RTVSPost2010Prop53
 90
        2
102
RTVSPost2010PropOp53
 70
     1
102
RTVSPost2010Prop54
  1
strokes_ogs.tif
102
RTVSPost2010PropOp54
 70
     1
102
RTVSPost2010Prop55
280
     0
102
RTVSPost2010PropOp55
 70
     1
102
RTVSPost2010Prop56
140
1.0
102
RTVSPost2010PropOp56
 70
     1
102
RTVSPost2010Prop57
140
1.0
102
RTVSPost2010PropOp57
 70
     1
  0
XRECORD
  5
35B
102
{ACAD_REACTORS
330
35A
102
}
330
35A
100
AcDbXrecord
280
     1
102
RTVSPropertyOp0
 70
     1
102
RTVSPropertyOp1
 70
     1
102
RTVSPropertyOp2
 70
     1
102
RTVSPropertyOp3
 70
     1
102
RTVSPropertyOp4
 70
     1
102
RTVSPropertyOp5
 70
     1
102
RTVSPropertyOp6
 70
     1
102
RTVSPropertyOp7
 70
     1
102
RTVSPropertyOp8
 70
     1
102
RTVSPropertyOp9
 70
     1
102
RTVSPropertyOp10
 70
     1
102
RTVSPropertyOp11
 70
     1
102
RTVSPropertyOp12
 70
     1
102
RTVSPropertyOp13
 70
     1
102
RTVSPropertyOp14
 70
     1
102
RTVSPropertyOp15
 70
     1
102
RTVSPropertyOp16
 70
     1
102
RTVSPropertyOp17
 70
     1
102
RTVSPropertyOp18
 70
     1
102
RTVSPropertyOp19
 70
     1
102
RTVSPropertyOp20
 70
     1
102
RTVSPropertyOp21
 70
     1
102
RTVSPropertyOp22
 70
     1
102
RTVSPropertyOp23
 70
     1
102
RTVSPropertyOp24
 70
     1
102
RTVSPropertyOp25
 70
     1
102
RTVSPropertyOp26
 70
     1
102
RTVSPropertyOp27
 70
     1
102
RTVSPropertyOp28
 70
     1
102
RTVSPropertyOp29
 70
     1
102
RTVSPropertyOp30
 70
     1
102
RTVSPropertyOp31
 70
     1
102
RTVSPropertyOp32
 70
     1
102
RTVSPropertyOp33
 70
     1
102
RTVSPropertyOp34
 70
     1
102
RTVSPropertyOp35
 70
     1
102
RTVSPropertyOp36
 70
     1
102
RTVSPropertyOp37
 70
     1
102
RTVSPropertyOp38
 70
     1
102
RTVSPropertyOp39
 70
     1
102
RTVSPropertyOp40
 70
     1
102
RTVSPropertyOp41
 70
     1
102
RTVSPropertyOp42
 70
     1
102
RTVSPropertyOp43
 70
     1
102
RTVSPropertyOp44
 70
     1
102
RTVSPropertyOp45
 70
     1
102
RTVSPropertyOp46
 70
     1
102
RTVSPropertyOp47
 70
     1
102
RTVSPropertyOp48
 70
     1
102
RTVSPropertyOp49
 70
     1
102
RTVSPropertyOp50
 70
     1
102
RTVSPropertyOp51
 70
     0
102
RTVSPropertyOp52
 70
     0
102
RTVSPropertyOp53
 70
     1
102
RTVSPropertyOp54
 70
     1
102
RTVSPropertyOp55
 70
     1
102
RTVSPropertyOp56
 70
     1
102
RTVSPropertyOp57
 70
     1
102
RTVSPost2010Prop28
280
     0
102
RTVSPost2010PropOp28
 70
     1
102
RTVSPost2010Prop29
280
     1
102
RTVSPost2010PropOp29
 70
     1
102
RTVSPost2010Prop30
280
     1
102
RTVSPost2010PropOp30
 70
     1
102
RTVSPost2010Prop31
280
     0
102
RTVSPost2010PropOp31
 70
     1
102
RTVSPost2010Prop32
280
     0
102
RTVSPost2010PropOp32
 70
     1
102
RTVSPost2010Prop33
280
     0
102
RTVSPost2010PropOp33
 70
     1
102
RTVSPost2010Prop34
280
     0
102
RTVSPost2010PropOp34
 70
     1
102
RTVSPost2010Prop35
280
     0
102
RTVSPost2010PropOp35
 70
     1
102
RTVSPost2010Prop36
280
     0
102
RTVSPost2010PropOp36
 70
     1
102
RTVSPost2010Prop37
 90
       50
102
RTVSPost2010PropOp37
 70
     1
102
RTVSPost2010Prop38
140
0.0
102
RTVSPost2010PropOp38
 70
     1
102
RTVSPost2010Prop39
140
1.0
102
RTVSPost2010PropOp39
 70
     1
102
RTVSPost2010Prop40
 90
        0
102
RTVSPost2010PropOp40
 70
     1
102
RTVSPost2010Prop41ColorIndex
 90
       18
102
RTVSPost2010Prop41ColorRGB
 90
        0
102
RTVSPost2010PropOp41
 70
     1
102
RTVSPost2010Prop42
 90
       50
102
RTVSPost2010PropOp42
 70
     1
102
RTVSPost2010Prop43
 90
        3
102
RTVSPost2010PropOp43
 70
     1
102
RTVSPost2010Prop44ColorIndex
 90
        5
102
RTVSPost2010Prop44ColorRGB
 90
      255
102
RTVSPost2010PropOp44
 70
     1
102
RTVSPost2010Prop45
280
     0
102
RTVSPost2010PropOp45
 70
     1
102
RTVSPost2010Prop46
 90
       50
102
RTVSPost2010PropOp46
 70
     1
102
RTVSPost2010Prop47
 90
       50
102
RTVSPost2010PropOp47
 70
     1
102
RTVSPost2010Prop48
 90
       50
102
RTVSPost2010PropOp48
 70
     1
102
RTVSPost2010Prop49
280
     0
102
RTVSPost2010PropOp49
 70
     1
102
RTVSPost2010Prop50
 90
       50
102
RTVSPost2010PropOp50
 70
     1
102
RTVSPost2010Prop51ColorIndex
 90
      256
102
RTVSPost2010Prop51ColorRGB
 90
-16777216
102
RTVSPost2010PropOp51
 70
     0
102
RTVSPost2010Prop52
140
1.0
102
RTVSPost2010PropOp52
 70
     0
102
RTVSPost2010Prop53
 90
        2
102
RTVSPost2010PropOp53
 70
     1
102
RTVSPost2010Prop54
  1
strokes_ogs.tif
102
RTVSPost2010PropOp54
 70
     1
102
RTVSPost2010Prop55
280
     0
102
RTVSPost2010PropOp55
 70
     1
102
RTVSPost2010Prop56
140
1.0
102
RTVSPost2010PropOp56
 70
     1
102
RTVSPost2010Prop57
140
1.0
102
RTVSPost2010PropOp57
 70
     1
  0
XRECORD
  5
34D
102
{ACAD_REACTORS
330
34C
102
}
330
34C
100
AcDbXrecord
280
     1
102
RTVSPropertyOp0
 70
     1
102
RTVSPropertyOp1
 70
     1
102
RTVSPropertyOp2
 70
     1
102
RTVSPropertyOp3
 70
     1
102
RTVSPropertyOp4
 70
     1
102
RTVSPropertyOp5
 70
     1
102
RTVSPropertyOp6
 70
     1
102
RTVSPropertyOp7
 70
     1
102
RTVSPropertyOp8
 70
     1
102
RTVSPropertyOp9
 70
     1
102
RTVSPropertyOp10
 70
     1
102
RTVSPropertyOp11
 70
     1
102
RTVSPropertyOp12
 70
     1
102
RTVSPropertyOp13
 70
     1
102
RTVSPropertyOp14
 70
     1
102
RTVSPropertyOp15
 70
     1
102
RTVSPropertyOp16
 70
     1
102
RTVSPropertyOp17
 70
     1
102
RTVSPropertyOp18
 70
     1
102
RTVSPropertyOp19
 70
     1
102
RTVSPropertyOp20
 70
     1
102
RTVSPropertyOp21
 70
     1
102
RTVSPropertyOp22
 70
     1
102
RTVSPropertyOp23
 70
     1
102
RTVSPropertyOp24
 70
     1
102
RTVSPropertyOp25
 70
     1
102
RTVSPropertyOp26
 70
     1
102
RTVSPropertyOp27
 70
     1
102
RTVSPropertyOp28
 70
     1
102
RTVSPropertyOp29
 70
     1
102
RTVSPropertyOp30
 70
     1
102
RTVSPropertyOp31
 70
     1
102
RTVSPropertyOp32
 70
     1
102
RTVSPropertyOp33
 70
     1
102
RTVSPropertyOp34
 70
     1
102
RTVSPropertyOp35
 70
     1
102
RTVSPropertyOp36
 70
     1
102
RTVSPropertyOp37
 70
     1
102
RTVSPropertyOp38
 70
     1
102
RTVSPropertyOp39
 70
     1
102
RTVSPropertyOp40
 70
     1
102
RTVSPropertyOp41
 70
     1
102
RTVSPropertyOp42
 70
     1
102
RTVSPropertyOp43
 70
     1
102
RTVSPropertyOp44
 70
     1
102
RTVSPropertyOp45
 70
     1
102
RTVSPropertyOp46
 70
     1
102
RTVSPropertyOp47
 70
     1
102
RTVSPropertyOp48
 70
     1
102
RTVSPropertyOp49
 70
     1
102
RTVSPropertyOp50
 70
     1
102
RTVSPropertyOp51
 70
     0
102
RTVSPropertyOp52
 70
     0
102
RTVSPropertyOp53
 70
     1
102
RTVSPropertyOp54
 70
     1
102
RTVSPropertyOp55
 70
     1
102
RTVSPropertyOp56
 70
     1
102
RTVSPropertyOp57
 70
     1
102
RTVSPost2010Prop28
280
     0
102
RTVSPost2010PropOp28
 70
     1
102
RTVSPost2010Prop29
280
     1
102
RTVSPost2010PropOp29
 70
     1
102
RTVSPost2010Prop30
280
     1
102
RTVSPost2010PropOp30
 70
     1
102
RTVSPost2010Prop31
280
     0
102
RTVSPost2010PropOp31
 70
     1
102
RTVSPost2010Prop32
280
     0
102
RTVSPost2010PropOp32
 70
     1
102
RTVSPost2010Prop33
280
     0
102
RTVSPost2010PropOp33
 70
     1
102
RTVSPost2010Prop34
280
     0
102
RTVSPost2010PropOp34
 70
     1
102
RTVSPost2010Prop35
280
     0
102
RTVSPost2010PropOp35
 70
     1
102
RTVSPost2010Prop36
280
     0
102
RTVSPost2010PropOp36
 70
     1
102
RTVSPost2010Prop37
 90
       50
102
RTVSPost2010PropOp37
 70
     1
102
RTVSPost2010Prop38
140
0.0
102
RTVSPost2010PropOp38
 70
     1
102
RTVSPost2010Prop39
140
1.0
102
RTVSPost2010PropOp39
 70
     1
102
RTVSPost2010Prop40
 90
        0
102
RTVSPost2010PropOp40
 70
     1
102
RTVSPost2010Prop41ColorIndex
 90
       18
102
RTVSPost2010Prop41ColorRGB
 90
        0
102
RTVSPost2010PropOp41
 70
     1
102
RTVSPost2010Prop42
 90
       50
102
RTVSPost2010PropOp42
 70
     1
102
RTVSPost2010Prop43
 90
        3
102
RTVSPost2010PropOp43
 70
     1
102
RTVSPost2010Prop44ColorIndex
 90
        5
102
RTVSPost2010Prop44ColorRGB
 90
      255
102
RTVSPost2010PropOp44
 70
     1
102
RTVSPost2010Prop45
280
     0
102
RTVSPost2010PropOp45
 70
     1
102
RTVSPost2010Prop46
 90
       50
102
RTVSPost2010PropOp46
 70
     1
102
RTVSPost2010Prop47
 90
       50
102
RTVSPost2010PropOp47
 70
     1
102
RTVSPost2010Prop48
 90
       50
102
RTVSPost2010PropOp48
 70
     1
102
RTVSPost2010Prop49
280
     0
102
RTVSPost2010PropOp49
 70
     1
102
RTVSPost2010Prop50
 90
       50
102
RTVSPost2010PropOp50
 70
     1
102
RTVSPost2010Prop51ColorIndex
 90
      256
102
RTVSPost2010Prop51ColorRGB
 90
-16777216
102
RTVSPost2010PropOp51
 70
     0
102
RTVSPost2010Prop52
140
1.0
102
RTVSPost2010PropOp52
 70
     0
102
RTVSPost2010Prop53
 90
        2
102
RTVSPost2010PropOp53
 70
     1
102
RTVSPost2010Prop54
  1
strokes_ogs.tif
102
RTVSPost2010PropOp54
 70
     1
102
RTVSPost2010Prop55
280
     0
102
RTVSPost2010PropOp55
 70
     1
102
RTVSPost2010Prop56
140
1.0
102
RTVSPost2010PropOp56
 70
     1
102
RTVSPost2010Prop57
140
1.0
102
RTVSPost2010PropOp57
 70
     1
  0
XRECORD
  5
36D
102
{ACAD_REACTORS
330
36C
102
}
330
36C
100
AcDbXrecord
280
     1
102
RTVSPropertyOp0
 70
     1
102
RTVSPropertyOp1
 70
     1
102
RTVSPropertyOp2
 70
     1
102
RTVSPropertyOp3
 70
     1
102
RTVSPropertyOp4
 70
     1
102
RTVSPropertyOp5
 70
     1
102
RTVSPropertyOp6
 70
     1
102
RTVSPropertyOp7
 70
     1
102
RTVSPropertyOp8
 70
     1
102
RTVSPropertyOp9
 70
     1
102
RTVSPropertyOp10
 70
     1
102
RTVSPropertyOp11
 70
     1
102
RTVSPropertyOp12
 70
     1
102
RTVSPropertyOp13
 70
     1
102
RTVSPropertyOp14
 70
     1
102
RTVSPropertyOp15
 70
     1
102
RTVSPropertyOp16
 70
     1
102
RTVSPropertyOp17
 70
     1
102
RTVSPropertyOp18
 70
     1
102
RTVSPropertyOp19
 70
     1
102
RTVSPropertyOp20
 70
     1
102
RTVSPropertyOp21
 70
     1
102
RTVSPropertyOp22
 70
     1
102
RTVSPropertyOp23
 70
     1
102
RTVSPropertyOp24
 70
     1
102
RTVSPropertyOp25
 70
     1
102
RTVSPropertyOp26
 70
     1
102
RTVSPropertyOp27
 70
     1
102
RTVSPropertyOp28
 70
     1
102
RTVSPropertyOp29
 70
     1
102
RTVSPropertyOp30
 70
     1
102
RTVSPropertyOp31
 70
     1
102
RTVSPropertyOp32
 70
     1
102
RTVSPropertyOp33
 70
     1
102
RTVSPropertyOp34
 70
     1
102
RTVSPropertyOp35
 70
     1
102
RTVSPropertyOp36
 70
     1
102
RTVSPropertyOp37
 70
     1
102
RTVSPropertyOp38
 70
     1
102
RTVSPropertyOp39
 70
     1
102
RTVSPropertyOp40
 70
     1
102
RTVSPropertyOp41
 70
     1
102
RTVSPropertyOp42
 70
     1
102
RTVSPropertyOp43
 70
     1
102
RTVSPropertyOp44
 70
     1
102
RTVSPropertyOp45
 70
     1
102
RTVSPropertyOp46
 70
     1
102
RTVSPropertyOp47
 70
     1
102
RTVSPropertyOp48
 70
     1
102
RTVSPropertyOp49
 70
     1
102
RTVSPropertyOp50
 70
     1
102
RTVSPropertyOp51
 70
     0
102
RTVSPropertyOp52
 70
     0
102
RTVSPropertyOp53
 70
     1
102
RTVSPropertyOp54
 70
     1
102
RTVSPropertyOp55
 70
     1
102
RTVSPropertyOp56
 70
     1
102
RTVSPropertyOp57
 70
     1
102
RTVSPost2010Prop28
280
     0
102
RTVSPost2010PropOp28
 70
     1
102
RTVSPost2010Prop29
280
     1
102
RTVSPost2010PropOp29
 70
     1
102
RTVSPost2010Prop30
280
     1
102
RTVSPost2010PropOp30
 70
     1
102
RTVSPost2010Prop31
280
     0
102
RTVSPost2010PropOp31
 70
     1
102
RTVSPost2010Prop32
280
     0
102
RTVSPost2010PropOp32
 70
     1
102
RTVSPost2010Prop33
280
     0
102
RTVSPost2010PropOp33
 70
     1
102
RTVSPost2010Prop34
280
     0
102
RTVSPost2010PropOp34
 70
     1
102
RTVSPost2010Prop35
280
     0
102
RTVSPost2010PropOp35
 70
     1
102
RTVSPost2010Prop36
280
     0
102
RTVSPost2010PropOp36
 70
     1
102
RTVSPost2010Prop37
 90
       50
102
RTVSPost2010PropOp37
 70
     1
102
RTVSPost2010Prop38
140
0.0
102
RTVSPost2010PropOp38
 70
     1
102
RTVSPost2010Prop39
140
1.0
102
RTVSPost2010PropOp39
 70
     1
102
RTVSPost2010Prop40
 90
        0
102
RTVSPost2010PropOp40
 70
     1
102
RTVSPost2010Prop41ColorIndex
 90
       18
102
RTVSPost2010Prop41ColorRGB
 90
        0
102
RTVSPost2010PropOp41
 70
     1
102
RTVSPost2010Prop42
 90
       50
102
RTVSPost2010PropOp42
 70
     1
102
RTVSPost2010Prop43
 90
        3
102
RTVSPost2010PropOp43
 70
     1
102
RTVSPost2010Prop44ColorIndex
 90
        5
102
RTVSPost2010Prop44ColorRGB
 90
      255
102
RTVSPost2010PropOp44
 70
     1
102
RTVSPost2010Prop45
280
     0
102
RTVSPost2010PropOp45
 70
     1
102
RTVSPost2010Prop46
 90
       50
102
RTVSPost2010PropOp46
 70
     1
102
RTVSPost2010Prop47
 90
       50
102
RTVSPost2010PropOp47
 70
     1
102
RTVSPost2010Prop48
 90
       50
102
RTVSPost2010PropOp48
 70
     1
102
RTVSPost2010Prop49
280
     0
102
RTVSPost2010PropOp49
 70
     1
102
RTVSPost2010Prop50
 90
       50
102
RTVSPost2010PropOp50
 70
     1
102
RTVSPost2010Prop51ColorIndex
 90
      256
102
RTVSPost2010Prop51ColorRGB
 90
-16777216
102
RTVSPost2010PropOp51
 70
     0
102
RTVSPost2010Prop52
140
1.0
102
RTVSPost2010PropOp52
 70
     0
102
RTVSPost2010Prop53
 90
        2
102
RTVSPost2010PropOp53
 70
     1
102
RTVSPost2010Prop54
  1
strokes_ogs.tif
102
RTVSPost2010PropOp54
 70
     1
102
RTVSPost2010Prop55
280
     0
102
RTVSPost2010PropOp55
 70
     1
102
RTVSPost2010Prop56
140
1.0
102
RTVSPost2010PropOp56
 70
     1
102
RTVSPost2010Prop57
140
1.0
102
RTVSPost2010PropOp57
 70
     1
  0
ENDSEC
  0
EOF
