  0
SECTION
  2
HEADER
  9
$ACADVER
  1
AC1015
  9
$ACADMAINTVER
 70
     6
  9
$DWGCODEPAGE
  3
ANSI_1252
  9
$INSBASE
 10
0.0
 20
0.0
 30
0.0
  9
$EXTMIN
 10
-152.770538
 20
433.623138
 30
0.0
  9
$EXTMAX
 10
307.766479
 20
1084.510132
 30
0.0
  9
$LIMMIN
 10
-152.770538
 20
433.623138
  9
$LIMMAX
 10
307.766479
 20
1084.510132
  9
$ORTHOMODE
 70
     0
  9
$REGENMODE
 70
     1
  9
$FILLMODE
 70
     1
  9
$QTEXTMODE
 70
     0
  9
$MIRRTEXT
 70
     1
  9
$LTSCALE
 40
1.0
  9
$ATTMODE
 70
     1
  9
$TEXTSIZE
 40
2.5
  9
$TRACEWID
 40
1.0
  9
$TEXTSTYLE
  7
Standard
  9
$CLAYER
  8
0
  9
$CELTYPE
  6
ByLayer
  9
$CECOLOR
 62
   256
  9
$CELTSCALE
 40
1.0
  9
$DISPSILH
 70
     0
  9
$DIMSCALE
 40
1.0
  9
$DIMASZ
 40
2.5
  9
$DIMEXO
 40
0.625
  9
$DIMDLI
 40
3.75
  9
$DIMRND
 40
0.0
  9
$DIMDLE
 40
0.0
  9
$DIMEXE
 40
1.25
  9
$DIMTP
 40
0.0
  9
$DIMTM
 40
0.0
  9
$DIMTXT
 40
2.5
  9
$DIMCEN
 40
2.5
  9
$DIMTSZ
 40
0.0
  9
$DIMTOL
 70
     0
  9
$DIMLIM
 70
     0
  9
$DIMTIH
 70
     0
  9
$DIMTOH
 70
     0
  9
$DIMSE1
 70
     0
  9
$DIMSE2
 70
     0
  9
$DIMTAD
 70
     1
  9
$DIMZIN
 70
     8
  9
$DIMBLK
  1

  9
$DIMASO
 70
     1
  9
$DIMSHO
 70
     1
  9
$DIMPOST
  1

  9
$DIMAPOST
  1

  9
$DIMALT
 70
     0
  9
$DIMALTD
 70
     3
  9
$DIMALTF
 40
0.03937
  9
$DIMLFAC
 40
1.0
  9
$DIMTOFL
 70
     1
  9
$DIMTVP
 40
0.0
  9
$DIMTIX
 70
     0
  9
$DIMSOXD
 70
     0
  9
$DIMSAH
 70
     0
  9
$DIMBLK1
  1

  9
$DIMBLK2
  1

  9
$DIMSTYLE
  2
ISO-25
  9
$DIMCLRD
 70
     0
  9
$DIMCLRE
 70
     0
  9
$DIMCLRT
 70
     0
  9
$DIMTFAC
 40
1.0
  9
$DIMGAP
 40
0.625
  9
$DIMJUST
 70
     0
  9
$DIMSD1
 70
     0
  9
$DIMSD2
 70
     0
  9
$DIMTOLJ
 70
     0
  9
$DIMTZIN
 70
     8
  9
$DIMALTZ
 70
     0
  9
$DIMALTTZ
 70
     0
  9
$DIMUPT
 70
     0
  9
$DIMDEC
 70
     2
  9
$DIMTDEC
 70
     2
  9
$DIMALTU
 70
     2
  9
$DIMALTTD
 70
     3
  9
$DIMTXSTY
  7
Standard
  9
$DIMAUNIT
 70
     0
  9
$DIMADEC
 70
     0
  9
$DIMALTRND
 40
0.0
  9
$DIMAZIN
 70
     0
  9
$DIMDSEP
 70
    44
  9
$DIMATFIT
 70
     3
  9
$DIMFRAC
 70
     0
  9
$DIMLDRBLK
  1

  9
$DIMLUNIT
 70
     2
  9
$DIMLWD
 70
    -2
  9
$DIMLWE
 70
    -2
  9
$DIMTMOVE
 70
     0
  9
$LUNITS
 70
     2
  9
$LUPREC
 70
     4
  9
$SKETCHINC
 40
1.0
  9
$FILLETRAD
 40
10.0
  9
$AUNITS
 70
     0
  9
$AUPREC
 70
     0
  9
$MENU
  1
.
  9
$ELEVATION
 40
0.0
  9
$PELEVATION
 40
0.0
  9
$THICKNESS
 40
0.0
  9
$LIMCHECK
 70
     0
  9
$CHAMFERA
 40
0.0
  9
$CHAMFERB
 40
0.0
  9
$CHAMFERC
 40
0.0
  9
$CHAMFERD
 40
0.0
  9
$SKPOLY
 70
     0
  9
$TDCREATE
 40
2458898.664749884
  9
$TDUCREATE
 40
2458898.623083218
  9
$TDUPDATE
 40
2458898.664750775
  9
$TDUUPDATE
 40
2458898.623084109
  9
$TDINDWG
 40
0.0000000116
  9
$TDUSRTIMER
 40
0.0000000116
  9
$USRTIMER
 70
     1
  9
$ANGBASE
 50
0.0
  9
$ANGDIR
 70
     0
  9
$PDMODE
 70
     0
  9
$PDSIZE
 40
0.0
  9
$PLINEWID
 40
0.0
  9
$SPLFRAME
 70
     0
  9
$SPLINETYPE
 70
     6
  9
$SPLINESEGS
 70
     8
  9
$HANDSEED
  5
309
  9
$SURFTAB1
 70
     6
  9
$SURFTAB2
 70
     6
  9
$SURFTYPE
 70
     6
  9
$SURFU
 70
     6
  9
$SURFV
 70
     6
  9
$UCSBASE
  2

  9
$UCSNAME
  2

  9
$UCSORG
 10
0.0
 20
0.0
 30
0.0
  9
$UCSXDIR
 10
1.0
 20
0.0
 30
0.0
  9
$UCSYDIR
 10
0.0
 20
1.0
 30
0.0
  9
$UCSORTHOREF
  2

  9
$UCSORTHOVIEW
 70
     0
  9
$UCSORGTOP
 10
0.0
 20
0.0
 30
0.0
  9
$UCSORGBOTTOM
 10
0.0
 20
0.0
 30
0.0
  9
$UCSORGLEFT
 10
0.0
 20
0.0
 30
0.0
  9
$UCSORGRIGHT
 10
0.0
 20
0.0
 30
0.0
  9
$UCSORGFRONT
 10
0.0
 20
0.0
 30
0.0
  9
$UCSORGBACK
 10
0.0
 20
0.0
 30
0.0
  9
$PUCSBASE
  2

  9
$PUCSNAME
  2

  9
$PUCSORG
 10
0.0
 20
0.0
 30
0.0
  9
$PUCSXDIR
 10
1.0
 20
0.0
 30
0.0
  9
$PUCSYDIR
 10
0.0
 20
1.0
 30
0.0
  9
$PUCSORTHOREF
  2

  9
$PUCSORTHOVIEW
 70
     0
  9
$PUCSORGTOP
 10
0.0
 20
0.0
 30
0.0
  9
$PUCSORGBOTTOM
 10
0.0
 20
0.0
 30
0.0
  9
$PUCSORGLEFT
 10
0.0
 20
0.0
 30
0.0
  9
$PUCSORGRIGHT
 10
0.0
 20
0.0
 30
0.0
  9
$PUCSORGFRONT
 10
0.0
 20
0.0
 30
0.0
  9
$PUCSORGBACK
 10
0.0
 20
0.0
 30
0.0
  9
$USERI1
 70
     0
  9
$USERI2
 70
     0
  9
$USERI3
 70
     0
  9
$USERI4
 70
     0
  9
$USERI5
 70
     0
  9
$USERR1
 40
0.0
  9
$USERR2
 40
0.0
  9
$USERR3
 40
0.0
  9
$USERR4
 40
0.0
  9
$USERR5
 40
0.0
  9
$WORLDVIEW
 70
     1
  9
$SHADEDGE
 70
     3
  9
$SHADEDIF
 70
    70
  9
$TILEMODE
 70
     1
  9
$MAXACTVP
 70
    64
  9
$PINSBASE
 10
0.0
 20
0.0
 30
0.0
  9
$PLIMCHECK
 70
     0
  9
$PEXTMIN
 10
1.000000E+20
 20
1.000000E+20
 30
1.000000E+20
  9
$PEXTMAX
 10
-1.000000E+20
 20
-1.000000E+20
 30
-1.000000E+20
  9
$PLIMMIN
 10
0.0
 20
0.0
  9
$PLIMMAX
 10
420.0
 20
297.0
  9
$UNITMODE
 70
     0
  9
$VISRETAIN
 70
     1
  9
$PLINEGEN
 70
     0
  9
$PSLTSCALE
 70
     1
  9
$TREEDEPTH
 70
  3020
  9
$CMLSTYLE
  2
Standard
  9
$CMLJUST
 70
     0
  9
$CMLSCALE
 40
20.0
  9
$PROXYGRAPHICS
 70
     1
  9
$MEASUREMENT
 70
     1
  9
$CELWEIGHT
370
    -1
  9
$ENDCAPS
280
     0
  9
$JOINSTYLE
280
     0
  9
$LWDISPLAY
290
     0
  9
$INSUNITS
 70
     4
  9
$HYPERLINKBASE
  1

  9
$STYLESHEET
  1

  9
$XEDIT
290
     1
  9
$CEPSNTYPE
380
     0
  9
$PSTYLEMODE
290
     1
  9
$FINGERPRINTGUID
  2
{36135009-4e44-466f-8df4-a91222d7e622}
  9
$VERSIONGUID
  2
{FAEB1C32-E019-11D5-929B-00C0DF256EC4}
  9
$EXTNAMES
290
     1
  9
$PSVPSCALE
 40
0.0
  9
$OLESTARTUP
290
     0
  0
ENDSEC
  0
SECTION
  2
CLASSES
  0
CLASS
  1
ACDBDICTIONARYWDFLT
  2
AcDbDictionaryWithDefault
  3
ObjectDBX Classes
 90
        0
280
     0
281
     0
  0
CLASS
  1
VISUALSTYLE
  2
AcDbVisualStyle
  3
ObjectDBX Classes
 90
     4095
280
     0
281
     0
  0
CLASS
  1
MATERIAL
  2
AcDbMaterial
  3
ObjectDBX Classes
 90
     1153
280
     0
281
     0
  0
CLASS
  1
SCALE
  2
AcDbScale
  3
ObjectDBX Classes
 90
     1153
280
     0
281
     0
  0
CLASS
  1
TABLESTYLE
  2
AcDbTableStyle
  3
ObjectDBX Classes
 90
     4095
280
     0
281
     0
  0
CLASS
  1
MLEADERSTYLE
  2
AcDbMLeaderStyle
  3
ACDB_MLEADERSTYLE_CLASS
 90
     4095
280
     0
281
     0
  0
CLASS
  1
SUN
  2
AcDbSun
  3
SCENEOE
 90
     1153
280
     0
281
     0
  0
CLASS
  1
DICTIONARYVAR
  2
AcDbDictionaryVar
  3
ObjectDBX Classes
 90
        0
280
     0
281
     0
  0
CLASS
  1
ACDBPLACEHOLDER
  2
AcDbPlaceHolder
  3
ObjectDBX Classes
 90
        0
280
     0
281
     0
  0
CLASS
  1
LAYOUT
  2
AcDbLayout
  3
ObjectDBX Classes
 90
        0
280
     0
281
     0
  0
ENDSEC
  0
SECTION
  2
TABLES
  0
TABLE
  2
VPORT
  5
8
102
{ACAD_XDICTIONARY
360
2CC
102
}
330
0
100
AcDbSymbolTable
 70
     1
  0
VPORT
  5
29
330
8
100
AcDbSymbolTableRecord
100
AcDbViewportTableRecord
  2
*Active
 70
     0
 10
0.0
 20
0.0
 11
1.0
 21
1.0
 12
344.186916
 22
148.5
 13
0.0
 23
0.0
 14
10.0
 24
10.0
 15
10.0
 25
10.0
 16
0.0
 26
0.0
 36
1.0
 17
0.0
 27
0.0
 37
0.0
 40
297.0
 41
1.972973
 42
50.0
 43
0.0
 44
0.0
 50
0.0
 51
0.0
 71
     0
 72
   100
 73
     1
 74
     3
 75
     0
 76
     0
 77
     0
 78
     0
281
     0
 65
     1
110
0.0
120
0.0
130
0.0
111
1.0
121
0.0
131
0.0
112
0.0
122
1.0
132
0.0
 79
     0
146
0.0
  0
ENDTAB
  0
TABLE
  2
LTYPE
  5
5
330
0
100
AcDbSymbolTable
 70
     1
  0
LTYPE
  5
14
330
5
100
AcDbSymbolTableRecord
100
AcDbLinetypeTableRecord
  2
ByBlock
 70
     0
  3

 72
    65
 73
     0
 40
0.0
  0
LTYPE
  5
15
330
5
100
AcDbSymbolTableRecord
100
AcDbLinetypeTableRecord
  2
ByLayer
 70
     0
  3

 72
    65
 73
     0
 40
0.0
  0
LTYPE
  5
16
330
5
100
AcDbSymbolTableRecord
100
AcDbLinetypeTableRecord
  2
Continuous
 70
     0
  3
Solid line
 72
    65
 73
     0
 40
0.0
  0
ENDTAB
  0
TABLE
  2
LAYER
  5
2
330
0
100
AcDbSymbolTable
 70
     1
  0
LAYER
  5
10
330
2
100
AcDbSymbolTableRecord
100
AcDbLayerTableRecord
  2
0
 70
     0
 62
   106
  6
Continuous
370
     0
390
F
  0
ENDTAB
  0
TABLE
  2
STYLE
  5
3
330
0
100
AcDbSymbolTable
 70
     4
  0
STYLE
  5
11
330
3
100
AcDbSymbolTableRecord
100
AcDbTextStyleTableRecord
  2
Standard
 70
     0
 40
0.0
 41
1.0
 50
0.0
 71
     0
 42
2.5
  3
txt
  4

  0
STYLE
  5
6E
330
3
100
AcDbSymbolTableRecord
100
AcDbTextStyleTableRecord
  2
Default
 70
     0
 40
0.0
 41
1.0
 50
0.0
 71
     0
 42
2.5
  3

  4

1001
ACAD
1000
txt
1071
        0
  0
STYLE
  5
6F
330
3
100
AcDbSymbolTableRecord
100
AcDbTextStyleTableRecord
  2
ISO
 70
     0
 40
0.0
 41
1.0
 50
0.0
 71
     0
 42
2.5
  3

  4

1001
ACAD
1000
txt
1071
        0
  0
STYLE
  5
70
330
3
100
AcDbSymbolTableRecord
100
AcDbTextStyleTableRecord
  2
zucchetti
 70
     0
 40
0.0
 41
1.0
 50
0.0
 71
     0
 42
2.5
  3

  4

1001
ACAD
1000
Arial
1071
        0
  0
ENDTAB
  0
TABLE
  2
VIEW
  5
6
330
0
100
AcDbSymbolTable
 70
     0
  0
ENDTAB
  0
TABLE
  2
UCS
  5
7
330
0
100
AcDbSymbolTable
 70
     0
  0
ENDTAB
  0
TABLE
  2
APPID
  5
9
330
0
100
AcDbSymbolTable
 70
     2
  0
APPID
  5
12
330
9
100
AcDbSymbolTableRecord
100
AcDbRegAppTableRecord
  2
ACAD
 70
     0
  0
APPID
  5
306
330
9
100
AcDbSymbolTableRecord
100
AcDbRegAppTableRecord
  2
ACAD_MLEADERVER
 70
     0
  0
ENDTAB
  0
TABLE
  2
DIMSTYLE
  5
A
330
0
100
AcDbSymbolTable
 70
     4
100
AcDbDimStyleTable
  0
DIMSTYLE
105
27
330
A
100
AcDbSymbolTableRecord
100
AcDbDimStyleTableRecord
  2
ISO-25
 70
     0
 41
2.5
 42
0.625
 43
3.75
 44
1.25
 73
     0
 74
     0
 77
     1
 78
     8
140
2.5
141
2.5
143
0.03937
147
0.625
171
     3
172
     1
178
     0
271
     2
272
     2
274
     3
278
    44
283
     0
284
     8
340
11
  0
DIMSTYLE
105
71
330
A
100
AcDbSymbolTableRecord
100
AcDbDimStyleTableRecord
  2
Default
 70
     0
  3
<>
 41
4.375
 42
1.05
 44
2.1
 73
     0
 74
     0
 77
     1
 78
     8
140
3.5
146
0.4
147
1.75
172
     1
271
     2
178
     3
271
     2
272
     3
284
     8
340
6E
341
72
342
72
  0
DIMSTYLE
105
79
330
A
100
AcDbSymbolTableRecord
100
AcDbDimStyleTableRecord
  2
ISO
 70
     0
  3
<>
 41
4.375
 42
1.05
 44
2.1
 73
     0
 74
     0
 77
     1
 78
     8
140
3.5
146
0.4
147
1.75
172
     1
271
     2
178
     3
271
     2
272
     3
284
     8
340
6F
341
72
342
72
  0
DIMSTYLE
105
7A
330
A
100
AcDbSymbolTableRecord
100
AcDbDimStyleTableRecord
  2
zucchetti
 70
     0
  3
<>
 41
3.0
 42
0.9
 44
1.8
 73
     0
 74
     0
 77
     1
 78
     8
140
3.0
146
0.6
147
1.5
172
     1
176
     3
177
     3
271
     2
178
     3
271
     2
272
     2
284
     8
340
70
  0
ENDTAB
  0
TABLE
  2
BLOCK_RECORD
  5
1
330
0
100
AcDbSymbolTable
 70
     6
  0
BLOCK_RECORD
  5
1F
330
1
100
AcDbSymbolTableRecord
100
AcDbBlockTableRecord
  2
*Model_Space
340
22
  0
BLOCK_RECORD
  5
1B
330
1
100
AcDbSymbolTableRecord
100
AcDbBlockTableRecord
  2
*Paper_Space
340
1E
  0
BLOCK_RECORD
  5
23
330
1
100
AcDbSymbolTableRecord
100
AcDbBlockTableRecord
  2
*Paper_Space0
340
26
  0
BLOCK_RECORD
  5
72
330
1
100
AcDbSymbolTableRecord
100
AcDbBlockTableRecord
  2
_Closed
340
0
  0
BLOCK_RECORD
  5
7B
330
1
100
AcDbSymbolTableRecord
100
AcDbBlockTableRecord
  2
a
340
0
102
{BLKREFS
331
115
102
}
  0
BLOCK_RECORD
  5
116
330
1
100
AcDbSymbolTableRecord
100
AcDbBlockTableRecord
  2
b
340
0
102
{BLKREFS
331
16A
102
}
  0
BLOCK_RECORD
  5
16B
330
1
100
AcDbSymbolTableRecord
100
AcDbBlockTableRecord
  2
c
340
0
102
{BLKREFS
331
215
102
}
  0
BLOCK_RECORD
  5
216
330
1
100
AcDbSymbolTableRecord
100
AcDbBlockTableRecord
  2
d
340
0
102
{BLKREFS
331
2C0
102
}
  0
ENDTAB
  0
ENDSEC
  0
SECTION
  2
BLOCKS
  0
BLOCK
  5
20
330
1F
100
AcDbEntity
  8
0
100
AcDbBlockBegin
  2
*Model_Space
 70
     0
 10
0.0
 20
0.0
 30
0.0
  3
*Model_Space
  1

  0
ENDBLK
  5
21
330
1F
100
AcDbEntity
  8
0
100
AcDbBlockEnd
  0
BLOCK
  5
1C
330
1B
100
AcDbEntity
 67
     1
  8
0
100
AcDbBlockBegin
  2
*Paper_Space
 70
     0
 10
0.0
 20
0.0
 30
0.0
  3
*Paper_Space
  1

  0
ENDBLK
  5
1D
330
1B
100
AcDbEntity
 67
     1
  8
0
100
AcDbBlockEnd
  0
BLOCK
  5
24
330
23
100
AcDbEntity
  8
0
100
AcDbBlockBegin
  2
*Paper_Space0
 70
     0
 10
0.0
 20
0.0
 30
0.0
  3
*Paper_Space0
  1

  0
ENDBLK
  5
25
330
23
100
AcDbEntity
  8
0
100
AcDbBlockEnd
  0
BLOCK
  5
73
330
72
100
AcDbEntity
  8
0
100
AcDbBlockBegin
  2
_Closed
 70
     0
 10
0.0
 20
0.0
 30
0.0
  3
_Closed
  1

  0
LINE
  5
75
330
72
100
AcDbEntity
  8
0
  6
ByBlock
 62
     0
370
    -2
100
AcDbLine
 10
-1.0
 20
0.166667
 30
0.0
 11
0.0
 21
0.0
 31
0.0
  0
LINE
  5
76
330
72
100
AcDbEntity
  8
0
  6
ByBlock
 62
     0
370
    -2
100
AcDbLine
 10
0.0
 20
0.0
 30
0.0
 11
-1.0
 21
-0.166667
 31
0.0
  0
LINE
  5
77
330
72
100
AcDbEntity
  8
0
  6
ByBlock
 62
     0
370
    -2
100
AcDbLine
 10
-1.0
 20
0.166667
 30
0.0
 11
-1.0
 21
-0.166667
 31
0.0
  0
LINE
  5
78
330
72
100
AcDbEntity
  8
0
  6
ByBlock
 62
     0
370
    -2
100
AcDbLine
 10
0.0
 20
0.0
 30
0.0
 11
-1.0
 21
0.0
 31
0.0
  0
ENDBLK
  5
74
330
72
100
AcDbEntity
  8
0
100
AcDbBlockEnd
  0
BLOCK
  5
113
330
7B
100
AcDbEntity
  8
0
100
AcDbBlockBegin
  2
a
 70
     0
 10
17.356796
 20
100.941116
 30
0.0
  3
a
  1

  0
LINE
  5
7C
330
7B
100
AcDbEntity
  8
0
  6
Continuous
 62
     0
370
    30
100
AcDbLine
 10
92.432838
 20
851.507446
 30
0.0
 11
92.432838
 21
831.578753
 31
0.0
  0
LINE
  5
7D
330
7B
100
AcDbEntity
  8
0
  6
Continuous
 62
     0
370
    30
100
AcDbLine
 10
78.432838
 20
852.507456
 30
0.0
 11
91.432838
 21
852.507456
 31
0.0
  0
ARC
  5
7E
330
7B
100
AcDbEntity
  8
0
  6
Continuous
 62
     0
370
    30
100
AcDbCircle
 10
91.432838
 20
851.507446
 30
0.0
 40
1.0
100
AcDbArc
 50
0.0
 51
90.0
  0
ELLIPSE
  5
7F
330
7B
100
AcDbEntity
  8
0
  6
Continuous
 62
     0
370
     0
100
AcDbEllipse
 10
91.432838
 20
851.507446
 30
0.0
 11
-5.455482895975850E-9
 21
1.0
 31
0.0
210
0.0
220
0.0
230
-1.0
 40
0.008135
 41
0.0000000131552246
 42
1.570796339950113
  0
LINE
  5
80
330
7B
100
AcDbEntity
  8
0
  6
Continuous
 62
     0
370
     0
100
AcDbLine
 10
91.440973
 20
851.507446
 30
0.0
 11
92.432838
 21
851.507446
 31
0.0
  0
LINE
  5
81
330
7B
100
AcDbEntity
  8
0
  6
Continuous
 62
     0
370
     0
100
AcDbLine
 10
91.440973
 20
831.578753
 30
0.0
 11
91.440973
 21
851.507446
 31
0.0
  0
ELLIPSE
  5
82
330
7B
100
AcDbEntity
  8
0
  6
Continuous
 62
     0
370
     0
100
AcDbEllipse
 10
78.432838
 20
851.507446
 30
0.0
 11
-5.241441790529604E-9
 21
1.0
 31
0.0
210
0.0
220
0.0
230
1.0
 40
0.008135
 41
0.0000000131553666
 42
1.570796339950112
  0
LINE
  5
83
330
7B
100
AcDbEntity
  8
0
  6
Continuous
 62
     0
370
     0
100
AcDbLine
 10
78.424703
 20
851.507456
 30
0.0
 11
91.440973
 21
851.507456
 31
0.0
  0
SPLINE
  5
84
330
7B
100
AcDbEntity
  8
0
  6
Continuous
 62
     0
370
     0
100
AcDbSpline
210
0.0
220
0.0
230
1.0
 70
     8
 71
     3
 72
    35
 73
    31
 74
     0
 42
0.000000001
 43
0.0
 40
0.0
 40
0.0
 40
0.0
 40
0.0
 40
3.441841583726246
 40
6.882852512287561
 40
10.32313745608455
 40
13.76274326813165
 40
17.20191509642661
 40
20.64091833849005
 40
24.08005407847498
 40
27.51961152377158
 40
30.95977415881267
 40
34.40069259768723
 40
37.8424409908414
 40
41.28489904790865
 40
44.72789785151544
 40
48.17118409310792
 40
51.61446761388596
 40
55.05746120483949
 40
58.49991683290023
 40
61.94165561409898
 40
65.38259805037588
 40
68.82278773743839
 40
72.26234447888223
 40
75.70149456209352
 40
79.1405112156677
 40
82.57969419747484
 40
86.0193194231972
 40
89.45958122423197
 40
92.90057834620421
 40
96.34243528771587
 40
96.34243528771587
 40
96.34243528771587
 40
96.34243528771587
 10
75.48224933928016
 20
826.4184329869764
 30
0.0
 10
74.49525682055207
 20
825.8336574636426
 30
0.0
 10
72.6261185286719
 20
824.4766371287732
 30
0.0
 10
70.25042518068209
 20
821.9614423388206
 30
0.0
 10
68.38152856924697
 20
819.0492239512155
 30
0.0
 10
67.08453348834112
 20
815.8420935947227
 30
0.0
 10
66.4043101011499
 20
812.4504101779829
 30
0.0
 10
66.36436045160039
 20
808.9915561493194
 30
0.0
 10
66.96616140298218
 20
805.5851306252042
 30
0.0
 10
68.18870603305263
 20
802.3488463412293
 30
0.0
 10
69.9901755308243
 20
799.3948555498492
 30
0.0
 10
72.3073666432598
 20
796.824537398081
 30
0.0
 10
75.0610338186609
 20
794.7272117839323
 30
0.0
 10
78.1557531804478
 20
793.1750505435555
 30
0.0
 10
81.4847048731833
 20
792.221754398146
 30
0.0
 10
84.93283921013587
 20
791.9002898707919
 30
0.0
 10
88.38097099162808
 20
792.2217634063493
 30
0.0
 10
91.70991841047062
 20
793.1750487321543
 30
0.0
 10
94.80465319142154
 20
794.7271814863379
 30
0.0
 10
97.55829142020207
 20
796.824524893599
 30
0.0
 10
99.87570122067729
 20
799.3946839839523
 30
0.0
 10
101.6769283847387
 20
802.3488518017248
 30
0.0
 10
102.8995752116719
 20
805.5850936265573
 30
0.0
 10
103.5013632828136
 20
808.9915391294335
 30
0.0
 10
103.4614351292175
 20
812.4504065504761
 30
0.0
 10
102.7811809510138
 20
815.8420925045532
 30
0.0
 10
101.4841940451968
 20
819.0492561939899
 30
0.0
 10
99.61500002614689
 20
821.9612397430169
 30
0.0
 10
97.23972321124279
 20
824.476815478289
 30
0.0
 10
95.37042376073018
 20
825.8336549659753
 30
0.0
 10
94.38342683155366
 20
826.4184330880687
 30
0.0
  0
ARC
  5
85
330
7B
100
AcDbEntity
  8
0
  6
Continuous
 62
     0
370
     0
100
AcDbCircle
 10
97.438684
 20
831.579629
 30
0.0
 40
5.997710869422978
100
AcDbArc
 50
180.008362
 51
239.375869
  0
LINE
  5
86
330
7B
100
AcDbEntity
  8
0
  6
Continuous
 62
     0
370
     0
100
AcDbLine
 10
78.424703
 20
851.507446
 30
0.0
 11
78.424703
 21
831.578753
 31
0.0
  0
ARC
  5
87
330
7B
100
AcDbEntity
  8
0
  6
Continuous
 62
     0
370
     0
100
AcDbCircle
 10
72.426992
 20
831.579628
 30
0.0
 40
5.997710779294551
100
AcDbArc
 50
300.624131
 51
359.991639
  0
LINE
  5
88
330
7B
100
AcDbEntity
  8
0
  6
Continuous
 62
     0
370
     0
100
AcDbLine
 10
78.424703
 20
851.507446
 30
0.0
 11
77.432838
 21
851.507446
 31
0.0
  0
LINE
  5
89
330
7B
100
AcDbEntity
  8
0
  6
Continuous
 62
     0
370
    30
100
AcDbLine
 10
77.432838
 20
851.507446
 30
0.0
 11
77.432838
 21
831.578753
 31
0.0
  0
ARC
  5
8A
330
7B
100
AcDbEntity
  8
0
  6
Continuous
 62
     0
370
    30
100
AcDbCircle
 10
78.432838
 20
851.507446
 30
0.0
 40
1.0
100
AcDbArc
 50
90.0
 51
180.0
  0
ARC
  5
8B
330
7B
100
AcDbEntity
  8
0
  6
Continuous
 62
     0
370
    30
100
AcDbCircle
 10
84.932838
 20
810.507446
 30
0.0
 40
19.50000000033902
100
AcDbArc
 50
120.677425
 51
59.322576
  0
ARC
  5
8C
330
7B
100
AcDbEntity
  8
0
  6
Continuous
 62
     0
370
    30
100
AcDbCircle
 10
97.4318
 20
831.578162
 30
0.0
 40
4.99896228032442
100
AcDbArc
 50
179.993227
 51
239.32935
  0
ELLIPSE
  5
8D
330
7B
100
AcDbEntity
  8
0
  6
Continuous
 62
     0
370
     0
100
AcDbEllipse
 10
94.371614
 20
826.418433
 30
0.0
 11
0.5102040769052009
 21
0.8600533703843072
 31
0.0
210
0.0
220
0.0
230
-1.0
 40
0.01016
 41
0.0000000145918528
 42
1.564769143704869
  0
ARC
  5
8E
330
7B
100
AcDbEntity
  8
0
  6
Continuous
 62
     0
370
    30
100
AcDbCircle
 10
72.433876
 20
831.578162
 30
0.0
 40
4.998962282315782
100
AcDbArc
 50
300.670651
 51
0.006774
  0
ELLIPSE
  5
8F
330
7B
100
AcDbEntity
  8
0
  6
Continuous
 62
     0
370
     0
100
AcDbEllipse
 10
75.494063
 20
826.418433
 30
0.0
 11
0.5102040861623904
 21
-0.8600533648926791
 31
0.0
210
0.0
220
0.0
230
-1.0
 40
0.01016
 41
1.576823516439776
 42
3.141592645552677
  0
LINE
  5
90
330
7B
100
AcDbEntity
  8
0
  6
Continuous
 62
     0
370
     0
100
AcDbLine
 10
92.432838
 20
831.578753
 30
0.0
 11
91.440973
 21
831.578753
 31
0.0
  0
LINE
  5
91
330
7B
100
AcDbEntity
  8
0
  6
Continuous
 62
     0
370
     0
100
AcDbLine
 10
77.432838
 20
831.578753
 30
0.0
 11
78.424703
 21
831.578753
 31
0.0
  0
LINE
  5
92
330
7B
100
AcDbEntity
  8
0
  6
Continuous
 62
     0
370
    30
100
AcDbLine
 10
88.884921
 20
719.840165
 30
0.0
 11
80.984921
 21
719.840165
 31
0.0
  0
CIRCLE
  5
93
330
7B
100
AcDbEntity
  8
0
  6
Continuous
 62
     0
370
    30
100
AcDbCircle
 10
84.934921
 20
690.510165
 30
0.0
 40
21.99999999553032
  0
LINE
  5
94
330
7B
100
AcDbEntity
  8
0
  6
Continuous
 62
     0
370
    30
100
AcDbLine
 10
88.384921
 20
720.340165
 30
0.0
 11
81.484921
 21
720.340165
 31
0.0
  0
CIRCLE
  5
95
330
7B
100
AcDbEntity
  8
0
  6
Continuous
 62
     0
370
    30
100
AcDbCircle
 10
84.934921
 20
690.510165
 30
0.0
 40
21.49999999542638
  0
LINE
  5
96
330
7B
100
AcDbEntity
  8
0
  6
Continuous
 62
     0
370
    30
100
AcDbLine
 10
80.984921
 20
719.840165
 30
0.0
 11
80.984921
 21
712.152782
 31
0.0
  0
LINE
  5
97
330
7B
100
AcDbEntity
  8
0
  6
Continuous
 62
     0
370
    30
100
AcDbLine
 10
88.884921
 20
719.840165
 30
0.0
 11
88.884921
 21
712.152852
 31
0.0
  0
LINE
  5
98
330
7B
100
AcDbEntity
  8
0
  6
Continuous
 62
     0
370
    30
100
AcDbLine
 10
81.484921
 20
720.340165
 30
0.0
 11
80.984921
 21
719.840165
 31
0.0
  0
LINE
  5
99
330
7B
100
AcDbEntity
  8
0
  6
Continuous
 62
     0
370
    30
100
AcDbLine
 10
88.384921
 20
720.340165
 30
0.0
 11
88.884921
 21
719.840165
 31
0.0
  0
LINE
  5
9A
330
7B
100
AcDbEntity
  8
0
  6
Continuous
 62
     0
370
    30
100
AcDbLine
 10
92.432838
 20
951.507446
 30
0.0
 11
92.432838
 21
931.578753
 31
0.0
  0
LINE
  5
9B
330
7B
100
AcDbEntity
  8
0
  6
Continuous
 62
     0
370
    30
100
AcDbLine
 10
78.432838
 20
952.507456
 30
0.0
 11
91.432838
 21
952.507456
 31
0.0
  0
ARC
  5
9C
330
7B
100
AcDbEntity
  8
0
  6
Continuous
 62
     0
370
    30
100
AcDbCircle
 10
91.432838
 20
951.507446
 30
0.0
 40
1.0
100
AcDbArc
 50
0.0
 51
90.0
  0
ELLIPSE
  5
9D
330
7B
100
AcDbEntity
  8
0
  6
Continuous
 62
     0
370
     0
100
AcDbEllipse
 10
91.432838
 20
951.507446
 30
0.0
 11
-5.455482895975850E-9
 21
1.0
 31
0.0
210
0.0
220
0.0
230
-1.0
 40
0.008135
 41
0.0000000131552246
 42
1.570796339950099
  0
LINE
  5
9E
330
7B
100
AcDbEntity
  8
0
  6
Continuous
 62
     0
370
     0
100
AcDbLine
 10
91.440973
 20
951.507446
 30
0.0
 11
92.432838
 21
951.507446
 31
0.0
  0
LINE
  5
9F
330
7B
100
AcDbEntity
  8
0
  6
Continuous
 62
     0
370
     0
100
AcDbLine
 10
91.440973
 20
931.578753
 30
0.0
 11
91.440973
 21
951.507446
 31
0.0
  0
LINE
  5
A0
330
7B
100
AcDbEntity
  8
0
  6
Continuous
 62
     0
370
     0
100
AcDbLine
 10
92.432838
 20
931.578753
 30
0.0
 11
91.440973
 21
931.578753
 31
0.0
  0
ELLIPSE
  5
A1
330
7B
100
AcDbEntity
  8
0
  6
Continuous
 62
     0
370
     0
100
AcDbEllipse
 10
78.432838
 20
951.507446
 30
0.0
 11
-5.241441790529604E-9
 21
1.0
 31
0.0
210
0.0
220
0.0
230
1.0
 40
0.008135
 41
0.0000000131553666
 42
1.570796339950105
  0
LINE
  5
A2
330
7B
100
AcDbEntity
  8
0
  6
Continuous
 62
     0
370
     0
100
AcDbLine
 10
78.424703
 20
951.507456
 30
0.0
 11
91.440973
 21
951.507456
 31
0.0
  0
SPLINE
  5
A3
330
7B
100
AcDbEntity
  8
0
  6
Continuous
 62
     0
370
     0
100
AcDbSpline
210
0.0
220
0.0
230
1.0
 70
     8
 71
     3
 72
    35
 73
    31
 74
     0
 42
0.000000001
 43
0.0
 40
0.0
 40
0.0
 40
0.0
 40
0.0
 40
3.441841583726254
 40
6.882852512287559
 40
10.32313745608454
 40
13.76274326813164
 40
17.20191509642663
 40
20.64091833849005
 40
24.08005407847499
 40
27.51961152377159
 40
30.95977415881267
 40
34.40069259768724
 40
37.8424409908414
 40
41.28489904790866
 40
44.72789785151545
 40
48.17118409310793
 40
51.61446761388596
 40
55.0574612048395
 40
58.49991683290024
 40
61.94165561409899
 40
65.38259805037588
 40
68.8227877374384
 40
72.26234447888223
 40
75.70149456209352
 40
79.1405112156677
 40
82.57969419747484
 40
86.0193194231972
 40
89.45958122423195
 40
92.9005783462042
 40
96.34243528771586
 40
96.34243528771586
 40
96.34243528771586
 40
96.34243528771586
 10
75.48224933928016
 20
926.4184329869764
 30
0.0
 10
74.49525682055206
 20
925.8336574636426
 30
0.0
 10
72.6261185286719
 20
924.4766371287731
 30
0.0
 10
70.25042518068207
 20
921.9614423388206
 30
0.0
 10
68.38152856924697
 20
919.0492239512155
 30
0.0
 10
67.08453348834112
 20
915.8420935947227
 30
0.0
 10
66.40431010114989
 20
912.450410177983
 30
0.0
 10
66.36436045160039
 20
908.9915561493194
 30
0.0
 10
66.96616140298215
 20
905.5851306252042
 30
0.0
 10
68.18870603305263
 20
902.3488463412293
 30
0.0
 10
69.9901755308243
 20
899.3948555498492
 30
0.0
 10
72.3073666432598
 20
896.824537398081
 30
0.0
 10
75.06103381866092
 20
894.7272117839323
 30
0.0
 10
78.15575318044779
 20
893.1750505435555
 30
0.0
 10
81.4847048731833
 20
892.221754398146
 30
0.0
 10
84.93283921013587
 20
891.9002898707918
 30
0.0
 10
88.38097099162808
 20
892.2217634063493
 30
0.0
 10
91.70991841047062
 20
893.1750487321543
 30
0.0
 10
94.80465319142154
 20
894.727181486338
 30
0.0
 10
97.55829142020205
 20
896.8245248935991
 30
0.0
 10
99.87570122067729
 20
899.3946839839523
 30
0.0
 10
101.6769283847387
 20
902.3488518017248
 30
0.0
 10
102.8995752116719
 20
905.5850936265573
 30
0.0
 10
103.5013632828136
 20
908.9915391294335
 30
0.0
 10
103.4614351292174
 20
912.4504065504761
 30
0.0
 10
102.7811809510138
 20
915.8420925045532
 30
0.0
 10
101.4841940451968
 20
919.0492561939899
 30
0.0
 10
99.61500002614689
 20
921.9612397430169
 30
0.0
 10
97.23972321124279
 20
924.476815478289
 30
0.0
 10
95.37042376073016
 20
925.8336549659753
 30
0.0
 10
94.38342683155366
 20
926.4184330880687
 30
0.0
  0
ARC
  5
A4
330
7B
100
AcDbEntity
  8
0
  6
Continuous
 62
     0
370
     0
100
AcDbCircle
 10
97.438684
 20
931.579629
 30
0.0
 40
5.9977108694234
100
AcDbArc
 50
180.008362
 51
239.375869
  0
LINE
  5
A5
330
7B
100
AcDbEntity
  8
0
  6
Continuous
 62
     0
370
     0
100
AcDbLine
 10
78.424703
 20
951.507446
 30
0.0
 11
78.424703
 21
931.578753
 31
0.0
  0
ARC
  5
A6
330
7B
100
AcDbEntity
  8
0
  6
Continuous
 62
     0
370
     0
100
AcDbCircle
 10
72.426992
 20
931.579628
 30
0.0
 40
5.99771077929385
100
AcDbArc
 50
300.624131
 51
359.991639
  0
LINE
  5
A7
330
7B
100
AcDbEntity
  8
0
  6
Continuous
 62
     0
370
     0
100
AcDbLine
 10
78.424703
 20
951.507446
 30
0.0
 11
77.432838
 21
951.507446
 31
0.0
  0
LINE
  5
A8
330
7B
100
AcDbEntity
  8
0
  6
Continuous
 62
     0
370
    30
100
AcDbLine
 10
77.432838
 20
951.507446
 30
0.0
 11
77.432838
 21
931.578753
 31
0.0
  0
LINE
  5
A9
330
7B
100
AcDbEntity
  8
0
  6
Continuous
 62
     0
370
     0
100
AcDbLine
 10
77.432838
 20
931.578753
 30
0.0
 11
78.424703
 21
931.578753
 31
0.0
  0
ARC
  5
AA
330
7B
100
AcDbEntity
  8
0
  6
Continuous
 62
     0
370
    30
100
AcDbCircle
 10
78.432838
 20
951.507446
 30
0.0
 40
1.0
100
AcDbArc
 50
90.0
 51
180.0
  0
ARC
  5
AB
330
7B
100
AcDbEntity
  8
0
  6
Continuous
 62
     0
370
    30
100
AcDbCircle
 10
84.932838
 20
910.507446
 30
0.0
 40
19.50000000033902
100
AcDbArc
 50
120.677425
 51
59.322576
  0
ARC
  5
AC
330
7B
100
AcDbEntity
  8
0
  6
Continuous
 62
     0
370
    30
100
AcDbCircle
 10
97.4318
 20
931.578162
 30
0.0
 40
4.998962280325063
100
AcDbArc
 50
179.993227
 51
239.32935
  0
ELLIPSE
  5
AD
330
7B
100
AcDbEntity
  8
0
  6
Continuous
 62
     0
370
     0
100
AcDbEllipse
 10
94.371614
 20
926.418433
 30
0.0
 11
0.5102040769052009
 21
0.8600533703843072
 31
0.0
210
0.0
220
0.0
230
-1.0
 40
0.01016
 41
0.0000000145920331
 42
1.564769143704869
  0
ARC
  5
AE
330
7B
100
AcDbEntity
  8
0
  6
Continuous
 62
     0
370
    30
100
AcDbCircle
 10
72.433876
 20
931.578162
 30
0.0
 40
4.998962282316047
100
AcDbArc
 50
300.670651
 51
0.006774
  0
ELLIPSE
  5
AF
330
7B
100
AcDbEntity
  8
0
  6
Continuous
 62
     0
370
     0
100
AcDbEllipse
 10
75.494063
 20
926.418433
 30
0.0
 11
0.5102040861623904
 21
-0.8600533648926791
 31
0.0
210
0.0
220
0.0
230
-1.0
 40
0.01016
 41
1.576823516439776
 42
3.141592645552502
  0
LINE
  5
B0
330
7B
100
AcDbEntity
  8
0
  6
Continuous
 62
     0
370
    30
100
AcDbLine
 10
77.856795
 20
622.009959
 30
0.0
 11
77.856795
 21
622.323118
 31
0.0
  0
LINE
  5
B1
330
7B
100
AcDbEntity
  8
0
  6
Continuous
 62
     0
370
    30
100
AcDbLine
 10
77.856795
 20
622.323118
 30
0.0
 11
76.335027
 21
622.323118
 31
0.0
  0
LINE
  5
B2
330
7B
100
AcDbEntity
  8
0
  6
Continuous
 62
     0
370
    30
100
AcDbLine
 10
76.335027
 20
622.323118
 30
0.0
 11
77.831784
 21
624.225225
 31
0.0
  0
LINE
  5
B3
330
7B
100
AcDbEntity
  8
0
  6
Continuous
 62
     0
370
    30
100
AcDbLine
 10
77.831784
 20
624.225225
 30
0.0
 11
77.831784
 21
624.577245
 31
0.0
  0
LINE
  5
B4
330
7B
100
AcDbEntity
  8
0
  6
Continuous
 62
     0
370
    30
100
AcDbLine
 10
77.831784
 20
624.577245
 30
0.0
 11
75.96523
 21
624.577245
 31
0.0
  0
LINE
  5
B5
330
7B
100
AcDbEntity
  8
0
  6
Continuous
 62
     0
370
    30
100
AcDbLine
 10
75.96523
 20
624.577245
 30
0.0
 11
75.96523
 21
624.264293
 31
0.0
  0
LINE
  5
B6
330
7B
100
AcDbEntity
  8
0
  6
Continuous
 62
     0
370
    30
100
AcDbLine
 10
75.96523
 20
624.264293
 30
0.0
 11
77.40876
 21
624.264293
 31
0.0
  0
LINE
  5
B7
330
7B
100
AcDbEntity
  8
0
  6
Continuous
 62
     0
370
    30
100
AcDbLine
 10
77.40876
 20
624.264293
 30
0.0
 11
75.926163
 21
622.365699
 31
0.0
  0
LINE
  5
B8
330
7B
100
AcDbEntity
  8
0
  6
Continuous
 62
     0
370
    30
100
AcDbLine
 10
75.926163
 20
622.365699
 30
0.0
 11
75.926163
 21
622.009959
 31
0.0
  0
LINE
  5
B9
330
7B
100
AcDbEntity
  8
0
  6
Continuous
 62
     0
370
    30
100
AcDbLine
 10
75.926163
 20
622.009959
 30
0.0
 11
77.856795
 21
622.009959
 31
0.0
  0
LINE
  5
BA
330
7B
100
AcDbEntity
  8
0
  6
Continuous
 62
     0
370
    30
100
AcDbLine
 10
79.844097
 20
624.577608
 30
0.0
 11
79.844097
 21
623.002509
 31
0.0
  0
SPLINE
  5
BB
330
7B
100
AcDbEntity
  8
0
  6
Continuous
 62
     0
370
    30
100
AcDbSpline
210
0.0
220
0.0
230
1.0
 70
     8
 71
     3
 72
    20
 73
    16
 74
     0
 42
0.000000001
 43
0.0
 40
0.0
 40
0.0
 40
0.0
 40
0.0
 40
0.0985802499584069
 40
0.2261161742997129
 40
0.3704554942159255
 40
0.5254193994100029
 40
0.6950552896762044
 40
0.8962342041647584
 40
1.154760334890605
 40
1.234881342654465
 40
1.321432158153583
 40
1.412617215381652
 40
1.604984726032942
 40
1.707644108006212
 40
1.817264505986698
 40
1.817264505986698
 40
1.817264505986698
 40
1.817264505986698
 10
79.84409736325648
 20
623.0025094682576
 30
0.0
 10
79.84409736325648
 20
622.9696493849382
 30
0.0
 10
79.84333720161987
 20
622.8942457125181
 30
0.0
 10
79.8303825679987
 20
622.7711249912261
 30
0.0
 10
79.79374657712012
 20
622.6327731760989
 30
0.0
 10
79.71890260373435
 20
622.4932238263655
 30
0.0
 10
79.58873810815052
 20
622.370529385121
 30
0.0
 10
79.39151918619358
 20
622.2880817545955
 30
0.0
 10
79.2101829605241
 20
622.270985072561
 30
0.0
 10
79.06854154175221
 20
622.275464461375
 30
0.0
 10
78.98297630016661
 20
622.2851679806341
 30
0.0
 10
78.86225121670617
 20
622.3110398073795
 30
0.0
 10
78.74160231338402
 20
622.3619746957368
 30
0.0
 10
78.63379822583153
 20
622.4440748631507
 30
0.0
 10
78.58607155540264
 20
622.4970066914689
 30
0.0
 10
78.56417464422844
 20
622.5262591542003
 30
0.0
  0
SPLINE
  5
BC
330
7B
100
AcDbEntity
  8
0
  6
Continuous
 62
     0
370
    30
100
AcDbSpline
210
0.0
220
0.0
230
1.0
 70
     8
 71
     3
 72
    10
 73
     6
 74
     0
 42
0.000000001
 43
0.0
 40
0.0
 40
0.0
 40
0.0
 40
0.0
 40
0.1063055637575288
 40
0.257625326065793
 40
0.4834268713521042
 40
0.4834268713521042
 40
0.4834268713521042
 40
0.4834268713521042
 10
78.56417464422844
 20
622.5262591542003
 30
0.0
 10
78.54350657312759
 20
622.55504254142
 30
0.0
 10
78.4995989139878
 20
622.6297601709612
 30
0.0
 10
78.45718301888913
 20
622.7870033007382
 30
0.0
 10
78.45027971235098
 20
622.9131862876433
 30
0.0
 10
78.45027971235099
 20
622.9884534694054
 30
0.0
  0
LINE
  5
BD
330
7B
100
AcDbEntity
  8
0
  6
Continuous
 62
     0
370
    30
100
AcDbLine
 10
78.45028
 20
622.988453
 30
0.0
 11
78.45028
 21
624.577608
 31
0.0
  0
LINE
  5
BE
330
7B
100
AcDbEntity
  8
0
  6
Continuous
 62
     0
370
    30
100
AcDbLine
 10
78.45028
 20
624.577608
 30
0.0
 11
78.094849
 21
624.577608
 31
0.0
  0
LINE
  5
BF
330
7B
100
AcDbEntity
  8
0
  6
Continuous
 62
     0
370
    30
100
AcDbLine
 10
78.094849
 20
624.577608
 30
0.0
 11
78.094849
 21
623.013258
 31
0.0
  0
SPLINE
  5
C0
330
7B
100
AcDbEntity
  8
0
  6
Continuous
 62
     0
370
    30
100
AcDbSpline
210
0.0
220
0.0
230
1.0
 70
     8
 71
     3
 72
    14
 73
    10
 74
     0
 42
0.000000001
 43
0.0
 40
0.0
 40
0.0
 40
0.0
 40
0.0
 40
0.1508594322469493
 40
0.2769465215427925
 40
0.3822979674458142
 40
0.4709669259270551
 40
0.5469207751738884
 40
0.6138622682598172
 40
0.6750268464730154
 40
0.6750268464730154
 40
0.6750268464730154
 40
0.6750268464730154
 10
78.09484897666474
 20
623.0132581732621
 30
0.0
 10
78.09484897666474
 20
622.9629716958465
 30
0.0
 10
78.09704222011254
 20
622.8706217689887
 30
0.0
 10
78.10833913261489
 20
622.7435838246433
 30
0.0
 10
78.12627438491066
 20
622.638260302669
 30
0.0
 10
78.14982597977486
 20
622.551242614283
 30
0.0
 10
78.17794133574553
 20
622.4791881014189
 30
0.0
 10
78.20946850756928
 20
622.4187816700996
 30
0.0
 10
78.23264993851842
 20
622.3828672822999
 30
0.0
 10
78.24419396447098
 20
622.3660621084562
 30
0.0
  0
SPLINE
  5
C1
330
7B
100
AcDbEntity
  8
0
  6
Continuous
 62
     0
370
    30
100
AcDbSpline
210
0.0
220
0.0
230
1.0
 70
     8
 71
     3
 72
    16
 73
    12
 74
     0
 42
0.000000001
 43
0.0
 40
0.0
 40
0.0
 40
0.0
 40
0.0
 40
0.1720980561970475
 40
0.3355330557108159
 40
0.6437127996714684
 40
0.9175194989370736
 40
1.122211209971654
 40
1.358461465653041
 40
1.641108561204671
 40
1.796118124290744
 40
1.962197589856771
 40
1.962197589856771
 40
1.962197589856771
 40
1.962197589856771
 10
78.24419396447098
 20
622.3660621084562
 30
0.0
 10
78.2770262069831
 20
622.319020595334
 30
0.0
 10
78.3508704862088
 20
622.2337191337305
 30
0.0
 10
78.52166870491611
 20
622.1019828151589
 30
0.0
 10
78.75376153433326
 20
622.0029338209276
 30
0.0
 10
79.0134798206462
 20
621.9573775416247
 30
0.0
 10
79.25254211945449
 20
621.9549959941435
 30
0.0
 10
79.49207824529691
 20
621.9921355277955
 30
0.0
 10
79.70413058656908
 20
622.075470703829
 30
0.0
 10
79.86945575535019
 20
622.1918397604327
 30
0.0
 10
79.94453125343622
 20
622.2692661851834
 30
0.0
 10
79.97907629341313
 20
622.3125252892985
 30
0.0
  0
SPLINE
  5
C2
330
7B
100
AcDbEntity
  8
0
  6
Continuous
 62
     0
370
    30
100
AcDbSpline
210
0.0
220
0.0
230
1.0
 70
     8
 71
     3
 72
    14
 73
    10
 74
     0
 42
0.000000001
 43
0.0
 40
0.0
 40
0.0
 40
0.0
 40
0.0
 40
0.1350863586482201
 40
0.2599474943214963
 40
0.3756672015374965
 40
0.4820781664013626
 40
0.5779572254626734
 40
0.6612539844996099
 40
0.7293112773412922
 40
0.7293112773412922
 40
0.7293112773412922
 40
0.7293112773412922
 10
79.97907629341313
 20
622.3125252892985
 30
0.0
 10
80.00731751000448
 20
622.347597005446
 30
0.0
 10
80.05672152202126
 20
622.4192615924288
 30
0.0
 10
80.11220717090526
 20
622.5319427113113
 30
0.0
 10
80.14950490683782
 20
622.6417310455786
 30
0.0
 10
80.17228515944234
 20
622.7454424618946
 30
0.0
 10
80.18415382376068
 20
622.8400001712506
 30
0.0
 10
80.18864031424252
 20
622.9223380480073
 30
0.0
 10
80.18898609980401
 20
622.9727957045509
 30
0.0
 10
80.18898609980401
 20
622.9954814688315
 30
0.0
  0
LINE
  5
C3
330
7B
100
AcDbEntity
  8
0
  6
Continuous
 62
     0
370
    30
100
AcDbLine
 10
80.188986
 20
622.995481
 30
0.0
 11
80.188986
 21
624.577608
 31
0.0
  0
LINE
  5
C4
330
7B
100
AcDbEntity
  8
0
  6
Continuous
 62
     0
370
    30
100
AcDbLine
 10
80.188986
 20
624.577608
 30
0.0
 11
79.844097
 21
624.577608
 31
0.0
  0
LINE
  5
C5
330
7B
100
AcDbEntity
  8
0
  6
Continuous
 62
     0
370
    30
100
AcDbLine
 10
82.094538
 20
623.883882
 30
0.0
 11
82.474877
 21
623.883882
 31
0.0
  0
SPLINE
  5
C6
330
7B
100
AcDbEntity
  8
0
  6
Continuous
 62
     0
370
    30
100
AcDbSpline
210
0.0
220
0.0
230
1.0
 70
     8
 71
     3
 72
    34
 73
    30
 74
     0
 42
0.000000001
 43
0.0
 40
0.0
 40
0.0
 40
0.0
 40
0.0
 40
0.2287597908212498
 40
0.4273049203183272
 40
0.6115138486215324
 40
0.7910936764686571
 40
1.141136945726614
 40
1.304169985160942
 40
1.657197080711815
 40
1.957477171888018
 40
2.234252382997633
 40
2.505278170316037
 40
2.775098764739949
 40
3.038345096562272
 40
3.283614222187773
 40
3.512282735173422
 40
3.761849059225923
 40
4.019975439354607
 40
4.280543110084613
 40
4.547784551206838
 40
4.839845586741857
 40
5.186848012762161
 40
5.376503596134854
 40
5.565440562493808
 40
5.751059894796708
 40
5.932883240972905
 40
6.11370144565737
 40
6.300537049451767
 40
6.504515650177739
 40
6.504515650177739
 40
6.504515650177739
 40
6.504515650177739
 10
82.47487697609054
 20
623.8838820653516
 30
0.0
 10
82.46885451345413
 20
623.9598971306646
 30
0.0
 10
82.44161139173805
 20
624.1017731106831
 30
0.0
 10
82.34603596015579
 20
624.2851160900655
 30
0.0
 10
82.213137145759
 20
624.4207861359122
 30
0.0
 10
82.00766401772903
 20
624.5444073912656
 30
0.0
 10
81.7792036367563
 20
624.6027365709001
 30
0.0
 10
81.49108299897915
 20
624.6193484316832
 30
0.0
 10
81.21664301242828
 20
624.5878150360807
 30
0.0
 10
80.92939613450785
 20
624.4575977793213
 30
0.0
 10
80.71948586819255
 20
624.2617222705094
 30
0.0
 10
80.57659864266978
 20
624.0266090040184
 30
0.0
 10
80.48722650908113
 20
623.772398962299
 30
0.0
 10
80.44031472836254
 20
623.5163984947737
 30
0.0
 10
80.42620469030581
 20
623.2705365646128
 30
0.0
 10
80.43896999670832
 20
623.0292638741357
 30
0.0
 10
80.48051616535452
 20
622.7866237559679
 30
0.0
 10
80.56224818421053
 20
622.5425187144444
 30
0.0
 10
80.69622836401074
 20
622.3144454716737
 30
0.0
 10
80.8973296507645
 20
622.1228959673206
 30
0.0
 10
81.17713050581865
 20
621.9951182656093
 30
0.0
 10
81.45556309307958
 20
621.963523867414
 30
0.0
 10
81.69732751060816
 20
621.979521499098
 30
0.0
 10
81.88199251853487
 20
622.0191729528642
 30
0.0
 10
82.05547117353252
 20
622.0873895091845
 30
0.0
 10
82.21055627206638
 20
622.1866664782975
 30
0.0
 10
82.3391156100802
 20
622.3198725278445
 30
0.0
 10
82.43152773835746
 20
622.4891786299077
 30
0.0
 10
82.46069152311986
 20
622.6179930701278
 30
0.0
 10
82.46784897666421
 20
622.6856081631856
 30
0.0
  0
LINE
  5
C7
330
7B
100
AcDbEntity
  8
0
  6
Continuous
 62
     0
370
    30
100
AcDbLine
 10
82.467849
 20
622.685608
 30
0.0
 11
82.076761
 21
622.685608
 31
0.0
  0
SPLINE
  5
C8
330
7B
100
AcDbEntity
  8
0
  6
Continuous
 62
     0
370
    30
100
AcDbSpline
210
0.0
220
0.0
230
1.0
 70
     8
 71
     3
 72
    10
 73
     6
 74
     0
 42
0.000000001
 43
0.0
 40
0.0
 40
0.0
 40
0.0
 40
0.0
 40
0.0765300141122539
 40
0.1780463896689397
 40
0.301438273261826
 40
0.301438273261826
 40
0.301438273261826
 40
0.301438273261826
 10
82.07676147918338
 20
622.6856081631856
 30
0.0
 10
82.07228896709316
 20
622.6604932876015
 30
0.0
 10
82.06032897833474
 20
622.6022488257823
 30
0.0
 10
82.02399271067875
 20
622.5078317171772
 30
0.0
 10
81.98020617744172
 20
622.4455860806377
 30
0.0
 10
81.95222119523392
 20
622.4154435970083
 30
0.0
  0
SPLINE
  5
C9
330
7B
100
AcDbEntity
  8
0
  6
Continuous
 62
     0
370
    30
100
AcDbSpline
210
0.0
220
0.0
230
1.0
 70
     8
 71
     3
 72
    33
 73
    29
 74
     0
 42
0.000000001
 43
0.0
 40
0.0
 40
0.0
 40
0.0
 40
0.0
 40
0.1306537800052341
 40
0.2581966716604669
 40
0.3881871851662488
 40
0.4546944769091542
 40
0.6816244822014613
 40
0.876371178174119
 40
1.060422926622606
 40
1.248308546162653
 40
1.445580647173879
 40
1.650976994019703
 40
1.859151400398547
 40
2.052407825186342
 40
2.258008685772069
 40
2.465168329214269
 40
2.667129455065428
 40
2.864572477587801
 40
3.06994148018529
 40
3.307898940208465
 40
3.407235802777541
 40
3.494877004289807
 40
3.642573679741455
 40
3.765374026350231
 40
3.872401769342483
 40
3.96613103892133
 40
4.043247619435553
 40
4.096606172608654
 40
4.096606172608654
 40
4.096606172608654
 40
4.096606172608654
 10
81.95222119523392
 20
622.4154435970083
 30
0.0
 10
81.92191293720057
 20
622.3841686590752
 30
0.0
 10
81.85270462851219
 20
622.3306312297589
 30
0.0
 10
81.73135645266767
 20
622.2821726482812
 30
0.0
 10
81.62396737383992
 20
622.2649883113629
 30
0.0
 10
81.48295540784312
 20
622.2600714290006
 30
0.0
 10
81.31872122542718
 20
622.278811773197
 30
0.0
 10
81.13252218178455
 20
622.3665252180723
 30
0.0
 10
80.99654518796277
 20
622.5022806434527
 30
0.0
 10
80.9043433199065
 20
622.6702252221643
 30
0.0
 10
80.84671617575563
 20
622.8594692987106
 30
0.0
 10
80.81661814743089
 20
623.0613791611496
 30
0.0
 10
80.80835047966752
 20
623.2637590691733
 30
0.0
 10
80.81611050548617
 20
623.4661572447799
 30
0.0
 10
80.84296312563046
 20
623.6667848114878
 30
0.0
 10
80.89646694207298
 20
623.8654085992555
 30
0.0
 10
80.98477561728359
 20
624.0490915157455
 30
0.0
 10
81.11909226336496
 20
624.2038500826405
 30
0.0
 10
81.31080466026174
 20
624.3087852775823
 30
0.0
 10
81.49378524260133
 20
624.3323869991165
 30
0.0
 10
81.63533856252857
 20
624.3252617622273
 30
0.0
 10
81.74560768653389
 20
624.3070683297894
 30
0.0
 10
81.85937098534053
 20
624.2656791192305
 30
0.0
 10
81.96130011903053
 20
624.1888292244145
 30
0.0
 10
82.02682751303094
 20
624.101692603341
 30
0.0
 10
82.06500972810682
 20
624.016710737401
 30
0.0
 10
82.08469620564338
 20
623.9443842227961
 30
0.0
 10
82.09169382292669
 20
623.9014393421185
 30
0.0
 10
82.09453818361519
 20
623.8838820653516
 30
0.0
  0
SPLINE
  5
CA
330
7B
100
AcDbEntity
  8
0
  6
Continuous
 62
     0
370
    30
100
AcDbSpline
210
0.0
220
0.0
230
1.0
 70
     8
 71
     3
 72
    34
 73
    30
 74
     0
 42
0.000000001
 43
0.0
 40
0.0
 40
0.0
 40
0.0
 40
0.0
 40
0.2287597908215512
 40
0.4273049203188516
 40
0.6115138486222559
 40
0.791093676469091
 40
1.141136945726547
 40
1.304169985160707
 40
1.657197080711972
 40
1.957477171888246
 40
2.234252382997656
 40
2.505278170316032
 40
2.775098764739721
 40
3.038345096562199
 40
3.283614222187929
 40
3.512282735173263
 40
3.76184905922553
 40
4.01997543935405
 40
4.280543110083956
 40
4.547784551206316
 40
4.839845586741132
 40
5.186848012761264
 40
5.376503596133636
 40
5.565440562492552
 40
5.751059894795241
 40
5.932883240971281
 40
6.113701445656161
 40
6.3005370494507
 40
6.504515650176993
 40
6.504515650176993
 40
6.504515650176993
 40
6.504515650176993
 10
84.70409638231875
 20
623.8838820653298
 30
0.0
 10
84.69807391968234
 20
623.9598971306428
 30
0.0
 10
84.67083079796625
 20
624.1017731106616
 30
0.0
 10
84.57525536638347
 20
624.285116090044
 30
0.0
 10
84.44235655198662
 20
624.4207861358906
 30
0.0
 10
84.23688342395688
 20
624.5444073912442
 30
0.0
 10
84.00842304298439
 20
624.6027365708783
 30
0.0
 10
83.72030240520735
 20
624.6193484316614
 30
0.0
 10
83.44586241865645
 20
624.5878150360586
 30
0.0
 10
83.15861554073568
 20
624.4575977792998
 30
0.0
 10
82.94870527442067
 20
624.2617222704878
 30
0.0
 10
82.80581804889752
 20
624.0266090039971
 30
0.0
 10
82.7164459153096
 20
623.7723989622774
 30
0.0
 10
82.669534134591
 20
623.5163984947521
 30
0.0
 10
82.65542409653423
 20
623.2705365645911
 30
0.0
 10
82.66818940293672
 20
623.0292638741143
 30
0.0
 10
82.70973557158275
 20
622.7866237559465
 30
0.0
 10
82.79146759043911
 20
622.5425187144235
 30
0.0
 10
82.92544777023907
 20
622.3144454716526
 30
0.0
 10
83.12654905699306
 20
622.1228959672999
 30
0.0
 10
83.40634991204702
 20
621.9951182655884
 30
0.0
 10
83.68478249930774
 20
621.9635238673933
 30
0.0
 10
83.92654691683614
 20
621.979521499077
 30
0.0
 10
84.11121192476269
 20
622.0191729528432
 30
0.0
 10
84.28469057976028
 20
622.0873895091631
 30
0.0
 10
84.43977567829404
 20
622.1866664782764
 30
0.0
 10
84.56833501630841
 20
622.319872527823
 30
0.0
 10
84.66074714458554
 20
622.4891786298867
 30
0.0
 10
84.68991092934807
 20
622.6179930701069
 30
0.0
 10
84.69706838289265
 20
622.6856081631648
 30
0.0
  0
LINE
  5
CB
330
7B
100
AcDbEntity
  8
0
  6
Continuous
 62
     0
370
    30
100
AcDbLine
 10
84.697068
 20
622.685608
 30
0.0
 11
84.305981
 21
622.685608
 31
0.0
  0
SPLINE
  5
CC
330
7B
100
AcDbEntity
  8
0
  6
Continuous
 62
     0
370
    30
100
AcDbSpline
210
0.0
220
0.0
230
1.0
 70
     8
 71
     3
 72
    10
 73
     6
 74
     0
 42
0.000000001
 43
0.0
 40
0.0
 40
0.0
 40
0.0
 40
0.0
 40
0.0765300141122692
 40
0.1780463896690126
 40
0.3014382732618743
 40
0.3014382732618743
 40
0.3014382732618743
 40
0.3014382732618743
 10
84.30598088541196
 20
622.6856081631647
 30
0.0
 10
84.30150837332171
 20
622.6604932875807
 30
0.0
 10
84.28954838456323
 20
622.6022488257614
 30
0.0
 10
84.25321211690716
 20
622.5078317171563
 30
0.0
 10
84.20942558367017
 20
622.4455860806167
 30
0.0
 10
84.18144060146238
 20
622.4154435969874
 30
0.0
  0
SPLINE
  5
CD
330
7B
100
AcDbEntity
  8
0
  6
Continuous
 62
     0
370
    30
100
AcDbSpline
210
0.0
220
0.0
230
1.0
 70
     8
 71
     3
 72
    33
 73
    29
 74
     0
 42
0.000000001
 43
0.0
 40
0.0
 40
0.0
 40
0.0
 40
0.0
 40
0.1306537800060091
 40
0.2581966716617574
 40
0.3881871851676701
 40
0.4546944769105329
 40
0.6816244822027069
 40
0.8763711781752095
 40
1.060422926623684
 40
1.248308546163728
 40
1.445580647174942
 40
1.650976994020634
 40
1.85915140039919
 40
2.052407825187326
 40
2.258008685773262
 40
2.465168329215519
 40
2.667129455066722
 40
2.864572477589088
 40
3.069941480186741
 40
3.307898940210308
 40
3.407235802779445
 40
3.494877004291752
 40
3.64257367974332
 40
3.76537402635195
 40
3.872401769344246
 40
3.966131038923172
 40
4.043247619437569
 40
4.096606172610914
 40
4.096606172610914
 40
4.096606172610914
 40
4.096606172610914
 10
84.18144060146238
 20
622.4154435969874
 30
0.0
 10
84.15113234342888
 20
622.384168659054
 30
0.0
 10
84.08192403474021
 20
622.3306312297374
 30
0.0
 10
83.9605758588953
 20
622.2821726482593
 30
0.0
 10
83.85318678006733
 20
622.2649883113411
 30
0.0
 10
83.71217481407056
 20
622.2600714289787
 30
0.0
 10
83.54794063165473
 20
622.2788117731753
 30
0.0
 10
83.36174158801225
 20
622.3665252180506
 30
0.0
 10
83.22576459419066
 20
622.5022806434312
 30
0.0
 10
83.13356272613458
 20
622.6702252221428
 30
0.0
 10
83.07593558198384
 20
622.8594692986892
 30
0.0
 10
83.04583755365921
 20
623.061379161128
 30
0.0
 10
83.03756988589598
 20
623.2637590691517
 30
0.0
 10
83.04532991171459
 20
623.4661572447584
 30
0.0
 10
83.07218253185881
 20
623.6667848114664
 30
0.0
 10
83.12568634830093
 20
623.8654085992343
 30
0.0
 10
83.21399502351146
 20
624.0490915157245
 30
0.0
 10
83.34831166959283
 20
624.2038500826197
 30
0.0
 10
83.54002406648983
 20
624.3087852775614
 30
0.0
 10
83.72300464882964
 20
624.3323869990957
 30
0.0
 10
83.86455796875704
 20
624.3252617622063
 30
0.0
 10
83.97482709276235
 20
624.3070683297684
 30
0.0
 10
84.08859039156894
 20
624.2656791192096
 30
0.0
 10
84.19051952525884
 20
624.1888292243934
 30
0.0
 10
84.25604691925908
 20
624.1016926033199
 30
0.0
 10
84.29422913433481
 20
624.0167107373798
 30
0.0
 10
84.31391561187112
 20
623.9443842227745
 30
0.0
 10
84.3209132291542
 20
623.9014393420966
 30
0.0
 10
84.32375758984249
 20
623.8838820653298
 30
0.0
  0
LINE
  5
CE
330
7B
100
AcDbEntity
  8
0
  6
Continuous
 62
     0
370
    30
100
AcDbLine
 10
84.323758
 20
623.883882
 30
0.0
 11
84.704096
 21
623.883882
 31
0.0
  0
LINE
  5
CF
330
7B
100
AcDbEntity
  8
0
  6
Continuous
 62
     0
370
    30
100
AcDbLine
 10
84.934921
 20
622.010165
 30
0.0
 11
85.290455
 21
622.010165
 31
0.0
  0
LINE
  5
D0
330
7B
100
AcDbEntity
  8
0
  6
Continuous
 62
     0
370
    30
100
AcDbLine
 10
85.290455
 20
622.010165
 30
0.0
 11
85.290455
 21
623.169372
 31
0.0
  0
LINE
  5
D1
330
7B
100
AcDbEntity
  8
0
  6
Continuous
 62
     0
370
    30
100
AcDbLine
 10
85.290455
 20
623.169372
 30
0.0
 11
86.51002
 21
623.169372
 31
0.0
  0
LINE
  5
D2
330
7B
100
AcDbEntity
  8
0
  6
Continuous
 62
     0
370
    30
100
AcDbLine
 10
86.51002
 20
623.169372
 30
0.0
 11
86.51002
 21
622.010165
 31
0.0
  0
LINE
  5
D3
330
7B
100
AcDbEntity
  8
0
  6
Continuous
 62
     0
370
    30
100
AcDbLine
 10
86.51002
 20
622.010165
 30
0.0
 11
86.86545
 21
622.010165
 31
0.0
  0
LINE
  5
D4
330
7B
100
AcDbEntity
  8
0
  6
Continuous
 62
     0
370
    30
100
AcDbLine
 10
86.86545
 20
622.010165
 30
0.0
 11
86.86545
 21
624.577245
 31
0.0
  0
LINE
  5
D5
330
7B
100
AcDbEntity
  8
0
  6
Continuous
 62
     0
370
    30
100
AcDbLine
 10
86.86545
 20
624.577245
 30
0.0
 11
86.51002
 21
624.577245
 31
0.0
  0
LINE
  5
D6
330
7B
100
AcDbEntity
  8
0
  6
Continuous
 62
     0
370
    30
100
AcDbLine
 10
86.51002
 20
624.577245
 30
0.0
 11
86.51002
 21
623.47509
 31
0.0
  0
LINE
  5
D7
330
7B
100
AcDbEntity
  8
0
  6
Continuous
 62
     0
370
    30
100
AcDbLine
 10
86.51002
 20
623.47509
 30
0.0
 11
85.290455
 21
623.47509
 31
0.0
  0
LINE
  5
D8
330
7B
100
AcDbEntity
  8
0
  6
Continuous
 62
     0
370
    30
100
AcDbLine
 10
85.290455
 20
623.47509
 30
0.0
 11
85.290455
 21
624.577245
 31
0.0
  0
LINE
  5
D9
330
7B
100
AcDbEntity
  8
0
  6
Continuous
 62
     0
370
    30
100
AcDbLine
 10
85.290455
 20
624.577245
 30
0.0
 11
84.934921
 21
624.577245
 31
0.0
  0
LINE
  5
DA
330
7B
100
AcDbEntity
  8
0
  6
Continuous
 62
     0
370
    30
100
AcDbLine
 10
84.934921
 20
624.577245
 30
0.0
 11
84.934921
 21
622.010165
 31
0.0
  0
LINE
  5
DB
330
7B
100
AcDbEntity
  8
0
  6
Continuous
 62
     0
370
    30
100
AcDbLine
 10
87.174786
 20
624.577245
 30
0.0
 11
87.174786
 21
622.010165
 31
0.0
  0
LINE
  5
DC
330
7B
100
AcDbEntity
  8
0
  6
Continuous
 62
     0
370
    30
100
AcDbLine
 10
87.174786
 20
622.010165
 30
0.0
 11
88.813756
 21
622.010165
 31
0.0
  0
LINE
  5
DD
330
7B
100
AcDbEntity
  8
0
  6
Continuous
 62
     0
370
    30
100
AcDbLine
 10
88.813756
 20
622.010165
 30
0.0
 11
88.813756
 21
622.323118
 31
0.0
  0
LINE
  5
DE
330
7B
100
AcDbEntity
  8
0
  6
Continuous
 62
     0
370
    30
100
AcDbLine
 10
88.813756
 20
622.323118
 30
0.0
 11
87.53032
 21
622.323118
 31
0.0
  0
LINE
  5
DF
330
7B
100
AcDbEntity
  8
0
  6
Continuous
 62
     0
370
    30
100
AcDbLine
 10
87.53032
 20
622.323118
 30
0.0
 11
87.53032
 21
623.169372
 31
0.0
  0
LINE
  5
E0
330
7B
100
AcDbEntity
  8
0
  6
Continuous
 62
     0
370
    30
100
AcDbLine
 10
87.53032
 20
623.169372
 30
0.0
 11
88.724976
 21
623.169372
 31
0.0
  0
LINE
  5
E1
330
7B
100
AcDbEntity
  8
0
  6
Continuous
 62
     0
370
    30
100
AcDbLine
 10
88.724976
 20
623.169372
 30
0.0
 11
88.724976
 21
623.47509
 31
0.0
  0
LINE
  5
E2
330
7B
100
AcDbEntity
  8
0
  6
Continuous
 62
     0
370
    30
100
AcDbLine
 10
88.724976
 20
623.47509
 30
0.0
 11
87.53032
 21
623.47509
 31
0.0
  0
LINE
  5
E3
330
7B
100
AcDbEntity
  8
0
  6
Continuous
 62
     0
370
    30
100
AcDbLine
 10
87.53032
 20
623.47509
 30
0.0
 11
87.53032
 21
624.264086
 31
0.0
  0
LINE
  5
E4
330
7B
100
AcDbEntity
  8
0
  6
Continuous
 62
     0
370
    30
100
AcDbLine
 10
87.53032
 20
624.264086
 30
0.0
 11
89.869713
 21
624.264086
 31
0.0
  0
LINE
  5
E5
330
7B
100
AcDbEntity
  8
0
  6
Continuous
 62
     0
370
    30
100
AcDbLine
 10
89.869713
 20
624.264086
 30
0.0
 11
89.869713
 21
622.010165
 31
0.0
  0
LINE
  5
E6
330
7B
100
AcDbEntity
  8
0
  6
Continuous
 62
     0
370
    30
100
AcDbLine
 10
89.869713
 20
622.010165
 30
0.0
 11
90.221527
 21
622.010165
 31
0.0
  0
LINE
  5
E7
330
7B
100
AcDbEntity
  8
0
  6
Continuous
 62
     0
370
    30
100
AcDbLine
 10
90.221527
 20
622.010165
 30
0.0
 11
90.221527
 21
624.264086
 31
0.0
  0
LINE
  5
E8
330
7B
100
AcDbEntity
  8
0
  6
Continuous
 62
     0
370
    30
100
AcDbLine
 10
90.221527
 20
624.264086
 30
0.0
 11
91.446569
 21
624.264086
 31
0.0
  0
LINE
  5
E9
330
7B
100
AcDbEntity
  8
0
  6
Continuous
 62
     0
370
    30
100
AcDbLine
 10
91.446569
 20
624.264086
 30
0.0
 11
91.446569
 21
622.010165
 31
0.0
  0
LINE
  5
EA
330
7B
100
AcDbEntity
  8
0
  6
Continuous
 62
     0
370
    30
100
AcDbLine
 10
91.446569
 20
622.010165
 30
0.0
 11
91.798486
 21
622.010165
 31
0.0
  0
LINE
  5
EB
330
7B
100
AcDbEntity
  8
0
  6
Continuous
 62
     0
370
    30
100
AcDbLine
 10
91.798486
 20
622.010165
 30
0.0
 11
91.798486
 21
624.264086
 31
0.0
  0
LINE
  5
EC
330
7B
100
AcDbEntity
  8
0
  6
Continuous
 62
     0
370
    30
100
AcDbLine
 10
91.798486
 20
624.264086
 30
0.0
 11
92.658899
 21
624.264086
 31
0.0
  0
LINE
  5
ED
330
7B
100
AcDbEntity
  8
0
  6
Continuous
 62
     0
370
    30
100
AcDbLine
 10
92.658899
 20
624.264086
 30
0.0
 11
92.658899
 21
624.577245
 31
0.0
  0
LINE
  5
EE
330
7B
100
AcDbEntity
  8
0
  6
Continuous
 62
     0
370
    30
100
AcDbLine
 10
92.658899
 20
624.577245
 30
0.0
 11
87.174786
 21
624.577245
 31
0.0
  0
LINE
  5
EF
330
7B
100
AcDbEntity
  8
0
  6
Continuous
 62
     0
370
    30
100
AcDbLine
 10
93.281084
 20
624.577245
 30
0.0
 11
92.925446
 21
624.577245
 31
0.0
  0
LINE
  5
F0
330
7B
100
AcDbEntity
  8
0
  6
Continuous
 62
     0
370
    30
100
AcDbLine
 10
92.925446
 20
624.577245
 30
0.0
 11
92.925446
 21
622.010165
 31
0.0
  0
LINE
  5
F1
330
7B
100
AcDbEntity
  8
0
  6
Continuous
 62
     0
370
    30
100
AcDbLine
 10
92.925446
 20
622.010165
 30
0.0
 11
93.281084
 21
622.010165
 31
0.0
  0
LINE
  5
F2
330
7B
100
AcDbEntity
  8
0
  6
Continuous
 62
     0
370
    30
100
AcDbLine
 10
93.281084
 20
622.010165
 30
0.0
 11
93.281084
 21
624.577245
 31
0.0
  0
LINE
  5
F3
330
7B
100
AcDbEntity
  8
0
  6
Continuous
 62
     0
370
    30
100
AcDbLine
 10
93.771084
 20
622.68568
 30
0.0
 11
93.771084
 21
622.010165
 31
0.0
  0
LINE
  5
F4
330
7B
100
AcDbEntity
  8
0
  6
Continuous
 62
     0
370
    30
100
AcDbLine
 10
93.771084
 20
622.010165
 30
0.0
 11
94.128375
 21
622.010165
 31
0.0
  0
LINE
  5
F5
330
7B
100
AcDbEntity
  8
0
  6
Continuous
 62
     0
370
    30
100
AcDbLine
 10
94.128375
 20
622.010165
 30
0.0
 11
94.128375
 21
622.68568
 31
0.0
  0
LINE
  5
F6
330
7B
100
AcDbEntity
  8
0
  6
Continuous
 62
     0
370
    30
100
AcDbLine
 10
94.128375
 20
622.68568
 30
0.0
 11
93.771084
 21
622.68568
 31
0.0
  0
LINE
  5
F7
330
7B
100
AcDbEntity
  8
0
  6
Continuous
 62
     0
370
    30
100
AcDbLine
 10
92.432838
 20
1051.510164
 30
0.0
 11
92.432838
 21
1031.581472
 31
0.0
  0
LINE
  5
F8
330
7B
100
AcDbEntity
  8
0
  6
Continuous
 62
     0
370
    30
100
AcDbLine
 10
78.432838
 20
1052.510175
 30
0.0
 11
91.432838
 21
1052.510175
 31
0.0
  0
ARC
  5
F9
330
7B
100
AcDbEntity
  8
0
  6
Continuous
 62
     0
370
    30
100
AcDbCircle
 10
91.432838
 20
1051.510164
 30
0.0
 40
1.0
100
AcDbArc
 50
0.0
 51
90.0
  0
ELLIPSE
  5
FA
330
7B
100
AcDbEntity
  8
0
  6
Continuous
 62
     0
370
     0
100
AcDbEllipse
 10
91.432838
 20
1051.510164
 30
0.0
 11
-5.455482895975850E-9
 21
1.0
 31
0.0
210
0.0
220
0.0
230
-1.0
 40
0.008135
 41
0.0000000131552246
 42
1.570796339950099
  0
LINE
  5
FB
330
7B
100
AcDbEntity
  8
0
  6
Continuous
 62
     0
370
     0
100
AcDbLine
 10
91.440973
 20
1051.510164
 30
0.0
 11
92.432838
 21
1051.510164
 31
0.0
  0
LINE
  5
FC
330
7B
100
AcDbEntity
  8
0
  6
Continuous
 62
     0
370
     0
100
AcDbLine
 10
91.440973
 20
1031.581472
 30
0.0
 11
91.440973
 21
1051.510164
 31
0.0
  0
LINE
  5
FD
330
7B
100
AcDbEntity
  8
0
  6
Continuous
 62
     0
370
     0
100
AcDbLine
 10
92.432838
 20
1031.581472
 30
0.0
 11
91.440973
 21
1031.581472
 31
0.0
  0
ELLIPSE
  5
FE
330
7B
100
AcDbEntity
  8
0
  6
Continuous
 62
     0
370
     0
100
AcDbEllipse
 10
78.432838
 20
1051.510164
 30
0.0
 11
-5.241441790529604E-9
 21
1.0
 31
0.0
210
0.0
220
0.0
230
1.0
 40
0.008135
 41
0.0000000131553666
 42
1.570796339950105
  0
LINE
  5
FF
330
7B
100
AcDbEntity
  8
0
  6
Continuous
 62
     0
370
     0
100
AcDbLine
 10
78.424703
 20
1051.510175
 30
0.0
 11
91.440973
 21
1051.510175
 31
0.0
  0
SPLINE
  5
100
330
7B
100
AcDbEntity
  8
0
  6
Continuous
 62
     0
370
     0
100
AcDbSpline
210
0.0
220
0.0
230
1.0
 70
     8
 71
     3
 72
    35
 73
    31
 74
     0
 42
0.000000001
 43
0.0
 40
0.0
 40
0.0
 40
0.0
 40
0.0
 40
3.441841583726212
 40
6.882852512287517
 40
10.32313745608452
 40
13.76274326813163
 40
17.20191509642661
 40
20.64091833848999
 40
24.08005407847496
 40
27.51961152377153
 40
30.95977415881266
 40
34.40069259768724
 40
37.8424409908414
 40
41.28489904790864
 40
44.72789785151543
 40
48.1711840931079
 40
51.61446761388594
 40
55.05746120483946
 40
58.49991683290023
 40
61.94165561409898
 40
65.38259805037585
 40
68.82278773743839
 40
72.2623444788822
 40
75.70149456209353
 40
79.14051121566767
 40
82.5796941974748
 40
86.01931942319719
 40
89.45958122423195
 40
92.90057834620418
 40
96.34243528771584
 40
96.34243528771584
 40
96.34243528771584
 40
96.34243528771584
 10
75.48224933928014
 20
1026.421151349424
 30
0.0
 10
74.49525682055206
 20
1025.83637582609
 30
0.0
 10
72.62611852867187
 20
1024.479355491221
 30
0.0
 10
70.25042518068204
 20
1021.964160701268
 30
0.0
 10
68.38152856924695
 20
1019.051942313663
 30
0.0
 10
67.0845334883411
 20
1015.84481195717
 30
0.0
 10
66.40431010114989
 20
1012.453128540431
 30
0.0
 10
66.36436045160038
 20
1008.994274511767
 30
0.0
 10
66.96616140298212
 20
1005.587848987652
 30
0.0
 10
68.18870603305263
 20
1002.351564703677
 30
0.0
 10
69.99017553082426
 20
999.397573912297
 30
0.0
 10
72.30736664325977
 20
996.8272557605287
 30
0.0
 10
75.06103381866089
 20
994.72993014638
 30
0.0
 10
78.15575318044777
 20
993.1777689060033
 30
0.0
 10
81.48470487318328
 20
992.2244727605937
 30
0.0
 10
84.93283921013585
 20
991.9030082332396
 30
0.0
 10
88.38097099162805
 20
992.224481768797
 30
0.0
 10
91.70991841047062
 20
993.1777670946019
 30
0.0
 10
94.80465319142151
 20
994.7298998487856
 30
0.0
 10
97.55829142020202
 20
996.8272432560468
 30
0.0
 10
99.87570122067729
 20
999.3974023464
 30
0.0
 10
101.6769283847387
 20
1002.351570164172
 30
0.0
 10
102.8995752116719
 20
1005.587811989005
 30
0.0
 10
103.5013632828136
 20
1008.994257491881
 30
0.0
 10
103.4614351292174
 20
1012.453124912924
 30
0.0
 10
102.7811809510138
 20
1015.844810867001
 30
0.0
 10
101.4841940451968
 20
1019.051974556438
 30
0.0
 10
99.61500002614687
 20
1021.963958105465
 30
0.0
 10
97.23972321124276
 20
1024.479533840737
 30
0.0
 10
95.37042376073015
 20
1025.836373328423
 30
0.0
 10
94.38342683155365
 20
1026.421151450516
 30
0.0
  0
ARC
  5
101
330
7B
100
AcDbEntity
  8
0
  6
Continuous
 62
     0
370
     0
100
AcDbCircle
 10
97.438684
 20
1031.582347
 30
0.0
 40
5.997710869422992
100
AcDbArc
 50
180.008362
 51
239.375869
  0
LINE
  5
102
330
7B
100
AcDbEntity
  8
0
  6
Continuous
 62
     0
370
     0
100
AcDbLine
 10
78.424703
 20
1051.510164
 30
0.0
 11
78.424703
 21
1031.581472
 31
0.0
  0
ARC
  5
103
330
7B
100
AcDbEntity
  8
0
  6
Continuous
 62
     0
370
     0
100
AcDbCircle
 10
72.426992
 20
1031.582347
 30
0.0
 40
5.997710779291232
100
AcDbArc
 50
300.624131
 51
359.991639
  0
LINE
  5
104
330
7B
100
AcDbEntity
  8
0
  6
Continuous
 62
     0
370
     0
100
AcDbLine
 10
78.424703
 20
1051.510164
 30
0.0
 11
77.432838
 21
1051.510164
 31
0.0
  0
LINE
  5
105
330
7B
100
AcDbEntity
  8
0
  6
Continuous
 62
     0
370
    30
100
AcDbLine
 10
77.432838
 20
1051.510164
 30
0.0
 11
77.432838
 21
1031.581472
 31
0.0
  0
LINE
  5
106
330
7B
100
AcDbEntity
  8
0
  6
Continuous
 62
     0
370
     0
100
AcDbLine
 10
77.432838
 20
1031.581472
 30
0.0
 11
78.424703
 21
1031.581472
 31
0.0
  0
ARC
  5
107
330
7B
100
AcDbEntity
  8
0
  6
Continuous
 62
     0
370
    30
100
AcDbCircle
 10
78.432838
 20
1051.510164
 30
0.0
 40
1.0
100
AcDbArc
 50
90.0
 51
180.0
  0
ARC
  5
108
330
7B
100
AcDbEntity
  8
0
  6
Continuous
 62
     0
370
    30
100
AcDbCircle
 10
84.932838
 20
1010.510164
 30
0.0
 40
19.50000000033905
100
AcDbArc
 50
120.677425
 51
59.322576
  0
ARC
  5
109
330
7B
100
AcDbEntity
  8
0
  6
Continuous
 62
     0
370
    30
100
AcDbCircle
 10
97.4318
 20
1031.580881
 30
0.0
 40
4.998962280324486
100
AcDbArc
 50
179.993227
 51
239.32935
  0
ELLIPSE
  5
10A
330
7B
100
AcDbEntity
  8
0
  6
Continuous
 62
     0
370
     0
100
AcDbEllipse
 10
94.371614
 20
1026.421151
 30
0.0
 11
0.5102040769052009
 21
0.8600533703843072
 31
0.0
210
0.0
220
0.0
230
-1.0
 40
0.01016
 41
0.0000000145920331
 42
1.564769143704885
  0
ARC
  5
10B
330
7B
100
AcDbEntity
  8
0
  6
Continuous
 62
     0
370
    30
100
AcDbCircle
 10
72.433876
 20
1031.580881
 30
0.0
 40
4.998962282317271
100
AcDbArc
 50
300.670651
 51
0.006774
  0
ELLIPSE
  5
10C
330
7B
100
AcDbEntity
  8
0
  6
Continuous
 62
     0
370
     0
100
AcDbEllipse
 10
75.494063
 20
1026.421151
 30
0.0
 11
0.5102040861623904
 21
-0.8600533648926791
 31
0.0
210
0.0
220
0.0
230
-1.0
 40
0.01016
 41
1.576823516439792
 42
3.141592645552502
  0
ARC
  5
10D
330
7B
100
AcDbEntity
  8
0
  6
Continuous
 62
     0
370
    30
100
AcDbCircle
 10
84.934921
 20
1044.510165
 30
0.0
 40
40.0
100
AcDbArc
 50
0.0
 51
90.0
  0
ARC
  5
10E
330
7B
100
AcDbEntity
  8
0
  6
Continuous
 62
     0
370
    30
100
AcDbCircle
 10
84.934921
 20
1044.510165
 30
0.0
 40
40.0
100
AcDbArc
 50
90.0
 51
180.0
  0
ARC
  5
10F
330
7B
100
AcDbEntity
  8
0
  6
Continuous
 62
     0
370
    30
100
AcDbCircle
 10
84.934921
 20
656.510165
 30
0.0
 40
40.0
100
AcDbArc
 50
180.0
 51
270.0
  0
ARC
  5
110
330
7B
100
AcDbEntity
  8
0
  6
Continuous
 62
     0
370
    30
100
AcDbCircle
 10
84.934921
 20
656.510165
 30
0.0
 40
40.0
100
AcDbArc
 50
270.0
 51
360.0
  0
LINE
  5
111
330
7B
100
AcDbEntity
  8
0
  6
Continuous
 62
     0
370
    30
100
AcDbLine
 10
44.934921
 20
656.510165
 30
0.0
 11
44.934921
 21
1044.510165
 31
0.0
  0
LINE
  5
112
330
7B
100
AcDbEntity
  8
0
  6
Continuous
 62
     0
370
    30
100
AcDbLine
 10
124.934921
 20
1044.510165
 30
0.0
 11
124.934921
 21
656.510165
 31
0.0
  0
ENDBLK
  5
114
330
7B
100
AcDbEntity
  8
0
100
AcDbBlockEnd
  0
BLOCK
  5
168
330
116
100
AcDbEntity
  8
0
100
AcDbBlockBegin
  2
b
 70
     0
 10
17.356796
 20
458.430435
 30
0.0
  3
b
  1

  0
ARC
  5
117
330
116
100
AcDbEntity
  8
0
  6
Continuous
 62
     0
370
    30
100
AcDbCircle
 10
84.934921
 20
450.635159
 30
0.0
 40
3.950000000000017
100
AcDbArc
 50
196.789728
 51
343.21057
  0
LINE
  5
118
330
116
100
AcDbEntity
  8
0
  6
Continuous
 62
     0
370
    30
100
AcDbLine
 10
106.934921
 20
442.13516
 30
0.0
 11
62.934921
 21
442.13516
 31
0.0
  0
LINE
  5
119
330
116
100
AcDbEntity
  8
0
  6
Continuous
 62
     0
370
    30
100
AcDbLine
 10
68.934921
 20
491.63516
 30
0.0
 11
62.934921
 21
491.63516
 31
0.0
  0
LINE
  5
11A
330
116
100
AcDbEntity
  8
0
  6
Continuous
 62
     0
370
    30
100
AcDbLine
 10
106.934921
 20
491.63516
 30
0.0
 11
100.934921
 21
491.63516
 31
0.0
  0
ARC
  5
11B
330
116
100
AcDbEntity
  8
0
  6
Continuous
 62
     0
370
    30
100
AcDbCircle
 10
84.934921
 20
450.635159
 30
0.0
 40
3.450000000000017
100
AcDbArc
 50
199.353457
 51
340.646841
  0
LINE
  5
11C
330
116
100
AcDbEntity
  8
0
  6
Continuous
 62
     0
370
    30
100
AcDbLine
 10
63.434921
 20
441.63516
 30
0.0
 11
106.434921
 21
441.63516
 31
0.0
  0
LINE
  5
11D
330
116
100
AcDbEntity
  8
0
  6
Continuous
 62
     0
370
    30
100
AcDbLine
 10
62.934921
 20
442.13516
 30
0.0
 11
63.434921
 21
441.63516
 31
0.0
  0
LINE
  5
11E
330
116
100
AcDbEntity
  8
0
  6
Continuous
 62
     0
370
    30
100
AcDbLine
 10
106.934921
 20
442.13516
 30
0.0
 11
106.434921
 21
441.63516
 31
0.0
  0
LINE
  5
11F
330
116
100
AcDbEntity
  8
0
  6
Continuous
 62
     0
370
    30
100
AcDbLine
 10
62.934921
 20
491.63516
 30
0.0
 11
62.934921
 21
442.13516
 31
0.0
  0
LINE
  5
120
330
116
100
AcDbEntity
  8
0
  6
Continuous
 62
     0
370
    30
100
AcDbLine
 10
106.934921
 20
491.63516
 30
0.0
 11
106.934921
 21
442.13516
 31
0.0
  0
LINE
  5
121
330
116
100
AcDbEntity
  8
0
  6
Continuous
 62
     0
370
    30
100
AcDbLine
 10
63.934921
 20
493.63516
 30
0.0
 11
63.934921
 21
491.63516
 31
0.0
  0
LINE
  5
122
330
116
100
AcDbEntity
  8
0
  6
Continuous
 62
     0
370
    30
100
AcDbLine
 10
105.934921
 20
493.63516
 30
0.0
 11
105.934921
 21
491.63516
 31
0.0
  0
LINE
  5
123
330
116
100
AcDbEntity
  8
0
  6
Continuous
 62
     0
370
     0
100
AcDbLine
 10
102.434921
 20
492.721788
 30
0.0
 11
67.434921
 21
492.721788
 31
0.0
  0
LINE
  5
124
330
116
100
AcDbEntity
  8
0
  6
Continuous
 62
     0
370
     0
100
AcDbLine
 10
102.139895
 20
492.421825
 30
0.0
 11
67.729946
 21
492.421825
 31
0.0
  0
LINE
  5
125
330
116
100
AcDbEntity
  8
0
  6
Continuous
 62
     0
370
    30
100
AcDbLine
 10
100.934835
 20
492.40175
 30
0.0
 11
68.935007
 21
492.40175
 31
0.0
  0
LINE
  5
126
330
116
100
AcDbEntity
  8
0
  6
Continuous
 62
     0
370
    30
100
AcDbLine
 10
92.432838
 20
453.00774
 30
0.0
 11
92.432838
 21
452.485219
 31
0.0
  0
LINE
  5
127
330
116
100
AcDbEntity
  8
0
  6
Continuous
 62
     0
370
    30
100
AcDbLine
 10
92.432838
 20
452.485218
 30
0.0
 11
92.432838
 21
450.511658
 31
0.0
  0
LINE
  5
128
330
116
100
AcDbEntity
  8
0
  6
Continuous
 62
     0
370
     0
100
AcDbLine
 10
91.432838
 20
450.511658
 30
0.0
 11
91.432838
 21
452.485218
 31
0.0
  0
LINE
  5
129
330
116
100
AcDbEntity
  8
0
  6
Continuous
 62
     0
370
     0
100
AcDbLine
 10
91.432838
 20
452.485218
 30
0.0
 11
78.432838
 21
452.485218
 31
0.0
  0
LINE
  5
12A
330
116
100
AcDbEntity
  8
0
  6
Continuous
 62
     0
370
     0
100
AcDbLine
 10
78.432838
 20
452.485218
 30
0.0
 11
78.432838
 21
450.511658
 31
0.0
  0
ARC
  5
12B
330
116
100
AcDbEntity
  8
0
  6
Continuous
 62
     0
370
     0
100
AcDbCircle
 10
84.932843
 20
1249.485218
 30
0.0
 40
799.0000000000001
100
AcDbArc
 50
269.533884
 51
270.466116
  0
LINE
  5
12C
330
116
100
AcDbEntity
  8
0
  6
Continuous
 62
     0
370
     0
100
AcDbLine
 10
92.432838
 20
450.511658
 30
0.0
 11
91.432838
 21
450.511658
 31
0.0
  0
LINE
  5
12D
330
116
100
AcDbEntity
  8
0
  6
Continuous
 62
     0
370
     0
100
AcDbLine
 10
91.432838
 20
452.485218
 30
0.0
 11
92.432838
 21
452.485218
 31
0.0
  0
LINE
  5
12E
330
116
100
AcDbEntity
  8
0
  6
Continuous
 62
     0
370
     0
100
AcDbLine
 10
91.432838
 20
450.511658
 30
0.0
 11
91.440973
 21
449.511691
 31
0.0
  0
ARC
  5
12F
330
116
100
AcDbEntity
  8
0
  6
Continuous
 62
     0
370
    30
100
AcDbCircle
 10
91.432838
 20
450.511658
 30
0.0
 40
1.0
100
AcDbArc
 50
270.466116
 51
360.0
  0
LINE
  5
130
330
116
100
AcDbEntity
  8
0
  6
Continuous
 62
     0
370
     0
100
AcDbLine
 10
78.432838
 20
450.511658
 30
0.0
 11
78.424703
 21
449.511691
 31
0.0
  0
ARC
  5
131
330
116
100
AcDbEntity
  8
0
  6
Continuous
 62
     0
370
    30
100
AcDbCircle
 10
84.932843
 20
1249.485218
 30
0.0
 40
800.0
100
AcDbArc
 50
269.533884
 51
270.466116
  0
ARC
  5
132
330
116
100
AcDbEntity
  8
0
  6
Continuous
 62
     0
370
    30
100
AcDbCircle
 10
91.432838
 20
452.485218
 30
0.0
 40
1.0
100
AcDbArc
 50
360.0
 51
90.0
  0
LINE
  5
133
330
116
100
AcDbEntity
  8
0
  6
Continuous
 62
     0
370
     0
100
AcDbLine
 10
91.432838
 20
453.485218
 30
0.0
 11
91.432838
 21
452.485218
 31
0.0
  0
LINE
  5
134
330
116
100
AcDbEntity
  8
0
  6
Continuous
 62
     0
370
    30
100
AcDbLine
 10
91.432838
 20
453.485218
 30
0.0
 11
78.432838
 21
453.485218
 31
0.0
  0
LINE
  5
135
330
116
100
AcDbEntity
  8
0
  6
Continuous
 62
     0
370
     0
100
AcDbLine
 10
78.432838
 20
453.485218
 30
0.0
 11
78.432838
 21
452.485218
 31
0.0
  0
ARC
  5
136
330
116
100
AcDbEntity
  8
0
  6
Continuous
 62
     0
370
    30
100
AcDbCircle
 10
84.929522
 20
1249.691229
 30
0.0
 40
800.2060342823252
100
AcDbArc
 50
270.676927
 51
271.326633
  0
ARC
  5
137
330
116
100
AcDbEntity
  8
0
  6
Continuous
 62
     0
370
    30
100
AcDbCircle
 10
84.936073
 20
1249.685946
 30
0.0
 40
800.2007502877846
100
AcDbArc
 50
268.673368
 51
269.323074
  0
ARC
  5
138
330
116
100
AcDbEntity
  8
0
  6
Continuous
 62
     0
370
    30
100
AcDbCircle
 10
84.960827
 20
1246.671803
 30
0.0
 40
797.1864490609089
100
AcDbArc
 50
270.465749
 51
270.677242
  0
ARC
  5
139
330
116
100
AcDbEntity
  8
0
  6
Continuous
 62
     0
370
    30
100
AcDbCircle
 10
84.90492
 20
1246.677876
 30
0.0
 40
797.1925217460134
100
AcDbArc
 50
269.322759
 51
269.534249
  0
ARC
  5
13A
330
116
100
AcDbEntity
  8
0
  6
Continuous
 62
     0
370
    30
100
AcDbCircle
 10
78.432838
 20
450.511658
 30
0.0
 40
0.9999999999999836
100
AcDbArc
 50
180.0
 51
269.533884
  0
LINE
  5
13B
330
116
100
AcDbEntity
  8
0
  6
Continuous
 62
     0
370
    30
100
AcDbLine
 10
77.432838
 20
453.007741
 30
0.0
 11
77.432838
 21
452.485219
 31
0.0
  0
LINE
  5
13C
330
116
100
AcDbEntity
  8
0
  6
Continuous
 62
     0
370
    30
100
AcDbLine
 10
77.432838
 20
452.485218
 30
0.0
 11
77.432838
 21
450.511658
 31
0.0
  0
ARC
  5
13D
330
116
100
AcDbEntity
  8
0
  6
Continuous
 62
     0
370
    30
100
AcDbCircle
 10
78.432838
 20
452.485218
 30
0.0
 40
1.0
100
AcDbArc
 50
90.0
 51
180.0
  0
LINE
  5
13E
330
116
100
AcDbEntity
  8
0
  6
Continuous
 62
     0
370
     0
100
AcDbLine
 10
77.432838
 20
450.511658
 30
0.0
 11
78.432838
 21
450.511658
 31
0.0
  0
LINE
  5
13F
330
116
100
AcDbEntity
  8
0
  6
Continuous
 62
     0
370
     0
100
AcDbLine
 10
78.432838
 20
452.485218
 30
0.0
 11
77.432838
 21
452.485218
 31
0.0
  0
LINE
  5
140
330
116
100
AcDbEntity
  8
0
  6
Continuous
 62
     0
370
     0
100
AcDbLine
 10
84.932838
 20
458.485221
 30
0.0
 11
94.881818
 21
458.485221
 31
0.0
  0
LINE
  5
141
330
116
100
AcDbEntity
  8
0
  6
Continuous
 62
     0
370
     0
100
AcDbLine
 10
94.881818
 20
458.48522
 30
0.0
 11
94.881818
 21
450.540973
 31
0.0
  0
ARC
  5
142
330
116
100
AcDbEntity
  8
0
  6
Continuous
 62
     0
370
     0
100
AcDbCircle
 10
84.929609
 20
1338.048925
 30
0.0
 40
887.5636782794163
100
AcDbArc
 50
268.741308
 51
269.357949
  0
ARC
  5
143
330
116
100
AcDbEntity
  8
0
  6
Continuous
 62
     0
370
     0
100
AcDbCircle
 10
84.941187
 20
1337.709292
 30
0.0
 40
887.2240091543716
100
AcDbArc
 50
270.641967
 51
271.258843
  0
LINE
  5
144
330
116
100
AcDbEntity
  8
0
  6
Continuous
 62
     0
370
     0
100
AcDbLine
 10
74.983858
 20
450.540973
 30
0.0
 11
74.983859
 21
458.48522
 31
0.0
  0
LINE
  5
145
330
116
100
AcDbEntity
  8
0
  6
Continuous
 62
     0
370
     0
100
AcDbLine
 10
74.983859
 20
458.485221
 30
0.0
 11
84.932838
 21
458.485221
 31
0.0
  0
LINE
  5
146
330
116
100
AcDbEntity
  8
0
  6
Continuous
 62
     0
370
    30
100
AcDbLine
 10
104.432838
 20
491.485221
 30
0.0
 11
84.932838
 21
491.485221
 31
0.0
  0
LINE
  5
147
330
116
100
AcDbEntity
  8
0
  6
Continuous
 62
     0
370
    30
100
AcDbLine
 10
84.932838
 20
491.485221
 30
0.0
 11
65.432838
 21
491.485221
 31
0.0
  0
LINE
  5
148
330
116
100
AcDbEntity
  8
0
  6
Continuous
 62
     0
370
     0
100
AcDbLine
 10
84.932838
 20
458.48522
 30
0.0
 11
84.932838
 21
453.485219
 31
0.0
  0
SPLINE
  5
149
330
116
100
AcDbEntity
  8
0
  6
Continuous
 62
     0
370
     0
100
AcDbSpline
210
0.0
220
0.0
230
1.0
 70
     8
 71
     3
 72
     8
 73
     4
 74
     0
 42
0.000000001
 43
0.0
 40
0.0
 40
0.0
 40
0.0
 40
0.0
 40
2.207417189781236
 40
2.207417189781236
 40
2.207417189781236
 40
2.207417189781236
 10
91.43283806950983
 20
453.4852193647439
 30
0.0
 10
91.46991197941547
 20
453.4852194062951
 30
0.0
 10
91.51154604787592
 20
453.6366815705435
 30
0.0
 10
91.5531496600718
 20
453.920653631193
 30
0.0
  0
SPLINE
  5
14A
330
116
100
AcDbEntity
  8
0
  6
Continuous
 62
     0
370
     0
100
AcDbSpline
210
0.0
220
0.0
230
1.0
 70
     8
 71
     3
 72
    14
 73
    10
 74
     0
 42
0.000000001
 43
0.0
 40
0.0
 40
0.0
 40
0.0
 40
0.0
 40
1.021268063453741
 40
2.067961234983294
 40
3.137215120319839
 40
4.224835717853908
 40
5.325938614456986
 40
6.435853999810894
 40
7.550179266023628
 40
7.550179266023628
 40
7.550179266023628
 40
7.550179266023628
 10
91.55314966007178
 20
453.920653631193
 30
0.0
 10
91.57239769377227
 20
454.0520341413191
 30
0.0
 10
91.681477515275
 20
454.367528830709
 30
0.0
 10
91.99827460570116
 20
454.9397466097505
 30
0.0
 10
92.4326490570301
 20
455.5830437065089
 30
0.0
 10
92.95425240975328
 20
456.2739552413324
 30
0.0
 10
93.54349145109549
 20
456.9958038098413
 30
0.0
 10
94.18671005218158
 20
457.7362232254166
 30
0.0
 10
94.64552184029763
 20
458.2352520733714
 30
0.0
 10
94.8818177301059
 20
458.4852197321788
 30
0.0
  0
SPLINE
  5
14B
330
116
100
AcDbEntity
  8
0
  6
Continuous
 62
     0
370
     0
100
AcDbSpline
210
0.0
220
0.0
230
1.0
 70
     8
 71
     3
 72
    14
 73
    10
 74
     0
 42
0.000000001
 43
0.0
 40
0.0
 40
0.0
 40
0.0
 40
0.0
 40
1.111306881563105
 40
2.219857884916669
 40
3.322884962567406
 40
4.41682350781497
 40
5.497282355506063
 40
6.558912704919971
 40
7.59682878182669
 40
7.59682878182669
 40
7.59682878182669
 40
7.59682878182669
 10
94.8818177301059
 20
458.4852197321788
 30
0.0
 10
94.69495890203817
 20
458.1851883756321
 30
0.0
 10
94.33601125001448
 20
457.5855214190167
 30
0.0
 10
93.8424903239617
 20
456.6966332129955
 30
0.0
 10
93.39928893806447
 20
455.8298842464382
 30
0.0
 10
93.01504128483845
 20
455.0007026618707
 30
0.0
 10
92.70467377569145
 20
454.228943653727
 30
0.0
 10
92.49052832766834
 20
453.5437214202524
 30
0.0
 10
92.43283808274566
 20
453.1655764294397
 30
0.0
 10
92.43283808008518
 20
453.0077404765916
 30
0.0
  0
ARC
  5
14C
330
116
100
AcDbEntity
  8
0
  6
Continuous
 62
     0
370
     0
100
AcDbCircle
 10
87.035962
 20
1003.701209
 30
0.0
 40
553.2158751339314
100
AcDbArc
 50
270.558956
 51
270.812611
  0
ELLIPSE
  5
14D
330
116
100
AcDbEntity
  8
0
  6
Continuous
 62
     0
370
     0
100
AcDbEllipse
 10
94.371614
 20
450.540973
 30
0.0
 11
-0.01181326319952643
 21
0.9999302209717806
 31
0.0
210
0.0
220
0.0
230
-1.0
 40
0.510178
 41
1.576823590516863
 42
3.14159271962987
  0
ARC
  5
14E
330
116
100
AcDbEntity
  8
0
  6
Continuous
 62
     0
370
     0
100
AcDbCircle
 10
82.81997
 20
1002.886533
 30
0.0
 40
552.4011420828294
100
AcDbArc
 50
269.187201
 51
269.441231
  0
SPLINE
  5
14F
330
116
100
AcDbEntity
  8
0
  6
Continuous
 62
     0
370
     0
100
AcDbSpline
210
0.0
220
0.0
230
1.0
 70
     8
 71
     3
 72
    14
 73
    10
 74
     0
 42
0.000000001
 43
0.0
 40
0.0
 40
0.0
 40
0.0
 40
0.0
 40
1.037916076906717
 40
2.099546426320637
 40
3.180005274011714
 40
4.273943819259252
 40
5.376970896910018
 40
6.485521900263591
 40
7.596828781826694
 40
7.596828781826694
 40
7.596828781826694
 40
7.596828781826694
 10
77.43283808008518
 20
453.0077405729429
 30
0.0
 10
77.43283808274566
 20
453.165576525791
 30
0.0
 10
77.37514784903607
 20
453.5437215173449
 30
0.0
 10
77.16100241822245
 20
454.2289437535705
 30
0.0
 10
76.85063492639014
 20
455.0007027657016
 30
0.0
 10
76.46638729025932
 20
455.8298843552054
 30
0.0
 10
76.02318592105284
 20
456.6966333274564
 30
0.0
 10
75.52966501115179
 20
457.5855215398178
 30
0.0
 10
75.17071736945995
 20
458.1851885010445
 30
0.0
 10
74.98385854643242
 20
458.4852198599918
 30
0.0
  0
SPLINE
  5
150
330
116
100
AcDbEntity
  8
0
  6
Continuous
 62
     0
370
     0
100
AcDbSpline
210
0.0
220
0.0
230
1.0
 70
     8
 71
     3
 72
    11
 73
     7
 74
     0
 42
0.000000001
 43
0.0
 40
0.0
 40
0.0
 40
0.0
 40
0.0
 40
2.507622620637867
 40
4.092273613909081
 40
5.804541291925845
 40
7.555111087882607
 40
7.555111087882607
 40
7.555111087882607
 40
7.555111087882607
 10
74.98385854643242
 20
458.4852198599918
 30
0.0
 10
75.53330942227916
 20
457.9039784614107
 30
0.0
 10
76.3741241780593
 20
456.9546217685688
 30
0.0
 10
77.37245170991326
 20
455.68212856488
 30
0.0
 10
78.04459893034272
 20
454.6783586848942
 30
0.0
 10
78.28158567290035
 20
454.1318453521908
 30
0.0
 10
78.3125265076546
 20
453.9206537162431
 30
0.0
  0
ELLIPSE
  5
151
330
116
100
AcDbEntity
  8
0
  6
Continuous
 62
     0
370
     0
100
AcDbEllipse
 10
78.432838
 20
453.007741
 30
0.0
 11
1.000000000000007
 21
-1.894253655413847E-8
 31
0.0
210
0.0
220
0.0
230
1.0
 40
0.919593
 41
1.691400072841635
 42
3.141592667203522
  0
ELLIPSE
  5
152
330
116
100
AcDbEntity
  8
0
  6
Continuous
 62
     0
370
     0
100
AcDbEllipse
 10
75.494063
 20
450.540973
 30
0.0
 11
-0.01181327612042302
 21
-0.9999302208190943
 31
0.0
210
0.0
220
0.0
230
-1.0
 40
0.510178
 41
-0.000000066186999
 42
1.564769062926024
  0
SPLINE
  5
153
330
116
100
AcDbEntity
  8
0
  6
Continuous
 62
     0
370
     0
100
AcDbSpline
210
0.0
220
0.0
230
1.0
 70
     8
 71
     3
 72
     9
 73
     5
 74
     0
 42
0.000000001
 43
0.0
 40
0.0
 40
0.0
 40
0.0
 40
0.0
 40
1.018265700864359
 40
2.221869069088174
 40
2.221869069088174
 40
2.221869069088174
 40
2.221869069088174
 10
78.43283806950981
 20
453.4852194482484
 30
0.0
 10
78.41576545156585
 20
453.4852194676022
 30
0.0
 10
78.37680428463217
 20
453.5531299530794
 30
0.0
 10
78.33523044762538
 20
453.7656843282816
 30
0.0
 10
78.3125265076546
 20
453.9206537162431
 30
0.0
  0
ELLIPSE
  5
154
330
116
100
AcDbEntity
  8
0
  6
Continuous
 62
     0
370
     0
100
AcDbEllipse
 10
91.432838
 20
453.00774
 30
0.0
 11
-1.000000000000004
 21
1.894249988794321E-8
 31
0.0
210
0.0
220
0.0
230
-1.0
 40
0.919593
 41
1.691400045614166
 42
3.141592639976074
  0
ARC
  5
155
330
116
100
AcDbEntity
  8
0
  6
Continuous
 62
     0
370
    30
100
AcDbCircle
 10
103.432754
 20
450.699439
 30
0.0
 40
1.000021658250773
100
AcDbArc
 50
271.328132
 51
359.998792
  0
ARC
  5
156
330
116
100
AcDbEntity
  8
0
  6
Continuous
 62
     0
370
    30
100
AcDbCircle
 10
66.432869
 20
450.699446
 30
0.0
 40
1.00002347713247
100
AcDbArc
 50
180.001313
 51
268.671922
  0
LINE
  5
157
330
116
100
AcDbEntity
  8
0
  6
Continuous
 62
     0
370
    30
100
AcDbLine
 10
65.432838
 20
491.485221
 30
0.0
 11
65.432838
 21
450.699404
 31
0.0
  0
LINE
  5
158
330
116
100
AcDbEntity
  8
0
  6
Continuous
 62
     0
370
    30
100
AcDbLine
 10
104.432838
 20
491.485221
 30
0.0
 11
104.432838
 21
450.69941
 31
0.0
  0
LINE
  5
159
330
116
100
AcDbEntity
  8
0
  6
Continuous
 62
     0
370
    30
100
AcDbLine
 10
68.934921
 20
492.40175
 30
0.0
 11
68.934921
 21
491.485221
 31
0.0
  0
LINE
  5
15A
330
116
100
AcDbEntity
  8
0
  6
Continuous
 62
     0
370
    30
100
AcDbLine
 10
100.934921
 20
492.40175
 30
0.0
 11
100.934921
 21
491.485221
 31
0.0
  0
LINE
  5
15B
330
116
100
AcDbEntity
  8
0
  6
Continuous
 62
     0
370
    30
100
AcDbLine
 10
67.729946
 20
492.421825
 30
0.0
 11
68.935007
 21
492.40175
 31
0.0
  0
LINE
  5
15C
330
116
100
AcDbEntity
  8
0
  6
Continuous
 62
     0
370
    30
100
AcDbLine
 10
102.139895
 20
492.421825
 30
0.0
 11
100.934835
 21
492.40175
 31
0.0
  0
ARC
  5
15D
330
116
100
AcDbEntity
  8
0
  6
Continuous
 62
     0
370
    30
100
AcDbCircle
 10
67.734946
 20
492.721786
 30
0.0
 40
0.3000023806501955
100
AcDbArc
 50
179.99963
 51
269.045162
  0
ARC
  5
15E
330
116
100
AcDbEntity
  8
0
  6
Continuous
 62
     0
370
    30
100
AcDbCircle
 10
102.134896
 20
492.721786
 30
0.0
 40
0.3000023806503308
100
AcDbArc
 50
270.954838
 51
0.00037
  0
LINE
  5
15F
330
116
100
AcDbEntity
  8
0
  6
Continuous
 62
     0
370
    30
100
AcDbLine
 10
67.434921
 20
493.635146
 30
0.0
 11
67.434921
 21
492.721788
 31
0.0
  0
LINE
  5
160
330
116
100
AcDbEntity
  8
0
  6
Continuous
 62
     0
370
    30
100
AcDbLine
 10
102.434921
 20
493.635146
 30
0.0
 11
102.434921
 21
492.721788
 31
0.0
  0
LINE
  5
161
330
116
100
AcDbEntity
  8
0
  6
Continuous
 62
     0
370
    30
100
AcDbLine
 10
124.934921
 20
495.635144
 30
0.0
 11
84.934921
 21
495.635144
 31
0.0
  0
LINE
  5
162
330
116
100
AcDbEntity
  8
0
  6
Continuous
 62
     0
370
     0
100
AcDbLine
 10
84.934921
 20
495.635143
 30
0.0
 11
84.934921
 21
493.635143
 31
0.0
  0
LINE
  5
163
330
116
100
AcDbEntity
  8
0
  6
Continuous
 62
     0
370
    30
100
AcDbLine
 10
84.934921
 20
493.635144
 30
0.0
 11
124.934921
 21
493.635144
 31
0.0
  0
LINE
  5
164
330
116
100
AcDbEntity
  8
0
  6
Continuous
 62
     0
370
    30
100
AcDbLine
 10
124.934921
 20
493.635144
 30
0.0
 11
124.934921
 21
495.635144
 31
0.0
  0
LINE
  5
165
330
116
100
AcDbEntity
  8
0
  6
Continuous
 62
     0
370
    30
100
AcDbLine
 10
84.934921
 20
495.635144
 30
0.0
 11
44.934921
 21
495.635144
 31
0.0
  0
LINE
  5
166
330
116
100
AcDbEntity
  8
0
  6
Continuous
 62
     0
370
    30
100
AcDbLine
 10
44.934921
 20
495.635144
 30
0.0
 11
44.934921
 21
493.635144
 31
0.0
  0
LINE
  5
167
330
116
100
AcDbEntity
  8
0
  6
Continuous
 62
     0
370
    30
100
AcDbLine
 10
44.934921
 20
493.635144
 30
0.0
 11
84.934921
 21
493.635144
 31
0.0
  0
ENDBLK
  5
169
330
116
100
AcDbEntity
  8
0
100
AcDbBlockEnd
  0
BLOCK
  5
213
330
16B
100
AcDbEntity
  8
0
100
AcDbBlockBegin
  2
c
 70
     0
 10
33.136124
 20
100.941116
 30
0.0
  3
c
  1

  0
LINE
  5
16C
330
16B
100
AcDbEntity
  8
0
  6
Continuous
 62
     0
370
     0
100
AcDbLine
 10
256.679848
 20
828.007447
 30
0.0
 11
256.679848
 21
793.007447
 31
0.0
  0
LINE
  5
16D
330
16B
100
AcDbEntity
  8
0
  6
Continuous
 62
     0
370
    30
100
AcDbLine
 10
256.679848
 20
793.007447
 30
0.0
 11
255.766489
 21
793.007447
 31
0.0
  0
ARC
  5
16E
330
16B
100
AcDbEntity
  8
0
  6
Continuous
 62
     0
370
    30
100
AcDbCircle
 10
256.679849
 20
793.307472
 30
0.0
 40
0.3000023806501448
100
AcDbArc
 50
269.99963
 51
359.045162
  0
LINE
  5
16F
330
16B
100
AcDbEntity
  8
0
  6
Continuous
 62
     0
370
     0
100
AcDbLine
 10
256.97981
 20
827.712421
 30
0.0
 11
256.97981
 21
793.302472
 31
0.0
  0
LINE
  5
170
330
16B
100
AcDbEntity
  8
0
  6
Continuous
 62
     0
370
    30
100
AcDbLine
 10
256.97981
 20
793.302472
 30
0.0
 11
256.999885
 21
794.507533
 31
0.0
  0
LINE
  5
171
330
16B
100
AcDbEntity
  8
0
  6
Continuous
 62
     0
370
    30
100
AcDbLine
 10
256.999885
 20
826.507361
 30
0.0
 11
256.999885
 21
794.507533
 31
0.0
  0
LINE
  5
172
330
16B
100
AcDbEntity
  8
0
  6
Continuous
 62
     0
370
    30
100
AcDbLine
 10
256.999885
 20
794.507447
 30
0.0
 11
257.916414
 21
794.507447
 31
0.0
  0
LINE
  5
173
330
16B
100
AcDbEntity
  8
0
  6
Continuous
 62
     0
370
    30
100
AcDbLine
 10
296.916415
 20
852.507446
 30
0.0
 11
298.889975
 21
852.507446
 31
0.0
  0
LINE
  5
174
330
16B
100
AcDbEntity
  8
0
  6
Continuous
 62
     0
370
    30
100
AcDbLine
 10
298.889975
 20
852.507446
 30
0.0
 11
298.916415
 21
852.507446
 31
0.0
  0
ARC
  5
175
330
16B
100
AcDbEntity
  8
0
  6
Continuous
 62
     0
370
     0
100
AcDbCircle
 10
298.889959
 20
851.507462
 30
0.0
 40
0.9999834550975664
100
AcDbArc
 50
359.999051
 51
89.999051
  0
LINE
  5
176
330
16B
100
AcDbEntity
  8
0
  6
Continuous
 62
     0
370
     0
100
AcDbLine
 10
299.889942
 20
851.507446
 30
0.0
 11
299.916415
 21
851.507446
 31
0.0
  0
ARC
  5
177
330
16B
100
AcDbEntity
  8
0
  6
Continuous
 62
     0
370
    30
100
AcDbCircle
 10
296.916415
 20
851.507446
 30
0.0
 40
1.0
100
AcDbArc
 50
89.999999
 51
179.999999
  0
SPLINE
  5
178
330
16B
100
AcDbEntity
  8
0
  6
Continuous
 62
     0
370
     0
100
AcDbSpline
210
0.0
220
0.0
230
1.0
 70
     8
 71
     3
 72
    21
 73
    17
 74
     0
 42
0.000000001
 43
0.0
 40
0.0
 40
0.0
 40
0.0
 40
0.0
 40
3.441841583726246
 40
6.882852512287561
 40
10.32313745608455
 40
13.76274326813165
 40
17.20191509642661
 40
20.64091833849005
 40
24.08005407847498
 40
27.51961152377158
 40
30.95977415881267
 40
34.40069259768723
 40
37.8424409908414
 40
41.28489904790865
 40
44.72789785151544
 40
48.17121764385794
 40
48.17121764385794
 40
48.17121764385794
 40
48.17121764385794
 10
299.8605918576555
 20
826.4184329869764
 30
0.0
 10
299.8489314975936
 20
825.8336574636426
 30
0.0
 10
299.8231592125032
 20
824.4766371287732
 30
0.0
 10
299.7826102163588
 20
821.9614423388206
 30
0.0
 10
299.7456978863563
 20
819.0492239512155
 30
0.0
 10
299.7174818154151
 20
815.8420935947227
 30
0.0
 10
299.7018328462416
 20
812.4504101779829
 30
0.0
 10
299.7008955295251
 20
808.9915561493194
 30
0.0
 10
299.7148005512768
 20
805.5851306252042
 30
0.0
 10
299.7416374362431
 20
802.3488463412293
 30
0.0
 10
299.7777354908291
 20
799.3948555498492
 30
0.0
 10
299.8181304114449
 20
796.824537398081
 30
0.0
 10
299.8573028548578
 20
794.7272117839323
 30
0.0
 10
299.8898806695099
 20
793.1750505435555
 30
0.0
 10
299.9114026673591
 20
792.221754398146
 30
0.0
 10
299.9164140886384
 20
792.0074465944351
 30
0.0
 10
299.9164140174987
 20
792.0074492094235
 30
0.0
  0
LINE
  5
179
330
16B
100
AcDbEntity
  8
0
  6
Continuous
 62
     0
370
     0
100
AcDbLine
 10
299.889942
 20
851.507446
 30
0.0
 11
299.889942
 21
831.578753
 31
0.0
  0
SPLINE
  5
17A
330
16B
100
AcDbEntity
  8
0
  6
Continuous
 62
     0
370
     0
100
AcDbSpline
210
0.0
220
0.0
230
1.0
 70
     8
 71
     3
 72
    10
 73
     6
 74
     0
 42
0.000000001
 43
0.0
 40
0.0
 40
0.0
 40
0.0
 40
0.0
 40
2.060580258957641
 40
4.121723488388604
 40
6.18371435482061
 40
6.18371435482061
 40
6.18371435482061
 40
6.18371435482061
 10
299.8899419531102
 20
831.5787532078068
 30
0.0
 10
299.8899419440747
 20
830.8918931214877
 30
0.0
 10
299.8880304031213
 20
829.5060674625482
 30
0.0
 10
299.8788625316341
 20
827.6826985046978
 30
0.0
 10
299.8675775237189
 20
826.7687692121325
 30
0.0
 10
299.8605918576555
 20
826.4184329869764
 30
0.0
  0
LINE
  5
17B
330
16B
100
AcDbEntity
  8
0
  6
Continuous
 62
     0
370
     0
100
AcDbLine
 10
299.889942
 20
851.507446
 30
0.0
 11
298.889975
 21
851.507446
 31
0.0
  0
LINE
  5
17C
330
16B
100
AcDbEntity
  8
0
  6
Continuous
 62
     0
370
     0
100
AcDbLine
 10
298.889975
 20
851.507446
 30
0.0
 11
298.889975
 21
831.578753
 31
0.0
  0
LINE
  5
17D
330
16B
100
AcDbEntity
  8
0
  6
Continuous
 62
     0
370
     0
100
AcDbLine
 10
298.889975
 20
831.578753
 30
0.0
 11
296.393894
 21
831.578753
 31
0.0
  0
ARC
  5
17E
330
16B
100
AcDbEntity
  8
0
  6
Continuous
 62
     0
370
     0
100
AcDbCircle
 10
290.418445
 20
834.131718
 30
0.0
 40
6.497970205870628
100
AcDbArc
 50
336.865776
 51
359.980174
  0
LINE
  5
17F
330
16B
100
AcDbEntity
  8
0
  6
Continuous
 62
     0
370
     0
100
AcDbLine
 10
296.916415
 20
834.129469
 30
0.0
 11
296.916415
 21
851.507446
 31
0.0
  0
LINE
  5
180
330
16B
100
AcDbEntity
  8
0
  6
Continuous
 62
     0
370
     0
100
AcDbLine
 10
296.916415
 20
851.507446
 30
0.0
 11
298.889975
 21
851.507446
 31
0.0
  0
LINE
  5
181
330
16B
100
AcDbEntity
  8
0
  6
Continuous
 62
     0
370
    30
100
AcDbLine
 10
295.916415
 20
851.507446
 30
0.0
 11
295.916415
 21
834.129469
 31
0.0
  0
LINE
  5
182
330
16B
100
AcDbEntity
  8
0
  6
Continuous
 62
     0
370
     0
100
AcDbLine
 10
296.916415
 20
851.507446
 30
0.0
 11
295.916415
 21
851.507446
 31
0.0
  0
LINE
  5
183
330
16B
100
AcDbEntity
  8
0
  6
Continuous
 62
     0
370
     0
100
AcDbLine
 10
298.889975
 20
851.507446
 30
0.0
 11
298.889975
 21
852.507446
 31
0.0
  0
LINE
  5
184
330
16B
100
AcDbEntity
  8
0
  6
Continuous
 62
     0
370
     0
100
AcDbLine
 10
296.916415
 20
852.507446
 30
0.0
 11
296.916415
 21
851.507446
 31
0.0
  0
SPLINE
  5
185
330
16B
100
AcDbEntity
  8
0
  6
Continuous
 62
     0
370
     0
100
AcDbSpline
210
0.0
220
0.0
230
1.0
 70
     8
 71
     3
 72
    21
 73
    17
 74
     0
 42
0.000000001
 43
0.0
 40
50.74862133349282
 40
50.74862133349282
 40
50.74862133349282
 40
50.74862133349282
 40
54.37352077922174
 40
57.99842141517796
 40
61.62332340279635
 40
65.24822631733699
 40
68.87312970096795
 40
72.49803229904767
 40
76.12293325255027
 40
79.74783309166499
 40
83.37273265358228
 40
86.99763251981683
 40
90.62253396381332
 40
94.24743574225704
 40
97.87234117703659
 40
101.4972426669856
 40
101.4972426669856
 40
101.4972426669856
 40
101.4972426669856
 10
298.9163986019986
 20
791.0074457497167
 30
0.0
 10
298.9163985019326
 20
791.007445742425
 30
0.0
 10
298.9113883303743
 20
791.2333621159714
 30
0.0
 10
298.8899094794737
 20
792.238253141346
 30
0.0
 10
298.8573724824367
 20
793.8743882111286
 30
0.0
 10
298.818243829015
 20
796.0852008131744
 30
0.0
 10
298.7779023488544
 20
798.7943164074716
 30
0.0
 10
298.7418637717553
 20
801.908182306684
 30
0.0
 10
298.7150586766174
 20
805.3192568086351
 30
0.0
 10
298.7011681002533
 20
808.9096835008115
 30
0.0
 10
298.7021106339852
 20
812.5553469036932
 30
0.0
 10
298.717737915521
 20
816.1302207196559
 30
0.0
 10
298.7459205047209
 20
819.5106767703188
 30
0.0
 10
298.7827738752955
 20
822.5801472350032
 30
0.0
 10
298.8232586249599
 20
825.2317924858681
 30
0.0
 10
298.8490146324669
 20
826.6620351550046
 30
0.0
 10
298.8606616662594
 20
827.2784863650445
 30
0.0
  0
LINE
  5
186
330
16B
100
AcDbEntity
  8
0
  6
Continuous
 62
     0
370
     0
100
AcDbLine
 10
298.860662
 20
827.278486
 30
0.0
 11
290.916415
 21
827.278486
 31
0.0
  0
LINE
  5
187
330
16B
100
AcDbEntity
  8
0
  6
Continuous
 62
     0
370
     0
100
AcDbLine
 10
290.916414
 20
827.278486
 30
0.0
 11
290.916415
 21
830.007446
 31
0.0
  0
LINE
  5
188
330
16B
100
AcDbEntity
  8
0
  6
Continuous
 62
     0
370
    30
100
AcDbLine
 10
290.916415
 20
830.007446
 30
0.0
 11
257.916415
 21
830.007446
 31
0.0
  0
LINE
  5
189
330
16B
100
AcDbEntity
  8
0
  6
Continuous
 62
     0
370
    30
100
AcDbLine
 10
257.916415
 20
830.007446
 30
0.0
 11
257.916414
 21
791.007446
 31
0.0
  0
ARC
  5
18A
330
16B
100
AcDbEntity
  8
0
  6
Continuous
 62
     0
370
    30
100
AcDbCircle
 10
290.916415
 20
835.007446
 30
0.0
 40
5.0
100
AcDbArc
 50
269.999999
 51
359.999999
  0
SPLINE
  5
18B
330
16B
100
AcDbEntity
  8
0
  6
Continuous
 62
     0
370
     0
100
AcDbSpline
210
0.0
220
0.0
230
1.0
 70
     8
 71
     3
 72
    10
 73
     6
 74
     0
 42
0.000000001
 43
0.0
 40
0.0
 40
0.0
 40
0.0
 40
0.0
 40
1.717118880988115
 40
3.434234350498483
 40
5.151328931939018
 40
5.151328931939018
 40
5.151328931939018
 40
5.151328931939018
 10
298.8606616662594
 20
827.2784863650445
 30
0.0
 10
298.8676400003192
 20
827.570491683337
 30
0.0
 10
298.8788651555081
 20
828.3322774532685
 30
0.0
 10
298.8881167891029
 20
829.8517371570151
 30
0.0
 10
298.8899750736001
 20
831.0063883551761
 30
0.0
 10
298.8899750811294
 20
831.5787532156563
 30
0.0
  0
SPLINE
  5
18C
330
16B
100
AcDbEntity
  8
0
  6
Continuous
 62
     0
370
     0
100
AcDbSpline
210
0.0
220
0.0
230
1.0
 70
     8
 71
     3
 72
    14
 73
    10
 74
     0
 42
0.000000001
 43
0.0
 40
0.0
 40
0.0
 40
0.0
 40
0.0
 40
1.037916076906672
 40
2.099546426320613
 40
3.18000527401169
 40
4.27394381925923
 40
5.376970896909995
 40
6.485521900263557
 40
7.59682878182667
 40
7.59682878182667
 40
7.59682878182667
 40
7.59682878182667
 10
296.3938938444908
 20
831.5787532484917
 30
0.0
 10
296.2360579051002
 20
831.2708824009613
 30
0.0
 10
295.8579129420373
 20
830.6767738505287
 30
0.0
 10
295.1726907495243
 20
829.8908893257775
 30
0.0
 10
294.400931781199
 20
829.1991006267106
 30
0.0
 10
293.5717502348189
 20
828.5967936015262
 30
0.0
 10
292.7050013046436
 20
828.0774139217542
 30
0.0
 10
291.8161131331925
 20
827.6350143343619
 30
0.0
 10
291.2164461983949
 20
827.3893355593178
 30
0.0
 10
290.9164148524608
 20
827.2784864695493
 30
0.0
  0
SPLINE
  5
18D
330
16B
100
AcDbEntity
  8
0
  6
Continuous
 62
     0
370
     0
100
AcDbSpline
210
0.0
220
0.0
230
1.0
 70
     8
 71
     3
 72
    11
 73
     7
 74
     0
 42
0.000000001
 43
0.0
 40
0.0
 40
0.0
 40
0.0
 40
0.0
 40
2.507622620637867
 40
4.092273613909081
 40
5.804541291925845
 40
7.555111087882607
 40
7.555111087882607
 40
7.555111087882607
 40
7.555111087882607
 10
290.9164148524608
 20
827.2784864695493
 30
0.0
 10
291.497656212777
 20
827.604433775643
 30
0.0
 10
292.447012841431
 20
828.2320678907871
 30
0.0
 10
293.7195059523596
 20
829.3558476963859
 30
0.0
 10
294.7232757521194
 20
830.5190576771075
 30
0.0
 10
295.26978903312
 20
831.4648934387587
 30
0.0
 10
295.4809806456899
 20
831.9687720680962
 30
0.0
  0
LINE
  5
18E
330
16B
100
AcDbEntity
  8
0
  6
Continuous
 62
     0
370
     0
100
AcDbLine
 10
295.480981
 20
831.968772
 30
0.0
 11
296.393894
 21
831.578753
 31
0.0
  0
ELLIPSE
  5
18F
330
16B
100
AcDbEntity
  8
0
  6
Continuous
 62
     0
370
     0
100
AcDbEllipse
 10
298.860662
 20
826.418433
 30
0.0
 11
0.9998017560326858
 21
-0.01991101790411386
 31
0.0
210
0.0
220
0.0
230
1.0
 40
0.860009
 41
0.02315254236286
 42
1.587921671475886
  0
ARC
  5
190
330
16B
100
AcDbEntity
  8
0
  6
Continuous
 62
     0
370
     0
100
AcDbCircle
 10
290.319584
 20
834.133146
 30
0.0
 40
5.596832020100238
100
AcDbArc
 50
337.249807
 51
359.962365
  0
LINE
  5
191
330
16B
100
AcDbEntity
  8
0
  6
Continuous
 62
     0
370
     0
100
AcDbLine
 10
295.916415
 20
834.129469
 30
0.0
 11
296.916415
 21
834.129469
 31
0.0
  0
LINE
  5
192
330
16B
100
AcDbEntity
  8
0
  6
Continuous
 62
     0
370
     0
100
AcDbLine
 10
298.889975
 20
831.578753
 30
0.0
 11
299.889942
 21
831.578753
 31
0.0
  0
ARC
  5
193
330
16B
100
AcDbEntity
  8
0
  6
Continuous
 62
     0
370
    30
100
AcDbCircle
 10
298.916398
 20
792.007465
 30
0.0
 40
1.000015948502753
100
AcDbArc
 50
270.000913
 51
359.99908
  0
LINE
  5
194
330
16B
100
AcDbEntity
  8
0
  6
Continuous
 62
     0
370
    30
100
AcDbLine
 10
257.916414
 20
791.007446
 30
0.0
 11
298.916399
 21
791.007446
 31
0.0
  0
LINE
  5
195
330
16B
100
AcDbEntity
  8
0
  6
Continuous
 62
     0
370
    30
100
AcDbLine
 10
299.916415
 20
851.507446
 30
0.0
 11
299.916414
 21
792.007449
 31
0.0
  0
ARC
  5
196
330
16B
100
AcDbEntity
  8
0
  6
Continuous
 62
     0
370
    30
100
AcDbCircle
 10
298.916415
 20
851.507446
 30
0.0
 40
1.0
100
AcDbArc
 50
359.999999
 51
89.999999
  0
LINE
  5
197
330
16B
100
AcDbEntity
  8
0
  6
Continuous
 62
     0
370
    30
100
AcDbLine
 10
256.999885
 20
826.507447
 30
0.0
 11
257.916414
 21
826.507447
 31
0.0
  0
LINE
  5
198
330
16B
100
AcDbEntity
  8
0
  6
Continuous
 62
     0
370
    30
100
AcDbLine
 10
256.97981
 20
827.712421
 30
0.0
 11
256.999885
 21
826.507361
 31
0.0
  0
ARC
  5
199
330
16B
100
AcDbEntity
  8
0
  6
Continuous
 62
     0
370
    30
100
AcDbCircle
 10
256.679849
 20
827.707422
 30
0.0
 40
0.300002380650031
100
AcDbArc
 50
0.954838
 51
90.00037
  0
LINE
  5
19A
330
16B
100
AcDbEntity
  8
0
  6
Continuous
 62
     0
370
    30
100
AcDbLine
 10
255.766489
 20
828.007447
 30
0.0
 11
256.679848
 21
828.007447
 31
0.0
  0
LINE
  5
19B
330
16B
100
AcDbEntity
  8
0
  6
Continuous
 62
     0
370
    30
100
AcDbLine
 10
295.316489
 20
720.340165
 30
0.0
 11
294.816489
 21
719.840165
 31
0.0
  0
LINE
  5
19C
330
16B
100
AcDbEntity
  8
0
  6
Continuous
 62
     0
370
    30
100
AcDbLine
 10
302.716489
 20
719.840165
 30
0.0
 11
294.816489
 21
719.840165
 31
0.0
  0
LINE
  5
19D
330
16B
100
AcDbEntity
  8
0
  6
Continuous
 62
     0
370
    30
100
AcDbLine
 10
294.816489
 20
719.840165
 30
0.0
 11
294.816489
 21
712.510165
 31
0.0
  0
SPLINE
  5
19E
330
16B
100
AcDbEntity
  8
0
  6
Continuous
 62
     0
370
    30
100
AcDbSpline
210
0.0
220
0.0
230
1.0
 70
     8
 71
     3
 72
    15
 73
    11
 74
     0
 42
0.000000001
 43
0.0
 40
12.34072682343842
 40
12.34072682343842
 40
12.34072682343842
 40
12.34072682343842
 40
14.10180021068016
 40
15.86348897177187
 40
17.62493407063296
 40
19.38586365374512
 40
21.14726085775806
 40
22.90889941438921
 40
23.79523450824811
 40
24.68145364687684
 40
24.68145364687684
 40
24.68145364687684
 40
24.68145364687684
 10
302.7164890419981
 20
712.5099219776231
 30
0.0
 10
302.716490402892
 20
712.5099266895551
 30
0.0
 10
302.4449964244095
 20
712.4589186073823
 30
0.0
 10
301.3141098463635
 20
712.2869912457762
 30
0.0
 10
299.6785535566682
 20
712.1474871092274
 30
0.0
 10
297.8543530622661
 20
712.1473327220481
 30
0.0
 10
296.2190701627218
 20
712.2869852413987
 30
0.0
 10
295.2746484925162
 20
712.4307565961988
 30
0.0
 10
294.8836288716466
 20
712.4972548633248
 30
0.0
 10
294.8164890549322
 20
712.5101652778214
 30
0.0
 10
294.8164890420196
 20
712.5101652778214
 30
0.0
  0
LINE
  5
19F
330
16B
100
AcDbEntity
  8
0
  6
Continuous
 62
     0
370
    30
100
AcDbLine
 10
257.766489
 20
669.510165
 30
0.0
 11
255.766489
 21
669.510165
 31
0.0
  0
LINE
  5
1A0
330
16B
100
AcDbEntity
  8
0
  6
Continuous
 62
     0
370
    30
100
AcDbLine
 10
257.766489
 20
668.510165
 30
0.0
 11
307.266489
 21
668.510165
 31
0.0
  0
LINE
  5
1A1
330
16B
100
AcDbEntity
  8
0
  6
Continuous
 62
     0
370
    30
100
AcDbLine
 10
307.266489
 20
712.510165
 30
0.0
 11
307.266489
 21
668.510165
 31
0.0
  0
LINE
  5
1A2
330
16B
100
AcDbEntity
  8
0
  6
Continuous
 62
     0
370
    30
100
AcDbLine
 10
307.266489
 20
668.510165
 30
0.0
 11
307.766489
 21
669.010165
 31
0.0
  0
LINE
  5
1A3
330
16B
100
AcDbEntity
  8
0
  6
Continuous
 62
     0
370
    30
100
AcDbLine
 10
257.766489
 20
712.510165
 30
0.0
 11
257.766489
 21
668.510165
 31
0.0
  0
LINE
  5
1A4
330
16B
100
AcDbEntity
  8
0
  6
Continuous
 62
     0
370
    30
100
AcDbLine
 10
302.216489
 20
720.340165
 30
0.0
 11
295.316489
 21
720.340165
 31
0.0
  0
LINE
  5
1A5
330
16B
100
AcDbEntity
  8
0
  6
Continuous
 62
     0
370
    30
100
AcDbLine
 10
307.766489
 20
669.010165
 30
0.0
 11
307.766489
 21
712.010165
 31
0.0
  0
LINE
  5
1A6
330
16B
100
AcDbEntity
  8
0
  6
Continuous
 62
     0
370
    30
100
AcDbLine
 10
307.266489
 20
712.510165
 30
0.0
 11
307.766489
 21
712.010165
 31
0.0
  0
LINE
  5
1A7
330
16B
100
AcDbEntity
  8
0
  6
Continuous
 62
     0
370
    30
100
AcDbLine
 10
257.766489
 20
712.510165
 30
0.0
 11
294.816489
 21
712.510165
 31
0.0
  0
LINE
  5
1A8
330
16B
100
AcDbEntity
  8
0
  6
Continuous
 62
     0
370
    30
100
AcDbLine
 10
302.716113
 20
712.510165
 30
0.0
 11
307.266489
 21
712.510165
 31
0.0
  0
LINE
  5
1A9
330
16B
100
AcDbEntity
  8
0
  6
Continuous
 62
     0
370
    30
100
AcDbLine
 10
255.766489
 20
711.510165
 30
0.0
 11
257.766489
 21
711.510165
 31
0.0
  0
LINE
  5
1AA
330
16B
100
AcDbEntity
  8
0
  6
Continuous
 62
     0
370
    30
100
AcDbLine
 10
302.716489
 20
719.840165
 30
0.0
 11
302.716489
 21
712.509922
 31
0.0
  0
LINE
  5
1AB
330
16B
100
AcDbEntity
  8
0
  6
Continuous
 62
     0
370
    30
100
AcDbLine
 10
302.216489
 20
720.340165
 30
0.0
 11
302.716489
 21
719.840165
 31
0.0
  0
LINE
  5
1AC
330
16B
100
AcDbEntity
  8
0
  6
Continuous
 62
     0
370
     0
100
AcDbLine
 10
256.679848
 20
928.007447
 30
0.0
 11
256.679848
 21
893.007447
 31
0.0
  0
LINE
  5
1AD
330
16B
100
AcDbEntity
  8
0
  6
Continuous
 62
     0
370
    30
100
AcDbLine
 10
256.679848
 20
893.007447
 30
0.0
 11
255.766489
 21
893.007447
 31
0.0
  0
ARC
  5
1AE
330
16B
100
AcDbEntity
  8
0
  6
Continuous
 62
     0
370
    30
100
AcDbCircle
 10
256.679849
 20
893.307472
 30
0.0
 40
0.3000023806495018
100
AcDbArc
 50
269.99963
 51
359.045162
  0
LINE
  5
1AF
330
16B
100
AcDbEntity
  8
0
  6
Continuous
 62
     0
370
     0
100
AcDbLine
 10
256.97981
 20
927.712421
 30
0.0
 11
256.97981
 21
893.302472
 31
0.0
  0
LINE
  5
1B0
330
16B
100
AcDbEntity
  8
0
  6
Continuous
 62
     0
370
    30
100
AcDbLine
 10
256.97981
 20
893.302472
 30
0.0
 11
256.999885
 21
894.507533
 31
0.0
  0
LINE
  5
1B1
330
16B
100
AcDbEntity
  8
0
  6
Continuous
 62
     0
370
    30
100
AcDbLine
 10
256.999885
 20
926.507361
 30
0.0
 11
256.999885
 21
894.507533
 31
0.0
  0
LINE
  5
1B2
330
16B
100
AcDbEntity
  8
0
  6
Continuous
 62
     0
370
    30
100
AcDbLine
 10
256.999885
 20
894.507447
 30
0.0
 11
257.916414
 21
894.507447
 31
0.0
  0
LINE
  5
1B3
330
16B
100
AcDbEntity
  8
0
  6
Continuous
 62
     0
370
    30
100
AcDbLine
 10
296.916415
 20
952.507446
 30
0.0
 11
298.889975
 21
952.507446
 31
0.0
  0
LINE
  5
1B4
330
16B
100
AcDbEntity
  8
0
  6
Continuous
 62
     0
370
    30
100
AcDbLine
 10
298.889975
 20
952.507446
 30
0.0
 11
298.916415
 21
952.507446
 31
0.0
  0
ARC
  5
1B5
330
16B
100
AcDbEntity
  8
0
  6
Continuous
 62
     0
370
     0
100
AcDbCircle
 10
298.889959
 20
951.507462
 30
0.0
 40
0.9999834550988417
100
AcDbArc
 50
359.999051
 51
89.999051
  0
LINE
  5
1B6
330
16B
100
AcDbEntity
  8
0
  6
Continuous
 62
     0
370
     0
100
AcDbLine
 10
299.889942
 20
951.507446
 30
0.0
 11
299.916415
 21
951.507446
 31
0.0
  0
ARC
  5
1B7
330
16B
100
AcDbEntity
  8
0
  6
Continuous
 62
     0
370
    30
100
AcDbCircle
 10
296.916415
 20
951.507446
 30
0.0
 40
1.0
100
AcDbArc
 50
89.999999
 51
179.999999
  0
SPLINE
  5
1B8
330
16B
100
AcDbEntity
  8
0
  6
Continuous
 62
     0
370
     0
100
AcDbSpline
210
0.0
220
0.0
230
1.0
 70
     8
 71
     3
 72
    21
 73
    17
 74
     0
 42
0.000000001
 43
0.0
 40
0.0
 40
0.0
 40
0.0
 40
0.0
 40
3.441841583726254
 40
6.882852512287559
 40
10.32313745608454
 40
13.76274326813164
 40
17.20191509642663
 40
20.64091833849005
 40
24.08005407847499
 40
27.51961152377159
 40
30.95977415881267
 40
34.40069259768724
 40
37.8424409908414
 40
41.28489904790866
 40
44.72789785151545
 40
48.17121764385794
 40
48.17121764385794
 40
48.17121764385794
 40
48.17121764385794
 10
299.8605918576555
 20
926.4184329869764
 30
0.0
 10
299.8489314975936
 20
925.8336574636426
 30
0.0
 10
299.8231592125032
 20
924.4766371287731
 30
0.0
 10
299.7826102163588
 20
921.9614423388206
 30
0.0
 10
299.7456978863563
 20
919.0492239512155
 30
0.0
 10
299.7174818154151
 20
915.8420935947227
 30
0.0
 10
299.7018328462416
 20
912.450410177983
 30
0.0
 10
299.7008955295251
 20
908.9915561493194
 30
0.0
 10
299.7148005512768
 20
905.5851306252042
 30
0.0
 10
299.7416374362431
 20
902.3488463412293
 30
0.0
 10
299.7777354908291
 20
899.3948555498492
 30
0.0
 10
299.8181304114449
 20
896.824537398081
 30
0.0
 10
299.8573028548578
 20
894.7272117839323
 30
0.0
 10
299.8898806695099
 20
893.1750505435555
 30
0.0
 10
299.9114026673591
 20
892.221754398146
 30
0.0
 10
299.9164140886384
 20
892.007446594435
 30
0.0
 10
299.9164140174986
 20
892.0074492094233
 30
0.0
  0
LINE
  5
1B9
330
16B
100
AcDbEntity
  8
0
  6
Continuous
 62
     0
370
     0
100
AcDbLine
 10
299.889942
 20
951.507446
 30
0.0
 11
299.889942
 21
931.578753
 31
0.0
  0
SPLINE
  5
1BA
330
16B
100
AcDbEntity
  8
0
  6
Continuous
 62
     0
370
     0
100
AcDbSpline
210
0.0
220
0.0
230
1.0
 70
     8
 71
     3
 72
    10
 73
     6
 74
     0
 42
0.000000001
 43
0.0
 40
0.0
 40
0.0
 40
0.0
 40
0.0
 40
2.060580258957656
 40
4.121723488388605
 40
6.183714354820611
 40
6.183714354820611
 40
6.183714354820611
 40
6.183714354820611
 10
299.8899419531102
 20
931.5787532078068
 30
0.0
 10
299.8899419440747
 20
930.8918931214877
 30
0.0
 10
299.8880304031214
 20
929.5060674625482
 30
0.0
 10
299.878862531634
 20
927.6826985046978
 30
0.0
 10
299.8675775237189
 20
926.7687692121325
 30
0.0
 10
299.8605918576555
 20
926.4184329869764
 30
0.0
  0
LINE
  5
1BB
330
16B
100
AcDbEntity
  8
0
  6
Continuous
 62
     0
370
     0
100
AcDbLine
 10
299.889942
 20
951.507446
 30
0.0
 11
298.889975
 21
951.507446
 31
0.0
  0
LINE
  5
1BC
330
16B
100
AcDbEntity
  8
0
  6
Continuous
 62
     0
370
     0
100
AcDbLine
 10
298.889975
 20
951.507446
 30
0.0
 11
298.889975
 21
931.578753
 31
0.0
  0
LINE
  5
1BD
330
16B
100
AcDbEntity
  8
0
  6
Continuous
 62
     0
370
     0
100
AcDbLine
 10
298.889975
 20
931.578753
 30
0.0
 11
299.889942
 21
931.578753
 31
0.0
  0
LINE
  5
1BE
330
16B
100
AcDbEntity
  8
0
  6
Continuous
 62
     0
370
     0
100
AcDbLine
 10
298.889975
 20
931.578753
 30
0.0
 11
296.393894
 21
931.578753
 31
0.0
  0
ARC
  5
1BF
330
16B
100
AcDbEntity
  8
0
  6
Continuous
 62
     0
370
     0
100
AcDbCircle
 10
290.418445
 20
934.131718
 30
0.0
 40
6.497970205870127
100
AcDbArc
 50
336.865776
 51
359.980174
  0
LINE
  5
1C0
330
16B
100
AcDbEntity
  8
0
  6
Continuous
 62
     0
370
     0
100
AcDbLine
 10
296.916415
 20
934.129469
 30
0.0
 11
296.916415
 21
951.507446
 31
0.0
  0
LINE
  5
1C1
330
16B
100
AcDbEntity
  8
0
  6
Continuous
 62
     0
370
     0
100
AcDbLine
 10
296.916415
 20
951.507446
 30
0.0
 11
298.889975
 21
951.507446
 31
0.0
  0
LINE
  5
1C2
330
16B
100
AcDbEntity
  8
0
  6
Continuous
 62
     0
370
    30
100
AcDbLine
 10
295.916415
 20
951.507446
 30
0.0
 11
295.916415
 21
934.129469
 31
0.0
  0
LINE
  5
1C3
330
16B
100
AcDbEntity
  8
0
  6
Continuous
 62
     0
370
     0
100
AcDbLine
 10
295.916415
 20
934.129469
 30
0.0
 11
296.916415
 21
934.129469
 31
0.0
  0
LINE
  5
1C4
330
16B
100
AcDbEntity
  8
0
  6
Continuous
 62
     0
370
     0
100
AcDbLine
 10
296.916415
 20
951.507446
 30
0.0
 11
295.916415
 21
951.507446
 31
0.0
  0
LINE
  5
1C5
330
16B
100
AcDbEntity
  8
0
  6
Continuous
 62
     0
370
     0
100
AcDbLine
 10
298.889975
 20
951.507446
 30
0.0
 11
298.889975
 21
952.507446
 31
0.0
  0
LINE
  5
1C6
330
16B
100
AcDbEntity
  8
0
  6
Continuous
 62
     0
370
     0
100
AcDbLine
 10
296.916415
 20
952.507446
 30
0.0
 11
296.916415
 21
951.507446
 31
0.0
  0
SPLINE
  5
1C7
330
16B
100
AcDbEntity
  8
0
  6
Continuous
 62
     0
370
     0
100
AcDbSpline
210
0.0
220
0.0
230
1.0
 70
     8
 71
     3
 72
    21
 73
    17
 74
     0
 42
0.000000001
 43
0.0
 40
50.74862133349281
 40
50.74862133349281
 40
50.74862133349281
 40
50.74862133349281
 40
54.37352077922173
 40
57.99842141517794
 40
61.62332340279634
 40
65.24822631733697
 40
68.87312970096792
 40
72.49803229904764
 40
76.12293325255023
 40
79.74783309166496
 40
83.37273265358225
 40
86.9976325198168
 40
90.62253396381331
 40
94.24743574225703
 40
97.87234117703656
 40
101.4972426669856
 40
101.4972426669856
 40
101.4972426669856
 40
101.4972426669856
 10
298.9163986019985
 20
891.0074457497167
 30
0.0
 10
298.9163985019326
 20
891.007445742425
 30
0.0
 10
298.9113883303743
 20
891.2333621159714
 30
0.0
 10
298.8899094794737
 20
892.238253141346
 30
0.0
 10
298.8573724824367
 20
893.8743882111286
 30
0.0
 10
298.818243829015
 20
896.0852008131744
 30
0.0
 10
298.7779023488544
 20
898.7943164074716
 30
0.0
 10
298.7418637717553
 20
901.908182306684
 30
0.0
 10
298.7150586766174
 20
905.3192568086351
 30
0.0
 10
298.7011681002533
 20
908.9096835008115
 30
0.0
 10
298.7021106339852
 20
912.5553469036931
 30
0.0
 10
298.7177379155211
 20
916.130220719656
 30
0.0
 10
298.7459205047209
 20
919.5106767703188
 30
0.0
 10
298.7827738752955
 20
922.5801472350031
 30
0.0
 10
298.8232586249599
 20
925.2317924858681
 30
0.0
 10
298.8490146324669
 20
926.6620351550046
 30
0.0
 10
298.8606616662594
 20
927.2784863650445
 30
0.0
  0
LINE
  5
1C8
330
16B
100
AcDbEntity
  8
0
  6
Continuous
 62
     0
370
     0
100
AcDbLine
 10
298.860662
 20
927.278486
 30
0.0
 11
290.916415
 21
927.278486
 31
0.0
  0
LINE
  5
1C9
330
16B
100
AcDbEntity
  8
0
  6
Continuous
 62
     0
370
     0
100
AcDbLine
 10
290.916414
 20
927.278486
 30
0.0
 11
290.916415
 21
930.007446
 31
0.0
  0
LINE
  5
1CA
330
16B
100
AcDbEntity
  8
0
  6
Continuous
 62
     0
370
    30
100
AcDbLine
 10
290.916415
 20
930.007446
 30
0.0
 11
257.916415
 21
930.007446
 31
0.0
  0
LINE
  5
1CB
330
16B
100
AcDbEntity
  8
0
  6
Continuous
 62
     0
370
    30
100
AcDbLine
 10
257.916415
 20
930.007446
 30
0.0
 11
257.916414
 21
891.007446
 31
0.0
  0
ARC
  5
1CC
330
16B
100
AcDbEntity
  8
0
  6
Continuous
 62
     0
370
    30
100
AcDbCircle
 10
290.916415
 20
935.007446
 30
0.0
 40
5.0
100
AcDbArc
 50
269.999999
 51
359.999999
  0
SPLINE
  5
1CD
330
16B
100
AcDbEntity
  8
0
  6
Continuous
 62
     0
370
     0
100
AcDbSpline
210
0.0
220
0.0
230
1.0
 70
     8
 71
     3
 72
    10
 73
     6
 74
     0
 42
0.000000001
 43
0.0
 40
0.0
 40
0.0
 40
0.0
 40
0.0
 40
1.717118880988121
 40
3.434234350498481
 40
5.151328931939009
 40
5.151328931939009
 40
5.151328931939009
 40
5.151328931939009
 10
298.8606616662594
 20
927.2784863650445
 30
0.0
 10
298.8676400003192
 20
927.570491683337
 30
0.0
 10
298.8788651555081
 20
928.3322774532686
 30
0.0
 10
298.8881167891029
 20
929.8517371570151
 30
0.0
 10
298.8899750736001
 20
931.0063883551761
 30
0.0
 10
298.8899750811294
 20
931.5787532156562
 30
0.0
  0
SPLINE
  5
1CE
330
16B
100
AcDbEntity
  8
0
  6
Continuous
 62
     0
370
     0
100
AcDbSpline
210
0.0
220
0.0
230
1.0
 70
     8
 71
     3
 72
    14
 73
    10
 74
     0
 42
0.000000001
 43
0.0
 40
0.0
 40
0.0
 40
0.0
 40
0.0
 40
1.037916076906669
 40
2.09954642632061
 40
3.180005274011688
 40
4.273943819259234
 40
5.376970896909993
 40
6.485521900263554
 40
7.596828781826666
 40
7.596828781826666
 40
7.596828781826666
 40
7.596828781826666
 10
296.3938938444908
 20
931.5787532484917
 30
0.0
 10
296.2360579051002
 20
931.2708824009613
 30
0.0
 10
295.8579129420373
 20
930.6767738505287
 30
0.0
 10
295.1726907495244
 20
929.8908893257775
 30
0.0
 10
294.400931781199
 20
929.1991006267106
 30
0.0
 10
293.5717502348189
 20
928.5967936015261
 30
0.0
 10
292.7050013046436
 20
928.0774139217542
 30
0.0
 10
291.8161131331925
 20
927.6350143343619
 30
0.0
 10
291.2164461983949
 20
927.3893355593178
 30
0.0
 10
290.9164148524608
 20
927.2784864695493
 30
0.0
  0
SPLINE
  5
1CF
330
16B
100
AcDbEntity
  8
0
  6
Continuous
 62
     0
370
     0
100
AcDbSpline
210
0.0
220
0.0
230
1.0
 70
     8
 71
     3
 72
    11
 73
     7
 74
     0
 42
0.000000001
 43
0.0
 40
0.0
 40
0.0
 40
0.0
 40
0.0
 40
2.507622620637867
 40
4.092273613909081
 40
5.804541291925845
 40
7.555111087882607
 40
7.555111087882607
 40
7.555111087882607
 40
7.555111087882607
 10
290.9164148524608
 20
927.2784864695493
 30
0.0
 10
291.497656212777
 20
927.604433775643
 30
0.0
 10
292.447012841431
 20
928.2320678907871
 30
0.0
 10
293.7195059523596
 20
929.3558476963859
 30
0.0
 10
294.7232757521194
 20
930.5190576771075
 30
0.0
 10
295.26978903312
 20
931.4648934387587
 30
0.0
 10
295.4809806456899
 20
931.9687720680962
 30
0.0
  0
LINE
  5
1D0
330
16B
100
AcDbEntity
  8
0
  6
Continuous
 62
     0
370
     0
100
AcDbLine
 10
295.480981
 20
931.968772
 30
0.0
 11
296.393894
 21
931.578753
 31
0.0
  0
ELLIPSE
  5
1D1
330
16B
100
AcDbEntity
  8
0
  6
Continuous
 62
     0
370
     0
100
AcDbEllipse
 10
298.860662
 20
926.418433
 30
0.0
 11
0.9998017560326858
 21
-0.01991101790411386
 31
0.0
210
0.0
220
0.0
230
1.0
 40
0.860009
 41
0.02315254236286
 42
1.587921671475886
  0
ARC
  5
1D2
330
16B
100
AcDbEntity
  8
0
  6
Continuous
 62
     0
370
     0
100
AcDbCircle
 10
290.319584
 20
934.133146
 30
0.0
 40
5.596832020094996
100
AcDbArc
 50
337.249807
 51
359.962365
  0
ARC
  5
1D3
330
16B
100
AcDbEntity
  8
0
  6
Continuous
 62
     0
370
    30
100
AcDbCircle
 10
298.916398
 20
892.007465
 30
0.0
 40
1.000015948502787
100
AcDbArc
 50
270.000913
 51
359.99908
  0
LINE
  5
1D4
330
16B
100
AcDbEntity
  8
0
  6
Continuous
 62
     0
370
    30
100
AcDbLine
 10
257.916414
 20
891.007446
 30
0.0
 11
298.916399
 21
891.007446
 31
0.0
  0
LINE
  5
1D5
330
16B
100
AcDbEntity
  8
0
  6
Continuous
 62
     0
370
    30
100
AcDbLine
 10
299.916415
 20
951.507446
 30
0.0
 11
299.916414
 21
892.007449
 31
0.0
  0
ARC
  5
1D6
330
16B
100
AcDbEntity
  8
0
  6
Continuous
 62
     0
370
    30
100
AcDbCircle
 10
298.916415
 20
951.507446
 30
0.0
 40
1.0
100
AcDbArc
 50
359.999999
 51
89.999999
  0
LINE
  5
1D7
330
16B
100
AcDbEntity
  8
0
  6
Continuous
 62
     0
370
    30
100
AcDbLine
 10
256.999885
 20
926.507447
 30
0.0
 11
257.916414
 21
926.507447
 31
0.0
  0
LINE
  5
1D8
330
16B
100
AcDbEntity
  8
0
  6
Continuous
 62
     0
370
    30
100
AcDbLine
 10
256.97981
 20
927.712421
 30
0.0
 11
256.999885
 21
926.507361
 31
0.0
  0
ARC
  5
1D9
330
16B
100
AcDbEntity
  8
0
  6
Continuous
 62
     0
370
    30
100
AcDbCircle
 10
256.679849
 20
927.707422
 30
0.0
 40
0.3000023806445378
100
AcDbArc
 50
0.954838
 51
90.00037
  0
LINE
  5
1DA
330
16B
100
AcDbEntity
  8
0
  6
Continuous
 62
     0
370
    30
100
AcDbLine
 10
255.766489
 20
928.007447
 30
0.0
 11
256.679848
 21
928.007447
 31
0.0
  0
LINE
  5
1DB
330
16B
100
AcDbEntity
  8
0
  6
Continuous
 62
     0
370
     0
100
AcDbLine
 10
256.679848
 20
1028.010165
 30
0.0
 11
256.679848
 21
993.010165
 31
0.0
  0
LINE
  5
1DC
330
16B
100
AcDbEntity
  8
0
  6
Continuous
 62
     0
370
    30
100
AcDbLine
 10
256.679848
 20
993.010165
 30
0.0
 11
255.766489
 21
993.010165
 31
0.0
  0
ARC
  5
1DD
330
16B
100
AcDbEntity
  8
0
  6
Continuous
 62
     0
370
    30
100
AcDbCircle
 10
256.679849
 20
993.31019
 30
0.0
 40
0.3000023806494043
100
AcDbArc
 50
269.99963
 51
359.045162
  0
LINE
  5
1DE
330
16B
100
AcDbEntity
  8
0
  6
Continuous
 62
     0
370
     0
100
AcDbLine
 10
256.97981
 20
1027.71514
 30
0.0
 11
256.97981
 21
993.305191
 31
0.0
  0
LINE
  5
1DF
330
16B
100
AcDbEntity
  8
0
  6
Continuous
 62
     0
370
    30
100
AcDbLine
 10
256.97981
 20
993.305191
 30
0.0
 11
256.999885
 21
994.510252
 31
0.0
  0
LINE
  5
1E0
330
16B
100
AcDbEntity
  8
0
  6
Continuous
 62
     0
370
    30
100
AcDbLine
 10
256.999885
 20
1026.510079
 30
0.0
 11
256.999885
 21
994.510252
 31
0.0
  0
LINE
  5
1E1
330
16B
100
AcDbEntity
  8
0
  6
Continuous
 62
     0
370
    30
100
AcDbLine
 10
256.999885
 20
994.510165
 30
0.0
 11
257.916414
 21
994.510165
 31
0.0
  0
LINE
  5
1E2
330
16B
100
AcDbEntity
  8
0
  6
Continuous
 62
     0
370
    30
100
AcDbLine
 10
296.916415
 20
1052.510164
 30
0.0
 11
298.889975
 21
1052.510164
 31
0.0
  0
ARC
  5
1E3
330
16B
100
AcDbEntity
  8
0
  6
Continuous
 62
     0
370
     0
100
AcDbCircle
 10
298.889959
 20
1051.510181
 30
0.0
 40
0.9999834551005683
100
AcDbArc
 50
359.999051
 51
89.999051
  0
LINE
  5
1E4
330
16B
100
AcDbEntity
  8
0
  6
Continuous
 62
     0
370
     0
100
AcDbLine
 10
299.889942
 20
1051.510164
 30
0.0
 11
299.916415
 21
1051.510164
 31
0.0
  0
ARC
  5
1E5
330
16B
100
AcDbEntity
  8
0
  6
Continuous
 62
     0
370
    30
100
AcDbCircle
 10
296.916415
 20
1051.510164
 30
0.0
 40
1.0
100
AcDbArc
 50
89.999999
 51
179.999999
  0
SPLINE
  5
1E6
330
16B
100
AcDbEntity
  8
0
  6
Continuous
 62
     0
370
     0
100
AcDbSpline
210
0.0
220
0.0
230
1.0
 70
     8
 71
     3
 72
    21
 73
    17
 74
     0
 42
0.000000001
 43
0.0
 40
0.0
 40
0.0
 40
0.0
 40
0.0
 40
3.441841583726212
 40
6.882852512287517
 40
10.32313745608452
 40
13.76274326813163
 40
17.20191509642661
 40
20.64091833848999
 40
24.08005407847496
 40
27.51961152377153
 40
30.95977415881266
 40
34.40069259768724
 40
37.8424409908414
 40
41.28489904790864
 40
44.72789785151543
 40
48.17121764385792
 40
48.17121764385792
 40
48.17121764385792
 40
48.17121764385792
 10
299.8605918576564
 20
1026.421151349424
 30
0.0
 10
299.8489314975945
 20
1025.83637582609
 30
0.0
 10
299.8231592125042
 20
1024.479355491221
 30
0.0
 10
299.7826102163597
 20
1021.964160701268
 30
0.0
 10
299.7456978863572
 20
1019.051942313663
 30
0.0
 10
299.717481815416
 20
1015.84481195717
 30
0.0
 10
299.7018328462424
 20
1012.453128540431
 30
0.0
 10
299.700895529526
 20
1008.994274511767
 30
0.0
 10
299.7148005512777
 20
1005.587848987652
 30
0.0
 10
299.7416374362439
 20
1002.351564703677
 30
0.0
 10
299.77773549083
 20
999.397573912297
 30
0.0
 10
299.8181304114458
 20
996.8272557605287
 30
0.0
 10
299.8573028548587
 20
994.72993014638
 30
0.0
 10
299.8898806695108
 20
993.1777689060033
 30
0.0
 10
299.9114026673599
 20
992.2244727605937
 30
0.0
 10
299.9164140886393
 20
992.0101649568828
 30
0.0
 10
299.9164140174996
 20
992.0101675718713
 30
0.0
  0
LINE
  5
1E7
330
16B
100
AcDbEntity
  8
0
  6
Continuous
 62
     0
370
     0
100
AcDbLine
 10
299.889942
 20
1051.510164
 30
0.0
 11
299.889942
 21
1031.581472
 31
0.0
  0
SPLINE
  5
1E8
330
16B
100
AcDbEntity
  8
0
  6
Continuous
 62
     0
370
     0
100
AcDbSpline
210
0.0
220
0.0
230
1.0
 70
     8
 71
     3
 72
    10
 73
     6
 74
     0
 42
0.000000001
 43
0.0
 40
0.0
 40
0.0
 40
0.0
 40
0.0
 40
2.060580258957641
 40
4.121723488388591
 40
6.183714354820633
 40
6.183714354820633
 40
6.183714354820633
 40
6.183714354820633
 10
299.8899419531111
 20
1031.581471570255
 30
0.0
 10
299.8899419440756
 20
1030.894611483935
 30
0.0
 10
299.8880304031223
 20
1029.508785824996
 30
0.0
 10
299.878862531635
 20
1027.685416867146
 30
0.0
 10
299.8675775237198
 20
1026.77148757458
 30
0.0
 10
299.8605918576564
 20
1026.421151349424
 30
0.0
  0
LINE
  5
1E9
330
16B
100
AcDbEntity
  8
0
  6
Continuous
 62
     0
370
     0
100
AcDbLine
 10
299.889942
 20
1051.510164
 30
0.0
 11
298.889975
 21
1051.510164
 31
0.0
  0
LINE
  5
1EA
330
16B
100
AcDbEntity
  8
0
  6
Continuous
 62
     0
370
     0
100
AcDbLine
 10
298.889975
 20
1051.510164
 30
0.0
 11
298.889975
 21
1031.581472
 31
0.0
  0
LINE
  5
1EB
330
16B
100
AcDbEntity
  8
0
  6
Continuous
 62
     0
370
     0
100
AcDbLine
 10
298.889975
 20
1031.581472
 30
0.0
 11
299.889942
 21
1031.581472
 31
0.0
  0
LINE
  5
1EC
330
16B
100
AcDbEntity
  8
0
  6
Continuous
 62
     0
370
     0
100
AcDbLine
 10
298.889975
 20
1031.581472
 30
0.0
 11
296.393894
 21
1031.581472
 31
0.0
  0
ARC
  5
1ED
330
16B
100
AcDbEntity
  8
0
  6
Continuous
 62
     0
370
     0
100
AcDbCircle
 10
290.418445
 20
1034.134436
 30
0.0
 40
6.497970205878163
100
AcDbArc
 50
336.865776
 51
359.980174
  0
LINE
  5
1EE
330
16B
100
AcDbEntity
  8
0
  6
Continuous
 62
     0
370
     0
100
AcDbLine
 10
296.916415
 20
1034.132188
 30
0.0
 11
296.916415
 21
1051.510164
 31
0.0
  0
LINE
  5
1EF
330
16B
100
AcDbEntity
  8
0
  6
Continuous
 62
     0
370
     0
100
AcDbLine
 10
296.916415
 20
1051.510164
 30
0.0
 11
298.889975
 21
1051.510164
 31
0.0
  0
LINE
  5
1F0
330
16B
100
AcDbEntity
  8
0
  6
Continuous
 62
     0
370
    30
100
AcDbLine
 10
295.916415
 20
1051.510164
 30
0.0
 11
295.916415
 21
1034.132188
 31
0.0
  0
LINE
  5
1F1
330
16B
100
AcDbEntity
  8
0
  6
Continuous
 62
     0
370
     0
100
AcDbLine
 10
295.916415
 20
1034.132188
 30
0.0
 11
296.916415
 21
1034.132188
 31
0.0
  0
LINE
  5
1F2
330
16B
100
AcDbEntity
  8
0
  6
Continuous
 62
     0
370
     0
100
AcDbLine
 10
296.916415
 20
1051.510164
 30
0.0
 11
295.916415
 21
1051.510164
 31
0.0
  0
LINE
  5
1F3
330
16B
100
AcDbEntity
  8
0
  6
Continuous
 62
     0
370
     0
100
AcDbLine
 10
298.889975
 20
1051.510164
 30
0.0
 11
298.889975
 21
1052.510164
 31
0.0
  0
LINE
  5
1F4
330
16B
100
AcDbEntity
  8
0
  6
Continuous
 62
     0
370
     0
100
AcDbLine
 10
296.916415
 20
1052.510164
 30
0.0
 11
296.916415
 21
1051.510164
 31
0.0
  0
SPLINE
  5
1F5
330
16B
100
AcDbEntity
  8
0
  6
Continuous
 62
     0
370
     0
100
AcDbSpline
210
0.0
220
0.0
230
1.0
 70
     8
 71
     3
 72
    21
 73
    17
 74
     0
 42
0.000000001
 43
0.0
 40
50.74862133349283
 40
50.74862133349283
 40
50.74862133349283
 40
50.74862133349283
 40
54.37352077922175
 40
57.99842141517797
 40
61.62332340279636
 40
65.24822631733699
 40
68.87312970096797
 40
72.4980322990477
 40
76.12293325255028
 40
79.74783309166497
 40
83.37273265358229
 40
86.99763251981685
 40
90.62253396381332
 40
94.24743574225707
 40
97.8723411770366
 40
101.4972426669857
 40
101.4972426669857
 40
101.4972426669857
 40
101.4972426669857
 10
298.9163986019995
 20
991.0101641121643
 30
0.0
 10
298.9163985019335
 20
991.0101641048727
 30
0.0
 10
298.9113883303752
 20
991.236080478419
 30
0.0
 10
298.8899094794746
 20
992.2409715037937
 30
0.0
 10
298.8573724824376
 20
993.8771065735763
 30
0.0
 10
298.818243829016
 20
996.0879191756221
 30
0.0
 10
298.7779023488553
 20
998.7970347699193
 30
0.0
 10
298.7418637717562
 20
1001.910900669132
 30
0.0
 10
298.7150586766184
 20
1005.321975171083
 30
0.0
 10
298.7011681002542
 20
1008.912401863259
 30
0.0
 10
298.7021106339861
 20
1012.558065266141
 30
0.0
 10
298.7177379155219
 20
1016.132939082104
 30
0.0
 10
298.7459205047218
 20
1019.513395132767
 30
0.0
 10
298.7827738752964
 20
1022.582865597451
 30
0.0
 10
298.8232586249608
 20
1025.234510848316
 30
0.0
 10
298.8490146324679
 20
1026.664753517452
 30
0.0
 10
298.8606616662603
 20
1027.281204727492
 30
0.0
  0
LINE
  5
1F6
330
16B
100
AcDbEntity
  8
0
  6
Continuous
 62
     0
370
     0
100
AcDbLine
 10
298.860662
 20
1027.281205
 30
0.0
 11
290.916415
 21
1027.281205
 31
0.0
  0
LINE
  5
1F7
330
16B
100
AcDbEntity
  8
0
  6
Continuous
 62
     0
370
     0
100
AcDbLine
 10
290.916414
 20
1027.281205
 30
0.0
 11
290.916415
 21
1030.010164
 31
0.0
  0
LINE
  5
1F8
330
16B
100
AcDbEntity
  8
0
  6
Continuous
 62
     0
370
    30
100
AcDbLine
 10
290.916415
 20
1030.010164
 30
0.0
 11
257.916415
 21
1030.010165
 31
0.0
  0
LINE
  5
1F9
330
16B
100
AcDbEntity
  8
0
  6
Continuous
 62
     0
370
    30
100
AcDbLine
 10
257.916415
 20
1030.010165
 30
0.0
 11
257.916414
 21
991.010165
 31
0.0
  0
ARC
  5
1FA
330
16B
100
AcDbEntity
  8
0
  6
Continuous
 62
     0
370
    30
100
AcDbCircle
 10
290.916415
 20
1035.010164
 30
0.0
 40
5.0
100
AcDbArc
 50
269.999999
 51
359.999999
  0
SPLINE
  5
1FB
330
16B
100
AcDbEntity
  8
0
  6
Continuous
 62
     0
370
     0
100
AcDbSpline
210
0.0
220
0.0
230
1.0
 70
     8
 71
     3
 72
    10
 73
     6
 74
     0
 42
0.000000001
 43
0.0
 40
0.0
 40
0.0
 40
0.0
 40
0.0
 40
1.717118880988121
 40
3.434234350498481
 40
5.151328931939037
 40
5.151328931939037
 40
5.151328931939037
 40
5.151328931939037
 10
298.8606616662603
 20
1027.281204727492
 30
0.0
 10
298.8676400003201
 20
1027.573210045785
 30
0.0
 10
298.878865155509
 20
1028.334995815716
 30
0.0
 10
298.8881167891038
 20
1029.854455519463
 30
0.0
 10
298.889975073601
 20
1031.009106717624
 30
0.0
 10
298.8899750811303
 20
1031.581471578104
 30
0.0
  0
SPLINE
  5
1FC
330
16B
100
AcDbEntity
  8
0
  6
Continuous
 62
     0
370
     0
100
AcDbSpline
210
0.0
220
0.0
230
1.0
 70
     8
 71
     3
 72
    14
 73
    10
 74
     0
 42
0.000000001
 43
0.0
 40
0.0
 40
0.0
 40
0.0
 40
0.0
 40
1.037916076906717
 40
2.099546426320637
 40
3.180005274011714
 40
4.273943819259252
 40
5.376970896910018
 40
6.485521900263591
 40
7.596828781826694
 40
7.596828781826694
 40
7.596828781826694
 40
7.596828781826694
 10
296.3938938444917
 20
1031.581471610939
 30
0.0
 10
296.2360579051011
 20
1031.273600763409
 30
0.0
 10
295.8579129420382
 20
1030.679492212976
 30
0.0
 10
295.1726907495253
 20
1029.893607688225
 30
0.0
 10
294.4009317811999
 20
1029.201818989158
 30
0.0
 10
293.5717502348198
 20
1028.599511963974
 30
0.0
 10
292.7050013046445
 20
1028.080132284202
 30
0.0
 10
291.8161131331935
 20
1027.63773269681
 30
0.0
 10
291.2164461983958
 20
1027.392053921766
 30
0.0
 10
290.9164148524617
 20
1027.281204831997
 30
0.0
  0
SPLINE
  5
1FD
330
16B
100
AcDbEntity
  8
0
  6
Continuous
 62
     0
370
     0
100
AcDbSpline
210
0.0
220
0.0
230
1.0
 70
     8
 71
     3
 72
    11
 73
     7
 74
     0
 42
0.000000001
 43
0.0
 40
0.0
 40
0.0
 40
0.0
 40
0.0
 40
2.507622620637867
 40
4.092273613909081
 40
5.804541291925845
 40
7.555111087882607
 40
7.555111087882607
 40
7.555111087882607
 40
7.555111087882607
 10
290.9164148524617
 20
1027.281204831997
 30
0.0
 10
291.4976562127779
 20
1027.607152138091
 30
0.0
 10
292.447012841432
 20
1028.234786253235
 30
0.0
 10
293.7195059523605
 20
1029.358566058834
 30
0.0
 10
294.7232757521203
 20
1030.521776039555
 30
0.0
 10
295.2697890331209
 20
1031.467611801206
 30
0.0
 10
295.4809806456908
 20
1031.971490430544
 30
0.0
  0
LINE
  5
1FE
330
16B
100
AcDbEntity
  8
0
  6
Continuous
 62
     0
370
     0
100
AcDbLine
 10
295.480981
 20
1031.97149
 30
0.0
 11
296.393894
 21
1031.581472
 31
0.0
  0
ELLIPSE
  5
1FF
330
16B
100
AcDbEntity
  8
0
  6
Continuous
 62
     0
370
     0
100
AcDbEllipse
 10
298.860662
 20
1026.421151
 30
0.0
 11
0.9998017560326858
 21
-0.01991101790411386
 31
0.0
210
0.0
220
0.0
230
1.0
 40
0.860009
 41
0.0231525423628769
 42
1.587921671475886
  0
ARC
  5
200
330
16B
100
AcDbEntity
  8
0
  6
Continuous
 62
     0
370
     0
100
AcDbCircle
 10
290.319584
 20
1034.135864
 30
0.0
 40
5.596832020090589
100
AcDbArc
 50
337.249807
 51
359.962365
  0
ARC
  5
201
330
16B
100
AcDbEntity
  8
0
  6
Continuous
 62
     0
370
    30
100
AcDbCircle
 10
298.916398
 20
992.010184
 30
0.0
 40
1.000015948502289
100
AcDbArc
 50
270.000913
 51
359.99908
  0
LINE
  5
202
330
16B
100
AcDbEntity
  8
0
  6
Continuous
 62
     0
370
    30
100
AcDbLine
 10
257.916414
 20
991.010165
 30
0.0
 11
298.916399
 21
991.010164
 31
0.0
  0
LINE
  5
203
330
16B
100
AcDbEntity
  8
0
  6
Continuous
 62
     0
370
    30
100
AcDbLine
 10
299.916415
 20
1051.510164
 30
0.0
 11
299.916414
 21
992.010168
 31
0.0
  0
ARC
  5
204
330
16B
100
AcDbEntity
  8
0
  6
Continuous
 62
     0
370
    30
100
AcDbCircle
 10
298.916415
 20
1051.510164
 30
0.0
 40
1.0
100
AcDbArc
 50
359.999999
 51
89.999999
  0
LINE
  5
205
330
16B
100
AcDbEntity
  8
0
  6
Continuous
 62
     0
370
    30
100
AcDbLine
 10
256.999885
 20
1026.510165
 30
0.0
 11
257.916414
 21
1026.510165
 31
0.0
  0
LINE
  5
206
330
16B
100
AcDbEntity
  8
0
  6
Continuous
 62
     0
370
    30
100
AcDbLine
 10
256.97981
 20
1027.71514
 30
0.0
 11
256.999885
 21
1026.510079
 31
0.0
  0
ARC
  5
207
330
16B
100
AcDbEntity
  8
0
  6
Continuous
 62
     0
370
    30
100
AcDbCircle
 10
256.679849
 20
1027.71014
 30
0.0
 40
0.3000023806442151
100
AcDbArc
 50
0.954838
 51
90.00037
  0
LINE
  5
208
330
16B
100
AcDbEntity
  8
0
  6
Continuous
 62
     0
370
    30
100
AcDbLine
 10
255.766489
 20
1028.010165
 30
0.0
 11
256.679848
 21
1028.010165
 31
0.0
  0
LINE
  5
209
330
16B
100
AcDbEntity
  8
0
  6
Continuous
 62
     0
370
    30
100
AcDbLine
 10
253.766489
 20
1084.510165
 30
0.0
 11
255.766489
 21
1084.510165
 31
0.0
  0
LINE
  5
20A
330
16B
100
AcDbEntity
  8
0
  6
Continuous
 62
     0
370
    30
100
AcDbLine
 10
253.766489
 20
1084.510165
 30
0.0
 11
253.766489
 21
1044.510165
 31
0.0
  0
LINE
  5
20B
330
16B
100
AcDbEntity
  8
0
  6
Continuous
 62
     0
370
     0
100
AcDbLine
 10
253.766491
 20
1044.510165
 30
0.0
 11
255.766491
 21
1044.510165
 31
0.0
  0
LINE
  5
20C
330
16B
100
AcDbEntity
  8
0
  6
Continuous
 62
     0
370
    30
100
AcDbLine
 10
255.766489
 20
1044.510165
 30
0.0
 11
255.766489
 21
1084.510165
 31
0.0
  0
LINE
  5
20D
330
16B
100
AcDbEntity
  8
0
  6
Continuous
 62
     0
370
     0
100
AcDbLine
 10
253.766491
 20
656.510165
 30
0.0
 11
255.766491
 21
656.510165
 31
0.0
  0
LINE
  5
20E
330
16B
100
AcDbEntity
  8
0
  6
Continuous
 62
     0
370
    30
100
AcDbLine
 10
255.766489
 20
656.510165
 30
0.0
 11
255.766489
 21
616.510165
 31
0.0
  0
LINE
  5
20F
330
16B
100
AcDbEntity
  8
0
  6
Continuous
 62
     0
370
    30
100
AcDbLine
 10
253.766489
 20
616.510165
 30
0.0
 11
253.766489
 21
656.510165
 31
0.0
  0
LINE
  5
210
330
16B
100
AcDbEntity
  8
0
  6
Continuous
 62
     0
370
    30
100
AcDbLine
 10
253.766489
 20
616.510165
 30
0.0
 11
255.766489
 21
616.510165
 31
0.0
  0
LINE
  5
211
330
16B
100
AcDbEntity
  8
0
  6
Continuous
 62
     0
370
    30
100
AcDbLine
 10
253.766491
 20
1044.510165
 30
0.0
 11
253.766491
 21
656.510165
 31
0.0
  0
LINE
  5
212
330
16B
100
AcDbEntity
  8
0
  6
Continuous
 62
     0
370
    30
100
AcDbLine
 10
255.766491
 20
656.510165
 30
0.0
 11
255.766491
 21
1044.510165
 31
0.0
  0
ENDBLK
  5
214
330
16B
100
AcDbEntity
  8
0
100
AcDbBlockEnd
  0
BLOCK
  5
2BE
330
216
100
AcDbEntity
  8
0
100
AcDbBlockBegin
  2
d
 70
     0
 10
-62.701096
 20
0.0
 30
0.0
  3
d
  1

  0
LINE
  5
217
330
216
100
AcDbEntity
  8
0
  6
Continuous
 62
     0
370
     0
100
AcDbLine
 10
-101.683889
 20
793.007432
 30
0.0
 11
-101.683889
 21
828.007432
 31
0.0
  0
LINE
  5
218
330
216
100
AcDbEntity
  8
0
  6
Continuous
 62
     0
370
    30
100
AcDbLine
 10
-101.683889
 20
793.007432
 30
0.0
 11
-100.770531
 21
793.007432
 31
0.0
  0
ARC
  5
219
330
216
100
AcDbEntity
  8
0
  6
Continuous
 62
     0
370
    30
100
AcDbCircle
 10
-101.683891
 20
793.307456
 30
0.0
 40
0.30000238064997
100
AcDbArc
 50
180.954838
 51
270.00037
  0
LINE
  5
21A
330
216
100
AcDbEntity
  8
0
  6
Continuous
 62
     0
370
     0
100
AcDbLine
 10
-101.983852
 20
793.302457
 30
0.0
 11
-101.983852
 21
827.712406
 31
0.0
  0
LINE
  5
21B
330
216
100
AcDbEntity
  8
0
  6
Continuous
 62
     0
370
    30
100
AcDbLine
 10
-101.983852
 20
793.302457
 30
0.0
 11
-102.003927
 21
794.507518
 31
0.0
  0
LINE
  5
21C
330
216
100
AcDbEntity
  8
0
  6
Continuous
 62
     0
370
    30
100
AcDbLine
 10
-102.003927
 20
794.507518
 30
0.0
 11
-102.003927
 21
826.507345
 31
0.0
  0
LINE
  5
21D
330
216
100
AcDbEntity
  8
0
  6
Continuous
 62
     0
370
    30
100
AcDbLine
 10
-102.003927
 20
794.507432
 30
0.0
 11
-102.920456
 21
794.507432
 31
0.0
  0
LINE
  5
21E
330
216
100
AcDbEntity
  8
0
  6
Continuous
 62
     0
370
     0
100
AcDbLine
 10
-143.894017
 20
831.578738
 30
0.0
 11
-141.397936
 21
831.578738
 31
0.0
  0
ARC
  5
21F
330
216
100
AcDbEntity
  8
0
  6
Continuous
 62
     0
370
     0
100
AcDbCircle
 10
-135.422494
 20
834.131701
 30
0.0
 40
6.497962822428528
100
AcDbArc
 50
180.019813
 51
203.134237
  0
LINE
  5
220
330
216
100
AcDbEntity
  8
0
  6
Continuous
 62
     0
370
     0
100
AcDbLine
 10
-141.920457
 20
834.129454
 30
0.0
 11
-141.920457
 21
851.507431
 31
0.0
  0
LINE
  5
221
330
216
100
AcDbEntity
  8
0
  6
Continuous
 62
     0
370
     0
100
AcDbLine
 10
-141.920457
 20
851.507431
 30
0.0
 11
-143.894017
 21
851.507431
 31
0.0
  0
LINE
  5
222
330
216
100
AcDbEntity
  8
0
  6
Continuous
 62
     0
370
     0
100
AcDbLine
 10
-143.894017
 20
851.507431
 30
0.0
 11
-143.894017
 21
831.578738
 31
0.0
  0
LINE
  5
223
330
216
100
AcDbEntity
  8
0
  6
Continuous
 62
     0
370
    30
100
AcDbLine
 10
-143.894017
 20
852.507431
 30
0.0
 11
-141.920457
 21
852.507431
 31
0.0
  0
LINE
  5
224
330
216
100
AcDbEntity
  8
0
  6
Continuous
 62
     0
370
    30
100
AcDbLine
 10
-143.920456
 20
852.50743
 30
0.0
 11
-143.894017
 21
852.50743
 31
0.0
  0
LINE
  5
225
330
216
100
AcDbEntity
  8
0
  6
Continuous
 62
     0
370
     0
100
AcDbLine
 10
-143.894017
 20
851.507431
 30
0.0
 11
-143.894017
 21
852.507431
 31
0.0
  0
LINE
  5
226
330
216
100
AcDbEntity
  8
0
  6
Continuous
 62
     0
370
     0
100
AcDbLine
 10
-141.920457
 20
852.507431
 30
0.0
 11
-141.920457
 21
851.507431
 31
0.0
  0
ARC
  5
227
330
216
100
AcDbEntity
  8
0
  6
Continuous
 62
     0
370
    30
100
AcDbCircle
 10
-143.894001
 20
851.507447
 30
0.0
 40
0.9999834550448069
100
AcDbArc
 50
90.000949
 51
180.000949
  0
LINE
  5
228
330
216
100
AcDbEntity
  8
0
  6
Continuous
 62
     0
370
     0
100
AcDbLine
 10
-144.893984
 20
851.507431
 30
0.0
 11
-143.894017
 21
851.507431
 31
0.0
  0
LINE
  5
229
330
216
100
AcDbEntity
  8
0
  6
Continuous
 62
     0
370
     0
100
AcDbLine
 10
-144.893984
 20
831.578738
 30
0.0
 11
-144.893984
 21
851.507431
 31
0.0
  0
LINE
  5
22A
330
216
100
AcDbEntity
  8
0
  6
Continuous
 62
     0
370
     0
100
AcDbLine
 10
-144.920456
 20
851.50743
 30
0.0
 11
-144.893984
 21
851.50743
 31
0.0
  0
LINE
  5
22B
330
216
100
AcDbEntity
  8
0
  6
Continuous
 62
     0
370
     0
100
AcDbLine
 10
-141.920457
 20
851.507431
 30
0.0
 11
-140.920457
 21
851.507431
 31
0.0
  0
ARC
  5
22C
330
216
100
AcDbEntity
  8
0
  6
Continuous
 62
     0
370
    30
100
AcDbCircle
 10
-141.920457
 20
851.507431
 30
0.0
 40
1.0
100
AcDbArc
 50
0.000001
 51
90.000001
  0
LINE
  5
22D
330
216
100
AcDbEntity
  8
0
  6
Continuous
 62
     0
370
    30
100
AcDbLine
 10
-140.920457
 20
851.507431
 30
0.0
 11
-140.920457
 21
834.129454
 31
0.0
  0
SPLINE
  5
22E
330
216
100
AcDbEntity
  8
0
  6
Continuous
 62
     0
370
     0
100
AcDbSpline
210
0.0
220
0.0
230
1.0
 70
     8
 71
     3
 72
    21
 73
    17
 74
     0
 42
0.000000001
 43
0.0
 40
48.17121764385794
 40
48.17121764385794
 40
48.17121764385794
 40
48.17121764385794
 40
51.61446761388596
 40
55.05746120483949
 40
58.49991683290023
 40
61.94165561409898
 40
65.38259805037588
 40
68.82278773743839
 40
72.26234447888223
 40
75.70149456209352
 40
79.1405112156677
 40
82.57969419747484
 40
86.0193194231972
 40
89.45958122423197
 40
92.90057834620421
 40
96.34243528771587
 40
96.34243528771587
 40
96.34243528771587
 40
96.34243528771587
 10
-144.9204556892547
 20
792.0074339506343
 30
0.0
 10
-144.9204556941845
 20
792.0074376096646
 30
0.0
 10
-144.9154443000599
 20
792.2217512441102
 30
0.0
 10
-144.8939225008935
 20
793.1750334733653
 30
0.0
 10
-144.8613444630776
 20
794.7271662275489
 30
0.0
 10
-144.822172689354
 20
796.8245096348099
 30
0.0
 10
-144.7817736139323
 20
799.3946687251632
 30
0.0
 10
-144.745680098817
 20
802.3488365429357
 30
0.0
 10
-144.7188411655567
 20
805.5850783677682
 30
0.0
 10
-144.7049363163721
 20
808.9915238706444
 30
0.0
 10
-144.7058731832147
 20
812.4503912916871
 30
0.0
 10
-144.7215228123906
 20
815.8420772457641
 30
0.0
 10
-144.7497390184029
 20
819.0492409352008
 30
0.0
 10
-144.7866565537938
 20
821.9612244842278
 30
0.0
 10
-144.8271983240577
 20
824.4768002195
 30
0.0
 10
-144.8529732514071
 20
825.8336397071862
 30
0.0
 10
-144.8646336508186
 20
826.4184178292796
 30
0.0
  0
SPLINE
  5
22F
330
216
100
AcDbEntity
  8
0
  6
Continuous
 62
     0
370
     0
100
AcDbSpline
210
0.0
220
0.0
230
1.0
 70
     8
 71
     3
 72
    10
 73
     6
 74
     0
 42
0.000000001
 43
0.0
 40
0.0
 40
0.0
 40
0.0
 40
0.0
 40
2.061993518247284
 40
4.123136734629859
 40
6.183714339278842
 40
6.183714339278842
 40
6.183714339278842
 40
6.183714339278842
 10
-144.8646336508186
 20
826.4184178292796
 30
0.0
 10
-144.8716193182695
 20
826.7687544986591
 30
0.0
 10
-144.8829045238084
 20
827.6826656201569
 30
0.0
 10
-144.8920719229203
 20
829.5060632603296
 30
0.0
 10
-144.8939836994368
 20
830.8918788170852
 30
0.0
 10
-144.8939837084723
 20
831.5787380186348
 30
0.0
  0
LINE
  5
230
330
216
100
AcDbEntity
  8
0
  6
Continuous
 62
     0
370
     0
100
AcDbLine
 10
-135.920456
 20
830.007431
 30
0.0
 11
-135.920456
 21
827.278471
 31
0.0
  0
LINE
  5
231
330
216
100
AcDbEntity
  8
0
  6
Continuous
 62
     0
370
     0
100
AcDbLine
 10
-135.920457
 20
827.278471
 30
0.0
 11
-143.864703
 21
827.278471
 31
0.0
  0
SPLINE
  5
232
330
216
100
AcDbEntity
  8
0
  6
Continuous
 62
     0
370
     0
100
AcDbSpline
210
0.0
220
0.0
230
1.0
 70
     8
 71
     3
 72
    21
 73
    17
 74
     0
 42
0.000000001
 43
0.0
 40
0.0
 40
0.0
 40
0.0
 40
0.0
 40
3.624901490165045
 40
7.249806925673177
 40
10.87470871046786
 40
14.49961016686268
 40
18.1245100502871
 40
21.74940963257128
 40
25.37430948422121
 40
28.99921043498261
 40
32.62411302821398
 40
36.24901640786733
 40
39.87391932285272
 40
43.49882131204579
 40
47.12372194853266
 40
50.74862133349282
 40
50.74862133349282
 40
50.74862133349282
 40
50.74862133349282
 10
-143.8647034658254
 20
827.2784712126789
 30
0.0
 10
-143.853056445382
 20
826.662020013718
 30
0.0
 10
-143.8272997854911
 20
825.2317773706428
 30
0.0
 10
-143.7868167958281
 20
822.5801321303637
 30
0.0
 10
-143.7499621037422
 20
819.5106616926215
 30
0.0
 10
-143.7217746071013
 20
816.1302056836101
 30
0.0
 10
-143.7061449755658
 20
812.5553318631042
 30
0.0
 10
-143.7052056445291
 20
808.9096684376971
 30
0.0
 10
-143.7191006807249
 20
805.3192417454115
 30
0.0
 10
-143.7459107097943
 20
801.908167265359
 30
0.0
 10
-143.7819477347185
 20
798.7943013343681
 30
0.0
 10
-143.8222847723023
 20
796.085185680402
 30
0.0
 10
-143.8614158526381
 20
793.874373067269
 30
0.0
 10
-143.8939528935795
 20
792.2382379593182
 30
0.0
 10
-143.915430919943
 20
791.2333468980917
 30
0.0
 10
-143.9204404795813
 20
791.0074304991715
 30
0.0
 10
-143.9204402737515
 20
791.0074304909276
 30
0.0
  0
LINE
  5
233
330
216
100
AcDbEntity
  8
0
  6
Continuous
 62
     0
370
    30
100
AcDbLine
 10
-135.920456
 20
830.007431
 30
0.0
 11
-102.920456
 21
830.007431
 31
0.0
  0
LINE
  5
234
330
216
100
AcDbEntity
  8
0
  6
Continuous
 62
     0
370
    30
100
AcDbLine
 10
-102.920456
 20
791.007431
 30
0.0
 11
-102.920456
 21
830.007431
 31
0.0
  0
ARC
  5
235
330
216
100
AcDbEntity
  8
0
  6
Continuous
 62
     0
370
    30
100
AcDbCircle
 10
-135.920456
 20
835.007431
 30
0.0
 40
5.0
100
AcDbArc
 50
180.000001
 51
270.000001
  0
ARC
  5
236
330
216
100
AcDbEntity
  8
0
  6
Continuous
 62
     0
370
     0
100
AcDbCircle
 10
-135.276303
 20
834.142667
 30
0.0
 40
5.644169357542813
100
AcDbArc
 50
180.134131
 51
202.653697
  0
SPLINE
  5
237
330
216
100
AcDbEntity
  8
0
  6
Continuous
 62
     0
370
     0
100
AcDbSpline
210
0.0
220
0.0
230
1.0
 70
     8
 71
     3
 72
    14
 73
    10
 74
     0
 42
0.000000001
 43
0.0
 40
0.0
 40
0.0
 40
0.0
 40
0.0
 40
1.021268063453735
 40
2.067961234983277
 40
3.13721512031983
 40
4.224835717853899
 40
5.32593861445698
 40
6.435853999810886
 40
7.550179266023622
 40
7.550179266023622
 40
7.550179266023622
 40
7.550179266023622
 10
-140.4850224024929
 20
831.9687568801241
 30
0.0
 10
-140.3536419069099
 20
831.655298294759
 30
0.0
 10
-140.0381472490028
 20
831.0441358400525
 30
0.0
 10
-139.4659295197292
 20
830.2223768409552
 30
0.0
 10
-138.8226324742177
 20
829.4843596426145
 30
0.0
 10
-138.131720990993
 20
828.8255176522811
 30
0.0
 10
-137.4098724738686
 20
828.2392166402215
 30
0.0
 10
-136.6694531090758
 20
827.7206681966879
 30
0.0
 10
-136.170424294378
 20
827.4186476444688
 30
0.0
 10
-135.9204566520267
 20
827.2784713171837
 30
0.0
  0
SPLINE
  5
238
330
216
100
AcDbEntity
  8
0
  6
Continuous
 62
     0
370
     0
100
AcDbSpline
210
0.0
220
0.0
230
1.0
 70
     8
 71
     3
 72
    14
 73
    10
 74
     0
 42
0.000000001
 43
0.0
 40
0.0
 40
0.0
 40
0.0
 40
0.0
 40
1.111306881563107
 40
2.219857884916666
 40
3.322884962567415
 40
4.41682350781497
 40
5.497282355506057
 40
6.558912704919988
 40
7.596828781826671
 40
7.596828781826671
 40
7.596828781826671
 40
7.596828781826671
 10
-135.9204566520267
 20
827.2784713171837
 30
0.0
 10
-136.2204879955602
 20
827.3893204049534
 30
0.0
 10
-136.8201549257465
 20
827.634999176158
 30
0.0
 10
-137.7090430908574
 20
828.0773987582711
 30
0.0
 10
-138.5757920153389
 20
828.5967784333021
 30
0.0
 10
-139.4049735567827
 20
829.1990854543761
 30
0.0
 10
-140.1767325211208
 20
829.8908741501232
 30
0.0
 10
-140.8619547108827
 20
830.6767586725837
 30
0.0
 10
-141.2400996732044
 20
831.2708672223993
 30
0.0
 10
-141.3979356125951
 20
831.5787380699296
 30
0.0
  0
SPLINE
  5
239
330
216
100
AcDbEntity
  8
0
  6
Continuous
 62
     0
370
     0
100
AcDbSpline
210
0.0
220
0.0
230
1.0
 70
     8
 71
     3
 72
    10
 73
     6
 74
     0
 42
0.000000001
 43
0.0
 40
0.0
 40
0.0
 40
0.0
 40
0.0
 40
1.717093728849344
 40
3.434209228894742
 40
5.151328921808096
 40
5.151328921808096
 40
5.151328921808096
 40
5.151328921808096
 10
-143.8940168492337
 20
831.5787380370941
 30
0.0
 10
-143.8940168417044
 20
831.006373460811
 30
0.0
 10
-143.8921565170613
 20
829.8517225560624
 30
0.0
 10
-143.8829056436764
 20
828.3322627129768
 30
0.0
 10
-143.8716817968611
 20
827.5704766637783
 30
0.0
 10
-143.8647034658254
 20
827.2784712126789
 30
0.0
  0
ELLIPSE
  5
23A
330
216
100
AcDbEntity
  8
0
  6
Continuous
 62
     0
370
     0
100
AcDbEllipse
 10
-143.864703
 20
826.418418
 30
0.0
 11
0.9998017564565976
 21
0.01991099661990343
 31
0.0
210
0.0
220
0.0
230
1.0
 40
0.860009
 41
1.553671006867658
 42
3.118440135980666
  0
LINE
  5
23B
330
216
100
AcDbEntity
  8
0
  6
Continuous
 62
     0
370
     0
100
AcDbLine
 10
-140.485022
 20
831.968757
 30
0.0
 11
-141.397936
 21
831.578738
 31
0.0
  0
LINE
  5
23C
330
216
100
AcDbEntity
  8
0
  6
Continuous
 62
     0
370
     0
100
AcDbLine
 10
-143.894017
 20
831.578738
 30
0.0
 11
-144.893984
 21
831.578738
 31
0.0
  0
LINE
  5
23D
330
216
100
AcDbEntity
  8
0
  6
Continuous
 62
     0
370
     0
100
AcDbLine
 10
-140.920457
 20
834.129454
 30
0.0
 11
-141.920457
 21
834.129454
 31
0.0
  0
ARC
  5
23E
330
216
100
AcDbEntity
  8
0
  6
Continuous
 62
     0
370
    30
100
AcDbCircle
 10
-143.920439
 20
792.00745
 30
0.0
 40
1.000015948766503
100
AcDbArc
 50
180.00092
 51
269.999087
  0
LINE
  5
23F
330
216
100
AcDbEntity
  8
0
  6
Continuous
 62
     0
370
    30
100
AcDbLine
 10
-102.920456
 20
791.007431
 30
0.0
 11
-143.92044
 21
791.00743
 31
0.0
  0
LINE
  5
240
330
216
100
AcDbEntity
  8
0
  6
Continuous
 62
     0
370
    30
100
AcDbLine
 10
-144.920456
 20
851.50743
 30
0.0
 11
-144.920456
 21
792.007434
 31
0.0
  0
ARC
  5
241
330
216
100
AcDbEntity
  8
0
  6
Continuous
 62
     0
370
    30
100
AcDbCircle
 10
-143.920456
 20
851.50743
 30
0.0
 40
1.0
100
AcDbArc
 50
90.000001
 51
180.000001
  0
LINE
  5
242
330
216
100
AcDbEntity
  8
0
  6
Continuous
 62
     0
370
    30
100
AcDbLine
 10
-102.003927
 20
826.507432
 30
0.0
 11
-102.920456
 21
826.507432
 31
0.0
  0
LINE
  5
243
330
216
100
AcDbEntity
  8
0
  6
Continuous
 62
     0
370
    30
100
AcDbLine
 10
-101.983852
 20
827.712406
 30
0.0
 11
-102.003927
 21
826.507345
 31
0.0
  0
ARC
  5
244
330
216
100
AcDbEntity
  8
0
  6
Continuous
 62
     0
370
    30
100
AcDbCircle
 10
-101.683891
 20
827.707407
 30
0.0
 40
0.30000238064986
100
AcDbArc
 50
89.99963
 51
179.045162
  0
LINE
  5
245
330
216
100
AcDbEntity
  8
0
  6
Continuous
 62
     0
370
    30
100
AcDbLine
 10
-100.770531
 20
828.007432
 30
0.0
 11
-101.683889
 21
828.007432
 31
0.0
  0
LINE
  5
246
330
216
100
AcDbEntity
  8
0
  6
Continuous
 62
     0
370
    30
100
AcDbLine
 10
-140.320531
 20
720.34015
 30
0.0
 11
-139.820531
 21
719.84015
 31
0.0
  0
LINE
  5
247
330
216
100
AcDbEntity
  8
0
  6
Continuous
 62
     0
370
    30
100
AcDbLine
 10
-139.820531
 20
719.84015
 30
0.0
 11
-147.720531
 21
719.84015
 31
0.0
  0
LINE
  5
248
330
216
100
AcDbEntity
  8
0
  6
Continuous
 62
     0
370
    30
100
AcDbLine
 10
-139.820531
 20
719.84015
 30
0.0
 11
-139.820531
 21
712.51015
 31
0.0
  0
SPLINE
  5
249
330
216
100
AcDbEntity
  8
0
  6
Continuous
 62
     0
370
    30
100
AcDbSpline
210
0.0
220
0.0
230
1.0
 70
     8
 71
     3
 72
    15
 73
    11
 74
     0
 42
0.000000001
 43
0.0
 40
0.0
 40
0.0
 40
0.0
 40
0.0
 40
0.886272403327727
 40
1.772579167633888
 40
3.534200500235897
 40
5.295619524058289
 40
7.056576248147227
 40
8.818013398157177
 40
10.5796838485517
 40
12.34072682343842
 40
12.34072682343842
 40
12.34072682343842
 40
12.34072682343842
 10
-139.8205307139546
 20
712.5101500190324
 30
0.0
 10
-139.820530726868
 20
712.5101500190324
 30
0.0
 10
-139.8876799692927
 20
712.4978795279321
 30
0.0
 10
-140.2786985814834
 20
712.4304477751963
 30
0.0
 10
-141.2231126937262
 20
712.2869981325154
 30
0.0
 10
-142.8584051993097
 20
712.1472495237375
 30
0.0
 10
-144.6826245754549
 20
712.147330673211
 30
0.0
 10
-146.3181646332821
 20
712.2869928129431
 30
0.0
 10
-147.4490370394056
 20
712.4588764342832
 30
0.0
 10
-147.7205288684313
 20
712.5099019062104
 30
0.0
 10
-147.7205307139342
 20
712.509906718834
 30
0.0
  0
LINE
  5
24A
330
216
100
AcDbEntity
  8
0
  6
Continuous
 62
     0
370
    30
100
AcDbLine
 10
-102.770531
 20
669.51015
 30
0.0
 11
-100.770531
 21
669.51015
 31
0.0
  0
LINE
  5
24B
330
216
100
AcDbEntity
  8
0
  6
Continuous
 62
     0
370
    30
100
AcDbLine
 10
-102.770531
 20
668.51015
 30
0.0
 11
-152.270531
 21
668.51015
 31
0.0
  0
LINE
  5
24C
330
216
100
AcDbEntity
  8
0
  6
Continuous
 62
     0
370
    30
100
AcDbLine
 10
-152.270531
 20
668.51015
 30
0.0
 11
-152.270531
 21
712.51015
 31
0.0
  0
LINE
  5
24D
330
216
100
AcDbEntity
  8
0
  6
Continuous
 62
     0
370
    30
100
AcDbLine
 10
-152.270531
 20
668.51015
 30
0.0
 11
-152.770531
 21
669.01015
 31
0.0
  0
LINE
  5
24E
330
216
100
AcDbEntity
  8
0
  6
Continuous
 62
     0
370
    30
100
AcDbLine
 10
-102.770531
 20
668.51015
 30
0.0
 11
-102.770531
 21
712.51015
 31
0.0
  0
LINE
  5
24F
330
216
100
AcDbEntity
  8
0
  6
Continuous
 62
     0
370
    30
100
AcDbLine
 10
-140.320531
 20
720.34015
 30
0.0
 11
-147.220531
 21
720.34015
 31
0.0
  0
LINE
  5
250
330
216
100
AcDbEntity
  8
0
  6
Continuous
 62
     0
370
    30
100
AcDbLine
 10
-152.770531
 20
712.01015
 30
0.0
 11
-152.770531
 21
669.01015
 31
0.0
  0
LINE
  5
251
330
216
100
AcDbEntity
  8
0
  6
Continuous
 62
     0
370
    30
100
AcDbLine
 10
-152.270531
 20
712.51015
 30
0.0
 11
-152.770531
 21
712.01015
 31
0.0
  0
LINE
  5
252
330
216
100
AcDbEntity
  8
0
  6
Continuous
 62
     0
370
    30
100
AcDbLine
 10
-102.770531
 20
712.51015
 30
0.0
 11
-139.820531
 21
712.51015
 31
0.0
  0
LINE
  5
253
330
216
100
AcDbEntity
  8
0
  6
Continuous
 62
     0
370
    30
100
AcDbLine
 10
-147.720154
 20
712.51015
 30
0.0
 11
-152.270531
 21
712.51015
 31
0.0
  0
LINE
  5
254
330
216
100
AcDbEntity
  8
0
  6
Continuous
 62
     0
370
    30
100
AcDbLine
 10
-100.770531
 20
711.51015
 30
0.0
 11
-102.770531
 21
711.51015
 31
0.0
  0
LINE
  5
255
330
216
100
AcDbEntity
  8
0
  6
Continuous
 62
     0
370
    30
100
AcDbLine
 10
-147.720531
 20
719.84015
 30
0.0
 11
-147.720531
 21
712.509907
 31
0.0
  0
LINE
  5
256
330
216
100
AcDbEntity
  8
0
  6
Continuous
 62
     0
370
    30
100
AcDbLine
 10
-147.220531
 20
720.34015
 30
0.0
 11
-147.720531
 21
719.84015
 31
0.0
  0
LINE
  5
257
330
216
100
AcDbEntity
  8
0
  6
Continuous
 62
     0
370
     0
100
AcDbLine
 10
-101.683889
 20
893.007432
 30
0.0
 11
-101.683889
 21
928.007432
 31
0.0
  0
LINE
  5
258
330
216
100
AcDbEntity
  8
0
  6
Continuous
 62
     0
370
    30
100
AcDbLine
 10
-101.683889
 20
893.007432
 30
0.0
 11
-100.770531
 21
893.007432
 31
0.0
  0
ARC
  5
259
330
216
100
AcDbEntity
  8
0
  6
Continuous
 62
     0
370
    30
100
AcDbCircle
 10
-101.683891
 20
893.307456
 30
0.0
 40
0.300002380648262
100
AcDbArc
 50
180.954838
 51
270.00037
  0
LINE
  5
25A
330
216
100
AcDbEntity
  8
0
  6
Continuous
 62
     0
370
     0
100
AcDbLine
 10
-101.983852
 20
893.302457
 30
0.0
 11
-101.983852
 21
927.712406
 31
0.0
  0
LINE
  5
25B
330
216
100
AcDbEntity
  8
0
  6
Continuous
 62
     0
370
    30
100
AcDbLine
 10
-101.983852
 20
893.302457
 30
0.0
 11
-102.003927
 21
894.507518
 31
0.0
  0
LINE
  5
25C
330
216
100
AcDbEntity
  8
0
  6
Continuous
 62
     0
370
    30
100
AcDbLine
 10
-102.003927
 20
894.507518
 30
0.0
 11
-102.003927
 21
926.507345
 31
0.0
  0
LINE
  5
25D
330
216
100
AcDbEntity
  8
0
  6
Continuous
 62
     0
370
    30
100
AcDbLine
 10
-102.003927
 20
894.507432
 30
0.0
 11
-102.920456
 21
894.507432
 31
0.0
  0
LINE
  5
25E
330
216
100
AcDbEntity
  8
0
  6
Continuous
 62
     0
370
     0
100
AcDbLine
 10
-143.894017
 20
931.578738
 30
0.0
 11
-141.397936
 21
931.578738
 31
0.0
  0
ARC
  5
25F
330
216
100
AcDbEntity
  8
0
  6
Continuous
 62
     0
370
     0
100
AcDbCircle
 10
-135.422494
 20
934.131701
 30
0.0
 40
6.497962822427816
100
AcDbArc
 50
180.019813
 51
203.134237
  0
LINE
  5
260
330
216
100
AcDbEntity
  8
0
  6
Continuous
 62
     0
370
     0
100
AcDbLine
 10
-141.920457
 20
934.129454
 30
0.0
 11
-141.920457
 21
951.507431
 31
0.0
  0
LINE
  5
261
330
216
100
AcDbEntity
  8
0
  6
Continuous
 62
     0
370
     0
100
AcDbLine
 10
-141.920457
 20
951.507431
 30
0.0
 11
-143.894017
 21
951.507431
 31
0.0
  0
LINE
  5
262
330
216
100
AcDbEntity
  8
0
  6
Continuous
 62
     0
370
     0
100
AcDbLine
 10
-143.894017
 20
951.507431
 30
0.0
 11
-143.894017
 21
931.578738
 31
0.0
  0
LINE
  5
263
330
216
100
AcDbEntity
  8
0
  6
Continuous
 62
     0
370
    30
100
AcDbLine
 10
-143.894017
 20
952.507431
 30
0.0
 11
-141.920457
 21
952.507431
 31
0.0
  0
LINE
  5
264
330
216
100
AcDbEntity
  8
0
  6
Continuous
 62
     0
370
    30
100
AcDbLine
 10
-143.920456
 20
952.50743
 30
0.0
 11
-143.894017
 21
952.50743
 31
0.0
  0
LINE
  5
265
330
216
100
AcDbEntity
  8
0
  6
Continuous
 62
     0
370
     0
100
AcDbLine
 10
-143.894017
 20
951.507431
 30
0.0
 11
-143.894017
 21
952.507431
 31
0.0
  0
LINE
  5
266
330
216
100
AcDbEntity
  8
0
  6
Continuous
 62
     0
370
     0
100
AcDbLine
 10
-141.920457
 20
952.507431
 30
0.0
 11
-141.920457
 21
951.507431
 31
0.0
  0
ARC
  5
267
330
216
100
AcDbEntity
  8
0
  6
Continuous
 62
     0
370
    30
100
AcDbCircle
 10
-143.894001
 20
951.507447
 30
0.0
 40
0.9999834550461533
100
AcDbArc
 50
90.000949
 51
180.000949
  0
LINE
  5
268
330
216
100
AcDbEntity
  8
0
  6
Continuous
 62
     0
370
     0
100
AcDbLine
 10
-144.893984
 20
951.507431
 30
0.0
 11
-143.894017
 21
951.507431
 31
0.0
  0
LINE
  5
269
330
216
100
AcDbEntity
  8
0
  6
Continuous
 62
     0
370
     0
100
AcDbLine
 10
-144.893984
 20
931.578738
 30
0.0
 11
-144.893984
 21
951.507431
 31
0.0
  0
LINE
  5
26A
330
216
100
AcDbEntity
  8
0
  6
Continuous
 62
     0
370
     0
100
AcDbLine
 10
-143.894017
 20
931.578738
 30
0.0
 11
-144.893984
 21
931.578738
 31
0.0
  0
LINE
  5
26B
330
216
100
AcDbEntity
  8
0
  6
Continuous
 62
     0
370
     0
100
AcDbLine
 10
-144.920456
 20
951.50743
 30
0.0
 11
-144.893984
 21
951.50743
 31
0.0
  0
LINE
  5
26C
330
216
100
AcDbEntity
  8
0
  6
Continuous
 62
     0
370
     0
100
AcDbLine
 10
-141.920457
 20
951.507431
 30
0.0
 11
-140.920457
 21
951.507431
 31
0.0
  0
ARC
  5
26D
330
216
100
AcDbEntity
  8
0
  6
Continuous
 62
     0
370
    30
100
AcDbCircle
 10
-141.920457
 20
951.507431
 30
0.0
 40
1.0
100
AcDbArc
 50
0.000001
 51
90.000001
  0
LINE
  5
26E
330
216
100
AcDbEntity
  8
0
  6
Continuous
 62
     0
370
     0
100
AcDbLine
 10
-140.920457
 20
934.129454
 30
0.0
 11
-141.920457
 21
934.129454
 31
0.0
  0
LINE
  5
26F
330
216
100
AcDbEntity
  8
0
  6
Continuous
 62
     0
370
    30
100
AcDbLine
 10
-140.920457
 20
951.507431
 30
0.0
 11
-140.920457
 21
934.129454
 31
0.0
  0
SPLINE
  5
270
330
216
100
AcDbEntity
  8
0
  6
Continuous
 62
     0
370
     0
100
AcDbSpline
210
0.0
220
0.0
230
1.0
 70
     8
 71
     3
 72
    21
 73
    17
 74
     0
 42
0.000000001
 43
0.0
 40
48.17121764385794
 40
48.17121764385794
 40
48.17121764385794
 40
48.17121764385794
 40
51.61446761388596
 40
55.0574612048395
 40
58.49991683290024
 40
61.94165561409899
 40
65.38259805037588
 40
68.8227877374384
 40
72.26234447888223
 40
75.70149456209352
 40
79.1405112156677
 40
82.57969419747484
 40
86.0193194231972
 40
89.45958122423195
 40
92.9005783462042
 40
96.34243528771586
 40
96.34243528771586
 40
96.34243528771586
 40
96.34243528771586
 10
-144.9204556892547
 20
892.0074339506343
 30
0.0
 10
-144.9204556941846
 20
892.0074376096646
 30
0.0
 10
-144.9154443000599
 20
892.2217512441102
 30
0.0
 10
-144.8939225008935
 20
893.1750334733653
 30
0.0
 10
-144.8613444630776
 20
894.727166227549
 30
0.0
 10
-144.8221726893541
 20
896.82450963481
 30
0.0
 10
-144.7817736139323
 20
899.3946687251632
 30
0.0
 10
-144.745680098817
 20
902.3488365429357
 30
0.0
 10
-144.7188411655567
 20
905.5850783677682
 30
0.0
 10
-144.7049363163721
 20
908.9915238706444
 30
0.0
 10
-144.7058731832147
 20
912.4503912916871
 30
0.0
 10
-144.7215228123906
 20
915.8420772457641
 30
0.0
 10
-144.7497390184029
 20
919.0492409352008
 30
0.0
 10
-144.7866565537938
 20
921.9612244842278
 30
0.0
 10
-144.8271983240577
 20
924.4768002195
 30
0.0
 10
-144.8529732514071
 20
925.8336397071862
 30
0.0
 10
-144.8646336508186
 20
926.4184178292796
 30
0.0
  0
SPLINE
  5
271
330
216
100
AcDbEntity
  8
0
  6
Continuous
 62
     0
370
     0
100
AcDbSpline
210
0.0
220
0.0
230
1.0
 70
     8
 71
     3
 72
    10
 73
     6
 74
     0
 42
0.000000001
 43
0.0
 40
0.0
 40
0.0
 40
0.0
 40
0.0
 40
2.061993518247285
 40
4.123136734629847
 40
6.183714339278858
 40
6.183714339278858
 40
6.183714339278858
 40
6.183714339278858
 10
-144.8646336508186
 20
926.4184178292796
 30
0.0
 10
-144.8716193182695
 20
926.7687544986591
 30
0.0
 10
-144.8829045238084
 20
927.6826656201569
 30
0.0
 10
-144.8920719229204
 20
929.5060632603296
 30
0.0
 10
-144.8939836994368
 20
930.8918788170852
 30
0.0
 10
-144.8939837084723
 20
931.5787380186349
 30
0.0
  0
LINE
  5
272
330
216
100
AcDbEntity
  8
0
  6
Continuous
 62
     0
370
     0
100
AcDbLine
 10
-135.920456
 20
930.007431
 30
0.0
 11
-135.920456
 21
927.278471
 31
0.0
  0
LINE
  5
273
330
216
100
AcDbEntity
  8
0
  6
Continuous
 62
     0
370
     0
100
AcDbLine
 10
-135.920457
 20
927.278471
 30
0.0
 11
-143.864703
 21
927.278471
 31
0.0
  0
SPLINE
  5
274
330
216
100
AcDbEntity
  8
0
  6
Continuous
 62
     0
370
     0
100
AcDbSpline
210
0.0
220
0.0
230
1.0
 70
     8
 71
     3
 72
    21
 73
    17
 74
     0
 42
0.000000001
 43
0.0
 40
0.0
 40
0.0
 40
0.0
 40
0.0
 40
3.624901490165047
 40
7.249806925673176
 40
10.87470871046785
 40
14.49961016686268
 40
18.1245100502871
 40
21.74940963257126
 40
25.3743094842212
 40
28.99921043498261
 40
32.62411302821397
 40
36.24901640786732
 40
39.87391932285271
 40
43.49882131204578
 40
47.12372194853265
 40
50.74862133349281
 40
50.74862133349281
 40
50.74862133349281
 40
50.74862133349281
 10
-143.8647034658254
 20
927.2784712126789
 30
0.0
 10
-143.853056445382
 20
926.662020013718
 30
0.0
 10
-143.827299785491
 20
925.2317773706427
 30
0.0
 10
-143.7868167958281
 20
922.5801321303637
 30
0.0
 10
-143.7499621037422
 20
919.5106616926215
 30
0.0
 10
-143.7217746071013
 20
916.1302056836101
 30
0.0
 10
-143.7061449755659
 20
912.5553318631044
 30
0.0
 10
-143.7052056445291
 20
908.9096684376971
 30
0.0
 10
-143.719100680725
 20
905.3192417454115
 30
0.0
 10
-143.7459107097943
 20
901.908167265359
 30
0.0
 10
-143.7819477347185
 20
898.7943013343681
 30
0.0
 10
-143.8222847723023
 20
896.085185680402
 30
0.0
 10
-143.8614158526382
 20
893.874373067269
 30
0.0
 10
-143.8939528935795
 20
892.2382379593182
 30
0.0
 10
-143.915430919943
 20
891.2333468980917
 30
0.0
 10
-143.9204404795813
 20
891.0074304991716
 30
0.0
 10
-143.9204402737515
 20
891.0074304909276
 30
0.0
  0
LINE
  5
275
330
216
100
AcDbEntity
  8
0
  6
Continuous
 62
     0
370
    30
100
AcDbLine
 10
-135.920456
 20
930.007431
 30
0.0
 11
-102.920456
 21
930.007431
 31
0.0
  0
LINE
  5
276
330
216
100
AcDbEntity
  8
0
  6
Continuous
 62
     0
370
    30
100
AcDbLine
 10
-102.920456
 20
891.007431
 30
0.0
 11
-102.920456
 21
930.007431
 31
0.0
  0
ARC
  5
277
330
216
100
AcDbEntity
  8
0
  6
Continuous
 62
     0
370
    30
100
AcDbCircle
 10
-135.920456
 20
935.007431
 30
0.0
 40
5.0
100
AcDbArc
 50
180.000001
 51
270.000001
  0
ARC
  5
278
330
216
100
AcDbEntity
  8
0
  6
Continuous
 62
     0
370
     0
100
AcDbCircle
 10
-135.276303
 20
934.142667
 30
0.0
 40
5.644169357541923
100
AcDbArc
 50
180.134131
 51
202.653697
  0
SPLINE
  5
279
330
216
100
AcDbEntity
  8
0
  6
Continuous
 62
     0
370
     0
100
AcDbSpline
210
0.0
220
0.0
230
1.0
 70
     8
 71
     3
 72
    14
 73
    10
 74
     0
 42
0.000000001
 43
0.0
 40
0.0
 40
0.0
 40
0.0
 40
0.0
 40
1.021268063453741
 40
2.067961234983272
 40
3.137215120319827
 40
4.224835717853896
 40
5.325938614456978
 40
6.43585399981089
 40
7.550179266023624
 40
7.550179266023624
 40
7.550179266023624
 40
7.550179266023624
 10
-140.4850224024929
 20
931.9687568801241
 30
0.0
 10
-140.3536419069099
 20
931.655298294759
 30
0.0
 10
-140.0381472490028
 20
931.0441358400525
 30
0.0
 10
-139.4659295197292
 20
930.2223768409552
 30
0.0
 10
-138.8226324742177
 20
929.4843596426145
 30
0.0
 10
-138.131720990993
 20
928.825517652281
 30
0.0
 10
-137.4098724738686
 20
928.2392166402215
 30
0.0
 10
-136.6694531090758
 20
927.7206681966879
 30
0.0
 10
-136.170424294378
 20
927.4186476444688
 30
0.0
 10
-135.9204566520267
 20
927.2784713171837
 30
0.0
  0
SPLINE
  5
27A
330
216
100
AcDbEntity
  8
0
  6
Continuous
 62
     0
370
     0
100
AcDbSpline
210
0.0
220
0.0
230
1.0
 70
     8
 71
     3
 72
    14
 73
    10
 74
     0
 42
0.000000001
 43
0.0
 40
0.0
 40
0.0
 40
0.0
 40
0.0
 40
1.111306881563105
 40
2.219857884916669
 40
3.322884962567414
 40
4.41682350781497
 40
5.497282355506054
 40
6.558912704919983
 40
7.596828781826666
 40
7.596828781826666
 40
7.596828781826666
 40
7.596828781826666
 10
-135.9204566520267
 20
927.2784713171839
 30
0.0
 10
-136.2204879955602
 20
927.3893204049534
 30
0.0
 10
-136.8201549257466
 20
927.6349991761579
 30
0.0
 10
-137.7090430908574
 20
928.0773987582711
 30
0.0
 10
-138.5757920153389
 20
928.5967784333021
 30
0.0
 10
-139.4049735567827
 20
929.1990854543762
 30
0.0
 10
-140.1767325211208
 20
929.8908741501232
 30
0.0
 10
-140.8619547108827
 20
930.6767586725837
 30
0.0
 10
-141.2400996732044
 20
931.2708672223993
 30
0.0
 10
-141.3979356125951
 20
931.5787380699296
 30
0.0
  0
SPLINE
  5
27B
330
216
100
AcDbEntity
  8
0
  6
Continuous
 62
     0
370
     0
100
AcDbSpline
210
0.0
220
0.0
230
1.0
 70
     8
 71
     3
 72
    10
 73
     6
 74
     0
 42
0.000000001
 43
0.0
 40
0.0
 40
0.0
 40
0.0
 40
0.0
 40
1.717093728849341
 40
3.43420922889473
 40
5.151328921808091
 40
5.151328921808091
 40
5.151328921808091
 40
5.151328921808091
 10
-143.8940168492337
 20
931.5787380370941
 30
0.0
 10
-143.8940168417044
 20
931.006373460811
 30
0.0
 10
-143.8921565170613
 20
929.8517225560624
 30
0.0
 10
-143.8829056436764
 20
928.3322627129769
 30
0.0
 10
-143.8716817968611
 20
927.5704766637783
 30
0.0
 10
-143.8647034658254
 20
927.2784712126789
 30
0.0
  0
ELLIPSE
  5
27C
330
216
100
AcDbEntity
  8
0
  6
Continuous
 62
     0
370
     0
100
AcDbEllipse
 10
-143.864703
 20
926.418418
 30
0.0
 11
0.9998017564565976
 21
0.01991099661990343
 31
0.0
210
0.0
220
0.0
230
1.0
 40
0.860009
 41
1.553671006867658
 42
3.118440135980666
  0
LINE
  5
27D
330
216
100
AcDbEntity
  8
0
  6
Continuous
 62
     0
370
     0
100
AcDbLine
 10
-140.485022
 20
931.968757
 30
0.0
 11
-141.397936
 21
931.578738
 31
0.0
  0
ARC
  5
27E
330
216
100
AcDbEntity
  8
0
  6
Continuous
 62
     0
370
    30
100
AcDbCircle
 10
-143.920439
 20
892.00745
 30
0.0
 40
1.000015948765293
100
AcDbArc
 50
180.00092
 51
269.999087
  0
LINE
  5
27F
330
216
100
AcDbEntity
  8
0
  6
Continuous
 62
     0
370
    30
100
AcDbLine
 10
-102.920456
 20
891.007431
 30
0.0
 11
-143.92044
 21
891.00743
 31
0.0
  0
LINE
  5
280
330
216
100
AcDbEntity
  8
0
  6
Continuous
 62
     0
370
    30
100
AcDbLine
 10
-144.920456
 20
951.50743
 30
0.0
 11
-144.920456
 21
892.007434
 31
0.0
  0
ARC
  5
281
330
216
100
AcDbEntity
  8
0
  6
Continuous
 62
     0
370
    30
100
AcDbCircle
 10
-143.920456
 20
951.50743
 30
0.0
 40
1.0
100
AcDbArc
 50
90.000001
 51
180.000001
  0
LINE
  5
282
330
216
100
AcDbEntity
  8
0
  6
Continuous
 62
     0
370
    30
100
AcDbLine
 10
-102.003927
 20
926.507432
 30
0.0
 11
-102.920456
 21
926.507432
 31
0.0
  0
LINE
  5
283
330
216
100
AcDbEntity
  8
0
  6
Continuous
 62
     0
370
    30
100
AcDbLine
 10
-101.983852
 20
927.712406
 30
0.0
 11
-102.003927
 21
926.507345
 31
0.0
  0
ARC
  5
284
330
216
100
AcDbEntity
  8
0
  6
Continuous
 62
     0
370
    30
100
AcDbCircle
 10
-101.683891
 20
927.707407
 30
0.0
 40
0.3000023806489643
100
AcDbArc
 50
89.99963
 51
179.045162
  0
LINE
  5
285
330
216
100
AcDbEntity
  8
0
  6
Continuous
 62
     0
370
    30
100
AcDbLine
 10
-100.770531
 20
928.007432
 30
0.0
 11
-101.683889
 21
928.007432
 31
0.0
  0
LINE
  5
286
330
216
100
AcDbEntity
  8
0
  6
Continuous
 62
     0
370
     0
100
AcDbLine
 10
-101.683889
 20
993.01015
 30
0.0
 11
-101.683889
 21
1028.01015
 31
0.0
  0
LINE
  5
287
330
216
100
AcDbEntity
  8
0
  6
Continuous
 62
     0
370
    30
100
AcDbLine
 10
-101.683889
 20
993.01015
 30
0.0
 11
-100.770531
 21
993.01015
 31
0.0
  0
ARC
  5
288
330
216
100
AcDbEntity
  8
0
  6
Continuous
 62
     0
370
    30
100
AcDbCircle
 10
-101.683891
 20
993.310175
 30
0.0
 40
0.3000023806349393
100
AcDbArc
 50
180.954838
 51
270.00037
  0
LINE
  5
289
330
216
100
AcDbEntity
  8
0
  6
Continuous
 62
     0
370
     0
100
AcDbLine
 10
-101.983852
 20
993.305175
 30
0.0
 11
-101.983852
 21
1027.715125
 31
0.0
  0
LINE
  5
28A
330
216
100
AcDbEntity
  8
0
  6
Continuous
 62
     0
370
    30
100
AcDbLine
 10
-101.983852
 20
993.305175
 30
0.0
 11
-102.003927
 21
994.510236
 31
0.0
  0
LINE
  5
28B
330
216
100
AcDbEntity
  8
0
  6
Continuous
 62
     0
370
    30
100
AcDbLine
 10
-102.003927
 20
994.510236
 30
0.0
 11
-102.003927
 21
1026.510064
 31
0.0
  0
LINE
  5
28C
330
216
100
AcDbEntity
  8
0
  6
Continuous
 62
     0
370
    30
100
AcDbLine
 10
-102.003927
 20
994.51015
 30
0.0
 11
-102.920456
 21
994.51015
 31
0.0
  0
LINE
  5
28D
330
216
100
AcDbEntity
  8
0
  6
Continuous
 62
     0
370
     0
100
AcDbLine
 10
-143.894017
 20
1031.581456
 30
0.0
 11
-141.397936
 21
1031.581456
 31
0.0
  0
ARC
  5
28E
330
216
100
AcDbEntity
  8
0
  6
Continuous
 62
     0
370
     0
100
AcDbCircle
 10
-135.422494
 20
1034.13442
 30
0.0
 40
6.497962822440232
100
AcDbArc
 50
180.019813
 51
203.134237
  0
LINE
  5
28F
330
216
100
AcDbEntity
  8
0
  6
Continuous
 62
     0
370
     0
100
AcDbLine
 10
-141.920457
 20
1034.132173
 30
0.0
 11
-141.920457
 21
1051.510149
 31
0.0
  0
LINE
  5
290
330
216
100
AcDbEntity
  8
0
  6
Continuous
 62
     0
370
     0
100
AcDbLine
 10
-141.920457
 20
1051.510149
 30
0.0
 11
-143.894017
 21
1051.510149
 31
0.0
  0
LINE
  5
291
330
216
100
AcDbEntity
  8
0
  6
Continuous
 62
     0
370
     0
100
AcDbLine
 10
-143.894017
 20
1051.510149
 30
0.0
 11
-143.894017
 21
1031.581456
 31
0.0
  0
LINE
  5
292
330
216
100
AcDbEntity
  8
0
  6
Continuous
 62
     0
370
    30
100
AcDbLine
 10
-143.894017
 20
1052.510149
 30
0.0
 11
-141.920457
 21
1052.510149
 31
0.0
  0
LINE
  5
293
330
216
100
AcDbEntity
  8
0
  6
Continuous
 62
     0
370
     0
100
AcDbLine
 10
-143.894017
 20
1051.510149
 30
0.0
 11
-143.894017
 21
1052.510149
 31
0.0
  0
LINE
  5
294
330
216
100
AcDbEntity
  8
0
  6
Continuous
 62
     0
370
     0
100
AcDbLine
 10
-141.920457
 20
1052.510149
 30
0.0
 11
-141.920457
 21
1051.510149
 31
0.0
  0
ARC
  5
295
330
216
100
AcDbEntity
  8
0
  6
Continuous
 62
     0
370
    30
100
AcDbCircle
 10
-143.894001
 20
1051.510165
 30
0.0
 40
0.999983455046864
100
AcDbArc
 50
90.000949
 51
180.000949
  0
LINE
  5
296
330
216
100
AcDbEntity
  8
0
  6
Continuous
 62
     0
370
     0
100
AcDbLine
 10
-144.893984
 20
1051.510149
 30
0.0
 11
-143.894017
 21
1051.510149
 31
0.0
  0
LINE
  5
297
330
216
100
AcDbEntity
  8
0
  6
Continuous
 62
     0
370
     0
100
AcDbLine
 10
-144.893984
 20
1031.581456
 30
0.0
 11
-144.893984
 21
1051.510149
 31
0.0
  0
LINE
  5
298
330
216
100
AcDbEntity
  8
0
  6
Continuous
 62
     0
370
     0
100
AcDbLine
 10
-143.894017
 20
1031.581456
 30
0.0
 11
-144.893984
 21
1031.581456
 31
0.0
  0
LINE
  5
299
330
216
100
AcDbEntity
  8
0
  6
Continuous
 62
     0
370
     0
100
AcDbLine
 10
-144.920456
 20
1051.510149
 30
0.0
 11
-144.893984
 21
1051.510149
 31
0.0
  0
LINE
  5
29A
330
216
100
AcDbEntity
  8
0
  6
Continuous
 62
     0
370
     0
100
AcDbLine
 10
-141.920457
 20
1051.510149
 30
0.0
 11
-140.920457
 21
1051.510149
 31
0.0
  0
ARC
  5
29B
330
216
100
AcDbEntity
  8
0
  6
Continuous
 62
     0
370
    30
100
AcDbCircle
 10
-141.920457
 20
1051.510149
 30
0.0
 40
1.0
100
AcDbArc
 50
0.000001
 51
90.000001
  0
LINE
  5
29C
330
216
100
AcDbEntity
  8
0
  6
Continuous
 62
     0
370
     0
100
AcDbLine
 10
-140.920457
 20
1034.132173
 30
0.0
 11
-141.920457
 21
1034.132173
 31
0.0
  0
LINE
  5
29D
330
216
100
AcDbEntity
  8
0
  6
Continuous
 62
     0
370
    30
100
AcDbLine
 10
-140.920457
 20
1051.510149
 30
0.0
 11
-140.920457
 21
1034.132173
 31
0.0
  0
SPLINE
  5
29E
330
216
100
AcDbEntity
  8
0
  6
Continuous
 62
     0
370
     0
100
AcDbSpline
210
0.0
220
0.0
230
1.0
 70
     8
 71
     3
 72
    21
 73
    17
 74
     0
 42
0.000000001
 43
0.0
 40
48.17121764385792
 40
48.17121764385792
 40
48.17121764385792
 40
48.17121764385792
 40
51.61446761388594
 40
55.05746120483946
 40
58.49991683290023
 40
61.94165561409898
 40
65.38259805037585
 40
68.82278773743839
 40
72.2623444788822
 40
75.70149456209353
 40
79.14051121566767
 40
82.5796941974748
 40
86.01931942319719
 40
89.45958122423195
 40
92.90057834620418
 40
96.34243528771584
 40
96.34243528771584
 40
96.34243528771584
 40
96.34243528771584
 10
-144.9204556892556
 20
992.0101523130821
 30
0.0
 10
-144.9204556941855
 20
992.0101559721124
 30
0.0
 10
-144.9154443000608
 20
992.2244696065579
 30
0.0
 10
-144.8939225008944
 20
993.1777518358128
 30
0.0
 10
-144.8613444630785
 20
994.7298845899966
 30
0.0
 10
-144.8221726893549
 20
996.8272279972578
 30
0.0
 10
-144.7817736139332
 20
999.3973870876109
 30
0.0
 10
-144.7456800988179
 20
1002.351554905383
 30
0.0
 10
-144.7188411655576
 20
1005.587796730216
 30
0.0
 10
-144.7049363163731
 20
1008.994242233092
 30
0.0
 10
-144.7058731832156
 20
1012.453109654135
 30
0.0
 10
-144.7215228123916
 20
1015.844795608212
 30
0.0
 10
-144.7497390184038
 20
1019.051959297649
 30
0.0
 10
-144.7866565537947
 20
1021.963942846676
 30
0.0
 10
-144.8271983240587
 20
1024.479518581948
 30
0.0
 10
-144.852973251408
 20
1025.836358069634
 30
0.0
 10
-144.8646336508195
 20
1026.421136191727
 30
0.0
  0
SPLINE
  5
29F
330
216
100
AcDbEntity
  8
0
  6
Continuous
 62
     0
370
     0
100
AcDbSpline
210
0.0
220
0.0
230
1.0
 70
     8
 71
     3
 72
    10
 73
     6
 74
     0
 42
0.000000001
 43
0.0
 40
0.0
 40
0.0
 40
0.0
 40
0.0
 40
2.061993518247285
 40
4.12313673462986
 40
6.183714339278856
 40
6.183714339278856
 40
6.183714339278856
 40
6.183714339278856
 10
-144.8646336508195
 20
1026.421136191727
 30
0.0
 10
-144.8716193182704
 20
1026.771472861107
 30
0.0
 10
-144.8829045238093
 20
1027.685383982605
 30
0.0
 10
-144.8920719229212
 20
1029.508781622777
 30
0.0
 10
-144.8939836994377
 20
1030.894597179533
 30
0.0
 10
-144.8939837084732
 20
1031.581456381082
 30
0.0
  0
LINE
  5
2A0
330
216
100
AcDbEntity
  8
0
  6
Continuous
 62
     0
370
     0
100
AcDbLine
 10
-135.920456
 20
1030.010149
 30
0.0
 11
-135.920456
 21
1027.28119
 31
0.0
  0
LINE
  5
2A1
330
216
100
AcDbEntity
  8
0
  6
Continuous
 62
     0
370
     0
100
AcDbLine
 10
-135.920457
 20
1027.28119
 30
0.0
 11
-143.864703
 21
1027.28119
 31
0.0
  0
SPLINE
  5
2A2
330
216
100
AcDbEntity
  8
0
  6
Continuous
 62
     0
370
     0
100
AcDbSpline
210
0.0
220
0.0
230
1.0
 70
     8
 71
     3
 72
    21
 73
    17
 74
     0
 42
0.000000001
 43
0.0
 40
0.0
 40
0.0
 40
0.0
 40
0.0
 40
3.624901490165039
 40
7.249806925673178
 40
10.87470871046786
 40
14.49961016686269
 40
18.12451005028709
 40
21.74940963257129
 40
25.37430948422123
 40
28.99921043498261
 40
32.624113028214
 40
36.24901640786733
 40
39.87391932285273
 40
43.4988213120458
 40
47.12372194853267
 40
50.74862133349283
 40
50.74862133349283
 40
50.74862133349283
 40
50.74862133349283
 10
-143.8647034658263
 20
1027.281189575127
 30
0.0
 10
-143.8530564453829
 20
1026.664738376166
 30
0.0
 10
-143.827299785492
 20
1025.234495733091
 30
0.0
 10
-143.786816795829
 20
1022.582850492811
 30
0.0
 10
-143.7499621037431
 20
1019.513380055069
 30
0.0
 10
-143.7217746071022
 20
1016.132924046058
 30
0.0
 10
-143.7061449755668
 20
1012.558050225552
 30
0.0
 10
-143.7052056445301
 20
1008.912386800145
 30
0.0
 10
-143.7191006807259
 20
1005.321960107859
 30
0.0
 10
-143.7459107097952
 20
1001.910885627807
 30
0.0
 10
-143.7819477347194
 20
998.7970196968157
 30
0.0
 10
-143.8222847723032
 20
996.0879040428498
 30
0.0
 10
-143.8614158526391
 20
993.8770914297166
 30
0.0
 10
-143.8939528935804
 20
992.2409563217659
 30
0.0
 10
-143.9154309199439
 20
991.2360652605394
 30
0.0
 10
-143.9204404795822
 20
991.0101488616194
 30
0.0
 10
-143.9204402737524
 20
991.0101488533753
 30
0.0
  0
LINE
  5
2A3
330
216
100
AcDbEntity
  8
0
  6
Continuous
 62
     0
370
    30
100
AcDbLine
 10
-135.920456
 20
1030.010149
 30
0.0
 11
-102.920456
 21
1030.010149
 31
0.0
  0
LINE
  5
2A4
330
216
100
AcDbEntity
  8
0
  6
Continuous
 62
     0
370
    30
100
AcDbLine
 10
-102.920456
 20
991.010149
 30
0.0
 11
-102.920456
 21
1030.010149
 31
0.0
  0
ARC
  5
2A5
330
216
100
AcDbEntity
  8
0
  6
Continuous
 62
     0
370
    30
100
AcDbCircle
 10
-135.920456
 20
1035.010149
 30
0.0
 40
5.0
100
AcDbArc
 50
180.000001
 51
270.000001
  0
ARC
  5
2A6
330
216
100
AcDbEntity
  8
0
  6
Continuous
 62
     0
370
     0
100
AcDbCircle
 10
-135.276303
 20
1034.145386
 30
0.0
 40
5.644169357546387
100
AcDbArc
 50
180.134131
 51
202.653697
  0
SPLINE
  5
2A7
330
216
100
AcDbEntity
  8
0
  6
Continuous
 62
     0
370
     0
100
AcDbSpline
210
0.0
220
0.0
230
1.0
 70
     8
 71
     3
 72
    14
 73
    10
 74
     0
 42
0.000000001
 43
0.0
 40
0.0
 40
0.0
 40
0.0
 40
0.0
 40
1.021268063453741
 40
2.067961234983294
 40
3.137215120319839
 40
4.224835717853908
 40
5.325938614456986
 40
6.435853999810894
 40
7.550179266023628
 40
7.550179266023628
 40
7.550179266023628
 40
7.550179266023628
 10
-140.4850224024939
 20
1031.971475242572
 30
0.0
 10
-140.3536419069108
 20
1031.658016657207
 30
0.0
 10
-140.0381472490037
 20
1031.0468542025
 30
0.0
 10
-139.4659295197301
 20
1030.225095203403
 30
0.0
 10
-138.8226324742186
 20
1029.487078005062
 30
0.0
 10
-138.1317209909939
 20
1028.828236014729
 30
0.0
 10
-137.4098724738695
 20
1028.241935002669
 30
0.0
 10
-136.6694531090767
 20
1027.723386559136
 30
0.0
 10
-136.1704242943789
 20
1027.421366006917
 30
0.0
 10
-135.9204566520276
 20
1027.281189679632
 30
0.0
  0
SPLINE
  5
2A8
330
216
100
AcDbEntity
  8
0
  6
Continuous
 62
     0
370
     0
100
AcDbSpline
210
0.0
220
0.0
230
1.0
 70
     8
 71
     3
 72
    14
 73
    10
 74
     0
 42
0.000000001
 43
0.0
 40
0.0
 40
0.0
 40
0.0
 40
0.0
 40
1.111306881563105
 40
2.219857884916669
 40
3.322884962567406
 40
4.41682350781497
 40
5.497282355506063
 40
6.558912704919971
 40
7.59682878182669
 40
7.59682878182669
 40
7.59682878182669
 40
7.59682878182669
 10
-135.9204566520276
 20
1027.281189679632
 30
0.0
 10
-136.2204879955611
 20
1027.392038767401
 30
0.0
 10
-136.8201549257475
 20
1027.637717538606
 30
0.0
 10
-137.7090430908583
 20
1028.080117120719
 30
0.0
 10
-138.5757920153399
 20
1028.59949679575
 30
0.0
 10
-139.4049735567836
 20
1029.201803816824
 30
0.0
 10
-140.1767325211217
 20
1029.893592512571
 30
0.0
 10
-140.8619547108836
 20
1030.679477035031
 30
0.0
 10
-141.2400996732053
 20
1031.273585584847
 30
0.0
 10
-141.397935612596
 20
1031.581456432377
 30
0.0
  0
SPLINE
  5
2A9
330
216
100
AcDbEntity
  8
0
  6
Continuous
 62
     0
370
     0
100
AcDbSpline
210
0.0
220
0.0
230
1.0
 70
     8
 71
     3
 72
    10
 73
     6
 74
     0
 42
0.000000001
 43
0.0
 40
0.0
 40
0.0
 40
0.0
 40
0.0
 40
1.717093728849327
 40
3.434209228894753
 40
5.151328921808095
 40
5.151328921808095
 40
5.151328921808095
 40
5.151328921808095
 10
-143.8940168492346
 20
1031.581456399542
 30
0.0
 10
-143.8940168417053
 20
1031.009091823259
 30
0.0
 10
-143.8921565170623
 20
1029.85444091851
 30
0.0
 10
-143.8829056436773
 20
1028.334981075425
 30
0.0
 10
-143.871681796862
 20
1027.573195026226
 30
0.0
 10
-143.8647034658263
 20
1027.281189575127
 30
0.0
  0
ELLIPSE
  5
2AA
330
216
100
AcDbEntity
  8
0
  6
Continuous
 62
     0
370
     0
100
AcDbEllipse
 10
-143.864703
 20
1026.421136
 30
0.0
 11
0.9998017564565976
 21
0.01991099661990343
 31
0.0
210
0.0
220
0.0
230
1.0
 40
0.860009
 41
1.553671006867658
 42
3.118440135980683
  0
LINE
  5
2AB
330
216
100
AcDbEntity
  8
0
  6
Continuous
 62
     0
370
     0
100
AcDbLine
 10
-140.485022
 20
1031.971475
 30
0.0
 11
-141.397936
 21
1031.581456
 31
0.0
  0
ARC
  5
2AC
330
216
100
AcDbEntity
  8
0
  6
Continuous
 62
     0
370
    30
100
AcDbCircle
 10
-143.920439
 20
992.010168
 30
0.0
 40
1.00001594876972
100
AcDbArc
 50
180.00092
 51
269.999087
  0
LINE
  5
2AD
330
216
100
AcDbEntity
  8
0
  6
Continuous
 62
     0
370
    30
100
AcDbLine
 10
-102.920456
 20
991.010149
 30
0.0
 11
-143.92044
 21
991.010149
 31
0.0
  0
LINE
  5
2AE
330
216
100
AcDbEntity
  8
0
  6
Continuous
 62
     0
370
    30
100
AcDbLine
 10
-144.920456
 20
1051.510149
 30
0.0
 11
-144.920456
 21
992.010152
 31
0.0
  0
ARC
  5
2AF
330
216
100
AcDbEntity
  8
0
  6
Continuous
 62
     0
370
    30
100
AcDbCircle
 10
-143.920456
 20
1051.510149
 30
0.0
 40
1.0
100
AcDbArc
 50
90.000001
 51
180.000001
  0
LINE
  5
2B0
330
216
100
AcDbEntity
  8
0
  6
Continuous
 62
     0
370
    30
100
AcDbLine
 10
-102.003927
 20
1026.51015
 30
0.0
 11
-102.920456
 21
1026.51015
 31
0.0
  0
LINE
  5
2B1
330
216
100
AcDbEntity
  8
0
  6
Continuous
 62
     0
370
    30
100
AcDbLine
 10
-101.983852
 20
1027.715125
 30
0.0
 11
-102.003927
 21
1026.510064
 31
0.0
  0
ARC
  5
2B2
330
216
100
AcDbEntity
  8
0
  6
Continuous
 62
     0
370
    30
100
AcDbCircle
 10
-101.683891
 20
1027.710125
 30
0.0
 40
0.3000023806298218
100
AcDbArc
 50
89.99963
 51
179.045162
  0
LINE
  5
2B3
330
216
100
AcDbEntity
  8
0
  6
Continuous
 62
     0
370
    30
100
AcDbLine
 10
-100.770531
 20
1028.01015
 30
0.0
 11
-101.683889
 21
1028.01015
 31
0.0
  0
LINE
  5
2B4
330
216
100
AcDbEntity
  8
0
  6
Continuous
 62
     0
370
    30
100
AcDbLine
 10
-98.770531
 20
1044.51015
 30
0.0
 11
-98.770531
 21
1084.51015
 31
0.0
  0
LINE
  5
2B5
330
216
100
AcDbEntity
  8
0
  6
Continuous
 62
     0
370
    30
100
AcDbLine
 10
-98.770531
 20
1084.51015
 30
0.0
 11
-100.770531
 21
1084.51015
 31
0.0
  0
LINE
  5
2B6
330
216
100
AcDbEntity
  8
0
  6
Continuous
 62
     0
370
    30
100
AcDbLine
 10
-100.770531
 20
1084.51015
 30
0.0
 11
-100.770531
 21
1044.51015
 31
0.0
  0
LINE
  5
2B7
330
216
100
AcDbEntity
  8
0
  6
Continuous
 62
     0
370
     0
100
AcDbLine
 10
-100.770532
 20
1044.51015
 30
0.0
 11
-98.770532
 21
1044.51015
 31
0.0
  0
LINE
  5
2B8
330
216
100
AcDbEntity
  8
0
  6
Continuous
 62
     0
370
     0
100
AcDbLine
 10
-100.770532
 20
656.51015
 30
0.0
 11
-98.770532
 21
656.51015
 31
0.0
  0
LINE
  5
2B9
330
216
100
AcDbEntity
  8
0
  6
Continuous
 62
     0
370
    30
100
AcDbLine
 10
-100.770531
 20
616.51015
 30
0.0
 11
-100.770531
 21
656.51015
 31
0.0
  0
LINE
  5
2BA
330
216
100
AcDbEntity
  8
0
  6
Continuous
 62
     0
370
    30
100
AcDbLine
 10
-98.770531
 20
656.51015
 30
0.0
 11
-98.770531
 21
616.51015
 31
0.0
  0
LINE
  5
2BB
330
216
100
AcDbEntity
  8
0
  6
Continuous
 62
     0
370
    30
100
AcDbLine
 10
-98.770531
 20
616.51015
 30
0.0
 11
-100.770531
 21
616.51015
 31
0.0
  0
LINE
  5
2BC
330
216
100
AcDbEntity
  8
0
  6
Continuous
 62
     0
370
    30
100
AcDbLine
 10
-98.770532
 20
656.51015
 30
0.0
 11
-98.770532
 21
1044.51015
 31
0.0
  0
LINE
  5
2BD
330
216
100
AcDbEntity
  8
0
  6
Continuous
 62
     0
370
    30
100
AcDbLine
 10
-100.770532
 20
1044.51015
 30
0.0
 11
-100.770532
 21
656.51015
 31
0.0
  0
ENDBLK
  5
2BF
330
216
100
AcDbEntity
  8
0
100
AcDbBlockEnd
  0
ENDSEC
  0
SECTION
  2
ENTITIES
  0
INSERT
  5
115
330
1F
100
AcDbEntity
  8
0
  6
Continuous
 62
     7
370
     0
100
AcDbBlockReference
  2
a
 10
17.356796
 20
100.941116
 30
0.0
  0
INSERT
  5
16A
330
1F
100
AcDbEntity
  8
0
  6
Continuous
 62
     7
370
     0
100
AcDbBlockReference
  2
b
 10
17.356796
 20
458.430435
 30
0.0
  0
INSERT
  5
215
330
1F
100
AcDbEntity
  8
0
  6
Continuous
 62
     7
370
     0
100
AcDbBlockReference
  2
c
 10
33.136124
 20
100.941116
 30
0.0
  0
INSERT
  5
2C0
330
1F
100
AcDbEntity
  8
0
  6
Continuous
 62
     7
370
     0
100
AcDbBlockReference
  2
d
 10
-62.701096
 20
0.0
 30
0.0
  0
ENDSEC
  0
SECTION
  2
OBJECTS
  0
DICTIONARY
  5
C
330
0
100
AcDbDictionary
281
     1
  3
ACAD_GROUP
350
D
  3
ACAD_LAYOUT
350
1A
  3
ACAD_MATERIAL
350
43
  3
ACAD_MLEADERSTYLE
350
6B
  3
ACAD_MLINESTYLE
350
17
  3
ACAD_PLOTSETTINGS
350
19
  3
ACAD_PLOTSTYLENAME
350
E
  3
ACAD_SCALELIST
350
47
  3
ACAD_TABLESTYLE
350
69
  3
ACAD_VISUALSTYLE
350
2A
  3
AcDbVariableDictionary
350
2C1
  0
DICTIONARY
  5
2CC
330
8
100
AcDbDictionary
280
     1
281
     1
  3
ACAD_XREC_ROUNDTRIP
360
2CD
  0
DICTIONARY
  5
D
102
{ACAD_REACTORS
330
C
102
}
330
C
100
AcDbDictionary
281
     1
  0
DICTIONARY
  5
1A
102
{ACAD_REACTORS
330
C
102
}
330
C
100
AcDbDictionary
281
     1
  3
Layout1
350
1E
  3
Layout2
350
26
  3
Model
350
22
  0
DICTIONARY
  5
43
102
{ACAD_REACTORS
330
C
102
}
330
C
100
AcDbDictionary
281
     1
  3
ByBlock
350
45
  3
ByLayer
350
44
  3
Global
350
46
  0
DICTIONARY
  5
6B
102
{ACAD_REACTORS
330
C
102
}
330
C
100
AcDbDictionary
281
     1
  3
Standard
350
6C
  0
DICTIONARY
  5
17
102
{ACAD_REACTORS
330
C
102
}
330
C
100
AcDbDictionary
281
     1
  3
Standard
350
18
  0
DICTIONARY
  5
19
102
{ACAD_REACTORS
330
C
102
}
330
C
100
AcDbDictionary
281
     1
  0
ACDBDICTIONARYWDFLT
  5
E
102
{ACAD_REACTORS
330
C
102
}
330
C
100
AcDbDictionary
281
     1
  3
Normal
350
F
100
AcDbDictionaryWithDefault
340
F
  0
DICTIONARY
  5
47
102
{ACAD_REACTORS
330
C
102
}
330
C
100
AcDbDictionary
281
     1
  3
A0
350
48
  3
A1
350
49
  3
A2
350
4A
  3
A3
350
4B
  3
A4
350
4C
  3
A5
350
4D
  3
A6
350
4E
  3
A7
350
4F
  3
A8
350
50
  3
A9
350
51
  3
B0
350
52
  3
B1
350
53
  3
B2
350
54
  3
B3
350
55
  3
B4
350
56
  3
B5
350
57
  3
B6
350
58
  3
B7
350
59
  3
B8
350
5A
  3
B9
350
5B
  3
C0
350
5C
  3
C1
350
5D
  3
C2
350
5E
  3
C3
350
5F
  3
C4
350
60
  3
C5
350
61
  3
C6
350
62
  3
C7
350
63
  3
C8
350
64
  3
C9
350
65
  3
D0
350
66
  3
D1
350
67
  3
D2
350
68
  0
DICTIONARY
  5
69
102
{ACAD_REACTORS
330
C
102
}
330
C
100
AcDbDictionary
281
     1
  3
Standard
350
6A
  0
DICTIONARY
  5
2A
102
{ACAD_REACTORS
330
C
102
}
330
C
100
AcDbDictionary
281
     1
  3
2dWireframe
350
2F
  3
Basic
350
32
  3
Brighten
350
36
  3
ColorChange
350
3A
  3
Conceptual
350
34
  3
Dim
350
35
  3
EdgeColorOff
350
3D
  3
Facepattern
350
39
  3
Flat
350
2B
  3
FlatWithEdges
350
2C
  3
Gouraud
350
2D
  3
GouraudWithEdges
350
2E
  3
Hidden
350
31
  3
JitterOff
350
3B
  3
Linepattern
350
38
  3
OverhangOff
350
3C
  3
Realistic
350
33
  3
Shaded
350
42
  3
Shaded with edges
350
41
  3
Shades of Gray
350
3E
  3
Sketchy
350
3F
  3
Thicken
350
37
  3
Wireframe
350
30
  3
X-Ray
350
40
  0
DICTIONARY
  5
2C1
102
{ACAD_REACTORS
330
C
102
}
330
C
100
AcDbDictionary
281
     1
  3
CANNOSCALE
350
2CE
  3
CENTEREXE
350
2C8
  3
CENTERLTYPEFILE
350
2C9
  3
CMLEADERSTYLE
350
2C3
  3
CTABLESTYLE
350
2C2
  3
DIMASSOC
350
2CA
  3
HIDETEXT
350
2CB
  3
MSLTSCALE
350
2CF
  3
PSOLHEIGHT
350
2C5
  3
PSOLWIDTH
350
2C4
  0
XRECORD
  5
2CD
102
{ACAD_REACTORS
330
2CC
102
}
330
2CC
100
AcDbXrecord
280
     1
102
VTR_0.000_0.000_1.000_1.000_VISUALSTYLE
340
2F
102
VTR_0.000_0.000_1.000_1.000_GRIDDISPLAY
 70
     3
102
VTR_0.000_0.000_1.000_1.000_GRIDMAJOR
 70
     5
102
VTR_0.000_0.000_1.000_1.000_DEFAULTLIGHTING
280
     1
102
VTR_0.000_0.000_1.000_1.000_DEFAULTLIGHTINGTYPE
 70
     1
102
VTR_0.000_0.000_1.000_1.000_BRIGHTNESS
141
0.0
102
VTR_0.000_0.000_1.000_1.000_CONTRAST
142
0.0
  0
LAYOUT
  5
1E
102
{ACAD_REACTORS
330
1A
102
}
330
1A
100
AcDbPlotSettings
  1

  2
none_device
  4

  6

 40
0.0
 41
0.0
 42
0.0
 43
0.0
 44
0.0
 45
0.0
 46
0.0
 47
0.0
 48
0.0
 49
0.0
140
0.0
141
0.0
142
1.0
143
1.0
 70
   688
 72
     1
 73
     0
 74
     5
  7

 75
    16
147
1.0
148
0.0
149
0.0
100
AcDbLayout
  1
Layout1
 70
     1
 71
     1
 10
0.0
 20
0.0
 11
420.0
 21
297.0
 12
0.0
 22
0.0
 32
0.0
 14
1.000000E+20
 24
1.000000E+20
 34
1.000000E+20
 15
-1.000000E+20
 25
-1.000000E+20
 35
-1.000000E+20
146
0.0
 13
0.0
 23
0.0
 33
0.0
 16
1.0
 26
0.0
 36
0.0
 17
0.0
 27
1.0
 37
0.0
 76
     0
330
1B
  0
LAYOUT
  5
26
102
{ACAD_REACTORS
330
1A
102
}
330
1A
100
AcDbPlotSettings
  1

  2
none_device
  4

  6

 40
0.0
 41
0.0
 42
0.0
 43
0.0
 44
0.0
 45
0.0
 46
0.0
 47
0.0
 48
0.0
 49
0.0
140
0.0
141
0.0
142
1.0
143
1.0
 70
   688
 72
     1
 73
     0
 74
     5
  7

 75
    16
147
1.0
148
0.0
149
0.0
100
AcDbLayout
  1
Layout2
 70
     1
 71
     2
 10
0.0
 20
0.0
 11
0.0
 21
0.0
 12
0.0
 22
0.0
 32
0.0
 14
0.0
 24
0.0
 34
0.0
 15
0.0
 25
0.0
 35
0.0
146
0.0
 13
0.0
 23
0.0
 33
0.0
 16
1.0
 26
0.0
 36
0.0
 17
0.0
 27
1.0
 37
0.0
 76
     0
330
23
  0
LAYOUT
  5
22
102
{ACAD_REACTORS
330
1A
102
}
330
1A
100
AcDbPlotSettings
  1

  2
none_device
  4
Letter_(8.50_x_11.00_Inches)
  6

 40
6.35
 41
6.35
 42
6.350005
 43
6.350005
 44
215.9
 45
279.4
 46
0.0
 47
0.0
 48
0.0
 49
0.0
140
0.0
141
0.0
142
1.0
143
1.0
 70
  1712
 72
     1
 73
     0
 74
     0
  7

 75
     0
147
1.0
148
0.0
149
0.0
100
AcDbLayout
  1
Model
 70
     1
 71
     0
 10
-152.770538
 20
433.623138
 11
307.766479
 21
1084.510132
 12
0.0
 22
0.0
 32
0.0
 14
-152.770538
 24
433.623138
 34
0.0
 15
307.766479
 25
1084.510132
 35
0.0
146
0.0
 13
0.0
 23
0.0
 33
0.0
 16
1.0
 26
0.0
 36
0.0
 17
0.0
 27
1.0
 37
0.0
 76
     0
330
1F
331
29
  0
MATERIAL
  5
45
102
{ACAD_REACTORS
330
43
102
}
102
{ACAD_XDICTIONARY
360
302
102
}
330
43
100
AcDbMaterial
  1
ByBlock
  0
MATERIAL
  5
44
102
{ACAD_REACTORS
330
43
102
}
102
{ACAD_XDICTIONARY
360
300
102
}
330
43
100
AcDbMaterial
  1
ByLayer
  0
MATERIAL
  5
46
102
{ACAD_REACTORS
330
43
102
}
102
{ACAD_XDICTIONARY
360
304
102
}
330
43
100
AcDbMaterial
  1
Global
  0
MLEADERSTYLE
  5
6C
102
{ACAD_REACTORS
330
6B
102
}
102
{ACAD_XDICTIONARY
360
307
102
}
330
6B
100
AcDbMLeaderStyle
170
     2
171
     1
172
     0
 90
        2
 40
0.0
 41
0.0
173
     1
 91
-1056964608
340
14
 92
       -2
290
     1
 42
2.0
291
     1
 43
8.0
  3
Standard
341
0
 44
4.0
300

342
11
174
     1
178
     6
175
     1
176
     0
 93
-1056964608
 45
4.0
292
     0
297
     0
 46
4.0
343
0
 94
-1056964608
 47
1.0
 49
1.0
140
1.0
293
     1
141
0.0
294
     1
177
     0
142
1.0
295
     0
296
     0
143
3.75
1001
ACAD_MLEADERVER
1070
     2
  0
MLINESTYLE
  5
18
102
{ACAD_REACTORS
330
17
102
}
330
17
100
AcDbMlineStyle
  2
Standard
 70
     0
  3

 62
   256
 51
90.0
 52
90.0
 71
     2
 49
0.5
 62
   256
  6
BYLAYER
 49
-0.5
 62
   256
  6
BYLAYER
  0
ACDBPLACEHOLDER
  5
F
102
{ACAD_REACTORS
330
E
102
}
330
E
  0
SCALE
  5
48
102
{ACAD_REACTORS
330
47
102
}
330
47
100
AcDbScale
 70
     0
300
1:1
140
1.0
141
1.0
290
     1
  0
SCALE
  5
49
102
{ACAD_REACTORS
330
47
102
}
330
47
100
AcDbScale
 70
     0
300
1:2
140
1.0
141
2.0
290
     0
  0
SCALE
  5
4A
102
{ACAD_REACTORS
330
47
102
}
330
47
100
AcDbScale
 70
     0
300
1:4
140
1.0
141
4.0
290
     0
  0
SCALE
  5
4B
102
{ACAD_REACTORS
330
47
102
}
330
47
100
AcDbScale
 70
     0
300
1:5
140
1.0
141
5.0
290
     0
  0
SCALE
  5
4C
102
{ACAD_REACTORS
330
47
102
}
330
47
100
AcDbScale
 70
     0
300
1:8
140
1.0
141
8.0
290
     0
  0
SCALE
  5
4D
102
{ACAD_REACTORS
330
47
102
}
330
47
100
AcDbScale
 70
     0
300
1:10
140
1.0
141
10.0
290
     0
  0
SCALE
  5
4E
102
{ACAD_REACTORS
330
47
102
}
330
47
100
AcDbScale
 70
     0
300
1:16
140
1.0
141
16.0
290
     0
  0
SCALE
  5
4F
102
{ACAD_REACTORS
330
47
102
}
330
47
100
AcDbScale
 70
     0
300
1:20
140
1.0
141
20.0
290
     0
  0
SCALE
  5
50
102
{ACAD_REACTORS
330
47
102
}
330
47
100
AcDbScale
 70
     0
300
1:30
140
1.0
141
30.0
290
     0
  0
SCALE
  5
51
102
{ACAD_REACTORS
330
47
102
}
330
47
100
AcDbScale
 70
     0
300
1:40
140
1.0
141
40.0
290
     0
  0
SCALE
  5
52
102
{ACAD_REACTORS
330
47
102
}
330
47
100
AcDbScale
 70
     0
300
1:50
140
1.0
141
50.0
290
     0
  0
SCALE
  5
53
102
{ACAD_REACTORS
330
47
102
}
330
47
100
AcDbScale
 70
     0
300
1:100
140
1.0
141
100.0
290
     0
  0
SCALE
  5
54
102
{ACAD_REACTORS
330
47
102
}
330
47
100
AcDbScale
 70
     0
300
2:1
140
2.0
141
1.0
290
     0
  0
SCALE
  5
55
102
{ACAD_REACTORS
330
47
102
}
330
47
100
AcDbScale
 70
     0
300
4:1
140
4.0
141
1.0
290
     0
  0
SCALE
  5
56
102
{ACAD_REACTORS
330
47
102
}
330
47
100
AcDbScale
 70
     0
300
8:1
140
8.0
141
1.0
290
     0
  0
SCALE
  5
57
102
{ACAD_REACTORS
330
47
102
}
330
47
100
AcDbScale
 70
     0
300
10:1
140
10.0
141
1.0
290
     0
  0
SCALE
  5
58
102
{ACAD_REACTORS
330
47
102
}
330
47
100
AcDbScale
 70
     0
300
100:1
140
100.0
141
1.0
290
     0
  0
SCALE
  5
59
102
{ACAD_REACTORS
330
47
102
}
330
47
100
AcDbScale
 70
     0
300
1/128" = 1'-0"
140
0.007812
141
12.0
290
     0
  0
SCALE
  5
5A
102
{ACAD_REACTORS
330
47
102
}
330
47
100
AcDbScale
 70
     0
300
1/64" = 1'-0"
140
0.015625
141
12.0
290
     0
  0
SCALE
  5
5B
102
{ACAD_REACTORS
330
47
102
}
330
47
100
AcDbScale
 70
     0
300
1/32" = 1'-0"
140
0.03125
141
12.0
290
     0
  0
SCALE
  5
5C
102
{ACAD_REACTORS
330
47
102
}
330
47
100
AcDbScale
 70
     0
300
1/16" = 1'-0"
140
0.0625
141
12.0
290
     0
  0
SCALE
  5
5D
102
{ACAD_REACTORS
330
47
102
}
330
47
100
AcDbScale
 70
     0
300
3/32" = 1'-0"
140
0.09375
141
12.0
290
     0
  0
SCALE
  5
5E
102
{ACAD_REACTORS
330
47
102
}
330
47
100
AcDbScale
 70
     0
300
1/8" = 1'-0"
140
0.125
141
12.0
290
     0
  0
SCALE
  5
5F
102
{ACAD_REACTORS
330
47
102
}
330
47
100
AcDbScale
 70
     0
300
3/16" = 1'-0"
140
0.1875
141
12.0
290
     0
  0
SCALE
  5
60
102
{ACAD_REACTORS
330
47
102
}
330
47
100
AcDbScale
 70
     0
300
1/4" = 1'-0"
140
0.25
141
12.0
290
     0
  0
SCALE
  5
61
102
{ACAD_REACTORS
330
47
102
}
330
47
100
AcDbScale
 70
     0
300
3/8" = 1'-0"
140
0.375
141
12.0
290
     0
  0
SCALE
  5
62
102
{ACAD_REACTORS
330
47
102
}
330
47
100
AcDbScale
 70
     0
300
1/2" = 1'-0"
140
0.5
141
12.0
290
     0
  0
SCALE
  5
63
102
{ACAD_REACTORS
330
47
102
}
330
47
100
AcDbScale
 70
     0
300
3/4" = 1'-0"
140
0.75
141
12.0
290
     0
  0
SCALE
  5
64
102
{ACAD_REACTORS
330
47
102
}
330
47
100
AcDbScale
 70
     0
300
1" = 1'-0"
140
1.0
141
12.0
290
     0
  0
SCALE
  5
65
102
{ACAD_REACTORS
330
47
102
}
330
47
100
AcDbScale
 70
     0
300
1-1/2" = 1'-0"
140
1.5
141
12.0
290
     0
  0
SCALE
  5
66
102
{ACAD_REACTORS
330
47
102
}
330
47
100
AcDbScale
 70
     0
300
3" = 1'-0"
140
3.0
141
12.0
290
     0
  0
SCALE
  5
67
102
{ACAD_REACTORS
330
47
102
}
330
47
100
AcDbScale
 70
     0
300
6" = 1'-0"
140
6.0
141
12.0
290
     0
  0
SCALE
  5
68
102
{ACAD_REACTORS
330
47
102
}
330
47
100
AcDbScale
 70
     0
300
1'-0" = 1'-0"
140
12.0
141
12.0
290
     0
  0
TABLESTYLE
  5
6A
102
{ACAD_REACTORS
330
69
102
}
330
69
100
AcDbTableStyle
  3
Standard
 70
     0
 71
     0
 40
1.5
 41
1.5
280
     0
281
     0
  7
Standard
140
4.5
170
     2
 62
     0
 63
   257
283
     0
274
    -2
284
     1
 64
     0
275
    -2
285
     1
 65
     0
276
    -2
286
     1
 66
     0
277
    -2
287
     1
 67
     0
278
    -2
288
     1
 68
     0
279
    -2
289
     1
 69
     0
  7
Standard
140
6.0
170
     5
 62
     0
 63
   257
283
     0
274
    -2
284
     1
 64
     0
275
    -2
285
     1
 65
     0
276
    -2
286
     1
 66
     0
277
    -2
287
     1
 67
     0
278
    -2
288
     1
 68
     0
279
    -2
289
     1
 69
     0
  7
Standard
140
4.5
170
     5
 62
     0
 63
   257
283
     0
274
    -2
284
     1
 64
     0
275
    -2
285
     1
 65
     0
276
    -2
286
     1
 66
     0
277
    -2
287
     1
 67
     0
278
    -2
288
     1
 68
     0
279
    -2
289
     1
 69
     0
  0
VISUALSTYLE
  5
2F
102
{ACAD_REACTORS
330
2A
102
}
102
{ACAD_XDICTIONARY
360
2D8
102
}
330
2A
100
AcDbVisualStyle
  2
2dWireframe
 70
     4
 71
     0
 72
     2
 73
     0
 90
        0
 40
0.6
 41
30.0
 62
     5
 63
     7
 74
     1
 91
        4
 64
     7
 65
   257
 75
     1
175
     1
 42
1.0
 92
        0
 66
   257
 43
1.0
 76
     1
 77
     6
 78
     2
 67
     7
 79
     5
170
     0
171
     0
290
     0
174
     0
 93
        1
 44
0.0
173
     0
291
     0
 45
0.0
1001
ACAD
1000
AcDbSavedByObjectVersion
1070
     0
  0
VISUALSTYLE
  5
32
102
{ACAD_REACTORS
330
2A
102
}
102
{ACAD_XDICTIONARY
360
2DE
102
}
330
2A
100
AcDbVisualStyle
  2
Basic
 70
     7
 71
     1
 72
     0
 73
     1
 90
        0
 40
0.6
 41
30.0
 62
     5
 63
     7
 74
     0
 91
        4
 64
     7
 65
   257
 75
     1
175
     1
 42
1.0
 92
        8
 66
     7
 43
1.0
 76
     1
 77
     6
 78
     2
 67
     7
 79
     5
170
     0
171
     0
290
     0
174
     0
 93
        1
 44
0.0
173
     0
291
     1
 45
0.0
1001
ACAD
1000
AcDbSavedByObjectVersion
1070
     0
  0
VISUALSTYLE
  5
36
102
{ACAD_REACTORS
330
2A
102
}
102
{ACAD_XDICTIONARY
360
2E6
102
}
330
2A
100
AcDbVisualStyle
  2
Brighten
 70
    12
 71
     2
 72
     2
 73
     0
 90
        0
 40
0.6
 41
30.0
 62
     5
 63
     7
 74
     1
 91
        4
 64
     7
 65
   257
 75
     1
175
     1
 42
1.0
 92
        8
 66
     7
 43
1.0
 76
     1
 77
     6
 78
     2
 67
     7
 79
     5
170
     0
171
     0
290
     0
174
     0
 93
        1
 44
50.0
173
     0
291
     1
 45
0.0
1001
ACAD
1000
AcDbSavedByObjectVersion
1070
     0
  0
VISUALSTYLE
  5
3A
102
{ACAD_REACTORS
330
2A
102
}
102
{ACAD_XDICTIONARY
360
2EE
102
}
330
2A
100
AcDbVisualStyle
  2
ColorChange
 70
    16
 71
     2
 72
     2
 73
     3
 90
        0
 40
0.6
 41
30.0
 62
     5
 63
     8
 74
     1
 91
        4
 64
     7
 65
   257
 75
     1
175
     1
 42
1.0
 92
        8
 66
     8
 43
1.0
 76
     1
 77
     6
 78
     2
 67
     7
 79
     5
170
     0
171
     0
290
     0
174
     0
 93
        1
 44
0.0
173
     0
291
     1
 45
0.0
1001
ACAD
1000
AcDbSavedByObjectVersion
1070
     0
  0
VISUALSTYLE
  5
34
102
{ACAD_REACTORS
330
2A
102
}
102
{ACAD_XDICTIONARY
360
2E2
102
}
330
2A
100
AcDbVisualStyle
  2
Conceptual
 70
     9
 71
     3
 72
     2
 73
     0
 90
        0
 40
0.6
 41
30.0
 62
     5
 63
     7
 74
     2
 91
        2
 64
     7
 65
   257
 75
     1
175
     1
 42
179.0
 92
        8
 66
     7
 43
1.0
 76
     1
 77
     6
 78
     2
 67
     7
 79
     3
170
     0
171
     0
290
     0
174
     0
 93
        1
 44
0.0
173
     0
291
     0
 45
0.0
1001
ACAD
1000
AcDbSavedByObjectVersion
1070
     0
  0
VISUALSTYLE
  5
35
102
{ACAD_REACTORS
330
2A
102
}
102
{ACAD_XDICTIONARY
360
2E4
102
}
330
2A
100
AcDbVisualStyle
  2
Dim
 70
    11
 71
     2
 72
     2
 73
     0
 90
        0
 40
0.6
 41
30.0
 62
     5
 63
     7
 74
     1
 91
        4
 64
     7
 65
   257
 75
     1
175
     1
 42
1.0
 92
        8
 66
     7
 43
1.0
 76
     1
 77
     6
 78
     2
 67
     7
 79
     5
170
     0
171
     0
290
     0
174
     0
 93
        1
 44
-50.0
173
     0
291
     1
 45
0.0
1001
ACAD
1000
AcDbSavedByObjectVersion
1070
     0
  0
VISUALSTYLE
  5
3D
102
{ACAD_REACTORS
330
2A
102
}
102
{ACAD_XDICTIONARY
360
2F4
102
}
330
2A
100
AcDbVisualStyle
  2
EdgeColorOff
 70
    22
 71
     2
 72
     2
 73
     0
 90
        0
 40
0.6
 41
30.0
 62
     5
 63
     7
 74
     1
 91
        4
 64
     7
 65
   257
 75
     1
175
     1
 42
1.0
 92
        8
 66
     7
 43
1.0
 76
     1
 77
     6
 78
     2
 67
     7
 79
     5
170
     0
171
     0
290
     0
174
     0
 93
        1
 44
0.0
173
     0
291
     1
 45
0.0
1001
ACAD
1000
AcDbSavedByObjectVersion
1070
     0
  0
VISUALSTYLE
  5
39
102
{ACAD_REACTORS
330
2A
102
}
102
{ACAD_XDICTIONARY
360
2EC
102
}
330
2A
100
AcDbVisualStyle
  2
Facepattern
 70
    15
 71
     2
 72
     2
 73
     0
 90
        0
 40
0.6
 41
30.0
 62
     5
 63
     7
 74
     1
 91
        4
 64
     7
 65
   257
 75
     1
175
     1
 42
1.0
 92
        8
 66
     7
 43
1.0
 76
     1
 77
     6
 78
     2
 67
     7
 79
     5
170
     0
171
     0
290
     0
174
     0
 93
        1
 44
0.0
173
     0
291
     1
 45
0.0
1001
ACAD
1000
AcDbSavedByObjectVersion
1070
     0
  0
VISUALSTYLE
  5
2B
102
{ACAD_REACTORS
330
2A
102
}
102
{ACAD_XDICTIONARY
360
2D0
102
}
330
2A
100
AcDbVisualStyle
  2
Flat
 70
     0
 71
     2
 72
     1
 73
     1
 90
        2
 40
0.6
 41
30.0
 62
     5
 63
     7
 74
     0
 91
        0
 64
     7
 65
   257
 75
     1
175
     1
 42
1.0
 92
        8
 66
     7
 43
1.0
 76
     1
 77
     6
 78
     2
 67
     7
 79
     5
170
     0
171
     0
290
     0
174
     0
 93
       13
 44
0.0
173
     0
291
     1
 45
0.0
1001
ACAD
1000
AcDbSavedByObjectVersion
1070
     0
  0
VISUALSTYLE
  5
2C
102
{ACAD_REACTORS
330
2A
102
}
102
{ACAD_XDICTIONARY
360
2D2
102
}
330
2A
100
AcDbVisualStyle
  2
FlatWithEdges
 70
     1
 71
     2
 72
     1
 73
     1
 90
        2
 40
0.6
 41
30.0
 62
     5
 63
     7
 74
     1
 91
        0
 64
     7
 65
   257
 75
     1
175
     1
 42
1.0
 92
        0
 66
   257
 43
1.0
 76
     1
 77
     6
 78
     2
 67
     7
 79
     5
170
     0
171
     0
290
     0
174
     0
 93
       13
 44
0.0
173
     0
291
     1
 45
0.0
1001
ACAD
1000
AcDbSavedByObjectVersion
1070
     0
  0
VISUALSTYLE
  5
2D
102
{ACAD_REACTORS
330
2A
102
}
102
{ACAD_XDICTIONARY
360
2D4
102
}
330
2A
100
AcDbVisualStyle
  2
Gouraud
 70
     2
 71
     2
 72
     2
 73
     1
 90
        2
 40
0.6
 41
30.0
 62
     5
 63
     7
 74
     0
 91
        0
 64
     7
 65
   257
 75
     1
175
     1
 42
1.0
 92
        0
 66
     7
 43
1.0
 76
     1
 77
     6
 78
     2
 67
     7
 79
     5
170
     0
171
     0
290
     0
174
     0
 93
       13
 44
0.0
173
     0
291
     1
 45
0.0
1001
ACAD
1000
AcDbSavedByObjectVersion
1070
     0
  0
VISUALSTYLE
  5
2E
102
{ACAD_REACTORS
330
2A
102
}
102
{ACAD_XDICTIONARY
360
2D6
102
}
330
2A
100
AcDbVisualStyle
  2
GouraudWithEdges
 70
     3
 71
     2
 72
     2
 73
     1
 90
        2
 40
0.6
 41
30.0
 62
     5
 63
     7
 74
     1
 91
        0
 64
     7
 65
   257
 75
     1
175
     1
 42
1.0
 92
        0
 66
   257
 43
1.0
 76
     1
 77
     6
 78
     2
 67
     7
 79
     5
170
     0
171
     0
290
     0
174
     0
 93
       13
 44
0.0
173
     0
291
     1
 45
0.0
1001
ACAD
1000
AcDbSavedByObjectVersion
1070
     0
  0
VISUALSTYLE
  5
31
102
{ACAD_REACTORS
330
2A
102
}
102
{ACAD_XDICTIONARY
360
2DC
102
}
330
2A
100
AcDbVisualStyle
  2
Hidden
 70
     6
 71
     1
 72
     2
 73
     2
 90
        0
 40
0.6
 41
30.0
 62
     5
 63
     7
 74
     2
 91
        2
 64
     7
 65
   257
 75
     2
175
     1
 42
40.0
 92
        0
 66
   257
 43
1.0
 76
     1
 77
     6
 78
     2
 67
     7
 79
     3
170
     0
171
     0
290
     0
174
     0
 93
        1
 44
0.0
173
     0
291
     0
 45
0.0
1001
ACAD
1000
AcDbSavedByObjectVersion
1070
     0
  0
VISUALSTYLE
  5
3B
102
{ACAD_REACTORS
330
2A
102
}
102
{ACAD_XDICTIONARY
360
2F0
102
}
330
2A
100
AcDbVisualStyle
  2
JitterOff
 70
    20
 71
     2
 72
     2
 73
     0
 90
        0
 40
0.6
 41
30.0
 62
     5
 63
     7
 74
     1
 91
        4
 64
     7
 65
   257
 75
     1
175
     1
 42
1.0
 92
       10
 66
     7
 43
1.0
 76
     1
 77
     6
 78
     2
 67
     7
 79
     5
170
     0
171
     0
290
     0
174
     0
 93
        1
 44
0.0
173
     0
291
     1
 45
0.0
1001
ACAD
1000
AcDbSavedByObjectVersion
1070
     0
  0
VISUALSTYLE
  5
38
102
{ACAD_REACTORS
330
2A
102
}
102
{ACAD_XDICTIONARY
360
2EA
102
}
330
2A
100
AcDbVisualStyle
  2
Linepattern
 70
    14
 71
     2
 72
     2
 73
     0
 90
        0
 40
0.6
 41
30.0
 62
     5
 63
     7
 74
     1
 91
        4
 64
     7
 65
   257
 75
     7
175
     7
 42
1.0
 92
        8
 66
     7
 43
1.0
 76
     1
 77
     6
 78
     2
 67
     7
 79
     5
170
     0
171
     0
290
     0
174
     0
 93
        1
 44
0.0
173
     0
291
     1
 45
0.0
1001
ACAD
1000
AcDbSavedByObjectVersion
1070
     0
  0
VISUALSTYLE
  5
3C
102
{ACAD_REACTORS
330
2A
102
}
102
{ACAD_XDICTIONARY
360
2F2
102
}
330
2A
100
AcDbVisualStyle
  2
OverhangOff
 70
    21
 71
     2
 72
     2
 73
     0
 90
        0
 40
0.6
 41
30.0
 62
     5
 63
     7
 74
     1
 91
        4
 64
     7
 65
   257
 75
     1
175
     1
 42
1.0
 92
        9
 66
     7
 43
1.0
 76
     1
 77
     6
 78
     2
 67
     7
 79
     5
170
     0
171
     0
290
     0
174
     0
 93
        1
 44
0.0
173
     0
291
     1
 45
0.0
1001
ACAD
1000
AcDbSavedByObjectVersion
1070
     0
  0
VISUALSTYLE
  5
33
102
{ACAD_REACTORS
330
2A
102
}
102
{ACAD_XDICTIONARY
360
2E0
102
}
330
2A
100
AcDbVisualStyle
  2
Realistic
 70
     8
 71
     2
 72
     3
 73
     0
 90
        2
 40
0.6
 41
30.0
 62
     5
 63
     7
 74
     0
 91
        0
 64
     7
 65
   257
 75
     1
175
     1
 42
1.0
 92
        8
 66
   257
 43
1.0
 76
     1
 77
     6
 78
     2
 67
     7
 79
     3
170
     0
171
     0
290
     0
174
     0
 93
       13
 44
0.0
173
     0
291
     0
 45
0.0
1001
ACAD
1000
AcDbSavedByObjectVersion
1070
     0
  0
VISUALSTYLE
  5
42
102
{ACAD_REACTORS
330
2A
102
}
102
{ACAD_XDICTIONARY
360
2FE
102
}
330
2A
100
AcDbVisualStyle
  2
Shaded
 70
    27
 71
     2
 72
     2
 73
     1
 90
        2
 40
0.6
 41
30.0
 62
     5
 63
     7
 74
     0
 91
        4
 64
     7
 65
   257
 75
     1
175
     1
 42
1.0
 92
        8
 66
   257
 43
1.0
 76
     1
 77
     6
 78
     2
 67
     8
 79
     3
170
     0
171
     0
290
     0
174
     0
 93
        5
 44
0.0
173
     0
291
     0
 45
0.0
1001
ACAD
1000
AcDbSavedByObjectVersion
1070
     0
  0
VISUALSTYLE
  5
41
102
{ACAD_REACTORS
330
2A
102
}
102
{ACAD_XDICTIONARY
360
2FC
102
}
330
2A
100
AcDbVisualStyle
  2
Shaded with edges
 70
    26
 71
     2
 72
     2
 73
     1
 90
        2
 40
0.6
 41
30.0
 62
     5
 63
     7
 74
     1
 91
       10
 64
     7
 65
   257
 75
     2
175
     1
 42
1.0
 92
        8
 66
   257
 43
1.0
 76
     1
 77
     6
 78
     2
 67
     7
 79
     3
170
     0
171
     0
290
     0
174
     0
 93
        5
 44
0.0
173
     0
291
     0
 45
0.0
1001
ACAD
1000
AcDbSavedByObjectVersion
1070
     0
  0
VISUALSTYLE
  5
3E
102
{ACAD_REACTORS
330
2A
102
}
102
{ACAD_XDICTIONARY
360
2F6
102
}
330
2A
100
AcDbVisualStyle
  2
Shades of Gray
 70
    23
 71
     2
 72
     2
 73
     3
 90
        0
 40
0.6
 41
30.0
 62
     5
 63
     7
 74
     2
 91
        2
 64
     7
 65
     7
 75
     1
175
     1
 42
40.0
 92
        8
 66
     7
 43
1.0
 76
     1
 77
     6
 78
     2
 67
     7
 79
     3
170
     0
171
     0
290
     0
174
     0
 93
        1
 44
0.0
173
     0
291
     0
 45
0.0
1001
ACAD
1000
AcDbSavedByObjectVersion
1070
     0
  0
VISUALSTYLE
  5
3F
102
{ACAD_REACTORS
330
2A
102
}
102
{ACAD_XDICTIONARY
360
2F8
102
}
330
2A
100
AcDbVisualStyle
  2
Sketchy
 70
    24
 71
     1
 72
     2
 73
     2
 90
        0
 40
0.6
 41
30.0
 62
     5
 63
     7
 74
     2
 91
        2
 64
     7
 65
     7
 75
     1
175
     1
 42
40.0
 92
       11
 66
     7
 43
1.0
 76
     1
 77
     6
 78
     2
 67
     7
 79
     6
170
     0
171
     0
290
     0
174
     0
 93
        1
 44
0.0
173
     0
291
     0
 45
0.0
1001
ACAD
1000
AcDbSavedByObjectVersion
1070
     0
  0
VISUALSTYLE
  5
37
102
{ACAD_REACTORS
330
2A
102
}
102
{ACAD_XDICTIONARY
360
2E8
102
}
330
2A
100
AcDbVisualStyle
  2
Thicken
 70
    13
 71
     2
 72
     2
 73
     0
 90
        0
 40
0.6
 41
30.0
 62
     5
 63
     7
 74
     1
 91
        4
 64
     7
 65
   257
 75
     1
175
     1
 42
1.0
 92
       12
 66
     7
 43
1.0
 76
     1
 77
     6
 78
     2
 67
     7
 79
     5
170
     0
171
     0
290
     0
174
     0
 93
        1
 44
0.0
173
     0
291
     1
 45
0.0
1001
ACAD
1000
AcDbSavedByObjectVersion
1070
     0
  0
VISUALSTYLE
  5
30
102
{ACAD_REACTORS
330
2A
102
}
102
{ACAD_XDICTIONARY
360
2DA
102
}
330
2A
100
AcDbVisualStyle
  2
Wireframe
 70
     5
 71
     0
 72
     2
 73
     0
 90
        0
 40
0.6
 41
30.0
 62
     5
 63
     7
 74
     1
 91
        4
 64
     7
 65
   257
 75
     1
175
     1
 42
1.0
 92
        0
 66
   257
 43
1.0
 76
     1
 77
     6
 78
     2
 67
     7
 79
     3
170
     0
171
     0
290
     0
174
     0
 93
        1
 44
0.0
173
     0
291
     0
 45
0.0
1001
ACAD
1000
AcDbSavedByObjectVersion
1070
     0
  0
VISUALSTYLE
  5
40
102
{ACAD_REACTORS
330
2A
102
}
102
{ACAD_XDICTIONARY
360
2FA
102
}
330
2A
100
AcDbVisualStyle
  2
X-Ray
 70
    25
 71
     2
 72
     2
 73
     1
 90
        1
 40
0.5
 41
30.0
 62
     5
 63
     7
 74
     1
 91
        0
 64
     7
 65
   257
 75
     1
175
     1
 42
1.0
 92
        8
 66
     7
 43
1.0
 76
     1
 77
     6
 78
     2
 67
     7
 79
     3
170
     0
171
     0
290
     0
174
     0
 93
       13
 44
0.0
173
     0
291
     0
 45
0.0
1001
ACAD
1000
AcDbSavedByObjectVersion
1070
     0
  0
DICTIONARYVAR
  5
2CE
102
{ACAD_REACTORS
330
2C1
102
}
330
2C1
100
DictionaryVariables
280
     0
  1
1:1
  0
DICTIONARYVAR
  5
2C8
102
{ACAD_REACTORS
330
2C1
102
}
330
2C1
100
DictionaryVariables
280
     0
  1
3.500000
  0
DICTIONARYVAR
  5
2C9
102
{ACAD_REACTORS
330
2C1
102
}
330
2C1
100
DictionaryVariables
280
     0
  1
acadiso.lin
  0
DICTIONARYVAR
  5
2C3
102
{ACAD_REACTORS
330
2C1
102
}
330
2C1
100
DictionaryVariables
280
     0
  1
Standard
  0
DICTIONARYVAR
  5
2C2
102
{ACAD_REACTORS
330
2C1
102
}
330
2C1
100
DictionaryVariables
280
     0
  1
Standard
  0
DICTIONARYVAR
  5
2CA
102
{ACAD_REACTORS
330
2C1
102
}
330
2C1
100
DictionaryVariables
280
     0
  1
2
  0
DICTIONARYVAR
  5
2CB
102
{ACAD_REACTORS
330
2C1
102
}
330
2C1
100
DictionaryVariables
280
     0
  1
1
  0
DICTIONARYVAR
  5
2CF
102
{ACAD_REACTORS
330
2C1
102
}
330
2C1
100
DictionaryVariables
280
     0
  1
1
  0
DICTIONARYVAR
  5
2C5
102
{ACAD_REACTORS
330
2C1
102
}
330
2C1
100
DictionaryVariables
280
     0
  1
80.000000
  0
DICTIONARYVAR
  5
2C4
102
{ACAD_REACTORS
330
2C1
102
}
330
2C1
100
DictionaryVariables
280
     0
  1
5.000000
  0
DICTIONARY
  5
302
330
45
100
AcDbDictionary
280
     1
281
     1
  3
ACAD_XREC_ROUNDTRIP
360
303
  0
DICTIONARY
  5
300
330
44
100
AcDbDictionary
280
     1
281
     1
  3
ACAD_XREC_ROUNDTRIP
360
301
  0
DICTIONARY
  5
304
330
46
100
AcDbDictionary
280
     1
281
     1
  3
ACAD_XREC_ROUNDTRIP
360
305
  0
DICTIONARY
  5
307
330
6C
100
AcDbDictionary
280
     1
281
     1
  3
ACAD_XREC_ROUNDTRIP
360
308
  0
DICTIONARY
  5
2D8
330
2F
100
AcDbDictionary
280
     1
281
     1
  3
ACAD_XREC_ROUNDTRIP
360
2D9
  0
DICTIONARY
  5
2DE
330
32
100
AcDbDictionary
280
     1
281
     1
  3
ACAD_XREC_ROUNDTRIP
360
2DF
  0
DICTIONARY
  5
2E6
330
36
100
AcDbDictionary
280
     1
281
     1
  3
ACAD_XREC_ROUNDTRIP
360
2E7
  0
DICTIONARY
  5
2EE
330
3A
100
AcDbDictionary
280
     1
281
     1
  3
ACAD_XREC_ROUNDTRIP
360
2EF
  0
DICTIONARY
  5
2E2
330
34
100
AcDbDictionary
280
     1
281
     1
  3
ACAD_XREC_ROUNDTRIP
360
2E3
  0
DICTIONARY
  5
2E4
330
35
100
AcDbDictionary
280
     1
281
     1
  3
ACAD_XREC_ROUNDTRIP
360
2E5
  0
DICTIONARY
  5
2F4
330
3D
100
AcDbDictionary
280
     1
281
     1
  3
ACAD_XREC_ROUNDTRIP
360
2F5
  0
DICTIONARY
  5
2EC
330
39
100
AcDbDictionary
280
     1
281
     1
  3
ACAD_XREC_ROUNDTRIP
360
2ED
  0
DICTIONARY
  5
2D0
330
2B
100
AcDbDictionary
280
     1
281
     1
  3
ACAD_XREC_ROUNDTRIP
360
2D1
  0
DICTIONARY
  5
2D2
330
2C
100
AcDbDictionary
280
     1
281
     1
  3
ACAD_XREC_ROUNDTRIP
360
2D3
  0
DICTIONARY
  5
2D4
330
2D
100
AcDbDictionary
280
     1
281
     1
  3
ACAD_XREC_ROUNDTRIP
360
2D5
  0
DICTIONARY
  5
2D6
330
2E
100
AcDbDictionary
280
     1
281
     1
  3
ACAD_XREC_ROUNDTRIP
360
2D7
  0
DICTIONARY
  5
2DC
330
31
100
AcDbDictionary
280
     1
281
     1
  3
ACAD_XREC_ROUNDTRIP
360
2DD
  0
DICTIONARY
  5
2F0
330
3B
100
AcDbDictionary
280
     1
281
     1
  3
ACAD_XREC_ROUNDTRIP
360
2F1
  0
DICTIONARY
  5
2EA
330
38
100
AcDbDictionary
280
     1
281
     1
  3
ACAD_XREC_ROUNDTRIP
360
2EB
  0
DICTIONARY
  5
2F2
330
3C
100
AcDbDictionary
280
     1
281
     1
  3
ACAD_XREC_ROUNDTRIP
360
2F3
  0
DICTIONARY
  5
2E0
330
33
100
AcDbDictionary
280
     1
281
     1
  3
ACAD_XREC_ROUNDTRIP
360
2E1
  0
DICTIONARY
  5
2FE
330
42
100
AcDbDictionary
280
     1
281
     1
  3
ACAD_XREC_ROUNDTRIP
360
2FF
  0
DICTIONARY
  5
2FC
330
41
100
AcDbDictionary
280
     1
281
     1
  3
ACAD_XREC_ROUNDTRIP
360
2FD
  0
DICTIONARY
  5
2F6
330
3E
100
AcDbDictionary
280
     1
281
     1
  3
ACAD_XREC_ROUNDTRIP
360
2F7
  0
DICTIONARY
  5
2F8
330
3F
100
AcDbDictionary
280
     1
281
     1
  3
ACAD_XREC_ROUNDTRIP
360
2F9
  0
DICTIONARY
  5
2E8
330
37
100
AcDbDictionary
280
     1
281
     1
  3
ACAD_XREC_ROUNDTRIP
360
2E9
  0
DICTIONARY
  5
2DA
330
30
100
AcDbDictionary
280
     1
281
     1
  3
ACAD_XREC_ROUNDTRIP
360
2DB
  0
DICTIONARY
  5
2FA
330
40
100
AcDbDictionary
280
     1
281
     1
  3
ACAD_XREC_ROUNDTRIP
360
2FB
  0
XRECORD
  5
303
102
{ACAD_REACTORS
330
302
102
}
330
302
100
AcDbXrecord
280
     1
102
MATERIAL
148
0.0
149
0.0
149
0.0
 93
        0
 94
      127
282
     0
 72
     1
 77
     1
171
     1
175
     1
179
     1
273
     0
  0
XRECORD
  5
301
102
{ACAD_REACTORS
330
300
102
}
330
300
100
AcDbXrecord
280
     1
102
MATERIAL
148
0.0
149
0.0
149
0.0
 93
        0
 94
      127
282
     0
 72
     1
 77
     1
171
     1
175
     1
179
     1
273
     0
  0
XRECORD
  5
305
102
{ACAD_REACTORS
330
304
102
}
330
304
100
AcDbXrecord
280
     1
102
MATERIAL
148
0.0
149
0.0
149
0.0
 93
        0
 94
      127
282
     0
 72
     1
 77
     1
171
     1
175
     1
179
     1
273
     0
  0
XRECORD
  5
308
102
{ACAD_REACTORS
330
307
102
}
330
307
100
AcDbXrecord
280
     1
102
ACAD_ROUNDTRIP_2010_MLEADER_STYLE
  0
XRECORD
  5
2D9
102
{ACAD_REACTORS
330
2D8
102
}
330
2D8
100
AcDbXrecord
280
     1
102
RTVSPropertyOp0
 70
     1
102
RTVSPropertyOp1
 70
     1
102
RTVSPropertyOp2
 70
     1
102
RTVSPropertyOp3
 70
     1
102
RTVSPropertyOp4
 70
     1
102
RTVSPropertyOp5
 70
     1
102
RTVSPropertyOp6
 70
     1
102
RTVSPropertyOp7
 70
     1
102
RTVSPropertyOp8
 70
     1
102
RTVSPropertyOp9
 70
     1
102
RTVSPropertyOp10
 70
     1
102
RTVSPropertyOp11
 70
     1
102
RTVSPropertyOp12
 70
     1
102
RTVSPropertyOp13
 70
     1
102
RTVSPropertyOp14
 70
     1
102
RTVSPropertyOp15
 70
     1
102
RTVSPropertyOp16
 70
     1
102
RTVSPropertyOp17
 70
     1
102
RTVSPropertyOp18
 70
     1
102
RTVSPropertyOp19
 70
     1
102
RTVSPropertyOp20
 70
     1
102
RTVSPropertyOp21
 70
     1
102
RTVSPropertyOp22
 70
     1
102
RTVSPropertyOp23
 70
     1
102
RTVSPropertyOp24
 70
     1
102
RTVSPropertyOp25
 70
     1
102
RTVSPropertyOp26
 70
     1
102
RTVSPropertyOp27
 70
     1
102
RTVSPropertyOp28
 70
     1
102
RTVSPropertyOp29
 70
     1
102
RTVSPropertyOp30
 70
     1
102
RTVSPropertyOp31
 70
     1
102
RTVSPropertyOp32
 70
     1
102
RTVSPropertyOp33
 70
     1
102
RTVSPropertyOp34
 70
     1
102
RTVSPropertyOp35
 70
     1
102
RTVSPropertyOp36
 70
     1
102
RTVSPropertyOp37
 70
     1
102
RTVSPropertyOp38
 70
     1
102
RTVSPropertyOp39
 70
     1
102
RTVSPropertyOp40
 70
     1
102
RTVSPropertyOp41
 70
     1
102
RTVSPropertyOp42
 70
     1
102
RTVSPropertyOp43
 70
     1
102
RTVSPropertyOp44
 70
     1
102
RTVSPropertyOp45
 70
     1
102
RTVSPropertyOp46
 70
     1
102
RTVSPropertyOp47
 70
     1
102
RTVSPropertyOp48
 70
     1
102
RTVSPropertyOp49
 70
     1
102
RTVSPropertyOp50
 70
     1
102
RTVSPropertyOp51
 70
     0
102
RTVSPropertyOp52
 70
     0
102
RTVSPropertyOp53
 70
     1
102
RTVSPropertyOp54
 70
     1
102
RTVSPropertyOp55
 70
     1
102
RTVSPropertyOp56
 70
     1
102
RTVSPropertyOp57
 70
     1
102
RTVSPost2010Prop28
280
     1
102
RTVSPost2010PropOp28
 70
     1
102
RTVSPost2010Prop29
280
     1
102
RTVSPost2010PropOp29
 70
     1
102
RTVSPost2010Prop30
280
     0
102
RTVSPost2010PropOp30
 70
     1
102
RTVSPost2010Prop31
280
     0
102
RTVSPost2010PropOp31
 70
     1
102
RTVSPost2010Prop32
280
     0
102
RTVSPost2010PropOp32
 70
     1
102
RTVSPost2010Prop33
280
     0
102
RTVSPost2010PropOp33
 70
     1
102
RTVSPost2010Prop34
280
     0
102
RTVSPost2010PropOp34
 70
     1
102
RTVSPost2010Prop35
280
     0
102
RTVSPost2010PropOp35
 70
     1
102
RTVSPost2010Prop36
280
     0
102
RTVSPost2010PropOp36
 70
     1
102
RTVSPost2010Prop37
 90
       50
102
RTVSPost2010PropOp37
 70
     1
102
RTVSPost2010Prop38
140
0.0
102
RTVSPost2010PropOp38
 70
     1
102
RTVSPost2010Prop39
140
1.0
102
RTVSPost2010PropOp39
 70
     1
102
RTVSPost2010Prop40
 90
        0
102
RTVSPost2010PropOp40
 70
     1
102
RTVSPost2010Prop41ColorIndex
 90
       18
102
RTVSPost2010Prop41ColorRGB
 90
        0
102
RTVSPost2010PropOp41
 70
     1
102
RTVSPost2010Prop42
 90
       50
102
RTVSPost2010PropOp42
 70
     1
102
RTVSPost2010Prop43
 90
        3
102
RTVSPost2010PropOp43
 70
     1
102
RTVSPost2010Prop44ColorIndex
 90
        5
102
RTVSPost2010Prop44ColorRGB
 90
      255
102
RTVSPost2010PropOp44
 70
     1
102
RTVSPost2010Prop45
280
     0
102
RTVSPost2010PropOp45
 70
     1
102
RTVSPost2010Prop46
 90
       50
102
RTVSPost2010PropOp46
 70
     1
102
RTVSPost2010Prop47
 90
       50
102
RTVSPost2010PropOp47
 70
     1
102
RTVSPost2010Prop48
 90
       50
102
RTVSPost2010PropOp48
 70
     1
102
RTVSPost2010Prop49
280
     0
102
RTVSPost2010PropOp49
 70
     1
102
RTVSPost2010Prop50
 90
       50
102
RTVSPost2010PropOp50
 70
     1
102
RTVSPost2010Prop51ColorIndex
 90
      256
102
RTVSPost2010Prop51ColorRGB
 90
-16777216
102
RTVSPost2010PropOp51
 70
     0
102
RTVSPost2010Prop52
140
1.0
102
RTVSPost2010PropOp52
 70
     0
102
RTVSPost2010Prop53
 90
        2
102
RTVSPost2010PropOp53
 70
     1
102
RTVSPost2010Prop54
  1
strokes_ogs.tif
102
RTVSPost2010PropOp54
 70
     1
102
RTVSPost2010Prop55
280
     0
102
RTVSPost2010PropOp55
 70
     1
102
RTVSPost2010Prop56
140
1.0
102
RTVSPost2010PropOp56
 70
     1
102
RTVSPost2010Prop57
140
1.0
102
RTVSPost2010PropOp57
 70
     1
  0
XRECORD
  5
2DF
102
{ACAD_REACTORS
330
2DE
102
}
330
2DE
100
AcDbXrecord
280
     1
102
RTVSPropertyOp0
 70
     1
102
RTVSPropertyOp1
 70
     1
102
RTVSPropertyOp2
 70
     1
102
RTVSPropertyOp3
 70
     1
102
RTVSPropertyOp4
 70
     1
102
RTVSPropertyOp5
 70
     1
102
RTVSPropertyOp6
 70
     1
102
RTVSPropertyOp7
 70
     1
102
RTVSPropertyOp8
 70
     1
102
RTVSPropertyOp9
 70
     1
102
RTVSPropertyOp10
 70
     1
102
RTVSPropertyOp11
 70
     1
102
RTVSPropertyOp12
 70
     1
102
RTVSPropertyOp13
 70
     1
102
RTVSPropertyOp14
 70
     1
102
RTVSPropertyOp15
 70
     1
102
RTVSPropertyOp16
 70
     1
102
RTVSPropertyOp17
 70
     1
102
RTVSPropertyOp18
 70
     1
102
RTVSPropertyOp19
 70
     1
102
RTVSPropertyOp20
 70
     1
102
RTVSPropertyOp21
 70
     1
102
RTVSPropertyOp22
 70
     1
102
RTVSPropertyOp23
 70
     1
102
RTVSPropertyOp24
 70
     1
102
RTVSPropertyOp25
 70
     1
102
RTVSPropertyOp26
 70
     1
102
RTVSPropertyOp27
 70
     1
102
RTVSPropertyOp28
 70
     1
102
RTVSPropertyOp29
 70
     1
102
RTVSPropertyOp30
 70
     1
102
RTVSPropertyOp31
 70
     1
102
RTVSPropertyOp32
 70
     1
102
RTVSPropertyOp33
 70
     1
102
RTVSPropertyOp34
 70
     1
102
RTVSPropertyOp35
 70
     1
102
RTVSPropertyOp36
 70
     1
102
RTVSPropertyOp37
 70
     1
102
RTVSPropertyOp38
 70
     1
102
RTVSPropertyOp39
 70
     1
102
RTVSPropertyOp40
 70
     1
102
RTVSPropertyOp41
 70
     1
102
RTVSPropertyOp42
 70
     1
102
RTVSPropertyOp43
 70
     1
102
RTVSPropertyOp44
 70
     1
102
RTVSPropertyOp45
 70
     1
102
RTVSPropertyOp46
 70
     1
102
RTVSPropertyOp47
 70
     1
102
RTVSPropertyOp48
 70
     1
102
RTVSPropertyOp49
 70
     1
102
RTVSPropertyOp50
 70
     1
102
RTVSPropertyOp51
 70
     0
102
RTVSPropertyOp52
 70
     0
102
RTVSPropertyOp53
 70
     1
102
RTVSPropertyOp54
 70
     1
102
RTVSPropertyOp55
 70
     1
102
RTVSPropertyOp56
 70
     1
102
RTVSPropertyOp57
 70
     1
102
RTVSPost2010Prop28
280
     0
102
RTVSPost2010PropOp28
 70
     1
102
RTVSPost2010Prop29
280
     1
102
RTVSPost2010PropOp29
 70
     1
102
RTVSPost2010Prop30
280
     1
102
RTVSPost2010PropOp30
 70
     1
102
RTVSPost2010Prop31
280
     0
102
RTVSPost2010PropOp31
 70
     1
102
RTVSPost2010Prop32
280
     0
102
RTVSPost2010PropOp32
 70
     1
102
RTVSPost2010Prop33
280
     0
102
RTVSPost2010PropOp33
 70
     1
102
RTVSPost2010Prop34
280
     0
102
RTVSPost2010PropOp34
 70
     1
102
RTVSPost2010Prop35
280
     0
102
RTVSPost2010PropOp35
 70
     1
102
RTVSPost2010Prop36
280
     0
102
RTVSPost2010PropOp36
 70
     1
102
RTVSPost2010Prop37
 90
       50
102
RTVSPost2010PropOp37
 70
     1
102
RTVSPost2010Prop38
140
0.0
102
RTVSPost2010PropOp38
 70
     1
102
RTVSPost2010Prop39
140
1.0
102
RTVSPost2010PropOp39
 70
     1
102
RTVSPost2010Prop40
 90
        0
102
RTVSPost2010PropOp40
 70
     1
102
RTVSPost2010Prop41ColorIndex
 90
       18
102
RTVSPost2010Prop41ColorRGB
 90
        0
102
RTVSPost2010PropOp41
 70
     1
102
RTVSPost2010Prop42
 90
       50
102
RTVSPost2010PropOp42
 70
     1
102
RTVSPost2010Prop43
 90
        3
102
RTVSPost2010PropOp43
 70
     1
102
RTVSPost2010Prop44ColorIndex
 90
        5
102
RTVSPost2010Prop44ColorRGB
 90
      255
102
RTVSPost2010PropOp44
 70
     1
102
RTVSPost2010Prop45
280
     0
102
RTVSPost2010PropOp45
 70
     1
102
RTVSPost2010Prop46
 90
       50
102
RTVSPost2010PropOp46
 70
     1
102
RTVSPost2010Prop47
 90
       50
102
RTVSPost2010PropOp47
 70
     1
102
RTVSPost2010Prop48
 90
       50
102
RTVSPost2010PropOp48
 70
     1
102
RTVSPost2010Prop49
280
     0
102
RTVSPost2010PropOp49
 70
     1
102
RTVSPost2010Prop50
 90
       50
102
RTVSPost2010PropOp50
 70
     1
102
RTVSPost2010Prop51ColorIndex
 90
      256
102
RTVSPost2010Prop51ColorRGB
 90
-16777216
102
RTVSPost2010PropOp51
 70
     0
102
RTVSPost2010Prop52
140
1.0
102
RTVSPost2010PropOp52
 70
     0
102
RTVSPost2010Prop53
 90
        2
102
RTVSPost2010PropOp53
 70
     1
102
RTVSPost2010Prop54
  1
strokes_ogs.tif
102
RTVSPost2010PropOp54
 70
     1
102
RTVSPost2010Prop55
280
     0
102
RTVSPost2010PropOp55
 70
     1
102
RTVSPost2010Prop56
140
1.0
102
RTVSPost2010PropOp56
 70
     1
102
RTVSPost2010Prop57
140
1.0
102
RTVSPost2010PropOp57
 70
     1
  0
XRECORD
  5
2E7
102
{ACAD_REACTORS
330
2E6
102
}
330
2E6
100
AcDbXrecord
280
     1
102
RTVSPropertyOp0
 70
     1
102
RTVSPropertyOp1
 70
     1
102
RTVSPropertyOp2
 70
     1
102
RTVSPropertyOp3
 70
     1
102
RTVSPropertyOp4
 70
     1
102
RTVSPropertyOp5
 70
     1
102
RTVSPropertyOp6
 70
     1
102
RTVSPropertyOp7
 70
     1
102
RTVSPropertyOp8
 70
     1
102
RTVSPropertyOp9
 70
     1
102
RTVSPropertyOp10
 70
     1
102
RTVSPropertyOp11
 70
     1
102
RTVSPropertyOp12
 70
     1
102
RTVSPropertyOp13
 70
     1
102
RTVSPropertyOp14
 70
     1
102
RTVSPropertyOp15
 70
     1
102
RTVSPropertyOp16
 70
     1
102
RTVSPropertyOp17
 70
     1
102
RTVSPropertyOp18
 70
     1
102
RTVSPropertyOp19
 70
     1
102
RTVSPropertyOp20
 70
     1
102
RTVSPropertyOp21
 70
     1
102
RTVSPropertyOp22
 70
     1
102
RTVSPropertyOp23
 70
     1
102
RTVSPropertyOp24
 70
     1
102
RTVSPropertyOp25
 70
     1
102
RTVSPropertyOp26
 70
     1
102
RTVSPropertyOp27
 70
     1
102
RTVSPropertyOp28
 70
     1
102
RTVSPropertyOp29
 70
     1
102
RTVSPropertyOp30
 70
     1
102
RTVSPropertyOp31
 70
     1
102
RTVSPropertyOp32
 70
     1
102
RTVSPropertyOp33
 70
     1
102
RTVSPropertyOp34
 70
     1
102
RTVSPropertyOp35
 70
     1
102
RTVSPropertyOp36
 70
     1
102
RTVSPropertyOp37
 70
     1
102
RTVSPropertyOp38
 70
     1
102
RTVSPropertyOp39
 70
     1
102
RTVSPropertyOp40
 70
     1
102
RTVSPropertyOp41
 70
     1
102
RTVSPropertyOp42
 70
     1
102
RTVSPropertyOp43
 70
     1
102
RTVSPropertyOp44
 70
     1
102
RTVSPropertyOp45
 70
     1
102
RTVSPropertyOp46
 70
     1
102
RTVSPropertyOp47
 70
     1
102
RTVSPropertyOp48
 70
     1
102
RTVSPropertyOp49
 70
     1
102
RTVSPropertyOp50
 70
     1
102
RTVSPropertyOp51
 70
     0
102
RTVSPropertyOp52
 70
     0
102
RTVSPropertyOp53
 70
     1
102
RTVSPropertyOp54
 70
     1
102
RTVSPropertyOp55
 70
     1
102
RTVSPropertyOp56
 70
     1
102
RTVSPropertyOp57
 70
     1
102
RTVSPost2010Prop28
280
     0
102
RTVSPost2010PropOp28
 70
     1
102
RTVSPost2010Prop29
280
     1
102
RTVSPost2010PropOp29
 70
     1
102
RTVSPost2010Prop30
280
     1
102
RTVSPost2010PropOp30
 70
     1
102
RTVSPost2010Prop31
280
     0
102
RTVSPost2010PropOp31
 70
     1
102
RTVSPost2010Prop32
280
     0
102
RTVSPost2010PropOp32
 70
     1
102
RTVSPost2010Prop33
280
     0
102
RTVSPost2010PropOp33
 70
     1
102
RTVSPost2010Prop34
280
     0
102
RTVSPost2010PropOp34
 70
     1
102
RTVSPost2010Prop35
280
     0
102
RTVSPost2010PropOp35
 70
     1
102
RTVSPost2010Prop36
280
     0
102
RTVSPost2010PropOp36
 70
     1
102
RTVSPost2010Prop37
 90
       50
102
RTVSPost2010PropOp37
 70
     1
102
RTVSPost2010Prop38
140
0.0
102
RTVSPost2010PropOp38
 70
     1
102
RTVSPost2010Prop39
140
1.0
102
RTVSPost2010PropOp39
 70
     1
102
RTVSPost2010Prop40
 90
        0
102
RTVSPost2010PropOp40
 70
     1
102
RTVSPost2010Prop41ColorIndex
 90
       18
102
RTVSPost2010Prop41ColorRGB
 90
        0
102
RTVSPost2010PropOp41
 70
     1
102
RTVSPost2010Prop42
 90
       50
102
RTVSPost2010PropOp42
 70
     1
102
RTVSPost2010Prop43
 90
        3
102
RTVSPost2010PropOp43
 70
     1
102
RTVSPost2010Prop44ColorIndex
 90
        5
102
RTVSPost2010Prop44ColorRGB
 90
      255
102
RTVSPost2010PropOp44
 70
     1
102
RTVSPost2010Prop45
280
     0
102
RTVSPost2010PropOp45
 70
     1
102
RTVSPost2010Prop46
 90
       50
102
RTVSPost2010PropOp46
 70
     1
102
RTVSPost2010Prop47
 90
       50
102
RTVSPost2010PropOp47
 70
     1
102
RTVSPost2010Prop48
 90
       50
102
RTVSPost2010PropOp48
 70
     1
102
RTVSPost2010Prop49
280
     0
102
RTVSPost2010PropOp49
 70
     1
102
RTVSPost2010Prop50
 90
       50
102
RTVSPost2010PropOp50
 70
     1
102
RTVSPost2010Prop51ColorIndex
 90
      256
102
RTVSPost2010Prop51ColorRGB
 90
-16777216
102
RTVSPost2010PropOp51
 70
     0
102
RTVSPost2010Prop52
140
1.0
102
RTVSPost2010PropOp52
 70
     0
102
RTVSPost2010Prop53
 90
        2
102
RTVSPost2010PropOp53
 70
     1
102
RTVSPost2010Prop54
  1
strokes_ogs.tif
102
RTVSPost2010PropOp54
 70
     1
102
RTVSPost2010Prop55
280
     0
102
RTVSPost2010PropOp55
 70
     1
102
RTVSPost2010Prop56
140
1.0
102
RTVSPost2010PropOp56
 70
     1
102
RTVSPost2010Prop57
140
1.0
102
RTVSPost2010PropOp57
 70
     1
  0
XRECORD
  5
2EF
102
{ACAD_REACTORS
330
2EE
102
}
330
2EE
100
AcDbXrecord
280
     1
102
RTVSPropertyOp0
 70
     1
102
RTVSPropertyOp1
 70
     1
102
RTVSPropertyOp2
 70
     1
102
RTVSPropertyOp3
 70
     1
102
RTVSPropertyOp4
 70
     1
102
RTVSPropertyOp5
 70
     1
102
RTVSPropertyOp6
 70
     1
102
RTVSPropertyOp7
 70
     1
102
RTVSPropertyOp8
 70
     1
102
RTVSPropertyOp9
 70
     1
102
RTVSPropertyOp10
 70
     1
102
RTVSPropertyOp11
 70
     1
102
RTVSPropertyOp12
 70
     1
102
RTVSPropertyOp13
 70
     1
102
RTVSPropertyOp14
 70
     1
102
RTVSPropertyOp15
 70
     1
102
RTVSPropertyOp16
 70
     1
102
RTVSPropertyOp17
 70
     1
102
RTVSPropertyOp18
 70
     1
102
RTVSPropertyOp19
 70
     1
102
RTVSPropertyOp20
 70
     1
102
RTVSPropertyOp21
 70
     1
102
RTVSPropertyOp22
 70
     1
102
RTVSPropertyOp23
 70
     1
102
RTVSPropertyOp24
 70
     1
102
RTVSPropertyOp25
 70
     1
102
RTVSPropertyOp26
 70
     1
102
RTVSPropertyOp27
 70
     1
102
RTVSPropertyOp28
 70
     1
102
RTVSPropertyOp29
 70
     1
102
RTVSPropertyOp30
 70
     1
102
RTVSPropertyOp31
 70
     1
102
RTVSPropertyOp32
 70
     1
102
RTVSPropertyOp33
 70
     1
102
RTVSPropertyOp34
 70
     1
102
RTVSPropertyOp35
 70
     1
102
RTVSPropertyOp36
 70
     1
102
RTVSPropertyOp37
 70
     1
102
RTVSPropertyOp38
 70
     1
102
RTVSPropertyOp39
 70
     1
102
RTVSPropertyOp40
 70
     1
102
RTVSPropertyOp41
 70
     1
102
RTVSPropertyOp42
 70
     1
102
RTVSPropertyOp43
 70
     1
102
RTVSPropertyOp44
 70
     1
102
RTVSPropertyOp45
 70
     1
102
RTVSPropertyOp46
 70
     1
102
RTVSPropertyOp47
 70
     1
102
RTVSPropertyOp48
 70
     1
102
RTVSPropertyOp49
 70
     1
102
RTVSPropertyOp50
 70
     1
102
RTVSPropertyOp51
 70
     0
102
RTVSPropertyOp52
 70
     0
102
RTVSPropertyOp53
 70
     1
102
RTVSPropertyOp54
 70
     1
102
RTVSPropertyOp55
 70
     1
102
RTVSPropertyOp56
 70
     1
102
RTVSPropertyOp57
 70
     1
102
RTVSPost2010Prop28
280
     0
102
RTVSPost2010PropOp28
 70
     1
102
RTVSPost2010Prop29
280
     1
102
RTVSPost2010PropOp29
 70
     1
102
RTVSPost2010Prop30
280
     1
102
RTVSPost2010PropOp30
 70
     1
102
RTVSPost2010Prop31
280
     0
102
RTVSPost2010PropOp31
 70
     1
102
RTVSPost2010Prop32
280
     0
102
RTVSPost2010PropOp32
 70
     1
102
RTVSPost2010Prop33
280
     0
102
RTVSPost2010PropOp33
 70
     1
102
RTVSPost2010Prop34
280
     0
102
RTVSPost2010PropOp34
 70
     1
102
RTVSPost2010Prop35
280
     0
102
RTVSPost2010PropOp35
 70
     1
102
RTVSPost2010Prop36
280
     0
102
RTVSPost2010PropOp36
 70
     1
102
RTVSPost2010Prop37
 90
       50
102
RTVSPost2010PropOp37
 70
     1
102
RTVSPost2010Prop38
140
0.0
102
RTVSPost2010PropOp38
 70
     1
102
RTVSPost2010Prop39
140
1.0
102
RTVSPost2010PropOp39
 70
     1
102
RTVSPost2010Prop40
 90
        0
102
RTVSPost2010PropOp40
 70
     1
102
RTVSPost2010Prop41ColorIndex
 90
       18
102
RTVSPost2010Prop41ColorRGB
 90
        0
102
RTVSPost2010PropOp41
 70
     1
102
RTVSPost2010Prop42
 90
       50
102
RTVSPost2010PropOp42
 70
     1
102
RTVSPost2010Prop43
 90
        3
102
RTVSPost2010PropOp43
 70
     1
102
RTVSPost2010Prop44ColorIndex
 90
        5
102
RTVSPost2010Prop44ColorRGB
 90
      255
102
RTVSPost2010PropOp44
 70
     1
102
RTVSPost2010Prop45
280
     0
102
RTVSPost2010PropOp45
 70
     1
102
RTVSPost2010Prop46
 90
       50
102
RTVSPost2010PropOp46
 70
     1
102
RTVSPost2010Prop47
 90
       50
102
RTVSPost2010PropOp47
 70
     1
102
RTVSPost2010Prop48
 90
       50
102
RTVSPost2010PropOp48
 70
     1
102
RTVSPost2010Prop49
280
     0
102
RTVSPost2010PropOp49
 70
     1
102
RTVSPost2010Prop50
 90
       50
102
RTVSPost2010PropOp50
 70
     1
102
RTVSPost2010Prop51ColorIndex
 90
      256
102
RTVSPost2010Prop51ColorRGB
 90
-16777216
102
RTVSPost2010PropOp51
 70
     0
102
RTVSPost2010Prop52
140
1.0
102
RTVSPost2010PropOp52
 70
     0
102
RTVSPost2010Prop53
 90
        2
102
RTVSPost2010PropOp53
 70
     1
102
RTVSPost2010Prop54
  1
strokes_ogs.tif
102
RTVSPost2010PropOp54
 70
     1
102
RTVSPost2010Prop55
280
     0
102
RTVSPost2010PropOp55
 70
     1
102
RTVSPost2010Prop56
140
1.0
102
RTVSPost2010PropOp56
 70
     1
102
RTVSPost2010Prop57
140
1.0
102
RTVSPost2010PropOp57
 70
     1
  0
XRECORD
  5
2E3
102
{ACAD_REACTORS
330
2E2
102
}
330
2E2
100
AcDbXrecord
280
     1
102
RTVSPropertyOp0
 70
     1
102
RTVSPropertyOp1
 70
     1
102
RTVSPropertyOp2
 70
     1
102
RTVSPropertyOp3
 70
     1
102
RTVSPropertyOp4
 70
     1
102
RTVSPropertyOp5
 70
     1
102
RTVSPropertyOp6
 70
     1
102
RTVSPropertyOp7
 70
     1
102
RTVSPropertyOp8
 70
     1
102
RTVSPropertyOp9
 70
     1
102
RTVSPropertyOp10
 70
     1
102
RTVSPropertyOp11
 70
     1
102
RTVSPropertyOp12
 70
     1
102
RTVSPropertyOp13
 70
     1
102
RTVSPropertyOp14
 70
     1
102
RTVSPropertyOp15
 70
     1
102
RTVSPropertyOp16
 70
     1
102
RTVSPropertyOp17
 70
     1
102
RTVSPropertyOp18
 70
     1
102
RTVSPropertyOp19
 70
     1
102
RTVSPropertyOp20
 70
     1
102
RTVSPropertyOp21
 70
     1
102
RTVSPropertyOp22
 70
     1
102
RTVSPropertyOp23
 70
     1
102
RTVSPropertyOp24
 70
     1
102
RTVSPropertyOp25
 70
     1
102
RTVSPropertyOp26
 70
     1
102
RTVSPropertyOp27
 70
     1
102
RTVSPropertyOp28
 70
     1
102
RTVSPropertyOp29
 70
     1
102
RTVSPropertyOp30
 70
     1
102
RTVSPropertyOp31
 70
     1
102
RTVSPropertyOp32
 70
     1
102
RTVSPropertyOp33
 70
     1
102
RTVSPropertyOp34
 70
     1
102
RTVSPropertyOp35
 70
     1
102
RTVSPropertyOp36
 70
     1
102
RTVSPropertyOp37
 70
     1
102
RTVSPropertyOp38
 70
     1
102
RTVSPropertyOp39
 70
     1
102
RTVSPropertyOp40
 70
     1
102
RTVSPropertyOp41
 70
     1
102
RTVSPropertyOp42
 70
     1
102
RTVSPropertyOp43
 70
     1
102
RTVSPropertyOp44
 70
     1
102
RTVSPropertyOp45
 70
     1
102
RTVSPropertyOp46
 70
     1
102
RTVSPropertyOp47
 70
     1
102
RTVSPropertyOp48
 70
     1
102
RTVSPropertyOp49
 70
     1
102
RTVSPropertyOp50
 70
     1
102
RTVSPropertyOp51
 70
     0
102
RTVSPropertyOp52
 70
     0
102
RTVSPropertyOp53
 70
     1
102
RTVSPropertyOp54
 70
     1
102
RTVSPropertyOp55
 70
     1
102
RTVSPropertyOp56
 70
     1
102
RTVSPropertyOp57
 70
     1
102
RTVSPost2010Prop28
280
     0
102
RTVSPost2010PropOp28
 70
     1
102
RTVSPost2010Prop29
280
     1
102
RTVSPost2010PropOp29
 70
     1
102
RTVSPost2010Prop30
280
     1
102
RTVSPost2010PropOp30
 70
     1
102
RTVSPost2010Prop31
280
     0
102
RTVSPost2010PropOp31
 70
     1
102
RTVSPost2010Prop32
280
     0
102
RTVSPost2010PropOp32
 70
     1
102
RTVSPost2010Prop33
280
     0
102
RTVSPost2010PropOp33
 70
     1
102
RTVSPost2010Prop34
280
     0
102
RTVSPost2010PropOp34
 70
     1
102
RTVSPost2010Prop35
280
     0
102
RTVSPost2010PropOp35
 70
     1
102
RTVSPost2010Prop36
280
     0
102
RTVSPost2010PropOp36
 70
     1
102
RTVSPost2010Prop37
 90
       50
102
RTVSPost2010PropOp37
 70
     1
102
RTVSPost2010Prop38
140
0.0
102
RTVSPost2010PropOp38
 70
     1
102
RTVSPost2010Prop39
140
1.0
102
RTVSPost2010PropOp39
 70
     1
102
RTVSPost2010Prop40
 90
        0
102
RTVSPost2010PropOp40
 70
     1
102
RTVSPost2010Prop41ColorIndex
 90
       18
102
RTVSPost2010Prop41ColorRGB
 90
        0
102
RTVSPost2010PropOp41
 70
     1
102
RTVSPost2010Prop42
 90
       50
102
RTVSPost2010PropOp42
 70
     1
102
RTVSPost2010Prop43
 90
        3
102
RTVSPost2010PropOp43
 70
     1
102
RTVSPost2010Prop44ColorIndex
 90
        5
102
RTVSPost2010Prop44ColorRGB
 90
      255
102
RTVSPost2010PropOp44
 70
     1
102
RTVSPost2010Prop45
280
     0
102
RTVSPost2010PropOp45
 70
     1
102
RTVSPost2010Prop46
 90
       50
102
RTVSPost2010PropOp46
 70
     1
102
RTVSPost2010Prop47
 90
       50
102
RTVSPost2010PropOp47
 70
     1
102
RTVSPost2010Prop48
 90
       50
102
RTVSPost2010PropOp48
 70
     1
102
RTVSPost2010Prop49
280
     0
102
RTVSPost2010PropOp49
 70
     1
102
RTVSPost2010Prop50
 90
       50
102
RTVSPost2010PropOp50
 70
     1
102
RTVSPost2010Prop51ColorIndex
 90
      256
102
RTVSPost2010Prop51ColorRGB
 90
-16777216
102
RTVSPost2010PropOp51
 70
     0
102
RTVSPost2010Prop52
140
1.0
102
RTVSPost2010PropOp52
 70
     0
102
RTVSPost2010Prop53
 90
        2
102
RTVSPost2010PropOp53
 70
     1
102
RTVSPost2010Prop54
  1
strokes_ogs.tif
102
RTVSPost2010PropOp54
 70
     1
102
RTVSPost2010Prop55
280
     0
102
RTVSPost2010PropOp55
 70
     1
102
RTVSPost2010Prop56
140
1.0
102
RTVSPost2010PropOp56
 70
     1
102
RTVSPost2010Prop57
140
1.0
102
RTVSPost2010PropOp57
 70
     1
  0
XRECORD
  5
2E5
102
{ACAD_REACTORS
330
2E4
102
}
330
2E4
100
AcDbXrecord
280
     1
102
RTVSPropertyOp0
 70
     1
102
RTVSPropertyOp1
 70
     1
102
RTVSPropertyOp2
 70
     1
102
RTVSPropertyOp3
 70
     1
102
RTVSPropertyOp4
 70
     1
102
RTVSPropertyOp5
 70
     1
102
RTVSPropertyOp6
 70
     1
102
RTVSPropertyOp7
 70
     1
102
RTVSPropertyOp8
 70
     1
102
RTVSPropertyOp9
 70
     1
102
RTVSPropertyOp10
 70
     1
102
RTVSPropertyOp11
 70
     1
102
RTVSPropertyOp12
 70
     1
102
RTVSPropertyOp13
 70
     1
102
RTVSPropertyOp14
 70
     1
102
RTVSPropertyOp15
 70
     1
102
RTVSPropertyOp16
 70
     1
102
RTVSPropertyOp17
 70
     1
102
RTVSPropertyOp18
 70
     1
102
RTVSPropertyOp19
 70
     1
102
RTVSPropertyOp20
 70
     1
102
RTVSPropertyOp21
 70
     1
102
RTVSPropertyOp22
 70
     1
102
RTVSPropertyOp23
 70
     1
102
RTVSPropertyOp24
 70
     1
102
RTVSPropertyOp25
 70
     1
102
RTVSPropertyOp26
 70
     1
102
RTVSPropertyOp27
 70
     1
102
RTVSPropertyOp28
 70
     1
102
RTVSPropertyOp29
 70
     1
102
RTVSPropertyOp30
 70
     1
102
RTVSPropertyOp31
 70
     1
102
RTVSPropertyOp32
 70
     1
102
RTVSPropertyOp33
 70
     1
102
RTVSPropertyOp34
 70
     1
102
RTVSPropertyOp35
 70
     1
102
RTVSPropertyOp36
 70
     1
102
RTVSPropertyOp37
 70
     1
102
RTVSPropertyOp38
 70
     1
102
RTVSPropertyOp39
 70
     1
102
RTVSPropertyOp40
 70
     1
102
RTVSPropertyOp41
 70
     1
102
RTVSPropertyOp42
 70
     1
102
RTVSPropertyOp43
 70
     1
102
RTVSPropertyOp44
 70
     1
102
RTVSPropertyOp45
 70
     1
102
RTVSPropertyOp46
 70
     1
102
RTVSPropertyOp47
 70
     1
102
RTVSPropertyOp48
 70
     1
102
RTVSPropertyOp49
 70
     1
102
RTVSPropertyOp50
 70
     1
102
RTVSPropertyOp51
 70
     0
102
RTVSPropertyOp52
 70
     0
102
RTVSPropertyOp53
 70
     1
102
RTVSPropertyOp54
 70
     1
102
RTVSPropertyOp55
 70
     1
102
RTVSPropertyOp56
 70
     1
102
RTVSPropertyOp57
 70
     1
102
RTVSPost2010Prop28
280
     0
102
RTVSPost2010PropOp28
 70
     1
102
RTVSPost2010Prop29
280
     1
102
RTVSPost2010PropOp29
 70
     1
102
RTVSPost2010Prop30
280
     1
102
RTVSPost2010PropOp30
 70
     1
102
RTVSPost2010Prop31
280
     0
102
RTVSPost2010PropOp31
 70
     1
102
RTVSPost2010Prop32
280
     0
102
RTVSPost2010PropOp32
 70
     1
102
RTVSPost2010Prop33
280
     0
102
RTVSPost2010PropOp33
 70
     1
102
RTVSPost2010Prop34
280
     0
102
RTVSPost2010PropOp34
 70
     1
102
RTVSPost2010Prop35
280
     0
102
RTVSPost2010PropOp35
 70
     1
102
RTVSPost2010Prop36
280
     0
102
RTVSPost2010PropOp36
 70
     1
102
RTVSPost2010Prop37
 90
       50
102
RTVSPost2010PropOp37
 70
     1
102
RTVSPost2010Prop38
140
0.0
102
RTVSPost2010PropOp38
 70
     1
102
RTVSPost2010Prop39
140
1.0
102
RTVSPost2010PropOp39
 70
     1
102
RTVSPost2010Prop40
 90
        0
102
RTVSPost2010PropOp40
 70
     1
102
RTVSPost2010Prop41ColorIndex
 90
       18
102
RTVSPost2010Prop41ColorRGB
 90
        0
102
RTVSPost2010PropOp41
 70
     1
102
RTVSPost2010Prop42
 90
       50
102
RTVSPost2010PropOp42
 70
     1
102
RTVSPost2010Prop43
 90
        3
102
RTVSPost2010PropOp43
 70
     1
102
RTVSPost2010Prop44ColorIndex
 90
        5
102
RTVSPost2010Prop44ColorRGB
 90
      255
102
RTVSPost2010PropOp44
 70
     1
102
RTVSPost2010Prop45
280
     0
102
RTVSPost2010PropOp45
 70
     1
102
RTVSPost2010Prop46
 90
       50
102
RTVSPost2010PropOp46
 70
     1
102
RTVSPost2010Prop47
 90
       50
102
RTVSPost2010PropOp47
 70
     1
102
RTVSPost2010Prop48
 90
       50
102
RTVSPost2010PropOp48
 70
     1
102
RTVSPost2010Prop49
280
     0
102
RTVSPost2010PropOp49
 70
     1
102
RTVSPost2010Prop50
 90
       50
102
RTVSPost2010PropOp50
 70
     1
102
RTVSPost2010Prop51ColorIndex
 90
      256
102
RTVSPost2010Prop51ColorRGB
 90
-16777216
102
RTVSPost2010PropOp51
 70
     0
102
RTVSPost2010Prop52
140
1.0
102
RTVSPost2010PropOp52
 70
     0
102
RTVSPost2010Prop53
 90
        2
102
RTVSPost2010PropOp53
 70
     1
102
RTVSPost2010Prop54
  1
strokes_ogs.tif
102
RTVSPost2010PropOp54
 70
     1
102
RTVSPost2010Prop55
280
     0
102
RTVSPost2010PropOp55
 70
     1
102
RTVSPost2010Prop56
140
1.0
102
RTVSPost2010PropOp56
 70
     1
102
RTVSPost2010Prop57
140
1.0
102
RTVSPost2010PropOp57
 70
     1
  0
XRECORD
  5
2F5
102
{ACAD_REACTORS
330
2F4
102
}
330
2F4
100
AcDbXrecord
280
     1
102
RTVSPropertyOp0
 70
     0
102
RTVSPropertyOp1
 70
     0
102
RTVSPropertyOp2
 70
     0
102
RTVSPropertyOp3
 70
     0
102
RTVSPropertyOp4
 70
     0
102
RTVSPropertyOp5
 70
     0
102
RTVSPropertyOp6
 70
     0
102
RTVSPropertyOp7
 70
     0
102
RTVSPropertyOp8
 70
     0
102
RTVSPropertyOp9
 70
     0
102
RTVSPropertyOp10
 70
     0
102
RTVSPropertyOp11
 70
     0
102
RTVSPropertyOp12
 70
     0
102
RTVSPropertyOp13
 70
     0
102
RTVSPropertyOp14
 70
     2
102
RTVSPropertyOp15
 70
     0
102
RTVSPropertyOp16
 70
     0
102
RTVSPropertyOp17
 70
     0
102
RTVSPropertyOp18
 70
     0
102
RTVSPropertyOp19
 70
     0
102
RTVSPropertyOp20
 70
     0
102
RTVSPropertyOp21
 70
     0
102
RTVSPropertyOp22
 70
     0
102
RTVSPropertyOp23
 70
     0
102
RTVSPropertyOp24
 70
     0
102
RTVSPropertyOp25
 70
     0
102
RTVSPropertyOp26
 70
     0
102
RTVSPropertyOp27
 70
     0
102
RTVSPropertyOp28
 70
     0
102
RTVSPropertyOp29
 70
     0
102
RTVSPropertyOp30
 70
     0
102
RTVSPropertyOp31
 70
     0
102
RTVSPropertyOp32
 70
     0
102
RTVSPropertyOp33
 70
     0
102
RTVSPropertyOp34
 70
     0
102
RTVSPropertyOp35
 70
     0
102
RTVSPropertyOp36
 70
     0
102
RTVSPropertyOp37
 70
     0
102
RTVSPropertyOp38
 70
     0
102
RTVSPropertyOp39
 70
     0
102
RTVSPropertyOp40
 70
     0
102
RTVSPropertyOp41
 70
     0
102
RTVSPropertyOp42
 70
     0
102
RTVSPropertyOp43
 70
     0
102
RTVSPropertyOp44
 70
     0
102
RTVSPropertyOp45
 70
     0
102
RTVSPropertyOp46
 70
     0
102
RTVSPropertyOp47
 70
     0
102
RTVSPropertyOp48
 70
     0
102
RTVSPropertyOp49
 70
     0
102
RTVSPropertyOp50
 70
     0
102
RTVSPropertyOp51
 70
     0
102
RTVSPropertyOp52
 70
     0
102
RTVSPropertyOp53
 70
     0
102
RTVSPropertyOp54
 70
     0
102
RTVSPropertyOp55
 70
     0
102
RTVSPropertyOp56
 70
     0
102
RTVSPropertyOp57
 70
     0
102
RTVSPost2010Prop28
280
     0
102
RTVSPost2010PropOp28
 70
     0
102
RTVSPost2010Prop29
280
     1
102
RTVSPost2010PropOp29
 70
     0
102
RTVSPost2010Prop30
280
     1
102
RTVSPost2010PropOp30
 70
     0
102
RTVSPost2010Prop31
280
     0
102
RTVSPost2010PropOp31
 70
     0
102
RTVSPost2010Prop32
280
     0
102
RTVSPost2010PropOp32
 70
     0
102
RTVSPost2010Prop33
280
     0
102
RTVSPost2010PropOp33
 70
     0
102
RTVSPost2010Prop34
280
     0
102
RTVSPost2010PropOp34
 70
     0
102
RTVSPost2010Prop35
280
     0
102
RTVSPost2010PropOp35
 70
     0
102
RTVSPost2010Prop36
280
     0
102
RTVSPost2010PropOp36
 70
     0
102
RTVSPost2010Prop37
 90
       50
102
RTVSPost2010PropOp37
 70
     0
102
RTVSPost2010Prop38
140
0.0
102
RTVSPost2010PropOp38
 70
     0
102
RTVSPost2010Prop39
140
1.0
102
RTVSPost2010PropOp39
 70
     0
102
RTVSPost2010Prop40
 90
        0
102
RTVSPost2010PropOp40
 70
     0
102
RTVSPost2010Prop41ColorIndex
 90
       18
102
RTVSPost2010Prop41ColorRGB
 90
        0
102
RTVSPost2010PropOp41
 70
     0
102
RTVSPost2010Prop42
 90
       50
102
RTVSPost2010PropOp42
 70
     0
102
RTVSPost2010Prop43
 90
        3
102
RTVSPost2010PropOp43
 70
     0
102
RTVSPost2010Prop44ColorIndex
 90
        5
102
RTVSPost2010Prop44ColorRGB
 90
      255
102
RTVSPost2010PropOp44
 70
     0
102
RTVSPost2010Prop45
280
     0
102
RTVSPost2010PropOp45
 70
     0
102
RTVSPost2010Prop46
 90
       50
102
RTVSPost2010PropOp46
 70
     0
102
RTVSPost2010Prop47
 90
       50
102
RTVSPost2010PropOp47
 70
     0
102
RTVSPost2010Prop48
 90
       50
102
RTVSPost2010PropOp48
 70
     0
102
RTVSPost2010Prop49
280
     0
102
RTVSPost2010PropOp49
 70
     0
102
RTVSPost2010Prop50
 90
       50
102
RTVSPost2010PropOp50
 70
     0
102
RTVSPost2010Prop51ColorIndex
 90
      256
102
RTVSPost2010Prop51ColorRGB
 90
-16777216
102
RTVSPost2010PropOp51
 70
     0
102
RTVSPost2010Prop52
140
1.0
102
RTVSPost2010PropOp52
 70
     0
102
RTVSPost2010Prop53
 90
        2
102
RTVSPost2010PropOp53
 70
     0
102
RTVSPost2010Prop54
  1
strokes_ogs.tif
102
RTVSPost2010PropOp54
 70
     0
102
RTVSPost2010Prop55
280
     0
102
RTVSPost2010PropOp55
 70
     0
102
RTVSPost2010Prop56
140
1.0
102
RTVSPost2010PropOp56
 70
     0
102
RTVSPost2010Prop57
140
1.0
102
RTVSPost2010PropOp57
 70
     0
  0
XRECORD
  5
2ED
102
{ACAD_REACTORS
330
2EC
102
}
330
2EC
100
AcDbXrecord
280
     1
102
RTVSPropertyOp0
 70
     1
102
RTVSPropertyOp1
 70
     1
102
RTVSPropertyOp2
 70
     1
102
RTVSPropertyOp3
 70
     1
102
RTVSPropertyOp4
 70
     1
102
RTVSPropertyOp5
 70
     1
102
RTVSPropertyOp6
 70
     1
102
RTVSPropertyOp7
 70
     1
102
RTVSPropertyOp8
 70
     1
102
RTVSPropertyOp9
 70
     1
102
RTVSPropertyOp10
 70
     1
102
RTVSPropertyOp11
 70
     1
102
RTVSPropertyOp12
 70
     1
102
RTVSPropertyOp13
 70
     1
102
RTVSPropertyOp14
 70
     1
102
RTVSPropertyOp15
 70
     1
102
RTVSPropertyOp16
 70
     1
102
RTVSPropertyOp17
 70
     1
102
RTVSPropertyOp18
 70
     1
102
RTVSPropertyOp19
 70
     1
102
RTVSPropertyOp20
 70
     1
102
RTVSPropertyOp21
 70
     1
102
RTVSPropertyOp22
 70
     1
102
RTVSPropertyOp23
 70
     1
102
RTVSPropertyOp24
 70
     1
102
RTVSPropertyOp25
 70
     1
102
RTVSPropertyOp26
 70
     1
102
RTVSPropertyOp27
 70
     1
102
RTVSPropertyOp28
 70
     1
102
RTVSPropertyOp29
 70
     1
102
RTVSPropertyOp30
 70
     1
102
RTVSPropertyOp31
 70
     1
102
RTVSPropertyOp32
 70
     1
102
RTVSPropertyOp33
 70
     1
102
RTVSPropertyOp34
 70
     1
102
RTVSPropertyOp35
 70
     1
102
RTVSPropertyOp36
 70
     1
102
RTVSPropertyOp37
 70
     1
102
RTVSPropertyOp38
 70
     1
102
RTVSPropertyOp39
 70
     1
102
RTVSPropertyOp40
 70
     1
102
RTVSPropertyOp41
 70
     1
102
RTVSPropertyOp42
 70
     1
102
RTVSPropertyOp43
 70
     1
102
RTVSPropertyOp44
 70
     1
102
RTVSPropertyOp45
 70
     1
102
RTVSPropertyOp46
 70
     1
102
RTVSPropertyOp47
 70
     1
102
RTVSPropertyOp48
 70
     1
102
RTVSPropertyOp49
 70
     1
102
RTVSPropertyOp50
 70
     1
102
RTVSPropertyOp51
 70
     0
102
RTVSPropertyOp52
 70
     0
102
RTVSPropertyOp53
 70
     1
102
RTVSPropertyOp54
 70
     1
102
RTVSPropertyOp55
 70
     1
102
RTVSPropertyOp56
 70
     1
102
RTVSPropertyOp57
 70
     1
102
RTVSPost2010Prop28
280
     0
102
RTVSPost2010PropOp28
 70
     1
102
RTVSPost2010Prop29
280
     1
102
RTVSPost2010PropOp29
 70
     1
102
RTVSPost2010Prop30
280
     1
102
RTVSPost2010PropOp30
 70
     1
102
RTVSPost2010Prop31
280
     0
102
RTVSPost2010PropOp31
 70
     1
102
RTVSPost2010Prop32
280
     0
102
RTVSPost2010PropOp32
 70
     1
102
RTVSPost2010Prop33
280
     0
102
RTVSPost2010PropOp33
 70
     1
102
RTVSPost2010Prop34
280
     0
102
RTVSPost2010PropOp34
 70
     1
102
RTVSPost2010Prop35
280
     0
102
RTVSPost2010PropOp35
 70
     1
102
RTVSPost2010Prop36
280
     0
102
RTVSPost2010PropOp36
 70
     1
102
RTVSPost2010Prop37
 90
       50
102
RTVSPost2010PropOp37
 70
     1
102
RTVSPost2010Prop38
140
0.0
102
RTVSPost2010PropOp38
 70
     1
102
RTVSPost2010Prop39
140
1.0
102
RTVSPost2010PropOp39
 70
     1
102
RTVSPost2010Prop40
 90
        0
102
RTVSPost2010PropOp40
 70
     1
102
RTVSPost2010Prop41ColorIndex
 90
       18
102
RTVSPost2010Prop41ColorRGB
 90
        0
102
RTVSPost2010PropOp41
 70
     1
102
RTVSPost2010Prop42
 90
       50
102
RTVSPost2010PropOp42
 70
     1
102
RTVSPost2010Prop43
 90
        3
102
RTVSPost2010PropOp43
 70
     1
102
RTVSPost2010Prop44ColorIndex
 90
        5
102
RTVSPost2010Prop44ColorRGB
 90
      255
102
RTVSPost2010PropOp44
 70
     1
102
RTVSPost2010Prop45
280
     0
102
RTVSPost2010PropOp45
 70
     1
102
RTVSPost2010Prop46
 90
       50
102
RTVSPost2010PropOp46
 70
     1
102
RTVSPost2010Prop47
 90
       50
102
RTVSPost2010PropOp47
 70
     1
102
RTVSPost2010Prop48
 90
       50
102
RTVSPost2010PropOp48
 70
     1
102
RTVSPost2010Prop49
280
     0
102
RTVSPost2010PropOp49
 70
     1
102
RTVSPost2010Prop50
 90
       50
102
RTVSPost2010PropOp50
 70
     1
102
RTVSPost2010Prop51ColorIndex
 90
      256
102
RTVSPost2010Prop51ColorRGB
 90
-16777216
102
RTVSPost2010PropOp51
 70
     0
102
RTVSPost2010Prop52
140
1.0
102
RTVSPost2010PropOp52
 70
     0
102
RTVSPost2010Prop53
 90
        2
102
RTVSPost2010PropOp53
 70
     1
102
RTVSPost2010Prop54
  1
strokes_ogs.tif
102
RTVSPost2010PropOp54
 70
     1
102
RTVSPost2010Prop55
280
     0
102
RTVSPost2010PropOp55
 70
     1
102
RTVSPost2010Prop56
140
1.0
102
RTVSPost2010PropOp56
 70
     1
102
RTVSPost2010Prop57
140
1.0
102
RTVSPost2010PropOp57
 70
     1
  0
XRECORD
  5
2D1
102
{ACAD_REACTORS
330
2D0
102
}
330
2D0
100
AcDbXrecord
280
     1
102
RTVSPropertyOp0
 70
     1
102
RTVSPropertyOp1
 70
     1
102
RTVSPropertyOp2
 70
     1
102
RTVSPropertyOp3
 70
     1
102
RTVSPropertyOp4
 70
     1
102
RTVSPropertyOp5
 70
     1
102
RTVSPropertyOp6
 70
     1
102
RTVSPropertyOp7
 70
     1
102
RTVSPropertyOp8
 70
     1
102
RTVSPropertyOp9
 70
     1
102
RTVSPropertyOp10
 70
     1
102
RTVSPropertyOp11
 70
     1
102
RTVSPropertyOp12
 70
     1
102
RTVSPropertyOp13
 70
     1
102
RTVSPropertyOp14
 70
     1
102
RTVSPropertyOp15
 70
     1
102
RTVSPropertyOp16
 70
     1
102
RTVSPropertyOp17
 70
     1
102
RTVSPropertyOp18
 70
     1
102
RTVSPropertyOp19
 70
     1
102
RTVSPropertyOp20
 70
     1
102
RTVSPropertyOp21
 70
     1
102
RTVSPropertyOp22
 70
     1
102
RTVSPropertyOp23
 70
     1
102
RTVSPropertyOp24
 70
     1
102
RTVSPropertyOp25
 70
     1
102
RTVSPropertyOp26
 70
     1
102
RTVSPropertyOp27
 70
     1
102
RTVSPropertyOp28
 70
     1
102
RTVSPropertyOp29
 70
     1
102
RTVSPropertyOp30
 70
     1
102
RTVSPropertyOp31
 70
     1
102
RTVSPropertyOp32
 70
     1
102
RTVSPropertyOp33
 70
     1
102
RTVSPropertyOp34
 70
     1
102
RTVSPropertyOp35
 70
     1
102
RTVSPropertyOp36
 70
     1
102
RTVSPropertyOp37
 70
     1
102
RTVSPropertyOp38
 70
     1
102
RTVSPropertyOp39
 70
     1
102
RTVSPropertyOp40
 70
     1
102
RTVSPropertyOp41
 70
     1
102
RTVSPropertyOp42
 70
     1
102
RTVSPropertyOp43
 70
     1
102
RTVSPropertyOp44
 70
     1
102
RTVSPropertyOp45
 70
     1
102
RTVSPropertyOp46
 70
     1
102
RTVSPropertyOp47
 70
     1
102
RTVSPropertyOp48
 70
     1
102
RTVSPropertyOp49
 70
     1
102
RTVSPropertyOp50
 70
     1
102
RTVSPropertyOp51
 70
     0
102
RTVSPropertyOp52
 70
     0
102
RTVSPropertyOp53
 70
     1
102
RTVSPropertyOp54
 70
     1
102
RTVSPropertyOp55
 70
     1
102
RTVSPropertyOp56
 70
     1
102
RTVSPropertyOp57
 70
     1
102
RTVSPost2010Prop28
280
     0
102
RTVSPost2010PropOp28
 70
     1
102
RTVSPost2010Prop29
280
     1
102
RTVSPost2010PropOp29
 70
     1
102
RTVSPost2010Prop30
280
     1
102
RTVSPost2010PropOp30
 70
     1
102
RTVSPost2010Prop31
280
     0
102
RTVSPost2010PropOp31
 70
     1
102
RTVSPost2010Prop32
280
     0
102
RTVSPost2010PropOp32
 70
     1
102
RTVSPost2010Prop33
280
     0
102
RTVSPost2010PropOp33
 70
     1
102
RTVSPost2010Prop34
280
     0
102
RTVSPost2010PropOp34
 70
     1
102
RTVSPost2010Prop35
280
     0
102
RTVSPost2010PropOp35
 70
     1
102
RTVSPost2010Prop36
280
     0
102
RTVSPost2010PropOp36
 70
     1
102
RTVSPost2010Prop37
 90
       50
102
RTVSPost2010PropOp37
 70
     1
102
RTVSPost2010Prop38
140
0.0
102
RTVSPost2010PropOp38
 70
     1
102
RTVSPost2010Prop39
140
1.0
102
RTVSPost2010PropOp39
 70
     1
102
RTVSPost2010Prop40
 90
        0
102
RTVSPost2010PropOp40
 70
     1
102
RTVSPost2010Prop41ColorIndex
 90
       18
102
RTVSPost2010Prop41ColorRGB
 90
        0
102
RTVSPost2010PropOp41
 70
     1
102
RTVSPost2010Prop42
 90
       50
102
RTVSPost2010PropOp42
 70
     1
102
RTVSPost2010Prop43
 90
        3
102
RTVSPost2010PropOp43
 70
     1
102
RTVSPost2010Prop44ColorIndex
 90
        5
102
RTVSPost2010Prop44ColorRGB
 90
      255
102
RTVSPost2010PropOp44
 70
     1
102
RTVSPost2010Prop45
280
     0
102
RTVSPost2010PropOp45
 70
     1
102
RTVSPost2010Prop46
 90
       50
102
RTVSPost2010PropOp46
 70
     1
102
RTVSPost2010Prop47
 90
       50
102
RTVSPost2010PropOp47
 70
     1
102
RTVSPost2010Prop48
 90
       50
102
RTVSPost2010PropOp48
 70
     1
102
RTVSPost2010Prop49
280
     0
102
RTVSPost2010PropOp49
 70
     1
102
RTVSPost2010Prop50
 90
       50
102
RTVSPost2010PropOp50
 70
     1
102
RTVSPost2010Prop51ColorIndex
 90
      256
102
RTVSPost2010Prop51ColorRGB
 90
-16777216
102
RTVSPost2010PropOp51
 70
     0
102
RTVSPost2010Prop52
140
1.0
102
RTVSPost2010PropOp52
 70
     0
102
RTVSPost2010Prop53
 90
        2
102
RTVSPost2010PropOp53
 70
     1
102
RTVSPost2010Prop54
  1
strokes_ogs.tif
102
RTVSPost2010PropOp54
 70
     1
102
RTVSPost2010Prop55
280
     0
102
RTVSPost2010PropOp55
 70
     1
102
RTVSPost2010Prop56
140
1.0
102
RTVSPost2010PropOp56
 70
     1
102
RTVSPost2010Prop57
140
1.0
102
RTVSPost2010PropOp57
 70
     1
  0
XRECORD
  5
2D3
102
{ACAD_REACTORS
330
2D2
102
}
330
2D2
100
AcDbXrecord
280
     1
102
RTVSPropertyOp0
 70
     1
102
RTVSPropertyOp1
 70
     1
102
RTVSPropertyOp2
 70
     1
102
RTVSPropertyOp3
 70
     1
102
RTVSPropertyOp4
 70
     1
102
RTVSPropertyOp5
 70
     1
102
RTVSPropertyOp6
 70
     1
102
RTVSPropertyOp7
 70
     1
102
RTVSPropertyOp8
 70
     1
102
RTVSPropertyOp9
 70
     1
102
RTVSPropertyOp10
 70
     1
102
RTVSPropertyOp11
 70
     1
102
RTVSPropertyOp12
 70
     1
102
RTVSPropertyOp13
 70
     1
102
RTVSPropertyOp14
 70
     1
102
RTVSPropertyOp15
 70
     1
102
RTVSPropertyOp16
 70
     1
102
RTVSPropertyOp17
 70
     1
102
RTVSPropertyOp18
 70
     1
102
RTVSPropertyOp19
 70
     1
102
RTVSPropertyOp20
 70
     1
102
RTVSPropertyOp21
 70
     1
102
RTVSPropertyOp22
 70
     1
102
RTVSPropertyOp23
 70
     1
102
RTVSPropertyOp24
 70
     1
102
RTVSPropertyOp25
 70
     1
102
RTVSPropertyOp26
 70
     1
102
RTVSPropertyOp27
 70
     1
102
RTVSPropertyOp28
 70
     1
102
RTVSPropertyOp29
 70
     1
102
RTVSPropertyOp30
 70
     1
102
RTVSPropertyOp31
 70
     1
102
RTVSPropertyOp32
 70
     1
102
RTVSPropertyOp33
 70
     1
102
RTVSPropertyOp34
 70
     1
102
RTVSPropertyOp35
 70
     1
102
RTVSPropertyOp36
 70
     1
102
RTVSPropertyOp37
 70
     1
102
RTVSPropertyOp38
 70
     1
102
RTVSPropertyOp39
 70
     1
102
RTVSPropertyOp40
 70
     1
102
RTVSPropertyOp41
 70
     1
102
RTVSPropertyOp42
 70
     1
102
RTVSPropertyOp43
 70
     1
102
RTVSPropertyOp44
 70
     1
102
RTVSPropertyOp45
 70
     1
102
RTVSPropertyOp46
 70
     1
102
RTVSPropertyOp47
 70
     1
102
RTVSPropertyOp48
 70
     1
102
RTVSPropertyOp49
 70
     1
102
RTVSPropertyOp50
 70
     1
102
RTVSPropertyOp51
 70
     0
102
RTVSPropertyOp52
 70
     0
102
RTVSPropertyOp53
 70
     1
102
RTVSPropertyOp54
 70
     1
102
RTVSPropertyOp55
 70
     1
102
RTVSPropertyOp56
 70
     1
102
RTVSPropertyOp57
 70
     1
102
RTVSPost2010Prop28
280
     0
102
RTVSPost2010PropOp28
 70
     1
102
RTVSPost2010Prop29
280
     1
102
RTVSPost2010PropOp29
 70
     1
102
RTVSPost2010Prop30
280
     1
102
RTVSPost2010PropOp30
 70
     1
102
RTVSPost2010Prop31
280
     0
102
RTVSPost2010PropOp31
 70
     1
102
RTVSPost2010Prop32
280
     0
102
RTVSPost2010PropOp32
 70
     1
102
RTVSPost2010Prop33
280
     0
102
RTVSPost2010PropOp33
 70
     1
102
RTVSPost2010Prop34
280
     0
102
RTVSPost2010PropOp34
 70
     1
102
RTVSPost2010Prop35
280
     0
102
RTVSPost2010PropOp35
 70
     1
102
RTVSPost2010Prop36
280
     0
102
RTVSPost2010PropOp36
 70
     1
102
RTVSPost2010Prop37
 90
       50
102
RTVSPost2010PropOp37
 70
     1
102
RTVSPost2010Prop38
140
0.0
102
RTVSPost2010PropOp38
 70
     1
102
RTVSPost2010Prop39
140
1.0
102
RTVSPost2010PropOp39
 70
     1
102
RTVSPost2010Prop40
 90
        0
102
RTVSPost2010PropOp40
 70
     1
102
RTVSPost2010Prop41ColorIndex
 90
       18
102
RTVSPost2010Prop41ColorRGB
 90
        0
102
RTVSPost2010PropOp41
 70
     1
102
RTVSPost2010Prop42
 90
       50
102
RTVSPost2010PropOp42
 70
     1
102
RTVSPost2010Prop43
 90
        3
102
RTVSPost2010PropOp43
 70
     1
102
RTVSPost2010Prop44ColorIndex
 90
        5
102
RTVSPost2010Prop44ColorRGB
 90
      255
102
RTVSPost2010PropOp44
 70
     1
102
RTVSPost2010Prop45
280
     0
102
RTVSPost2010PropOp45
 70
     1
102
RTVSPost2010Prop46
 90
       50
102
RTVSPost2010PropOp46
 70
     1
102
RTVSPost2010Prop47
 90
       50
102
RTVSPost2010PropOp47
 70
     1
102
RTVSPost2010Prop48
 90
       50
102
RTVSPost2010PropOp48
 70
     1
102
RTVSPost2010Prop49
280
     0
102
RTVSPost2010PropOp49
 70
     1
102
RTVSPost2010Prop50
 90
       50
102
RTVSPost2010PropOp50
 70
     1
102
RTVSPost2010Prop51ColorIndex
 90
      256
102
RTVSPost2010Prop51ColorRGB
 90
-16777216
102
RTVSPost2010PropOp51
 70
     0
102
RTVSPost2010Prop52
140
1.0
102
RTVSPost2010PropOp52
 70
     0
102
RTVSPost2010Prop53
 90
        2
102
RTVSPost2010PropOp53
 70
     1
102
RTVSPost2010Prop54
  1
strokes_ogs.tif
102
RTVSPost2010PropOp54
 70
     1
102
RTVSPost2010Prop55
280
     0
102
RTVSPost2010PropOp55
 70
     1
102
RTVSPost2010Prop56
140
1.0
102
RTVSPost2010PropOp56
 70
     1
102
RTVSPost2010Prop57
140
1.0
102
RTVSPost2010PropOp57
 70
     1
  0
XRECORD
  5
2D5
102
{ACAD_REACTORS
330
2D4
102
}
330
2D4
100
AcDbXrecord
280
     1
102
RTVSPropertyOp0
 70
     1
102
RTVSPropertyOp1
 70
     1
102
RTVSPropertyOp2
 70
     1
102
RTVSPropertyOp3
 70
     1
102
RTVSPropertyOp4
 70
     1
102
RTVSPropertyOp5
 70
     1
102
RTVSPropertyOp6
 70
     1
102
RTVSPropertyOp7
 70
     1
102
RTVSPropertyOp8
 70
     1
102
RTVSPropertyOp9
 70
     1
102
RTVSPropertyOp10
 70
     1
102
RTVSPropertyOp11
 70
     1
102
RTVSPropertyOp12
 70
     1
102
RTVSPropertyOp13
 70
     1
102
RTVSPropertyOp14
 70
     1
102
RTVSPropertyOp15
 70
     1
102
RTVSPropertyOp16
 70
     1
102
RTVSPropertyOp17
 70
     1
102
RTVSPropertyOp18
 70
     1
102
RTVSPropertyOp19
 70
     1
102
RTVSPropertyOp20
 70
     1
102
RTVSPropertyOp21
 70
     1
102
RTVSPropertyOp22
 70
     1
102
RTVSPropertyOp23
 70
     1
102
RTVSPropertyOp24
 70
     1
102
RTVSPropertyOp25
 70
     1
102
RTVSPropertyOp26
 70
     1
102
RTVSPropertyOp27
 70
     1
102
RTVSPropertyOp28
 70
     1
102
RTVSPropertyOp29
 70
     1
102
RTVSPropertyOp30
 70
     1
102
RTVSPropertyOp31
 70
     1
102
RTVSPropertyOp32
 70
     1
102
RTVSPropertyOp33
 70
     1
102
RTVSPropertyOp34
 70
     1
102
RTVSPropertyOp35
 70
     1
102
RTVSPropertyOp36
 70
     1
102
RTVSPropertyOp37
 70
     1
102
RTVSPropertyOp38
 70
     1
102
RTVSPropertyOp39
 70
     1
102
RTVSPropertyOp40
 70
     1
102
RTVSPropertyOp41
 70
     1
102
RTVSPropertyOp42
 70
     1
102
RTVSPropertyOp43
 70
     1
102
RTVSPropertyOp44
 70
     1
102
RTVSPropertyOp45
 70
     1
102
RTVSPropertyOp46
 70
     1
102
RTVSPropertyOp47
 70
     1
102
RTVSPropertyOp48
 70
     1
102
RTVSPropertyOp49
 70
     1
102
RTVSPropertyOp50
 70
     1
102
RTVSPropertyOp51
 70
     0
102
RTVSPropertyOp52
 70
     0
102
RTVSPropertyOp53
 70
     1
102
RTVSPropertyOp54
 70
     1
102
RTVSPropertyOp55
 70
     1
102
RTVSPropertyOp56
 70
     1
102
RTVSPropertyOp57
 70
     1
102
RTVSPost2010Prop28
280
     0
102
RTVSPost2010PropOp28
 70
     1
102
RTVSPost2010Prop29
280
     1
102
RTVSPost2010PropOp29
 70
     1
102
RTVSPost2010Prop30
280
     1
102
RTVSPost2010PropOp30
 70
     1
102
RTVSPost2010Prop31
280
     0
102
RTVSPost2010PropOp31
 70
     1
102
RTVSPost2010Prop32
280
     0
102
RTVSPost2010PropOp32
 70
     1
102
RTVSPost2010Prop33
280
     0
102
RTVSPost2010PropOp33
 70
     1
102
RTVSPost2010Prop34
280
     0
102
RTVSPost2010PropOp34
 70
     1
102
RTVSPost2010Prop35
280
     0
102
RTVSPost2010PropOp35
 70
     1
102
RTVSPost2010Prop36
280
     0
102
RTVSPost2010PropOp36
 70
     1
102
RTVSPost2010Prop37
 90
       50
102
RTVSPost2010PropOp37
 70
     1
102
RTVSPost2010Prop38
140
0.0
102
RTVSPost2010PropOp38
 70
     1
102
RTVSPost2010Prop39
140
1.0
102
RTVSPost2010PropOp39
 70
     1
102
RTVSPost2010Prop40
 90
        0
102
RTVSPost2010PropOp40
 70
     1
102
RTVSPost2010Prop41ColorIndex
 90
       18
102
RTVSPost2010Prop41ColorRGB
 90
        0
102
RTVSPost2010PropOp41
 70
     1
102
RTVSPost2010Prop42
 90
       50
102
RTVSPost2010PropOp42
 70
     1
102
RTVSPost2010Prop43
 90
        3
102
RTVSPost2010PropOp43
 70
     1
102
RTVSPost2010Prop44ColorIndex
 90
        5
102
RTVSPost2010Prop44ColorRGB
 90
      255
102
RTVSPost2010PropOp44
 70
     1
102
RTVSPost2010Prop45
280
     0
102
RTVSPost2010PropOp45
 70
     1
102
RTVSPost2010Prop46
 90
       50
102
RTVSPost2010PropOp46
 70
     1
102
RTVSPost2010Prop47
 90
       50
102
RTVSPost2010PropOp47
 70
     1
102
RTVSPost2010Prop48
 90
       50
102
RTVSPost2010PropOp48
 70
     1
102
RTVSPost2010Prop49
280
     0
102
RTVSPost2010PropOp49
 70
     1
102
RTVSPost2010Prop50
 90
       50
102
RTVSPost2010PropOp50
 70
     1
102
RTVSPost2010Prop51ColorIndex
 90
      256
102
RTVSPost2010Prop51ColorRGB
 90
-16777216
102
RTVSPost2010PropOp51
 70
     0
102
RTVSPost2010Prop52
140
1.0
102
RTVSPost2010PropOp52
 70
     0
102
RTVSPost2010Prop53
 90
        2
102
RTVSPost2010PropOp53
 70
     1
102
RTVSPost2010Prop54
  1
strokes_ogs.tif
102
RTVSPost2010PropOp54
 70
     1
102
RTVSPost2010Prop55
280
     0
102
RTVSPost2010PropOp55
 70
     1
102
RTVSPost2010Prop56
140
1.0
102
RTVSPost2010PropOp56
 70
     1
102
RTVSPost2010Prop57
140
1.0
102
RTVSPost2010PropOp57
 70
     1
  0
XRECORD
  5
2D7
102
{ACAD_REACTORS
330
2D6
102
}
330
2D6
100
AcDbXrecord
280
     1
102
RTVSPropertyOp0
 70
     1
102
RTVSPropertyOp1
 70
     1
102
RTVSPropertyOp2
 70
     1
102
RTVSPropertyOp3
 70
     1
102
RTVSPropertyOp4
 70
     1
102
RTVSPropertyOp5
 70
     1
102
RTVSPropertyOp6
 70
     1
102
RTVSPropertyOp7
 70
     1
102
RTVSPropertyOp8
 70
     1
102
RTVSPropertyOp9
 70
     1
102
RTVSPropertyOp10
 70
     1
102
RTVSPropertyOp11
 70
     1
102
RTVSPropertyOp12
 70
     1
102
RTVSPropertyOp13
 70
     1
102
RTVSPropertyOp14
 70
     1
102
RTVSPropertyOp15
 70
     1
102
RTVSPropertyOp16
 70
     1
102
RTVSPropertyOp17
 70
     1
102
RTVSPropertyOp18
 70
     1
102
RTVSPropertyOp19
 70
     1
102
RTVSPropertyOp20
 70
     1
102
RTVSPropertyOp21
 70
     1
102
RTVSPropertyOp22
 70
     1
102
RTVSPropertyOp23
 70
     1
102
RTVSPropertyOp24
 70
     1
102
RTVSPropertyOp25
 70
     1
102
RTVSPropertyOp26
 70
     1
102
RTVSPropertyOp27
 70
     1
102
RTVSPropertyOp28
 70
     1
102
RTVSPropertyOp29
 70
     1
102
RTVSPropertyOp30
 70
     1
102
RTVSPropertyOp31
 70
     1
102
RTVSPropertyOp32
 70
     1
102
RTVSPropertyOp33
 70
     1
102
RTVSPropertyOp34
 70
     1
102
RTVSPropertyOp35
 70
     1
102
RTVSPropertyOp36
 70
     1
102
RTVSPropertyOp37
 70
     1
102
RTVSPropertyOp38
 70
     1
102
RTVSPropertyOp39
 70
     1
102
RTVSPropertyOp40
 70
     1
102
RTVSPropertyOp41
 70
     1
102
RTVSPropertyOp42
 70
     1
102
RTVSPropertyOp43
 70
     1
102
RTVSPropertyOp44
 70
     1
102
RTVSPropertyOp45
 70
     1
102
RTVSPropertyOp46
 70
     1
102
RTVSPropertyOp47
 70
     1
102
RTVSPropertyOp48
 70
     1
102
RTVSPropertyOp49
 70
     1
102
RTVSPropertyOp50
 70
     1
102
RTVSPropertyOp51
 70
     0
102
RTVSPropertyOp52
 70
     0
102
RTVSPropertyOp53
 70
     1
102
RTVSPropertyOp54
 70
     1
102
RTVSPropertyOp55
 70
     1
102
RTVSPropertyOp56
 70
     1
102
RTVSPropertyOp57
 70
     1
102
RTVSPost2010Prop28
280
     0
102
RTVSPost2010PropOp28
 70
     1
102
RTVSPost2010Prop29
280
     1
102
RTVSPost2010PropOp29
 70
     1
102
RTVSPost2010Prop30
280
     1
102
RTVSPost2010PropOp30
 70
     1
102
RTVSPost2010Prop31
280
     0
102
RTVSPost2010PropOp31
 70
     1
102
RTVSPost2010Prop32
280
     0
102
RTVSPost2010PropOp32
 70
     1
102
RTVSPost2010Prop33
280
     0
102
RTVSPost2010PropOp33
 70
     1
102
RTVSPost2010Prop34
280
     0
102
RTVSPost2010PropOp34
 70
     1
102
RTVSPost2010Prop35
280
     0
102
RTVSPost2010PropOp35
 70
     1
102
RTVSPost2010Prop36
280
     0
102
RTVSPost2010PropOp36
 70
     1
102
RTVSPost2010Prop37
 90
       50
102
RTVSPost2010PropOp37
 70
     1
102
RTVSPost2010Prop38
140
0.0
102
RTVSPost2010PropOp38
 70
     1
102
RTVSPost2010Prop39
140
1.0
102
RTVSPost2010PropOp39
 70
     1
102
RTVSPost2010Prop40
 90
        0
102
RTVSPost2010PropOp40
 70
     1
102
RTVSPost2010Prop41ColorIndex
 90
       18
102
RTVSPost2010Prop41ColorRGB
 90
        0
102
RTVSPost2010PropOp41
 70
     1
102
RTVSPost2010Prop42
 90
       50
102
RTVSPost2010PropOp42
 70
     1
102
RTVSPost2010Prop43
 90
        3
102
RTVSPost2010PropOp43
 70
     1
102
RTVSPost2010Prop44ColorIndex
 90
        5
102
RTVSPost2010Prop44ColorRGB
 90
      255
102
RTVSPost2010PropOp44
 70
     1
102
RTVSPost2010Prop45
280
     0
102
RTVSPost2010PropOp45
 70
     1
102
RTVSPost2010Prop46
 90
       50
102
RTVSPost2010PropOp46
 70
     1
102
RTVSPost2010Prop47
 90
       50
102
RTVSPost2010PropOp47
 70
     1
102
RTVSPost2010Prop48
 90
       50
102
RTVSPost2010PropOp48
 70
     1
102
RTVSPost2010Prop49
280
     0
102
RTVSPost2010PropOp49
 70
     1
102
RTVSPost2010Prop50
 90
       50
102
RTVSPost2010PropOp50
 70
     1
102
RTVSPost2010Prop51ColorIndex
 90
      256
102
RTVSPost2010Prop51ColorRGB
 90
-16777216
102
RTVSPost2010PropOp51
 70
     0
102
RTVSPost2010Prop52
140
1.0
102
RTVSPost2010PropOp52
 70
     0
102
RTVSPost2010Prop53
 90
        2
102
RTVSPost2010PropOp53
 70
     1
102
RTVSPost2010Prop54
  1
strokes_ogs.tif
102
RTVSPost2010PropOp54
 70
     1
102
RTVSPost2010Prop55
280
     0
102
RTVSPost2010PropOp55
 70
     1
102
RTVSPost2010Prop56
140
1.0
102
RTVSPost2010PropOp56
 70
     1
102
RTVSPost2010Prop57
140
1.0
102
RTVSPost2010PropOp57
 70
     1
  0
XRECORD
  5
2DD
102
{ACAD_REACTORS
330
2DC
102
}
330
2DC
100
AcDbXrecord
280
     1
102
RTVSPropertyOp0
 70
     1
102
RTVSPropertyOp1
 70
     1
102
RTVSPropertyOp2
 70
     1
102
RTVSPropertyOp3
 70
     1
102
RTVSPropertyOp4
 70
     1
102
RTVSPropertyOp5
 70
     1
102
RTVSPropertyOp6
 70
     1
102
RTVSPropertyOp7
 70
     1
102
RTVSPropertyOp8
 70
     1
102
RTVSPropertyOp9
 70
     1
102
RTVSPropertyOp10
 70
     1
102
RTVSPropertyOp11
 70
     1
102
RTVSPropertyOp12
 70
     1
102
RTVSPropertyOp13
 70
     1
102
RTVSPropertyOp14
 70
     1
102
RTVSPropertyOp15
 70
     1
102
RTVSPropertyOp16
 70
     1
102
RTVSPropertyOp17
 70
     1
102
RTVSPropertyOp18
 70
     1
102
RTVSPropertyOp19
 70
     1
102
RTVSPropertyOp20
 70
     1
102
RTVSPropertyOp21
 70
     1
102
RTVSPropertyOp22
 70
     1
102
RTVSPropertyOp23
 70
     1
102
RTVSPropertyOp24
 70
     1
102
RTVSPropertyOp25
 70
     1
102
RTVSPropertyOp26
 70
     1
102
RTVSPropertyOp27
 70
     1
102
RTVSPropertyOp28
 70
     1
102
RTVSPropertyOp29
 70
     1
102
RTVSPropertyOp30
 70
     1
102
RTVSPropertyOp31
 70
     1
102
RTVSPropertyOp32
 70
     1
102
RTVSPropertyOp33
 70
     1
102
RTVSPropertyOp34
 70
     1
102
RTVSPropertyOp35
 70
     1
102
RTVSPropertyOp36
 70
     1
102
RTVSPropertyOp37
 70
     1
102
RTVSPropertyOp38
 70
     1
102
RTVSPropertyOp39
 70
     1
102
RTVSPropertyOp40
 70
     1
102
RTVSPropertyOp41
 70
     1
102
RTVSPropertyOp42
 70
     1
102
RTVSPropertyOp43
 70
     1
102
RTVSPropertyOp44
 70
     1
102
RTVSPropertyOp45
 70
     1
102
RTVSPropertyOp46
 70
     1
102
RTVSPropertyOp47
 70
     1
102
RTVSPropertyOp48
 70
     1
102
RTVSPropertyOp49
 70
     1
102
RTVSPropertyOp50
 70
     1
102
RTVSPropertyOp51
 70
     0
102
RTVSPropertyOp52
 70
     0
102
RTVSPropertyOp53
 70
     1
102
RTVSPropertyOp54
 70
     1
102
RTVSPropertyOp55
 70
     1
102
RTVSPropertyOp56
 70
     1
102
RTVSPropertyOp57
 70
     1
102
RTVSPost2010Prop28
280
     0
102
RTVSPost2010PropOp28
 70
     1
102
RTVSPost2010Prop29
280
     1
102
RTVSPost2010PropOp29
 70
     1
102
RTVSPost2010Prop30
280
     1
102
RTVSPost2010PropOp30
 70
     1
102
RTVSPost2010Prop31
280
     0
102
RTVSPost2010PropOp31
 70
     1
102
RTVSPost2010Prop32
280
     0
102
RTVSPost2010PropOp32
 70
     1
102
RTVSPost2010Prop33
280
     0
102
RTVSPost2010PropOp33
 70
     1
102
RTVSPost2010Prop34
280
     0
102
RTVSPost2010PropOp34
 70
     1
102
RTVSPost2010Prop35
280
     0
102
RTVSPost2010PropOp35
 70
     1
102
RTVSPost2010Prop36
280
     0
102
RTVSPost2010PropOp36
 70
     1
102
RTVSPost2010Prop37
 90
       50
102
RTVSPost2010PropOp37
 70
     1
102
RTVSPost2010Prop38
140
0.0
102
RTVSPost2010PropOp38
 70
     1
102
RTVSPost2010Prop39
140
1.0
102
RTVSPost2010PropOp39
 70
     1
102
RTVSPost2010Prop40
 90
        0
102
RTVSPost2010PropOp40
 70
     1
102
RTVSPost2010Prop41ColorIndex
 90
       18
102
RTVSPost2010Prop41ColorRGB
 90
        0
102
RTVSPost2010PropOp41
 70
     1
102
RTVSPost2010Prop42
 90
       50
102
RTVSPost2010PropOp42
 70
     1
102
RTVSPost2010Prop43
 90
        3
102
RTVSPost2010PropOp43
 70
     1
102
RTVSPost2010Prop44ColorIndex
 90
        5
102
RTVSPost2010Prop44ColorRGB
 90
      255
102
RTVSPost2010PropOp44
 70
     1
102
RTVSPost2010Prop45
280
     0
102
RTVSPost2010PropOp45
 70
     1
102
RTVSPost2010Prop46
 90
       50
102
RTVSPost2010PropOp46
 70
     1
102
RTVSPost2010Prop47
 90
       50
102
RTVSPost2010PropOp47
 70
     1
102
RTVSPost2010Prop48
 90
       50
102
RTVSPost2010PropOp48
 70
     1
102
RTVSPost2010Prop49
280
     0
102
RTVSPost2010PropOp49
 70
     1
102
RTVSPost2010Prop50
 90
       50
102
RTVSPost2010PropOp50
 70
     1
102
RTVSPost2010Prop51ColorIndex
 90
      256
102
RTVSPost2010Prop51ColorRGB
 90
-16777216
102
RTVSPost2010PropOp51
 70
     0
102
RTVSPost2010Prop52
140
1.0
102
RTVSPost2010PropOp52
 70
     0
102
RTVSPost2010Prop53
 90
        2
102
RTVSPost2010PropOp53
 70
     1
102
RTVSPost2010Prop54
  1
strokes_ogs.tif
102
RTVSPost2010PropOp54
 70
     1
102
RTVSPost2010Prop55
280
     0
102
RTVSPost2010PropOp55
 70
     1
102
RTVSPost2010Prop56
140
1.0
102
RTVSPost2010PropOp56
 70
     1
102
RTVSPost2010Prop57
140
1.0
102
RTVSPost2010PropOp57
 70
     1
  0
XRECORD
  5
2F1
102
{ACAD_REACTORS
330
2F0
102
}
330
2F0
100
AcDbXrecord
280
     1
102
RTVSPropertyOp0
 70
     0
102
RTVSPropertyOp1
 70
     0
102
RTVSPropertyOp2
 70
     0
102
RTVSPropertyOp3
 70
     0
102
RTVSPropertyOp4
 70
     0
102
RTVSPropertyOp5
 70
     0
102
RTVSPropertyOp6
 70
     0
102
RTVSPropertyOp7
 70
     0
102
RTVSPropertyOp8
 70
     0
102
RTVSPropertyOp9
 70
     0
102
RTVSPropertyOp10
 70
     0
102
RTVSPropertyOp11
 70
     0
102
RTVSPropertyOp12
 70
     0
102
RTVSPropertyOp13
 70
     0
102
RTVSPropertyOp14
 70
     2
102
RTVSPropertyOp15
 70
     0
102
RTVSPropertyOp16
 70
     0
102
RTVSPropertyOp17
 70
     0
102
RTVSPropertyOp18
 70
     0
102
RTVSPropertyOp19
 70
     0
102
RTVSPropertyOp20
 70
     0
102
RTVSPropertyOp21
 70
     0
102
RTVSPropertyOp22
 70
     0
102
RTVSPropertyOp23
 70
     0
102
RTVSPropertyOp24
 70
     0
102
RTVSPropertyOp25
 70
     0
102
RTVSPropertyOp26
 70
     0
102
RTVSPropertyOp27
 70
     0
102
RTVSPropertyOp28
 70
     0
102
RTVSPropertyOp29
 70
     0
102
RTVSPropertyOp30
 70
     0
102
RTVSPropertyOp31
 70
     0
102
RTVSPropertyOp32
 70
     0
102
RTVSPropertyOp33
 70
     0
102
RTVSPropertyOp34
 70
     0
102
RTVSPropertyOp35
 70
     0
102
RTVSPropertyOp36
 70
     0
102
RTVSPropertyOp37
 70
     0
102
RTVSPropertyOp38
 70
     0
102
RTVSPropertyOp39
 70
     0
102
RTVSPropertyOp40
 70
     0
102
RTVSPropertyOp41
 70
     0
102
RTVSPropertyOp42
 70
     0
102
RTVSPropertyOp43
 70
     0
102
RTVSPropertyOp44
 70
     0
102
RTVSPropertyOp45
 70
     0
102
RTVSPropertyOp46
 70
     0
102
RTVSPropertyOp47
 70
     0
102
RTVSPropertyOp48
 70
     0
102
RTVSPropertyOp49
 70
     0
102
RTVSPropertyOp50
 70
     0
102
RTVSPropertyOp51
 70
     0
102
RTVSPropertyOp52
 70
     0
102
RTVSPropertyOp53
 70
     0
102
RTVSPropertyOp54
 70
     0
102
RTVSPropertyOp55
 70
     0
102
RTVSPropertyOp56
 70
     0
102
RTVSPropertyOp57
 70
     0
102
RTVSPost2010Prop28
280
     0
102
RTVSPost2010PropOp28
 70
     0
102
RTVSPost2010Prop29
280
     1
102
RTVSPost2010PropOp29
 70
     0
102
RTVSPost2010Prop30
280
     1
102
RTVSPost2010PropOp30
 70
     0
102
RTVSPost2010Prop31
280
     0
102
RTVSPost2010PropOp31
 70
     0
102
RTVSPost2010Prop32
280
     0
102
RTVSPost2010PropOp32
 70
     0
102
RTVSPost2010Prop33
280
     0
102
RTVSPost2010PropOp33
 70
     0
102
RTVSPost2010Prop34
280
     0
102
RTVSPost2010PropOp34
 70
     0
102
RTVSPost2010Prop35
280
     0
102
RTVSPost2010PropOp35
 70
     0
102
RTVSPost2010Prop36
280
     0
102
RTVSPost2010PropOp36
 70
     0
102
RTVSPost2010Prop37
 90
       50
102
RTVSPost2010PropOp37
 70
     0
102
RTVSPost2010Prop38
140
0.0
102
RTVSPost2010PropOp38
 70
     0
102
RTVSPost2010Prop39
140
1.0
102
RTVSPost2010PropOp39
 70
     0
102
RTVSPost2010Prop40
 90
        0
102
RTVSPost2010PropOp40
 70
     0
102
RTVSPost2010Prop41ColorIndex
 90
       18
102
RTVSPost2010Prop41ColorRGB
 90
        0
102
RTVSPost2010PropOp41
 70
     0
102
RTVSPost2010Prop42
 90
       50
102
RTVSPost2010PropOp42
 70
     0
102
RTVSPost2010Prop43
 90
        3
102
RTVSPost2010PropOp43
 70
     0
102
RTVSPost2010Prop44ColorIndex
 90
        5
102
RTVSPost2010Prop44ColorRGB
 90
      255
102
RTVSPost2010PropOp44
 70
     0
102
RTVSPost2010Prop45
280
     0
102
RTVSPost2010PropOp45
 70
     0
102
RTVSPost2010Prop46
 90
       50
102
RTVSPost2010PropOp46
 70
     0
102
RTVSPost2010Prop47
 90
       50
102
RTVSPost2010PropOp47
 70
     0
102
RTVSPost2010Prop48
 90
       50
102
RTVSPost2010PropOp48
 70
     0
102
RTVSPost2010Prop49
280
     0
102
RTVSPost2010PropOp49
 70
     0
102
RTVSPost2010Prop50
 90
       50
102
RTVSPost2010PropOp50
 70
     0
102
RTVSPost2010Prop51ColorIndex
 90
      256
102
RTVSPost2010Prop51ColorRGB
 90
-16777216
102
RTVSPost2010PropOp51
 70
     0
102
RTVSPost2010Prop52
140
1.0
102
RTVSPost2010PropOp52
 70
     0
102
RTVSPost2010Prop53
 90
        2
102
RTVSPost2010PropOp53
 70
     0
102
RTVSPost2010Prop54
  1
strokes_ogs.tif
102
RTVSPost2010PropOp54
 70
     0
102
RTVSPost2010Prop55
280
     0
102
RTVSPost2010PropOp55
 70
     0
102
RTVSPost2010Prop56
140
1.0
102
RTVSPost2010PropOp56
 70
     0
102
RTVSPost2010Prop57
140
1.0
102
RTVSPost2010PropOp57
 70
     0
  0
XRECORD
  5
2EB
102
{ACAD_REACTORS
330
2EA
102
}
330
2EA
100
AcDbXrecord
280
     1
102
RTVSPropertyOp0
 70
     1
102
RTVSPropertyOp1
 70
     1
102
RTVSPropertyOp2
 70
     1
102
RTVSPropertyOp3
 70
     1
102
RTVSPropertyOp4
 70
     1
102
RTVSPropertyOp5
 70
     1
102
RTVSPropertyOp6
 70
     1
102
RTVSPropertyOp7
 70
     1
102
RTVSPropertyOp8
 70
     1
102
RTVSPropertyOp9
 70
     1
102
RTVSPropertyOp10
 70
     1
102
RTVSPropertyOp11
 70
     1
102
RTVSPropertyOp12
 70
     1
102
RTVSPropertyOp13
 70
     1
102
RTVSPropertyOp14
 70
     1
102
RTVSPropertyOp15
 70
     1
102
RTVSPropertyOp16
 70
     1
102
RTVSPropertyOp17
 70
     1
102
RTVSPropertyOp18
 70
     1
102
RTVSPropertyOp19
 70
     1
102
RTVSPropertyOp20
 70
     1
102
RTVSPropertyOp21
 70
     1
102
RTVSPropertyOp22
 70
     1
102
RTVSPropertyOp23
 70
     1
102
RTVSPropertyOp24
 70
     1
102
RTVSPropertyOp25
 70
     1
102
RTVSPropertyOp26
 70
     1
102
RTVSPropertyOp27
 70
     1
102
RTVSPropertyOp28
 70
     1
102
RTVSPropertyOp29
 70
     1
102
RTVSPropertyOp30
 70
     1
102
RTVSPropertyOp31
 70
     1
102
RTVSPropertyOp32
 70
     1
102
RTVSPropertyOp33
 70
     1
102
RTVSPropertyOp34
 70
     1
102
RTVSPropertyOp35
 70
     1
102
RTVSPropertyOp36
 70
     1
102
RTVSPropertyOp37
 70
     1
102
RTVSPropertyOp38
 70
     1
102
RTVSPropertyOp39
 70
     1
102
RTVSPropertyOp40
 70
     1
102
RTVSPropertyOp41
 70
     1
102
RTVSPropertyOp42
 70
     1
102
RTVSPropertyOp43
 70
     1
102
RTVSPropertyOp44
 70
     1
102
RTVSPropertyOp45
 70
     1
102
RTVSPropertyOp46
 70
     1
102
RTVSPropertyOp47
 70
     1
102
RTVSPropertyOp48
 70
     1
102
RTVSPropertyOp49
 70
     1
102
RTVSPropertyOp50
 70
     1
102
RTVSPropertyOp51
 70
     0
102
RTVSPropertyOp52
 70
     0
102
RTVSPropertyOp53
 70
     1
102
RTVSPropertyOp54
 70
     1
102
RTVSPropertyOp55
 70
     1
102
RTVSPropertyOp56
 70
     1
102
RTVSPropertyOp57
 70
     1
102
RTVSPost2010Prop28
280
     0
102
RTVSPost2010PropOp28
 70
     1
102
RTVSPost2010Prop29
280
     1
102
RTVSPost2010PropOp29
 70
     1
102
RTVSPost2010Prop30
280
     1
102
RTVSPost2010PropOp30
 70
     1
102
RTVSPost2010Prop31
280
     0
102
RTVSPost2010PropOp31
 70
     1
102
RTVSPost2010Prop32
280
     0
102
RTVSPost2010PropOp32
 70
     1
102
RTVSPost2010Prop33
280
     0
102
RTVSPost2010PropOp33
 70
     1
102
RTVSPost2010Prop34
280
     0
102
RTVSPost2010PropOp34
 70
     1
102
RTVSPost2010Prop35
280
     0
102
RTVSPost2010PropOp35
 70
     1
102
RTVSPost2010Prop36
280
     0
102
RTVSPost2010PropOp36
 70
     1
102
RTVSPost2010Prop37
 90
       50
102
RTVSPost2010PropOp37
 70
     1
102
RTVSPost2010Prop38
140
0.0
102
RTVSPost2010PropOp38
 70
     1
102
RTVSPost2010Prop39
140
1.0
102
RTVSPost2010PropOp39
 70
     1
102
RTVSPost2010Prop40
 90
        0
102
RTVSPost2010PropOp40
 70
     1
102
RTVSPost2010Prop41ColorIndex
 90
       18
102
RTVSPost2010Prop41ColorRGB
 90
        0
102
RTVSPost2010PropOp41
 70
     1
102
RTVSPost2010Prop42
 90
       50
102
RTVSPost2010PropOp42
 70
     1
102
RTVSPost2010Prop43
 90
        3
102
RTVSPost2010PropOp43
 70
     1
102
RTVSPost2010Prop44ColorIndex
 90
        5
102
RTVSPost2010Prop44ColorRGB
 90
      255
102
RTVSPost2010PropOp44
 70
     1
102
RTVSPost2010Prop45
280
     0
102
RTVSPost2010PropOp45
 70
     1
102
RTVSPost2010Prop46
 90
       50
102
RTVSPost2010PropOp46
 70
     1
102
RTVSPost2010Prop47
 90
       50
102
RTVSPost2010PropOp47
 70
     1
102
RTVSPost2010Prop48
 90
       50
102
RTVSPost2010PropOp48
 70
     1
102
RTVSPost2010Prop49
280
     0
102
RTVSPost2010PropOp49
 70
     1
102
RTVSPost2010Prop50
 90
       50
102
RTVSPost2010PropOp50
 70
     1
102
RTVSPost2010Prop51ColorIndex
 90
      256
102
RTVSPost2010Prop51ColorRGB
 90
-16777216
102
RTVSPost2010PropOp51
 70
     0
102
RTVSPost2010Prop52
140
1.0
102
RTVSPost2010PropOp52
 70
     0
102
RTVSPost2010Prop53
 90
        2
102
RTVSPost2010PropOp53
 70
     1
102
RTVSPost2010Prop54
  1
strokes_ogs.tif
102
RTVSPost2010PropOp54
 70
     1
102
RTVSPost2010Prop55
280
     0
102
RTVSPost2010PropOp55
 70
     1
102
RTVSPost2010Prop56
140
1.0
102
RTVSPost2010PropOp56
 70
     1
102
RTVSPost2010Prop57
140
1.0
102
RTVSPost2010PropOp57
 70
     1
  0
XRECORD
  5
2F3
102
{ACAD_REACTORS
330
2F2
102
}
330
2F2
100
AcDbXrecord
280
     1
102
RTVSPropertyOp0
 70
     0
102
RTVSPropertyOp1
 70
     0
102
RTVSPropertyOp2
 70
     0
102
RTVSPropertyOp3
 70
     0
102
RTVSPropertyOp4
 70
     0
102
RTVSPropertyOp5
 70
     0
102
RTVSPropertyOp6
 70
     0
102
RTVSPropertyOp7
 70
     0
102
RTVSPropertyOp8
 70
     0
102
RTVSPropertyOp9
 70
     0
102
RTVSPropertyOp10
 70
     0
102
RTVSPropertyOp11
 70
     0
102
RTVSPropertyOp12
 70
     0
102
RTVSPropertyOp13
 70
     0
102
RTVSPropertyOp14
 70
     2
102
RTVSPropertyOp15
 70
     0
102
RTVSPropertyOp16
 70
     0
102
RTVSPropertyOp17
 70
     0
102
RTVSPropertyOp18
 70
     0
102
RTVSPropertyOp19
 70
     0
102
RTVSPropertyOp20
 70
     0
102
RTVSPropertyOp21
 70
     0
102
RTVSPropertyOp22
 70
     0
102
RTVSPropertyOp23
 70
     0
102
RTVSPropertyOp24
 70
     0
102
RTVSPropertyOp25
 70
     0
102
RTVSPropertyOp26
 70
     0
102
RTVSPropertyOp27
 70
     0
102
RTVSPropertyOp28
 70
     0
102
RTVSPropertyOp29
 70
     0
102
RTVSPropertyOp30
 70
     0
102
RTVSPropertyOp31
 70
     0
102
RTVSPropertyOp32
 70
     0
102
RTVSPropertyOp33
 70
     0
102
RTVSPropertyOp34
 70
     0
102
RTVSPropertyOp35
 70
     0
102
RTVSPropertyOp36
 70
     0
102
RTVSPropertyOp37
 70
     0
102
RTVSPropertyOp38
 70
     0
102
RTVSPropertyOp39
 70
     0
102
RTVSPropertyOp40
 70
     0
102
RTVSPropertyOp41
 70
     0
102
RTVSPropertyOp42
 70
     0
102
RTVSPropertyOp43
 70
     0
102
RTVSPropertyOp44
 70
     0
102
RTVSPropertyOp45
 70
     0
102
RTVSPropertyOp46
 70
     0
102
RTVSPropertyOp47
 70
     0
102
RTVSPropertyOp48
 70
     0
102
RTVSPropertyOp49
 70
     0
102
RTVSPropertyOp50
 70
     0
102
RTVSPropertyOp51
 70
     0
102
RTVSPropertyOp52
 70
     0
102
RTVSPropertyOp53
 70
     0
102
RTVSPropertyOp54
 70
     0
102
RTVSPropertyOp55
 70
     0
102
RTVSPropertyOp56
 70
     0
102
RTVSPropertyOp57
 70
     0
102
RTVSPost2010Prop28
280
     0
102
RTVSPost2010PropOp28
 70
     0
102
RTVSPost2010Prop29
280
     1
102
RTVSPost2010PropOp29
 70
     0
102
RTVSPost2010Prop30
280
     1
102
RTVSPost2010PropOp30
 70
     0
102
RTVSPost2010Prop31
280
     0
102
RTVSPost2010PropOp31
 70
     0
102
RTVSPost2010Prop32
280
     0
102
RTVSPost2010PropOp32
 70
     0
102
RTVSPost2010Prop33
280
     0
102
RTVSPost2010PropOp33
 70
     0
102
RTVSPost2010Prop34
280
     0
102
RTVSPost2010PropOp34
 70
     0
102
RTVSPost2010Prop35
280
     0
102
RTVSPost2010PropOp35
 70
     0
102
RTVSPost2010Prop36
280
     0
102
RTVSPost2010PropOp36
 70
     0
102
RTVSPost2010Prop37
 90
       50
102
RTVSPost2010PropOp37
 70
     0
102
RTVSPost2010Prop38
140
0.0
102
RTVSPost2010PropOp38
 70
     0
102
RTVSPost2010Prop39
140
1.0
102
RTVSPost2010PropOp39
 70
     0
102
RTVSPost2010Prop40
 90
        0
102
RTVSPost2010PropOp40
 70
     0
102
RTVSPost2010Prop41ColorIndex
 90
       18
102
RTVSPost2010Prop41ColorRGB
 90
        0
102
RTVSPost2010PropOp41
 70
     0
102
RTVSPost2010Prop42
 90
       50
102
RTVSPost2010PropOp42
 70
     0
102
RTVSPost2010Prop43
 90
        3
102
RTVSPost2010PropOp43
 70
     0
102
RTVSPost2010Prop44ColorIndex
 90
        5
102
RTVSPost2010Prop44ColorRGB
 90
      255
102
RTVSPost2010PropOp44
 70
     0
102
RTVSPost2010Prop45
280
     0
102
RTVSPost2010PropOp45
 70
     0
102
RTVSPost2010Prop46
 90
       50
102
RTVSPost2010PropOp46
 70
     0
102
RTVSPost2010Prop47
 90
       50
102
RTVSPost2010PropOp47
 70
     0
102
RTVSPost2010Prop48
 90
       50
102
RTVSPost2010PropOp48
 70
     0
102
RTVSPost2010Prop49
280
     0
102
RTVSPost2010PropOp49
 70
     0
102
RTVSPost2010Prop50
 90
       50
102
RTVSPost2010PropOp50
 70
     0
102
RTVSPost2010Prop51ColorIndex
 90
      256
102
RTVSPost2010Prop51ColorRGB
 90
-16777216
102
RTVSPost2010PropOp51
 70
     0
102
RTVSPost2010Prop52
140
1.0
102
RTVSPost2010PropOp52
 70
     0
102
RTVSPost2010Prop53
 90
        2
102
RTVSPost2010PropOp53
 70
     0
102
RTVSPost2010Prop54
  1
strokes_ogs.tif
102
RTVSPost2010PropOp54
 70
     0
102
RTVSPost2010Prop55
280
     0
102
RTVSPost2010PropOp55
 70
     0
102
RTVSPost2010Prop56
140
1.0
102
RTVSPost2010PropOp56
 70
     0
102
RTVSPost2010Prop57
140
1.0
102
RTVSPost2010PropOp57
 70
     0
  0
XRECORD
  5
2E1
102
{ACAD_REACTORS
330
2E0
102
}
330
2E0
100
AcDbXrecord
280
     1
102
RTVSPropertyOp0
 70
     1
102
RTVSPropertyOp1
 70
     1
102
RTVSPropertyOp2
 70
     1
102
RTVSPropertyOp3
 70
     1
102
RTVSPropertyOp4
 70
     1
102
RTVSPropertyOp5
 70
     1
102
RTVSPropertyOp6
 70
     1
102
RTVSPropertyOp7
 70
     1
102
RTVSPropertyOp8
 70
     1
102
RTVSPropertyOp9
 70
     1
102
RTVSPropertyOp10
 70
     1
102
RTVSPropertyOp11
 70
     1
102
RTVSPropertyOp12
 70
     1
102
RTVSPropertyOp13
 70
     1
102
RTVSPropertyOp14
 70
     1
102
RTVSPropertyOp15
 70
     1
102
RTVSPropertyOp16
 70
     1
102
RTVSPropertyOp17
 70
     1
102
RTVSPropertyOp18
 70
     1
102
RTVSPropertyOp19
 70
     1
102
RTVSPropertyOp20
 70
     1
102
RTVSPropertyOp21
 70
     1
102
RTVSPropertyOp22
 70
     1
102
RTVSPropertyOp23
 70
     1
102
RTVSPropertyOp24
 70
     1
102
RTVSPropertyOp25
 70
     1
102
RTVSPropertyOp26
 70
     1
102
RTVSPropertyOp27
 70
     1
102
RTVSPropertyOp28
 70
     1
102
RTVSPropertyOp29
 70
     1
102
RTVSPropertyOp30
 70
     1
102
RTVSPropertyOp31
 70
     1
102
RTVSPropertyOp32
 70
     1
102
RTVSPropertyOp33
 70
     1
102
RTVSPropertyOp34
 70
     1
102
RTVSPropertyOp35
 70
     1
102
RTVSPropertyOp36
 70
     1
102
RTVSPropertyOp37
 70
     1
102
RTVSPropertyOp38
 70
     1
102
RTVSPropertyOp39
 70
     1
102
RTVSPropertyOp40
 70
     1
102
RTVSPropertyOp41
 70
     1
102
RTVSPropertyOp42
 70
     1
102
RTVSPropertyOp43
 70
     1
102
RTVSPropertyOp44
 70
     1
102
RTVSPropertyOp45
 70
     1
102
RTVSPropertyOp46
 70
     1
102
RTVSPropertyOp47
 70
     1
102
RTVSPropertyOp48
 70
     1
102
RTVSPropertyOp49
 70
     1
102
RTVSPropertyOp50
 70
     1
102
RTVSPropertyOp51
 70
     0
102
RTVSPropertyOp52
 70
     0
102
RTVSPropertyOp53
 70
     1
102
RTVSPropertyOp54
 70
     1
102
RTVSPropertyOp55
 70
     1
102
RTVSPropertyOp56
 70
     1
102
RTVSPropertyOp57
 70
     1
102
RTVSPost2010Prop28
280
     0
102
RTVSPost2010PropOp28
 70
     1
102
RTVSPost2010Prop29
280
     1
102
RTVSPost2010PropOp29
 70
     1
102
RTVSPost2010Prop30
280
     1
102
RTVSPost2010PropOp30
 70
     1
102
RTVSPost2010Prop31
280
     0
102
RTVSPost2010PropOp31
 70
     1
102
RTVSPost2010Prop32
280
     0
102
RTVSPost2010PropOp32
 70
     1
102
RTVSPost2010Prop33
280
     0
102
RTVSPost2010PropOp33
 70
     1
102
RTVSPost2010Prop34
280
     0
102
RTVSPost2010PropOp34
 70
     1
102
RTVSPost2010Prop35
280
     0
102
RTVSPost2010PropOp35
 70
     1
102
RTVSPost2010Prop36
280
     0
102
RTVSPost2010PropOp36
 70
     1
102
RTVSPost2010Prop37
 90
       50
102
RTVSPost2010PropOp37
 70
     1
102
RTVSPost2010Prop38
140
0.0
102
RTVSPost2010PropOp38
 70
     1
102
RTVSPost2010Prop39
140
1.0
102
RTVSPost2010PropOp39
 70
     1
102
RTVSPost2010Prop40
 90
        0
102
RTVSPost2010PropOp40
 70
     1
102
RTVSPost2010Prop41ColorIndex
 90
       18
102
RTVSPost2010Prop41ColorRGB
 90
        0
102
RTVSPost2010PropOp41
 70
     1
102
RTVSPost2010Prop42
 90
       50
102
RTVSPost2010PropOp42
 70
     1
102
RTVSPost2010Prop43
 90
        3
102
RTVSPost2010PropOp43
 70
     1
102
RTVSPost2010Prop44ColorIndex
 90
        5
102
RTVSPost2010Prop44ColorRGB
 90
      255
102
RTVSPost2010PropOp44
 70
     1
102
RTVSPost2010Prop45
280
     0
102
RTVSPost2010PropOp45
 70
     1
102
RTVSPost2010Prop46
 90
       50
102
RTVSPost2010PropOp46
 70
     1
102
RTVSPost2010Prop47
 90
       50
102
RTVSPost2010PropOp47
 70
     1
102
RTVSPost2010Prop48
 90
       50
102
RTVSPost2010PropOp48
 70
     1
102
RTVSPost2010Prop49
280
     0
102
RTVSPost2010PropOp49
 70
     1
102
RTVSPost2010Prop50
 90
       50
102
RTVSPost2010PropOp50
 70
     1
102
RTVSPost2010Prop51ColorIndex
 90
      256
102
RTVSPost2010Prop51ColorRGB
 90
-16777216
102
RTVSPost2010PropOp51
 70
     0
102
RTVSPost2010Prop52
140
1.0
102
RTVSPost2010PropOp52
 70
     0
102
RTVSPost2010Prop53
 90
        2
102
RTVSPost2010PropOp53
 70
     1
102
RTVSPost2010Prop54
  1
strokes_ogs.tif
102
RTVSPost2010PropOp54
 70
     1
102
RTVSPost2010Prop55
280
     0
102
RTVSPost2010PropOp55
 70
     1
102
RTVSPost2010Prop56
140
1.0
102
RTVSPost2010PropOp56
 70
     1
102
RTVSPost2010Prop57
140
1.0
102
RTVSPost2010PropOp57
 70
     1
  0
XRECORD
  5
2FF
102
{ACAD_REACTORS
330
2FE
102
}
330
2FE
100
AcDbXrecord
280
     1
102
RTVSPropertyOp0
 70
     1
102
RTVSPropertyOp1
 70
     1
102
RTVSPropertyOp2
 70
     1
102
RTVSPropertyOp3
 70
     1
102
RTVSPropertyOp4
 70
     1
102
RTVSPropertyOp5
 70
     1
102
RTVSPropertyOp6
 70
     1
102
RTVSPropertyOp7
 70
     1
102
RTVSPropertyOp8
 70
     1
102
RTVSPropertyOp9
 70
     1
102
RTVSPropertyOp10
 70
     1
102
RTVSPropertyOp11
 70
     1
102
RTVSPropertyOp12
 70
     1
102
RTVSPropertyOp13
 70
     1
102
RTVSPropertyOp14
 70
     1
102
RTVSPropertyOp15
 70
     1
102
RTVSPropertyOp16
 70
     1
102
RTVSPropertyOp17
 70
     1
102
RTVSPropertyOp18
 70
     1
102
RTVSPropertyOp19
 70
     1
102
RTVSPropertyOp20
 70
     1
102
RTVSPropertyOp21
 70
     1
102
RTVSPropertyOp22
 70
     1
102
RTVSPropertyOp23
 70
     1
102
RTVSPropertyOp24
 70
     1
102
RTVSPropertyOp25
 70
     1
102
RTVSPropertyOp26
 70
     1
102
RTVSPropertyOp27
 70
     1
102
RTVSPropertyOp28
 70
     1
102
RTVSPropertyOp29
 70
     1
102
RTVSPropertyOp30
 70
     1
102
RTVSPropertyOp31
 70
     1
102
RTVSPropertyOp32
 70
     1
102
RTVSPropertyOp33
 70
     1
102
RTVSPropertyOp34
 70
     1
102
RTVSPropertyOp35
 70
     1
102
RTVSPropertyOp36
 70
     1
102
RTVSPropertyOp37
 70
     1
102
RTVSPropertyOp38
 70
     1
102
RTVSPropertyOp39
 70
     1
102
RTVSPropertyOp40
 70
     1
102
RTVSPropertyOp41
 70
     1
102
RTVSPropertyOp42
 70
     1
102
RTVSPropertyOp43
 70
     1
102
RTVSPropertyOp44
 70
     1
102
RTVSPropertyOp45
 70
     1
102
RTVSPropertyOp46
 70
     1
102
RTVSPropertyOp47
 70
     1
102
RTVSPropertyOp48
 70
     1
102
RTVSPropertyOp49
 70
     1
102
RTVSPropertyOp50
 70
     1
102
RTVSPropertyOp51
 70
     0
102
RTVSPropertyOp52
 70
     0
102
RTVSPropertyOp53
 70
     1
102
RTVSPropertyOp54
 70
     1
102
RTVSPropertyOp55
 70
     1
102
RTVSPropertyOp56
 70
     1
102
RTVSPropertyOp57
 70
     1
102
RTVSPost2010Prop28
280
     0
102
RTVSPost2010PropOp28
 70
     1
102
RTVSPost2010Prop29
280
     1
102
RTVSPost2010PropOp29
 70
     1
102
RTVSPost2010Prop30
280
     1
102
RTVSPost2010PropOp30
 70
     1
102
RTVSPost2010Prop31
280
     0
102
RTVSPost2010PropOp31
 70
     1
102
RTVSPost2010Prop32
280
     0
102
RTVSPost2010PropOp32
 70
     1
102
RTVSPost2010Prop33
280
     0
102
RTVSPost2010PropOp33
 70
     1
102
RTVSPost2010Prop34
280
     0
102
RTVSPost2010PropOp34
 70
     1
102
RTVSPost2010Prop35
280
     0
102
RTVSPost2010PropOp35
 70
     1
102
RTVSPost2010Prop36
280
     0
102
RTVSPost2010PropOp36
 70
     1
102
RTVSPost2010Prop37
 90
       50
102
RTVSPost2010PropOp37
 70
     1
102
RTVSPost2010Prop38
140
0.0
102
RTVSPost2010PropOp38
 70
     1
102
RTVSPost2010Prop39
140
1.0
102
RTVSPost2010PropOp39
 70
     1
102
RTVSPost2010Prop40
 90
        0
102
RTVSPost2010PropOp40
 70
     1
102
RTVSPost2010Prop41ColorIndex
 90
       18
102
RTVSPost2010Prop41ColorRGB
 90
        0
102
RTVSPost2010PropOp41
 70
     1
102
RTVSPost2010Prop42
 90
       50
102
RTVSPost2010PropOp42
 70
     1
102
RTVSPost2010Prop43
 90
        3
102
RTVSPost2010PropOp43
 70
     1
102
RTVSPost2010Prop44ColorIndex
 90
        5
102
RTVSPost2010Prop44ColorRGB
 90
      255
102
RTVSPost2010PropOp44
 70
     1
102
RTVSPost2010Prop45
280
     0
102
RTVSPost2010PropOp45
 70
     1
102
RTVSPost2010Prop46
 90
       50
102
RTVSPost2010PropOp46
 70
     1
102
RTVSPost2010Prop47
 90
       50
102
RTVSPost2010PropOp47
 70
     1
102
RTVSPost2010Prop48
 90
       50
102
RTVSPost2010PropOp48
 70
     1
102
RTVSPost2010Prop49
280
     0
102
RTVSPost2010PropOp49
 70
     1
102
RTVSPost2010Prop50
 90
       50
102
RTVSPost2010PropOp50
 70
     1
102
RTVSPost2010Prop51ColorIndex
 90
      256
102
RTVSPost2010Prop51ColorRGB
 90
-16777216
102
RTVSPost2010PropOp51
 70
     0
102
RTVSPost2010Prop52
140
1.0
102
RTVSPost2010PropOp52
 70
     0
102
RTVSPost2010Prop53
 90
        2
102
RTVSPost2010PropOp53
 70
     1
102
RTVSPost2010Prop54
  1
strokes_ogs.tif
102
RTVSPost2010PropOp54
 70
     1
102
RTVSPost2010Prop55
280
     0
102
RTVSPost2010PropOp55
 70
     1
102
RTVSPost2010Prop56
140
1.0
102
RTVSPost2010PropOp56
 70
     1
102
RTVSPost2010Prop57
140
1.0
102
RTVSPost2010PropOp57
 70
     1
  0
XRECORD
  5
2FD
102
{ACAD_REACTORS
330
2FC
102
}
330
2FC
100
AcDbXrecord
280
     1
102
RTVSPropertyOp0
 70
     1
102
RTVSPropertyOp1
 70
     1
102
RTVSPropertyOp2
 70
     1
102
RTVSPropertyOp3
 70
     1
102
RTVSPropertyOp4
 70
     1
102
RTVSPropertyOp5
 70
     1
102
RTVSPropertyOp6
 70
     1
102
RTVSPropertyOp7
 70
     1
102
RTVSPropertyOp8
 70
     1
102
RTVSPropertyOp9
 70
     1
102
RTVSPropertyOp10
 70
     1
102
RTVSPropertyOp11
 70
     1
102
RTVSPropertyOp12
 70
     1
102
RTVSPropertyOp13
 70
     1
102
RTVSPropertyOp14
 70
     1
102
RTVSPropertyOp15
 70
     1
102
RTVSPropertyOp16
 70
     1
102
RTVSPropertyOp17
 70
     1
102
RTVSPropertyOp18
 70
     1
102
RTVSPropertyOp19
 70
     1
102
RTVSPropertyOp20
 70
     1
102
RTVSPropertyOp21
 70
     1
102
RTVSPropertyOp22
 70
     1
102
RTVSPropertyOp23
 70
     1
102
RTVSPropertyOp24
 70
     1
102
RTVSPropertyOp25
 70
     1
102
RTVSPropertyOp26
 70
     1
102
RTVSPropertyOp27
 70
     1
102
RTVSPropertyOp28
 70
     1
102
RTVSPropertyOp29
 70
     1
102
RTVSPropertyOp30
 70
     1
102
RTVSPropertyOp31
 70
     1
102
RTVSPropertyOp32
 70
     1
102
RTVSPropertyOp33
 70
     1
102
RTVSPropertyOp34
 70
     1
102
RTVSPropertyOp35
 70
     1
102
RTVSPropertyOp36
 70
     1
102
RTVSPropertyOp37
 70
     1
102
RTVSPropertyOp38
 70
     1
102
RTVSPropertyOp39
 70
     1
102
RTVSPropertyOp40
 70
     1
102
RTVSPropertyOp41
 70
     1
102
RTVSPropertyOp42
 70
     1
102
RTVSPropertyOp43
 70
     1
102
RTVSPropertyOp44
 70
     1
102
RTVSPropertyOp45
 70
     1
102
RTVSPropertyOp46
 70
     1
102
RTVSPropertyOp47
 70
     1
102
RTVSPropertyOp48
 70
     1
102
RTVSPropertyOp49
 70
     1
102
RTVSPropertyOp50
 70
     1
102
RTVSPropertyOp51
 70
     0
102
RTVSPropertyOp52
 70
     0
102
RTVSPropertyOp53
 70
     1
102
RTVSPropertyOp54
 70
     1
102
RTVSPropertyOp55
 70
     1
102
RTVSPropertyOp56
 70
     1
102
RTVSPropertyOp57
 70
     1
102
RTVSPost2010Prop28
280
     0
102
RTVSPost2010PropOp28
 70
     1
102
RTVSPost2010Prop29
280
     1
102
RTVSPost2010PropOp29
 70
     1
102
RTVSPost2010Prop30
280
     1
102
RTVSPost2010PropOp30
 70
     1
102
RTVSPost2010Prop31
280
     0
102
RTVSPost2010PropOp31
 70
     1
102
RTVSPost2010Prop32
280
     0
102
RTVSPost2010PropOp32
 70
     1
102
RTVSPost2010Prop33
280
     0
102
RTVSPost2010PropOp33
 70
     1
102
RTVSPost2010Prop34
280
     0
102
RTVSPost2010PropOp34
 70
     1
102
RTVSPost2010Prop35
280
     0
102
RTVSPost2010PropOp35
 70
     1
102
RTVSPost2010Prop36
280
     0
102
RTVSPost2010PropOp36
 70
     1
102
RTVSPost2010Prop37
 90
       50
102
RTVSPost2010PropOp37
 70
     1
102
RTVSPost2010Prop38
140
0.0
102
RTVSPost2010PropOp38
 70
     1
102
RTVSPost2010Prop39
140
1.0
102
RTVSPost2010PropOp39
 70
     1
102
RTVSPost2010Prop40
 90
        0
102
RTVSPost2010PropOp40
 70
     1
102
RTVSPost2010Prop41ColorIndex
 90
       18
102
RTVSPost2010Prop41ColorRGB
 90
        0
102
RTVSPost2010PropOp41
 70
     1
102
RTVSPost2010Prop42
 90
       50
102
RTVSPost2010PropOp42
 70
     1
102
RTVSPost2010Prop43
 90
        3
102
RTVSPost2010PropOp43
 70
     1
102
RTVSPost2010Prop44ColorIndex
 90
        5
102
RTVSPost2010Prop44ColorRGB
 90
      255
102
RTVSPost2010PropOp44
 70
     1
102
RTVSPost2010Prop45
280
     0
102
RTVSPost2010PropOp45
 70
     1
102
RTVSPost2010Prop46
 90
       50
102
RTVSPost2010PropOp46
 70
     1
102
RTVSPost2010Prop47
 90
       50
102
RTVSPost2010PropOp47
 70
     1
102
RTVSPost2010Prop48
 90
       50
102
RTVSPost2010PropOp48
 70
     1
102
RTVSPost2010Prop49
280
     0
102
RTVSPost2010PropOp49
 70
     1
102
RTVSPost2010Prop50
 90
       50
102
RTVSPost2010PropOp50
 70
     1
102
RTVSPost2010Prop51ColorIndex
 90
      256
102
RTVSPost2010Prop51ColorRGB
 90
-16777216
102
RTVSPost2010PropOp51
 70
     0
102
RTVSPost2010Prop52
140
1.0
102
RTVSPost2010PropOp52
 70
     0
102
RTVSPost2010Prop53
 90
        2
102
RTVSPost2010PropOp53
 70
     1
102
RTVSPost2010Prop54
  1
strokes_ogs.tif
102
RTVSPost2010PropOp54
 70
     1
102
RTVSPost2010Prop55
280
     0
102
RTVSPost2010PropOp55
 70
     1
102
RTVSPost2010Prop56
140
1.0
102
RTVSPost2010PropOp56
 70
     1
102
RTVSPost2010Prop57
140
1.0
102
RTVSPost2010PropOp57
 70
     1
  0
XRECORD
  5
2F7
102
{ACAD_REACTORS
330
2F6
102
}
330
2F6
100
AcDbXrecord
280
     1
102
RTVSPropertyOp0
 70
     1
102
RTVSPropertyOp1
 70
     1
102
RTVSPropertyOp2
 70
     1
102
RTVSPropertyOp3
 70
     1
102
RTVSPropertyOp4
 70
     1
102
RTVSPropertyOp5
 70
     1
102
RTVSPropertyOp6
 70
     1
102
RTVSPropertyOp7
 70
     1
102
RTVSPropertyOp8
 70
     1
102
RTVSPropertyOp9
 70
     1
102
RTVSPropertyOp10
 70
     1
102
RTVSPropertyOp11
 70
     1
102
RTVSPropertyOp12
 70
     1
102
RTVSPropertyOp13
 70
     1
102
RTVSPropertyOp14
 70
     1
102
RTVSPropertyOp15
 70
     1
102
RTVSPropertyOp16
 70
     1
102
RTVSPropertyOp17
 70
     1
102
RTVSPropertyOp18
 70
     1
102
RTVSPropertyOp19
 70
     1
102
RTVSPropertyOp20
 70
     1
102
RTVSPropertyOp21
 70
     1
102
RTVSPropertyOp22
 70
     1
102
RTVSPropertyOp23
 70
     1
102
RTVSPropertyOp24
 70
     1
102
RTVSPropertyOp25
 70
     1
102
RTVSPropertyOp26
 70
     1
102
RTVSPropertyOp27
 70
     1
102
RTVSPropertyOp28
 70
     1
102
RTVSPropertyOp29
 70
     1
102
RTVSPropertyOp30
 70
     1
102
RTVSPropertyOp31
 70
     1
102
RTVSPropertyOp32
 70
     1
102
RTVSPropertyOp33
 70
     1
102
RTVSPropertyOp34
 70
     1
102
RTVSPropertyOp35
 70
     1
102
RTVSPropertyOp36
 70
     1
102
RTVSPropertyOp37
 70
     1
102
RTVSPropertyOp38
 70
     1
102
RTVSPropertyOp39
 70
     1
102
RTVSPropertyOp40
 70
     1
102
RTVSPropertyOp41
 70
     1
102
RTVSPropertyOp42
 70
     1
102
RTVSPropertyOp43
 70
     1
102
RTVSPropertyOp44
 70
     1
102
RTVSPropertyOp45
 70
     1
102
RTVSPropertyOp46
 70
     1
102
RTVSPropertyOp47
 70
     1
102
RTVSPropertyOp48
 70
     1
102
RTVSPropertyOp49
 70
     1
102
RTVSPropertyOp50
 70
     1
102
RTVSPropertyOp51
 70
     0
102
RTVSPropertyOp52
 70
     0
102
RTVSPropertyOp53
 70
     1
102
RTVSPropertyOp54
 70
     1
102
RTVSPropertyOp55
 70
     1
102
RTVSPropertyOp56
 70
     1
102
RTVSPropertyOp57
 70
     1
102
RTVSPost2010Prop28
280
     0
102
RTVSPost2010PropOp28
 70
     1
102
RTVSPost2010Prop29
280
     1
102
RTVSPost2010PropOp29
 70
     1
102
RTVSPost2010Prop30
280
     1
102
RTVSPost2010PropOp30
 70
     1
102
RTVSPost2010Prop31
280
     0
102
RTVSPost2010PropOp31
 70
     1
102
RTVSPost2010Prop32
280
     0
102
RTVSPost2010PropOp32
 70
     1
102
RTVSPost2010Prop33
280
     0
102
RTVSPost2010PropOp33
 70
     1
102
RTVSPost2010Prop34
280
     0
102
RTVSPost2010PropOp34
 70
     1
102
RTVSPost2010Prop35
280
     0
102
RTVSPost2010PropOp35
 70
     1
102
RTVSPost2010Prop36
280
     0
102
RTVSPost2010PropOp36
 70
     1
102
RTVSPost2010Prop37
 90
       50
102
RTVSPost2010PropOp37
 70
     1
102
RTVSPost2010Prop38
140
0.0
102
RTVSPost2010PropOp38
 70
     1
102
RTVSPost2010Prop39
140
1.0
102
RTVSPost2010PropOp39
 70
     1
102
RTVSPost2010Prop40
 90
        0
102
RTVSPost2010PropOp40
 70
     1
102
RTVSPost2010Prop41ColorIndex
 90
       18
102
RTVSPost2010Prop41ColorRGB
 90
        0
102
RTVSPost2010PropOp41
 70
     1
102
RTVSPost2010Prop42
 90
       50
102
RTVSPost2010PropOp42
 70
     1
102
RTVSPost2010Prop43
 90
        3
102
RTVSPost2010PropOp43
 70
     1
102
RTVSPost2010Prop44ColorIndex
 90
        5
102
RTVSPost2010Prop44ColorRGB
 90
      255
102
RTVSPost2010PropOp44
 70
     1
102
RTVSPost2010Prop45
280
     0
102
RTVSPost2010PropOp45
 70
     1
102
RTVSPost2010Prop46
 90
       50
102
RTVSPost2010PropOp46
 70
     1
102
RTVSPost2010Prop47
 90
       50
102
RTVSPost2010PropOp47
 70
     1
102
RTVSPost2010Prop48
 90
       50
102
RTVSPost2010PropOp48
 70
     1
102
RTVSPost2010Prop49
280
     0
102
RTVSPost2010PropOp49
 70
     1
102
RTVSPost2010Prop50
 90
       50
102
RTVSPost2010PropOp50
 70
     1
102
RTVSPost2010Prop51ColorIndex
 90
      256
102
RTVSPost2010Prop51ColorRGB
 90
-16777216
102
RTVSPost2010PropOp51
 70
     0
102
RTVSPost2010Prop52
140
1.0
102
RTVSPost2010PropOp52
 70
     0
102
RTVSPost2010Prop53
 90
        2
102
RTVSPost2010PropOp53
 70
     1
102
RTVSPost2010Prop54
  1
strokes_ogs.tif
102
RTVSPost2010PropOp54
 70
     1
102
RTVSPost2010Prop55
280
     0
102
RTVSPost2010PropOp55
 70
     1
102
RTVSPost2010Prop56
140
1.0
102
RTVSPost2010PropOp56
 70
     1
102
RTVSPost2010Prop57
140
1.0
102
RTVSPost2010PropOp57
 70
     1
  0
XRECORD
  5
2F9
102
{ACAD_REACTORS
330
2F8
102
}
330
2F8
100
AcDbXrecord
280
     1
102
RTVSPropertyOp0
 70
     1
102
RTVSPropertyOp1
 70
     1
102
RTVSPropertyOp2
 70
     1
102
RTVSPropertyOp3
 70
     1
102
RTVSPropertyOp4
 70
     1
102
RTVSPropertyOp5
 70
     1
102
RTVSPropertyOp6
 70
     1
102
RTVSPropertyOp7
 70
     1
102
RTVSPropertyOp8
 70
     1
102
RTVSPropertyOp9
 70
     1
102
RTVSPropertyOp10
 70
     1
102
RTVSPropertyOp11
 70
     1
102
RTVSPropertyOp12
 70
     1
102
RTVSPropertyOp13
 70
     1
102
RTVSPropertyOp14
 70
     1
102
RTVSPropertyOp15
 70
     1
102
RTVSPropertyOp16
 70
     1
102
RTVSPropertyOp17
 70
     1
102
RTVSPropertyOp18
 70
     1
102
RTVSPropertyOp19
 70
     1
102
RTVSPropertyOp20
 70
     1
102
RTVSPropertyOp21
 70
     1
102
RTVSPropertyOp22
 70
     1
102
RTVSPropertyOp23
 70
     1
102
RTVSPropertyOp24
 70
     1
102
RTVSPropertyOp25
 70
     1
102
RTVSPropertyOp26
 70
     1
102
RTVSPropertyOp27
 70
     1
102
RTVSPropertyOp28
 70
     1
102
RTVSPropertyOp29
 70
     1
102
RTVSPropertyOp30
 70
     1
102
RTVSPropertyOp31
 70
     1
102
RTVSPropertyOp32
 70
     1
102
RTVSPropertyOp33
 70
     1
102
RTVSPropertyOp34
 70
     1
102
RTVSPropertyOp35
 70
     1
102
RTVSPropertyOp36
 70
     1
102
RTVSPropertyOp37
 70
     1
102
RTVSPropertyOp38
 70
     1
102
RTVSPropertyOp39
 70
     1
102
RTVSPropertyOp40
 70
     1
102
RTVSPropertyOp41
 70
     1
102
RTVSPropertyOp42
 70
     1
102
RTVSPropertyOp43
 70
     1
102
RTVSPropertyOp44
 70
     1
102
RTVSPropertyOp45
 70
     1
102
RTVSPropertyOp46
 70
     1
102
RTVSPropertyOp47
 70
     1
102
RTVSPropertyOp48
 70
     1
102
RTVSPropertyOp49
 70
     1
102
RTVSPropertyOp50
 70
     1
102
RTVSPropertyOp51
 70
     0
102
RTVSPropertyOp52
 70
     0
102
RTVSPropertyOp53
 70
     1
102
RTVSPropertyOp54
 70
     1
102
RTVSPropertyOp55
 70
     1
102
RTVSPropertyOp56
 70
     1
102
RTVSPropertyOp57
 70
     1
102
RTVSPost2010Prop28
280
     0
102
RTVSPost2010PropOp28
 70
     1
102
RTVSPost2010Prop29
280
     1
102
RTVSPost2010PropOp29
 70
     1
102
RTVSPost2010Prop30
280
     1
102
RTVSPost2010PropOp30
 70
     1
102
RTVSPost2010Prop31
280
     0
102
RTVSPost2010PropOp31
 70
     1
102
RTVSPost2010Prop32
280
     0
102
RTVSPost2010PropOp32
 70
     1
102
RTVSPost2010Prop33
280
     0
102
RTVSPost2010PropOp33
 70
     1
102
RTVSPost2010Prop34
280
     0
102
RTVSPost2010PropOp34
 70
     1
102
RTVSPost2010Prop35
280
     0
102
RTVSPost2010PropOp35
 70
     1
102
RTVSPost2010Prop36
280
     0
102
RTVSPost2010PropOp36
 70
     1
102
RTVSPost2010Prop37
 90
       50
102
RTVSPost2010PropOp37
 70
     1
102
RTVSPost2010Prop38
140
0.0
102
RTVSPost2010PropOp38
 70
     1
102
RTVSPost2010Prop39
140
1.0
102
RTVSPost2010PropOp39
 70
     1
102
RTVSPost2010Prop40
 90
        0
102
RTVSPost2010PropOp40
 70
     1
102
RTVSPost2010Prop41ColorIndex
 90
       18
102
RTVSPost2010Prop41ColorRGB
 90
        0
102
RTVSPost2010PropOp41
 70
     1
102
RTVSPost2010Prop42
 90
       50
102
RTVSPost2010PropOp42
 70
     1
102
RTVSPost2010Prop43
 90
        3
102
RTVSPost2010PropOp43
 70
     1
102
RTVSPost2010Prop44ColorIndex
 90
        5
102
RTVSPost2010Prop44ColorRGB
 90
      255
102
RTVSPost2010PropOp44
 70
     1
102
RTVSPost2010Prop45
280
     0
102
RTVSPost2010PropOp45
 70
     1
102
RTVSPost2010Prop46
 90
       50
102
RTVSPost2010PropOp46
 70
     1
102
RTVSPost2010Prop47
 90
       50
102
RTVSPost2010PropOp47
 70
     1
102
RTVSPost2010Prop48
 90
       50
102
RTVSPost2010PropOp48
 70
     1
102
RTVSPost2010Prop49
280
     0
102
RTVSPost2010PropOp49
 70
     1
102
RTVSPost2010Prop50
 90
       50
102
RTVSPost2010PropOp50
 70
     1
102
RTVSPost2010Prop51ColorIndex
 90
      256
102
RTVSPost2010Prop51ColorRGB
 90
-16777216
102
RTVSPost2010PropOp51
 70
     0
102
RTVSPost2010Prop52
140
1.0
102
RTVSPost2010PropOp52
 70
     0
102
RTVSPost2010Prop53
 90
        2
102
RTVSPost2010PropOp53
 70
     1
102
RTVSPost2010Prop54
  1
strokes_ogs.tif
102
RTVSPost2010PropOp54
 70
     1
102
RTVSPost2010Prop55
280
     0
102
RTVSPost2010PropOp55
 70
     1
102
RTVSPost2010Prop56
140
1.0
102
RTVSPost2010PropOp56
 70
     1
102
RTVSPost2010Prop57
140
1.0
102
RTVSPost2010PropOp57
 70
     1
  0
XRECORD
  5
2E9
102
{ACAD_REACTORS
330
2E8
102
}
330
2E8
100
AcDbXrecord
280
     1
102
RTVSPropertyOp0
 70
     1
102
RTVSPropertyOp1
 70
     1
102
RTVSPropertyOp2
 70
     1
102
RTVSPropertyOp3
 70
     1
102
RTVSPropertyOp4
 70
     1
102
RTVSPropertyOp5
 70
     1
102
RTVSPropertyOp6
 70
     1
102
RTVSPropertyOp7
 70
     1
102
RTVSPropertyOp8
 70
     1
102
RTVSPropertyOp9
 70
     1
102
RTVSPropertyOp10
 70
     1
102
RTVSPropertyOp11
 70
     1
102
RTVSPropertyOp12
 70
     1
102
RTVSPropertyOp13
 70
     1
102
RTVSPropertyOp14
 70
     1
102
RTVSPropertyOp15
 70
     1
102
RTVSPropertyOp16
 70
     1
102
RTVSPropertyOp17
 70
     1
102
RTVSPropertyOp18
 70
     1
102
RTVSPropertyOp19
 70
     1
102
RTVSPropertyOp20
 70
     1
102
RTVSPropertyOp21
 70
     1
102
RTVSPropertyOp22
 70
     1
102
RTVSPropertyOp23
 70
     1
102
RTVSPropertyOp24
 70
     1
102
RTVSPropertyOp25
 70
     1
102
RTVSPropertyOp26
 70
     1
102
RTVSPropertyOp27
 70
     1
102
RTVSPropertyOp28
 70
     1
102
RTVSPropertyOp29
 70
     1
102
RTVSPropertyOp30
 70
     1
102
RTVSPropertyOp31
 70
     1
102
RTVSPropertyOp32
 70
     1
102
RTVSPropertyOp33
 70
     1
102
RTVSPropertyOp34
 70
     1
102
RTVSPropertyOp35
 70
     1
102
RTVSPropertyOp36
 70
     1
102
RTVSPropertyOp37
 70
     1
102
RTVSPropertyOp38
 70
     1
102
RTVSPropertyOp39
 70
     1
102
RTVSPropertyOp40
 70
     1
102
RTVSPropertyOp41
 70
     1
102
RTVSPropertyOp42
 70
     1
102
RTVSPropertyOp43
 70
     1
102
RTVSPropertyOp44
 70
     1
102
RTVSPropertyOp45
 70
     1
102
RTVSPropertyOp46
 70
     1
102
RTVSPropertyOp47
 70
     1
102
RTVSPropertyOp48
 70
     1
102
RTVSPropertyOp49
 70
     1
102
RTVSPropertyOp50
 70
     1
102
RTVSPropertyOp51
 70
     0
102
RTVSPropertyOp52
 70
     0
102
RTVSPropertyOp53
 70
     1
102
RTVSPropertyOp54
 70
     1
102
RTVSPropertyOp55
 70
     1
102
RTVSPropertyOp56
 70
     1
102
RTVSPropertyOp57
 70
     1
102
RTVSPost2010Prop28
280
     0
102
RTVSPost2010PropOp28
 70
     1
102
RTVSPost2010Prop29
280
     1
102
RTVSPost2010PropOp29
 70
     1
102
RTVSPost2010Prop30
280
     1
102
RTVSPost2010PropOp30
 70
     1
102
RTVSPost2010Prop31
280
     0
102
RTVSPost2010PropOp31
 70
     1
102
RTVSPost2010Prop32
280
     0
102
RTVSPost2010PropOp32
 70
     1
102
RTVSPost2010Prop33
280
     0
102
RTVSPost2010PropOp33
 70
     1
102
RTVSPost2010Prop34
280
     0
102
RTVSPost2010PropOp34
 70
     1
102
RTVSPost2010Prop35
280
     0
102
RTVSPost2010PropOp35
 70
     1
102
RTVSPost2010Prop36
280
     0
102
RTVSPost2010PropOp36
 70
     1
102
RTVSPost2010Prop37
 90
       50
102
RTVSPost2010PropOp37
 70
     1
102
RTVSPost2010Prop38
140
0.0
102
RTVSPost2010PropOp38
 70
     1
102
RTVSPost2010Prop39
140
1.0
102
RTVSPost2010PropOp39
 70
     1
102
RTVSPost2010Prop40
 90
        0
102
RTVSPost2010PropOp40
 70
     1
102
RTVSPost2010Prop41ColorIndex
 90
       18
102
RTVSPost2010Prop41ColorRGB
 90
        0
102
RTVSPost2010PropOp41
 70
     1
102
RTVSPost2010Prop42
 90
       50
102
RTVSPost2010PropOp42
 70
     1
102
RTVSPost2010Prop43
 90
        3
102
RTVSPost2010PropOp43
 70
     1
102
RTVSPost2010Prop44ColorIndex
 90
        5
102
RTVSPost2010Prop44ColorRGB
 90
      255
102
RTVSPost2010PropOp44
 70
     1
102
RTVSPost2010Prop45
280
     0
102
RTVSPost2010PropOp45
 70
     1
102
RTVSPost2010Prop46
 90
       50
102
RTVSPost2010PropOp46
 70
     1
102
RTVSPost2010Prop47
 90
       50
102
RTVSPost2010PropOp47
 70
     1
102
RTVSPost2010Prop48
 90
       50
102
RTVSPost2010PropOp48
 70
     1
102
RTVSPost2010Prop49
280
     0
102
RTVSPost2010PropOp49
 70
     1
102
RTVSPost2010Prop50
 90
       50
102
RTVSPost2010PropOp50
 70
     1
102
RTVSPost2010Prop51ColorIndex
 90
      256
102
RTVSPost2010Prop51ColorRGB
 90
-16777216
102
RTVSPost2010PropOp51
 70
     0
102
RTVSPost2010Prop52
140
1.0
102
RTVSPost2010PropOp52
 70
     0
102
RTVSPost2010Prop53
 90
        2
102
RTVSPost2010PropOp53
 70
     1
102
RTVSPost2010Prop54
  1
strokes_ogs.tif
102
RTVSPost2010PropOp54
 70
     1
102
RTVSPost2010Prop55
280
     0
102
RTVSPost2010PropOp55
 70
     1
102
RTVSPost2010Prop56
140
1.0
102
RTVSPost2010PropOp56
 70
     1
102
RTVSPost2010Prop57
140
1.0
102
RTVSPost2010PropOp57
 70
     1
  0
XRECORD
  5
2DB
102
{ACAD_REACTORS
330
2DA
102
}
330
2DA
100
AcDbXrecord
280
     1
102
RTVSPropertyOp0
 70
     1
102
RTVSPropertyOp1
 70
     1
102
RTVSPropertyOp2
 70
     1
102
RTVSPropertyOp3
 70
     1
102
RTVSPropertyOp4
 70
     1
102
RTVSPropertyOp5
 70
     1
102
RTVSPropertyOp6
 70
     1
102
RTVSPropertyOp7
 70
     1
102
RTVSPropertyOp8
 70
     1
102
RTVSPropertyOp9
 70
     1
102
RTVSPropertyOp10
 70
     1
102
RTVSPropertyOp11
 70
     1
102
RTVSPropertyOp12
 70
     1
102
RTVSPropertyOp13
 70
     1
102
RTVSPropertyOp14
 70
     1
102
RTVSPropertyOp15
 70
     1
102
RTVSPropertyOp16
 70
     1
102
RTVSPropertyOp17
 70
     1
102
RTVSPropertyOp18
 70
     1
102
RTVSPropertyOp19
 70
     1
102
RTVSPropertyOp20
 70
     1
102
RTVSPropertyOp21
 70
     1
102
RTVSPropertyOp22
 70
     1
102
RTVSPropertyOp23
 70
     1
102
RTVSPropertyOp24
 70
     1
102
RTVSPropertyOp25
 70
     1
102
RTVSPropertyOp26
 70
     1
102
RTVSPropertyOp27
 70
     1
102
RTVSPropertyOp28
 70
     1
102
RTVSPropertyOp29
 70
     1
102
RTVSPropertyOp30
 70
     1
102
RTVSPropertyOp31
 70
     1
102
RTVSPropertyOp32
 70
     1
102
RTVSPropertyOp33
 70
     1
102
RTVSPropertyOp34
 70
     1
102
RTVSPropertyOp35
 70
     1
102
RTVSPropertyOp36
 70
     1
102
RTVSPropertyOp37
 70
     1
102
RTVSPropertyOp38
 70
     1
102
RTVSPropertyOp39
 70
     1
102
RTVSPropertyOp40
 70
     1
102
RTVSPropertyOp41
 70
     1
102
RTVSPropertyOp42
 70
     1
102
RTVSPropertyOp43
 70
     1
102
RTVSPropertyOp44
 70
     1
102
RTVSPropertyOp45
 70
     1
102
RTVSPropertyOp46
 70
     1
102
RTVSPropertyOp47
 70
     1
102
RTVSPropertyOp48
 70
     1
102
RTVSPropertyOp49
 70
     1
102
RTVSPropertyOp50
 70
     1
102
RTVSPropertyOp51
 70
     0
102
RTVSPropertyOp52
 70
     0
102
RTVSPropertyOp53
 70
     1
102
RTVSPropertyOp54
 70
     1
102
RTVSPropertyOp55
 70
     1
102
RTVSPropertyOp56
 70
     1
102
RTVSPropertyOp57
 70
     1
102
RTVSPost2010Prop28
280
     0
102
RTVSPost2010PropOp28
 70
     1
102
RTVSPost2010Prop29
280
     1
102
RTVSPost2010PropOp29
 70
     1
102
RTVSPost2010Prop30
280
     1
102
RTVSPost2010PropOp30
 70
     1
102
RTVSPost2010Prop31
280
     0
102
RTVSPost2010PropOp31
 70
     1
102
RTVSPost2010Prop32
280
     0
102
RTVSPost2010PropOp32
 70
     1
102
RTVSPost2010Prop33
280
     0
102
RTVSPost2010PropOp33
 70
     1
102
RTVSPost2010Prop34
280
     0
102
RTVSPost2010PropOp34
 70
     1
102
RTVSPost2010Prop35
280
     0
102
RTVSPost2010PropOp35
 70
     1
102
RTVSPost2010Prop36
280
     0
102
RTVSPost2010PropOp36
 70
     1
102
RTVSPost2010Prop37
 90
       50
102
RTVSPost2010PropOp37
 70
     1
102
RTVSPost2010Prop38
140
0.0
102
RTVSPost2010PropOp38
 70
     1
102
RTVSPost2010Prop39
140
1.0
102
RTVSPost2010PropOp39
 70
     1
102
RTVSPost2010Prop40
 90
        0
102
RTVSPost2010PropOp40
 70
     1
102
RTVSPost2010Prop41ColorIndex
 90
       18
102
RTVSPost2010Prop41ColorRGB
 90
        0
102
RTVSPost2010PropOp41
 70
     1
102
RTVSPost2010Prop42
 90
       50
102
RTVSPost2010PropOp42
 70
     1
102
RTVSPost2010Prop43
 90
        3
102
RTVSPost2010PropOp43
 70
     1
102
RTVSPost2010Prop44ColorIndex
 90
        5
102
RTVSPost2010Prop44ColorRGB
 90
      255
102
RTVSPost2010PropOp44
 70
     1
102
RTVSPost2010Prop45
280
     0
102
RTVSPost2010PropOp45
 70
     1
102
RTVSPost2010Prop46
 90
       50
102
RTVSPost2010PropOp46
 70
     1
102
RTVSPost2010Prop47
 90
       50
102
RTVSPost2010PropOp47
 70
     1
102
RTVSPost2010Prop48
 90
       50
102
RTVSPost2010PropOp48
 70
     1
102
RTVSPost2010Prop49
280
     0
102
RTVSPost2010PropOp49
 70
     1
102
RTVSPost2010Prop50
 90
       50
102
RTVSPost2010PropOp50
 70
     1
102
RTVSPost2010Prop51ColorIndex
 90
      256
102
RTVSPost2010Prop51ColorRGB
 90
-16777216
102
RTVSPost2010PropOp51
 70
     0
102
RTVSPost2010Prop52
140
1.0
102
RTVSPost2010PropOp52
 70
     0
102
RTVSPost2010Prop53
 90
        2
102
RTVSPost2010PropOp53
 70
     1
102
RTVSPost2010Prop54
  1
strokes_ogs.tif
102
RTVSPost2010PropOp54
 70
     1
102
RTVSPost2010Prop55
280
     0
102
RTVSPost2010PropOp55
 70
     1
102
RTVSPost2010Prop56
140
1.0
102
RTVSPost2010PropOp56
 70
     1
102
RTVSPost2010Prop57
140
1.0
102
RTVSPost2010PropOp57
 70
     1
  0
XRECORD
  5
2FB
102
{ACAD_REACTORS
330
2FA
102
}
330
2FA
100
AcDbXrecord
280
     1
102
RTVSPropertyOp0
 70
     1
102
RTVSPropertyOp1
 70
     1
102
RTVSPropertyOp2
 70
     1
102
RTVSPropertyOp3
 70
     1
102
RTVSPropertyOp4
 70
     1
102
RTVSPropertyOp5
 70
     1
102
RTVSPropertyOp6
 70
     1
102
RTVSPropertyOp7
 70
     1
102
RTVSPropertyOp8
 70
     1
102
RTVSPropertyOp9
 70
     1
102
RTVSPropertyOp10
 70
     1
102
RTVSPropertyOp11
 70
     1
102
RTVSPropertyOp12
 70
     1
102
RTVSPropertyOp13
 70
     1
102
RTVSPropertyOp14
 70
     1
102
RTVSPropertyOp15
 70
     1
102
RTVSPropertyOp16
 70
     1
102
RTVSPropertyOp17
 70
     1
102
RTVSPropertyOp18
 70
     1
102
RTVSPropertyOp19
 70
     1
102
RTVSPropertyOp20
 70
     1
102
RTVSPropertyOp21
 70
     1
102
RTVSPropertyOp22
 70
     1
102
RTVSPropertyOp23
 70
     1
102
RTVSPropertyOp24
 70
     1
102
RTVSPropertyOp25
 70
     1
102
RTVSPropertyOp26
 70
     1
102
RTVSPropertyOp27
 70
     1
102
RTVSPropertyOp28
 70
     1
102
RTVSPropertyOp29
 70
     1
102
RTVSPropertyOp30
 70
     1
102
RTVSPropertyOp31
 70
     1
102
RTVSPropertyOp32
 70
     1
102
RTVSPropertyOp33
 70
     1
102
RTVSPropertyOp34
 70
     1
102
RTVSPropertyOp35
 70
     1
102
RTVSPropertyOp36
 70
     1
102
RTVSPropertyOp37
 70
     1
102
RTVSPropertyOp38
 70
     1
102
RTVSPropertyOp39
 70
     1
102
RTVSPropertyOp40
 70
     1
102
RTVSPropertyOp41
 70
     1
102
RTVSPropertyOp42
 70
     1
102
RTVSPropertyOp43
 70
     1
102
RTVSPropertyOp44
 70
     1
102
RTVSPropertyOp45
 70
     1
102
RTVSPropertyOp46
 70
     1
102
RTVSPropertyOp47
 70
     1
102
RTVSPropertyOp48
 70
     1
102
RTVSPropertyOp49
 70
     1
102
RTVSPropertyOp50
 70
     1
102
RTVSPropertyOp51
 70
     0
102
RTVSPropertyOp52
 70
     0
102
RTVSPropertyOp53
 70
     1
102
RTVSPropertyOp54
 70
     1
102
RTVSPropertyOp55
 70
     1
102
RTVSPropertyOp56
 70
     1
102
RTVSPropertyOp57
 70
     1
102
RTVSPost2010Prop28
280
     0
102
RTVSPost2010PropOp28
 70
     1
102
RTVSPost2010Prop29
280
     1
102
RTVSPost2010PropOp29
 70
     1
102
RTVSPost2010Prop30
280
     1
102
RTVSPost2010PropOp30
 70
     1
102
RTVSPost2010Prop31
280
     0
102
RTVSPost2010PropOp31
 70
     1
102
RTVSPost2010Prop32
280
     0
102
RTVSPost2010PropOp32
 70
     1
102
RTVSPost2010Prop33
280
     0
102
RTVSPost2010PropOp33
 70
     1
102
RTVSPost2010Prop34
280
     0
102
RTVSPost2010PropOp34
 70
     1
102
RTVSPost2010Prop35
280
     0
102
RTVSPost2010PropOp35
 70
     1
102
RTVSPost2010Prop36
280
     0
102
RTVSPost2010PropOp36
 70
     1
102
RTVSPost2010Prop37
 90
       50
102
RTVSPost2010PropOp37
 70
     1
102
RTVSPost2010Prop38
140
0.0
102
RTVSPost2010PropOp38
 70
     1
102
RTVSPost2010Prop39
140
1.0
102
RTVSPost2010PropOp39
 70
     1
102
RTVSPost2010Prop40
 90
        0
102
RTVSPost2010PropOp40
 70
     1
102
RTVSPost2010Prop41ColorIndex
 90
       18
102
RTVSPost2010Prop41ColorRGB
 90
        0
102
RTVSPost2010PropOp41
 70
     1
102
RTVSPost2010Prop42
 90
       50
102
RTVSPost2010PropOp42
 70
     1
102
RTVSPost2010Prop43
 90
        3
102
RTVSPost2010PropOp43
 70
     1
102
RTVSPost2010Prop44ColorIndex
 90
        5
102
RTVSPost2010Prop44ColorRGB
 90
      255
102
RTVSPost2010PropOp44
 70
     1
102
RTVSPost2010Prop45
280
     0
102
RTVSPost2010PropOp45
 70
     1
102
RTVSPost2010Prop46
 90
       50
102
RTVSPost2010PropOp46
 70
     1
102
RTVSPost2010Prop47
 90
       50
102
RTVSPost2010PropOp47
 70
     1
102
RTVSPost2010Prop48
 90
       50
102
RTVSPost2010PropOp48
 70
     1
102
RTVSPost2010Prop49
280
     0
102
RTVSPost2010PropOp49
 70
     1
102
RTVSPost2010Prop50
 90
       50
102
RTVSPost2010PropOp50
 70
     1
102
RTVSPost2010Prop51ColorIndex
 90
      256
102
RTVSPost2010Prop51ColorRGB
 90
-16777216
102
RTVSPost2010PropOp51
 70
     0
102
RTVSPost2010Prop52
140
1.0
102
RTVSPost2010PropOp52
 70
     0
102
RTVSPost2010Prop53
 90
        2
102
RTVSPost2010PropOp53
 70
     1
102
RTVSPost2010Prop54
  1
strokes_ogs.tif
102
RTVSPost2010PropOp54
 70
     1
102
RTVSPost2010Prop55
280
     0
102
RTVSPost2010PropOp55
 70
     1
102
RTVSPost2010Prop56
140
1.0
102
RTVSPost2010PropOp56
 70
     1
102
RTVSPost2010Prop57
140
1.0
102
RTVSPost2010PropOp57
 70
     1
  0
ENDSEC
  0
EOF
