  0
SECTION
  2
HEADER
  9
$ACADVER
  1
AC1015
  9
$ACADMAINTVER
 70
     6
  9
$DWGCODEPAGE
  3
ANSI_1252
  9
$INSBASE
 10
0.0
 20
0.0
 30
0.0
  9
$EXTMIN
 10
0.0
 20
0.0
 30
0.0
  9
$EXTMAX
 10
796.463745
 20
981.061218
 30
0.0
  9
$LIMMIN
 10
0.0
 20
0.0
  9
$LIMMAX
 10
796.463745
 20
981.061218
  9
$ORTHOMODE
 70
     0
  9
$REGENMODE
 70
     1
  9
$FILLMODE
 70
     1
  9
$QTEXTMODE
 70
     0
  9
$MIRRTEXT
 70
     1
  9
$LTSCALE
 40
1.0
  9
$ATTMODE
 70
     1
  9
$TEXTSIZE
 40
2.5
  9
$TRACEWID
 40
1.0
  9
$TEXTSTYLE
  7
Standard
  9
$CLAYER
  8
0
  9
$CELTYPE
  6
ByLayer
  9
$CECOLOR
 62
   256
  9
$CELTSCALE
 40
1.0
  9
$DISPSILH
 70
     0
  9
$DIMSCALE
 40
1.0
  9
$DIMASZ
 40
2.5
  9
$DIMEXO
 40
0.625
  9
$DIMDLI
 40
3.75
  9
$DIMRND
 40
0.0
  9
$DIMDLE
 40
0.0
  9
$DIMEXE
 40
1.25
  9
$DIMTP
 40
0.0
  9
$DIMTM
 40
0.0
  9
$DIMTXT
 40
2.5
  9
$DIMCEN
 40
2.5
  9
$DIMTSZ
 40
0.0
  9
$DIMTOL
 70
     0
  9
$DIMLIM
 70
     0
  9
$DIMTIH
 70
     0
  9
$DIMTOH
 70
     0
  9
$DIMSE1
 70
     0
  9
$DIMSE2
 70
     0
  9
$DIMTAD
 70
     1
  9
$DIMZIN
 70
     8
  9
$DIMBLK
  1

  9
$DIMASO
 70
     1
  9
$DIMSHO
 70
     1
  9
$DIMPOST
  1

  9
$DIMAPOST
  1

  9
$DIMALT
 70
     0
  9
$DIMALTD
 70
     3
  9
$DIMALTF
 40
0.03937
  9
$DIMLFAC
 40
1.0
  9
$DIMTOFL
 70
     1
  9
$DIMTVP
 40
0.0
  9
$DIMTIX
 70
     0
  9
$DIMSOXD
 70
     0
  9
$DIMSAH
 70
     0
  9
$DIMBLK1
  1

  9
$DIMBLK2
  1

  9
$DIMSTYLE
  2
ISO-25
  9
$DIMCLRD
 70
     0
  9
$DIMCLRE
 70
     0
  9
$DIMCLRT
 70
     0
  9
$DIMTFAC
 40
1.0
  9
$DIMGAP
 40
0.625
  9
$DIMJUST
 70
     0
  9
$DIMSD1
 70
     0
  9
$DIMSD2
 70
     0
  9
$DIMTOLJ
 70
     0
  9
$DIMTZIN
 70
     8
  9
$DIMALTZ
 70
     0
  9
$DIMALTTZ
 70
     0
  9
$DIMUPT
 70
     0
  9
$DIMDEC
 70
     2
  9
$DIMTDEC
 70
     2
  9
$DIMALTU
 70
     2
  9
$DIMALTTD
 70
     3
  9
$DIMTXSTY
  7
Standard
  9
$DIMAUNIT
 70
     0
  9
$DIMADEC
 70
     0
  9
$DIMALTRND
 40
0.0
  9
$DIMAZIN
 70
     0
  9
$DIMDSEP
 70
    44
  9
$DIMATFIT
 70
     3
  9
$DIMFRAC
 70
     0
  9
$DIMLDRBLK
  1

  9
$DIMLUNIT
 70
     2
  9
$DIMLWD
 70
    -2
  9
$DIMLWE
 70
    -2
  9
$DIMTMOVE
 70
     0
  9
$LUNITS
 70
     2
  9
$LUPREC
 70
     4
  9
$SKETCHINC
 40
1.0
  9
$FILLETRAD
 40
10.0
  9
$AUNITS
 70
     0
  9
$AUPREC
 70
     0
  9
$MENU
  1
.
  9
$ELEVATION
 40
0.0
  9
$PELEVATION
 40
0.0
  9
$THICKNESS
 40
0.0
  9
$LIMCHECK
 70
     0
  9
$CHAMFERA
 40
0.0
  9
$CHAMFERB
 40
0.0
  9
$CHAMFERC
 40
0.0
  9
$CHAMFERD
 40
0.0
  9
$SKPOLY
 70
     0
  9
$TDCREATE
 40
2459531.348024259
  9
$TDUCREATE
 40
2459531.306357593
  9
$TDUPDATE
 40
2459531.348026053
  9
$TDUUPDATE
 40
2459531.306359387
  9
$TDINDWG
 40
0.0000000116
  9
$TDUSRTIMER
 40
0.0000000116
  9
$USRTIMER
 70
     1
  9
$ANGBASE
 50
0.0
  9
$ANGDIR
 70
     0
  9
$PDMODE
 70
     0
  9
$PDSIZE
 40
0.0
  9
$PLINEWID
 40
0.0
  9
$SPLFRAME
 70
     0
  9
$SPLINETYPE
 70
     6
  9
$SPLINESEGS
 70
     8
  9
$HANDSEED
  5
30F
  9
$SURFTAB1
 70
     6
  9
$SURFTAB2
 70
     6
  9
$SURFTYPE
 70
     6
  9
$SURFU
 70
     6
  9
$SURFV
 70
     6
  9
$UCSBASE
  2

  9
$UCSNAME
  2

  9
$UCSORG
 10
0.0
 20
0.0
 30
0.0
  9
$UCSXDIR
 10
1.0
 20
0.0
 30
0.0
  9
$UCSYDIR
 10
0.0
 20
1.0
 30
0.0
  9
$UCSORTHOREF
  2

  9
$UCSORTHOVIEW
 70
     0
  9
$UCSORGTOP
 10
0.0
 20
0.0
 30
0.0
  9
$UCSORGBOTTOM
 10
0.0
 20
0.0
 30
0.0
  9
$UCSORGLEFT
 10
0.0
 20
0.0
 30
0.0
  9
$UCSORGRIGHT
 10
0.0
 20
0.0
 30
0.0
  9
$UCSORGFRONT
 10
0.0
 20
0.0
 30
0.0
  9
$UCSORGBACK
 10
0.0
 20
0.0
 30
0.0
  9
$PUCSBASE
  2

  9
$PUCSNAME
  2

  9
$PUCSORG
 10
0.0
 20
0.0
 30
0.0
  9
$PUCSXDIR
 10
1.0
 20
0.0
 30
0.0
  9
$PUCSYDIR
 10
0.0
 20
1.0
 30
0.0
  9
$PUCSORTHOREF
  2

  9
$PUCSORTHOVIEW
 70
     0
  9
$PUCSORGTOP
 10
0.0
 20
0.0
 30
0.0
  9
$PUCSORGBOTTOM
 10
0.0
 20
0.0
 30
0.0
  9
$PUCSORGLEFT
 10
0.0
 20
0.0
 30
0.0
  9
$PUCSORGRIGHT
 10
0.0
 20
0.0
 30
0.0
  9
$PUCSORGFRONT
 10
0.0
 20
0.0
 30
0.0
  9
$PUCSORGBACK
 10
0.0
 20
0.0
 30
0.0
  9
$USERI1
 70
     0
  9
$USERI2
 70
     0
  9
$USERI3
 70
     0
  9
$USERI4
 70
     0
  9
$USERI5
 70
     0
  9
$USERR1
 40
0.0
  9
$USERR2
 40
0.0
  9
$USERR3
 40
0.0
  9
$USERR4
 40
0.0
  9
$USERR5
 40
0.0
  9
$WORLDVIEW
 70
     1
  9
$SHADEDGE
 70
     3
  9
$SHADEDIF
 70
    70
  9
$TILEMODE
 70
     1
  9
$MAXACTVP
 70
    64
  9
$PINSBASE
 10
0.0
 20
0.0
 30
0.0
  9
$PLIMCHECK
 70
     0
  9
$PEXTMIN
 10
1.000000E+20
 20
1.000000E+20
 30
1.000000E+20
  9
$PEXTMAX
 10
-1.000000E+20
 20
-1.000000E+20
 30
-1.000000E+20
  9
$PLIMMIN
 10
0.0
 20
0.0
  9
$PLIMMAX
 10
420.0
 20
297.0
  9
$UNITMODE
 70
     0
  9
$VISRETAIN
 70
     1
  9
$PLINEGEN
 70
     0
  9
$PSLTSCALE
 70
     1
  9
$TREEDEPTH
 70
  3020
  9
$CMLSTYLE
  2
Standard
  9
$CMLJUST
 70
     0
  9
$CMLSCALE
 40
20.0
  9
$PROXYGRAPHICS
 70
     1
  9
$MEASUREMENT
 70
     1
  9
$CELWEIGHT
370
    -1
  9
$ENDCAPS
280
     0
  9
$JOINSTYLE
280
     0
  9
$LWDISPLAY
290
     0
  9
$INSUNITS
 70
     4
  9
$HYPERLINKBASE
  1

  9
$STYLESHEET
  1

  9
$XEDIT
290
     1
  9
$CEPSNTYPE
380
     0
  9
$PSTYLEMODE
290
     1
  9
$FINGERPRINTGUID
  2
{b887eeef-f029-4b0a-8edc-16b607abfa25}
  9
$VERSIONGUID
  2
{FAEB1C32-E019-11D5-929B-00C0DF256EC4}
  9
$EXTNAMES
290
     1
  9
$PSVPSCALE
 40
0.0
  9
$OLESTARTUP
290
     0
  0
ENDSEC
  0
SECTION
  2
CLASSES
  0
CLASS
  1
ACDBDICTIONARYWDFLT
  2
AcDbDictionaryWithDefault
  3
ObjectDBX Classes
 90
        0
280
     0
281
     0
  0
CLASS
  1
VISUALSTYLE
  2
AcDbVisualStyle
  3
ObjectDBX Classes
 90
     4095
280
     0
281
     0
  0
CLASS
  1
MATERIAL
  2
AcDbMaterial
  3
ObjectDBX Classes
 90
     1153
280
     0
281
     0
  0
CLASS
  1
SCALE
  2
AcDbScale
  3
ObjectDBX Classes
 90
     1153
280
     0
281
     0
  0
CLASS
  1
TABLESTYLE
  2
AcDbTableStyle
  3
ObjectDBX Classes
 90
     4095
280
     0
281
     0
  0
CLASS
  1
MLEADERSTYLE
  2
AcDbMLeaderStyle
  3
ACDB_MLEADERSTYLE_CLASS
 90
     4095
280
     0
281
     0
  0
CLASS
  1
SUN
  2
AcDbSun
  3
SCENEOE
 90
     1153
280
     0
281
     0
  0
CLASS
  1
DICTIONARYVAR
  2
AcDbDictionaryVar
  3
ObjectDBX Classes
 90
        0
280
     0
281
     0
  0
CLASS
  1
ACDBPLACEHOLDER
  2
AcDbPlaceHolder
  3
ObjectDBX Classes
 90
        0
280
     0
281
     0
  0
CLASS
  1
LAYOUT
  2
AcDbLayout
  3
ObjectDBX Classes
 90
        0
280
     0
281
     0
  0
ENDSEC
  0
SECTION
  2
TABLES
  0
TABLE
  2
VPORT
  5
8
102
{ACAD_XDICTIONARY
360
2D2
102
}
330
0
100
AcDbSymbolTable
 70
     1
  0
VPORT
  5
29
330
8
100
AcDbSymbolTableRecord
100
AcDbViewportTableRecord
  2
*Active
 70
     0
 10
0.0
 20
0.0
 11
1.0
 21
1.0
 12
344.186916
 22
148.5
 13
0.0
 23
0.0
 14
10.0
 24
10.0
 15
10.0
 25
10.0
 16
0.0
 26
0.0
 36
1.0
 17
0.0
 27
0.0
 37
0.0
 40
297.0
 41
1.972973
 42
50.0
 43
0.0
 44
0.0
 50
0.0
 51
0.0
 71
     0
 72
   100
 73
     1
 74
     3
 75
     0
 76
     0
 77
     0
 78
     0
281
     0
 65
     1
110
0.0
120
0.0
130
0.0
111
1.0
121
0.0
131
0.0
112
0.0
122
1.0
132
0.0
 79
     0
146
0.0
  0
ENDTAB
  0
TABLE
  2
LTYPE
  5
5
330
0
100
AcDbSymbolTable
 70
     1
  0
LTYPE
  5
14
330
5
100
AcDbSymbolTableRecord
100
AcDbLinetypeTableRecord
  2
ByBlock
 70
     0
  3

 72
    65
 73
     0
 40
0.0
  0
LTYPE
  5
15
330
5
100
AcDbSymbolTableRecord
100
AcDbLinetypeTableRecord
  2
ByLayer
 70
     0
  3

 72
    65
 73
     0
 40
0.0
  0
LTYPE
  5
16
330
5
100
AcDbSymbolTableRecord
100
AcDbLinetypeTableRecord
  2
Continuous
 70
     0
  3
Solid line
 72
    65
 73
     0
 40
0.0
  0
ENDTAB
  0
TABLE
  2
LAYER
  5
2
330
0
100
AcDbSymbolTable
 70
     1
  0
LAYER
  5
10
330
2
100
AcDbSymbolTableRecord
100
AcDbLayerTableRecord
  2
0
 70
     0
 62
   102
  6
Continuous
370
     0
390
F
  0
ENDTAB
  0
TABLE
  2
STYLE
  5
3
330
0
100
AcDbSymbolTable
 70
     4
  0
STYLE
  5
11
330
3
100
AcDbSymbolTableRecord
100
AcDbTextStyleTableRecord
  2
Standard
 70
     0
 40
0.0
 41
1.0
 50
0.0
 71
     0
 42
2.5
  3
txt
  4

1001
ACAD
1000
txt
1071
        0
  0
STYLE
  5
6E
330
3
100
AcDbSymbolTableRecord
100
AcDbTextStyleTableRecord
  2
Default
 70
     0
 40
0.0
 41
1.0
 50
0.0
 71
     0
 42
2.5
  3

  4

1001
ACAD
1000
txt
1071
        0
  0
STYLE
  5
6F
330
3
100
AcDbSymbolTableRecord
100
AcDbTextStyleTableRecord
  2
ISO
 70
     0
 40
0.0
 41
1.0
 50
0.0
 71
     0
 42
2.5
  3

  4

1001
ACAD
1000
txt
1071
        0
  0
STYLE
  5
70
330
3
100
AcDbSymbolTableRecord
100
AcDbTextStyleTableRecord
  2
zucchetti
 70
     0
 40
0.0
 41
1.0
 50
0.0
 71
     0
 42
2.5
  3

  4

1001
ACAD
1000
Arial
1071
        0
  0
ENDTAB
  0
TABLE
  2
VIEW
  5
6
330
0
100
AcDbSymbolTable
 70
     0
  0
ENDTAB
  0
TABLE
  2
UCS
  5
7
330
0
100
AcDbSymbolTable
 70
     0
  0
ENDTAB
  0
TABLE
  2
APPID
  5
9
330
0
100
AcDbSymbolTable
 70
     2
  0
APPID
  5
12
330
9
100
AcDbSymbolTableRecord
100
AcDbRegAppTableRecord
  2
ACAD
 70
     0
  0
APPID
  5
30C
330
9
100
AcDbSymbolTableRecord
100
AcDbRegAppTableRecord
  2
ACAD_MLEADERVER
 70
     0
  0
ENDTAB
  0
TABLE
  2
DIMSTYLE
  5
A
330
0
100
AcDbSymbolTable
 70
     6
100
AcDbDimStyleTable
  0
DIMSTYLE
105
27
330
A
100
AcDbSymbolTableRecord
100
AcDbDimStyleTableRecord
  2
ISO-25
 70
     0
 41
2.5
 42
0.625
 43
3.75
 44
1.25
 73
     0
 74
     0
 77
     1
 78
     8
140
2.5
141
2.5
143
0.03937
147
0.625
171
     3
172
     1
178
     0
271
     2
272
     2
274
     3
278
    44
283
     0
284
     8
340
11
  0
DIMSTYLE
105
71
330
A
100
AcDbSymbolTableRecord
100
AcDbDimStyleTableRecord
  2
Default
 70
     0
  3
<>
 41
4.375
 42
1.05
 44
2.1
 73
     0
 74
     0
 77
     1
 78
     8
140
3.5
146
0.4
147
1.75
172
     1
271
     2
178
     2
271
     2
272
     3
284
     8
340
6E
341
72
342
72
  0
DIMSTYLE
105
79
330
A
100
AcDbSymbolTableRecord
100
AcDbDimStyleTableRecord
  2
faultDimensionStyle
 70
     0
  3
<>
 41
2.5
 42
0.875
 44
1.75
 73
     0
 74
     0
 77
     1
 78
     8
140
3.5
147
1.75
172
     1
271
     2
178
     2
271
     2
272
     2
278
    44
284
     8
340
11
  0
DIMSTYLE
105
7A
330
A
100
AcDbSymbolTableRecord
100
AcDbDimStyleTableRecord
  2
DefaultDimensionStyle
 70
     0
  3
<>
 41
2.5
 42
0.875
 44
1.75
 73
     0
 74
     0
 77
     1
 78
     8
140
3.5
147
1.75
172
     1
271
     2
178
     2
271
     2
272
     2
278
    44
284
     8
340
11
  0
DIMSTYLE
105
7B
330
A
100
AcDbSymbolTableRecord
100
AcDbDimStyleTableRecord
  2
ISO
 70
     0
  3
<>
 41
4.375
 42
1.05
 44
2.1
 73
     0
 74
     0
 77
     1
 78
     8
140
3.5
146
0.4
147
1.75
172
     1
271
     2
178
     2
271
     2
272
     3
284
     8
340
6F
341
72
342
72
  0
DIMSTYLE
105
7C
330
A
100
AcDbSymbolTableRecord
100
AcDbDimStyleTableRecord
  2
zucchetti
 70
     0
  3
<>
 41
3.0
 42
1.05
 44
2.1
 73
     0
 74
     0
 77
     1
 78
     8
140
3.5
146
0.6
147
1.75
172
     1
271
     2
178
     2
271
     2
272
     2
284
     8
340
70
  0
ENDTAB
  0
TABLE
  2
BLOCK_RECORD
  5
1
330
0
100
AcDbSymbolTable
 70
     7
  0
BLOCK_RECORD
  5
1F
330
1
100
AcDbSymbolTableRecord
100
AcDbBlockTableRecord
  2
*Model_Space
340
22
  0
BLOCK_RECORD
  5
1B
330
1
100
AcDbSymbolTableRecord
100
AcDbBlockTableRecord
  2
*Paper_Space
340
1E
  0
BLOCK_RECORD
  5
23
330
1
100
AcDbSymbolTableRecord
100
AcDbBlockTableRecord
  2
*Paper_Space0
340
26
  0
BLOCK_RECORD
  5
72
330
1
100
AcDbSymbolTableRecord
100
AcDbBlockTableRecord
  2
_Closed
340
0
  0
BLOCK_RECORD
  5
7D
330
1
100
AcDbSymbolTableRecord
100
AcDbBlockTableRecord
  2
a
340
0
102
{BLKREFS
331
D6
102
}
  0
BLOCK_RECORD
  5
D7
330
1
100
AcDbSymbolTableRecord
100
AcDbBlockTableRecord
  2
b
340
0
102
{BLKREFS
331
144
102
}
  0
BLOCK_RECORD
  5
145
330
1
100
AcDbSymbolTableRecord
100
AcDbBlockTableRecord
  2
c
340
0
102
{BLKREFS
331
1B0
102
}
  0
BLOCK_RECORD
  5
1B1
330
1
100
AcDbSymbolTableRecord
100
AcDbBlockTableRecord
  2
d
340
0
102
{BLKREFS
331
25A
102
}
  0
BLOCK_RECORD
  5
25B
330
1
100
AcDbSymbolTableRecord
100
AcDbBlockTableRecord
  2
c1
340
0
102
{BLKREFS
331
2C6
102
}
  0
ENDTAB
  0
ENDSEC
  0
SECTION
  2
BLOCKS
  0
BLOCK
  5
20
330
1F
100
AcDbEntity
  8
0
100
AcDbBlockBegin
  2
*Model_Space
 70
     0
 10
0.0
 20
0.0
 30
0.0
  3
*Model_Space
  1

  0
ENDBLK
  5
21
330
1F
100
AcDbEntity
  8
0
100
AcDbBlockEnd
  0
BLOCK
  5
1C
330
1B
100
AcDbEntity
 67
     1
  8
0
100
AcDbBlockBegin
  2
*Paper_Space
 70
     0
 10
0.0
 20
0.0
 30
0.0
  3
*Paper_Space
  1

  0
ENDBLK
  5
1D
330
1B
100
AcDbEntity
 67
     1
  8
0
100
AcDbBlockEnd
  0
BLOCK
  5
24
330
23
100
AcDbEntity
  8
0
100
AcDbBlockBegin
  2
*Paper_Space0
 70
     0
 10
0.0
 20
0.0
 30
0.0
  3
*Paper_Space0
  1

  0
ENDBLK
  5
25
330
23
100
AcDbEntity
  8
0
100
AcDbBlockEnd
  0
BLOCK
  5
73
330
72
100
AcDbEntity
  8
0
100
AcDbBlockBegin
  2
_Closed
 70
     0
 10
0.0
 20
0.0
 30
0.0
  3
_Closed
  1

  0
LINE
  5
75
330
72
100
AcDbEntity
  8
0
  6
ByBlock
 62
     0
370
    -2
100
AcDbLine
 10
-1.0
 20
0.166667
 30
0.0
 11
0.0
 21
0.0
 31
0.0
  0
LINE
  5
76
330
72
100
AcDbEntity
  8
0
  6
ByBlock
 62
     0
370
    -2
100
AcDbLine
 10
0.0
 20
0.0
 30
0.0
 11
-1.0
 21
-0.166667
 31
0.0
  0
LINE
  5
77
330
72
100
AcDbEntity
  8
0
  6
ByBlock
 62
     0
370
    -2
100
AcDbLine
 10
-1.0
 20
0.166667
 30
0.0
 11
-1.0
 21
-0.166667
 31
0.0
  0
LINE
  5
78
330
72
100
AcDbEntity
  8
0
  6
ByBlock
 62
     0
370
    -2
100
AcDbLine
 10
0.0
 20
0.0
 30
0.0
 11
-1.0
 21
0.0
 31
0.0
  0
ENDBLK
  5
74
330
72
100
AcDbEntity
  8
0
100
AcDbBlockEnd
  0
BLOCK
  5
D4
330
7D
100
AcDbEntity
  8
0
100
AcDbBlockBegin
  2
a
 70
     0
 10
1686.230835
 20
722.246704
 30
0.0
  3
a
  1

  0
LINE
  5
7E
330
7D
100
AcDbEntity
  8
0
  6
Continuous
 62
     0
370
     0
100
AcDbLine
 10
509.851291
 20
679.791481
 30
0.0
 11
509.151291
 21
679.791481
 31
0.0
  0
LINE
  5
7F
330
7D
100
AcDbEntity
  8
0
  6
Continuous
 62
     0
370
     0
100
AcDbLine
 10
509.851291
 20
705.591489
 30
0.0
 11
509.851291
 21
679.791481
 31
0.0
  0
LINE
  5
80
330
7D
100
AcDbEntity
  8
0
  6
Continuous
 62
     0
370
     0
100
AcDbLine
 10
509.851291
 20
705.591489
 30
0.0
 11
509.151291
 21
705.591489
 31
0.0
  0
LINE
  5
81
330
7D
100
AcDbEntity
  8
0
  6
Continuous
 62
     0
370
    30
100
AcDbLine
 10
509.151291
 20
705.591489
 30
0.0
 11
509.151291
 21
679.791481
 31
0.0
  0
LINE
  5
82
330
7D
100
AcDbEntity
  8
0
  6
Continuous
 62
     0
370
    30
100
AcDbLine
 10
521.451291
 20
706.291489
 30
0.0
 11
509.851291
 21
706.291489
 31
0.0
  0
LINE
  5
83
330
7D
100
AcDbEntity
  8
0
  6
Continuous
 62
     0
370
     0
100
AcDbLine
 10
509.851291
 20
706.291489
 30
0.0
 11
509.851291
 21
705.591489
 31
0.0
  0
LINE
  5
84
330
7D
100
AcDbEntity
  8
0
  6
Continuous
 62
     0
370
     0
100
AcDbLine
 10
521.451291
 20
705.591489
 30
0.0
 11
509.851291
 21
705.591489
 31
0.0
  0
LINE
  5
85
330
7D
100
AcDbEntity
  8
0
  6
Continuous
 62
     0
370
     0
100
AcDbLine
 10
521.451291
 20
706.291489
 30
0.0
 11
521.451291
 21
705.591489
 31
0.0
  0
ARC
  5
86
330
7D
100
AcDbEntity
  8
0
  6
Continuous
 62
     0
370
    30
100
AcDbCircle
 10
509.851291
 20
705.591489
 30
0.0
 40
0.699999988079071
100
AcDbArc
 50
90.0
 51
180.0
  0
LINE
  5
87
330
7D
100
AcDbEntity
  8
0
  6
Continuous
 62
     0
370
    30
100
AcDbLine
 10
522.151291
 20
705.591489
 30
0.0
 11
522.151291
 21
679.791481
 31
0.0
  0
LINE
  5
88
330
7D
100
AcDbEntity
  8
0
  6
Continuous
 62
     0
370
     0
100
AcDbLine
 10
522.151291
 20
705.591489
 30
0.0
 11
521.451291
 21
705.591489
 31
0.0
  0
LINE
  5
89
330
7D
100
AcDbEntity
  8
0
  6
Continuous
 62
     0
370
     0
100
AcDbLine
 10
521.451291
 20
705.591489
 30
0.0
 11
521.451291
 21
679.791481
 31
0.0
  0
LINE
  5
8A
330
7D
100
AcDbEntity
  8
0
  6
Continuous
 62
     0
370
     0
100
AcDbLine
 10
521.451291
 20
679.791481
 30
0.0
 11
522.151291
 21
679.791481
 31
0.0
  0
ARC
  5
8B
330
7D
100
AcDbEntity
  8
0
  6
Continuous
 62
     0
370
    30
100
AcDbCircle
 10
521.451291
 20
705.591489
 30
0.0
 40
0.6999999880790782
100
AcDbArc
 50
0.0
 51
90.0
  0
LINE
  5
8C
330
7D
100
AcDbEntity
  8
0
  6
Continuous
 62
     0
370
     0
100
AcDbLine
 10
524.151291
 20
677.091481
 30
0.0
 11
524.151291
 21
677.791481
 31
0.0
  0
LINE
  5
8D
330
7D
100
AcDbEntity
  8
0
  6
Continuous
 62
     0
370
     0
100
AcDbLine
 10
549.951283
 20
677.091481
 30
0.0
 11
524.151291
 21
677.091481
 31
0.0
  0
LINE
  5
8E
330
7D
100
AcDbEntity
  8
0
  6
Continuous
 62
     0
370
     0
100
AcDbLine
 10
549.951283
 20
677.091481
 30
0.0
 11
549.951283
 21
677.791481
 31
0.0
  0
LINE
  5
8F
330
7D
100
AcDbEntity
  8
0
  6
Continuous
 62
     0
370
    30
100
AcDbLine
 10
549.951283
 20
677.791481
 30
0.0
 11
524.151291
 21
677.791481
 31
0.0
  0
LINE
  5
90
330
7D
100
AcDbEntity
  8
0
  6
Continuous
 62
     0
370
    30
100
AcDbLine
 10
550.651283
 20
665.491481
 30
0.0
 11
550.651283
 21
677.091481
 31
0.0
  0
LINE
  5
91
330
7D
100
AcDbEntity
  8
0
  6
Continuous
 62
     0
370
     0
100
AcDbLine
 10
550.651283
 20
677.091481
 30
0.0
 11
549.951283
 21
677.091481
 31
0.0
  0
LINE
  5
92
330
7D
100
AcDbEntity
  8
0
  6
Continuous
 62
     0
370
     0
100
AcDbLine
 10
549.951283
 20
665.491481
 30
0.0
 11
549.951283
 21
677.091481
 31
0.0
  0
LINE
  5
93
330
7D
100
AcDbEntity
  8
0
  6
Continuous
 62
     0
370
     0
100
AcDbLine
 10
550.651283
 20
665.491481
 30
0.0
 11
549.951283
 21
665.491481
 31
0.0
  0
ARC
  5
94
330
7D
100
AcDbEntity
  8
0
  6
Continuous
 62
     0
370
    30
100
AcDbCircle
 10
549.951283
 20
677.091481
 30
0.0
 40
0.699999988079071
100
AcDbArc
 50
0.0
 51
90.0
  0
LINE
  5
95
330
7D
100
AcDbEntity
  8
0
  6
Continuous
 62
     0
370
    30
100
AcDbLine
 10
549.951283
 20
664.791481
 30
0.0
 11
524.151291
 21
664.791481
 31
0.0
  0
LINE
  5
96
330
7D
100
AcDbEntity
  8
0
  6
Continuous
 62
     0
370
     0
100
AcDbLine
 10
549.951283
 20
664.791481
 30
0.0
 11
549.951283
 21
665.491481
 31
0.0
  0
LINE
  5
97
330
7D
100
AcDbEntity
  8
0
  6
Continuous
 62
     0
370
     0
100
AcDbLine
 10
549.951283
 20
665.491481
 30
0.0
 11
524.151291
 21
665.491481
 31
0.0
  0
LINE
  5
98
330
7D
100
AcDbEntity
  8
0
  6
Continuous
 62
     0
370
     0
100
AcDbLine
 10
524.151291
 20
665.491481
 30
0.0
 11
524.151291
 21
664.791481
 31
0.0
  0
ARC
  5
99
330
7D
100
AcDbEntity
  8
0
  6
Continuous
 62
     0
370
    30
100
AcDbCircle
 10
549.951283
 20
665.491481
 30
0.0
 40
0.6999999880790639
100
AcDbArc
 50
270.0
 51
0.0
  0
LINE
  5
9A
330
7D
100
AcDbEntity
  8
0
  6
Continuous
 62
     0
370
     0
100
AcDbLine
 10
522.151291
 20
662.791481
 30
0.0
 11
521.451291
 21
662.791481
 31
0.0
  0
LINE
  5
9B
330
7D
100
AcDbEntity
  8
0
  6
Continuous
 62
     0
370
     0
100
AcDbLine
 10
521.451291
 20
662.791481
 30
0.0
 11
521.451291
 21
636.991489
 31
0.0
  0
LINE
  5
9C
330
7D
100
AcDbEntity
  8
0
  6
Continuous
 62
     0
370
     0
100
AcDbLine
 10
522.151291
 20
636.991489
 30
0.0
 11
521.451291
 21
636.991489
 31
0.0
  0
LINE
  5
9D
330
7D
100
AcDbEntity
  8
0
  6
Continuous
 62
     0
370
    30
100
AcDbLine
 10
522.151291
 20
662.791481
 30
0.0
 11
522.151291
 21
636.991489
 31
0.0
  0
ARC
  5
9E
330
7D
100
AcDbEntity
  8
0
  6
Continuous
 62
     0
370
    30
100
AcDbCircle
 10
521.451291
 20
636.991489
 30
0.0
 40
0.6999999880790639
100
AcDbArc
 50
270.0
 51
360.0
  0
LINE
  5
9F
330
7D
100
AcDbEntity
  8
0
  6
Continuous
 62
     0
370
    30
100
AcDbLine
 10
521.451291
 20
636.291489
 30
0.0
 11
509.851291
 21
636.291489
 31
0.0
  0
LINE
  5
A0
330
7D
100
AcDbEntity
  8
0
  6
Continuous
 62
     0
370
     0
100
AcDbLine
 10
521.451291
 20
636.291489
 30
0.0
 11
521.451291
 21
636.991489
 31
0.0
  0
LINE
  5
A1
330
7D
100
AcDbEntity
  8
0
  6
Continuous
 62
     0
370
     0
100
AcDbLine
 10
521.451291
 20
636.991489
 30
0.0
 11
509.851291
 21
636.991489
 31
0.0
  0
LINE
  5
A2
330
7D
100
AcDbEntity
  8
0
  6
Continuous
 62
     0
370
     0
100
AcDbLine
 10
509.851291
 20
636.291489
 30
0.0
 11
509.851291
 21
636.991489
 31
0.0
  0
LINE
  5
A3
330
7D
100
AcDbEntity
  8
0
  6
Continuous
 62
     0
370
    30
100
AcDbLine
 10
507.151291
 20
677.791481
 30
0.0
 11
481.351283
 21
677.791481
 31
0.0
  0
LINE
  5
A4
330
7D
100
AcDbEntity
  8
0
  6
Continuous
 62
     0
370
     0
100
AcDbLine
 10
481.351283
 20
677.091481
 30
0.0
 11
481.351283
 21
677.791481
 31
0.0
  0
LINE
  5
A5
330
7D
100
AcDbEntity
  8
0
  6
Continuous
 62
     0
370
     0
100
AcDbLine
 10
507.151291
 20
677.091481
 30
0.0
 11
481.351283
 21
677.091481
 31
0.0
  0
LINE
  5
A6
330
7D
100
AcDbEntity
  8
0
  6
Continuous
 62
     0
370
     0
100
AcDbLine
 10
507.151291
 20
677.791481
 30
0.0
 11
507.151291
 21
677.091481
 31
0.0
  0
LINE
  5
A7
330
7D
100
AcDbEntity
  8
0
  6
Continuous
 62
     0
370
     0
100
AcDbLine
 10
480.651283
 20
665.491481
 30
0.0
 11
481.351283
 21
665.491481
 31
0.0
  0
LINE
  5
A8
330
7D
100
AcDbEntity
  8
0
  6
Continuous
 62
     0
370
     0
100
AcDbLine
 10
481.351283
 20
665.491481
 30
0.0
 11
481.351283
 21
677.091481
 31
0.0
  0
LINE
  5
A9
330
7D
100
AcDbEntity
  8
0
  6
Continuous
 62
     0
370
     0
100
AcDbLine
 10
480.651283
 20
677.091481
 30
0.0
 11
481.351283
 21
677.091481
 31
0.0
  0
LINE
  5
AA
330
7D
100
AcDbEntity
  8
0
  6
Continuous
 62
     0
370
    30
100
AcDbLine
 10
480.651283
 20
665.491481
 30
0.0
 11
480.651283
 21
677.091481
 31
0.0
  0
ARC
  5
AB
330
7D
100
AcDbEntity
  8
0
  6
Continuous
 62
     0
370
    30
100
AcDbCircle
 10
481.351283
 20
677.091481
 30
0.0
 40
0.6999999880790782
100
AcDbArc
 50
90.0
 51
180.0
  0
LINE
  5
AC
330
7D
100
AcDbEntity
  8
0
  6
Continuous
 62
     0
370
    30
100
AcDbLine
 10
509.151291
 20
662.791481
 30
0.0
 11
509.151291
 21
636.991489
 31
0.0
  0
LINE
  5
AD
330
7D
100
AcDbEntity
  8
0
  6
Continuous
 62
     0
370
     0
100
AcDbLine
 10
509.851291
 20
636.991489
 30
0.0
 11
509.151291
 21
636.991489
 31
0.0
  0
LINE
  5
AE
330
7D
100
AcDbEntity
  8
0
  6
Continuous
 62
     0
370
     0
100
AcDbLine
 10
509.851291
 20
662.791481
 30
0.0
 11
509.851291
 21
636.991489
 31
0.0
  0
LINE
  5
AF
330
7D
100
AcDbEntity
  8
0
  6
Continuous
 62
     0
370
     0
100
AcDbLine
 10
509.151291
 20
662.791481
 30
0.0
 11
509.851291
 21
662.791481
 31
0.0
  0
ARC
  5
B0
330
7D
100
AcDbEntity
  8
0
  6
Continuous
 62
     0
370
    30
100
AcDbCircle
 10
509.851291
 20
636.991489
 30
0.0
 40
0.699999988079071
100
AcDbArc
 50
180.0
 51
270.0
  0
LINE
  5
B1
330
7D
100
AcDbEntity
  8
0
  6
Continuous
 62
     0
370
     0
100
AcDbLine
 10
507.151291
 20
664.791481
 30
0.0
 11
507.151291
 21
665.491481
 31
0.0
  0
LINE
  5
B2
330
7D
100
AcDbEntity
  8
0
  6
Continuous
 62
     0
370
     0
100
AcDbLine
 10
507.151291
 20
665.491481
 30
0.0
 11
481.351283
 21
665.491481
 31
0.0
  0
LINE
  5
B3
330
7D
100
AcDbEntity
  8
0
  6
Continuous
 62
     0
370
     0
100
AcDbLine
 10
481.351283
 20
664.791481
 30
0.0
 11
481.351283
 21
665.491481
 31
0.0
  0
LINE
  5
B4
330
7D
100
AcDbEntity
  8
0
  6
Continuous
 62
     0
370
    30
100
AcDbLine
 10
507.151291
 20
664.791481
 30
0.0
 11
481.351283
 21
664.791481
 31
0.0
  0
ARC
  5
B5
330
7D
100
AcDbEntity
  8
0
  6
Continuous
 62
     0
370
    30
100
AcDbCircle
 10
481.351283
 20
665.491481
 30
0.0
 40
0.699999988079071
100
AcDbArc
 50
180.0
 51
270.0
  0
ARC
  5
B6
330
7D
100
AcDbEntity
  8
0
  6
Continuous
 62
     0
370
     0
100
AcDbCircle
 10
507.151291
 20
662.791481
 30
0.0
 40
2.699999988079074
100
AcDbArc
 50
0.0
 51
90.0
  0
ARC
  5
B7
330
7D
100
AcDbEntity
  8
0
  6
Continuous
 62
     0
370
     0
100
AcDbCircle
 10
524.151291
 20
662.791481
 30
0.0
 40
2.699999988079073
100
AcDbArc
 50
90.0
 51
180.0
  0
ARC
  5
B8
330
7D
100
AcDbEntity
  8
0
  6
Continuous
 62
     0
370
     0
100
AcDbCircle
 10
524.151291
 20
679.791481
 30
0.0
 40
2.69999998807907
100
AcDbArc
 50
180.0
 51
270.0
  0
ARC
  5
B9
330
7D
100
AcDbEntity
  8
0
  6
Continuous
 62
     0
370
     0
100
AcDbCircle
 10
507.151291
 20
679.791481
 30
0.0
 40
2.699999988079068
100
AcDbArc
 50
270.0
 51
360.0
  0
ARC
  5
BA
330
7D
100
AcDbEntity
  8
0
  6
Continuous
 62
     0
370
    30
100
AcDbCircle
 10
507.151291
 20
679.791481
 30
0.0
 40
1.999999999999996
100
AcDbArc
 50
270.0
 51
360.0
  0
ARC
  5
BB
330
7D
100
AcDbEntity
  8
0
  6
Continuous
 62
     0
370
    30
100
AcDbCircle
 10
524.151291
 20
679.791481
 30
0.0
 40
1.999999999999999
100
AcDbArc
 50
180.0
 51
270.0
  0
ARC
  5
BC
330
7D
100
AcDbEntity
  8
0
  6
Continuous
 62
     0
370
    30
100
AcDbCircle
 10
524.151291
 20
662.791481
 30
0.0
 40
2.000000000000002
100
AcDbArc
 50
90.0
 51
180.0
  0
ARC
  5
BD
330
7D
100
AcDbEntity
  8
0
  6
Continuous
 62
     0
370
    30
100
AcDbCircle
 10
507.151291
 20
662.791481
 30
0.0
 40
2.000000000000003
100
AcDbArc
 50
0.0
 51
90.0
  0
ARC
  5
BE
330
7D
100
AcDbEntity
  8
0
  6
Continuous
 62
     0
370
    30
100
AcDbCircle
 10
515.651283
 20
671.291494
 30
0.0
 40
16.5
100
AcDbArc
 50
313.446704
 51
336.800109
  0
ARC
  5
BF
330
7D
100
AcDbEntity
  8
0
  6
Continuous
 62
     0
370
    30
100
AcDbCircle
 10
515.651283
 20
671.291494
 30
0.0
 40
16.5
100
AcDbArc
 50
23.199796
 51
66.800128
  0
ARC
  5
C0
330
7D
100
AcDbEntity
  8
0
  6
Continuous
 62
     0
370
    30
100
AcDbCircle
 10
515.651283
 20
671.291494
 30
0.0
 40
16.5
100
AcDbArc
 50
113.199814
 51
156.800204
  0
ARC
  5
C1
330
7D
100
AcDbEntity
  8
0
  6
Continuous
 62
     0
370
    30
100
AcDbCircle
 10
515.651283
 20
671.291494
 30
0.0
 40
16.5
100
AcDbArc
 50
203.199891
 51
246.800186
  0
ARC
  5
C2
330
7D
100
AcDbEntity
  8
0
  6
Continuous
 62
     0
370
    30
100
AcDbCircle
 10
515.651283
 20
671.291494
 30
0.0
 40
16.5
100
AcDbArc
 50
293.199872
 51
313.446704
  0
CIRCLE
  5
C3
330
7D
100
AcDbEntity
  8
0
  6
Continuous
 62
     0
370
    30
100
AcDbCircle
 10
515.651283
 20
551.290695
 30
0.0
 40
21.5
  0
CIRCLE
  5
C4
330
7D
100
AcDbEntity
  8
0
  6
Continuous
 62
     0
370
    30
100
AcDbCircle
 10
515.651283
 20
551.290695
 30
0.0
 40
22.0
  0
LINE
  5
C5
330
7D
100
AcDbEntity
  8
0
  6
Continuous
 62
     0
370
    30
100
AcDbLine
 10
512.201283
 20
581.120695
 30
0.0
 11
515.651283
 21
581.120695
 31
0.0
  0
LINE
  5
C6
330
7D
100
AcDbEntity
  8
0
  6
Continuous
 62
     0
370
    30
100
AcDbLine
 10
515.651283
 20
581.120695
 30
0.0
 11
519.101283
 21
581.120695
 31
0.0
  0
LINE
  5
C7
330
7D
100
AcDbEntity
  8
0
  6
Continuous
 62
     0
370
    30
100
AcDbLine
 10
519.601283
 20
580.620695
 30
0.0
 11
515.651283
 21
580.620695
 31
0.0
  0
LINE
  5
C8
330
7D
100
AcDbEntity
  8
0
  6
Continuous
 62
     0
370
    30
100
AcDbLine
 10
515.651283
 20
580.620695
 30
0.0
 11
511.701283
 21
580.620695
 31
0.0
  0
LINE
  5
C9
330
7D
100
AcDbEntity
  8
0
  6
Continuous
 62
     0
370
    30
100
AcDbLine
 10
511.701283
 20
580.620695
 30
0.0
 11
511.701283
 21
572.933188
 31
0.0
  0
LINE
  5
CA
330
7D
100
AcDbEntity
  8
0
  6
Continuous
 62
     0
370
    30
100
AcDbLine
 10
519.601283
 20
580.620695
 30
0.0
 11
519.601283
 21
572.933188
 31
0.0
  0
LINE
  5
CB
330
7D
100
AcDbEntity
  8
0
  6
Continuous
 62
     0
370
    30
100
AcDbLine
 10
519.101341
 20
581.120637
 30
0.0
 11
519.601283
 21
580.620696
 31
0.0
  0
LINE
  5
CC
330
7D
100
AcDbEntity
  8
0
  6
Continuous
 62
     0
370
    30
100
AcDbLine
 10
512.201226
 20
581.120637
 30
0.0
 11
511.701284
 21
580.620696
 31
0.0
  0
ARC
  5
CD
330
7D
100
AcDbEntity
  8
0
  6
Continuous
 62
     0
370
    30
100
AcDbCircle
 10
515.651283
 20
671.291494
 30
0.0
 40
30.0
100
AcDbArc
 50
43.446704
 51
77.48666
  0
ARC
  5
CE
330
7D
100
AcDbEntity
  8
0
  6
Continuous
 62
     0
370
    30
100
AcDbCircle
 10
515.651283
 20
671.291494
 30
0.0
 40
30.0
100
AcDbArc
 50
102.51331
 51
167.486699
  0
ARC
  5
CF
330
7D
100
AcDbEntity
  8
0
  6
Continuous
 62
     0
370
    30
100
AcDbCircle
 10
515.651283
 20
671.291494
 30
0.0
 40
30.0
100
AcDbArc
 50
192.51335
 51
257.48669
  0
ARC
  5
D0
330
7D
100
AcDbEntity
  8
0
  6
Continuous
 62
     0
370
    30
100
AcDbCircle
 10
515.651283
 20
671.291494
 30
0.0
 40
30.0
100
AcDbArc
 50
282.51334
 51
347.48665
  0
ARC
  5
D1
330
7D
100
AcDbEntity
  8
0
  6
Continuous
 62
     0
370
    30
100
AcDbCircle
 10
515.651283
 20
671.291494
 30
0.0
 40
30.0
100
AcDbArc
 50
12.513301
 51
43.446704
  0
CIRCLE
  5
D2
330
7D
100
AcDbEntity
  8
0
  6
Continuous
 62
     0
370
    30
100
AcDbCircle
 10
515.651283
 20
551.290695
 30
0.0
 40
65.0
  0
CIRCLE
  5
D3
330
7D
100
AcDbEntity
  8
0
  6
Continuous
 62
     0
370
     0
100
AcDbCircle
 10
515.651283
 20
551.290695
 30
0.0
 40
64.51526627218934
  0
ENDBLK
  5
D5
330
7D
100
AcDbEntity
  8
0
100
AcDbBlockEnd
  0
BLOCK
  5
142
330
D7
100
AcDbEntity
  8
0
100
AcDbBlockBegin
  2
b
 70
     0
 10
1686.231079
 20
1312.826782
 30
0.0
  3
b
  1

  0
SPLINE
  5
D8
330
D7
100
AcDbEntity
  8
0
  6
Continuous
 62
     0
370
     0
100
AcDbSpline
210
0.0
220
0.0
230
1.0
 70
     8
 71
     3
 72
    12
 73
     8
 74
     0
 42
0.000000001
 43
0.0
 40
7.102135838942108
 40
7.102135838942108
 40
7.102135838942108
 40
7.102135838942108
 40
7.41403273394689
 40
9.118176729562256
 40
10.6295864351307
 40
12.2743040219912
 40
13.16784666328683
 40
13.16784666328683
 40
13.16784666328683
 40
13.16784666328683
 10
522.6512395404799
 20
340.8534707156903
 30
0.0
 10
522.6512835993851
 20
340.8535072848577
 30
0.0
 10
522.637756318949
 20
340.8397138545405
 30
0.0
 10
522.4560414790906
 20
340.6553501644881
 30
0.0
 10
521.9017992095572
 20
340.0862186964089
 30
0.0
 10
521.24803421228
 20
339.3997797068706
 30
0.0
 10
520.7737159126052
 20
338.8856487971156
 30
0.0
 10
520.6009536804614
 20
338.6948735313514
 30
0.0
  0
SPLINE
  5
D9
330
D7
100
AcDbEntity
  8
0
  6
Continuous
 62
     0
370
     0
100
AcDbSpline
210
0.0
220
0.0
230
1.0
 70
     8
 71
     3
 72
    10
 73
     6
 74
     0
 42
0.000000001
 43
0.0
 40
0.0
 40
0.0
 40
0.0
 40
0.0
 40
0.724039994823727
 40
1.448094429070311
 40
2.172163302831896
 40
2.172163302831896
 40
2.172163302831896
 40
2.172163302831896
 10
522.0151878636146
 20
337.1774274141868
 30
0.0
 10
521.8229210347112
 20
337.2724767195947
 30
0.0
 10
521.434687706038
 20
337.532280084893
 30
0.0
 10
520.9316479978309
 20
338.0720270797766
 30
0.0
 10
520.6895281608413
 20
338.4885807476093
 30
0.0
 10
520.6009536804614
 20
338.6948735313514
 30
0.0
  0
SPLINE
  5
DA
330
D7
100
AcDbEntity
  8
0
  6
Continuous
 62
     0
370
     0
100
AcDbSpline
210
0.0
220
0.0
230
1.0
 70
     8
 71
     3
 72
    16
 73
    12
 74
     0
 42
0.000000001
 43
0.0
 40
7.282708979029231
 40
7.282708979029231
 40
7.282708979029231
 40
7.282708979029231
 40
7.384927086952992
 40
7.602637128883383
 40
8.050609971066821
 40
8.865679014618964
 40
9.588051011786922
 40
10.89999078725118
 40
11.92011468447403
 40
13.27024017354261
 40
13.50286664542282
 40
13.50286664542282
 40
13.50286664542282
 40
13.50286664542282
 10
524.6513364563928
 20
338.8535511810873
 30
0.0
 10
524.6513364717684
 20
338.8535511931262
 30
0.0
 10
524.6504598840498
 20
338.8529801488985
 30
0.0
 10
524.6417681923849
 20
338.8473177944074
 30
0.0
 10
524.5986562004591
 20
338.8192391101421
 30
0.0
 10
524.4746606318167
 20
338.7385722321342
 30
0.0
 10
524.1876891847849
 20
338.5525968039952
 30
0.0
 10
523.7377360761634
 20
338.2628936347081
 30
0.0
 10
523.0373127895258
 20
337.8174406300363
 30
0.0
 10
522.4520242763191
 20
337.4500421123997
 30
0.0
 10
522.0715854453961
 20
337.2126129561493
 30
0.0
 10
522.0151878636146
 20
337.1774274141868
 30
0.0
  0
SPLINE
  5
DB
330
D7
100
AcDbEntity
  8
0
  6
Continuous
 62
     0
370
     0
100
AcDbSpline
210
0.0
220
0.0
230
1.0
 70
     8
 71
     3
 72
    12
 73
     8
 74
     0
 42
0.000000001
 43
0.0
 40
0.0
 40
0.0
 40
0.0
 40
0.0
 40
0.652089755406342
 40
1.284965752309294
 40
2.406270478567791
 40
3.546936274571016
 40
4.151737047032045
 40
4.151737047032045
 40
4.151737047032045
 40
4.151737047032045
 10
524.151344292684
 20
334.3535155457034
 30
0.0
 10
524.1513436948602
 20
334.5298223577337
 30
0.0
 10
524.1022394785396
 20
334.8771470734307
 30
0.0
 10
523.8440237320491
 20
335.5032459946491
 30
0.0
 10
523.3162571298599
 20
336.189995921002
 30
0.0
 10
522.6342265833741
 20
336.7689812959878
 30
0.0
 10
522.1775747452652
 20
337.0763301223544
 30
0.0
 10
522.0153706713219
 20
337.1776017086215
 30
0.0
  0
SPLINE
  5
DC
330
D7
100
AcDbEntity
  8
0
  6
Continuous
 62
     0
370
     0
100
AcDbSpline
210
0.0
220
0.0
230
1.0
 70
     8
 71
     3
 72
    12
 73
     8
 74
     0
 42
0.000000001
 43
0.0
 40
0.0
 40
0.0
 40
0.0
 40
0.0
 40
0.111110799394611
 40
0.333332398183832
 40
0.66666573151717
 40
0.8888885771723901
 40
0.990960482093917
 40
0.990960482093917
 40
0.990960482093917
 40
0.990960482093917
 10
522.0151878636146
 20
337.1774274141868
 30
0.0
 10
521.9589158148847
 20
337.1496166263489
 30
0.0
 10
521.7901001927714
 20
337.0746993498682
 30
0.0
 10
521.4552444952096
 20
336.9779083986436
 30
0.0
 10
521.1006836797479
 20
336.9779189778016
 30
0.0
 10
520.8523900359336
 20
337.0734149971492
 30
0.0
 10
520.750198729954
 20
337.1456092086601
 30
0.0
 10
520.7200871790398
 20
337.1707350791366
 30
0.0
  0
LINE
  5
DD
330
D7
100
AcDbEntity
  8
0
  6
Continuous
 62
     0
370
     0
100
AcDbLine
 10
524.151344
 20
334.353515
 30
0.0
 11
522.151344
 21
334.353515
 31
0.0
  0
SPLINE
  5
DE
330
D7
100
AcDbEntity
  8
0
  6
Continuous
 62
     0
370
     0
100
AcDbSpline
210
0.0
220
0.0
230
1.0
 70
     8
 71
     3
 72
    12
 73
     8
 74
     0
 42
0.000000001
 43
0.0
 40
0.0043533283961952
 40
0.0043533283961952
 40
0.0043533283961952
 40
0.0043533283961952
 40
0.111109627363873
 40
0.333328882091619
 40
0.66666221542495
 40
0.8888874051416499
 40
1.0
 40
1.0
 40
1.0
 40
1.0
 10
520.7078139715613
 20
337.1812079601268
 30
0.0
 10
520.6726080581651
 20
337.211926124806
 30
0.0
 10
520.573135895975
 20
337.3170541815012
 30
0.0
 10
520.4318438338635
 20
337.5926523164414
 30
0.0
 10
520.4011415003296
 20
338.0116608374919
 30
0.0
 10
520.4931292706319
 20
338.4198215839104
 30
0.0
 10
520.5714232356918
 20
338.6261108789773
 30
0.0
 10
520.6009536804614
 20
338.6948735313514
 30
0.0
  0
SPLINE
  5
DF
330
D7
100
AcDbEntity
  8
0
  6
Continuous
 62
     0
370
     0
100
AcDbSpline
210
0.0
220
0.0
230
1.0
 70
     8
 71
     3
 72
    16
 73
    12
 74
     0
 42
0.000000001
 43
0.0
 40
1.036551057264528
 40
1.036551057264528
 40
1.036551057264528
 40
1.036551057264528
 40
1.110209468683914
 40
2.188886951357268
 40
4.177064877331093
 40
5.670853416855161
 40
7.413623982659933
 40
9.117775860919043
 40
10.62916237558552
 40
12.27383619275323
 40
13.16794967043762
 40
13.16794967043762
 40
13.16794967043762
 40
13.16794967043762
 10
520.6009532896265
 20
338.6947713546839
 30
0.0
 10
520.5867128947073
 20
338.7104958845563
 30
0.0
 10
520.3626297446698
 20
338.9554755769959
 30
0.0
 10
519.6964689781794
 20
339.5795452539125
 30
0.0
 10
518.518686950101
 20
340.2958452949724
 30
0.0
 10
516.9512791397867
 20
340.7889427296242
 30
0.0
 10
515.3601425288365
 20
340.9145160778402
 30
0.0
 10
513.7900782885147
 20
340.6554571575041
 30
0.0
 10
512.394082760585
 20
340.0864081859202
 30
0.0
 10
511.399972356066
 20
339.3999377709733
 30
0.0
 10
510.8743763772075
 20
338.8857118022992
 30
0.0
 10
510.701522215548
 20
338.6948125142754
 30
0.0
  0
SPLINE
  5
E0
330
D7
100
AcDbEntity
  8
0
  6
Continuous
 62
     0
370
     0
100
AcDbSpline
210
0.0
220
0.0
230
1.0
 70
     8
 71
     3
 72
    12
 73
     8
 74
     0
 42
0.000000001
 43
0.0
 40
0.0038142598803563
 40
0.0038142598803563
 40
0.0038142598803563
 40
0.0038142598803563
 40
0.111111241458455
 40
0.3333337243753641
 40
0.6666670577086921
 40
0.8888890192362308
 40
1.0
 40
1.0
 40
1.0
 40
1.0
 10
510.594340630154
 20
337.1807511564544
 30
0.0
 10
510.6297436850797
 20
337.2115850644334
 30
0.0
 10
510.7293955300041
 20
337.3168173050832
 30
0.0
 10
510.8707412953855
 20
337.5926006613694
 30
0.0
 10
510.9013863374846
 20
338.0115558170718
 30
0.0
 10
510.8093679997513
 20
338.4196695600057
 30
0.0
 10
510.7310655960449
 20
338.625936313447
 30
0.0
 10
510.7015330359298
 20
338.6946917525186
 30
0.0
  0
ARC
  5
E1
330
D7
100
AcDbEntity
  8
0
  6
Continuous
 62
     0
370
    30
100
AcDbCircle
 10
506.651337
 20
340.853551
 30
0.0
 40
1.999999999999993
100
AcDbArc
 50
270.0
 51
0.0
  0
LINE
  5
E2
330
D7
100
AcDbEntity
  8
0
  6
Continuous
 62
     0
370
     0
100
AcDbLine
 10
509.151344
 20
334.353515
 30
0.0
 11
507.151344
 21
334.353515
 31
0.0
  0
SPLINE
  5
E3
330
D7
100
AcDbEntity
  8
0
  6
Continuous
 62
     0
370
     0
100
AcDbSpline
210
0.0
220
0.0
230
1.0
 70
     8
 71
     3
 72
    12
 73
     8
 74
     0
 42
0.000000001
 43
0.0
 40
0.0
 40
0.0
 40
0.0
 40
0.0
 40
0.111109047727821
 40
0.333327143183463
 40
0.6666604765167989
 40
0.8888868255055999
 40
0.9977917419337549
 40
0.9977917419337549
 40
0.9977917419337549
 40
0.9977917419337549
 10
509.2876724329034
 20
337.1777998929343
 30
0.0
 10
509.343939227093
 20
337.1499760936681
 30
0.0
 10
509.5127385768018
 20
337.0750188398542
 30
0.0
 10
509.8475610833066
 20
336.9781421211776
 30
0.0
 10
510.2020782540418
 20
336.9780526482763
 30
0.0
 10
510.4529087329402
 20
337.0744624038344
 30
0.0
 10
510.5567949067719
 20
337.1486824700922
 30
0.0
 10
510.5886207427133
 20
337.1758215984751
 30
0.0
  0
SPLINE
  5
E4
330
D7
100
AcDbEntity
  8
0
  6
Continuous
 62
     0
370
     0
100
AcDbSpline
210
0.0
220
0.0
230
1.0
 70
     8
 71
     3
 72
    13
 73
     9
 74
     0
 42
0.000000001
 43
0.0
 40
1.088162456940774
 40
1.088162456940774
 40
1.088162456940774
 40
1.088162456940774
 40
1.789405597119858
 40
2.507174003888361
 40
3.180442430366789
 40
4.09568822247947
 40
4.601650003097493
 40
5.240023456047269
 40
5.240023456047269
 40
5.240023456047269
 40
5.240023456047269
 10
509.2877078922791
 20
337.1776837704956
 30
0.0
 10
509.0995211205698
 20
337.0602654383503
 30
0.0
 10
508.7292902138917
 20
336.8084464906542
 30
0.0
 10
508.2268339895086
 20
336.3928303797882
 30
0.0
 10
507.7407089601961
 20
335.8855778037272
 30
0.0
 10
507.3981667389002
 20
335.374027002599
 30
0.0
 10
507.1941625051093
 20
334.8354530805215
 30
0.0
 10
507.1513442926771
 20
334.5261149184547
 30
0.0
 10
507.1513442926771
 20
334.3535155457034
 30
0.0
  0
SPLINE
  5
E5
330
D7
100
AcDbEntity
  8
0
  6
Continuous
 62
     0
370
     0
100
AcDbSpline
210
0.0
220
0.0
230
1.0
 70
     8
 71
     3
 72
    10
 73
     6
 74
     0
 42
0.000000001
 43
0.0
 40
0.0
 40
0.0
 40
0.0
 40
0.0
 40
0.723768534793083
 40
1.447569395276909
 40
2.171402590894657
 40
2.171402590894657
 40
2.171402590894657
 40
2.171402590894657
 10
509.2876724329034
 20
337.1777998929343
 30
0.0
 10
509.4798675890178
 20
337.272849574038
 30
0.0
 10
509.8679575525845
 20
337.5325886878285
 30
0.0
 10
510.3708533129582
 20
338.0721080526143
 30
0.0
 10
510.6129490157937
 20
338.4884788726507
 30
0.0
 10
510.7015330359298
 20
338.6946917525186
 30
0.0
  0
ARC
  5
E6
330
D7
100
AcDbEntity
  8
0
  6
Continuous
 62
     0
370
     0
100
AcDbCircle
 10
453.237093
 20
286.175576
 30
0.0
 40
77.84869500308811
100
AcDbArc
 50
42.425474
 51
44.616826
  0
ARC
  5
E7
330
D7
100
AcDbEntity
  8
0
  6
Continuous
 62
     0
370
     0
100
AcDbCircle
 10
584.181421
 20
457.914246
 30
0.0
 40
142.078721068159
100
AcDbArc
 50
236.928582
 51
238.188354
  0
LINE
  5
E8
330
D7
100
AcDbEntity
  8
0
  6
Continuous
 62
     0
370
    30
100
AcDbLine
 10
508.651337
 20
361.553541
 30
0.0
 11
508.651337
 21
340.853551
 31
0.0
  0
ARC
  5
E9
330
D7
100
AcDbEntity
  8
0
  6
Continuous
 62
     0
370
    30
100
AcDbCircle
 10
509.851344
 20
333.553514
 30
0.0
 40
0.699999988079071
100
AcDbArc
 50
180.0
 51
270.0
  0
LINE
  5
EA
330
D7
100
AcDbEntity
  8
0
  6
Continuous
 62
     0
370
     0
100
AcDbLine
 10
521.451344
 20
333.553514
 30
0.0
 11
509.851344
 21
333.553514
 31
0.0
  0
LINE
  5
EB
330
D7
100
AcDbEntity
  8
0
  6
Continuous
 62
     0
370
     0
100
AcDbLine
 10
509.851344
 20
333.553514
 30
0.0
 11
509.851344
 21
332.853514
 31
0.0
  0
LINE
  5
EC
330
D7
100
AcDbEntity
  8
0
  6
Continuous
 62
     0
370
    30
100
AcDbLine
 10
521.451344
 20
332.853514
 30
0.0
 11
509.851344
 21
332.853514
 31
0.0
  0
LINE
  5
ED
330
D7
100
AcDbEntity
  8
0
  6
Continuous
 62
     0
370
     0
100
AcDbLine
 10
521.451344
 20
333.553514
 30
0.0
 11
521.451344
 21
332.853514
 31
0.0
  0
LINE
  5
EE
330
D7
100
AcDbEntity
  8
0
  6
Continuous
 62
     0
370
     0
100
AcDbLine
 10
509.851344
 20
334.353514
 30
0.0
 11
509.151344
 21
334.353514
 31
0.0
  0
LINE
  5
EF
330
D7
100
AcDbEntity
  8
0
  6
Continuous
 62
     0
370
    30
100
AcDbLine
 10
509.151344
 20
333.553514
 30
0.0
 11
509.151344
 21
334.353514
 31
0.0
  0
LINE
  5
F0
330
D7
100
AcDbEntity
  8
0
  6
Continuous
 62
     0
370
     0
100
AcDbLine
 10
509.851344
 20
333.553514
 30
0.0
 11
509.151344
 21
333.553514
 31
0.0
  0
LINE
  5
F1
330
D7
100
AcDbEntity
  8
0
  6
Continuous
 62
     0
370
     0
100
AcDbLine
 10
509.851344
 20
333.553514
 30
0.0
 11
509.851344
 21
334.353514
 31
0.0
  0
ARC
  5
F2
330
D7
100
AcDbEntity
  8
0
  6
Continuous
 62
     0
370
    30
100
AcDbCircle
 10
521.451344
 20
333.553514
 30
0.0
 40
0.6999999880790782
100
AcDbArc
 50
270.0
 51
0.0
  0
LINE
  5
F3
330
D7
100
AcDbEntity
  8
0
  6
Continuous
 62
     0
370
     0
100
AcDbLine
 10
521.451344
 20
334.353512
 30
0.0
 11
521.451344
 21
333.553514
 31
0.0
  0
LINE
  5
F4
330
D7
100
AcDbEntity
  8
0
  6
Continuous
 62
     0
370
     0
100
AcDbLine
 10
521.451344
 20
333.553514
 30
0.0
 11
522.151344
 21
333.553514
 31
0.0
  0
LINE
  5
F5
330
D7
100
AcDbEntity
  8
0
  6
Continuous
 62
     0
370
    30
100
AcDbLine
 10
522.151344
 20
334.353514
 30
0.0
 11
522.151344
 21
333.553514
 31
0.0
  0
LINE
  5
F6
330
D7
100
AcDbEntity
  8
0
  6
Continuous
 62
     0
370
     0
100
AcDbLine
 10
521.451344
 20
334.353514
 30
0.0
 11
522.151344
 21
334.353514
 31
0.0
  0
LINE
  5
F7
330
D7
100
AcDbEntity
  8
0
  6
Continuous
 62
     0
370
     0
100
AcDbLine
 10
524.151344
 20
332.853516
 30
0.0
 11
524.151344
 21
333.553516
 31
0.0
  0
LINE
  5
F8
330
D7
100
AcDbEntity
  8
0
  6
Continuous
 62
     0
370
    30
100
AcDbLine
 10
549.951337
 20
332.853516
 30
0.0
 11
524.151344
 21
332.853516
 31
0.0
  0
LINE
  5
F9
330
D7
100
AcDbEntity
  8
0
  6
Continuous
 62
     0
370
     0
100
AcDbLine
 10
549.951337
 20
332.853516
 30
0.0
 11
549.951337
 21
333.553516
 31
0.0
  0
LINE
  5
FA
330
D7
100
AcDbEntity
  8
0
  6
Continuous
 62
     0
370
     0
100
AcDbLine
 10
549.951337
 20
333.553516
 30
0.0
 11
524.151344
 21
333.553516
 31
0.0
  0
ARC
  5
FB
330
D7
100
AcDbEntity
  8
0
  6
Continuous
 62
     0
370
    30
100
AcDbCircle
 10
549.951337
 20
333.553516
 30
0.0
 40
0.699999988079071
100
AcDbArc
 50
270.0
 51
0.0
  0
LINE
  5
FC
330
D7
100
AcDbEntity
  8
0
  6
Continuous
 62
     0
370
     0
100
AcDbLine
 10
550.651337
 20
334.353516
 30
0.0
 11
549.951337
 21
334.353516
 31
0.0
  0
LINE
  5
FD
330
D7
100
AcDbEntity
  8
0
  6
Continuous
 62
     0
370
     0
100
AcDbLine
 10
549.951337
 20
333.553516
 30
0.0
 11
549.951337
 21
334.353516
 31
0.0
  0
LINE
  5
FE
330
D7
100
AcDbEntity
  8
0
  6
Continuous
 62
     0
370
     0
100
AcDbLine
 10
550.651337
 20
333.553516
 30
0.0
 11
549.951337
 21
333.553516
 31
0.0
  0
LINE
  5
FF
330
D7
100
AcDbEntity
  8
0
  6
Continuous
 62
     0
370
    30
100
AcDbLine
 10
550.651337
 20
333.553516
 30
0.0
 11
550.651337
 21
334.353516
 31
0.0
  0
LINE
  5
100
330
D7
100
AcDbEntity
  8
0
  6
Continuous
 62
     0
370
     0
100
AcDbLine
 10
507.151344
 20
333.553516
 30
0.0
 11
481.351337
 21
333.553516
 31
0.0
  0
LINE
  5
101
330
D7
100
AcDbEntity
  8
0
  6
Continuous
 62
     0
370
     0
100
AcDbLine
 10
481.351337
 20
332.853516
 30
0.0
 11
481.351337
 21
333.553516
 31
0.0
  0
LINE
  5
102
330
D7
100
AcDbEntity
  8
0
  6
Continuous
 62
     0
370
    30
100
AcDbLine
 10
507.151344
 20
332.853516
 30
0.0
 11
481.351337
 21
332.853516
 31
0.0
  0
LINE
  5
103
330
D7
100
AcDbEntity
  8
0
  6
Continuous
 62
     0
370
     0
100
AcDbLine
 10
507.151344
 20
333.553516
 30
0.0
 11
507.151344
 21
332.853516
 31
0.0
  0
ARC
  5
104
330
D7
100
AcDbEntity
  8
0
  6
Continuous
 62
     0
370
    30
100
AcDbCircle
 10
481.351337
 20
333.553516
 30
0.0
 40
0.6999999880790782
100
AcDbArc
 50
180.0
 51
270.0
  0
LINE
  5
105
330
D7
100
AcDbEntity
  8
0
  6
Continuous
 62
     0
370
    30
100
AcDbLine
 10
480.651337
 20
333.553516
 30
0.0
 11
480.651337
 21
334.353516
 31
0.0
  0
LINE
  5
106
330
D7
100
AcDbEntity
  8
0
  6
Continuous
 62
     0
370
     0
100
AcDbLine
 10
480.651337
 20
333.553516
 30
0.0
 11
481.351337
 21
333.553516
 31
0.0
  0
LINE
  5
107
330
D7
100
AcDbEntity
  8
0
  6
Continuous
 62
     0
370
     0
100
AcDbLine
 10
481.351337
 20
333.553516
 30
0.0
 11
481.351337
 21
334.353516
 31
0.0
  0
LINE
  5
108
330
D7
100
AcDbEntity
  8
0
  6
Continuous
 62
     0
370
     0
100
AcDbLine
 10
480.651337
 20
334.353516
 30
0.0
 11
481.351337
 21
334.353516
 31
0.0
  0
LINE
  5
109
330
D7
100
AcDbEntity
  8
0
  6
Continuous
 62
     0
370
    30
100
AcDbLine
 10
524.151344
 20
332.853515
 30
0.0
 11
521.451344
 21
332.853515
 31
0.0
  0
LINE
  5
10A
330
D7
100
AcDbEntity
  8
0
  6
Continuous
 62
     0
370
    30
100
AcDbLine
 10
507.151344
 20
332.853515
 30
0.0
 11
509.851344
 21
332.853515
 31
0.0
  0
LINE
  5
10B
330
D7
100
AcDbEntity
  8
0
  6
Continuous
 62
     0
370
     0
100
AcDbLine
 10
507.151344
 20
334.353516
 30
0.0
 11
481.351337
 21
334.353516
 31
0.0
  0
LINE
  5
10C
330
D7
100
AcDbEntity
  8
0
  6
Continuous
 62
     0
370
     0
100
AcDbLine
 10
507.151344
 20
333.553516
 30
0.0
 11
507.151344
 21
334.353516
 31
0.0
  0
LINE
  5
10D
330
D7
100
AcDbEntity
  8
0
  6
Continuous
 62
     0
370
     0
100
AcDbLine
 10
507.151344
 20
333.553515
 30
0.0
 11
509.151344
 21
333.553515
 31
0.0
  0
LINE
  5
10E
330
D7
100
AcDbEntity
  8
0
  6
Continuous
 62
     0
370
     0
100
AcDbLine
 10
549.951337
 20
334.353516
 30
0.0
 11
524.151344
 21
334.353516
 31
0.0
  0
LINE
  5
10F
330
D7
100
AcDbEntity
  8
0
  6
Continuous
 62
     0
370
     0
100
AcDbLine
 10
524.151344
 20
334.353516
 30
0.0
 11
524.151344
 21
333.553516
 31
0.0
  0
LINE
  5
110
330
D7
100
AcDbEntity
  8
0
  6
Continuous
 62
     0
370
     0
100
AcDbLine
 10
524.151344
 20
333.553515
 30
0.0
 11
522.151344
 21
333.553515
 31
0.0
  0
SPLINE
  5
111
330
D7
100
AcDbEntity
  8
0
  6
Continuous
 62
     0
370
     0
100
AcDbSpline
210
0.0
220
0.0
230
1.0
 70
     8
 71
     3
 72
    27
 73
    23
 74
     0
 42
0.000000001
 43
0.0
 40
0.0
 40
0.0
 40
0.0
 40
0.0
 40
1.029141359914143
 40
1.899953279841495
 40
2.770765199768846
 40
3.799906559682989
 40
4.987377359583923
 40
5.699859839524484
 40
6.49150703945844
 40
6.887330639425417
 40
7.283154239392395
 40
7.599813119365979
 40
7.916471999339561
 40
8.31229559930654
 40
8.708119199273517
 40
9.499766399207472
 40
10.21224887914803
 40
11.39971967904897
 40
12.4288610389631
 40
13.29967295889046
 40
14.17048487881781
 40
15.19962623873196
 40
15.19962623873196
 40
15.19962623873196
 40
15.19962623873196
 10
509.8513442807562
 20
334.3535142999286
 30
0.0
 10
509.8513442807562
 20
334.5762339644323
 30
0.0
 10
509.9079494787229
 20
335.0040946145503
 30
0.0
 10
510.1832551452823
 20
335.6617001699528
 30
0.0
 10
510.6630107749755
 20
336.3241991809441
 30
0.0
 10
511.4546470631468
 20
337.0161700337237
 30
0.0
 10
512.4481171762415
 20
337.5457773169144
 30
0.0
 10
513.4688863661916
 20
337.887688478262
 30
0.0
 10
514.2169731373906
 20
338.043806218813
 30
0.0
 10
514.836346641179
 20
338.1193605606964
 30
0.0
 10
515.2645837003821
 20
338.1481262389586
 30
0.0
 10
515.6513366582086
 20
338.155960297718
 30
0.0
 10
516.0380896490157
 20
338.1481262389608
 30
0.0
 10
516.4663268293762
 20
338.119360559368
 30
0.0
 10
517.0857006518514
 20
338.043806210238
 30
0.0
 10
517.8337880835162
 20
337.8876884448295
 30
0.0
 10
518.8545587299919
 20
337.5457771877379
 30
0.0
 10
519.8480311234152
 20
337.0161696659565
 30
0.0
 10
520.6396703890297
 20
336.3241982846297
 30
0.0
 10
521.119428750486
 20
335.6616986128279
 30
0.0
 10
521.3947368994661
 20
335.004092424583
 30
0.0
 10
521.4513435494008
 20
334.5762315908627
 30
0.0
 10
521.451344304602
 20
334.3535119263578
 30
0.0
  0
SPLINE
  5
112
330
D7
100
AcDbEntity
  8
0
  6
Continuous
 62
     0
370
    30
100
AcDbSpline
210
0.0
220
0.0
230
1.0
 70
     8
 71
     3
 72
    41
 73
    37
 74
     0
 42
0.000000001
 43
0.0
 40
0.0
 40
0.0
 40
0.0
 40
0.0
 40
0.6219021576259569
 40
1.243804315251914
 40
1.865706472877871
 40
2.487608630503828
 40
3.109510788129786
 40
3.731412945755742
 40
4.353315103381699
 40
4.975217261007655
 40
5.597119418633612
 40
6.219021576259571
 40
6.840923733885527
 40
7.462825891511484
 40
7.773776970324461
 40
8.084728049137441
 40
8.395679127950421
 40
8.55115466735691
 40
8.706630206763398
 40
8.862105746169885
 40
9.017581285576377
 40
9.328532364389355
 40
9.639483443202334
 40
9.95043452201531
 40
10.57233667964127
 40
11.19423883726722
 40
11.81614099489318
 40
12.43804315251914
 40
13.0599453101451
 40
13.68184746777105
 40
14.30374962539701
 40
14.92565178302297
 40
15.54755394064892
 40
16.16945609827488
 40
16.79135825590084
 40
17.4132604135268
 40
17.4132604135268
 40
17.4132604135268
 40
17.4132604135268
 10
509.1513442926771
 20
334.3535143305265
 30
0.0
 10
509.1513442926771
 20
334.505038407767
 30
0.0
 10
509.1734849644497
 20
334.8144725310761
 30
0.0
 10
509.280874796437
 20
335.2911939731939
 30
0.0
 10
509.4685008202862
 20
335.7723318662009
 30
0.0
 10
509.7399510242042
 20
336.2484280585663
 30
0.0
 10
510.0957111075115
 20
336.7091744427551
 30
0.0
 10
510.5327419791377
 20
337.144035251814
 30
0.0
 10
511.0443812935975
 20
337.5429738917255
 30
0.0
 10
511.620620728672
 20
337.8971888967433
 30
0.0
 10
512.2487474350615
 20
338.1997515975683
 30
0.0
 10
512.9142635216793
 20
338.4460488141211
 30
0.0
 10
513.6019534127325
 20
338.6339792902195
 30
0.0
 10
514.1810905765285
 20
338.7422207412654
 30
0.0
 10
514.6412250173172
 20
338.8010546689734
 30
0.0
 10
514.9832537081583
 20
338.8317994452436
 30
0.0
 10
515.2644492805541
 20
338.8467347047487
 30
0.0
 10
515.4866893991282
 20
338.8525930941399
 30
0.0
 10
515.6513366624715
 20
338.8540282080957
 30
0.0
 10
515.815983930681
 20
338.8525930941399
 30
0.0
 10
516.0382240691197
 20
338.8467347047487
 30
0.0
 10
516.3194196921582
 20
338.8317994452436
 30
0.0
 10
516.6614484872491
 20
338.8010546689734
 30
0.0
 10
517.1215831275329
 20
338.7422207412654
 30
0.0
 10
517.7007206583556
 20
338.6339792902195
 30
0.0
 10
518.3884111866463
 20
338.4460488141211
 30
0.0
 10
519.0539281084125
 20
338.1997515975683
 30
0.0
 10
519.6820558407363
 20
337.8971888967433
 30
0.0
 10
520.2582964768884
 20
337.5429738917255
 30
0.0
 10
520.7699371440755
 20
337.144035251814
 30
0.0
 10
521.2069694902343
 20
336.7091744427551
 30
0.0
 10
521.5627311358476
 20
336.2484280585663
 30
0.0
 10
521.8341829541198
 20
335.7723318662009
 30
0.0
 10
522.0218106094187
 20
335.2911939731939
 30
0.0
 10
522.1292020578803
 20
334.8144725310761
 30
0.0
 10
522.1513437788869
 20
334.5050384077669
 30
0.0
 10
522.1513442926771
 20
334.3535143305264
 30
0.0
  0
LINE
  5
113
330
D7
100
AcDbEntity
  8
0
  6
Continuous
 62
     0
370
    30
100
AcDbLine
 10
550.651337
 20
334.353516
 30
0.0
 11
550.651337
 21
338.153551
 31
0.0
  0
LINE
  5
114
330
D7
100
AcDbEntity
  8
0
  6
Continuous
 62
     0
370
     0
100
AcDbLine
 10
549.951337
 20
334.353516
 30
0.0
 11
549.951337
 21
338.853551
 31
0.0
  0
LINE
  5
115
330
D7
100
AcDbEntity
  8
0
  6
Continuous
 62
     0
370
    30
100
AcDbLine
 10
480.651337
 20
334.353516
 30
0.0
 11
480.651337
 21
338.153551
 31
0.0
  0
LINE
  5
116
330
D7
100
AcDbEntity
  8
0
  6
Continuous
 62
     0
370
     0
100
AcDbLine
 10
481.351337
 20
334.353516
 30
0.0
 11
481.351337
 21
338.853551
 31
0.0
  0
LINE
  5
117
330
D7
100
AcDbEntity
  8
0
  6
Continuous
 62
     0
370
    30
100
AcDbLine
 10
522.651337
 20
361.553541
 30
0.0
 11
522.651337
 21
340.853591
 31
0.0
  0
ARC
  5
118
330
D7
100
AcDbEntity
  8
0
  6
Continuous
 62
     0
370
    30
100
AcDbCircle
 10
549.951334
 20
338.153548
 30
0.0
 40
0.7000031410629404
100
AcDbArc
 50
0.000662
 51
89.999742
  0
ARC
  5
119
330
D7
100
AcDbEntity
  8
0
  6
Continuous
 62
     0
370
    30
100
AcDbCircle
 10
481.35134
 20
338.153548
 30
0.0
 40
0.7000031410619136
100
AcDbArc
 50
90.000258
 51
179.999338
  0
LINE
  5
11A
330
D7
100
AcDbEntity
  8
0
  6
Continuous
 62
     0
370
    30
100
AcDbLine
 10
506.651337
 20
338.853551
 30
0.0
 11
481.351337
 21
338.853551
 31
0.0
  0
LINE
  5
11B
330
D7
100
AcDbEntity
  8
0
  6
Continuous
 62
     0
370
    30
100
AcDbLine
 10
524.651346
 20
338.853551
 30
0.0
 11
549.951337
 21
338.853551
 31
0.0
  0
ARC
  5
11C
330
D7
100
AcDbEntity
  8
0
  6
Continuous
 62
     0
370
    30
100
AcDbCircle
 10
524.651431
 20
340.853743
 30
0.0
 40
2.000191586200526
100
AcDbArc
 50
180.007794
 51
269.997289
  0
LINE
  5
11D
330
D7
100
AcDbEntity
  8
0
  6
Continuous
 62
     0
370
    30
100
AcDbLine
 10
499.151337
 20
361.553541
 30
0.0
 11
532.151337
 21
361.553541
 31
0.0
  0
LINE
  5
11E
330
D7
100
AcDbEntity
  8
0
  6
Continuous
 62
     0
370
    30
100
AcDbLine
 10
532.151337
 20
381.553541
 30
0.0
 11
532.151337
 21
361.553541
 31
0.0
  0
LINE
  5
11F
330
D7
100
AcDbEntity
  8
0
  6
Continuous
 62
     0
370
    30
100
AcDbLine
 10
499.151337
 20
381.553541
 30
0.0
 11
499.151337
 21
361.553541
 31
0.0
  0
LINE
  5
120
330
D7
100
AcDbEntity
  8
0
  6
Continuous
 62
     0
370
    30
100
AcDbLine
 10
537.151337
 20
324.353546
 30
0.0
 11
494.151337
 21
324.353546
 31
0.0
  0
LINE
  5
121
330
D7
100
AcDbEntity
  8
0
  6
Continuous
 62
     0
370
    30
100
AcDbLine
 10
537.651337
 20
324.853546
 30
0.0
 11
493.651337
 21
324.853546
 31
0.0
  0
LINE
  5
122
330
D7
100
AcDbEntity
  8
0
  6
Continuous
 62
     0
370
    30
100
AcDbLine
 10
499.151337
 20
374.353546
 30
0.0
 11
493.651337
 21
374.353546
 31
0.0
  0
LINE
  5
123
330
D7
100
AcDbEntity
  8
0
  6
Continuous
 62
     0
370
    30
100
AcDbLine
 10
537.651337
 20
374.353546
 30
0.0
 11
532.151337
 21
374.353546
 31
0.0
  0
LINE
  5
124
330
D7
100
AcDbEntity
  8
0
  6
Continuous
 62
     0
370
    30
100
AcDbLine
 10
537.151357
 20
324.353567
 30
0.0
 11
537.651337
 21
324.853546
 31
0.0
  0
LINE
  5
125
330
D7
100
AcDbEntity
  8
0
  6
Continuous
 62
     0
370
    30
100
AcDbLine
 10
494.151316
 20
324.353567
 30
0.0
 11
493.651337
 21
324.853546
 31
0.0
  0
LINE
  5
126
330
D7
100
AcDbEntity
  8
0
  6
Continuous
 62
     0
370
    30
100
AcDbLine
 10
493.651337
 20
338.853557
 30
0.0
 11
493.651337
 21
374.353546
 31
0.0
  0
LINE
  5
127
330
D7
100
AcDbEntity
  8
0
  6
Continuous
 62
     0
370
    30
100
AcDbLine
 10
493.651337
 20
324.853546
 30
0.0
 11
493.651337
 21
332.853522
 31
0.0
  0
LINE
  5
128
330
D7
100
AcDbEntity
  8
0
  6
Continuous
 62
     0
370
    30
100
AcDbLine
 10
537.651337
 20
338.853557
 30
0.0
 11
537.651337
 21
374.353546
 31
0.0
  0
LINE
  5
129
330
D7
100
AcDbEntity
  8
0
  6
Continuous
 62
     0
370
    30
100
AcDbLine
 10
537.651337
 20
324.853546
 30
0.0
 11
537.651337
 21
332.853522
 31
0.0
  0
ARC
  5
12A
330
D7
100
AcDbEntity
  8
0
  6
Continuous
 62
     0
370
    30
100
AcDbCircle
 10
515.651337
 20
333.353545
 30
0.0
 40
3.45
100
AcDbArc
 50
188.333496
 51
270.0
  0
ARC
  5
12B
330
D7
100
AcDbEntity
  8
0
  6
Continuous
 62
     0
370
    30
100
AcDbCircle
 10
515.651337
 20
333.353545
 30
0.0
 40
3.45
100
AcDbArc
 50
270.0
 51
351.666504
  0
ARC
  5
12C
330
D7
100
AcDbEntity
  8
0
  6
Continuous
 62
     0
370
    30
100
AcDbCircle
 10
515.651337
 20
333.353545
 30
0.0
 40
3.95
100
AcDbArc
 50
270.0
 51
352.7275
  0
ARC
  5
12D
330
D7
100
AcDbEntity
  8
0
  6
Continuous
 62
     0
370
    30
100
AcDbCircle
 10
515.651337
 20
333.353545
 30
0.0
 40
3.95
100
AcDbArc
 50
187.2725
 51
270.0
  0
LINE
  5
12E
330
D7
100
AcDbEntity
  8
0
  6
Continuous
 62
     0
370
    30
100
AcDbLine
 10
534.651337
 20
377.938972
 30
0.0
 11
534.651337
 21
374.353546
 31
0.0
  0
LINE
  5
12F
330
D7
100
AcDbEntity
  8
0
  6
Continuous
 62
     0
370
    30
100
AcDbLine
 10
496.651337
 20
377.938972
 30
0.0
 11
496.651337
 21
374.353546
 31
0.0
  0
LINE
  5
130
330
D7
100
AcDbEntity
  8
0
  6
Continuous
 62
     0
370
    30
100
AcDbLine
 10
485.651337
 20
381.553541
 30
0.0
 11
537.431768
 21
381.553541
 31
0.0
  0
LINE
  5
131
330
D7
100
AcDbEntity
  8
0
  6
Continuous
 62
     0
370
    30
100
AcDbLine
 10
537.431768
 20
381.553541
 30
0.0
 11
545.651337
 21
381.553541
 31
0.0
  0
LINE
  5
132
330
D7
100
AcDbEntity
  8
0
  6
Continuous
 62
     0
370
    30
100
AcDbLine
 10
545.651337
 20
381.553541
 30
0.0
 11
545.651337
 21
388.353546
 31
0.0
  0
LINE
  5
133
330
D7
100
AcDbEntity
  8
0
  6
Continuous
 62
     0
370
    30
100
AcDbLine
 10
485.651337
 20
381.553541
 30
0.0
 11
485.651337
 21
388.353546
 31
0.0
  0
ARC
  5
134
330
D7
100
AcDbEntity
  8
0
  6
Continuous
 62
     0
370
    30
100
AcDbCircle
 10
580.149462
 20
379.338443
 30
0.0
 40
0.4999933723565786
100
AcDbArc
 50
271.971277
 51
0.000789
  0
LINE
  5
135
330
D7
100
AcDbEntity
  8
0
  6
Continuous
 62
     0
370
     0
100
AcDbLine
 10
499.151337
 20
379.33845
 30
0.0
 11
450.651337
 21
379.33845
 31
0.0
  0
LINE
  5
136
330
D7
100
AcDbEntity
  8
0
  6
Continuous
 62
     0
370
     0
100
AcDbLine
 10
580.651337
 20
379.33845
 30
0.0
 11
532.151337
 21
379.33845
 31
0.0
  0
LINE
  5
137
330
D7
100
AcDbEntity
  8
0
  6
Continuous
 62
     0
370
     0
100
AcDbLine
 10
532.151337
 20
378.838683
 30
0.0
 11
580.166603
 21
378.838683
 31
0.0
  0
LINE
  5
138
330
D7
100
AcDbEntity
  8
0
  6
Continuous
 62
     0
370
     0
100
AcDbLine
 10
451.13607
 20
378.838683
 30
0.0
 11
499.151337
 21
378.838683
 31
0.0
  0
LINE
  5
139
330
D7
100
AcDbEntity
  8
0
  6
Continuous
 62
     0
370
    30
100
AcDbLine
 10
580.651337
 20
388.353546
 30
0.0
 11
450.651337
 21
388.353546
 31
0.0
  0
LINE
  5
13A
330
D7
100
AcDbEntity
  8
0
  6
Continuous
 62
     0
370
    30
100
AcDbLine
 10
580.651337
 20
388.353546
 30
0.0
 11
580.651337
 21
379.33845
 31
0.0
  0
LINE
  5
13B
330
D7
100
AcDbEntity
  8
0
  6
Continuous
 62
     0
370
    30
100
AcDbLine
 10
450.651337
 20
388.353546
 30
0.0
 11
450.651337
 21
379.33845
 31
0.0
  0
ARC
  5
13C
330
D7
100
AcDbEntity
  8
0
  6
Continuous
 62
     0
370
    30
100
AcDbCircle
 10
515.651092
 20
2490.866107
 30
0.0
 40
2113.012562314916
100
AcDbArc
 50
270.515212
 51
271.749656
  0
ARC
  5
13D
330
D7
100
AcDbEntity
  8
0
  6
Continuous
 62
     0
370
    30
100
AcDbCircle
 10
515.651581
 20
2490.866107
 30
0.0
 40
2113.012562314649
100
AcDbArc
 50
268.250344
 51
269.484788
  0
ARC
  5
13E
330
D7
100
AcDbEntity
  8
0
  6
Continuous
 62
     0
370
    30
100
AcDbCircle
 10
580.151252
 20
379.338532
 30
0.0
 40
0.5000844233595563
100
AcDbArc
 50
271.759035
 51
359.990622
  0
ARC
  5
13F
330
D7
100
AcDbEntity
  8
0
  6
Continuous
 62
     0
370
    30
100
AcDbCircle
 10
451.151421
 20
379.338532
 30
0.0
 40
0.5000844233625548
100
AcDbArc
 50
180.009378
 51
268.240965
  0
LINE
  5
140
330
D7
100
AcDbEntity
  8
0
  6
Continuous
 62
     0
370
    30
100
AcDbLine
 10
532.151337
 20
377.938972
 30
0.0
 11
534.651337
 21
377.938972
 31
0.0
  0
LINE
  5
141
330
D7
100
AcDbEntity
  8
0
  6
Continuous
 62
     0
370
    30
100
AcDbLine
 10
496.651337
 20
377.938972
 30
0.0
 11
499.151337
 21
377.938972
 31
0.0
  0
ENDBLK
  5
143
330
D7
100
AcDbEntity
  8
0
100
AcDbBlockEnd
  0
BLOCK
  5
1AE
330
145
100
AcDbEntity
  8
0
100
AcDbBlockBegin
  2
c
 70
     0
 10
2097.461792
 20
722.246704
 30
0.0
  3
c
  1

  0
SPLINE
  5
146
330
145
100
AcDbEntity
  8
0
  6
Continuous
 62
     0
370
     0
100
AcDbSpline
210
0.0
220
0.0
230
1.0
 70
     8
 71
     3
 72
    12
 73
     8
 74
     0
 42
0.000000001
 43
0.0
 40
0.0
 40
0.0
 40
0.0
 40
0.0
 40
0.111109389663755
 40
0.333328168991265
 40
0.666661502324595
 40
0.8888871674415318
 40
1.0
 40
1.0
 40
1.0
 40
1.0
 10
783.8398219412966
 20
664.9275281768837
 30
0.0
 10
783.8081381494561
 20
664.991613627871
 30
0.0
 10
783.7020403775116
 20
665.1838704745498
 30
0.0
 10
783.4246208189506
 20
665.5642675104405
 30
0.0
 10
783.0056001678836
 20
665.9547700610137
 30
0.0
 10
782.5974296516906
 20
666.2133010286863
 30
0.0
 10
782.3911359416619
 20
666.3121720745838
 30
0.0
 10
782.3223718990562
 20
666.3416971737971
 30
0.0
  0
SPLINE
  5
147
330
145
100
AcDbEntity
  8
0
  6
Continuous
 62
     0
370
     0
100
AcDbSpline
210
0.0
220
0.0
230
1.0
 70
     8
 71
     3
 72
    12
 73
     8
 74
     0
 42
0.000000001
 43
0.0
 40
1.036635856510563
 40
1.036635856510563
 40
1.036635856510563
 40
1.036635856510563
 40
1.110310092514155
 40
2.188994991329097
 40
4.177157147560492
 40
5.670932717091721
 40
7.102293978971531
 40
7.102293978971531
 40
7.102293978971531
 40
7.102293978971531
 10
782.3224757411274
 20
666.34157035242
 30
0.0
 10
782.3067479272721
 20
666.3273254598588
 30
0.0
 10
782.0617650024869
 20
666.1051377735914
 30
0.0
 10
781.4377000571217
 20
665.5269251240677
 30
0.0
 10
780.7214157214596
 20
664.8379482500748
 30
0.0
 10
780.2577262719498
 20
664.384144102936
 30
0.0
 10
780.163981552593
 20
664.2917785086933
 30
0.0
 10
780.1638230641541
 20
664.291585546586
 30
0.0
  0
SPLINE
  5
148
330
145
100
AcDbEntity
  8
0
  6
Continuous
 62
     0
370
     0
100
AcDbSpline
210
0.0
220
0.0
230
1.0
 70
     8
 71
     3
 72
    16
 73
    12
 74
     0
 42
0.000000001
 43
0.0
 40
1.062730039620169
 40
1.062730039620169
 40
1.062730039620169
 40
1.062730039620169
 40
1.298844020412494
 40
3.00647762785051
 40
3.878810137768495
 40
4.283418985048317
 40
5.569278828870885
 40
6.279170434890743
 40
6.951151654700984
 40
7.169019754993681
 40
7.282736434396779
 40
7.282736434396779
 40
7.282736434396779
 40
7.282736434396779
 10
783.8398034761697
 20
664.9275264576069
 30
0.0
 10
783.8040890049002
 20
664.8702830327968
 30
0.0
 10
783.5125222241113
 20
664.4031278023592
 30
0.0
 10
783.1206168544188
 20
663.7799555121137
 30
0.0
 10
782.7775933151888
 20
663.2422367328488
 30
0.0
 10
782.5215307523144
 20
662.8431236457611
 30
0.0
 10
782.3338504895853
 20
662.5530542369511
 30
0.0
 10
782.209462764149
 20
662.3616789667899
 30
0.0
 10
782.172202395417
 20
662.3044750585816
 30
0.0
 10
782.1644010874369
 20
662.2924993384427
 30
0.0
 10
782.1637427440413
 20
662.2914887775844
 30
0.0
 10
782.1637427882072
 20
662.2914888539681
 30
0.0
  0
SPLINE
  5
149
330
145
100
AcDbEntity
  8
0
  6
Continuous
 62
     0
370
     0
100
AcDbSpline
210
0.0
220
0.0
230
1.0
 70
     8
 71
     3
 72
    12
 73
     8
 74
     0
 42
0.000000001
 43
0.0
 40
7.102250363851074
 40
7.102250363851074
 40
7.102250363851074
 40
7.102250363851074
 40
7.413623982659933
 40
9.117775860919043
 40
10.62916237558552
 40
12.27383619275323
 40
13.16794967043762
 40
13.16794967043762
 40
13.16794967043762
 40
13.16794967043762
 10
780.1638230493471
 20
678.2913917648771
 30
0.0
 10
780.1637880514334
 20
678.2914342624213
 30
0.0
 10
780.1775644364905
 20
678.2779236982358
 30
0.0
 10
780.3618365959908
 20
678.0962987782934
 30
0.0
 10
780.9308856528189
 20
677.54213431973
 30
0.0
 10
781.6173561397982
 20
676.8883343162772
 30
0.0
 10
782.1315821521841
 20
676.4139238958821
 30
0.0
 10
782.32248145532
 20
676.2410500841472
 30
0.0
  0
SPLINE
  5
14A
330
145
100
AcDbEntity
  8
0
  6
Continuous
 62
     0
370
     0
100
AcDbSpline
210
0.0
220
0.0
230
1.0
 70
     8
 71
     3
 72
    12
 73
     8
 74
     0
 42
0.000000001
 43
0.0
 40
0.0
 40
0.0
 40
0.0
 40
0.0
 40
0.111111241458455
 40
0.3333337243753641
 40
0.6666670577086921
 40
0.8888890192362308
 40
1.0
 40
1.0
 40
1.0
 40
1.0
 10
783.8398180536371
 20
677.655452494713
 30
0.0
 10
783.8081407521904
 20
677.5913601757775
 30
0.0
 10
783.7020635553845
 20
677.3990832563577
 30
0.0
 10
783.4246932668392
 20
677.0186525602309
 30
0.0
 10
783.0057381268679
 20
676.6281216612375
 30
0.0
 10
782.5976243992577
 20
676.3695752632594
 30
0.0
 10
782.3913576535612
 20
676.2706991924206
 30
0.0
 10
782.3226022170711
 20
676.2411726185269
 30
0.0
  0
SPLINE
  5
14B
330
145
100
AcDbEntity
  8
0
  6
Continuous
 62
     0
370
     0
100
AcDbSpline
210
0.0
220
0.0
230
1.0
 70
     8
 71
     3
 72
    16
 73
    12
 74
     0
 42
0.000000001
 43
0.0
 40
7.282720684980313
 40
7.282720684980313
 40
7.282720684980313
 40
7.282720684980313
 40
7.384513118866292
 40
7.602217266638417
 40
8.050191807642802
 40
8.86526448578363
 40
9.587637740828352
 40
10.8995549181586
 40
11.91965418861641
 40
13.26974015494066
 40
13.50272488721378
 40
13.50272488721378
 40
13.50272488721378
 40
13.50272488721378
 10
782.1637427881435
 20
680.2914884410438
 30
0.0
 10
782.1637427953507
 20
680.2914884267954
 30
0.0
 10
782.164310755383
 20
680.2906165733386
 30
0.0
 10
782.169958608954
 20
680.2819471430124
 30
0.0
 10
782.1980154787157
 20
680.2388686740674
 30
0.0
 10
782.2786545875049
 20
680.1149159845536
 30
0.0
 10
782.4645921418207
 20
679.828003693603
 30
0.0
 10
782.7542567583183
 20
679.3781122088893
 30
0.0
 10
783.199666241446
 20
678.6777607749427
 30
0.0
 10
783.5670887681997
 20
678.0924372768142
 30
0.0
 10
783.8045599772665
 20
677.7119312260074
 30
0.0
 10
783.8397993249143
 20
677.6554473996765
 30
0.0
  0
LINE
  5
14C
330
145
100
AcDbEntity
  8
0
  6
Continuous
 62
     0
370
     0
100
AcDbLine
 10
786.663779
 20
662.791481
 30
0.0
 11
786.663783
 21
664.791481
 31
0.0
  0
SPLINE
  5
14D
330
145
100
AcDbEntity
  8
0
  6
Continuous
 62
     0
370
     0
100
AcDbSpline
210
0.0
220
0.0
230
1.0
 70
     8
 71
     3
 72
    12
 73
     8
 74
     0
 42
0.000000001
 43
0.0
 40
0.0
 40
0.0
 40
0.0
 40
0.0
 40
0.111108038113273
 40
0.33332411433982
 40
0.66665744767315
 40
0.88888581589105
 40
1.0
 40
1.0
 40
1.0
 40
1.0
 10
783.8394884355018
 20
666.2308216037591
 30
0.0
 10
783.8673142496791
 20
666.1984390200853
 30
0.0
 10
783.9422771132483
 20
666.093974564819
 30
0.0
 10
784.0391627645832
 20
665.8422374771063
 30
0.0
 10
784.0392554525893
 20
665.4876084712512
 30
0.0
 10
783.9425209640203
 20
665.1526737821514
 30
0.0
 10
783.8676258834977
 20
664.9838147719544
 30
0.0
 10
783.8398219412966
 20
664.9275281768837
 30
0.0
  0
SPLINE
  5
14E
330
145
100
AcDbEntity
  8
0
  6
Continuous
 62
     0
370
     0
100
AcDbSpline
210
0.0
220
0.0
230
1.0
 70
     8
 71
     3
 72
    12
 73
     8
 74
     0
 42
0.000000001
 43
0.0
 40
0.0
 40
0.0
 40
0.0
 40
0.0
 40
0.652157515117174
 40
1.285081495959968
 40
2.40640929533869
 40
3.54711927326115
 40
4.151709447694246
 40
4.151709447694246
 40
4.151709447694246
 40
4.151709447694246
 10
786.663778423881
 20
662.7914810180594
 30
0.0
 10
786.4874527165343
 20
662.7914816159473
 30
0.0
 10
786.1400956167985
 20
662.8405958289527
 30
0.0
 10
785.513963253595
 20
663.0988503168625
 30
0.0
 10
784.8271955122273
 20
663.6266655616103
 30
0.0
 10
784.2482522507402
 20
664.3086823188087
 30
0.0
 10
783.9409362124436
 20
664.7652956879756
 30
0.0
 10
783.8396993181404
 20
664.9274436353744
 30
0.0
  0
LINE
  5
14F
330
145
100
AcDbEntity
  8
0
  6
Continuous
 62
     0
370
     0
100
AcDbLine
 10
780.163743
 20
671.291489
 30
0.0
 11
782.163743
 21
671.291489
 31
0.0
  0
SPLINE
  5
150
330
145
100
AcDbEntity
  8
0
  6
Continuous
 62
     0
370
     0
100
AcDbSpline
210
0.0
220
0.0
230
1.0
 70
     8
 71
     3
 72
    11
 73
     7
 74
     0
 42
0.000000001
 43
0.0
 40
0.0
 40
0.0
 40
0.0
 40
0.0
 40
1.883296316188154
 40
3.289825110510949
 40
5.023818361468754
 40
6.068230926565725
 40
6.068230926565725
 40
6.068230926565725
 40
6.068230926565725
 10
780.1637429394865
 20
671.2914886474609
 30
0.0
 10
780.1637429394864
 20
670.6892557714814
 30
0.0
 10
780.304010448046
 20
669.6382530482739
 30
0.0
 10
780.856395153213
 20
668.1756353159747
 30
0.0
 10
781.5419789717132
 20
667.1248813333424
 30
0.0
 10
782.0994343658822
 20
666.5435344252212
 30
0.0
 10
782.3223718990562
 20
666.3416971737971
 30
0.0
  0
SPLINE
  5
151
330
145
100
AcDbEntity
  8
0
  6
Continuous
 62
     0
370
     0
100
AcDbSpline
210
0.0
220
0.0
230
1.0
 70
     8
 71
     3
 72
    10
 73
     6
 74
     0
 42
0.000000001
 43
0.0
 40
0.0
 40
0.0
 40
0.0
 40
0.0
 40
0.7239316039813539
 40
1.447888680737982
 40
2.171871227611908
 40
2.171871227611908
 40
2.171871227611908
 40
2.171871227611908
 10
783.8394884355018
 20
666.2308216037591
 30
0.0
 10
783.7444514757968
 20
666.3414489979535
 30
0.0
 10
783.4846942011129
 20
666.5065318821528
 30
0.0
 10
782.9450690347761
 20
666.545974537828
 30
0.0
 10
782.5286165637949
 20
666.4303111780808
 30
0.0
 10
782.3223718990562
 20
666.3416971737971
 30
0.0
  0
LINE
  5
152
330
145
100
AcDbEntity
  8
0
  6
Continuous
 62
     0
370
     0
100
AcDbLine
 10
786.663779
 20
679.791481
 30
0.0
 11
786.663779
 21
677.791481
 31
0.0
  0
SPLINE
  5
153
330
145
100
AcDbEntity
  8
0
  6
Continuous
 62
     0
370
     0
100
AcDbSpline
210
0.0
220
0.0
230
1.0
 70
     8
 71
     3
 72
    13
 73
     9
 74
     0
 42
0.000000001
 43
0.0
 40
1.088573759845575
 40
1.088573759845575
 40
1.088573759845575
 40
1.088573759845575
 40
1.789405597119867
 40
2.507174003888374
 40
3.180442430366806
 40
4.095688222479491
 40
4.601650003097516
 40
5.240023456047296
 40
5.240023456047296
 40
5.240023456047296
 40
5.240023456047296
 10
783.8398168158513
 20
677.6554485468574
 30
0.0
 10
783.9571745140579
 20
677.8435188118117
 30
0.0
 10
784.2089291812433
 20
678.2136338702985
 30
0.0
 10
784.6244635897963
 20
678.7159913212348
 30
0.0
 10
785.1317161658571
 20
679.2021163505473
 30
0.0
 10
785.6432669669855
 20
679.5446585718432
 30
0.0
 10
786.181840889063
 20
679.7486628056341
 30
0.0
 10
786.4911790511296
 20
679.7914810180664
 30
0.0
 10
786.663778423881
 20
679.7914810180664
 30
0.0
  0
SPLINE
  5
154
330
145
100
AcDbEntity
  8
0
  6
Continuous
 62
     0
370
     0
100
AcDbSpline
210
0.0
220
0.0
230
1.0
 70
     8
 71
     3
 72
    12
 73
     8
 74
     0
 42
0.000000001
 43
0.0
 40
0.0
 40
0.0
 40
0.0
 40
0.0
 40
0.111109047727821
 40
0.333327143183463
 40
0.6666604765167989
 40
0.8888868255055999
 40
1.0
 40
1.0
 40
1.0
 40
1.0
 10
783.8394941336089
 20
676.3520882953399
 30
0.0
 10
783.8673179289999
 20
676.3844748919016
 30
0.0
 10
783.9422751708686
 20
676.4889511016759
 30
0.0
 10
784.039151863905
 20
676.7407088626137
 30
0.0
 10
784.0392413058078
 20
677.0953562812354
 30
0.0
 10
783.942511119848
 20
677.4303018329747
 30
0.0
 10
783.8676203603318
 20
677.5991646991761
 30
0.0
 10
783.8398180536371
 20
677.655452494713
 30
0.0
  0
SPLINE
  5
155
330
145
100
AcDbEntity
  8
0
  6
Continuous
 62
     0
370
     0
100
AcDbSpline
210
0.0
220
0.0
230
1.0
 70
     8
 71
     3
 72
    10
 73
     6
 74
     0
 42
0.000000001
 43
0.0
 40
0.0
 40
0.0
 40
0.0
 40
0.0
 40
0.723768534793083
 40
1.447569395276909
 40
2.171402590894657
 40
2.171402590894657
 40
2.171402590894657
 40
2.171402590894657
 10
783.8394941336089
 20
676.3520882953399
 30
0.0
 10
783.7444444489383
 20
676.2414938806619
 30
0.0
 10
783.4847053253976
 20
676.076462137652
 30
0.0
 10
782.945185940354
 20
676.0370111859894
 30
0.0
 10
782.5288151046825
 20
676.1526059100295
 30
0.0
 10
782.3226022170711
 20
676.2411726185269
 30
0.0
  0
SPLINE
  5
156
330
145
100
AcDbEntity
  8
0
  6
Continuous
 62
     0
370
     0
100
AcDbSpline
210
0.0
220
0.0
230
1.0
 70
     8
 71
     3
 72
    12
 73
     8
 74
     0
 42
0.000000001
 43
0.0
 40
1.036846323820207
 40
1.036846323820207
 40
1.036846323820207
 40
1.036846323820207
 40
1.111290277148617
 40
2.190440414270058
 40
4.17929580208464
 40
5.433683420479644
 40
7.104807553753638
 40
7.104807553753638
 40
7.104807553753638
 40
7.104807553753638
 10
782.3226022170711
 20
676.2411726185269
 30
0.0
 10
782.3067158317685
 20
676.2267862523148
 30
0.0
 10
782.0615691796694
 20
676.0025370891277
 30
0.0
 10
781.4373996000606
 20
675.3361696802692
 30
0.0
 10
780.7589286079035
 20
674.220190867977
 30
0.0
 10
780.2740236162035
 20
672.7607644287787
 30
0.0
 10
780.1637429394865
 20
671.8258736089225
 30
0.0
 10
780.1637429394865
 20
671.2914886474609
 30
0.0
  0
LINE
  5
157
330
145
100
AcDbEntity
  8
0
  6
Continuous
 62
     0
370
     0
100
AcDbLine
 10
788.163778
 20
679.791481
 30
0.0
 11
787.463778
 21
679.791481
 31
0.0
  0
LINE
  5
158
330
145
100
AcDbEntity
  8
0
  6
Continuous
 62
     0
370
    30
100
AcDbLine
 10
788.163778
 20
705.591489
 30
0.0
 11
788.163778
 21
679.791481
 31
0.0
  0
LINE
  5
159
330
145
100
AcDbEntity
  8
0
  6
Continuous
 62
     0
370
     0
100
AcDbLine
 10
788.163778
 20
705.591489
 30
0.0
 11
787.463778
 21
705.591489
 31
0.0
  0
LINE
  5
15A
330
145
100
AcDbEntity
  8
0
  6
Continuous
 62
     0
370
     0
100
AcDbLine
 10
787.463778
 20
705.591489
 30
0.0
 11
787.463778
 21
679.791481
 31
0.0
  0
ARC
  5
15B
330
145
100
AcDbEntity
  8
0
  6
Continuous
 62
     0
370
    30
100
AcDbCircle
 10
787.463778
 20
705.591489
 30
0.0
 40
0.699999988079071
100
AcDbArc
 50
0.0
 51
90.0
  0
LINE
  5
15C
330
145
100
AcDbEntity
  8
0
  6
Continuous
 62
     0
370
     0
100
AcDbLine
 10
786.663778
 20
706.291489
 30
0.0
 11
786.663778
 21
705.591489
 31
0.0
  0
LINE
  5
15D
330
145
100
AcDbEntity
  8
0
  6
Continuous
 62
     0
370
     0
100
AcDbLine
 10
787.463778
 20
705.591489
 30
0.0
 11
786.663778
 21
705.591489
 31
0.0
  0
LINE
  5
15E
330
145
100
AcDbEntity
  8
0
  6
Continuous
 62
     0
370
     0
100
AcDbLine
 10
787.463778
 20
706.291489
 30
0.0
 11
787.463778
 21
705.591489
 31
0.0
  0
LINE
  5
15F
330
145
100
AcDbEntity
  8
0
  6
Continuous
 62
     0
370
    30
100
AcDbLine
 10
787.463778
 20
706.291489
 30
0.0
 11
786.663778
 21
706.291489
 31
0.0
  0
ARC
  5
160
330
145
100
AcDbEntity
  8
0
  6
Continuous
 62
     0
370
    30
100
AcDbCircle
 10
787.463778
 20
636.991489
 30
0.0
 40
0.699999988079071
100
AcDbArc
 50
270.0
 51
360.0
  0
ARC
  5
161
330
145
100
AcDbEntity
  8
0
  6
Continuous
 62
     0
370
    30
100
AcDbCircle
 10
787.46378
 20
677.091481
 30
0.0
 40
0.6999999880790782
100
AcDbArc
 50
360.0
 51
90.0
  0
LINE
  5
162
330
145
100
AcDbEntity
  8
0
  6
Continuous
 62
     0
370
     0
100
AcDbLine
 10
787.46378
 20
665.491481
 30
0.0
 11
788.16378
 21
665.491481
 31
0.0
  0
LINE
  5
163
330
145
100
AcDbEntity
  8
0
  6
Continuous
 62
     0
370
    30
100
AcDbLine
 10
788.16378
 20
665.491481
 30
0.0
 11
788.16378
 21
677.091481
 31
0.0
  0
LINE
  5
164
330
145
100
AcDbEntity
  8
0
  6
Continuous
 62
     0
370
     0
100
AcDbLine
 10
787.46378
 20
677.091481
 30
0.0
 11
788.16378
 21
677.091481
 31
0.0
  0
LINE
  5
165
330
145
100
AcDbEntity
  8
0
  6
Continuous
 62
     0
370
     0
100
AcDbLine
 10
787.46378
 20
665.491481
 30
0.0
 11
787.46378
 21
677.091481
 31
0.0
  0
LINE
  5
166
330
145
100
AcDbEntity
  8
0
  6
Continuous
 62
     0
370
     0
100
AcDbLine
 10
787.46378
 20
677.091481
 30
0.0
 11
786.66378
 21
677.091481
 31
0.0
  0
LINE
  5
167
330
145
100
AcDbEntity
  8
0
  6
Continuous
 62
     0
370
     0
100
AcDbLine
 10
787.46378
 20
677.091481
 30
0.0
 11
787.46378
 21
677.791481
 31
0.0
  0
LINE
  5
168
330
145
100
AcDbEntity
  8
0
  6
Continuous
 62
     0
370
    30
100
AcDbLine
 10
787.46378
 20
677.791481
 30
0.0
 11
786.66378
 21
677.791481
 31
0.0
  0
LINE
  5
169
330
145
100
AcDbEntity
  8
0
  6
Continuous
 62
     0
370
     0
100
AcDbLine
 10
786.66378
 20
677.091481
 30
0.0
 11
786.66378
 21
677.791481
 31
0.0
  0
LINE
  5
16A
330
145
100
AcDbEntity
  8
0
  6
Continuous
 62
     0
370
     0
100
AcDbLine
 10
787.463778
 20
662.791481
 30
0.0
 11
787.463778
 21
636.991489
 31
0.0
  0
LINE
  5
16B
330
145
100
AcDbEntity
  8
0
  6
Continuous
 62
     0
370
     0
100
AcDbLine
 10
788.163778
 20
636.991489
 30
0.0
 11
787.463778
 21
636.991489
 31
0.0
  0
LINE
  5
16C
330
145
100
AcDbEntity
  8
0
  6
Continuous
 62
     0
370
    30
100
AcDbLine
 10
788.163778
 20
662.791481
 30
0.0
 11
788.163778
 21
636.991489
 31
0.0
  0
LINE
  5
16D
330
145
100
AcDbEntity
  8
0
  6
Continuous
 62
     0
370
     0
100
AcDbLine
 10
787.463778
 20
662.791481
 30
0.0
 11
788.163778
 21
662.791481
 31
0.0
  0
LINE
  5
16E
330
145
100
AcDbEntity
  8
0
  6
Continuous
 62
     0
370
    30
100
AcDbLine
 10
787.463778
 20
636.291489
 30
0.0
 11
786.663778
 21
636.291489
 31
0.0
  0
LINE
  5
16F
330
145
100
AcDbEntity
  8
0
  6
Continuous
 62
     0
370
     0
100
AcDbLine
 10
787.463778
 20
636.291489
 30
0.0
 11
787.463778
 21
636.991489
 31
0.0
  0
LINE
  5
170
330
145
100
AcDbEntity
  8
0
  6
Continuous
 62
     0
370
     0
100
AcDbLine
 10
787.463778
 20
636.991489
 30
0.0
 11
786.663778
 21
636.991489
 31
0.0
  0
LINE
  5
171
330
145
100
AcDbEntity
  8
0
  6
Continuous
 62
     0
370
     0
100
AcDbLine
 10
786.663778
 20
636.291489
 30
0.0
 11
786.663778
 21
636.991489
 31
0.0
  0
ARC
  5
172
330
145
100
AcDbEntity
  8
0
  6
Continuous
 62
     0
370
    30
100
AcDbCircle
 10
787.46378
 20
665.491481
 30
0.0
 40
0.699999988079071
100
AcDbArc
 50
270.0
 51
360.0
  0
LINE
  5
173
330
145
100
AcDbEntity
  8
0
  6
Continuous
 62
     0
370
     0
100
AcDbLine
 10
786.66378
 20
665.491481
 30
0.0
 11
786.66378
 21
664.791481
 31
0.0
  0
LINE
  5
174
330
145
100
AcDbEntity
  8
0
  6
Continuous
 62
     0
370
    30
100
AcDbLine
 10
786.66378
 20
664.791481
 30
0.0
 11
787.46378
 21
664.791481
 31
0.0
  0
LINE
  5
175
330
145
100
AcDbEntity
  8
0
  6
Continuous
 62
     0
370
     0
100
AcDbLine
 10
787.46378
 20
665.491481
 30
0.0
 11
787.46378
 21
664.791481
 31
0.0
  0
LINE
  5
176
330
145
100
AcDbEntity
  8
0
  6
Continuous
 62
     0
370
     0
100
AcDbLine
 10
786.663782
 20
665.491481
 30
0.0
 11
787.46378
 21
665.491481
 31
0.0
  0
LINE
  5
177
330
145
100
AcDbEntity
  8
0
  6
Continuous
 62
     0
370
    30
100
AcDbLine
 10
788.163779
 20
665.491481
 30
0.0
 11
788.163779
 21
662.791481
 31
0.0
  0
LINE
  5
178
330
145
100
AcDbEntity
  8
0
  6
Continuous
 62
     0
370
    30
100
AcDbLine
 10
788.163779
 20
677.091481
 30
0.0
 11
788.163779
 21
679.791481
 31
0.0
  0
LINE
  5
179
330
145
100
AcDbEntity
  8
0
  6
Continuous
 62
     0
370
     0
100
AcDbLine
 10
787.463779
 20
677.791481
 30
0.0
 11
787.463779
 21
679.791481
 31
0.0
  0
LINE
  5
17A
330
145
100
AcDbEntity
  8
0
  6
Continuous
 62
     0
370
     0
100
AcDbLine
 10
787.463778
 20
679.791481
 30
0.0
 11
786.663778
 21
679.791481
 31
0.0
  0
LINE
  5
17B
330
145
100
AcDbEntity
  8
0
  6
Continuous
 62
     0
370
     0
100
AcDbLine
 10
786.663778
 20
705.591489
 30
0.0
 11
786.663778
 21
679.791481
 31
0.0
  0
LINE
  5
17C
330
145
100
AcDbEntity
  8
0
  6
Continuous
 62
     0
370
    30
100
AcDbLine
 10
786.663778
 20
706.291489
 30
0.0
 11
782.863743
 21
706.291489
 31
0.0
  0
LINE
  5
17D
330
145
100
AcDbEntity
  8
0
  6
Continuous
 62
     0
370
     0
100
AcDbLine
 10
786.663778
 20
705.591489
 30
0.0
 11
782.163743
 21
705.591489
 31
0.0
  0
LINE
  5
17E
330
145
100
AcDbEntity
  8
0
  6
Continuous
 62
     0
370
    30
100
AcDbLine
 10
786.663778
 20
636.291489
 30
0.0
 11
782.863743
 21
636.291489
 31
0.0
  0
LINE
  5
17F
330
145
100
AcDbEntity
  8
0
  6
Continuous
 62
     0
370
     0
100
AcDbLine
 10
786.663778
 20
636.991489
 30
0.0
 11
782.163743
 21
636.991489
 31
0.0
  0
LINE
  5
180
330
145
100
AcDbEntity
  8
0
  6
Continuous
 62
     0
370
     0
100
AcDbLine
 10
786.663778
 20
662.791481
 30
0.0
 11
786.663778
 21
636.991489
 31
0.0
  0
LINE
  5
181
330
145
100
AcDbEntity
  8
0
  6
Continuous
 62
     0
370
     0
100
AcDbLine
 10
786.663778
 20
662.791481
 30
0.0
 11
787.463778
 21
662.791481
 31
0.0
  0
SPLINE
  5
182
330
145
100
AcDbEntity
  8
0
  6
Continuous
 62
     0
370
     0
100
AcDbSpline
210
0.0
220
0.0
230
1.0
 70
     8
 71
     3
 72
    27
 73
    23
 74
     0
 42
0.000000001
 43
0.0
 40
0.0
 40
0.0
 40
0.0
 40
0.0
 40
1.029141359914143
 40
1.899953279841494
 40
2.770765199768845
 40
3.799906559682988
 40
4.987377359583922
 40
5.699859839524484
 40
6.491507039458438
 40
6.887330639425416
 40
7.283154239392394
 40
7.599813119365976
 40
7.916471999339558
 40
8.312295599306537
 40
8.708119199273515
 40
9.49976639920747
 40
10.21224887914803
 40
11.39971967904896
 40
12.4288610389631
 40
13.29967295889045
 40
14.17048487881781
 40
15.19962623873195
 40
15.19962623873195
 40
15.19962623873195
 40
15.19962623873195
 10
786.663779669656
 20
677.0914810299873
 30
0.0
 10
786.4410600051523
 20
677.0914810299873
 30
0.0
 10
786.0131993550342
 20
677.0348758320206
 30
0.0
 10
785.3555937996318
 20
676.7595701654611
 30
0.0
 10
784.6930947886406
 20
676.279814535768
 30
0.0
 10
784.001123935861
 20
675.4881782475966
 30
0.0
 10
783.4715166526702
 20
674.4947081345019
 30
0.0
 10
783.1296054913225
 20
673.473938944552
 30
0.0
 10
782.9734877507716
 20
672.7258521733529
 30
0.0
 10
782.8979334088883
 20
672.1064786695645
 30
0.0
 10
782.869167730626
 20
671.6782416103614
 30
0.0
 10
782.8613336718665
 20
671.2914886525349
 30
0.0
 10
782.8691677306238
 20
670.9047356617278
 30
0.0
 10
782.8979334102166
 20
670.4764984813673
 30
0.0
 10
782.9734877593467
 20
669.8571246588921
 30
0.0
 10
783.1296055247551
 20
669.1090372272273
 30
0.0
 10
783.4715167818467
 20
668.0882665807515
 30
0.0
 10
784.0011243036281
 20
667.0947941873281
 30
0.0
 10
784.6930956849549
 20
666.3031549217138
 30
0.0
 10
785.3555953567567
 20
665.8233965602574
 30
0.0
 10
786.0132015450015
 20
665.5480884112774
 30
0.0
 10
786.4410623787219
 20
665.4914817613427
 30
0.0
 10
786.6637820432268
 20
665.4914810061415
 30
0.0
  0
SPLINE
  5
183
330
145
100
AcDbEntity
  8
0
  6
Continuous
 62
     0
370
    30
100
AcDbSpline
210
0.0
220
0.0
230
1.0
 70
     8
 71
     3
 72
    41
 73
    37
 74
     0
 42
0.000000001
 43
0.0
 40
0.0
 40
0.0
 40
0.0
 40
0.0
 40
0.6219021576259569
 40
1.243804315251913
 40
1.86570647287787
 40
2.487608630503826
 40
3.109510788129783
 40
3.73141294575574
 40
4.353315103381695
 40
4.975217261007653
 40
5.597119418633609
 40
6.219021576259564
 40
6.84092373388552
 40
7.462825891511478
 40
7.773776970324458
 40
8.084728049137436
 40
8.395679127950412
 40
8.551154667356904
 40
8.706630206763391
 40
8.86210574616988
 40
9.017581285576368
 40
9.32853236438935
 40
9.639483443202327
 40
9.950434522015305
 40
10.57233667964126
 40
11.19423883726722
 40
11.81614099489317
 40
12.43804315251913
 40
13.05994531014509
 40
13.68184746777104
 40
14.303749625397
 40
14.92565178302296
 40
15.54755394064892
 40
16.16945609827487
 40
16.79135825590082
 40
17.41326041352678
 40
17.41326041352678
 40
17.41326041352678
 40
17.41326041352678
 10
786.663779639058
 20
677.7914810180664
 30
0.0
 10
786.5122555618176
 20
677.7914810180664
 30
0.0
 10
786.2028214385084
 20
677.7693403462938
 30
0.0
 10
785.7260999963906
 20
677.6619505143065
 30
0.0
 10
785.2449621033836
 20
677.4743244904573
 30
0.0
 10
784.7688659110182
 20
677.2028742865393
 30
0.0
 10
784.3081195268294
 20
676.847114203232
 30
0.0
 10
783.8732587177706
 20
676.4100833316057
 30
0.0
 10
783.474320077859
 20
675.898444017146
 30
0.0
 10
783.1201050728414
 20
675.3222045820715
 30
0.0
 10
782.8175423720163
 20
674.694077875682
 30
0.0
 10
782.5712451554634
 20
674.028561789064
 30
0.0
 10
782.3833146793652
 20
673.3408718980108
 30
0.0
 10
782.2750732283191
 20
672.761734734215
 30
0.0
 10
782.2162393006112
 20
672.3016002934262
 30
0.0
 10
782.185494524341
 20
671.9595716025851
 30
0.0
 10
782.1705592648359
 20
671.6783760301894
 30
0.0
 10
782.1647008754446
 20
671.4561359116153
 30
0.0
 10
782.1632657614889
 20
671.291488648272
 30
0.0
 10
782.1647008754446
 20
671.1268413800625
 30
0.0
 10
782.1705592648359
 20
670.9046012416238
 30
0.0
 10
782.185494524341
 20
670.6234056185851
 30
0.0
 10
782.2162393006112
 20
670.2813768234943
 30
0.0
 10
782.2750732283191
 20
669.8212421832106
 30
0.0
 10
782.3833146793651
 20
669.2421046523879
 30
0.0
 10
782.5712451554634
 20
668.5544141240971
 30
0.0
 10
782.8175423720163
 20
667.8888972023309
 30
0.0
 10
783.1201050728414
 20
667.2607694700071
 30
0.0
 10
783.474320077859
 20
666.684528833855
 30
0.0
 10
783.8732587177707
 20
666.172888166668
 30
0.0
 10
784.3081195268295
 20
665.7358558205092
 30
0.0
 10
784.7688659110182
 20
665.3800941748959
 30
0.0
 10
785.2449621033836
 20
665.1086423566237
 30
0.0
 10
785.7260999963908
 20
664.9210147013248
 30
0.0
 10
786.2028214385084
 20
664.8136232528632
 30
0.0
 10
786.5122555618177
 20
664.7914815318566
 30
0.0
 10
786.663779639058
 20
664.7914810180664
 30
0.0
  0
LINE
  5
184
330
145
100
AcDbEntity
  8
0
  6
Continuous
 62
     0
370
     0
100
AcDbLine
 10
787.463779
 20
664.791481
 30
0.0
 11
787.463779
 21
662.791481
 31
0.0
  0
LINE
  5
185
330
145
100
AcDbEntity
  8
0
  6
Continuous
 62
     0
370
    30
100
AcDbLine
 10
759.463753
 20
664.291489
 30
0.0
 11
780.163703
 21
664.291489
 31
0.0
  0
LINE
  5
186
330
145
100
AcDbEntity
  8
0
  6
Continuous
 62
     0
370
    30
100
AcDbLine
 10
759.463753
 20
678.291489
 30
0.0
 11
780.163703
 21
678.291489
 31
0.0
  0
ARC
  5
187
330
145
100
AcDbEntity
  8
0
  6
Continuous
 62
     0
370
    30
100
AcDbCircle
 10
782.863746
 20
705.591486
 30
0.0
 40
0.7000031410595617
100
AcDbArc
 50
90.000662
 51
179.999742
  0
ARC
  5
188
330
145
100
AcDbEntity
  8
0
  6
Continuous
 62
     0
370
    30
100
AcDbCircle
 10
782.863746
 20
636.991492
 30
0.0
 40
0.7000031410631429
100
AcDbArc
 50
180.000258
 51
269.999338
  0
LINE
  5
189
330
145
100
AcDbEntity
  8
0
  6
Continuous
 62
     0
370
    30
100
AcDbLine
 10
782.163743
 20
662.29148
 30
0.0
 11
782.163743
 21
636.991489
 31
0.0
  0
LINE
  5
18A
330
145
100
AcDbEntity
  8
0
  6
Continuous
 62
     0
370
    30
100
AcDbLine
 10
782.163743
 20
680.291498
 30
0.0
 11
782.163743
 21
705.591489
 31
0.0
  0
ARC
  5
18B
330
145
100
AcDbEntity
  8
0
  6
Continuous
 62
     0
370
    30
100
AcDbCircle
 10
780.163551
 20
680.291583
 30
0.0
 40
2.00019159672675
100
AcDbArc
 50
270.00779
 51
359.997255
  0
ARC
  5
18C
330
145
100
AcDbEntity
  8
0
  6
Continuous
 62
     0
370
    30
100
AcDbCircle
 10
780.163551
 20
662.291394
 30
0.0
 40
2.000191594560915
100
AcDbArc
 50
0.002743
 51
89.992209
  0
LINE
  5
18D
330
145
100
AcDbEntity
  8
0
  6
Continuous
 62
     0
370
    30
100
AcDbLine
 10
759.463753
 20
654.791494
 30
0.0
 11
759.463753
 21
687.791494
 31
0.0
  0
LINE
  5
18E
330
145
100
AcDbEntity
  8
0
  6
Continuous
 62
     0
370
    30
100
AcDbLine
 10
739.463753
 20
687.791494
 30
0.0
 11
759.463753
 21
687.791494
 31
0.0
  0
LINE
  5
18F
330
145
100
AcDbEntity
  8
0
  6
Continuous
 62
     0
370
    30
100
AcDbLine
 10
739.463753
 20
654.791494
 30
0.0
 11
759.463753
 21
654.791494
 31
0.0
  0
LINE
  5
190
330
145
100
AcDbEntity
  8
0
  6
Continuous
 62
     0
370
    30
100
AcDbLine
 10
796.463753
 20
529.790695
 30
0.0
 11
795.963753
 21
529.290695
 31
0.0
  0
LINE
  5
191
330
145
100
AcDbEntity
  8
0
  6
Continuous
 62
     0
370
    30
100
AcDbLine
 10
796.463753
 20
572.790695
 30
0.0
 11
796.463753
 21
529.790695
 31
0.0
  0
LINE
  5
192
330
145
100
AcDbEntity
  8
0
  6
Continuous
 62
     0
370
    30
100
AcDbLine
 10
795.963753
 20
573.290695
 30
0.0
 11
795.963753
 21
529.290695
 31
0.0
  0
LINE
  5
193
330
145
100
AcDbEntity
  8
0
  6
Continuous
 62
     0
370
    30
100
AcDbLine
 10
746.463753
 20
573.290695
 30
0.0
 11
746.463753
 21
529.290695
 31
0.0
  0
LINE
  5
194
330
145
100
AcDbEntity
  8
0
  6
Continuous
 62
     0
370
    30
100
AcDbLine
 10
795.963753
 20
529.290695
 30
0.0
 11
746.463753
 21
529.290695
 31
0.0
  0
LINE
  5
195
330
145
100
AcDbEntity
  8
0
  6
Continuous
 62
     0
370
    30
100
AcDbLine
 10
796.463712
 20
572.790736
 30
0.0
 11
795.963753
 21
573.290695
 31
0.0
  0
LINE
  5
196
330
145
100
AcDbEntity
  8
0
  6
Continuous
 62
     0
370
    30
100
AcDbLine
 10
783.513753
 20
573.290695
 30
0.0
 11
746.463753
 21
573.290695
 31
0.0
  0
LINE
  5
197
330
145
100
AcDbEntity
  8
0
  6
Continuous
 62
     0
370
    30
100
AcDbLine
 10
795.963753
 20
573.290695
 30
0.0
 11
791.413753
 21
573.290695
 31
0.0
  0
LINE
  5
198
330
145
100
AcDbEntity
  8
0
  6
Continuous
 62
     0
370
    30
100
AcDbLine
 10
790.913753
 20
581.120695
 30
0.0
 11
791.413753
 21
580.620695
 31
0.0
  0
LINE
  5
199
330
145
100
AcDbEntity
  8
0
  6
Continuous
 62
     0
370
    30
100
AcDbLine
 10
784.013753
 20
581.120695
 30
0.0
 11
790.913753
 21
581.120695
 31
0.0
  0
LINE
  5
19A
330
145
100
AcDbEntity
  8
0
  6
Continuous
 62
     0
370
    30
100
AcDbLine
 10
791.413753
 20
580.620695
 30
0.0
 11
783.513753
 21
580.620695
 31
0.0
  0
LINE
  5
19B
330
145
100
AcDbEntity
  8
0
  6
Continuous
 62
     0
370
    30
100
AcDbLine
 10
791.413753
 20
580.620695
 30
0.0
 11
791.413753
 21
573.290695
 31
0.0
  0
LINE
  5
19C
330
145
100
AcDbEntity
  8
0
  6
Continuous
 62
     0
370
    30
100
AcDbLine
 10
783.513753
 20
580.620695
 30
0.0
 11
783.513753
 21
573.290695
 31
0.0
  0
LINE
  5
19D
330
145
100
AcDbEntity
  8
0
  6
Continuous
 62
     0
370
    30
100
AcDbLine
 10
784.013605
 20
581.120548
 30
0.0
 11
783.513753
 21
580.620695
 31
0.0
  0
LINE
  5
19E
330
145
100
AcDbEntity
  8
0
  6
Continuous
 62
     0
370
    30
100
AcDbLine
 10
742.878327
 20
570.290695
 30
0.0
 11
746.463753
 21
570.290695
 31
0.0
  0
LINE
  5
19F
330
145
100
AcDbEntity
  8
0
  6
Continuous
 62
     0
370
    30
100
AcDbLine
 10
742.878327
 20
532.290695
 30
0.0
 11
746.463753
 21
532.290695
 31
0.0
  0
LINE
  5
1A0
330
145
100
AcDbEntity
  8
0
  6
Continuous
 62
     0
370
    30
100
AcDbLine
 10
739.463753
 20
641.291494
 30
0.0
 11
739.463753
 21
701.291494
 31
0.0
  0
LINE
  5
1A1
330
145
100
AcDbEntity
  8
0
  6
Continuous
 62
     0
370
    30
100
AcDbLine
 10
732.463753
 20
641.291494
 30
0.0
 11
732.463753
 21
701.291494
 31
0.0
  0
LINE
  5
1A2
330
145
100
AcDbEntity
  8
0
  6
Continuous
 62
     0
370
    30
100
AcDbLine
 10
739.463753
 20
641.291494
 30
0.0
 11
732.463753
 21
641.291494
 31
0.0
  0
LINE
  5
1A3
330
145
100
AcDbEntity
  8
0
  6
Continuous
 62
     0
370
    30
100
AcDbLine
 10
739.463753
 20
701.291494
 30
0.0
 11
732.463753
 21
701.291494
 31
0.0
  0
LINE
  5
1A4
330
145
100
AcDbEntity
  8
0
  6
Continuous
 62
     0
370
     0
100
AcDbLine
 10
741.478849
 20
616.290695
 30
0.0
 11
741.478849
 21
486.290695
 31
0.0
  0
LINE
  5
1A5
330
145
100
AcDbEntity
  8
0
  6
Continuous
 62
     0
370
     0
100
AcDbLine
 10
741.978615
 20
486.775429
 30
0.0
 11
741.978615
 21
615.805961
 31
0.0
  0
LINE
  5
1A6
330
145
100
AcDbEntity
  8
0
  6
Continuous
 62
     0
370
    30
100
AcDbLine
 10
732.463753
 20
616.290695
 30
0.0
 11
732.463753
 21
486.290695
 31
0.0
  0
LINE
  5
1A7
330
145
100
AcDbEntity
  8
0
  6
Continuous
 62
     0
370
    30
100
AcDbLine
 10
732.463753
 20
616.290695
 30
0.0
 11
741.478849
 21
616.290695
 31
0.0
  0
LINE
  5
1A8
330
145
100
AcDbEntity
  8
0
  6
Continuous
 62
     0
370
    30
100
AcDbLine
 10
732.463753
 20
486.290695
 30
0.0
 11
741.478849
 21
486.290695
 31
0.0
  0
ARC
  5
1A9
330
145
100
AcDbEntity
  8
0
  6
Continuous
 62
     0
370
    30
100
AcDbCircle
 10
-1370.048808
 20
551.290451
 30
0.0
 40
2113.012562314653
100
AcDbArc
 50
0.515212
 51
1.749656
  0
ARC
  5
1AA
330
145
100
AcDbEntity
  8
0
  6
Continuous
 62
     0
370
    30
100
AcDbCircle
 10
-1370.048808
 20
551.29094
 30
0.0
 40
2113.01256231467
100
AcDbArc
 50
358.250344
 51
359.484788
  0
ARC
  5
1AB
330
145
100
AcDbEntity
  8
0
  6
Continuous
 62
     0
370
    30
100
AcDbCircle
 10
741.478767
 20
615.790611
 30
0.0
 40
0.500084423360333
100
AcDbArc
 50
1.759035
 51
89.990622
  0
ARC
  5
1AC
330
145
100
AcDbEntity
  8
0
  6
Continuous
 62
     0
370
    30
100
AcDbCircle
 10
741.478767
 20
486.79078
 30
0.0
 40
0.5000844233603272
100
AcDbArc
 50
270.009378
 51
358.240965
  0
LINE
  5
1AD
330
145
100
AcDbEntity
  8
0
  6
Continuous
 62
     0
370
    30
100
AcDbLine
 10
742.878327
 20
570.290695
 30
0.0
 11
742.878327
 21
532.290695
 31
0.0
  0
ENDBLK
  5
1AF
330
145
100
AcDbEntity
  8
0
100
AcDbBlockEnd
  0
BLOCK
  5
258
330
1B1
100
AcDbEntity
  8
0
100
AcDbBlockBegin
  2
d
 70
     0
 10
1049.529588
 20
3740.098397
 30
0.0
  3
d
  1

  0
SPLINE
  5
1B2
330
1B1
100
AcDbEntity
  8
0
  6
Continuous
 62
     0
370
     0
100
AcDbSpline
210
0.0
220
0.0
230
1.0
 70
     8
 71
     3
 72
     9
 73
     5
 74
     0
 42
0.000000001
 43
0.0
 40
0.0
 40
0.0
 40
0.0
 40
0.0
 40
0.652089755406342
 40
0.9476254811266672
 40
0.9476254811266672
 40
0.9476254811266672
 40
0.9476254811266672
 10
568.3613982059031
 20
940.32759171222
 30
0.0
 10
568.2367300408218
 20
940.399568422768
 30
0.0
 10
568.0300038412827
 20
940.4714211183941
 30
0.0
 10
567.7941266765018
 20
940.4961216414808
 30
0.0
 10
567.7181968500513
 20
940.4994913849282
 30
0.0
  0
ELLIPSE
  5
1B3
330
1B1
100
AcDbEntity
  8
0
  6
Continuous
 62
     0
370
     0
100
AcDbEllipse
 10
568.361398
 20
941.960585
 30
0.0
 11
-1.0
 21
-1.732050807568877
 31
0.0
210
0.0
220
0.0
230
-1.0
 40
0.57735
 41
5.497787143782132
 42
5.927517893477259
  0
SPLINE
  5
1B4
330
1B1
100
AcDbEntity
  8
0
  6
Continuous
 62
     0
370
     0
100
AcDbSpline
210
0.0
220
0.0
230
1.0
 70
     8
 71
     3
 72
    11
 73
     7
 74
     0
 42
0.000000001
 43
0.0
 40
8.78555448342221
 40
8.78555448342221
 40
8.78555448342221
 40
8.78555448342221
 40
9.117775860919043
 40
10.62916237558552
 40
12.27383619275323
 40
13.16794967043762
 40
13.16794967043762
 40
13.16794967043762
 40
13.16794967043762
 10
556.7608054176218
 20
939.0426895640162
 30
0.0
 10
556.7059313938028
 20
938.9717865720736
 30
0.0
 10
556.413672056103
 20
938.5650882051182
 30
0.0
 10
555.9939915943673
 20
937.6645626798786
 30
0.0
 10
555.7764572917847
 20
936.4446429542486
 30
0.0
 10
555.7684174951446
 20
935.6327829271063
 30
0.0
 10
555.7811773317075
 20
935.3431303238244
 30
0.0
  0
SPLINE
  5
1B5
330
1B1
100
AcDbEntity
  8
0
  6
Continuous
 62
     0
370
     0
100
AcDbSpline
210
0.0
220
0.0
230
1.0
 70
     8
 71
     3
 72
    11
 73
     7
 74
     0
 42
0.000000001
 43
0.0
 40
0.2011645061775665
 40
0.2011645061775665
 40
0.2011645061775665
 40
0.2011645061775665
 40
0.3333337243753641
 40
0.6666670577086921
 40
0.8888890192362308
 40
1.0
 40
1.0
 40
1.0
 40
1.0
 10
556.7476296692226
 20
935.7037124885915
 30
0.0
 10
556.7309992657863
 20
935.6761361295999
 30
0.0
 10
556.6484234911328
 20
935.5814798294596
 30
0.0
 10
556.4056380395646
 20
935.4618287575245
 30
0.0
 10
556.0519912618273
 20
935.3797719117474
 30
0.0
 10
555.8507704841477
 20
935.3512811632268
 30
0.0
 10
555.7812703743261
 20
935.3431854893502
 30
0.0
  0
ELLIPSE
  5
1B6
330
1B1
100
AcDbEntity
  8
0
  6
Continuous
 62
     0
370
     0
100
AcDbEllipse
 10
556.340583
 20
921.139922
 30
0.0
 11
1.000003097640246
 21
1.732049019141753
 31
0.0
210
0.0
220
0.0
230
1.0
 40
0.577349
 41
5.497788176328348
 42
5.927520498937677
  0
SPLINE
  5
1B7
330
1B1
100
AcDbEntity
  8
0
  6
Continuous
 62
     0
370
     0
100
AcDbSpline
210
0.0
220
0.0
230
1.0
 70
     8
 71
     3
 72
     9
 73
     5
 74
     0
 42
0.000000001
 43
0.0
 40
0.0
 40
0.0
 40
0.0
 40
0.0
 40
0.652157515117174
 40
0.9476273127353597
 40
0.9476273127353597
 40
0.9476273127353597
 40
0.9476273127353597
 10
557.7547964880999
 20
921.9564186413376
 30
0.0
 10
557.6301153847376
 20
922.0284037981004
 30
0.0
 10
557.4645268805782
 20
922.1715125632458
 30
0.0
 10
557.3251984054752
 20
922.3634423533207
 30
0.0
 10
557.2843242883425
 20
922.4275007055538
 30
0.0
  0
ELLIPSE
  5
1B8
330
1B1
100
AcDbEntity
  8
0
  6
Continuous
 62
     0
370
     0
100
AcDbEllipse
 10
556.340583
 20
935.020364
 30
0.0
 11
-0.9999999999999983
 21
-1.732050807568874
 31
0.0
210
0.0
220
0.0
230
-1.0
 40
0.57735
 41
3.926990816987266
 42
5.497787143782103
  0
SPLINE
  5
1B9
330
1B1
100
AcDbEntity
  8
0
  6
Continuous
 62
     0
370
     0
100
AcDbSpline
210
0.0
220
0.0
230
1.0
 70
     8
 71
     3
 72
    13
 73
     9
 74
     0
 42
0.000000001
 43
0.0
 40
1.589329675908664
 40
1.589329675908664
 40
1.589329675908664
 40
1.589329675908664
 40
1.789405597119867
 40
2.507174003888374
 40
3.180442430366806
 40
4.095688222479491
 40
4.601650003097516
 40
5.240023456047296
 40
5.240023456047296
 40
5.240023456047296
 40
5.240023456047296
 10
556.7607982726205
 20
935.9324443405203
 30
0.0
 10
556.7607998907274
 20
935.9445801552547
 30
0.0
 10
556.7645354655854
 20
935.9981721958366
 30
0.0
 10
556.801669412903
 20
936.0735322481814
 30
0.0
 10
556.9321834273592
 20
936.1316339913938
 30
0.0
 10
557.1404771642067
 20
936.1138975165964
 30
0.0
 10
557.4323782554934
 20
936.0092516881482
 30
0.0
 10
557.6327503011989
 20
935.9073239159757
 30
0.0
 10
557.7547964881
 20
935.8368605171149
 30
0.0
  0
SPLINE
  5
1BA
330
1B1
100
AcDbEntity
  8
0
  6
Continuous
 62
     0
370
     0
100
AcDbSpline
210
0.0
220
0.0
230
1.0
 70
     8
 71
     3
 72
    13
 73
     9
 74
     0
 42
0.000000001
 43
0.0
 40
1.589329972900654
 40
1.589329972900654
 40
1.589329972900654
 40
1.589329972900654
 40
1.789405597119858
 40
2.507174003888361
 40
3.180442430366789
 40
4.09568822247947
 40
4.601650003097493
 40
5.240023456047269
 40
5.240023456047269
 40
5.240023456047269
 40
5.240023456047269
 10
555.7608057519278
 20
934.2004065415226
 30
0.0
 10
555.750296655098
 20
934.1943372404266
 30
0.0
 10
555.7057523940529
 20
934.1643061238096
 30
0.0
 10
555.6590556566669
 20
934.0944671689535
 30
0.0
 10
555.6739950782691
 20
933.9523878452783
 30
0.0
 10
555.7935021844407
 20
933.7808684151178
 30
0.0
 10
556.0300786759204
 20
933.5803975688955
 30
0.0
 10
556.2185367388258
 20
933.4578341731926
 30
0.0
 10
556.340582925727
 20
933.3873707743314
 30
0.0
  0
SPLINE
  5
1BB
330
1B1
100
AcDbEntity
  8
0
  6
Continuous
 62
     0
370
     0
100
AcDbSpline
210
0.0
220
0.0
230
1.0
 70
     8
 71
     3
 72
    10
 73
     6
 74
     0
 42
0.000000001
 43
0.0
 40
0.4346377221668696
 40
0.4346377221668696
 40
0.4346377221668696
 40
0.4346377221668696
 40
0.723768534793083
 40
1.447569395276909
 40
2.171402590894657
 40
2.171402590894657
 40
2.171402590894657
 40
2.171402590894657
 10
555.9518554128049
 20
934.3258205641787
 30
0.0
 10
555.9675789564257
 20
934.3540877819146
 30
0.0
 10
556.0083908403086
 20
934.4727028193761
 30
0.0
 10
555.9876776621809
 20
934.7873202113319
 30
0.0
 10
555.8644465414433
 20
935.1505207426371
 30
0.0
 10
555.7812703743261
 20
935.3431854893502
 30
0.0
  0
SPLINE
  5
1BC
330
1B1
100
AcDbEntity
  8
0
  6
Continuous
 62
     0
370
     0
100
AcDbSpline
210
0.0
220
0.0
230
1.0
 70
     8
 71
     3
 72
    11
 73
     7
 74
     0
 42
0.000000001
 43
0.0
 40
1.036846323820207
 40
1.036846323820207
 40
1.036846323820207
 40
1.036846323820207
 40
1.111290277148617
 40
2.190440414270058
 40
4.17929580208464
 40
5.420870929517054
 40
5.420870929517054
 40
5.420870929517054
 40
5.420870929517054
 10
555.7812703743261
 20
935.3431854893502
 30
0.0
 10
555.7598628485724
 20
935.3320506095661
 30
0.0
 10
555.4293012666787
 20
935.1582635274581
 30
0.0
 10
554.5790124705002
 20
934.6328946994304
 30
0.0
 10
553.6405918900577
 20
933.734932595361
 30
0.0
 10
553.1940015256616
 20
932.9550607070069
 30
0.0
 10
553.0670602969417
 20
932.6451634876412
 30
0.0
  0
ELLIPSE
  5
1BD
330
1B1
100
AcDbEntity
  8
0
  6
Continuous
 62
     0
370
     0
100
AcDbEllipse
 10
558.815457
 20
935.796036
 30
0.0
 11
0.699999988079071
 21
0.0
 31
0.0
210
0.0
220
0.0
230
-1.0
 40
0.57735
 41
0.7853981633974887
 42
2.356194490192343
  0
LINE
  5
1BE
330
1B1
100
AcDbEntity
  8
0
  6
Continuous
 62
     0
370
     0
100
AcDbLine
 10
559.310431
 20
956.57588
 30
0.0
 11
559.310431
 21
935.510262
 31
0.0
  0
ELLIPSE
  5
1BF
330
1B1
100
AcDbEntity
  8
0
  6
Continuous
 62
     0
370
     0
100
AcDbEllipse
 10
558.815457
 20
956.861654
 30
0.0
 11
0.699999988079071
 21
0.0
 31
0.0
210
0.0
220
0.0
230
-1.0
 40
0.57735
 41
0.785398163397448
 42
2.356194490192343
  0
LINE
  5
1C0
330
1B1
100
AcDbEntity
  8
0
  6
Continuous
 62
     0
370
     0
100
AcDbLine
 10
558.320482
 20
956.57588
 30
0.0
 11
558.320482
 21
935.510262
 31
0.0
  0
LINE
  5
1C1
330
1B1
100
AcDbEntity
  8
0
  6
Continuous
 62
     0
370
     0
100
AcDbLine
 10
567.017895
 20
962.168881
 30
0.0
 11
558.815457
 21
957.433201
 31
0.0
  0
ELLIPSE
  5
1C2
330
1B1
100
AcDbEntity
  8
0
  6
Continuous
 62
     0
370
     0
100
AcDbEllipse
 10
558.815457
 20
956.861654
 30
0.0
 11
-0.3499999940395357
 21
0.60621777232528
 31
0.0
210
0.0
220
0.0
230
-1.0
 40
0.57735
 41
0.7853981633974482
 42
2.356194490192343
  0
LINE
  5
1C3
330
1B1
100
AcDbEntity
  8
0
  6
Continuous
 62
     0
370
     0
100
AcDbLine
 10
567.51287
 20
961.31156
 30
0.0
 11
559.310431
 21
956.57588
 31
0.0
  0
ELLIPSE
  5
1C4
330
1B1
100
AcDbEntity
  8
0
  6
Continuous
 62
     0
370
     0
100
AcDbEllipse
 10
567.017895
 20
961.597334
 30
0.0
 11
-0.3499999940395391
 21
0.6062177723252858
 31
0.0
210
0.0
220
0.0
230
-1.0
 40
0.57735
 41
0.785398163397448
 42
2.35619449019218
  0
ELLIPSE
  5
1C5
330
1B1
100
AcDbEntity
  8
0
  6
Continuous
 62
     0
370
     0
100
AcDbEllipse
 10
558.249771
 20
957.188252
 30
0.0
 11
0.3499999940395391
 21
0.6062177723252858
 31
0.0
210
0.0
220
0.0
230
1.0
 40
0.57735
 41
0.7853981633975501
 42
2.35619449019218
  0
LINE
  5
1C6
330
1B1
100
AcDbEntity
  8
0
  6
Continuous
 62
     0
370
     0
100
AcDbLine
 10
558.320482
 20
956.57588
 30
0.0
 11
557.754796
 21
956.902479
 31
0.0
  0
ELLIPSE
  5
1C7
330
1B1
100
AcDbEntity
  8
0
  6
Continuous
 62
     0
370
     0
100
AcDbEllipse
 10
558.815457
 20
956.861654
 30
0.0
 11
0.3499999940395357
 21
0.60621777232528
 31
0.0
210
0.0
220
0.0
230
1.0
 40
0.57735
 41
0.7853981633974481
 42
2.356194490192343
  0
LINE
  5
1C8
330
1B1
100
AcDbEntity
  8
0
  6
Continuous
 62
     0
370
     0
100
AcDbLine
 10
558.815457
 20
957.433201
 30
0.0
 11
558.249771
 21
957.7598
 31
0.0
  0
ELLIPSE
  5
1C9
330
1B1
100
AcDbEntity
  8
0
  6
Continuous
 62
     0
370
     0
100
AcDbEllipse
 10
567.017895
 20
961.597334
 30
0.0
 11
0.6999999880790782
 21
0.0
 31
0.0
210
0.0
220
0.0
230
-1.0
 40
0.57735
 41
6.283185030682029
 42
7.068583470577034
  0
LINE
  5
1CA
330
1B1
100
AcDbEntity
  8
0
  6
Continuous
 62
     0
370
     0
100
AcDbLine
 10
567.51287
 20
961.31156
 30
0.0
 11
567.51287
 21
940.245942
 31
0.0
  0
ELLIPSE
  5
1CB
330
1B1
100
AcDbEntity
  8
0
  6
Continuous
 62
     0
370
     0
100
AcDbEllipse
 10
567.017895
 20
940.531716
 30
0.0
 11
-0.6999999880790669
 21
0.0
 31
0.0
210
0.0
220
0.0
230
1.0
 40
0.57735
 41
2.356194490191916
 42
3.141592644950097
  0
LINE
  5
1CC
330
1B1
100
AcDbEntity
  8
0
  6
Continuous
 62
     0
370
     0
100
AcDbLine
 10
566.452212
 20
962.495479
 30
0.0
 11
567.017895
 21
962.168881
 31
0.0
  0
ELLIPSE
  5
1CD
330
1B1
100
AcDbEntity
  8
0
  6
Continuous
 62
     0
370
     0
100
AcDbEllipse
 10
567.017895
 20
961.597334
 30
0.0
 11
-0.3499999940395391
 21
-0.6062177723252858
 31
0.0
210
0.0
220
0.0
230
-1.0
 40
0.57735
 41
2.356194490192343
 42
3.141592676439942
  0
ELLIPSE
  5
1CE
330
1B1
100
AcDbEntity
  8
0
  6
Continuous
 62
     0
370
     0
100
AcDbEllipse
 10
566.45221
 20
961.923933
 30
0.0
 11
-0.3499999940395357
 21
-0.60621777232528
 31
0.0
210
0.0
220
0.0
230
-1.0
 40
0.57735
 41
2.356194490198108
 42
3.14159267643997
  0
ELLIPSE
  5
1CF
330
1B1
100
AcDbEntity
  8
0
  6
Continuous
 62
     0
370
     0
100
AcDbEllipse
 10
568.927084
 20
939.429445
 30
0.0
 11
0.3499999940395367
 21
-0.6062177723252817
 31
0.0
210
0.0
220
0.0
230
1.0
 40
0.57735
 41
0.7853981633974476
 42
2.356194490192343
  0
LINE
  5
1D0
330
1B1
100
AcDbEntity
  8
0
  6
Continuous
 62
     0
370
     0
100
AcDbLine
 10
587.665408
 20
949.676474
 30
0.0
 11
569.422058
 21
939.143672
 31
0.0
  0
ELLIPSE
  5
1D1
330
1B1
100
AcDbEntity
  8
0
  6
Continuous
 62
     0
370
     0
100
AcDbEllipse
 10
587.170433
 20
949.962248
 30
0.0
 11
0.3499999940395357
 21
-0.60621777232528
 31
0.0
210
0.0
220
0.0
230
1.0
 40
0.57735
 41
0.7853981633974481
 42
2.356194490192343
  0
LINE
  5
1D2
330
1B1
100
AcDbEntity
  8
0
  6
Continuous
 62
     0
370
     0
100
AcDbLine
 10
587.170433
 20
950.533796
 30
0.0
 11
568.927084
 21
940.000993
 31
0.0
  0
ELLIPSE
  5
1D3
330
1B1
100
AcDbEntity
  8
0
  6
Continuous
 62
     0
370
     0
100
AcDbEllipse
 10
587.170433
 20
949.962248
 30
0.0
 11
0.699999988079071
 21
0.0
 31
0.0
210
0.0
220
0.0
230
-1.0
 40
0.57735
 41
6.283184915088454
 42
7.068583470577013
  0
LINE
  5
1D4
330
1B1
100
AcDbEntity
  8
0
  6
Continuous
 62
     0
370
     0
100
AcDbLine
 10
587.665408
 20
940.205114
 30
0.0
 11
587.665408
 21
949.676474
 31
0.0
  0
ELLIPSE
  5
1D5
330
1B1
100
AcDbEntity
  8
0
  6
Continuous
 62
     0
370
     0
100
AcDbEllipse
 10
587.170433
 20
940.490888
 30
0.0
 11
0.6999999880790639
 21
0.0
 31
0.0
210
0.0
220
0.0
230
-1.0
 40
0.57735
 41
0.0000000084542249
 42
0.785398163397448
  0
ELLIPSE
  5
1D6
330
1B1
100
AcDbEntity
  8
0
  6
Continuous
 62
     0
370
     0
100
AcDbEllipse
 10
586.604748
 20
950.288847
 30
0.0
 11
0.3499999940395321
 21
0.6062177723252739
 31
0.0
210
0.0
220
0.0
230
1.0
 40
0.57735
 41
-0.0000000228501687
 42
0.7853981633974484
  0
LINE
  5
1D7
330
1B1
100
AcDbEntity
  8
0
  6
Continuous
 62
     0
370
     0
100
AcDbLine
 10
587.170433
 20
950.533796
 30
0.0
 11
586.604748
 21
950.860394
 31
0.0
  0
ELLIPSE
  5
1D8
330
1B1
100
AcDbEntity
  8
0
  6
Continuous
 62
     0
370
     0
100
AcDbEllipse
 10
587.170433
 20
949.962248
 30
0.0
 11
0.3499999940395357
 21
0.60621777232528
 31
0.0
210
0.0
220
0.0
230
1.0
 40
0.57735
 41
-0.0000000228501395
 42
0.785398163397468
  0
ELLIPSE
  5
1D9
330
1B1
100
AcDbEntity
  8
0
  6
Continuous
 62
     0
370
     0
100
AcDbEllipse
 10
587.170433
 20
940.490888
 30
0.0
 11
0.3499999940395321
 21
-0.6062177723252739
 31
0.0
210
0.0
220
0.0
230
1.0
 40
0.57735
 41
0.0000000314898463
 42
0.7853981633974476
  0
LINE
  5
1DA
330
1B1
100
AcDbEntity
  8
0
  6
Continuous
 62
     0
370
     0
100
AcDbLine
 10
587.665408
 20
940.205114
 30
0.0
 11
569.422058
 21
929.672311
 31
0.0
  0
ELLIPSE
  5
1DB
330
1B1
100
AcDbEntity
  8
0
  6
Continuous
 62
     0
370
     0
100
AcDbEllipse
 10
568.927084
 20
929.958085
 30
0.0
 11
-0.3499999940395346
 21
0.606217772325278
 31
0.0
210
0.0
220
0.0
230
-1.0
 40
0.57735
 41
2.356194490192729
 42
3.141592622350325
  0
ELLIPSE
  5
1DC
330
1B1
100
AcDbEntity
  8
0
  6
Continuous
 62
     0
370
     0
100
AcDbEllipse
 10
567.017895
 20
926.651274
 30
0.0
 11
0.699999988079069
 21
0.0
 31
0.0
210
0.0
220
0.0
230
-1.0
 40
0.57735
 41
6.28318498408503
 42
7.068583470577034
  0
LINE
  5
1DD
330
1B1
100
AcDbEntity
  8
0
  6
Continuous
 62
     0
370
     0
100
AcDbLine
 10
567.51287
 20
926.3655
 30
0.0
 11
567.51287
 21
905.299895
 31
0.0
  0
ELLIPSE
  5
1DE
330
1B1
100
AcDbEntity
  8
0
  6
Continuous
 62
     0
370
     0
100
AcDbEllipse
 10
567.017895
 20
905.585668
 30
0.0
 11
0.6999999880790639
 21
0.0
 31
0.0
210
0.0
220
0.0
230
-1.0
 40
0.57735
 41
0.0000000085056019
 42
0.7853981633974579
  0
ELLIPSE
  5
1DF
330
1B1
100
AcDbEntity
  8
0
  6
Continuous
 62
     0
370
     0
100
AcDbEllipse
 10
567.017895
 20
905.585668
 30
0.0
 11
0.3499999940395321
 21
-0.6062177723252739
 31
0.0
210
0.0
220
0.0
230
1.0
 40
0.57735
 41
0.0000000314898179
 42
0.7853981633974779
  0
LINE
  5
1E0
330
1B1
100
AcDbEntity
  8
0
  6
Continuous
 62
     0
370
     0
100
AcDbLine
 10
567.51287
 20
905.299895
 30
0.0
 11
559.310431
 21
900.564214
 31
0.0
  0
ELLIPSE
  5
1E1
330
1B1
100
AcDbEntity
  8
0
  6
Continuous
 62
     0
370
     0
100
AcDbEllipse
 10
558.815457
 20
900.849988
 30
0.0
 11
0.3499999940395357
 21
-0.60621777232528
 31
0.0
210
0.0
220
0.0
230
1.0
 40
0.57735
 41
6.283185074635919
 42
7.068583470577074
  0
LINE
  5
1E2
330
1B1
100
AcDbEntity
  8
0
  6
Continuous
 62
     0
370
     0
100
AcDbLine
 10
556.906268
 20
933.060772
 30
0.0
 11
538.662908
 21
922.527963
 31
0.0
  0
ELLIPSE
  5
1E3
330
1B1
100
AcDbEntity
  8
0
  6
Continuous
 62
     0
370
     0
100
AcDbEllipse
 10
538.662908
 20
921.956416
 30
0.0
 11
0.3499999940395391
 21
-0.6062177723252858
 31
0.0
210
0.0
220
0.0
230
1.0
 40
0.57735
 41
0.7853981633974476
 42
2.356194490192343
  0
LINE
  5
1E4
330
1B1
100
AcDbEntity
  8
0
  6
Continuous
 62
     0
370
     0
100
AcDbLine
 10
557.401243
 20
932.203451
 30
0.0
 11
539.157883
 21
921.670642
 31
0.0
  0
ELLIPSE
  5
1E5
330
1B1
100
AcDbEntity
  8
0
  6
Continuous
 62
     0
370
     0
100
AcDbEllipse
 10
556.906268
 20
932.489225
 30
0.0
 11
-0.3499999940395376
 21
0.6062177723252833
 31
0.0
210
0.0
220
0.0
230
-1.0
 40
0.57735
 41
0.785398163397448
 42
2.356194490192343
  0
ELLIPSE
  5
1E6
330
1B1
100
AcDbEntity
  8
0
  6
Continuous
 62
     0
370
     0
100
AcDbEllipse
 10
538.662908
 20
912.485055
 30
0.0
 11
-0.699999988079071
 21
0.0
 31
0.0
210
0.0
220
0.0
230
1.0
 40
0.57735
 41
0.7853981633974476
 42
2.356194490192343
  0
LINE
  5
1E7
330
1B1
100
AcDbEntity
  8
0
  6
Continuous
 62
     0
370
     0
100
AcDbLine
 10
539.157883
 20
912.199281
 30
0.0
 11
539.157883
 21
921.670642
 31
0.0
  0
ELLIPSE
  5
1E8
330
1B1
100
AcDbEntity
  8
0
  6
Continuous
 62
     0
370
     0
100
AcDbEllipse
 10
538.662908
 20
921.956416
 30
0.0
 11
-0.6999999880790782
 21
0.0
 31
0.0
210
0.0
220
0.0
230
1.0
 40
0.57735
 41
0.7853981633974476
 42
2.356194490192343
  0
LINE
  5
1E9
330
1B1
100
AcDbEntity
  8
0
  6
Continuous
 62
     0
370
     0
100
AcDbLine
 10
538.167933
 20
912.199281
 30
0.0
 11
538.167933
 21
921.670642
 31
0.0
  0
LINE
  5
1EA
330
1B1
100
AcDbEntity
  8
0
  6
Continuous
 62
     0
370
     0
100
AcDbLine
 10
538.167933
 20
921.670642
 30
0.0
 11
537.602248
 21
921.99724
 31
0.0
  0
ELLIPSE
  5
1EB
330
1B1
100
AcDbEntity
  8
0
  6
Continuous
 62
     0
370
     0
100
AcDbEllipse
 10
538.662908
 20
921.956416
 30
0.0
 11
-0.3499999940395391
 21
-0.6062177723252858
 31
0.0
210
0.0
220
0.0
230
-1.0
 40
0.57735
 41
0.7853981633974476
 42
2.356194490192343
  0
LINE
  5
1EC
330
1B1
100
AcDbEntity
  8
0
  6
Continuous
 62
     0
370
     0
100
AcDbLine
 10
538.662908
 20
922.527963
 30
0.0
 11
538.097223
 21
922.854562
 31
0.0
  0
ELLIPSE
  5
1ED
330
1B1
100
AcDbEntity
  8
0
  6
Continuous
 62
     0
370
     0
100
AcDbEllipse
 10
538.097223
 20
922.283014
 30
0.0
 11
-0.3499999940395357
 21
-0.60621777232528
 31
0.0
210
0.0
220
0.0
230
-1.0
 40
0.57735
 41
0.7853981633976106
 42
2.356194490192373
  0
LINE
  5
1EE
330
1B1
100
AcDbEntity
  8
0
  6
Continuous
 62
     0
370
     0
100
AcDbLine
 10
558.320482
 20
921.62982
 30
0.0
 11
558.320482
 21
900.564214
 31
0.0
  0
ELLIPSE
  5
1EF
330
1B1
100
AcDbEntity
  8
0
  6
Continuous
 62
     0
370
     0
100
AcDbEllipse
 10
558.815457
 20
900.849988
 30
0.0
 11
0.699999988079071
 21
0.0
 31
0.0
210
0.0
220
0.0
230
-1.0
 40
0.57735
 41
0.785398163397448
 42
2.356194490192343
  0
LINE
  5
1F0
330
1B1
100
AcDbEntity
  8
0
  6
Continuous
 62
     0
370
     0
100
AcDbLine
 10
559.310431
 20
921.62982
 30
0.0
 11
559.310431
 21
900.564214
 31
0.0
  0
ELLIPSE
  5
1F1
330
1B1
100
AcDbEntity
  8
0
  6
Continuous
 62
     0
370
     0
100
AcDbEllipse
 10
558.815457
 20
921.915594
 30
0.0
 11
-0.699999988079073
 21
0.0
 31
0.0
210
0.0
220
0.0
230
1.0
 40
0.57735
 41
0.7853981633974476
 42
2.356194490192343
  0
ELLIPSE
  5
1F2
330
1B1
100
AcDbEntity
  8
0
  6
Continuous
 62
     0
370
     0
100
AcDbEllipse
 10
558.815457
 20
900.849988
 30
0.0
 11
-0.3499999940395357
 21
-0.60621777232528
 31
0.0
210
0.0
220
0.0
230
-1.0
 40
0.57735
 41
6.28318508027745
 42
7.068583470577074
  0
LINE
  5
1F3
330
1B1
100
AcDbEntity
  8
0
  6
Continuous
 62
     0
370
     0
100
AcDbLine
 10
558.320482
 20
900.564214
 30
0.0
 11
557.754796
 21
900.890813
 31
0.0
  0
ELLIPSE
  5
1F4
330
1B1
100
AcDbEntity
  8
0
  6
Continuous
 62
     0
370
     0
100
AcDbEllipse
 10
558.249771
 20
901.176587
 30
0.0
 11
-0.3499999940395321
 21
-0.6062177723252739
 31
0.0
210
0.0
220
0.0
230
-1.0
 40
0.57735
 41
0.0000000228501679
 42
0.785398163397448
  0
ELLIPSE
  5
1F5
330
1B1
100
AcDbEntity
  8
0
  6
Continuous
 62
     0
370
     0
100
AcDbEllipse
 10
556.906268
 20
923.017864
 30
0.0
 11
0.3499999940395357
 21
-0.60621777232528
 31
0.0
210
0.0
220
0.0
230
1.0
 40
0.57735
 41
0.0000000312140562
 42
0.7853981633974481
  0
LINE
  5
1F6
330
1B1
100
AcDbEntity
  8
0
  6
Continuous
 62
     0
370
     0
100
AcDbLine
 10
557.401243
 20
922.73209
 30
0.0
 11
539.157883
 21
912.199281
 31
0.0
  0
ELLIPSE
  5
1F7
330
1B1
100
AcDbEntity
  8
0
  6
Continuous
 62
     0
370
     0
100
AcDbEllipse
 10
538.662908
 20
912.485055
 30
0.0
 11
0.3499999940395357
 21
-0.60621777232528
 31
0.0
210
0.0
220
0.0
230
1.0
 40
0.57735
 41
6.28318491509276
 42
7.068583470577033
  0
ELLIPSE
  5
1F8
330
1B1
100
AcDbEntity
  8
0
  6
Continuous
 62
     0
370
     0
100
AcDbEllipse
 10
538.097223
 20
912.811654
 30
0.0
 11
0.3499999940395357
 21
0.60621777232528
 31
0.0
210
0.0
220
0.0
230
1.0
 40
0.57735
 41
2.356194490198128
 42
3.141592630739636
  0
ELLIPSE
  5
1F9
330
1B1
100
AcDbEntity
  8
0
  6
Continuous
 62
     0
370
     0
100
AcDbEllipse
 10
538.662908
 20
912.485055
 30
0.0
 11
0.3499999940395357
 21
0.60621777232528
 31
0.0
210
0.0
220
0.0
230
1.0
 40
0.57735
 41
2.356194490192343
 42
3.141592630739637
  0
LINE
  5
1FA
330
1B1
100
AcDbEntity
  8
0
  6
Continuous
 62
     0
370
     0
100
AcDbLine
 10
537.60225
 20
912.525879
 30
0.0
 11
538.167933
 21
912.199281
 31
0.0
  0
ELLIPSE
  5
1FB
330
1B1
100
AcDbEntity
  8
0
  6
Continuous
 62
     0
370
     0
100
AcDbEllipse
 10
557.401243
 20
920.52755
 30
0.0
 11
-1.349999994039537
 21
-2.338268579894159
 31
0.0
210
0.0
220
0.0
230
-1.0
 40
0.57735
 41
2.356194490192348
 42
3.926990816987237
  0
ELLIPSE
  5
1FC
330
1B1
100
AcDbEntity
  8
0
  6
Continuous
 62
     0
370
     0
100
AcDbEllipse
 10
569.422058
 20
927.467771
 30
0.0
 11
-1.349999994039537
 21
-2.33826857989416
 31
0.0
210
0.0
220
0.0
230
-1.0
 40
0.57735
 41
0.7853981633974476
 42
2.356194490192343
  0
ELLIPSE
  5
1FD
330
1B1
100
AcDbEntity
  8
0
  6
Continuous
 62
     0
370
     0
100
AcDbEllipse
 10
569.422058
 20
941.348212
 30
0.0
 11
-1.349999994039536
 21
-2.338268579894157
 31
0.0
210
0.0
220
0.0
230
-1.0
 40
0.57735
 41
5.497787143782143
 42
7.068583470577013
  0
ELLIPSE
  5
1FE
330
1B1
100
AcDbEntity
  8
0
  6
Continuous
 62
     0
370
     0
100
AcDbEllipse
 10
557.401243
 20
934.407992
 30
0.0
 11
1.349999994039535
 21
2.338268579894156
 31
0.0
210
0.0
220
0.0
230
1.0
 40
0.57735
 41
3.926990816987237
 42
5.497787143782132
  0
LINE
  5
1FF
330
1B1
100
AcDbEntity
  8
0
  6
Continuous
 62
     0
370
     0
100
AcDbLine
 10
556.340583
 20
933.387371
 30
0.0
 11
538.097223
 21
922.854562
 31
0.0
  0
LINE
  5
200
330
1B1
100
AcDbEntity
  8
0
  6
Continuous
 62
     0
370
     0
100
AcDbLine
 10
556.906268
 20
933.060772
 30
0.0
 11
556.340583
 21
933.387371
 31
0.0
  0
ELLIPSE
  5
201
330
1B1
100
AcDbEntity
  8
0
  6
Continuous
 62
     0
370
     0
100
AcDbEllipse
 10
556.906268
 20
934.693765
 30
0.0
 11
0.9999999999999983
 21
1.732050807568874
 31
0.0
210
0.0
220
0.0
230
1.0
 40
0.57735
 41
3.926990816987245
 42
5.497787143782132
  0
LINE
  5
202
330
1B1
100
AcDbEntity
  8
0
  6
Continuous
 62
     0
370
     0
100
AcDbLine
 10
558.320482
 20
935.510262
 30
0.0
 11
557.754796
 21
935.836861
 31
0.0
  0
LINE
  5
203
330
1B1
100
AcDbEntity
  8
0
  6
Continuous
 62
     0
370
     0
100
AcDbLine
 10
557.754796
 20
956.902479
 30
0.0
 11
557.754796
 21
935.836861
 31
0.0
  0
LINE
  5
204
330
1B1
100
AcDbEntity
  8
0
  6
Continuous
 62
     0
370
     0
100
AcDbLine
 10
586.604748
 20
950.860394
 30
0.0
 11
568.361398
 21
940.327592
 31
0.0
  0
LINE
  5
205
330
1B1
100
AcDbEntity
  8
0
  6
Continuous
 62
     0
370
     0
100
AcDbLine
 10
568.361398
 20
940.327592
 30
0.0
 11
568.927084
 21
940.000993
 31
0.0
  0
ELLIPSE
  5
206
330
1B1
100
AcDbEntity
  8
0
  6
Continuous
 62
     0
370
     0
100
AcDbEllipse
 10
568.927084
 20
941.633986
 30
0.0
 11
-1.0
 21
-1.732050807568877
 31
0.0
210
0.0
220
0.0
230
-1.0
 40
0.57735
 41
5.497787143782138
 42
6.283185540729965
  0
SPLINE
  5
207
330
1B1
100
AcDbEntity
  8
0
  6
Continuous
 62
     0
370
     0
100
AcDbSpline
210
0.0
220
0.0
230
1.0
 70
     8
 71
     3
 72
    27
 73
    23
 74
     0
 42
0.000000001
 43
0.0
 40
0.0
 40
0.0
 40
0.0
 40
0.0
 40
1.029141359914143
 40
1.899953279841495
 40
2.770765199768846
 40
3.799906559682989
 40
4.987377359583923
 40
5.699859839524484
 40
6.49150703945844
 40
6.887330639425417
 40
7.283154239392395
 40
7.599813119365979
 40
7.916471999339561
 40
8.31229559930654
 40
8.708119199273517
 40
9.499766399207472
 40
10.21224887914803
 40
11.39971967904897
 40
12.4288610389631
 40
13.29967295889046
 40
14.17048487881781
 40
15.19962623873196
 40
15.19962623873196
 40
15.19962623873196
 40
15.19962623873196
 10
558.2497712265011
 20
957.7597999395321
 30
0.0
 10
558.092284641427
 20
957.8507248618184
 30
0.0
 10
557.8297673936584
 20
958.0485072160873
 30
0.0
 10
557.5594405498105
 20
958.4293666276076
 30
0.0
 10
557.4302214656776
 20
958.8956901319416
 30
0.0
 10
557.5006955708932
 20
959.5013702109545
 30
0.0
 10
557.8286961234585
 20
960.1231639542325
 30
0.0
 10
558.3087212389462
 20
960.6794758780984
 30
0.0
 10
558.7273065547699
 20
961.0486158242497
 30
0.0
 10
559.1118447718922
 20
961.332318929241
 30
0.0
 10
559.3943136942453
 20
961.5188895155488
 30
0.0
 10
559.6622498172954
 20
961.679978990509
 30
0.0
 10
559.9412649958108
 20
961.834671996743
 30
0.0
 10
560.2644148171054
 20
961.9977555540204
 30
0.0
 10
560.7558032396851
 20
962.2197689243344
 30
0.0
 10
561.3951728661197
 20
962.4614395285898
 30
0.0
 10
562.3587344807323
 20
962.7385827137714
 30
0.0
 10
563.4357146170627
 20
962.9279547546257
 30
0.0
 10
564.4847857661553
 20
962.9686439980001
 30
0.0
 10
565.292484167337
 20
962.8940401704544
 30
0.0
 10
565.952154221455
 20
962.737967649477
 30
0.0
 10
566.2947244644117
 20
962.5864037636188
 30
0.0
 10
566.4522115834945
 20
962.4954791496416
 30
0.0
  0
SPLINE
  5
208
330
1B1
100
AcDbEntity
  8
0
  6
Continuous
 62
     0
370
     0
100
AcDbSpline
210
0.0
220
0.0
230
1.0
 70
     8
 71
     3
 72
    13
 73
     9
 74
     0
 42
0.000000001
 43
0.0
 40
0.0
 40
0.0
 40
0.0
 40
0.0
 40
0.6219021576259569
 40
1.243804315251914
 40
1.865706472877871
 40
2.487608630503828
 40
3.109510788129786
 40
3.406348710051686
 40
3.406348710051686
 40
3.406348710051686
 40
3.406348710051686
 10
557.7547964881
 20
956.9024785441579
 30
0.0
 10
557.6476527855702
 20
956.9643379896556
 30
0.0
 10
557.4445056377982
 20
957.0997028329089
 30
0.0
 10
557.1833487517684
 20
957.3381652620028
 30
0.0
 10
556.9758045187282
 20
957.6111869877832
 30
0.0
 10
556.8310979525544
 20
957.9163715261084
 30
0.0
 10
556.7697957444859
 20
958.1916311332106
 30
0.0
 10
556.760799914463
 20
958.3640027582333
 30
0.0
 10
556.7608137150262
 20
958.4204297062756
 30
0.0
  0
SPLINE
  5
209
330
1B1
100
AcDbEntity
  8
0
  6
Continuous
 62
     0
370
     0
100
AcDbSpline
210
0.0
220
0.0
230
1.0
 70
     8
 71
     3
 72
    13
 73
     9
 74
     0
 42
0.000000001
 43
0.0
 40
0.0
 40
0.0
 40
0.0
 40
0.0
 40
0.621902157625956
 40
1.243804315251913
 40
1.865706472877869
 40
2.487608630503825
 40
3.109510788129781
 40
3.405661679554239
 40
3.405661679554239
 40
3.405661679554239
 40
3.405661679554239
 10
586.6047477741442
 20
950.8603944963647
 30
0.0
 10
586.4976040716144
 20
950.922253941862
 30
0.0
 10
586.278801104692
 20
951.0305021109125
 30
0.0
 10
585.9417081402335
 20
951.1374393940405
 30
0.0
 10
585.6014922734024
 20
951.1806671093718
 30
0.0
 10
585.2648414272837
 20
951.1533944026105
 30
0.0
 10
584.9959284827905
 20
951.0688915683681
 30
0.0
 10
584.8422623798642
 20
950.9905759050093
 30
0.0
 10
584.7935113935987
 20
950.962429184156
 30
0.0
  0
SPLINE
  5
20A
330
1B1
100
AcDbEntity
  8
0
  6
Continuous
 62
     0
370
     0
100
AcDbSpline
210
0.0
220
0.0
230
1.0
 70
     8
 71
     3
 72
    13
 73
     9
 74
     0
 42
0.000000001
 43
0.0
 40
0.0
 40
0.0
 40
0.0
 40
0.0
 40
0.6219021576259569
 40
1.243804315251915
 40
1.865706472877872
 40
2.487608630503829
 40
3.109510788129787
 40
3.405661566250095
 40
3.405661566250095
 40
3.405661566250095
 40
3.405661566250095
 10
557.7547964880998
 20
900.8908130730491
 30
0.0
 10
557.6476527855701
 20
900.9526725185468
 30
0.0
 10
557.4445056377981
 20
901.0880373617996
 30
0.0
 10
557.1833487517683
 20
901.326499790894
 30
0.0
 10
556.9758045187281
 20
901.5995215166744
 30
0.0
 10
556.8310979525543
 20
901.9047060549996
 30
0.0
 10
556.7698230859615
 20
902.1798428932146
 30
0.0
 10
556.7608133861968
 20
902.3520794514578
 30
0.0
 10
556.760813666132
 20
902.4083723823531
 30
0.0
  0
LINE
  5
20B
330
1B1
100
AcDbEntity
  8
0
  6
Continuous
 62
     0
370
     0
100
AcDbLine
 10
557.754796
 20
921.956419
 30
0.0
 11
557.754796
 21
900.890813
 31
0.0
  0
LINE
  5
20C
330
1B1
100
AcDbEntity
  8
0
  6
Continuous
 62
     0
370
     0
100
AcDbLine
 10
557.754796
 20
921.956419
 30
0.0
 11
558.320482
 21
921.62982
 31
0.0
  0
SPLINE
  5
20D
330
1B1
100
AcDbEntity
  8
0
  6
Continuous
 62
     0
370
     0
100
AcDbSpline
210
0.0
220
0.0
230
1.0
 70
     8
 71
     3
 72
    27
 73
    23
 74
     0
 42
0.000000001
 43
0.0
 40
0.0
 40
0.0
 40
0.0
 40
0.0
 40
1.029141359914143
 40
1.899953279841494
 40
2.770765199768845
 40
3.799906559682988
 40
4.987377359583922
 40
5.699859839524484
 40
6.491507039458438
 40
6.887330639425416
 40
7.283154239392394
 40
7.599813119365976
 40
7.916471999339558
 40
8.312295599306537
 40
8.708119199273515
 40
9.49976639920747
 40
10.21224887914803
 40
11.39971967904896
 40
12.4288610389631
 40
13.29967295889045
 40
14.17048487881781
 40
15.19962623873195
 40
15.19962623873195
 40
15.19962623873195
 40
15.19962623873195
 10
537.6022478294872
 20
921.9972403654359
 30
0.0
 10
537.4447612444129
 20
922.0881652877223
 30
0.0
 10
537.1422180773116
 20
922.216620716087
 30
0.0
 10
536.6772207297406
 20
922.2603009244239
 30
0.0
 10
536.2087631865393
 20
922.1390461817699
 30
0.0
 10
535.7194659041554
 20
921.7751737768375
 30
0.0
 10
535.3449770028453
 20
921.1802200942219
 30
0.0
 10
535.1032093020931
 20
920.486350187822
 30
0.0
 10
534.992817389086
 20
919.9392746975917
 30
0.0
 10
534.9393924015922
 20
919.464403280342
 30
0.0
 10
534.9190519954275
 20
919.126492724651
 30
0.0
 10
534.9135124793545
 20
918.8139084980179
 30
0.0
 10
534.9190519954259
 20
918.4949277622653
 30
0.0
 10
534.9393924025314
 20
918.133530029157
 30
0.0
 10
534.9928173951495
 20
917.5969684869204
 30
0.0
 10
535.1032093257335
 20
916.9224228458919
 30
0.0
 10
535.344977094187
 20
915.9493824169352
 30
0.0
 10
535.7194661642061
 20
914.9220042390747
 30
0.0
 10
536.2087638203292
 20
913.993137351896
 30
0.0
 10
536.6772218307941
 20
913.3309519316493
 30
0.0
 10
537.1422196258522
 20
912.8376971671563
 30
0.0
 10
537.44476292278
 20
912.6168045771041
 30
0.0
 10
537.602249507855
 20
912.525879038198
 30
0.0
  0
SPLINE
  5
20E
330
1B1
100
AcDbEntity
  8
0
  6
Continuous
 62
     0
370
     0
100
AcDbSpline
210
0.0
220
0.0
230
1.0
 70
     8
 71
     3
 72
    13
 73
     9
 74
     0
 42
0.000000001
 43
0.0
 40
0.0
 40
0.0
 40
0.0
 40
0.0
 40
0.6219021576259569
 40
1.243804315251913
 40
1.86570647287787
 40
2.487608630503826
 40
3.109510788129783
 40
3.40634882356742
 40
3.40634882356742
 40
3.40634882356742
 40
3.40634882356742
 10
538.0972225678884
 20
922.85456176081
 30
0.0
 10
537.9900788653586
 20
922.9164212063073
 30
0.0
 10
537.7712758984362
 20
923.0246693753578
 30
0.0
 10
537.4341829339776
 20
923.1316066584858
 30
0.0
 10
537.0939670671467
 20
923.1748343738176
 30
0.0
 10
536.7573162210278
 20
923.1475616670558
 30
0.0
 10
536.4882832847849
 20
923.0630211267711
 30
0.0
 10
536.3345071454347
 20
922.9846259184441
 30
0.0
 10
536.2856468571986
 20
922.9564004797757
 30
0.0
  0
ELLIPSE
  5
20F
330
1B1
100
AcDbEntity
  8
0
  6
Continuous
 62
     0
370
     0
100
AcDbEllipse
 10
556.906268
 20
920.813323
 30
0.0
 11
-1.000000000000002
 21
-1.732050807568881
 31
0.0
210
0.0
220
0.0
230
-1.0
 40
0.57735
 41
3.141592430701665
 42
3.926990816987216
  0
LINE
  5
210
330
1B1
100
AcDbEntity
  8
0
  6
Continuous
 62
     0
370
    30
100
AcDbLine
 10
538.271374
 20
937.369723
 30
0.0
 11
549.760806
 21
930.736296
 31
0.0
  0
LINE
  5
211
330
1B1
100
AcDbEntity
  8
0
  6
Continuous
 62
     0
370
    30
100
AcDbLine
 10
545.271365
 20
949.494083
 30
0.0
 11
556.760805
 21
942.860652
 31
0.0
  0
ARC
  5
212
330
1B1
100
AcDbEntity
  8
0
  6
Continuous
 62
     0
370
    30
100
AcDbCircle
 10
567.017754
 20
961.597252
 30
0.0
 40
0.7001411978678216
100
AcDbArc
 50
0.006671
 51
59.993328
  0
ARC
  5
213
330
1B1
100
AcDbEntity
  8
0
  6
Continuous
 62
     0
370
    30
100
AcDbCircle
 10
587.170226
 20
949.962129
 30
0.0
 40
0.7002070349786995
100
AcDbArc
 50
0.009781
 51
59.990218
  0
ARC
  5
214
330
1B1
100
AcDbEntity
  8
0
  6
Continuous
 62
     0
370
    30
100
AcDbCircle
 10
587.170266
 20
940.490984
 30
0.0
 40
0.7001667826915524
100
AcDbArc
 50
300.007881
 51
359.99212
  0
ARC
  5
215
330
1B1
100
AcDbEntity
  8
0
  6
Continuous
 62
     0
370
    30
100
AcDbCircle
 10
567.017656
 20
905.585806
 30
0.0
 40
0.7002391056097887
100
AcDbArc
 50
299.98659
 51
359.988724
  0
ARC
  5
216
330
1B1
100
AcDbEntity
  8
0
  6
Continuous
 62
     0
370
    30
100
AcDbCircle
 10
558.815457
 20
900.850031
 30
0.0
 40
0.7000367804152423
100
AcDbArc
 50
240.001738
 51
299.998262
  0
ARC
  5
217
330
1B1
100
AcDbEntity
  8
0
  6
Continuous
 62
     0
370
    30
100
AcDbCircle
 10
538.662908
 20
912.485218
 30
0.0
 40
0.7001411978541392
100
AcDbArc
 50
240.006671
 51
299.993329
  0
SPLINE
  5
218
330
1B1
100
AcDbEntity
  8
0
  6
Continuous
 62
     0
370
    30
100
AcDbSpline
210
0.0
220
0.0
230
1.0
 70
     8
 71
     3
 72
    11
 73
     7
 74
     0
 42
0.000000001
 43
0.0
 40
0.0
 40
0.0
 40
0.0
 40
0.0
 40
0.4132330920692155
 40
0.8601046981000798
 40
1.237418351687201
 40
1.738983677257788
 40
1.738983677257788
 40
1.738983677257788
 40
1.738983677257788
 10
567.9270836166265
 20
939.9019354423431
 30
0.0
 10
567.907808508885
 20
939.9130639342529
 30
0.0
 10
567.8732388903022
 20
939.9394423346139
 30
0.0
 10
567.8051889745047
 20
940.0354238809573
 30
0.0
 10
567.7393731878403
 20
940.2259498709795
 30
0.0
 10
567.7178953268135
 20
940.4126776187895
 30
0.0
 10
567.7178953265816
 20
940.5317158539483
 30
0.0
  0
SPLINE
  5
219
330
1B1
100
AcDbEntity
  8
0
  6
Continuous
 62
     0
370
    30
100
AcDbSpline
210
0.0
220
0.0
230
1.0
 70
     8
 71
     3
 72
    20
 73
    16
 74
     0
 42
0.000000001
 43
0.0
 40
0.0
 40
0.0
 40
0.0
 40
0.0
 40
0.6171197787287743
 40
1.19354942823151
 40
2.293485114191092
 40
3.280219039720055
 40
4.649652972487337
 40
5.629425580095373
 40
7.833801245601209
 40
8.996445474041428
 40
10.4432925894064
 40
11.52092576877279
 40
12.23829455033667
 40
13.24818484771701
 40
14.08546122426396
 40
14.08546122426396
 40
14.08546122426396
 40
14.08546122426396
 10
556.7607973875247
 20
958.4204297102774
 30
0.0
 10
556.7607973018969
 20
958.5692620173295
 30
0.0
 10
556.7918653376851
 20
958.8558770134805
 30
0.0
 10
556.9461781167619
 20
959.379113441058
 30
0.0
 10
557.2487214624266
 20
959.9364943809892
 30
0.0
 10
557.7870993556132
 20
960.5904580122901
 30
0.0
 10
558.4352703114944
 20
961.1546950527832
 30
0.0
 10
559.4655940445969
 20
961.8383498644207
 30
0.0
 10
560.616129838306
 20
962.3800159622324
 30
0.0
 10
562.0508933983047
 20
962.8183287534716
 30
0.0
 10
563.2322481382159
 20
963.037921827598
 30
0.0
 10
564.3142869713977
 20
963.0968924008489
 30
0.0
 10
565.247879296798
 20
963.0400796561817
 30
0.0
 10
566.0689108744275
 20
962.875373529515
 30
0.0
 10
566.5902967291765
 20
962.6524693234642
 30
0.0
 10
566.802188890781
 20
962.5301624217154
 30
0.0
  0
SPLINE
  5
21A
330
1B1
100
AcDbEntity
  8
0
  6
Continuous
 62
     0
370
    30
100
AcDbSpline
210
0.0
220
0.0
230
1.0
 70
     8
 71
     3
 72
    12
 73
     8
 74
     0
 42
0.000000001
 43
0.0
 40
0.0
 40
0.0
 40
0.0
 40
0.0
 40
0.481040823367843
 40
1.319558656696693
 40
1.647906381012788
 40
2.108914615780738
 40
2.869642788868864
 40
2.869642788868864
 40
2.869642788868864
 40
2.869642788868864
 10
586.9547277161855
 20
950.8950762474624
 30
0.0
 10
586.8327921960124
 20
950.9654594730555
 30
0.0
 10
586.4910822400914
 20
951.1312415772832
 30
0.0
 10
586.0496232308953
 20
951.2311614681807
 30
0.0
 10
585.6260185900956
 20
951.231967164566
 30
0.0
 10
585.233253544941
 20
951.1710841306681
 30
0.0
 10
584.9518868220716
 20
951.0538862105827
 30
0.0
 10
584.793162233459
 20
950.9622463933724
 30
0.0
  0
SPLINE
  5
21B
330
1B1
100
AcDbEntity
  8
0
  6
Continuous
 62
     0
370
    30
100
AcDbSpline
210
0.0
220
0.0
230
1.0
 70
     8
 71
     3
 72
    15
 73
    11
 74
     0
 42
0.000000001
 43
0.0
 40
0.0
 40
0.0
 40
0.0
 40
0.0
 40
0.2466711646573491
 40
0.6510360494684213
 40
1.075280760625243
 40
1.730929020684617
 40
2.391797182589811
 40
2.827462467150998
 40
3.251341681825803
 40
3.571047340273452
 40
3.571047340273452
 40
3.571047340273452
 40
3.571047340273452
 10
567.7178953265816
 20
926.6512739782164
 30
0.0
 10
567.7178953264685
 20
926.7099487051786
 30
0.0
 10
567.7255430208157
 20
926.8742503476527
 30
0.0
 10
567.7729770835953
 20
927.1746437571668
 30
0.0
 10
567.9006957591872
 20
927.6168314452692
 30
0.0
 10
568.1407734395789
 20
928.1454249292814
 30
0.0
 10
568.4696593634387
 20
928.6327566491608
 30
0.0
 10
568.7922661260126
 20
928.9874239020722
 30
0.0
 10
569.0517011946237
 20
929.2086201526271
 30
0.0
 10
569.2112558388466
 20
929.3138616532691
 30
0.0
 10
569.2770836442503
 20
929.3518673538223
 30
0.0
  0
SPLINE
  5
21C
330
1B1
100
AcDbEntity
  8
0
  6
Continuous
 62
     0
370
    30
100
AcDbSpline
210
0.0
220
0.0
230
1.0
 70
     8
 71
     3
 72
    12
 73
     8
 74
     0
 42
0.000000001
 43
0.0
 40
0.0
 40
0.0
 40
0.0
 40
0.0
 40
0.4810408099878765
 40
1.319558629406905
 40
1.647906358370947
 40
2.108914602274794
 40
2.869642683778695
 40
2.869642683778695
 40
2.869642683778695
 40
2.869642683778695
 10
557.8997511657665
 20
900.5703806860341
 30
0.0
 10
557.7778297477873
 20
900.6407883303226
 30
0.0
 10
557.4634032624193
 20
900.8538267786943
 30
0.0
 10
557.1561405979388
 20
901.1861815471797
 30
0.0
 10
556.9436405245378
 20
901.552631078372
 30
0.0
 10
556.7999842646457
 20
901.9232170829804
 30
0.0
 10
556.7607972778036
 20
902.2254867481837
 30
0.0
 10
556.7607973875247
 20
902.4087661591769
 30
0.0
  0
SPLINE
  5
21D
330
1B1
100
AcDbEntity
  8
0
  6
Continuous
 62
     0
370
    30
100
AcDbSpline
210
0.0
220
0.0
230
1.0
 70
     8
 71
     3
 72
    20
 73
    16
 74
     0
 42
0.000000001
 43
0.0
 40
0.0
 40
0.0
 40
0.0
 40
0.0
 40
0.6171197530681769
 40
1.193549377591862
 40
2.293485011651296
 40
3.280218889265188
 40
4.649652765618604
 40
5.629425342106036
 40
7.833800964151618
 40
8.996445177260181
 40
10.44329227808941
 40
11.52092548001396
 40
12.23829428205543
 40
13.24818460462131
 40
14.08546108344592
 40
14.08546108344592
 40
14.08546108344592
 40
14.08546108344592
 10
536.2856386899815
 20
922.9564146178235
 30
0.0
 10
536.1567460949035
 20
922.8819985369126
 30
0.0
 10
535.9240642569944
 20
922.7117853301869
 30
0.0
 10
535.548084627289
 20
922.3165283365519
 30
0.0
 10
535.2166502626535
 20
921.7758276616704
 30
0.0
 10
534.9194901020368
 20
920.9825969464154
 30
0.0
 10
534.7549319698419
 20
920.1391459484006
 30
0.0
 10
534.6780313920655
 20
918.9050320563023
 30
0.0
 10
534.7842026703922
 20
917.6378058144409
 30
0.0
 10
535.1219944109796
 20
916.1761077536952
 30
0.0
 10
535.5224985786658
 20
915.0432280026588
 30
0.0
 10
536.0124479648459
 20
914.0766695821889
 30
0.0
 10
536.5284454041115
 20
913.2965612520774
 30
0.0
 10
537.0816009021703
 20
912.6678800584863
 30
0.0
 10
537.5353345615815
 20
912.3277987323239
 30
0.0
 10
537.7472015509436
 20
912.205448172458
 30
0.0
  0
SPLINE
  5
21E
330
1B1
100
AcDbEntity
  8
0
  6
Continuous
 62
     0
370
    30
100
AcDbSpline
210
0.0
220
0.0
230
1.0
 70
     8
 71
     3
 72
    12
 73
     8
 74
     0
 42
0.000000001
 43
0.0
 40
0.0
 40
0.0
 40
0.0
 40
0.0
 40
0.4269979376779409
 40
0.6893628053838501
 40
1.22489717238432
 40
1.492768094312399
 40
1.738960958374876
 40
1.738960958374876
 40
1.738960958374876
 40
1.738960958374876
 10
557.25626836407
 20
922.4116464159314
 30
0.0
 10
557.3441051217749
 20
922.4623589908146
 30
0.0
 10
557.4800100097722
 20
922.5244714612326
 30
0.0
 10
557.6820145744991
 20
922.5802255558104
 30
0.0
 10
557.8036471181986
 20
922.5802940179914
 30
0.0
 10
557.8707160941628
 20
922.5630550625646
 30
0.0
 10
557.8947822493183
 20
922.5520057262996
 30
0.0
 10
557.9062682075581
 20
922.5453743182424
 30
0.0
  0
LINE
  5
21F
330
1B1
100
AcDbEntity
  8
0
  6
Continuous
 62
     0
370
    30
100
AcDbLine
 10
536.285982
 20
922.956604
 30
0.0
 11
555.760796
 21
934.200393
 31
0.0
  0
LINE
  5
220
330
1B1
100
AcDbEntity
  8
0
  6
Continuous
 62
     0
370
    30
100
AcDbLine
 10
556.760805
 20
922.125591
 30
0.0
 11
556.760805
 21
902.408372
 31
0.0
  0
LINE
  5
221
330
1B1
100
AcDbEntity
  8
0
  6
Continuous
 62
     0
370
    30
100
AcDbLine
 10
567.717895
 20
941.103827
 30
0.0
 11
584.793507
 21
950.962436
 31
0.0
  0
LINE
  5
222
330
1B1
100
AcDbEntity
  8
0
  6
Continuous
 62
     0
370
    30
100
AcDbLine
 10
556.760805
 20
935.932458
 30
0.0
 11
556.760805
 21
958.420038
 31
0.0
  0
LINE
  5
223
330
1B1
100
AcDbEntity
  8
0
  6
Continuous
 62
     0
370
    30
100
AcDbLine
 10
537.747223
 20
912.205436
 30
0.0
 11
538.312908
 21
911.878837
 31
0.0
  0
LINE
  5
224
330
1B1
100
AcDbEntity
  8
0
  6
Continuous
 62
     0
370
    30
100
AcDbLine
 10
557.256268
 20
922.411646
 30
0.0
 11
539.012908
 21
911.878837
 31
0.0
  0
LINE
  5
225
330
1B1
100
AcDbEntity
  8
0
  6
Continuous
 62
     0
370
    30
100
AcDbLine
 10
558.465457
 20
900.24377
 30
0.0
 11
557.899771
 21
900.570369
 31
0.0
  0
LINE
  5
226
330
1B1
100
AcDbEntity
  8
0
  6
Continuous
 62
     0
370
    30
100
AcDbLine
 10
567.367895
 20
904.979451
 30
0.0
 11
559.165457
 21
900.24377
 31
0.0
  0
LINE
  5
227
330
1B1
100
AcDbEntity
  8
0
  6
Continuous
 62
     0
370
    30
100
AcDbLine
 10
567.717895
 20
926.651274
 30
0.0
 11
567.717895
 21
905.585668
 31
0.0
  0
LINE
  5
228
330
1B1
100
AcDbEntity
  8
0
  6
Continuous
 62
     0
370
    30
100
AcDbLine
 10
587.520433
 20
939.88467
 30
0.0
 11
569.277084
 21
929.351867
 31
0.0
  0
LINE
  5
229
330
1B1
100
AcDbEntity
  8
0
  6
Continuous
 62
     0
370
    30
100
AcDbLine
 10
586.954748
 20
950.895065
 30
0.0
 11
587.520433
 21
950.568466
 31
0.0
  0
LINE
  5
22A
330
1B1
100
AcDbEntity
  8
0
  6
Continuous
 62
     0
370
    30
100
AcDbLine
 10
587.870433
 20
949.962248
 30
0.0
 11
587.870433
 21
940.490888
 31
0.0
  0
LINE
  5
22B
330
1B1
100
AcDbEntity
  8
0
  6
Continuous
 62
     0
370
    30
100
AcDbLine
 10
567.367895
 20
962.203552
 30
0.0
 11
566.80221
 21
962.53015
 31
0.0
  0
LINE
  5
22C
330
1B1
100
AcDbEntity
  8
0
  6
Continuous
 62
     0
370
    30
100
AcDbLine
 10
567.717895
 20
961.597334
 30
0.0
 11
567.717895
 21
940.531716
 31
0.0
  0
ARC
  5
22D
330
1B1
100
AcDbEntity
  8
0
  6
Continuous
 62
     0
370
    30
100
AcDbCircle
 10
554.759934
 20
935.932952
 30
0.0
 40
2.000865023798255
100
AcDbArc
 50
300.014539
 51
359.985459
  0
ELLIPSE
  5
22E
330
1B1
100
AcDbEntity
  8
0
  6
Continuous
 62
     0
370
    30
100
AcDbEllipse
 10
528.975527
 20
950.81959
 30
0.0
 11
-8.250000000000005
 21
-14.28941916244325
 31
0.0
210
0.0
220
0.0
230
-1.0
 40
0.57735
 41
0.0000000228501543
 42
3.141592676439942
  0
ELLIPSE
  5
22F
330
1B1
100
AcDbEntity
  8
0
  6
Continuous
 62
     0
370
    30
100
AcDbEllipse
 10
543.117663
 20
942.654625
 30
0.0
 11
-8.250000000000005
 21
-14.28941916244325
 31
0.0
210
0.0
220
0.0
230
-1.0
 40
0.57735
 41
5.15051436627899
 42
10.55744941665851
  0
ELLIPSE
  5
230
330
1B1
100
AcDbEntity
  8
0
  6
Continuous
 62
     0
370
    30
100
AcDbEllipse
 10
543.117663
 20
942.654625
 30
0.0
 11
-3.750000000000001
 21
-6.49519052838329
 31
0.0
210
0.0
220
0.0
230
-1.0
 40
0.57735
 41
5.915978611550276
 42
9.791987306251333
  0
ELLIPSE
  5
231
330
1B1
100
AcDbEntity
  8
0
  6
Continuous
 62
     0
370
    30
100
AcDbEllipse
 10
541.703449
 20
943.471121
 30
0.0
 11
-3.750000000000001
 21
-6.49519052838329
 31
0.0
210
0.0
220
0.0
230
-1.0
 40
0.57735
 41
3.331290162005291
 42
3.508801999071748
  0
ELLIPSE
  5
232
330
1B1
100
AcDbEntity
  8
0
  6
Continuous
 62
     0
370
    30
100
AcDbEllipse
 10
541.703449
 20
943.471121
 30
0.0
 11
-3.750000000000001
 21
-6.49519052838329
 31
0.0
210
0.0
220
0.0
230
-1.0
 40
0.57735
 41
5.915978611550265
 42
6.093487844464383
  0
LINE
  5
233
330
1B1
100
AcDbEntity
  8
0
  6
Continuous
 62
     0
370
    30
100
AcDbLine
 10
537.225527
 20
965.109009
 30
0.0
 11
551.367663
 21
956.944044
 31
0.0
  0
LINE
  5
234
330
1B1
100
AcDbEntity
  8
0
  6
Continuous
 62
     0
370
    30
100
AcDbLine
 10
520.725527
 20
936.530171
 30
0.0
 11
534.867663
 21
928.365205
 31
0.0
  0
LINE
  5
235
330
1B1
100
AcDbEntity
  8
0
  6
Continuous
 62
     0
370
    30
100
AcDbLine
 10
569.422036
 20
803.767904
 30
0.0
 11
569.068482
 21
803.56378
 31
0.0
  0
ELLIPSE
  5
236
330
1B1
100
AcDbEntity
  8
0
  6
Continuous
 62
     0
370
    30
100
AcDbEllipse
 10
569.422036
 20
821.32258
 30
0.0
 11
10.75000000000001
 21
18.61954618136544
 31
0.0
210
0.0
220
0.0
230
1.0
 40
0.57735
 41
0.0
 42
6.283185307179586
  0
ELLIPSE
  5
237
330
1B1
100
AcDbEntity
  8
0
  6
Continuous
 62
     0
370
    30
100
AcDbEllipse
 10
569.068482
 20
821.526705
 30
0.0
 11
11.00000000000001
 21
19.05255888325766
 31
0.0
210
0.0
220
0.0
230
1.0
 40
0.57735
 41
5.486357962386311
 42
10.21017612416682
  0
ELLIPSE
  5
238
330
1B1
100
AcDbEntity
  8
0
  6
Continuous
 62
     0
370
    30
100
AcDbEllipse
 10
569.068482
 20
821.526705
 30
0.0
 11
11.00000000000001
 21
19.05255888325766
 31
0.0
210
0.0
220
0.0
230
1.0
 40
0.57735
 41
3.92699081698724
 42
3.938419952682758
  0
ELLIPSE
  5
239
330
1B1
100
AcDbEntity
  8
0
  6
Continuous
 62
     0
370
    30
100
AcDbEllipse
 10
534.066697
 20
841.734995
 30
0.0
 11
11.00000000000001
 21
19.05255888325766
 31
0.0
210
0.0
220
0.0
230
1.0
 40
0.57735
 41
-0.0000000228501564
 42
3.141592630739635
  0
LINE
  5
23A
330
1B1
100
AcDbEntity
  8
0
  6
Continuous
 62
     0
370
    30
100
AcDbLine
 10
584.624831
 20
830.099935
 30
0.0
 11
584.624831
 21
830.508166
 31
0.0
  0
LINE
  5
23B
330
1B1
100
AcDbEntity
  8
0
  6
Continuous
 62
     0
370
    30
100
AcDbLine
 10
558.068482
 20
802.474146
 30
0.0
 11
523.066696
 21
822.682436
 31
0.0
  0
LINE
  5
23C
330
1B1
100
AcDbEntity
  8
0
  6
Continuous
 62
     0
370
    30
100
AcDbLine
 10
561.700441
 20
851.184057
 30
0.0
 11
545.066697
 21
860.787554
 31
0.0
  0
LINE
  5
23D
330
1B1
100
AcDbEntity
  8
0
  6
Continuous
 62
     0
370
    30
100
AcDbLine
 10
580.068482
 20
840.579263
 30
0.0
 11
567.008075
 21
848.119693
 31
0.0
  0
ELLIPSE
  5
23E
330
1B1
100
AcDbEntity
  8
0
  6
Continuous
 62
     0
370
    30
100
AcDbEllipse
 10
563.058075
 20
849.352908
 30
0.0
 11
-3.45
 21
0.0
 31
0.0
210
0.0
220
0.0
230
1.0
 40
0.57735
 41
0.0
 42
6.283185307179586
  0
ELLIPSE
  5
23F
330
1B1
100
AcDbEntity
  8
0
  6
Continuous
 62
     0
370
    30
100
AcDbEllipse
 10
563.058075
 20
848.94466
 30
0.0
 11
3.95
 21
0.0
 31
0.0
210
0.0
220
0.0
230
-1.0
 40
0.57735
 41
5.432306063977145
 42
7.068583470577033
  0
ELLIPSE
  5
240
330
1B1
100
AcDbEntity
  8
0
  6
Continuous
 62
     0
370
    30
100
AcDbEllipse
 10
563.058075
 20
848.94466
 30
0.0
 11
3.95
 21
0.0
 31
0.0
210
0.0
220
0.0
230
-1.0
 40
0.57735
 41
0.785398163397448
 42
3.992471914071621
  0
LINE
  5
241
330
1B1
100
AcDbEntity
  8
0
  6
Continuous
 62
     0
370
    30
100
AcDbLine
 10
565.498055
 20
850.761098
 30
0.0
 11
565.851629
 21
850.556962
 31
0.0
  0
LINE
  5
242
330
1B1
100
AcDbEntity
  8
0
  6
Continuous
 62
     0
370
    30
100
AcDbLine
 10
560.618452
 20
850.761304
 30
0.0
 11
560.265003
 21
850.557241
 31
0.0
  0
ELLIPSE
  5
243
330
1B1
100
AcDbEntity
  8
0
  6
Continuous
 62
     0
370
    30
100
AcDbEllipse
 10
528.975527
 20
950.81959
 30
0.0
 11
-15.00000000000001
 21
-25.98076211353316
 31
0.0
210
0.0
220
0.0
230
-1.0
 40
0.57735
 41
5.294753241103588
 42
9.451888095058823
  0
ELLIPSE
  5
244
330
1B1
100
AcDbEntity
  8
0
  6
Continuous
 62
     0
370
    30
100
AcDbEllipse
 10
528.975527
 20
950.81959
 30
0.0
 11
-15.00000000000001
 21
-25.98076211353316
 31
0.0
210
0.0
220
0.0
230
-1.0
 40
0.57735
 41
3.168702787879238
 42
4.130024765366096
  0
ELLIPSE
  5
245
330
1B1
100
AcDbEntity
  8
0
  6
Continuous
 62
     0
370
    30
100
AcDbEllipse
 10
524.02578
 20
953.677328
 30
0.0
 11
-15.00000000000001
 21
-25.98076211353316
 31
0.0
210
0.0
220
0.0
230
-1.0
 40
0.57735
 41
0.0000000228501555
 42
3.141592676439944
  0
LINE
  5
246
330
1B1
100
AcDbEntity
  8
0
  6
Continuous
 62
     0
370
    30
100
AcDbLine
 10
513.975527
 20
924.838828
 30
0.0
 11
509.025779
 21
927.696566
 31
0.0
  0
LINE
  5
247
330
1B1
100
AcDbEntity
  8
0
  6
Continuous
 62
     0
370
    30
100
AcDbLine
 10
543.975527
 20
976.800352
 30
0.0
 11
539.02578
 21
979.65809
 31
0.0
  0
ELLIPSE
  5
248
330
1B1
100
AcDbEntity
  8
0
  6
Continuous
 62
     0
370
     0
100
AcDbEllipse
 10
530.541837
 20
843.770073
 30
0.0
 11
32.50000000000002
 21
56.29165124598854
 31
0.0
210
0.0
220
0.0
230
1.0
 40
0.57735
 41
0.1783450574413255
 42
3.141592630739632
  0
ELLIPSE
  5
249
330
1B1
100
AcDbEntity
  8
0
  6
Continuous
 62
     0
370
     0
100
AcDbEllipse
 10
530.541837
 20
843.770073
 30
0.0
 11
32.50000000000002
 21
56.29165124598854
 31
0.0
210
0.0
220
0.0
230
1.0
 40
0.57735
 41
-0.0000000518759428
 42
0.066765068029315
  0
ELLIPSE
  5
24A
330
1B1
100
AcDbEntity
  8
0
  6
Continuous
 62
     0
370
     0
100
AcDbEllipse
 10
530.895226
 20
843.566045
 30
0.0
 11
-32.25763313609469
 21
-55.87185952363338
 31
0.0
210
0.0
220
0.0
230
-1.0
 40
0.57735
 41
3.054226884579484
 42
3.93459848053885
  0
ELLIPSE
  5
24B
330
1B1
100
AcDbEntity
  8
0
  6
Continuous
 62
     0
370
     0
100
AcDbEllipse
 10
530.895226
 20
843.566045
 30
0.0
 11
-32.25763313609469
 21
-55.87185952363338
 31
0.0
210
0.0
220
0.0
230
-1.0
 40
0.57735
 41
5.060374304896178
 42
9.244125428101686
  0
ELLIPSE
  5
24C
330
1B1
100
AcDbEntity
  8
0
  6
Continuous
 62
     0
370
     0
100
AcDbEllipse
 10
530.895226
 20
843.566045
 30
0.0
 11
-32.25763313609469
 21
-55.87185952363338
 31
0.0
210
0.0
220
0.0
230
-1.0
 40
0.57735
 41
3.93459848053885
 42
4.364403701573512
  0
ELLIPSE
  5
24D
330
1B1
100
AcDbEntity
  8
0
  6
Continuous
 62
     0
370
    30
100
AcDbEllipse
 10
524.167202
 20
847.450471
 30
0.0
 11
32.50000000000002
 21
56.29165124598854
 31
0.0
210
0.0
220
0.0
230
1.0
 40
0.57735
 41
-0.0000000228501564
 42
3.141592630739635
  0
LINE
  5
24E
330
1B1
100
AcDbEntity
  8
0
  6
Continuous
 62
     0
370
    30
100
AcDbLine
 10
560.945993
 20
901.271761
 30
0.0
 11
563.041838
 21
900.061724
 31
0.0
  0
LINE
  5
24F
330
1B1
100
AcDbEntity
  8
0
  6
Continuous
 62
     0
370
    30
100
AcDbLine
 10
556.667202
 20
903.742122
 30
0.0
 11
556.760806
 21
903.68808
 31
0.0
  0
LINE
  5
250
330
1B1
100
AcDbEntity
  8
0
  6
Continuous
 62
     0
370
    30
100
AcDbLine
 10
491.667201
 20
791.15882
 30
0.0
 11
498.041836
 21
787.478423
 31
0.0
  0
SPLINE
  5
251
330
1B1
100
AcDbEntity
  8
0
  6
Continuous
 62
     0
370
    30
100
AcDbSpline
210
0.0
220
0.0
230
1.0
 70
     8
 71
     3
 72
    14
 73
    10
 74
     0
 42
0.000000001
 43
0.0
 40
0.0
 40
0.0
 40
0.0
 40
0.0
 40
5.967819894784538
 40
15.43295709883768
 40
28.04419270420136
 40
32.47724004592583
 40
44.13265063598803
 40
48.46681733016361
 40
51.4955500063591
 40
51.4955500063591
 40
51.4955500063591
 40
51.4955500063591
 10
563.0418364062361
 20
900.0617250598219
 30
0.0
 10
564.0513526672827
 20
899.4788806155451
 30
0.0
 10
566.5436147512589
 20
897.7629268139802
 30
0.0
 10
570.4520545091418
 20
893.7074194418022
 30
0.0
 10
573.2145125889704
 20
888.7104300104019
 30
0.0
 10
575.3568933964341
 20
882.473042272591
 30
0.0
 10
576.3010914064185
 20
877.5163404149347
 30
0.0
 10
576.6269321867601
 20
872.5212125336346
 30
0.0
 10
576.6543386026988
 20
870.5269416989948
 30
0.0
 10
576.6488937589331
 20
869.6973951219028
 30
0.0
  0
SPLINE
  5
252
330
1B1
100
AcDbEntity
  8
0
  6
Continuous
 62
     0
370
    30
100
AcDbSpline
210
0.0
220
0.0
230
1.0
 70
     8
 71
     3
 72
    12
 73
     8
 74
     0
 42
0.000000001
 43
0.0
 40
124.3469448475066
 40
124.3469448475066
 40
124.3469448475066
 40
124.3469448475066
 40
130.7862006211594
 40
137.7620746687934
 40
142.4293178061188
 40
148.3359688398369
 40
152.3113495505329
 40
152.3113495505329
 40
152.3113495505329
 40
152.3113495505329
 10
572.3000853481647
 20
845.0643477824618
 30
0.0
 10
572.9454239990876
 20
847.0239204477683
 30
0.0
 10
574.1480314296914
 20
851.1018819422246
 30
0.0
 10
575.352376971828
 20
856.5298746707443
 30
0.0
 10
576.1595979459614
 20
861.6899876140182
 30
0.0
 10
576.5523965548863
 20
865.8615742773189
 30
0.0
 10
576.6417477213032
 20
868.6086478338929
 30
0.0
 10
576.6488937985074
 20
869.6974011512683
 30
0.0
  0
SPLINE
  5
253
330
1B1
100
AcDbEntity
  8
0
  6
Continuous
 62
     0
370
    30
100
AcDbSpline
210
0.0
220
0.0
230
1.0
 70
     8
 71
     3
 72
    16
 73
    12
 74
     0
 42
0.000000001
 43
0.0
 40
0.0
 40
0.0
 40
0.0
 40
0.0
 40
4.43513146493501
 40
11.34211138301649
 40
17.29598366882831
 40
25.74243547855507
 40
38.46594450562353
 40
50.89861006932745
 40
63.43618919770286
 40
77.54619849799987
 40
79.46005818511448
 40
79.46005818511448
 40
79.46005818511448
 40
79.46005818511448
 10
498.0418349209759
 20
787.4784234253602
 30
0.0
 10
498.7922030313858
 20
787.0451980865107
 30
0.0
 10
500.7772897254169
 20
786.0503619110834
 30
0.0
 10
504.0391438793642
 20
784.9862232493049
 30
0.0
 10
508.3394691611243
 20
784.3207979131043
 30
0.0
 10
514.1558144436708
 20
784.3996389334013
 30
0.0
 10
521.8300112100807
 20
786.1751900984248
 30
0.0
 10
530.7454074296982
 20
790.3173975985646
 30
0.0
 10
539.9749256221835
 20
796.6627233136549
 30
0.0
 10
546.4479697689733
 20
802.7172611381537
 30
0.0
 10
549.8917423646772
 20
806.5018163078793
 30
0.0
 10
550.300210707275
 20
806.9591576398242
 30
0.0
  0
ELLIPSE
  5
254
330
1B1
100
AcDbEntity
  8
0
  6
Continuous
 62
     0
370
    30
100
AcDbEllipse
 10
563.058075
 20
839.506878
 30
0.0
 11
3.95
 21
0.0
 31
0.0
210
0.0
220
0.0
230
-1.0
 40
0.57735
 41
0.785398163397448
 42
3.141592681447468
  0
ELLIPSE
  5
255
330
1B1
100
AcDbEntity
  8
0
  6
Continuous
 62
     0
370
    30
100
AcDbEllipse
 10
563.058075
 20
839.506878
 30
0.0
 11
3.95
 21
0.0
 31
0.0
210
0.0
220
0.0
230
-1.0
 40
0.57735
 41
-0.0000000278576881
 42
0.7853981633974464
  0
LINE
  5
256
330
1B1
100
AcDbEntity
  8
0
  6
Continuous
 62
     0
370
    30
100
AcDbLine
 10
567.008075
 20
848.94466
 30
0.0
 11
567.008075
 21
839.506878
 31
0.0
  0
LINE
  5
257
330
1B1
100
AcDbEntity
  8
0
  6
Continuous
 62
     0
370
    30
100
AcDbLine
 10
559.108075
 20
848.94466
 30
0.0
 11
559.108075
 21
839.506878
 31
0.0
  0
ENDBLK
  5
259
330
1B1
100
AcDbEntity
  8
0
100
AcDbBlockEnd
  0
BLOCK
  5
2C4
330
25B
100
AcDbEntity
  8
0
100
AcDbBlockBegin
  2
c1
 70
     0
 10
-1066.159225
 20
722.246704
 30
0.0
  3
c1
  1

  0
SPLINE
  5
25C
330
25B
100
AcDbEntity
  8
0
  6
Continuous
 62
     0
370
     0
100
AcDbSpline
210
0.0
220
0.0
230
1.0
 70
     8
 71
     3
 72
    12
 73
     8
 74
     0
 42
0.000000001
 43
0.0
 40
0.0
 40
0.0
 40
0.0
 40
0.0
 40
0.111109389663755
 40
0.333328168991265
 40
0.666661502324595
 40
0.8888871674415318
 40
1.0
 40
1.0
 40
1.0
 40
1.0
 10
247.4627445897493
 20
664.9275281833155
 30
0.0
 10
247.4944283815913
 20
664.991613634302
 30
0.0
 10
247.6005261535404
 20
665.1838704809784
 30
0.0
 10
247.8779457121104
 20
665.5642675168623
 30
0.0
 10
248.2969663631869
 20
665.9547700674256
 30
0.0
 10
248.705136879386
 20
666.2133010350883
 30
0.0
 10
248.9114305894171
 20
666.3121720809809
 30
0.0
 10
248.9801946320235
 20
666.3416971801925
 30
0.0
  0
SPLINE
  5
25D
330
25B
100
AcDbEntity
  8
0
  6
Continuous
 62
     0
370
     0
100
AcDbSpline
210
0.0
220
0.0
230
1.0
 70
     8
 71
     3
 72
    12
 73
     8
 74
     0
 42
0.000000001
 43
0.0
 40
1.036635856510563
 40
1.036635856510563
 40
1.036635856510563
 40
1.036635856510563
 40
1.110310092514155
 40
2.188994991329097
 40
4.177157147560492
 40
5.670932717091721
 40
7.102293978971531
 40
7.102293978971531
 40
7.102293978971531
 40
7.102293978971531
 10
248.9800907899523
 20
666.3415703588155
 30
0.0
 10
248.9958186038073
 20
666.3273254662538
 30
0.0
 10
249.2408015285872
 20
666.1051377799806
 30
0.0
 10
249.8648664739386
 20
665.5269251304419
 30
0.0
 10
250.5811508095841
 20
664.8379482564318
 30
0.0
 10
251.044840259083
 20
664.3841441092819
 30
0.0
 10
251.1385849784376
 20
664.2917785150369
 30
0.0
 10
251.1387434668765
 20
664.2915855529296
 30
0.0
  0
SPLINE
  5
25E
330
25B
100
AcDbEntity
  8
0
  6
Continuous
 62
     0
370
     0
100
AcDbSpline
210
0.0
220
0.0
230
1.0
 70
     8
 71
     3
 72
    16
 73
    12
 74
     0
 42
0.000000001
 43
0.0
 40
1.062730039620169
 40
1.062730039620169
 40
1.062730039620169
 40
1.062730039620169
 40
1.298844020412494
 40
3.00647762785051
 40
3.878810137768495
 40
4.283418985048317
 40
5.569278828870885
 40
6.279170434890743
 40
6.951151654700984
 40
7.169019754993681
 40
7.282736434396779
 40
7.282736434396779
 40
7.282736434396779
 40
7.282736434396779
 10
247.4627630548762
 20
664.9275264640387
 30
0.0
 10
247.4984775261443
 20
664.8702830392277
 30
0.0
 10
247.7900443069219
 20
664.4031278087832
 30
0.0
 10
248.1819496765995
 20
663.7799555185283
 30
0.0
 10
248.5249732158167
 20
663.2422367392552
 30
0.0
 10
248.7810357786814
 20
662.8431236521614
 30
0.0
 10
248.9687160414036
 20
662.5530542433468
 30
0.0
 10
249.0931037668354
 20
662.3616789731826
 30
0.0
 10
249.130364135566
 20
662.3044750649734
 30
0.0
 10
249.1381654435457
 20
662.2924993448343
 30
0.0
 10
249.1388237869413
 20
662.291488783976
 30
0.0
 10
249.1388237427755
 20
662.2914888603597
 30
0.0
  0
SPLINE
  5
25F
330
25B
100
AcDbEntity
  8
0
  6
Continuous
 62
     0
370
     0
100
AcDbSpline
210
0.0
220
0.0
230
1.0
 70
     8
 71
     3
 72
    12
 73
     8
 74
     0
 42
0.000000001
 43
0.0
 40
7.102250363851074
 40
7.102250363851074
 40
7.102250363851074
 40
7.102250363851074
 40
7.413623982659933
 40
9.117775860919043
 40
10.62916237558552
 40
12.27383619275323
 40
13.16794967043762
 40
13.16794967043762
 40
13.16794967043762
 40
13.16794967043762
 10
251.1387434820192
 20
678.2913917712207
 30
0.0
 10
251.138778479933
 20
678.2914342687649
 30
0.0
 10
251.1250020948755
 20
678.2779237045797
 30
0.0
 10
250.9407299353709
 20
678.0962987846418
 30
0.0
 10
250.3716808785294
 20
677.5421343260921
 30
0.0
 10
249.6852103915345
 20
676.8883343226557
 30
0.0
 10
249.1709843791372
 20
676.4139239022729
 30
0.0
 10
248.9800850759972
 20
676.2410500905427
 30
0.0
  0
SPLINE
  5
260
330
25B
100
AcDbEntity
  8
0
  6
Continuous
 62
     0
370
     0
100
AcDbSpline
210
0.0
220
0.0
230
1.0
 70
     8
 71
     3
 72
    12
 73
     8
 74
     0
 42
0.000000001
 43
0.0
 40
0.0
 40
0.0
 40
0.0
 40
0.0
 40
0.111111241458455
 40
0.3333337243753641
 40
0.6666670577086921
 40
0.8888890192362308
 40
1.0
 40
1.0
 40
1.0
 40
1.0
 10
247.4627484777139
 20
677.6554525011449
 30
0.0
 10
247.4944257791592
 20
677.5913601822085
 30
0.0
 10
247.6005029759605
 20
677.3990832627862
 30
0.0
 10
247.8778732644967
 20
677.0186525666527
 30
0.0
 10
248.2968284044586
 20
676.6281216676493
 30
0.0
 10
248.7049421320626
 20
676.3695752696615
 30
0.0
 10
248.9112088777567
 20
676.2706991988176
 30
0.0
 10
248.9799643142461
 20
676.2411726249223
 30
0.0
  0
SPLINE
  5
261
330
25B
100
AcDbEntity
  8
0
  6
Continuous
 62
     0
370
     0
100
AcDbSpline
210
0.0
220
0.0
230
1.0
 70
     8
 71
     3
 72
    16
 73
    12
 74
     0
 42
0.000000001
 43
0.0
 40
7.282720684980313
 40
7.282720684980313
 40
7.282720684980313
 40
7.282720684980313
 40
7.384513118866292
 40
7.602217266638417
 40
8.050191807642802
 40
8.86526448578363
 40
9.587637740828352
 40
10.8995549181586
 40
11.91965418861641
 40
13.26974015494066
 40
13.50272488721378
 40
13.50272488721378
 40
13.50272488721378
 40
13.50272488721378
 10
249.1388237432708
 20
680.2914884474354
 30
0.0
 10
249.1388237360636
 20
680.2914884331869
 30
0.0
 10
249.1382557760313
 20
680.2906165797302
 30
0.0
 10
249.1326079224601
 20
680.2819471494041
 30
0.0
 10
249.1045510526974
 20
680.2388686804597
 30
0.0
 10
249.0239119439052
 20
680.1149159909479
 30
0.0
 10
248.8379743895824
 20
679.8280037000018
 30
0.0
 10
248.548309773074
 20
679.3781122152951
 30
0.0
 10
248.1029002899296
 20
678.6777607813592
 30
0.0
 10
247.7354777631618
 20
678.0924372832394
 30
0.0
 10
247.4980065540859
 20
677.7119312324384
 30
0.0
 10
247.4627672064368
 20
677.6554474061084
 30
0.0
  0
LINE
  5
262
330
25B
100
AcDbEntity
  8
0
  6
Continuous
 62
     0
370
     0
100
AcDbLine
 10
244.638788
 20
662.791481
 30
0.0
 11
244.638784
 21
664.791481
 31
0.0
  0
SPLINE
  5
263
330
25B
100
AcDbEntity
  8
0
  6
Continuous
 62
     0
370
     0
100
AcDbSpline
210
0.0
220
0.0
230
1.0
 70
     8
 71
     3
 72
    12
 73
     8
 74
     0
 42
0.000000001
 43
0.0
 40
0.0
 40
0.0
 40
0.0
 40
0.0
 40
0.111108038113273
 40
0.33332411433982
 40
0.66665744767315
 40
0.88888581589105
 40
1.0
 40
1.0
 40
1.0
 40
1.0
 10
247.4630780955753
 20
666.2308216101909
 30
0.0
 10
247.4352522813972
 20
666.1984390265177
 30
0.0
 10
247.3602894178255
 20
666.0939745712532
 30
0.0
 10
247.2634037664845
 20
665.8422374835429
 30
0.0
 10
247.26331107847
 20
665.4876084776878
 30
0.0
 10
247.360045567031
 20
665.1526737885856
 30
0.0
 10
247.4349406475495
 20
664.9838147783868
 30
0.0
 10
247.4627445897493
 20
664.9275281833155
 30
0.0
  0
SPLINE
  5
264
330
25B
100
AcDbEntity
  8
0
  6
Continuous
 62
     0
370
     0
100
AcDbSpline
210
0.0
220
0.0
230
1.0
 70
     8
 71
     3
 72
    12
 73
     8
 74
     0
 42
0.000000001
 43
0.0
 40
0.0
 40
0.0
 40
0.0
 40
0.0
 40
0.652157515117174
 40
1.285081495959968
 40
2.40640929533869
 40
3.54711927326115
 40
4.151709447694246
 40
4.151709447694246
 40
4.151709447694246
 40
4.151709447694246
 10
244.6387881071137
 20
662.7914810245588
 30
0.0
 10
244.8151138144603
 20
662.7914816224426
 30
0.0
 10
245.1624709141973
 20
662.8405958354397
 30
0.0
 10
245.788603277407
 20
663.0988503233344
 30
0.0
 10
246.4753710187874
 20
663.6266655680657
 30
0.0
 10
247.0543142802909
 20
664.3086823252503
 30
0.0
 10
247.3616303185984
 20
664.7652956944098
 30
0.0
 10
247.4628672129054
 20
664.9274436418062
 30
0.0
  0
LINE
  5
265
330
25B
100
AcDbEntity
  8
0
  6
Continuous
 62
     0
370
     0
100
AcDbLine
 10
251.138824
 20
671.291489
 30
0.0
 11
249.138824
 21
671.291489
 31
0.0
  0
SPLINE
  5
266
330
25B
100
AcDbEntity
  8
0
  6
Continuous
 62
     0
370
     0
100
AcDbSpline
210
0.0
220
0.0
230
1.0
 70
     8
 71
     3
 72
    11
 73
     7
 74
     0
 42
0.000000001
 43
0.0
 40
0.0
 40
0.0
 40
0.0
 40
0.0
 40
1.883296316188154
 40
3.289825110510949
 40
5.023818361468754
 40
6.068230926565725
 40
6.068230926565725
 40
6.068230926565725
 40
6.068230926565725
 10
251.138823591712
 20
671.2914886538045
 30
0.0
 10
251.1388235916977
 20
670.689255777825
 30
0.0
 10
250.9985560831128
 20
669.6382530546209
 30
0.0
 10
250.4461713779107
 20
668.1756353223349
 30
0.0
 10
249.7605875593854
 20
667.1248813397191
 30
0.0
 10
249.2031321652024
 20
666.5435344316112
 30
0.0
 10
248.9801946320235
 20
666.3416971801925
 30
0.0
  0
SPLINE
  5
267
330
25B
100
AcDbEntity
  8
0
  6
Continuous
 62
     0
370
     0
100
AcDbSpline
210
0.0
220
0.0
230
1.0
 70
     8
 71
     3
 72
    10
 73
     6
 74
     0
 42
0.000000001
 43
0.0
 40
0.0
 40
0.0
 40
0.0
 40
0.0
 40
0.7239316039813539
 40
1.447888680737982
 40
2.171871227611908
 40
2.171871227611908
 40
2.171871227611908
 40
2.171871227611908
 10
247.4630780955753
 20
666.2308216101909
 30
0.0
 10
247.5581150552829
 20
666.341449004383
 30
0.0
 10
247.8178723299708
 20
666.5065318885761
 30
0.0
 10
248.3574974963086
 20
666.5459745442383
 30
0.0
 10
248.773949967287
 20
666.4303111844812
 30
0.0
 10
248.9801946320235
 20
666.3416971801925
 30
0.0
  0
LINE
  5
268
330
25B
100
AcDbEntity
  8
0
  6
Continuous
 62
     0
370
     0
100
AcDbLine
 10
244.638788
 20
679.791481
 30
0.0
 11
244.638788
 21
677.791481
 31
0.0
  0
SPLINE
  5
269
330
25B
100
AcDbEntity
  8
0
  6
Continuous
 62
     0
370
     0
100
AcDbSpline
210
0.0
220
0.0
230
1.0
 70
     8
 71
     3
 72
    13
 73
     9
 74
     0
 42
0.000000001
 43
0.0
 40
1.088573759845575
 40
1.088573759845575
 40
1.088573759845575
 40
1.088573759845575
 40
1.789405597119867
 40
2.507174003888374
 40
3.180442430366806
 40
4.095688222479491
 40
4.601650003097516
 40
5.240023456047296
 40
5.240023456047296
 40
5.240023456047296
 40
5.240023456047296
 10
247.4627497154997
 20
677.6554485532893
 30
0.0
 10
247.3453920172977
 20
677.8435188182463
 30
0.0
 10
247.0936373501212
 20
678.2136338767391
 30
0.0
 10
246.6781029415803
 20
678.7159913276854
 30
0.0
 10
246.170850365531
 20
679.20211635701
 30
0.0
 10
245.659299564411
 20
679.5446585783183
 30
0.0
 10
245.1207256423384
 20
679.7486628121221
 30
0.0
 10
244.8113874802727
 20
679.7914810245618
 30
0.0
 10
244.6387881075213
 20
679.7914810245659
 30
0.0
  0
SPLINE
  5
26A
330
25B
100
AcDbEntity
  8
0
  6
Continuous
 62
     0
370
     0
100
AcDbSpline
210
0.0
220
0.0
230
1.0
 70
     8
 71
     3
 72
    12
 73
     8
 74
     0
 42
0.000000001
 43
0.0
 40
0.0
 40
0.0
 40
0.0
 40
0.0
 40
0.111109047727821
 40
0.333327143183463
 40
0.6666604765167989
 40
0.8888868255055999
 40
1.0
 40
1.0
 40
1.0
 40
1.0
 10
247.4630723977109
 20
676.3520883017717
 30
0.0
 10
247.4352486023207
 20
676.384474898334
 30
0.0
 10
247.3602913604545
 20
676.4889511081101
 30
0.0
 10
247.2634146674242
 20
676.7407088690503
 30
0.0
 10
247.2633252255299
 20
677.095356287672
 30
0.0
 10
247.3600554114978
 20
677.4303018394089
 30
0.0
 10
247.4349461710179
 20
677.5991647056085
 30
0.0
 10
247.4627484777139
 20
677.6554525011449
 30
0.0
  0
SPLINE
  5
26B
330
25B
100
AcDbEntity
  8
0
  6
Continuous
 62
     0
370
     0
100
AcDbSpline
210
0.0
220
0.0
230
1.0
 70
     8
 71
     3
 72
    10
 73
     6
 74
     0
 42
0.000000001
 43
0.0
 40
0.0
 40
0.0
 40
0.0
 40
0.0
 40
0.723768534793083
 40
1.447569395276909
 40
2.171402590894657
 40
2.171402590894657
 40
2.171402590894657
 40
2.171402590894657
 10
247.4630723977109
 20
676.3520883017717
 30
0.0
 10
247.5581220823789
 20
676.2414938870913
 30
0.0
 10
247.8178612059156
 20
676.0764621440753
 30
0.0
 10
248.3573805909583
 20
676.0370111923997
 30
0.0
 10
248.7737514266325
 20
676.1526059164298
 30
0.0
 10
248.9799643142461
 20
676.2411726249223
 30
0.0
  0
SPLINE
  5
26C
330
25B
100
AcDbEntity
  8
0
  6
Continuous
 62
     0
370
     0
100
AcDbSpline
210
0.0
220
0.0
230
1.0
 70
     8
 71
     3
 72
    12
 73
     8
 74
     0
 42
0.000000001
 43
0.0
 40
1.036846323820207
 40
1.036846323820207
 40
1.036846323820207
 40
1.036846323820207
 40
1.111290277148617
 40
2.190440414270058
 40
4.17929580208464
 40
5.433683420479644
 40
7.104807553753638
 40
7.104807553753638
 40
7.104807553753638
 40
7.104807553753638
 10
248.9799643142461
 20
676.2411726249223
 30
0.0
 10
248.9958506995483
 20
676.2267862587098
 30
0.0
 10
249.240997351642
 20
676.0025370955168
 30
0.0
 10
249.8651669312349
 20
675.3361696866434
 30
0.0
 10
250.5436379233652
 20
674.2201908743349
 30
0.0
 10
251.0285429150302
 20
672.7607644351249
 30
0.0
 10
251.1388235917248
 20
671.8258736152661
 30
0.0
 10
251.138823591712
 20
671.2914886538045
 30
0.0
  0
LINE
  5
26D
330
25B
100
AcDbEntity
  8
0
  6
Continuous
 62
     0
370
     0
100
AcDbLine
 10
243.138788
 20
679.791481
 30
0.0
 11
243.838788
 21
679.791481
 31
0.0
  0
LINE
  5
26E
330
25B
100
AcDbEntity
  8
0
  6
Continuous
 62
     0
370
    30
100
AcDbLine
 10
243.138788
 20
705.591489
 30
0.0
 11
243.138788
 21
679.791481
 31
0.0
  0
LINE
  5
26F
330
25B
100
AcDbEntity
  8
0
  6
Continuous
 62
     0
370
     0
100
AcDbLine
 10
243.138788
 20
705.591489
 30
0.0
 11
243.838788
 21
705.591489
 31
0.0
  0
LINE
  5
270
330
25B
100
AcDbEntity
  8
0
  6
Continuous
 62
     0
370
     0
100
AcDbLine
 10
243.838788
 20
705.591489
 30
0.0
 11
243.838788
 21
679.791481
 31
0.0
  0
ARC
  5
271
330
25B
100
AcDbEntity
  8
0
  6
Continuous
 62
     0
370
    30
100
AcDbCircle
 10
243.838788
 20
705.591489
 30
0.0
 40
0.699999988079071
100
AcDbArc
 50
90.0
 51
180.0
  0
LINE
  5
272
330
25B
100
AcDbEntity
  8
0
  6
Continuous
 62
     0
370
     0
100
AcDbLine
 10
244.638788
 20
706.291489
 30
0.0
 11
244.638788
 21
705.591489
 31
0.0
  0
LINE
  5
273
330
25B
100
AcDbEntity
  8
0
  6
Continuous
 62
     0
370
     0
100
AcDbLine
 10
243.838788
 20
705.591489
 30
0.0
 11
244.638788
 21
705.591489
 31
0.0
  0
LINE
  5
274
330
25B
100
AcDbEntity
  8
0
  6
Continuous
 62
     0
370
     0
100
AcDbLine
 10
243.838788
 20
706.291489
 30
0.0
 11
243.838788
 21
705.591489
 31
0.0
  0
LINE
  5
275
330
25B
100
AcDbEntity
  8
0
  6
Continuous
 62
     0
370
    30
100
AcDbLine
 10
243.838788
 20
706.291489
 30
0.0
 11
244.638788
 21
706.291489
 31
0.0
  0
ARC
  5
276
330
25B
100
AcDbEntity
  8
0
  6
Continuous
 62
     0
370
    30
100
AcDbCircle
 10
243.838788
 20
636.991489
 30
0.0
 40
0.699999988079071
100
AcDbArc
 50
180.0
 51
270.0
  0
ARC
  5
277
330
25B
100
AcDbEntity
  8
0
  6
Continuous
 62
     0
370
    30
100
AcDbCircle
 10
243.838787
 20
677.091481
 30
0.0
 40
0.6999999880790782
100
AcDbArc
 50
90.0
 51
180.0
  0
LINE
  5
278
330
25B
100
AcDbEntity
  8
0
  6
Continuous
 62
     0
370
     0
100
AcDbLine
 10
243.838787
 20
665.491481
 30
0.0
 11
243.138787
 21
665.491481
 31
0.0
  0
LINE
  5
279
330
25B
100
AcDbEntity
  8
0
  6
Continuous
 62
     0
370
    30
100
AcDbLine
 10
243.138787
 20
665.491481
 30
0.0
 11
243.138787
 21
677.091481
 31
0.0
  0
LINE
  5
27A
330
25B
100
AcDbEntity
  8
0
  6
Continuous
 62
     0
370
     0
100
AcDbLine
 10
243.838787
 20
677.091481
 30
0.0
 11
243.138787
 21
677.091481
 31
0.0
  0
LINE
  5
27B
330
25B
100
AcDbEntity
  8
0
  6
Continuous
 62
     0
370
     0
100
AcDbLine
 10
243.838787
 20
665.491481
 30
0.0
 11
243.838787
 21
677.091481
 31
0.0
  0
LINE
  5
27C
330
25B
100
AcDbEntity
  8
0
  6
Continuous
 62
     0
370
     0
100
AcDbLine
 10
243.838787
 20
677.091481
 30
0.0
 11
244.638787
 21
677.091481
 31
0.0
  0
LINE
  5
27D
330
25B
100
AcDbEntity
  8
0
  6
Continuous
 62
     0
370
     0
100
AcDbLine
 10
243.838787
 20
677.091481
 30
0.0
 11
243.838787
 21
677.791481
 31
0.0
  0
LINE
  5
27E
330
25B
100
AcDbEntity
  8
0
  6
Continuous
 62
     0
370
    30
100
AcDbLine
 10
243.838787
 20
677.791481
 30
0.0
 11
244.638787
 21
677.791481
 31
0.0
  0
LINE
  5
27F
330
25B
100
AcDbEntity
  8
0
  6
Continuous
 62
     0
370
     0
100
AcDbLine
 10
244.638787
 20
677.091481
 30
0.0
 11
244.638787
 21
677.791481
 31
0.0
  0
LINE
  5
280
330
25B
100
AcDbEntity
  8
0
  6
Continuous
 62
     0
370
     0
100
AcDbLine
 10
243.838788
 20
662.791481
 30
0.0
 11
243.838788
 21
636.991489
 31
0.0
  0
LINE
  5
281
330
25B
100
AcDbEntity
  8
0
  6
Continuous
 62
     0
370
     0
100
AcDbLine
 10
243.138788
 20
636.991489
 30
0.0
 11
243.838788
 21
636.991489
 31
0.0
  0
LINE
  5
282
330
25B
100
AcDbEntity
  8
0
  6
Continuous
 62
     0
370
    30
100
AcDbLine
 10
243.138788
 20
662.791481
 30
0.0
 11
243.138788
 21
636.991489
 31
0.0
  0
LINE
  5
283
330
25B
100
AcDbEntity
  8
0
  6
Continuous
 62
     0
370
     0
100
AcDbLine
 10
243.838788
 20
662.791481
 30
0.0
 11
243.138788
 21
662.791481
 31
0.0
  0
LINE
  5
284
330
25B
100
AcDbEntity
  8
0
  6
Continuous
 62
     0
370
    30
100
AcDbLine
 10
243.838788
 20
636.291489
 30
0.0
 11
244.638788
 21
636.291489
 31
0.0
  0
LINE
  5
285
330
25B
100
AcDbEntity
  8
0
  6
Continuous
 62
     0
370
     0
100
AcDbLine
 10
243.838788
 20
636.291489
 30
0.0
 11
243.838788
 21
636.991489
 31
0.0
  0
LINE
  5
286
330
25B
100
AcDbEntity
  8
0
  6
Continuous
 62
     0
370
     0
100
AcDbLine
 10
243.838788
 20
636.991489
 30
0.0
 11
244.638788
 21
636.991489
 31
0.0
  0
LINE
  5
287
330
25B
100
AcDbEntity
  8
0
  6
Continuous
 62
     0
370
     0
100
AcDbLine
 10
244.638788
 20
636.291489
 30
0.0
 11
244.638788
 21
636.991489
 31
0.0
  0
ARC
  5
288
330
25B
100
AcDbEntity
  8
0
  6
Continuous
 62
     0
370
    30
100
AcDbCircle
 10
243.838787
 20
665.491481
 30
0.0
 40
0.699999988079071
100
AcDbArc
 50
180.0
 51
270.0
  0
LINE
  5
289
330
25B
100
AcDbEntity
  8
0
  6
Continuous
 62
     0
370
     0
100
AcDbLine
 10
244.638787
 20
665.491481
 30
0.0
 11
244.638787
 21
664.791481
 31
0.0
  0
LINE
  5
28A
330
25B
100
AcDbEntity
  8
0
  6
Continuous
 62
     0
370
    30
100
AcDbLine
 10
244.638787
 20
664.791481
 30
0.0
 11
243.838787
 21
664.791481
 31
0.0
  0
LINE
  5
28B
330
25B
100
AcDbEntity
  8
0
  6
Continuous
 62
     0
370
     0
100
AcDbLine
 10
243.838787
 20
665.491481
 30
0.0
 11
243.838787
 21
664.791481
 31
0.0
  0
LINE
  5
28C
330
25B
100
AcDbEntity
  8
0
  6
Continuous
 62
     0
370
     0
100
AcDbLine
 10
244.638784
 20
665.491481
 30
0.0
 11
243.838787
 21
665.491481
 31
0.0
  0
LINE
  5
28D
330
25B
100
AcDbEntity
  8
0
  6
Continuous
 62
     0
370
    30
100
AcDbLine
 10
243.138788
 20
665.491481
 30
0.0
 11
243.138788
 21
662.791481
 31
0.0
  0
LINE
  5
28E
330
25B
100
AcDbEntity
  8
0
  6
Continuous
 62
     0
370
    30
100
AcDbLine
 10
243.138788
 20
677.091481
 30
0.0
 11
243.138788
 21
679.791481
 31
0.0
  0
LINE
  5
28F
330
25B
100
AcDbEntity
  8
0
  6
Continuous
 62
     0
370
     0
100
AcDbLine
 10
243.838788
 20
677.791481
 30
0.0
 11
243.838788
 21
679.791481
 31
0.0
  0
LINE
  5
290
330
25B
100
AcDbEntity
  8
0
  6
Continuous
 62
     0
370
     0
100
AcDbLine
 10
243.838788
 20
679.791481
 30
0.0
 11
244.638788
 21
679.791481
 31
0.0
  0
LINE
  5
291
330
25B
100
AcDbEntity
  8
0
  6
Continuous
 62
     0
370
     0
100
AcDbLine
 10
244.638788
 20
705.591489
 30
0.0
 11
244.638788
 21
679.791481
 31
0.0
  0
LINE
  5
292
330
25B
100
AcDbEntity
  8
0
  6
Continuous
 62
     0
370
    30
100
AcDbLine
 10
244.638788
 20
706.291489
 30
0.0
 11
248.438824
 21
706.291489
 31
0.0
  0
LINE
  5
293
330
25B
100
AcDbEntity
  8
0
  6
Continuous
 62
     0
370
     0
100
AcDbLine
 10
244.638788
 20
705.591489
 30
0.0
 11
249.138824
 21
705.591489
 31
0.0
  0
LINE
  5
294
330
25B
100
AcDbEntity
  8
0
  6
Continuous
 62
     0
370
    30
100
AcDbLine
 10
244.638788
 20
636.291489
 30
0.0
 11
248.438824
 21
636.291489
 31
0.0
  0
LINE
  5
295
330
25B
100
AcDbEntity
  8
0
  6
Continuous
 62
     0
370
     0
100
AcDbLine
 10
244.638788
 20
636.991489
 30
0.0
 11
249.138824
 21
636.991489
 31
0.0
  0
LINE
  5
296
330
25B
100
AcDbEntity
  8
0
  6
Continuous
 62
     0
370
     0
100
AcDbLine
 10
244.638788
 20
662.791481
 30
0.0
 11
244.638788
 21
636.991489
 31
0.0
  0
LINE
  5
297
330
25B
100
AcDbEntity
  8
0
  6
Continuous
 62
     0
370
     0
100
AcDbLine
 10
244.638788
 20
662.791481
 30
0.0
 11
243.838788
 21
662.791481
 31
0.0
  0
SPLINE
  5
298
330
25B
100
AcDbEntity
  8
0
  6
Continuous
 62
     0
370
     0
100
AcDbSpline
210
0.0
220
0.0
230
1.0
 70
     8
 71
     3
 72
    27
 73
    23
 74
     0
 42
0.000000001
 43
0.0
 40
0.0
 40
0.0
 40
0.0
 40
0.0
 40
1.029141359914143
 40
1.899953279841494
 40
2.770765199768845
 40
3.799906559682988
 40
4.987377359583922
 40
5.699859839524484
 40
6.491507039458438
 40
6.887330639425416
 40
7.283154239392394
 40
7.599813119365976
 40
7.916471999339558
 40
8.312295599306537
 40
8.708119199273515
 40
9.49976639920747
 40
10.21224887914803
 40
11.39971967904896
 40
12.4288610389631
 40
13.29967295889045
 40
14.17048487881781
 40
15.19962623873195
 40
15.19962623873195
 40
15.19962623873195
 40
15.19962623873195
 10
244.6387868616815
 20
677.0914810364868
 30
0.0
 10
244.8615065261853
 20
677.0914810364815
 30
0.0
 10
245.289367176302
 20
677.0348758385045
 30
0.0
 10
245.9469727316978
 20
676.7595701719292
 30
0.0
 10
246.6094717426776
 20
676.2798145422203
 30
0.0
 10
247.3014425954382
 20
675.4881782540323
 30
0.0
 10
247.8310498786051
 20
674.4947081409249
 30
0.0
 10
248.1729610399283
 20
673.4739389509667
 30
0.0
 10
248.3290787804613
 20
672.7258521797639
 30
0.0
 10
248.4046331223298
 20
672.1064786759737
 30
0.0
 10
248.4333988005817
 20
671.6782416167699
 30
0.0
 10
248.441232859332
 20
671.2914886589432
 30
0.0
 10
248.4333988005654
 20
670.9047356681364
 30
0.0
 10
248.4046331209623
 20
670.4764984877766
 30
0.0
 10
248.3290787718174
 20
669.8571246653031
 30
0.0
 10
248.172961006391
 20
669.1090372336421
 30
0.0
 10
247.8310497492749
 20
668.0882665871744
 30
0.0
 10
247.3014422274697
 20
667.0947941937638
 30
0.0
 10
246.6094708461239
 20
666.3031549281661
 30
0.0
 10
245.9469711743106
 20
665.8233965667255
 30
0.0
 10
245.2893649860592
 20
665.5480884177613
 30
0.0
 10
244.8615041523375
 20
665.4914817678368
 30
0.0
 10
244.6387844878326
 20
665.491481012641
 30
0.0
  0
SPLINE
  5
299
330
25B
100
AcDbEntity
  8
0
  6
Continuous
 62
     0
370
    30
100
AcDbSpline
210
0.0
220
0.0
230
1.0
 70
     8
 71
     3
 72
    41
 73
    37
 74
     0
 42
0.000000001
 43
0.0
 40
0.0
 40
0.0
 40
0.0
 40
0.0
 40
0.6219021576259569
 40
1.243804315251913
 40
1.86570647287787
 40
2.487608630503826
 40
3.109510788129783
 40
3.73141294575574
 40
4.353315103381695
 40
4.975217261007653
 40
5.597119418633609
 40
6.219021576259564
 40
6.84092373388552
 40
7.462825891511478
 40
7.773776970324458
 40
8.084728049137436
 40
8.395679127950412
 40
8.551154667356904
 40
8.706630206763391
 40
8.86210574616988
 40
9.017581285576368
 40
9.32853236438935
 40
9.639483443202327
 40
9.950434522015305
 40
10.57233667964126
 40
11.19423883726722
 40
11.81614099489317
 40
12.43804315251913
 40
13.05994531014509
 40
13.68184746777104
 40
14.303749625397
 40
14.92565178302296
 40
15.54755394064892
 40
16.16945609827487
 40
16.79135825590082
 40
17.41326041352678
 40
17.41326041352678
 40
17.41326041352678
 40
17.41326041352678
 10
244.6387868922964
 20
677.7914810245659
 30
0.0
 10
244.7903109695368
 20
677.7914810245622
 30
0.0
 10
245.0997450928454
 20
677.7693403527823
 30
0.0
 10
245.5764665349606
 20
677.6619505207835
 30
0.0
 10
246.0576044279632
 20
677.4743244969228
 30
0.0
 10
246.5337006203221
 20
677.2028742929934
 30
0.0
 10
246.9944470045024
 20
676.8471142096749
 30
0.0
 10
247.4293078135506
 20
676.4100833380384
 30
0.0
 10
247.8282464534499
 20
675.8984440235689
 30
0.0
 10
248.1824614584538
 20
675.3222045884861
 30
0.0
 10
248.4850241592637
 20
674.6940778820892
 30
0.0
 10
248.7313213758007
 20
674.0285617954654
 30
0.0
 10
248.9192518518824
 20
673.3408719044077
 30
0.0
 10
249.0274933029146
 20
672.7617347406093
 30
0.0
 10
249.0863272306116
 20
672.301600299819
 30
0.0
 10
249.1170720068735
 20
671.9595716089773
 30
0.0
 10
249.1320072663718
 20
671.6783760365811
 30
0.0
 10
249.1378656557578
 20
671.4561359180069
 30
0.0
 10
249.1393007697096
 20
671.2914886546636
 30
0.0
 10
249.1378656557499
 20
671.1268413864541
 30
0.0
 10
249.1320072663533
 20
670.9046012480155
 30
0.0
 10
249.1170720068415
 20
670.6234056249773
 30
0.0
 10
249.0863272305631
 20
670.2813768298871
 30
0.0
 10
249.0274933028441
 20
669.821242189605
 30
0.0
 10
248.9192518517842
 20
669.2421046587847
 30
0.0
 10
248.7313213756694
 20
668.5544141304985
 30
0.0
 10
248.4850241591006
 20
667.8888972087382
 30
0.0
 10
248.1824614582604
 20
667.2607694764216
 30
0.0
 10
247.828246453229
 20
666.684528840278
 30
0.0
 10
247.4293078133051
 20
666.1728881731007
 30
0.0
 10
246.9944470042358
 20
665.7358558269522
 30
0.0
 10
246.5337006200385
 20
665.38009418135
 30
0.0
 10
246.0576044276665
 20
665.1086423630892
 30
0.0
 10
245.576466534655
 20
664.9210147078019
 30
0.0
 10
245.0997450925347
 20
664.8136232593516
 30
0.0
 10
244.7903109692248
 20
664.7914815383524
 30
0.0
 10
244.6387868919845
 20
664.7914810245659
 30
0.0
  0
LINE
  5
29A
330
25B
100
AcDbEntity
  8
0
  6
Continuous
 62
     0
370
     0
100
AcDbLine
 10
243.838788
 20
664.791481
 30
0.0
 11
243.838788
 21
662.791481
 31
0.0
  0
LINE
  5
29B
330
25B
100
AcDbEntity
  8
0
  6
Continuous
 62
     0
370
    30
100
AcDbLine
 10
271.838814
 20
664.291489
 30
0.0
 11
251.138863
 21
664.291489
 31
0.0
  0
LINE
  5
29C
330
25B
100
AcDbEntity
  8
0
  6
Continuous
 62
     0
370
    30
100
AcDbLine
 10
271.838814
 20
678.291489
 30
0.0
 11
251.138863
 21
678.291489
 31
0.0
  0
ARC
  5
29D
330
25B
100
AcDbEntity
  8
0
  6
Continuous
 62
     0
370
    30
100
AcDbCircle
 10
248.438821
 20
705.591486
 30
0.0
 40
0.7000031410595617
100
AcDbArc
 50
0.000258
 51
89.999338
  0
ARC
  5
29E
330
25B
100
AcDbEntity
  8
0
  6
Continuous
 62
     0
370
    30
100
AcDbCircle
 10
248.438821
 20
636.991492
 30
0.0
 40
0.7000031410631429
100
AcDbArc
 50
270.000662
 51
359.999742
  0
LINE
  5
29F
330
25B
100
AcDbEntity
  8
0
  6
Continuous
 62
     0
370
    30
100
AcDbLine
 10
249.138824
 20
662.29148
 30
0.0
 11
249.138824
 21
636.991489
 31
0.0
  0
LINE
  5
2A0
330
25B
100
AcDbEntity
  8
0
  6
Continuous
 62
     0
370
    30
100
AcDbLine
 10
249.138824
 20
680.291498
 30
0.0
 11
249.138824
 21
705.591489
 31
0.0
  0
ARC
  5
2A1
330
25B
100
AcDbEntity
  8
0
  6
Continuous
 62
     0
370
    30
100
AcDbCircle
 10
251.139015
 20
680.291583
 30
0.0
 40
2.00019159672675
100
AcDbArc
 50
180.002744
 51
269.99221
  0
ARC
  5
2A2
330
25B
100
AcDbEntity
  8
0
  6
Continuous
 62
     0
370
    30
100
AcDbCircle
 10
251.139015
 20
662.291394
 30
0.0
 40
2.000191594560915
100
AcDbArc
 50
90.007791
 51
179.997257
  0
LINE
  5
2A3
330
25B
100
AcDbEntity
  8
0
  6
Continuous
 62
     0
370
    30
100
AcDbLine
 10
271.838814
 20
654.791494
 30
0.0
 11
271.838814
 21
687.791494
 31
0.0
  0
LINE
  5
2A4
330
25B
100
AcDbEntity
  8
0
  6
Continuous
 62
     0
370
    30
100
AcDbLine
 10
291.838814
 20
687.791494
 30
0.0
 11
271.838814
 21
687.791494
 31
0.0
  0
LINE
  5
2A5
330
25B
100
AcDbEntity
  8
0
  6
Continuous
 62
     0
370
    30
100
AcDbLine
 10
291.838814
 20
654.791494
 30
0.0
 11
271.838814
 21
654.791494
 31
0.0
  0
LINE
  5
2A6
330
25B
100
AcDbEntity
  8
0
  6
Continuous
 62
     0
370
    30
100
AcDbLine
 10
234.838814
 20
529.790695
 30
0.0
 11
235.338814
 21
529.290695
 31
0.0
  0
LINE
  5
2A7
330
25B
100
AcDbEntity
  8
0
  6
Continuous
 62
     0
370
    30
100
AcDbLine
 10
234.838814
 20
572.790695
 30
0.0
 11
234.838814
 21
529.790695
 31
0.0
  0
LINE
  5
2A8
330
25B
100
AcDbEntity
  8
0
  6
Continuous
 62
     0
370
    30
100
AcDbLine
 10
235.338814
 20
573.290695
 30
0.0
 11
235.338814
 21
529.290695
 31
0.0
  0
LINE
  5
2A9
330
25B
100
AcDbEntity
  8
0
  6
Continuous
 62
     0
370
    30
100
AcDbLine
 10
284.838814
 20
573.290695
 30
0.0
 11
284.838814
 21
529.290695
 31
0.0
  0
LINE
  5
2AA
330
25B
100
AcDbEntity
  8
0
  6
Continuous
 62
     0
370
    30
100
AcDbLine
 10
235.338814
 20
529.290695
 30
0.0
 11
284.838814
 21
529.290695
 31
0.0
  0
LINE
  5
2AB
330
25B
100
AcDbEntity
  8
0
  6
Continuous
 62
     0
370
    30
100
AcDbLine
 10
234.838855
 20
572.790736
 30
0.0
 11
235.338814
 21
573.290695
 31
0.0
  0
LINE
  5
2AC
330
25B
100
AcDbEntity
  8
0
  6
Continuous
 62
     0
370
    30
100
AcDbLine
 10
247.788814
 20
573.290695
 30
0.0
 11
284.838814
 21
573.290695
 31
0.0
  0
LINE
  5
2AD
330
25B
100
AcDbEntity
  8
0
  6
Continuous
 62
     0
370
    30
100
AcDbLine
 10
235.338814
 20
573.290695
 30
0.0
 11
239.888814
 21
573.290695
 31
0.0
  0
LINE
  5
2AE
330
25B
100
AcDbEntity
  8
0
  6
Continuous
 62
     0
370
    30
100
AcDbLine
 10
240.388814
 20
581.120695
 30
0.0
 11
239.888814
 21
580.620695
 31
0.0
  0
LINE
  5
2AF
330
25B
100
AcDbEntity
  8
0
  6
Continuous
 62
     0
370
    30
100
AcDbLine
 10
247.288814
 20
581.120695
 30
0.0
 11
240.388814
 21
581.120695
 31
0.0
  0
LINE
  5
2B0
330
25B
100
AcDbEntity
  8
0
  6
Continuous
 62
     0
370
    30
100
AcDbLine
 10
239.888814
 20
580.620695
 30
0.0
 11
247.788814
 21
580.620695
 31
0.0
  0
LINE
  5
2B1
330
25B
100
AcDbEntity
  8
0
  6
Continuous
 62
     0
370
    30
100
AcDbLine
 10
239.888814
 20
580.620695
 30
0.0
 11
239.888814
 21
573.290695
 31
0.0
  0
LINE
  5
2B2
330
25B
100
AcDbEntity
  8
0
  6
Continuous
 62
     0
370
    30
100
AcDbLine
 10
247.788814
 20
580.620695
 30
0.0
 11
247.788814
 21
573.290695
 31
0.0
  0
LINE
  5
2B3
330
25B
100
AcDbEntity
  8
0
  6
Continuous
 62
     0
370
    30
100
AcDbLine
 10
247.288961
 20
581.120548
 30
0.0
 11
247.788814
 21
580.620695
 31
0.0
  0
LINE
  5
2B4
330
25B
100
AcDbEntity
  8
0
  6
Continuous
 62
     0
370
    30
100
AcDbLine
 10
288.424239
 20
570.290695
 30
0.0
 11
284.838814
 21
570.290695
 31
0.0
  0
LINE
  5
2B5
330
25B
100
AcDbEntity
  8
0
  6
Continuous
 62
     0
370
    30
100
AcDbLine
 10
288.424239
 20
532.290695
 30
0.0
 11
284.838814
 21
532.290695
 31
0.0
  0
LINE
  5
2B6
330
25B
100
AcDbEntity
  8
0
  6
Continuous
 62
     0
370
    30
100
AcDbLine
 10
291.838814
 20
641.291494
 30
0.0
 11
291.838814
 21
701.291494
 31
0.0
  0
LINE
  5
2B7
330
25B
100
AcDbEntity
  8
0
  6
Continuous
 62
     0
370
    30
100
AcDbLine
 10
298.838814
 20
641.291494
 30
0.0
 11
298.838814
 21
701.291494
 31
0.0
  0
LINE
  5
2B8
330
25B
100
AcDbEntity
  8
0
  6
Continuous
 62
     0
370
    30
100
AcDbLine
 10
291.838814
 20
641.291494
 30
0.0
 11
298.838814
 21
641.291494
 31
0.0
  0
LINE
  5
2B9
330
25B
100
AcDbEntity
  8
0
  6
Continuous
 62
     0
370
    30
100
AcDbLine
 10
291.838814
 20
701.291494
 30
0.0
 11
298.838814
 21
701.291494
 31
0.0
  0
LINE
  5
2BA
330
25B
100
AcDbEntity
  8
0
  6
Continuous
 62
     0
370
     0
100
AcDbLine
 10
289.823718
 20
616.290695
 30
0.0
 11
289.823718
 21
486.290695
 31
0.0
  0
LINE
  5
2BB
330
25B
100
AcDbEntity
  8
0
  6
Continuous
 62
     0
370
     0
100
AcDbLine
 10
289.323951
 20
486.775429
 30
0.0
 11
289.323951
 21
615.805961
 31
0.0
  0
LINE
  5
2BC
330
25B
100
AcDbEntity
  8
0
  6
Continuous
 62
     0
370
    30
100
AcDbLine
 10
298.838814
 20
616.290695
 30
0.0
 11
298.838814
 21
486.290695
 31
0.0
  0
LINE
  5
2BD
330
25B
100
AcDbEntity
  8
0
  6
Continuous
 62
     0
370
    30
100
AcDbLine
 10
298.838814
 20
616.290695
 30
0.0
 11
289.823718
 21
616.290695
 31
0.0
  0
LINE
  5
2BE
330
25B
100
AcDbEntity
  8
0
  6
Continuous
 62
     0
370
    30
100
AcDbLine
 10
298.838814
 20
486.290695
 30
0.0
 11
289.823718
 21
486.290695
 31
0.0
  0
ARC
  5
2BF
330
25B
100
AcDbEntity
  8
0
  6
Continuous
 62
     0
370
    30
100
AcDbCircle
 10
2401.351375
 20
551.290451
 30
0.0
 40
2113.012562314653
100
AcDbArc
 50
178.250344
 51
179.484788
  0
ARC
  5
2C0
330
25B
100
AcDbEntity
  8
0
  6
Continuous
 62
     0
370
    30
100
AcDbCircle
 10
2401.351375
 20
551.29094
 30
0.0
 40
2113.01256231467
100
AcDbArc
 50
180.515212
 51
181.749656
  0
ARC
  5
2C1
330
25B
100
AcDbEntity
  8
0
  6
Continuous
 62
     0
370
    30
100
AcDbCircle
 10
289.8238
 20
615.790611
 30
0.0
 40
0.500084423360333
100
AcDbArc
 50
90.009378
 51
178.240965
  0
ARC
  5
2C2
330
25B
100
AcDbEntity
  8
0
  6
Continuous
 62
     0
370
    30
100
AcDbCircle
 10
289.8238
 20
486.79078
 30
0.0
 40
0.5000844233603272
100
AcDbArc
 50
181.759035
 51
269.990622
  0
LINE
  5
2C3
330
25B
100
AcDbEntity
  8
0
  6
Continuous
 62
     0
370
    30
100
AcDbLine
 10
288.424239
 20
570.290695
 30
0.0
 11
288.424239
 21
532.290695
 31
0.0
  0
ENDBLK
  5
2C5
330
25B
100
AcDbEntity
  8
0
100
AcDbBlockEnd
  0
ENDSEC
  0
SECTION
  2
ENTITIES
  0
INSERT
  5
D6
330
1F
100
AcDbEntity
  8
0
  6
Continuous
 62
     7
370
     0
100
AcDbBlockReference
  2
a
 10
1686.230835
 20
722.246704
 30
0.0
  0
INSERT
  5
144
330
1F
100
AcDbEntity
  8
0
  6
Continuous
 62
     7
370
     0
100
AcDbBlockReference
  2
b
 10
1686.231079
 20
1312.826782
 30
0.0
  0
INSERT
  5
1B0
330
1F
100
AcDbEntity
  8
0
  6
Continuous
 62
     7
370
     0
100
AcDbBlockReference
  2
c
 10
2097.461792
 20
722.246704
 30
0.0
  0
INSERT
  5
25A
330
1F
100
AcDbEntity
  8
0
  6
Continuous
 62
     7
370
     0
100
AcDbBlockReference
  2
d
 10
1049.529588
 20
3740.098397
 30
0.0
  0
INSERT
  5
2C6
330
1F
100
AcDbEntity
  8
0
  6
Continuous
 62
     7
370
     0
100
AcDbBlockReference
  2
c1
 10
-1066.159225
 20
722.246704
 30
0.0
  0
ENDSEC
  0
SECTION
  2
OBJECTS
  0
DICTIONARY
  5
C
330
0
100
AcDbDictionary
281
     1
  3
ACAD_GROUP
350
D
  3
ACAD_LAYOUT
350
1A
  3
ACAD_MATERIAL
350
43
  3
ACAD_MLEADERSTYLE
350
6B
  3
ACAD_MLINESTYLE
350
17
  3
ACAD_PLOTSETTINGS
350
19
  3
ACAD_PLOTSTYLENAME
350
E
  3
ACAD_SCALELIST
350
47
  3
ACAD_TABLESTYLE
350
69
  3
ACAD_VISUALSTYLE
350
2A
  3
AcDbVariableDictionary
350
2C7
  0
DICTIONARY
  5
2D2
330
8
100
AcDbDictionary
280
     1
281
     1
  3
ACAD_XREC_ROUNDTRIP
360
2D3
  0
DICTIONARY
  5
D
102
{ACAD_REACTORS
330
C
102
}
330
C
100
AcDbDictionary
281
     1
  0
DICTIONARY
  5
1A
102
{ACAD_REACTORS
330
C
102
}
330
C
100
AcDbDictionary
281
     1
  3
Layout1
350
1E
  3
Layout2
350
26
  3
Model
350
22
  0
DICTIONARY
  5
43
102
{ACAD_REACTORS
330
C
102
}
330
C
100
AcDbDictionary
281
     1
  3
ByBlock
350
45
  3
ByLayer
350
44
  3
Global
350
46
  0
DICTIONARY
  5
6B
102
{ACAD_REACTORS
330
C
102
}
330
C
100
AcDbDictionary
281
     1
  3
Standard
350
6C
  0
DICTIONARY
  5
17
102
{ACAD_REACTORS
330
C
102
}
330
C
100
AcDbDictionary
281
     1
  3
Standard
350
18
  0
DICTIONARY
  5
19
102
{ACAD_REACTORS
330
C
102
}
330
C
100
AcDbDictionary
281
     1
  0
ACDBDICTIONARYWDFLT
  5
E
102
{ACAD_REACTORS
330
C
102
}
330
C
100
AcDbDictionary
281
     1
  3
Normal
350
F
100
AcDbDictionaryWithDefault
340
F
  0
DICTIONARY
  5
47
102
{ACAD_REACTORS
330
C
102
}
330
C
100
AcDbDictionary
281
     1
  3
A0
350
48
  3
A1
350
49
  3
A2
350
4A
  3
A3
350
4B
  3
A4
350
4C
  3
A5
350
4D
  3
A6
350
4E
  3
A7
350
4F
  3
A8
350
50
  3
A9
350
51
  3
B0
350
52
  3
B1
350
53
  3
B2
350
54
  3
B3
350
55
  3
B4
350
56
  3
B5
350
57
  3
B6
350
58
  3
B7
350
59
  3
B8
350
5A
  3
B9
350
5B
  3
C0
350
5C
  3
C1
350
5D
  3
C2
350
5E
  3
C3
350
5F
  3
C4
350
60
  3
C5
350
61
  3
C6
350
62
  3
C7
350
63
  3
C8
350
64
  3
C9
350
65
  3
D0
350
66
  3
D1
350
67
  3
D2
350
68
  0
DICTIONARY
  5
69
102
{ACAD_REACTORS
330
C
102
}
330
C
100
AcDbDictionary
281
     1
  3
Standard
350
6A
  0
DICTIONARY
  5
2A
102
{ACAD_REACTORS
330
C
102
}
330
C
100
AcDbDictionary
281
     1
  3
2dWireframe
350
2F
  3
Basic
350
32
  3
Brighten
350
36
  3
ColorChange
350
3A
  3
Conceptual
350
34
  3
Dim
350
35
  3
EdgeColorOff
350
3D
  3
Facepattern
350
39
  3
Flat
350
2B
  3
FlatWithEdges
350
2C
  3
Gouraud
350
2D
  3
GouraudWithEdges
350
2E
  3
Hidden
350
31
  3
JitterOff
350
3B
  3
Linepattern
350
38
  3
OverhangOff
350
3C
  3
Realistic
350
33
  3
Shaded
350
42
  3
Shaded with edges
350
41
  3
Shades of Gray
350
3E
  3
Sketchy
350
3F
  3
Thicken
350
37
  3
Wireframe
350
30
  3
X-Ray
350
40
  0
DICTIONARY
  5
2C7
102
{ACAD_REACTORS
330
C
102
}
330
C
100
AcDbDictionary
281
     1
  3
CANNOSCALE
350
2D4
  3
CENTEREXE
350
2CE
  3
CENTERLTYPEFILE
350
2CF
  3
CMLEADERSTYLE
350
2C9
  3
CTABLESTYLE
350
2C8
  3
DIMASSOC
350
2D0
  3
HIDETEXT
350
2D1
  3
MSLTSCALE
350
2D5
  3
PSOLHEIGHT
350
2CB
  3
PSOLWIDTH
350
2CA
  0
XRECORD
  5
2D3
102
{ACAD_REACTORS
330
2D2
102
}
330
2D2
100
AcDbXrecord
280
     1
102
VTR_0.000_0.000_1.000_1.000_VISUALSTYLE
340
2F
102
VTR_0.000_0.000_1.000_1.000_GRIDDISPLAY
 70
     3
102
VTR_0.000_0.000_1.000_1.000_GRIDMAJOR
 70
     5
102
VTR_0.000_0.000_1.000_1.000_DEFAULTLIGHTING
280
     1
102
VTR_0.000_0.000_1.000_1.000_DEFAULTLIGHTINGTYPE
 70
     1
102
VTR_0.000_0.000_1.000_1.000_BRIGHTNESS
141
0.0
102
VTR_0.000_0.000_1.000_1.000_CONTRAST
142
0.0
  0
LAYOUT
  5
1E
102
{ACAD_REACTORS
330
1A
102
}
330
1A
100
AcDbPlotSettings
  1

  2
none_device
  4

  6

 40
0.0
 41
0.0
 42
0.0
 43
0.0
 44
0.0
 45
0.0
 46
0.0
 47
0.0
 48
0.0
 49
0.0
140
0.0
141
0.0
142
1.0
143
1.0
 70
   688
 72
     1
 73
     0
 74
     5
  7

 75
    16
147
1.0
148
0.0
149
0.0
100
AcDbLayout
  1
Layout1
 70
     1
 71
     1
 10
0.0
 20
0.0
 11
420.0
 21
297.0
 12
0.0
 22
0.0
 32
0.0
 14
1.000000E+20
 24
1.000000E+20
 34
1.000000E+20
 15
-1.000000E+20
 25
-1.000000E+20
 35
-1.000000E+20
146
0.0
 13
0.0
 23
0.0
 33
0.0
 16
1.0
 26
0.0
 36
0.0
 17
0.0
 27
1.0
 37
0.0
 76
     0
330
1B
  0
LAYOUT
  5
26
102
{ACAD_REACTORS
330
1A
102
}
330
1A
100
AcDbPlotSettings
  1

  2
none_device
  4

  6

 40
0.0
 41
0.0
 42
0.0
 43
0.0
 44
0.0
 45
0.0
 46
0.0
 47
0.0
 48
0.0
 49
0.0
140
0.0
141
0.0
142
1.0
143
1.0
 70
   688
 72
     1
 73
     0
 74
     5
  7

 75
    16
147
1.0
148
0.0
149
0.0
100
AcDbLayout
  1
Layout2
 70
     1
 71
     2
 10
0.0
 20
0.0
 11
0.0
 21
0.0
 12
0.0
 22
0.0
 32
0.0
 14
0.0
 24
0.0
 34
0.0
 15
0.0
 25
0.0
 35
0.0
146
0.0
 13
0.0
 23
0.0
 33
0.0
 16
1.0
 26
0.0
 36
0.0
 17
0.0
 27
1.0
 37
0.0
 76
     0
330
23
  0
LAYOUT
  5
22
102
{ACAD_REACTORS
330
1A
102
}
330
1A
100
AcDbPlotSettings
  1

  2
none_device
  4
Letter_(8.50_x_11.00_Inches)
  6

 40
6.35
 41
6.35
 42
6.350005
 43
6.350005
 44
215.9
 45
279.4
 46
0.0
 47
0.0
 48
0.0
 49
0.0
140
0.0
141
0.0
142
1.0
143
1.0
 70
  1712
 72
     1
 73
     0
 74
     0
  7

 75
     0
147
1.0
148
0.0
149
0.0
100
AcDbLayout
  1
Model
 70
     1
 71
     0
 10
0.0
 20
0.0
 11
796.463745
 21
981.061218
 12
0.0
 22
0.0
 32
0.0
 14
0.0
 24
0.0
 34
0.0
 15
796.463745
 25
981.061218
 35
0.0
146
0.0
 13
0.0
 23
0.0
 33
0.0
 16
1.0
 26
0.0
 36
0.0
 17
0.0
 27
1.0
 37
0.0
 76
     0
330
1F
331
29
  0
MATERIAL
  5
45
102
{ACAD_REACTORS
330
43
102
}
102
{ACAD_XDICTIONARY
360
308
102
}
330
43
100
AcDbMaterial
  1
ByBlock
  0
MATERIAL
  5
44
102
{ACAD_REACTORS
330
43
102
}
102
{ACAD_XDICTIONARY
360
306
102
}
330
43
100
AcDbMaterial
  1
ByLayer
  0
MATERIAL
  5
46
102
{ACAD_REACTORS
330
43
102
}
102
{ACAD_XDICTIONARY
360
30A
102
}
330
43
100
AcDbMaterial
  1
Global
  0
MLEADERSTYLE
  5
6C
102
{ACAD_REACTORS
330
6B
102
}
102
{ACAD_XDICTIONARY
360
30D
102
}
330
6B
100
AcDbMLeaderStyle
170
     2
171
     1
172
     0
 90
        2
 40
0.0
 41
0.0
173
     1
 91
-1056964608
340
14
 92
       -2
290
     1
 42
2.0
291
     1
 43
8.0
  3
Standard
341
0
 44
4.0
300

342
11
174
     1
178
     6
175
     1
176
     0
 93
-1056964608
 45
4.0
292
     0
297
     0
 46
4.0
343
0
 94
-1056964608
 47
1.0
 49
1.0
140
1.0
293
     1
141
0.0
294
     1
177
     0
142
1.0
295
     0
296
     0
143
3.75
1001
ACAD_MLEADERVER
1070
     2
  0
MLINESTYLE
  5
18
102
{ACAD_REACTORS
330
17
102
}
330
17
100
AcDbMlineStyle
  2
Standard
 70
     0
  3

 62
   256
 51
90.0
 52
90.0
 71
     2
 49
0.5
 62
   256
  6
BYLAYER
 49
-0.5
 62
   256
  6
BYLAYER
  0
ACDBPLACEHOLDER
  5
F
102
{ACAD_REACTORS
330
E
102
}
330
E
  0
SCALE
  5
48
102
{ACAD_REACTORS
330
47
102
}
330
47
100
AcDbScale
 70
     0
300
1:1
140
1.0
141
1.0
290
     1
  0
SCALE
  5
49
102
{ACAD_REACTORS
330
47
102
}
330
47
100
AcDbScale
 70
     0
300
1:2
140
1.0
141
2.0
290
     0
  0
SCALE
  5
4A
102
{ACAD_REACTORS
330
47
102
}
330
47
100
AcDbScale
 70
     0
300
1:4
140
1.0
141
4.0
290
     0
  0
SCALE
  5
4B
102
{ACAD_REACTORS
330
47
102
}
330
47
100
AcDbScale
 70
     0
300
1:5
140
1.0
141
5.0
290
     0
  0
SCALE
  5
4C
102
{ACAD_REACTORS
330
47
102
}
330
47
100
AcDbScale
 70
     0
300
1:8
140
1.0
141
8.0
290
     0
  0
SCALE
  5
4D
102
{ACAD_REACTORS
330
47
102
}
330
47
100
AcDbScale
 70
     0
300
1:10
140
1.0
141
10.0
290
     0
  0
SCALE
  5
4E
102
{ACAD_REACTORS
330
47
102
}
330
47
100
AcDbScale
 70
     0
300
1:16
140
1.0
141
16.0
290
     0
  0
SCALE
  5
4F
102
{ACAD_REACTORS
330
47
102
}
330
47
100
AcDbScale
 70
     0
300
1:20
140
1.0
141
20.0
290
     0
  0
SCALE
  5
50
102
{ACAD_REACTORS
330
47
102
}
330
47
100
AcDbScale
 70
     0
300
1:30
140
1.0
141
30.0
290
     0
  0
SCALE
  5
51
102
{ACAD_REACTORS
330
47
102
}
330
47
100
AcDbScale
 70
     0
300
1:40
140
1.0
141
40.0
290
     0
  0
SCALE
  5
52
102
{ACAD_REACTORS
330
47
102
}
330
47
100
AcDbScale
 70
     0
300
1:50
140
1.0
141
50.0
290
     0
  0
SCALE
  5
53
102
{ACAD_REACTORS
330
47
102
}
330
47
100
AcDbScale
 70
     0
300
1:100
140
1.0
141
100.0
290
     0
  0
SCALE
  5
54
102
{ACAD_REACTORS
330
47
102
}
330
47
100
AcDbScale
 70
     0
300
2:1
140
2.0
141
1.0
290
     0
  0
SCALE
  5
55
102
{ACAD_REACTORS
330
47
102
}
330
47
100
AcDbScale
 70
     0
300
4:1
140
4.0
141
1.0
290
     0
  0
SCALE
  5
56
102
{ACAD_REACTORS
330
47
102
}
330
47
100
AcDbScale
 70
     0
300
8:1
140
8.0
141
1.0
290
     0
  0
SCALE
  5
57
102
{ACAD_REACTORS
330
47
102
}
330
47
100
AcDbScale
 70
     0
300
10:1
140
10.0
141
1.0
290
     0
  0
SCALE
  5
58
102
{ACAD_REACTORS
330
47
102
}
330
47
100
AcDbScale
 70
     0
300
100:1
140
100.0
141
1.0
290
     0
  0
SCALE
  5
59
102
{ACAD_REACTORS
330
47
102
}
330
47
100
AcDbScale
 70
     0
300
1/128" = 1'-0"
140
0.007812
141
12.0
290
     0
  0
SCALE
  5
5A
102
{ACAD_REACTORS
330
47
102
}
330
47
100
AcDbScale
 70
     0
300
1/64" = 1'-0"
140
0.015625
141
12.0
290
     0
  0
SCALE
  5
5B
102
{ACAD_REACTORS
330
47
102
}
330
47
100
AcDbScale
 70
     0
300
1/32" = 1'-0"
140
0.03125
141
12.0
290
     0
  0
SCALE
  5
5C
102
{ACAD_REACTORS
330
47
102
}
330
47
100
AcDbScale
 70
     0
300
1/16" = 1'-0"
140
0.0625
141
12.0
290
     0
  0
SCALE
  5
5D
102
{ACAD_REACTORS
330
47
102
}
330
47
100
AcDbScale
 70
     0
300
3/32" = 1'-0"
140
0.09375
141
12.0
290
     0
  0
SCALE
  5
5E
102
{ACAD_REACTORS
330
47
102
}
330
47
100
AcDbScale
 70
     0
300
1/8" = 1'-0"
140
0.125
141
12.0
290
     0
  0
SCALE
  5
5F
102
{ACAD_REACTORS
330
47
102
}
330
47
100
AcDbScale
 70
     0
300
3/16" = 1'-0"
140
0.1875
141
12.0
290
     0
  0
SCALE
  5
60
102
{ACAD_REACTORS
330
47
102
}
330
47
100
AcDbScale
 70
     0
300
1/4" = 1'-0"
140
0.25
141
12.0
290
     0
  0
SCALE
  5
61
102
{ACAD_REACTORS
330
47
102
}
330
47
100
AcDbScale
 70
     0
300
3/8" = 1'-0"
140
0.375
141
12.0
290
     0
  0
SCALE
  5
62
102
{ACAD_REACTORS
330
47
102
}
330
47
100
AcDbScale
 70
     0
300
1/2" = 1'-0"
140
0.5
141
12.0
290
     0
  0
SCALE
  5
63
102
{ACAD_REACTORS
330
47
102
}
330
47
100
AcDbScale
 70
     0
300
3/4" = 1'-0"
140
0.75
141
12.0
290
     0
  0
SCALE
  5
64
102
{ACAD_REACTORS
330
47
102
}
330
47
100
AcDbScale
 70
     0
300
1" = 1'-0"
140
1.0
141
12.0
290
     0
  0
SCALE
  5
65
102
{ACAD_REACTORS
330
47
102
}
330
47
100
AcDbScale
 70
     0
300
1-1/2" = 1'-0"
140
1.5
141
12.0
290
     0
  0
SCALE
  5
66
102
{ACAD_REACTORS
330
47
102
}
330
47
100
AcDbScale
 70
     0
300
3" = 1'-0"
140
3.0
141
12.0
290
     0
  0
SCALE
  5
67
102
{ACAD_REACTORS
330
47
102
}
330
47
100
AcDbScale
 70
     0
300
6" = 1'-0"
140
6.0
141
12.0
290
     0
  0
SCALE
  5
68
102
{ACAD_REACTORS
330
47
102
}
330
47
100
AcDbScale
 70
     0
300
1'-0" = 1'-0"
140
12.0
141
12.0
290
     0
  0
TABLESTYLE
  5
6A
102
{ACAD_REACTORS
330
69
102
}
330
69
100
AcDbTableStyle
  3
Standard
 70
     0
 71
     0
 40
1.5
 41
1.5
280
     0
281
     0
  7
Standard
140
4.5
170
     2
 62
     0
 63
   257
283
     0
274
    -2
284
     1
 64
     0
275
    -2
285
     1
 65
     0
276
    -2
286
     1
 66
     0
277
    -2
287
     1
 67
     0
278
    -2
288
     1
 68
     0
279
    -2
289
     1
 69
     0
  7
Standard
140
6.0
170
     5
 62
     0
 63
   257
283
     0
274
    -2
284
     1
 64
     0
275
    -2
285
     1
 65
     0
276
    -2
286
     1
 66
     0
277
    -2
287
     1
 67
     0
278
    -2
288
     1
 68
     0
279
    -2
289
     1
 69
     0
  7
Standard
140
4.5
170
     5
 62
     0
 63
   257
283
     0
274
    -2
284
     1
 64
     0
275
    -2
285
     1
 65
     0
276
    -2
286
     1
 66
     0
277
    -2
287
     1
 67
     0
278
    -2
288
     1
 68
     0
279
    -2
289
     1
 69
     0
  0
VISUALSTYLE
  5
2F
102
{ACAD_REACTORS
330
2A
102
}
102
{ACAD_XDICTIONARY
360
2DE
102
}
330
2A
100
AcDbVisualStyle
  2
2dWireframe
 70
     4
 71
     0
 72
     2
 73
     0
 90
        0
 40
0.6
 41
30.0
 62
     5
 63
     7
 74
     1
 91
        4
 64
     7
 65
   257
 75
     1
175
     1
 42
1.0
 92
        0
 66
   257
 43
1.0
 76
     1
 77
     6
 78
     2
 67
     7
 79
     5
170
     0
171
     0
290
     0
174
     0
 93
        1
 44
0.0
173
     0
291
     0
 45
0.0
1001
ACAD
1000
AcDbSavedByObjectVersion
1070
     0
  0
VISUALSTYLE
  5
32
102
{ACAD_REACTORS
330
2A
102
}
102
{ACAD_XDICTIONARY
360
2E4
102
}
330
2A
100
AcDbVisualStyle
  2
Basic
 70
     7
 71
     1
 72
     0
 73
     1
 90
        0
 40
0.6
 41
30.0
 62
     5
 63
     7
 74
     0
 91
        4
 64
     7
 65
   257
 75
     1
175
     1
 42
1.0
 92
        8
 66
     7
 43
1.0
 76
     1
 77
     6
 78
     2
 67
     7
 79
     5
170
     0
171
     0
290
     0
174
     0
 93
        1
 44
0.0
173
     0
291
     1
 45
0.0
1001
ACAD
1000
AcDbSavedByObjectVersion
1070
     0
  0
VISUALSTYLE
  5
36
102
{ACAD_REACTORS
330
2A
102
}
102
{ACAD_XDICTIONARY
360
2EC
102
}
330
2A
100
AcDbVisualStyle
  2
Brighten
 70
    12
 71
     2
 72
     2
 73
     0
 90
        0
 40
0.6
 41
30.0
 62
     5
 63
     7
 74
     1
 91
        4
 64
     7
 65
   257
 75
     1
175
     1
 42
1.0
 92
        8
 66
     7
 43
1.0
 76
     1
 77
     6
 78
     2
 67
     7
 79
     5
170
     0
171
     0
290
     0
174
     0
 93
        1
 44
50.0
173
     0
291
     1
 45
0.0
1001
ACAD
1000
AcDbSavedByObjectVersion
1070
     0
  0
VISUALSTYLE
  5
3A
102
{ACAD_REACTORS
330
2A
102
}
102
{ACAD_XDICTIONARY
360
2F4
102
}
330
2A
100
AcDbVisualStyle
  2
ColorChange
 70
    16
 71
     2
 72
     2
 73
     3
 90
        0
 40
0.6
 41
30.0
 62
     5
 63
     8
 74
     1
 91
        4
 64
     7
 65
   257
 75
     1
175
     1
 42
1.0
 92
        8
 66
     8
 43
1.0
 76
     1
 77
     6
 78
     2
 67
     7
 79
     5
170
     0
171
     0
290
     0
174
     0
 93
        1
 44
0.0
173
     0
291
     1
 45
0.0
1001
ACAD
1000
AcDbSavedByObjectVersion
1070
     0
  0
VISUALSTYLE
  5
34
102
{ACAD_REACTORS
330
2A
102
}
102
{ACAD_XDICTIONARY
360
2E8
102
}
330
2A
100
AcDbVisualStyle
  2
Conceptual
 70
     9
 71
     3
 72
     2
 73
     0
 90
        0
 40
0.6
 41
30.0
 62
     5
 63
     7
 74
     2
 91
        2
 64
     7
 65
   257
 75
     1
175
     1
 42
179.0
 92
        8
 66
     7
 43
1.0
 76
     1
 77
     6
 78
     2
 67
     7
 79
     3
170
     0
171
     0
290
     0
174
     0
 93
        1
 44
0.0
173
     0
291
     0
 45
0.0
1001
ACAD
1000
AcDbSavedByObjectVersion
1070
     0
  0
VISUALSTYLE
  5
35
102
{ACAD_REACTORS
330
2A
102
}
102
{ACAD_XDICTIONARY
360
2EA
102
}
330
2A
100
AcDbVisualStyle
  2
Dim
 70
    11
 71
     2
 72
     2
 73
     0
 90
        0
 40
0.6
 41
30.0
 62
     5
 63
     7
 74
     1
 91
        4
 64
     7
 65
   257
 75
     1
175
     1
 42
1.0
 92
        8
 66
     7
 43
1.0
 76
     1
 77
     6
 78
     2
 67
     7
 79
     5
170
     0
171
     0
290
     0
174
     0
 93
        1
 44
-50.0
173
     0
291
     1
 45
0.0
1001
ACAD
1000
AcDbSavedByObjectVersion
1070
     0
  0
VISUALSTYLE
  5
3D
102
{ACAD_REACTORS
330
2A
102
}
102
{ACAD_XDICTIONARY
360
2FA
102
}
330
2A
100
AcDbVisualStyle
  2
EdgeColorOff
 70
    22
 71
     2
 72
     2
 73
     0
 90
        0
 40
0.6
 41
30.0
 62
     5
 63
     7
 74
     1
 91
        4
 64
     7
 65
   257
 75
     1
175
     1
 42
1.0
 92
        8
 66
     7
 43
1.0
 76
     1
 77
     6
 78
     2
 67
     7
 79
     5
170
     0
171
     0
290
     0
174
     0
 93
        1
 44
0.0
173
     0
291
     1
 45
0.0
1001
ACAD
1000
AcDbSavedByObjectVersion
1070
     0
  0
VISUALSTYLE
  5
39
102
{ACAD_REACTORS
330
2A
102
}
102
{ACAD_XDICTIONARY
360
2F2
102
}
330
2A
100
AcDbVisualStyle
  2
Facepattern
 70
    15
 71
     2
 72
     2
 73
     0
 90
        0
 40
0.6
 41
30.0
 62
     5
 63
     7
 74
     1
 91
        4
 64
     7
 65
   257
 75
     1
175
     1
 42
1.0
 92
        8
 66
     7
 43
1.0
 76
     1
 77
     6
 78
     2
 67
     7
 79
     5
170
     0
171
     0
290
     0
174
     0
 93
        1
 44
0.0
173
     0
291
     1
 45
0.0
1001
ACAD
1000
AcDbSavedByObjectVersion
1070
     0
  0
VISUALSTYLE
  5
2B
102
{ACAD_REACTORS
330
2A
102
}
102
{ACAD_XDICTIONARY
360
2D6
102
}
330
2A
100
AcDbVisualStyle
  2
Flat
 70
     0
 71
     2
 72
     1
 73
     1
 90
        2
 40
0.6
 41
30.0
 62
     5
 63
     7
 74
     0
 91
        0
 64
     7
 65
   257
 75
     1
175
     1
 42
1.0
 92
        8
 66
     7
 43
1.0
 76
     1
 77
     6
 78
     2
 67
     7
 79
     5
170
     0
171
     0
290
     0
174
     0
 93
       13
 44
0.0
173
     0
291
     1
 45
0.0
1001
ACAD
1000
AcDbSavedByObjectVersion
1070
     0
  0
VISUALSTYLE
  5
2C
102
{ACAD_REACTORS
330
2A
102
}
102
{ACAD_XDICTIONARY
360
2D8
102
}
330
2A
100
AcDbVisualStyle
  2
FlatWithEdges
 70
     1
 71
     2
 72
     1
 73
     1
 90
        2
 40
0.6
 41
30.0
 62
     5
 63
     7
 74
     1
 91
        0
 64
     7
 65
   257
 75
     1
175
     1
 42
1.0
 92
        0
 66
   257
 43
1.0
 76
     1
 77
     6
 78
     2
 67
     7
 79
     5
170
     0
171
     0
290
     0
174
     0
 93
       13
 44
0.0
173
     0
291
     1
 45
0.0
1001
ACAD
1000
AcDbSavedByObjectVersion
1070
     0
  0
VISUALSTYLE
  5
2D
102
{ACAD_REACTORS
330
2A
102
}
102
{ACAD_XDICTIONARY
360
2DA
102
}
330
2A
100
AcDbVisualStyle
  2
Gouraud
 70
     2
 71
     2
 72
     2
 73
     1
 90
        2
 40
0.6
 41
30.0
 62
     5
 63
     7
 74
     0
 91
        0
 64
     7
 65
   257
 75
     1
175
     1
 42
1.0
 92
        0
 66
     7
 43
1.0
 76
     1
 77
     6
 78
     2
 67
     7
 79
     5
170
     0
171
     0
290
     0
174
     0
 93
       13
 44
0.0
173
     0
291
     1
 45
0.0
1001
ACAD
1000
AcDbSavedByObjectVersion
1070
     0
  0
VISUALSTYLE
  5
2E
102
{ACAD_REACTORS
330
2A
102
}
102
{ACAD_XDICTIONARY
360
2DC
102
}
330
2A
100
AcDbVisualStyle
  2
GouraudWithEdges
 70
     3
 71
     2
 72
     2
 73
     1
 90
        2
 40
0.6
 41
30.0
 62
     5
 63
     7
 74
     1
 91
        0
 64
     7
 65
   257
 75
     1
175
     1
 42
1.0
 92
        0
 66
   257
 43
1.0
 76
     1
 77
     6
 78
     2
 67
     7
 79
     5
170
     0
171
     0
290
     0
174
     0
 93
       13
 44
0.0
173
     0
291
     1
 45
0.0
1001
ACAD
1000
AcDbSavedByObjectVersion
1070
     0
  0
VISUALSTYLE
  5
31
102
{ACAD_REACTORS
330
2A
102
}
102
{ACAD_XDICTIONARY
360
2E2
102
}
330
2A
100
AcDbVisualStyle
  2
Hidden
 70
     6
 71
     1
 72
     2
 73
     2
 90
        0
 40
0.6
 41
30.0
 62
     5
 63
     7
 74
     2
 91
        2
 64
     7
 65
   257
 75
     2
175
     1
 42
40.0
 92
        0
 66
   257
 43
1.0
 76
     1
 77
     6
 78
     2
 67
     7
 79
     3
170
     0
171
     0
290
     0
174
     0
 93
        1
 44
0.0
173
     0
291
     0
 45
0.0
1001
ACAD
1000
AcDbSavedByObjectVersion
1070
     0
  0
VISUALSTYLE
  5
3B
102
{ACAD_REACTORS
330
2A
102
}
102
{ACAD_XDICTIONARY
360
2F6
102
}
330
2A
100
AcDbVisualStyle
  2
JitterOff
 70
    20
 71
     2
 72
     2
 73
     0
 90
        0
 40
0.6
 41
30.0
 62
     5
 63
     7
 74
     1
 91
        4
 64
     7
 65
   257
 75
     1
175
     1
 42
1.0
 92
       10
 66
     7
 43
1.0
 76
     1
 77
     6
 78
     2
 67
     7
 79
     5
170
     0
171
     0
290
     0
174
     0
 93
        1
 44
0.0
173
     0
291
     1
 45
0.0
1001
ACAD
1000
AcDbSavedByObjectVersion
1070
     0
  0
VISUALSTYLE
  5
38
102
{ACAD_REACTORS
330
2A
102
}
102
{ACAD_XDICTIONARY
360
2F0
102
}
330
2A
100
AcDbVisualStyle
  2
Linepattern
 70
    14
 71
     2
 72
     2
 73
     0
 90
        0
 40
0.6
 41
30.0
 62
     5
 63
     7
 74
     1
 91
        4
 64
     7
 65
   257
 75
     7
175
     7
 42
1.0
 92
        8
 66
     7
 43
1.0
 76
     1
 77
     6
 78
     2
 67
     7
 79
     5
170
     0
171
     0
290
     0
174
     0
 93
        1
 44
0.0
173
     0
291
     1
 45
0.0
1001
ACAD
1000
AcDbSavedByObjectVersion
1070
     0
  0
VISUALSTYLE
  5
3C
102
{ACAD_REACTORS
330
2A
102
}
102
{ACAD_XDICTIONARY
360
2F8
102
}
330
2A
100
AcDbVisualStyle
  2
OverhangOff
 70
    21
 71
     2
 72
     2
 73
     0
 90
        0
 40
0.6
 41
30.0
 62
     5
 63
     7
 74
     1
 91
        4
 64
     7
 65
   257
 75
     1
175
     1
 42
1.0
 92
        9
 66
     7
 43
1.0
 76
     1
 77
     6
 78
     2
 67
     7
 79
     5
170
     0
171
     0
290
     0
174
     0
 93
        1
 44
0.0
173
     0
291
     1
 45
0.0
1001
ACAD
1000
AcDbSavedByObjectVersion
1070
     0
  0
VISUALSTYLE
  5
33
102
{ACAD_REACTORS
330
2A
102
}
102
{ACAD_XDICTIONARY
360
2E6
102
}
330
2A
100
AcDbVisualStyle
  2
Realistic
 70
     8
 71
     2
 72
     3
 73
     0
 90
        2
 40
0.6
 41
30.0
 62
     5
 63
     7
 74
     0
 91
        0
 64
     7
 65
   257
 75
     1
175
     1
 42
1.0
 92
        8
 66
   257
 43
1.0
 76
     1
 77
     6
 78
     2
 67
     7
 79
     3
170
     0
171
     0
290
     0
174
     0
 93
       13
 44
0.0
173
     0
291
     0
 45
0.0
1001
ACAD
1000
AcDbSavedByObjectVersion
1070
     0
  0
VISUALSTYLE
  5
42
102
{ACAD_REACTORS
330
2A
102
}
102
{ACAD_XDICTIONARY
360
304
102
}
330
2A
100
AcDbVisualStyle
  2
Shaded
 70
    27
 71
     2
 72
     2
 73
     1
 90
        2
 40
0.6
 41
30.0
 62
     5
 63
     7
 74
     0
 91
        4
 64
     7
 65
   257
 75
     1
175
     1
 42
1.0
 92
        8
 66
   257
 43
1.0
 76
     1
 77
     6
 78
     2
 67
     8
 79
     3
170
     0
171
     0
290
     0
174
     0
 93
        5
 44
0.0
173
     0
291
     0
 45
0.0
1001
ACAD
1000
AcDbSavedByObjectVersion
1070
     0
  0
VISUALSTYLE
  5
41
102
{ACAD_REACTORS
330
2A
102
}
102
{ACAD_XDICTIONARY
360
302
102
}
330
2A
100
AcDbVisualStyle
  2
Shaded with edges
 70
    26
 71
     2
 72
     2
 73
     1
 90
        2
 40
0.6
 41
30.0
 62
     5
 63
     7
 74
     1
 91
       10
 64
     7
 65
   257
 75
     2
175
     1
 42
1.0
 92
        8
 66
   257
 43
1.0
 76
     1
 77
     6
 78
     2
 67
     7
 79
     3
170
     0
171
     0
290
     0
174
     0
 93
        5
 44
0.0
173
     0
291
     0
 45
0.0
1001
ACAD
1000
AcDbSavedByObjectVersion
1070
     0
  0
VISUALSTYLE
  5
3E
102
{ACAD_REACTORS
330
2A
102
}
102
{ACAD_XDICTIONARY
360
2FC
102
}
330
2A
100
AcDbVisualStyle
  2
Shades of Gray
 70
    23
 71
     2
 72
     2
 73
     3
 90
        0
 40
0.6
 41
30.0
 62
     5
 63
     7
 74
     2
 91
        2
 64
     7
 65
     7
 75
     1
175
     1
 42
40.0
 92
        8
 66
     7
 43
1.0
 76
     1
 77
     6
 78
     2
 67
     7
 79
     3
170
     0
171
     0
290
     0
174
     0
 93
        1
 44
0.0
173
     0
291
     0
 45
0.0
1001
ACAD
1000
AcDbSavedByObjectVersion
1070
     0
  0
VISUALSTYLE
  5
3F
102
{ACAD_REACTORS
330
2A
102
}
102
{ACAD_XDICTIONARY
360
2FE
102
}
330
2A
100
AcDbVisualStyle
  2
Sketchy
 70
    24
 71
     1
 72
     2
 73
     2
 90
        0
 40
0.6
 41
30.0
 62
     5
 63
     7
 74
     2
 91
        2
 64
     7
 65
     7
 75
     1
175
     1
 42
40.0
 92
       11
 66
     7
 43
1.0
 76
     1
 77
     6
 78
     2
 67
     7
 79
     6
170
     0
171
     0
290
     0
174
     0
 93
        1
 44
0.0
173
     0
291
     0
 45
0.0
1001
ACAD
1000
AcDbSavedByObjectVersion
1070
     0
  0
VISUALSTYLE
  5
37
102
{ACAD_REACTORS
330
2A
102
}
102
{ACAD_XDICTIONARY
360
2EE
102
}
330
2A
100
AcDbVisualStyle
  2
Thicken
 70
    13
 71
     2
 72
     2
 73
     0
 90
        0
 40
0.6
 41
30.0
 62
     5
 63
     7
 74
     1
 91
        4
 64
     7
 65
   257
 75
     1
175
     1
 42
1.0
 92
       12
 66
     7
 43
1.0
 76
     1
 77
     6
 78
     2
 67
     7
 79
     5
170
     0
171
     0
290
     0
174
     0
 93
        1
 44
0.0
173
     0
291
     1
 45
0.0
1001
ACAD
1000
AcDbSavedByObjectVersion
1070
     0
  0
VISUALSTYLE
  5
30
102
{ACAD_REACTORS
330
2A
102
}
102
{ACAD_XDICTIONARY
360
2E0
102
}
330
2A
100
AcDbVisualStyle
  2
Wireframe
 70
     5
 71
     0
 72
     2
 73
     0
 90
        0
 40
0.6
 41
30.0
 62
     5
 63
     7
 74
     1
 91
        4
 64
     7
 65
   257
 75
     1
175
     1
 42
1.0
 92
        0
 66
   257
 43
1.0
 76
     1
 77
     6
 78
     2
 67
     7
 79
     3
170
     0
171
     0
290
     0
174
     0
 93
        1
 44
0.0
173
     0
291
     0
 45
0.0
1001
ACAD
1000
AcDbSavedByObjectVersion
1070
     0
  0
VISUALSTYLE
  5
40
102
{ACAD_REACTORS
330
2A
102
}
102
{ACAD_XDICTIONARY
360
300
102
}
330
2A
100
AcDbVisualStyle
  2
X-Ray
 70
    25
 71
     2
 72
     2
 73
     1
 90
        1
 40
0.5
 41
30.0
 62
     5
 63
     7
 74
     1
 91
        0
 64
     7
 65
   257
 75
     1
175
     1
 42
1.0
 92
        8
 66
     7
 43
1.0
 76
     1
 77
     6
 78
     2
 67
     7
 79
     3
170
     0
171
     0
290
     0
174
     0
 93
       13
 44
0.0
173
     0
291
     0
 45
0.0
1001
ACAD
1000
AcDbSavedByObjectVersion
1070
     0
  0
DICTIONARYVAR
  5
2D4
102
{ACAD_REACTORS
330
2C7
102
}
330
2C7
100
DictionaryVariables
280
     0
  1
1:1
  0
DICTIONARYVAR
  5
2CE
102
{ACAD_REACTORS
330
2C7
102
}
330
2C7
100
DictionaryVariables
280
     0
  1
3.500000
  0
DICTIONARYVAR
  5
2CF
102
{ACAD_REACTORS
330
2C7
102
}
330
2C7
100
DictionaryVariables
280
     0
  1
acadiso.lin
  0
DICTIONARYVAR
  5
2C9
102
{ACAD_REACTORS
330
2C7
102
}
330
2C7
100
DictionaryVariables
280
     0
  1
Standard
  0
DICTIONARYVAR
  5
2C8
102
{ACAD_REACTORS
330
2C7
102
}
330
2C7
100
DictionaryVariables
280
     0
  1
Standard
  0
DICTIONARYVAR
  5
2D0
102
{ACAD_REACTORS
330
2C7
102
}
330
2C7
100
DictionaryVariables
280
     0
  1
2
  0
DICTIONARYVAR
  5
2D1
102
{ACAD_REACTORS
330
2C7
102
}
330
2C7
100
DictionaryVariables
280
     0
  1
1
  0
DICTIONARYVAR
  5
2D5
102
{ACAD_REACTORS
330
2C7
102
}
330
2C7
100
DictionaryVariables
280
     0
  1
1
  0
DICTIONARYVAR
  5
2CB
102
{ACAD_REACTORS
330
2C7
102
}
330
2C7
100
DictionaryVariables
280
     0
  1
80.000000
  0
DICTIONARYVAR
  5
2CA
102
{ACAD_REACTORS
330
2C7
102
}
330
2C7
100
DictionaryVariables
280
     0
  1
5.000000
  0
DICTIONARY
  5
308
330
45
100
AcDbDictionary
280
     1
281
     1
  3
ACAD_XREC_ROUNDTRIP
360
309
  0
DICTIONARY
  5
306
330
44
100
AcDbDictionary
280
     1
281
     1
  3
ACAD_XREC_ROUNDTRIP
360
307
  0
DICTIONARY
  5
30A
330
46
100
AcDbDictionary
280
     1
281
     1
  3
ACAD_XREC_ROUNDTRIP
360
30B
  0
DICTIONARY
  5
30D
330
6C
100
AcDbDictionary
280
     1
281
     1
  3
ACAD_XREC_ROUNDTRIP
360
30E
  0
DICTIONARY
  5
2DE
330
2F
100
AcDbDictionary
280
     1
281
     1
  3
ACAD_XREC_ROUNDTRIP
360
2DF
  0
DICTIONARY
  5
2E4
330
32
100
AcDbDictionary
280
     1
281
     1
  3
ACAD_XREC_ROUNDTRIP
360
2E5
  0
DICTIONARY
  5
2EC
330
36
100
AcDbDictionary
280
     1
281
     1
  3
ACAD_XREC_ROUNDTRIP
360
2ED
  0
DICTIONARY
  5
2F4
330
3A
100
AcDbDictionary
280
     1
281
     1
  3
ACAD_XREC_ROUNDTRIP
360
2F5
  0
DICTIONARY
  5
2E8
330
34
100
AcDbDictionary
280
     1
281
     1
  3
ACAD_XREC_ROUNDTRIP
360
2E9
  0
DICTIONARY
  5
2EA
330
35
100
AcDbDictionary
280
     1
281
     1
  3
ACAD_XREC_ROUNDTRIP
360
2EB
  0
DICTIONARY
  5
2FA
330
3D
100
AcDbDictionary
280
     1
281
     1
  3
ACAD_XREC_ROUNDTRIP
360
2FB
  0
DICTIONARY
  5
2F2
330
39
100
AcDbDictionary
280
     1
281
     1
  3
ACAD_XREC_ROUNDTRIP
360
2F3
  0
DICTIONARY
  5
2D6
330
2B
100
AcDbDictionary
280
     1
281
     1
  3
ACAD_XREC_ROUNDTRIP
360
2D7
  0
DICTIONARY
  5
2D8
330
2C
100
AcDbDictionary
280
     1
281
     1
  3
ACAD_XREC_ROUNDTRIP
360
2D9
  0
DICTIONARY
  5
2DA
330
2D
100
AcDbDictionary
280
     1
281
     1
  3
ACAD_XREC_ROUNDTRIP
360
2DB
  0
DICTIONARY
  5
2DC
330
2E
100
AcDbDictionary
280
     1
281
     1
  3
ACAD_XREC_ROUNDTRIP
360
2DD
  0
DICTIONARY
  5
2E2
330
31
100
AcDbDictionary
280
     1
281
     1
  3
ACAD_XREC_ROUNDTRIP
360
2E3
  0
DICTIONARY
  5
2F6
330
3B
100
AcDbDictionary
280
     1
281
     1
  3
ACAD_XREC_ROUNDTRIP
360
2F7
  0
DICTIONARY
  5
2F0
330
38
100
AcDbDictionary
280
     1
281
     1
  3
ACAD_XREC_ROUNDTRIP
360
2F1
  0
DICTIONARY
  5
2F8
330
3C
100
AcDbDictionary
280
     1
281
     1
  3
ACAD_XREC_ROUNDTRIP
360
2F9
  0
DICTIONARY
  5
2E6
330
33
100
AcDbDictionary
280
     1
281
     1
  3
ACAD_XREC_ROUNDTRIP
360
2E7
  0
DICTIONARY
  5
304
330
42
100
AcDbDictionary
280
     1
281
     1
  3
ACAD_XREC_ROUNDTRIP
360
305
  0
DICTIONARY
  5
302
330
41
100
AcDbDictionary
280
     1
281
     1
  3
ACAD_XREC_ROUNDTRIP
360
303
  0
DICTIONARY
  5
2FC
330
3E
100
AcDbDictionary
280
     1
281
     1
  3
ACAD_XREC_ROUNDTRIP
360
2FD
  0
DICTIONARY
  5
2FE
330
3F
100
AcDbDictionary
280
     1
281
     1
  3
ACAD_XREC_ROUNDTRIP
360
2FF
  0
DICTIONARY
  5
2EE
330
37
100
AcDbDictionary
280
     1
281
     1
  3
ACAD_XREC_ROUNDTRIP
360
2EF
  0
DICTIONARY
  5
2E0
330
30
100
AcDbDictionary
280
     1
281
     1
  3
ACAD_XREC_ROUNDTRIP
360
2E1
  0
DICTIONARY
  5
300
330
40
100
AcDbDictionary
280
     1
281
     1
  3
ACAD_XREC_ROUNDTRIP
360
301
  0
XRECORD
  5
309
102
{ACAD_REACTORS
330
308
102
}
330
308
100
AcDbXrecord
280
     1
102
MATERIAL
148
0.0
149
0.0
149
0.0
 93
        0
 94
      127
282
     0
 72
     1
 77
     1
171
     1
175
     1
179
     1
273
     0
  0
XRECORD
  5
307
102
{ACAD_REACTORS
330
306
102
}
330
306
100
AcDbXrecord
280
     1
102
MATERIAL
148
0.0
149
0.0
149
0.0
 93
        0
 94
      127
282
     0
 72
     1
 77
     1
171
     1
175
     1
179
     1
273
     0
  0
XRECORD
  5
30B
102
{ACAD_REACTORS
330
30A
102
}
330
30A
100
AcDbXrecord
280
     1
102
MATERIAL
148
0.0
149
0.0
149
0.0
 93
        0
 94
      127
282
     0
 72
     1
 77
     1
171
     1
175
     1
179
     1
273
     0
  0
XRECORD
  5
30E
102
{ACAD_REACTORS
330
30D
102
}
330
30D
100
AcDbXrecord
280
     1
102
ACAD_ROUNDTRIP_2010_MLEADER_STYLE
  0
XRECORD
  5
2DF
102
{ACAD_REACTORS
330
2DE
102
}
330
2DE
100
AcDbXrecord
280
     1
102
RTVSPropertyOp0
 70
     1
102
RTVSPropertyOp1
 70
     1
102
RTVSPropertyOp2
 70
     1
102
RTVSPropertyOp3
 70
     1
102
RTVSPropertyOp4
 70
     1
102
RTVSPropertyOp5
 70
     1
102
RTVSPropertyOp6
 70
     1
102
RTVSPropertyOp7
 70
     1
102
RTVSPropertyOp8
 70
     1
102
RTVSPropertyOp9
 70
     1
102
RTVSPropertyOp10
 70
     1
102
RTVSPropertyOp11
 70
     1
102
RTVSPropertyOp12
 70
     1
102
RTVSPropertyOp13
 70
     1
102
RTVSPropertyOp14
 70
     1
102
RTVSPropertyOp15
 70
     1
102
RTVSPropertyOp16
 70
     1
102
RTVSPropertyOp17
 70
     1
102
RTVSPropertyOp18
 70
     1
102
RTVSPropertyOp19
 70
     1
102
RTVSPropertyOp20
 70
     1
102
RTVSPropertyOp21
 70
     1
102
RTVSPropertyOp22
 70
     1
102
RTVSPropertyOp23
 70
     1
102
RTVSPropertyOp24
 70
     1
102
RTVSPropertyOp25
 70
     1
102
RTVSPropertyOp26
 70
     1
102
RTVSPropertyOp27
 70
     1
102
RTVSPropertyOp28
 70
     1
102
RTVSPropertyOp29
 70
     1
102
RTVSPropertyOp30
 70
     1
102
RTVSPropertyOp31
 70
     1
102
RTVSPropertyOp32
 70
     1
102
RTVSPropertyOp33
 70
     1
102
RTVSPropertyOp34
 70
     1
102
RTVSPropertyOp35
 70
     1
102
RTVSPropertyOp36
 70
     1
102
RTVSPropertyOp37
 70
     1
102
RTVSPropertyOp38
 70
     1
102
RTVSPropertyOp39
 70
     1
102
RTVSPropertyOp40
 70
     1
102
RTVSPropertyOp41
 70
     1
102
RTVSPropertyOp42
 70
     1
102
RTVSPropertyOp43
 70
     1
102
RTVSPropertyOp44
 70
     1
102
RTVSPropertyOp45
 70
     1
102
RTVSPropertyOp46
 70
     1
102
RTVSPropertyOp47
 70
     1
102
RTVSPropertyOp48
 70
     1
102
RTVSPropertyOp49
 70
     1
102
RTVSPropertyOp50
 70
     1
102
RTVSPropertyOp51
 70
     0
102
RTVSPropertyOp52
 70
     0
102
RTVSPropertyOp53
 70
     1
102
RTVSPropertyOp54
 70
     1
102
RTVSPropertyOp55
 70
     1
102
RTVSPropertyOp56
 70
     1
102
RTVSPropertyOp57
 70
     1
102
RTVSPost2010Prop28
280
     1
102
RTVSPost2010PropOp28
 70
     1
102
RTVSPost2010Prop29
280
     1
102
RTVSPost2010PropOp29
 70
     1
102
RTVSPost2010Prop30
280
     0
102
RTVSPost2010PropOp30
 70
     1
102
RTVSPost2010Prop31
280
     0
102
RTVSPost2010PropOp31
 70
     1
102
RTVSPost2010Prop32
280
     0
102
RTVSPost2010PropOp32
 70
     1
102
RTVSPost2010Prop33
280
     0
102
RTVSPost2010PropOp33
 70
     1
102
RTVSPost2010Prop34
280
     0
102
RTVSPost2010PropOp34
 70
     1
102
RTVSPost2010Prop35
280
     0
102
RTVSPost2010PropOp35
 70
     1
102
RTVSPost2010Prop36
280
     0
102
RTVSPost2010PropOp36
 70
     1
102
RTVSPost2010Prop37
 90
       50
102
RTVSPost2010PropOp37
 70
     1
102
RTVSPost2010Prop38
140
0.0
102
RTVSPost2010PropOp38
 70
     1
102
RTVSPost2010Prop39
140
1.0
102
RTVSPost2010PropOp39
 70
     1
102
RTVSPost2010Prop40
 90
        0
102
RTVSPost2010PropOp40
 70
     1
102
RTVSPost2010Prop41ColorIndex
 90
       18
102
RTVSPost2010Prop41ColorRGB
 90
        0
102
RTVSPost2010PropOp41
 70
     1
102
RTVSPost2010Prop42
 90
       50
102
RTVSPost2010PropOp42
 70
     1
102
RTVSPost2010Prop43
 90
        3
102
RTVSPost2010PropOp43
 70
     1
102
RTVSPost2010Prop44ColorIndex
 90
        5
102
RTVSPost2010Prop44ColorRGB
 90
      255
102
RTVSPost2010PropOp44
 70
     1
102
RTVSPost2010Prop45
280
     0
102
RTVSPost2010PropOp45
 70
     1
102
RTVSPost2010Prop46
 90
       50
102
RTVSPost2010PropOp46
 70
     1
102
RTVSPost2010Prop47
 90
       50
102
RTVSPost2010PropOp47
 70
     1
102
RTVSPost2010Prop48
 90
       50
102
RTVSPost2010PropOp48
 70
     1
102
RTVSPost2010Prop49
280
     0
102
RTVSPost2010PropOp49
 70
     1
102
RTVSPost2010Prop50
 90
       50
102
RTVSPost2010PropOp50
 70
     1
102
RTVSPost2010Prop51ColorIndex
 90
      256
102
RTVSPost2010Prop51ColorRGB
 90
-16777216
102
RTVSPost2010PropOp51
 70
     0
102
RTVSPost2010Prop52
140
1.0
102
RTVSPost2010PropOp52
 70
     0
102
RTVSPost2010Prop53
 90
        2
102
RTVSPost2010PropOp53
 70
     1
102
RTVSPost2010Prop54
  1
strokes_ogs.tif
102
RTVSPost2010PropOp54
 70
     1
102
RTVSPost2010Prop55
280
     0
102
RTVSPost2010PropOp55
 70
     1
102
RTVSPost2010Prop56
140
1.0
102
RTVSPost2010PropOp56
 70
     1
102
RTVSPost2010Prop57
140
1.0
102
RTVSPost2010PropOp57
 70
     1
  0
XRECORD
  5
2E5
102
{ACAD_REACTORS
330
2E4
102
}
330
2E4
100
AcDbXrecord
280
     1
102
RTVSPropertyOp0
 70
     1
102
RTVSPropertyOp1
 70
     1
102
RTVSPropertyOp2
 70
     1
102
RTVSPropertyOp3
 70
     1
102
RTVSPropertyOp4
 70
     1
102
RTVSPropertyOp5
 70
     1
102
RTVSPropertyOp6
 70
     1
102
RTVSPropertyOp7
 70
     1
102
RTVSPropertyOp8
 70
     1
102
RTVSPropertyOp9
 70
     1
102
RTVSPropertyOp10
 70
     1
102
RTVSPropertyOp11
 70
     1
102
RTVSPropertyOp12
 70
     1
102
RTVSPropertyOp13
 70
     1
102
RTVSPropertyOp14
 70
     1
102
RTVSPropertyOp15
 70
     1
102
RTVSPropertyOp16
 70
     1
102
RTVSPropertyOp17
 70
     1
102
RTVSPropertyOp18
 70
     1
102
RTVSPropertyOp19
 70
     1
102
RTVSPropertyOp20
 70
     1
102
RTVSPropertyOp21
 70
     1
102
RTVSPropertyOp22
 70
     1
102
RTVSPropertyOp23
 70
     1
102
RTVSPropertyOp24
 70
     1
102
RTVSPropertyOp25
 70
     1
102
RTVSPropertyOp26
 70
     1
102
RTVSPropertyOp27
 70
     1
102
RTVSPropertyOp28
 70
     1
102
RTVSPropertyOp29
 70
     1
102
RTVSPropertyOp30
 70
     1
102
RTVSPropertyOp31
 70
     1
102
RTVSPropertyOp32
 70
     1
102
RTVSPropertyOp33
 70
     1
102
RTVSPropertyOp34
 70
     1
102
RTVSPropertyOp35
 70
     1
102
RTVSPropertyOp36
 70
     1
102
RTVSPropertyOp37
 70
     1
102
RTVSPropertyOp38
 70
     1
102
RTVSPropertyOp39
 70
     1
102
RTVSPropertyOp40
 70
     1
102
RTVSPropertyOp41
 70
     1
102
RTVSPropertyOp42
 70
     1
102
RTVSPropertyOp43
 70
     1
102
RTVSPropertyOp44
 70
     1
102
RTVSPropertyOp45
 70
     1
102
RTVSPropertyOp46
 70
     1
102
RTVSPropertyOp47
 70
     1
102
RTVSPropertyOp48
 70
     1
102
RTVSPropertyOp49
 70
     1
102
RTVSPropertyOp50
 70
     1
102
RTVSPropertyOp51
 70
     0
102
RTVSPropertyOp52
 70
     0
102
RTVSPropertyOp53
 70
     1
102
RTVSPropertyOp54
 70
     1
102
RTVSPropertyOp55
 70
     1
102
RTVSPropertyOp56
 70
     1
102
RTVSPropertyOp57
 70
     1
102
RTVSPost2010Prop28
280
     0
102
RTVSPost2010PropOp28
 70
     1
102
RTVSPost2010Prop29
280
     1
102
RTVSPost2010PropOp29
 70
     1
102
RTVSPost2010Prop30
280
     1
102
RTVSPost2010PropOp30
 70
     1
102
RTVSPost2010Prop31
280
     0
102
RTVSPost2010PropOp31
 70
     1
102
RTVSPost2010Prop32
280
     0
102
RTVSPost2010PropOp32
 70
     1
102
RTVSPost2010Prop33
280
     0
102
RTVSPost2010PropOp33
 70
     1
102
RTVSPost2010Prop34
280
     0
102
RTVSPost2010PropOp34
 70
     1
102
RTVSPost2010Prop35
280
     0
102
RTVSPost2010PropOp35
 70
     1
102
RTVSPost2010Prop36
280
     0
102
RTVSPost2010PropOp36
 70
     1
102
RTVSPost2010Prop37
 90
       50
102
RTVSPost2010PropOp37
 70
     1
102
RTVSPost2010Prop38
140
0.0
102
RTVSPost2010PropOp38
 70
     1
102
RTVSPost2010Prop39
140
1.0
102
RTVSPost2010PropOp39
 70
     1
102
RTVSPost2010Prop40
 90
        0
102
RTVSPost2010PropOp40
 70
     1
102
RTVSPost2010Prop41ColorIndex
 90
       18
102
RTVSPost2010Prop41ColorRGB
 90
        0
102
RTVSPost2010PropOp41
 70
     1
102
RTVSPost2010Prop42
 90
       50
102
RTVSPost2010PropOp42
 70
     1
102
RTVSPost2010Prop43
 90
        3
102
RTVSPost2010PropOp43
 70
     1
102
RTVSPost2010Prop44ColorIndex
 90
        5
102
RTVSPost2010Prop44ColorRGB
 90
      255
102
RTVSPost2010PropOp44
 70
     1
102
RTVSPost2010Prop45
280
     0
102
RTVSPost2010PropOp45
 70
     1
102
RTVSPost2010Prop46
 90
       50
102
RTVSPost2010PropOp46
 70
     1
102
RTVSPost2010Prop47
 90
       50
102
RTVSPost2010PropOp47
 70
     1
102
RTVSPost2010Prop48
 90
       50
102
RTVSPost2010PropOp48
 70
     1
102
RTVSPost2010Prop49
280
     0
102
RTVSPost2010PropOp49
 70
     1
102
RTVSPost2010Prop50
 90
       50
102
RTVSPost2010PropOp50
 70
     1
102
RTVSPost2010Prop51ColorIndex
 90
      256
102
RTVSPost2010Prop51ColorRGB
 90
-16777216
102
RTVSPost2010PropOp51
 70
     0
102
RTVSPost2010Prop52
140
1.0
102
RTVSPost2010PropOp52
 70
     0
102
RTVSPost2010Prop53
 90
        2
102
RTVSPost2010PropOp53
 70
     1
102
RTVSPost2010Prop54
  1
strokes_ogs.tif
102
RTVSPost2010PropOp54
 70
     1
102
RTVSPost2010Prop55
280
     0
102
RTVSPost2010PropOp55
 70
     1
102
RTVSPost2010Prop56
140
1.0
102
RTVSPost2010PropOp56
 70
     1
102
RTVSPost2010Prop57
140
1.0
102
RTVSPost2010PropOp57
 70
     1
  0
XRECORD
  5
2ED
102
{ACAD_REACTORS
330
2EC
102
}
330
2EC
100
AcDbXrecord
280
     1
102
RTVSPropertyOp0
 70
     1
102
RTVSPropertyOp1
 70
     1
102
RTVSPropertyOp2
 70
     1
102
RTVSPropertyOp3
 70
     1
102
RTVSPropertyOp4
 70
     1
102
RTVSPropertyOp5
 70
     1
102
RTVSPropertyOp6
 70
     1
102
RTVSPropertyOp7
 70
     1
102
RTVSPropertyOp8
 70
     1
102
RTVSPropertyOp9
 70
     1
102
RTVSPropertyOp10
 70
     1
102
RTVSPropertyOp11
 70
     1
102
RTVSPropertyOp12
 70
     1
102
RTVSPropertyOp13
 70
     1
102
RTVSPropertyOp14
 70
     1
102
RTVSPropertyOp15
 70
     1
102
RTVSPropertyOp16
 70
     1
102
RTVSPropertyOp17
 70
     1
102
RTVSPropertyOp18
 70
     1
102
RTVSPropertyOp19
 70
     1
102
RTVSPropertyOp20
 70
     1
102
RTVSPropertyOp21
 70
     1
102
RTVSPropertyOp22
 70
     1
102
RTVSPropertyOp23
 70
     1
102
RTVSPropertyOp24
 70
     1
102
RTVSPropertyOp25
 70
     1
102
RTVSPropertyOp26
 70
     1
102
RTVSPropertyOp27
 70
     1
102
RTVSPropertyOp28
 70
     1
102
RTVSPropertyOp29
 70
     1
102
RTVSPropertyOp30
 70
     1
102
RTVSPropertyOp31
 70
     1
102
RTVSPropertyOp32
 70
     1
102
RTVSPropertyOp33
 70
     1
102
RTVSPropertyOp34
 70
     1
102
RTVSPropertyOp35
 70
     1
102
RTVSPropertyOp36
 70
     1
102
RTVSPropertyOp37
 70
     1
102
RTVSPropertyOp38
 70
     1
102
RTVSPropertyOp39
 70
     1
102
RTVSPropertyOp40
 70
     1
102
RTVSPropertyOp41
 70
     1
102
RTVSPropertyOp42
 70
     1
102
RTVSPropertyOp43
 70
     1
102
RTVSPropertyOp44
 70
     1
102
RTVSPropertyOp45
 70
     1
102
RTVSPropertyOp46
 70
     1
102
RTVSPropertyOp47
 70
     1
102
RTVSPropertyOp48
 70
     1
102
RTVSPropertyOp49
 70
     1
102
RTVSPropertyOp50
 70
     1
102
RTVSPropertyOp51
 70
     0
102
RTVSPropertyOp52
 70
     0
102
RTVSPropertyOp53
 70
     1
102
RTVSPropertyOp54
 70
     1
102
RTVSPropertyOp55
 70
     1
102
RTVSPropertyOp56
 70
     1
102
RTVSPropertyOp57
 70
     1
102
RTVSPost2010Prop28
280
     0
102
RTVSPost2010PropOp28
 70
     1
102
RTVSPost2010Prop29
280
     1
102
RTVSPost2010PropOp29
 70
     1
102
RTVSPost2010Prop30
280
     1
102
RTVSPost2010PropOp30
 70
     1
102
RTVSPost2010Prop31
280
     0
102
RTVSPost2010PropOp31
 70
     1
102
RTVSPost2010Prop32
280
     0
102
RTVSPost2010PropOp32
 70
     1
102
RTVSPost2010Prop33
280
     0
102
RTVSPost2010PropOp33
 70
     1
102
RTVSPost2010Prop34
280
     0
102
RTVSPost2010PropOp34
 70
     1
102
RTVSPost2010Prop35
280
     0
102
RTVSPost2010PropOp35
 70
     1
102
RTVSPost2010Prop36
280
     0
102
RTVSPost2010PropOp36
 70
     1
102
RTVSPost2010Prop37
 90
       50
102
RTVSPost2010PropOp37
 70
     1
102
RTVSPost2010Prop38
140
0.0
102
RTVSPost2010PropOp38
 70
     1
102
RTVSPost2010Prop39
140
1.0
102
RTVSPost2010PropOp39
 70
     1
102
RTVSPost2010Prop40
 90
        0
102
RTVSPost2010PropOp40
 70
     1
102
RTVSPost2010Prop41ColorIndex
 90
       18
102
RTVSPost2010Prop41ColorRGB
 90
        0
102
RTVSPost2010PropOp41
 70
     1
102
RTVSPost2010Prop42
 90
       50
102
RTVSPost2010PropOp42
 70
     1
102
RTVSPost2010Prop43
 90
        3
102
RTVSPost2010PropOp43
 70
     1
102
RTVSPost2010Prop44ColorIndex
 90
        5
102
RTVSPost2010Prop44ColorRGB
 90
      255
102
RTVSPost2010PropOp44
 70
     1
102
RTVSPost2010Prop45
280
     0
102
RTVSPost2010PropOp45
 70
     1
102
RTVSPost2010Prop46
 90
       50
102
RTVSPost2010PropOp46
 70
     1
102
RTVSPost2010Prop47
 90
       50
102
RTVSPost2010PropOp47
 70
     1
102
RTVSPost2010Prop48
 90
       50
102
RTVSPost2010PropOp48
 70
     1
102
RTVSPost2010Prop49
280
     0
102
RTVSPost2010PropOp49
 70
     1
102
RTVSPost2010Prop50
 90
       50
102
RTVSPost2010PropOp50
 70
     1
102
RTVSPost2010Prop51ColorIndex
 90
      256
102
RTVSPost2010Prop51ColorRGB
 90
-16777216
102
RTVSPost2010PropOp51
 70
     0
102
RTVSPost2010Prop52
140
1.0
102
RTVSPost2010PropOp52
 70
     0
102
RTVSPost2010Prop53
 90
        2
102
RTVSPost2010PropOp53
 70
     1
102
RTVSPost2010Prop54
  1
strokes_ogs.tif
102
RTVSPost2010PropOp54
 70
     1
102
RTVSPost2010Prop55
280
     0
102
RTVSPost2010PropOp55
 70
     1
102
RTVSPost2010Prop56
140
1.0
102
RTVSPost2010PropOp56
 70
     1
102
RTVSPost2010Prop57
140
1.0
102
RTVSPost2010PropOp57
 70
     1
  0
XRECORD
  5
2F5
102
{ACAD_REACTORS
330
2F4
102
}
330
2F4
100
AcDbXrecord
280
     1
102
RTVSPropertyOp0
 70
     1
102
RTVSPropertyOp1
 70
     1
102
RTVSPropertyOp2
 70
     1
102
RTVSPropertyOp3
 70
     1
102
RTVSPropertyOp4
 70
     1
102
RTVSPropertyOp5
 70
     1
102
RTVSPropertyOp6
 70
     1
102
RTVSPropertyOp7
 70
     1
102
RTVSPropertyOp8
 70
     1
102
RTVSPropertyOp9
 70
     1
102
RTVSPropertyOp10
 70
     1
102
RTVSPropertyOp11
 70
     1
102
RTVSPropertyOp12
 70
     1
102
RTVSPropertyOp13
 70
     1
102
RTVSPropertyOp14
 70
     1
102
RTVSPropertyOp15
 70
     1
102
RTVSPropertyOp16
 70
     1
102
RTVSPropertyOp17
 70
     1
102
RTVSPropertyOp18
 70
     1
102
RTVSPropertyOp19
 70
     1
102
RTVSPropertyOp20
 70
     1
102
RTVSPropertyOp21
 70
     1
102
RTVSPropertyOp22
 70
     1
102
RTVSPropertyOp23
 70
     1
102
RTVSPropertyOp24
 70
     1
102
RTVSPropertyOp25
 70
     1
102
RTVSPropertyOp26
 70
     1
102
RTVSPropertyOp27
 70
     1
102
RTVSPropertyOp28
 70
     1
102
RTVSPropertyOp29
 70
     1
102
RTVSPropertyOp30
 70
     1
102
RTVSPropertyOp31
 70
     1
102
RTVSPropertyOp32
 70
     1
102
RTVSPropertyOp33
 70
     1
102
RTVSPropertyOp34
 70
     1
102
RTVSPropertyOp35
 70
     1
102
RTVSPropertyOp36
 70
     1
102
RTVSPropertyOp37
 70
     1
102
RTVSPropertyOp38
 70
     1
102
RTVSPropertyOp39
 70
     1
102
RTVSPropertyOp40
 70
     1
102
RTVSPropertyOp41
 70
     1
102
RTVSPropertyOp42
 70
     1
102
RTVSPropertyOp43
 70
     1
102
RTVSPropertyOp44
 70
     1
102
RTVSPropertyOp45
 70
     1
102
RTVSPropertyOp46
 70
     1
102
RTVSPropertyOp47
 70
     1
102
RTVSPropertyOp48
 70
     1
102
RTVSPropertyOp49
 70
     1
102
RTVSPropertyOp50
 70
     1
102
RTVSPropertyOp51
 70
     0
102
RTVSPropertyOp52
 70
     0
102
RTVSPropertyOp53
 70
     1
102
RTVSPropertyOp54
 70
     1
102
RTVSPropertyOp55
 70
     1
102
RTVSPropertyOp56
 70
     1
102
RTVSPropertyOp57
 70
     1
102
RTVSPost2010Prop28
280
     0
102
RTVSPost2010PropOp28
 70
     1
102
RTVSPost2010Prop29
280
     1
102
RTVSPost2010PropOp29
 70
     1
102
RTVSPost2010Prop30
280
     1
102
RTVSPost2010PropOp30
 70
     1
102
RTVSPost2010Prop31
280
     0
102
RTVSPost2010PropOp31
 70
     1
102
RTVSPost2010Prop32
280
     0
102
RTVSPost2010PropOp32
 70
     1
102
RTVSPost2010Prop33
280
     0
102
RTVSPost2010PropOp33
 70
     1
102
RTVSPost2010Prop34
280
     0
102
RTVSPost2010PropOp34
 70
     1
102
RTVSPost2010Prop35
280
     0
102
RTVSPost2010PropOp35
 70
     1
102
RTVSPost2010Prop36
280
     0
102
RTVSPost2010PropOp36
 70
     1
102
RTVSPost2010Prop37
 90
       50
102
RTVSPost2010PropOp37
 70
     1
102
RTVSPost2010Prop38
140
0.0
102
RTVSPost2010PropOp38
 70
     1
102
RTVSPost2010Prop39
140
1.0
102
RTVSPost2010PropOp39
 70
     1
102
RTVSPost2010Prop40
 90
        0
102
RTVSPost2010PropOp40
 70
     1
102
RTVSPost2010Prop41ColorIndex
 90
       18
102
RTVSPost2010Prop41ColorRGB
 90
        0
102
RTVSPost2010PropOp41
 70
     1
102
RTVSPost2010Prop42
 90
       50
102
RTVSPost2010PropOp42
 70
     1
102
RTVSPost2010Prop43
 90
        3
102
RTVSPost2010PropOp43
 70
     1
102
RTVSPost2010Prop44ColorIndex
 90
        5
102
RTVSPost2010Prop44ColorRGB
 90
      255
102
RTVSPost2010PropOp44
 70
     1
102
RTVSPost2010Prop45
280
     0
102
RTVSPost2010PropOp45
 70
     1
102
RTVSPost2010Prop46
 90
       50
102
RTVSPost2010PropOp46
 70
     1
102
RTVSPost2010Prop47
 90
       50
102
RTVSPost2010PropOp47
 70
     1
102
RTVSPost2010Prop48
 90
       50
102
RTVSPost2010PropOp48
 70
     1
102
RTVSPost2010Prop49
280
     0
102
RTVSPost2010PropOp49
 70
     1
102
RTVSPost2010Prop50
 90
       50
102
RTVSPost2010PropOp50
 70
     1
102
RTVSPost2010Prop51ColorIndex
 90
      256
102
RTVSPost2010Prop51ColorRGB
 90
-16777216
102
RTVSPost2010PropOp51
 70
     0
102
RTVSPost2010Prop52
140
1.0
102
RTVSPost2010PropOp52
 70
     0
102
RTVSPost2010Prop53
 90
        2
102
RTVSPost2010PropOp53
 70
     1
102
RTVSPost2010Prop54
  1
strokes_ogs.tif
102
RTVSPost2010PropOp54
 70
     1
102
RTVSPost2010Prop55
280
     0
102
RTVSPost2010PropOp55
 70
     1
102
RTVSPost2010Prop56
140
1.0
102
RTVSPost2010PropOp56
 70
     1
102
RTVSPost2010Prop57
140
1.0
102
RTVSPost2010PropOp57
 70
     1
  0
XRECORD
  5
2E9
102
{ACAD_REACTORS
330
2E8
102
}
330
2E8
100
AcDbXrecord
280
     1
102
RTVSPropertyOp0
 70
     1
102
RTVSPropertyOp1
 70
     1
102
RTVSPropertyOp2
 70
     1
102
RTVSPropertyOp3
 70
     1
102
RTVSPropertyOp4
 70
     1
102
RTVSPropertyOp5
 70
     1
102
RTVSPropertyOp6
 70
     1
102
RTVSPropertyOp7
 70
     1
102
RTVSPropertyOp8
 70
     1
102
RTVSPropertyOp9
 70
     1
102
RTVSPropertyOp10
 70
     1
102
RTVSPropertyOp11
 70
     1
102
RTVSPropertyOp12
 70
     1
102
RTVSPropertyOp13
 70
     1
102
RTVSPropertyOp14
 70
     1
102
RTVSPropertyOp15
 70
     1
102
RTVSPropertyOp16
 70
     1
102
RTVSPropertyOp17
 70
     1
102
RTVSPropertyOp18
 70
     1
102
RTVSPropertyOp19
 70
     1
102
RTVSPropertyOp20
 70
     1
102
RTVSPropertyOp21
 70
     1
102
RTVSPropertyOp22
 70
     1
102
RTVSPropertyOp23
 70
     1
102
RTVSPropertyOp24
 70
     1
102
RTVSPropertyOp25
 70
     1
102
RTVSPropertyOp26
 70
     1
102
RTVSPropertyOp27
 70
     1
102
RTVSPropertyOp28
 70
     1
102
RTVSPropertyOp29
 70
     1
102
RTVSPropertyOp30
 70
     1
102
RTVSPropertyOp31
 70
     1
102
RTVSPropertyOp32
 70
     1
102
RTVSPropertyOp33
 70
     1
102
RTVSPropertyOp34
 70
     1
102
RTVSPropertyOp35
 70
     1
102
RTVSPropertyOp36
 70
     1
102
RTVSPropertyOp37
 70
     1
102
RTVSPropertyOp38
 70
     1
102
RTVSPropertyOp39
 70
     1
102
RTVSPropertyOp40
 70
     1
102
RTVSPropertyOp41
 70
     1
102
RTVSPropertyOp42
 70
     1
102
RTVSPropertyOp43
 70
     1
102
RTVSPropertyOp44
 70
     1
102
RTVSPropertyOp45
 70
     1
102
RTVSPropertyOp46
 70
     1
102
RTVSPropertyOp47
 70
     1
102
RTVSPropertyOp48
 70
     1
102
RTVSPropertyOp49
 70
     1
102
RTVSPropertyOp50
 70
     1
102
RTVSPropertyOp51
 70
     0
102
RTVSPropertyOp52
 70
     0
102
RTVSPropertyOp53
 70
     1
102
RTVSPropertyOp54
 70
     1
102
RTVSPropertyOp55
 70
     1
102
RTVSPropertyOp56
 70
     1
102
RTVSPropertyOp57
 70
     1
102
RTVSPost2010Prop28
280
     0
102
RTVSPost2010PropOp28
 70
     1
102
RTVSPost2010Prop29
280
     1
102
RTVSPost2010PropOp29
 70
     1
102
RTVSPost2010Prop30
280
     1
102
RTVSPost2010PropOp30
 70
     1
102
RTVSPost2010Prop31
280
     0
102
RTVSPost2010PropOp31
 70
     1
102
RTVSPost2010Prop32
280
     0
102
RTVSPost2010PropOp32
 70
     1
102
RTVSPost2010Prop33
280
     0
102
RTVSPost2010PropOp33
 70
     1
102
RTVSPost2010Prop34
280
     0
102
RTVSPost2010PropOp34
 70
     1
102
RTVSPost2010Prop35
280
     0
102
RTVSPost2010PropOp35
 70
     1
102
RTVSPost2010Prop36
280
     0
102
RTVSPost2010PropOp36
 70
     1
102
RTVSPost2010Prop37
 90
       50
102
RTVSPost2010PropOp37
 70
     1
102
RTVSPost2010Prop38
140
0.0
102
RTVSPost2010PropOp38
 70
     1
102
RTVSPost2010Prop39
140
1.0
102
RTVSPost2010PropOp39
 70
     1
102
RTVSPost2010Prop40
 90
        0
102
RTVSPost2010PropOp40
 70
     1
102
RTVSPost2010Prop41ColorIndex
 90
       18
102
RTVSPost2010Prop41ColorRGB
 90
        0
102
RTVSPost2010PropOp41
 70
     1
102
RTVSPost2010Prop42
 90
       50
102
RTVSPost2010PropOp42
 70
     1
102
RTVSPost2010Prop43
 90
        3
102
RTVSPost2010PropOp43
 70
     1
102
RTVSPost2010Prop44ColorIndex
 90
        5
102
RTVSPost2010Prop44ColorRGB
 90
      255
102
RTVSPost2010PropOp44
 70
     1
102
RTVSPost2010Prop45
280
     0
102
RTVSPost2010PropOp45
 70
     1
102
RTVSPost2010Prop46
 90
       50
102
RTVSPost2010PropOp46
 70
     1
102
RTVSPost2010Prop47
 90
       50
102
RTVSPost2010PropOp47
 70
     1
102
RTVSPost2010Prop48
 90
       50
102
RTVSPost2010PropOp48
 70
     1
102
RTVSPost2010Prop49
280
     0
102
RTVSPost2010PropOp49
 70
     1
102
RTVSPost2010Prop50
 90
       50
102
RTVSPost2010PropOp50
 70
     1
102
RTVSPost2010Prop51ColorIndex
 90
      256
102
RTVSPost2010Prop51ColorRGB
 90
-16777216
102
RTVSPost2010PropOp51
 70
     0
102
RTVSPost2010Prop52
140
1.0
102
RTVSPost2010PropOp52
 70
     0
102
RTVSPost2010Prop53
 90
        2
102
RTVSPost2010PropOp53
 70
     1
102
RTVSPost2010Prop54
  1
strokes_ogs.tif
102
RTVSPost2010PropOp54
 70
     1
102
RTVSPost2010Prop55
280
     0
102
RTVSPost2010PropOp55
 70
     1
102
RTVSPost2010Prop56
140
1.0
102
RTVSPost2010PropOp56
 70
     1
102
RTVSPost2010Prop57
140
1.0
102
RTVSPost2010PropOp57
 70
     1
  0
XRECORD
  5
2EB
102
{ACAD_REACTORS
330
2EA
102
}
330
2EA
100
AcDbXrecord
280
     1
102
RTVSPropertyOp0
 70
     1
102
RTVSPropertyOp1
 70
     1
102
RTVSPropertyOp2
 70
     1
102
RTVSPropertyOp3
 70
     1
102
RTVSPropertyOp4
 70
     1
102
RTVSPropertyOp5
 70
     1
102
RTVSPropertyOp6
 70
     1
102
RTVSPropertyOp7
 70
     1
102
RTVSPropertyOp8
 70
     1
102
RTVSPropertyOp9
 70
     1
102
RTVSPropertyOp10
 70
     1
102
RTVSPropertyOp11
 70
     1
102
RTVSPropertyOp12
 70
     1
102
RTVSPropertyOp13
 70
     1
102
RTVSPropertyOp14
 70
     1
102
RTVSPropertyOp15
 70
     1
102
RTVSPropertyOp16
 70
     1
102
RTVSPropertyOp17
 70
     1
102
RTVSPropertyOp18
 70
     1
102
RTVSPropertyOp19
 70
     1
102
RTVSPropertyOp20
 70
     1
102
RTVSPropertyOp21
 70
     1
102
RTVSPropertyOp22
 70
     1
102
RTVSPropertyOp23
 70
     1
102
RTVSPropertyOp24
 70
     1
102
RTVSPropertyOp25
 70
     1
102
RTVSPropertyOp26
 70
     1
102
RTVSPropertyOp27
 70
     1
102
RTVSPropertyOp28
 70
     1
102
RTVSPropertyOp29
 70
     1
102
RTVSPropertyOp30
 70
     1
102
RTVSPropertyOp31
 70
     1
102
RTVSPropertyOp32
 70
     1
102
RTVSPropertyOp33
 70
     1
102
RTVSPropertyOp34
 70
     1
102
RTVSPropertyOp35
 70
     1
102
RTVSPropertyOp36
 70
     1
102
RTVSPropertyOp37
 70
     1
102
RTVSPropertyOp38
 70
     1
102
RTVSPropertyOp39
 70
     1
102
RTVSPropertyOp40
 70
     1
102
RTVSPropertyOp41
 70
     1
102
RTVSPropertyOp42
 70
     1
102
RTVSPropertyOp43
 70
     1
102
RTVSPropertyOp44
 70
     1
102
RTVSPropertyOp45
 70
     1
102
RTVSPropertyOp46
 70
     1
102
RTVSPropertyOp47
 70
     1
102
RTVSPropertyOp48
 70
     1
102
RTVSPropertyOp49
 70
     1
102
RTVSPropertyOp50
 70
     1
102
RTVSPropertyOp51
 70
     0
102
RTVSPropertyOp52
 70
     0
102
RTVSPropertyOp53
 70
     1
102
RTVSPropertyOp54
 70
     1
102
RTVSPropertyOp55
 70
     1
102
RTVSPropertyOp56
 70
     1
102
RTVSPropertyOp57
 70
     1
102
RTVSPost2010Prop28
280
     0
102
RTVSPost2010PropOp28
 70
     1
102
RTVSPost2010Prop29
280
     1
102
RTVSPost2010PropOp29
 70
     1
102
RTVSPost2010Prop30
280
     1
102
RTVSPost2010PropOp30
 70
     1
102
RTVSPost2010Prop31
280
     0
102
RTVSPost2010PropOp31
 70
     1
102
RTVSPost2010Prop32
280
     0
102
RTVSPost2010PropOp32
 70
     1
102
RTVSPost2010Prop33
280
     0
102
RTVSPost2010PropOp33
 70
     1
102
RTVSPost2010Prop34
280
     0
102
RTVSPost2010PropOp34
 70
     1
102
RTVSPost2010Prop35
280
     0
102
RTVSPost2010PropOp35
 70
     1
102
RTVSPost2010Prop36
280
     0
102
RTVSPost2010PropOp36
 70
     1
102
RTVSPost2010Prop37
 90
       50
102
RTVSPost2010PropOp37
 70
     1
102
RTVSPost2010Prop38
140
0.0
102
RTVSPost2010PropOp38
 70
     1
102
RTVSPost2010Prop39
140
1.0
102
RTVSPost2010PropOp39
 70
     1
102
RTVSPost2010Prop40
 90
        0
102
RTVSPost2010PropOp40
 70
     1
102
RTVSPost2010Prop41ColorIndex
 90
       18
102
RTVSPost2010Prop41ColorRGB
 90
        0
102
RTVSPost2010PropOp41
 70
     1
102
RTVSPost2010Prop42
 90
       50
102
RTVSPost2010PropOp42
 70
     1
102
RTVSPost2010Prop43
 90
        3
102
RTVSPost2010PropOp43
 70
     1
102
RTVSPost2010Prop44ColorIndex
 90
        5
102
RTVSPost2010Prop44ColorRGB
 90
      255
102
RTVSPost2010PropOp44
 70
     1
102
RTVSPost2010Prop45
280
     0
102
RTVSPost2010PropOp45
 70
     1
102
RTVSPost2010Prop46
 90
       50
102
RTVSPost2010PropOp46
 70
     1
102
RTVSPost2010Prop47
 90
       50
102
RTVSPost2010PropOp47
 70
     1
102
RTVSPost2010Prop48
 90
       50
102
RTVSPost2010PropOp48
 70
     1
102
RTVSPost2010Prop49
280
     0
102
RTVSPost2010PropOp49
 70
     1
102
RTVSPost2010Prop50
 90
       50
102
RTVSPost2010PropOp50
 70
     1
102
RTVSPost2010Prop51ColorIndex
 90
      256
102
RTVSPost2010Prop51ColorRGB
 90
-16777216
102
RTVSPost2010PropOp51
 70
     0
102
RTVSPost2010Prop52
140
1.0
102
RTVSPost2010PropOp52
 70
     0
102
RTVSPost2010Prop53
 90
        2
102
RTVSPost2010PropOp53
 70
     1
102
RTVSPost2010Prop54
  1
strokes_ogs.tif
102
RTVSPost2010PropOp54
 70
     1
102
RTVSPost2010Prop55
280
     0
102
RTVSPost2010PropOp55
 70
     1
102
RTVSPost2010Prop56
140
1.0
102
RTVSPost2010PropOp56
 70
     1
102
RTVSPost2010Prop57
140
1.0
102
RTVSPost2010PropOp57
 70
     1
  0
XRECORD
  5
2FB
102
{ACAD_REACTORS
330
2FA
102
}
330
2FA
100
AcDbXrecord
280
     1
102
RTVSPropertyOp0
 70
     0
102
RTVSPropertyOp1
 70
     0
102
RTVSPropertyOp2
 70
     0
102
RTVSPropertyOp3
 70
     0
102
RTVSPropertyOp4
 70
     0
102
RTVSPropertyOp5
 70
     0
102
RTVSPropertyOp6
 70
     0
102
RTVSPropertyOp7
 70
     0
102
RTVSPropertyOp8
 70
     0
102
RTVSPropertyOp9
 70
     0
102
RTVSPropertyOp10
 70
     0
102
RTVSPropertyOp11
 70
     0
102
RTVSPropertyOp12
 70
     0
102
RTVSPropertyOp13
 70
     0
102
RTVSPropertyOp14
 70
     2
102
RTVSPropertyOp15
 70
     0
102
RTVSPropertyOp16
 70
     0
102
RTVSPropertyOp17
 70
     0
102
RTVSPropertyOp18
 70
     0
102
RTVSPropertyOp19
 70
     0
102
RTVSPropertyOp20
 70
     0
102
RTVSPropertyOp21
 70
     0
102
RTVSPropertyOp22
 70
     0
102
RTVSPropertyOp23
 70
     0
102
RTVSPropertyOp24
 70
     0
102
RTVSPropertyOp25
 70
     0
102
RTVSPropertyOp26
 70
     0
102
RTVSPropertyOp27
 70
     0
102
RTVSPropertyOp28
 70
     0
102
RTVSPropertyOp29
 70
     0
102
RTVSPropertyOp30
 70
     0
102
RTVSPropertyOp31
 70
     0
102
RTVSPropertyOp32
 70
     0
102
RTVSPropertyOp33
 70
     0
102
RTVSPropertyOp34
 70
     0
102
RTVSPropertyOp35
 70
     0
102
RTVSPropertyOp36
 70
     0
102
RTVSPropertyOp37
 70
     0
102
RTVSPropertyOp38
 70
     0
102
RTVSPropertyOp39
 70
     0
102
RTVSPropertyOp40
 70
     0
102
RTVSPropertyOp41
 70
     0
102
RTVSPropertyOp42
 70
     0
102
RTVSPropertyOp43
 70
     0
102
RTVSPropertyOp44
 70
     0
102
RTVSPropertyOp45
 70
     0
102
RTVSPropertyOp46
 70
     0
102
RTVSPropertyOp47
 70
     0
102
RTVSPropertyOp48
 70
     0
102
RTVSPropertyOp49
 70
     0
102
RTVSPropertyOp50
 70
     0
102
RTVSPropertyOp51
 70
     0
102
RTVSPropertyOp52
 70
     0
102
RTVSPropertyOp53
 70
     0
102
RTVSPropertyOp54
 70
     0
102
RTVSPropertyOp55
 70
     0
102
RTVSPropertyOp56
 70
     0
102
RTVSPropertyOp57
 70
     0
102
RTVSPost2010Prop28
280
     0
102
RTVSPost2010PropOp28
 70
     0
102
RTVSPost2010Prop29
280
     1
102
RTVSPost2010PropOp29
 70
     0
102
RTVSPost2010Prop30
280
     1
102
RTVSPost2010PropOp30
 70
     0
102
RTVSPost2010Prop31
280
     0
102
RTVSPost2010PropOp31
 70
     0
102
RTVSPost2010Prop32
280
     0
102
RTVSPost2010PropOp32
 70
     0
102
RTVSPost2010Prop33
280
     0
102
RTVSPost2010PropOp33
 70
     0
102
RTVSPost2010Prop34
280
     0
102
RTVSPost2010PropOp34
 70
     0
102
RTVSPost2010Prop35
280
     0
102
RTVSPost2010PropOp35
 70
     0
102
RTVSPost2010Prop36
280
     0
102
RTVSPost2010PropOp36
 70
     0
102
RTVSPost2010Prop37
 90
       50
102
RTVSPost2010PropOp37
 70
     0
102
RTVSPost2010Prop38
140
0.0
102
RTVSPost2010PropOp38
 70
     0
102
RTVSPost2010Prop39
140
1.0
102
RTVSPost2010PropOp39
 70
     0
102
RTVSPost2010Prop40
 90
        0
102
RTVSPost2010PropOp40
 70
     0
102
RTVSPost2010Prop41ColorIndex
 90
       18
102
RTVSPost2010Prop41ColorRGB
 90
        0
102
RTVSPost2010PropOp41
 70
     0
102
RTVSPost2010Prop42
 90
       50
102
RTVSPost2010PropOp42
 70
     0
102
RTVSPost2010Prop43
 90
        3
102
RTVSPost2010PropOp43
 70
     0
102
RTVSPost2010Prop44ColorIndex
 90
        5
102
RTVSPost2010Prop44ColorRGB
 90
      255
102
RTVSPost2010PropOp44
 70
     0
102
RTVSPost2010Prop45
280
     0
102
RTVSPost2010PropOp45
 70
     0
102
RTVSPost2010Prop46
 90
       50
102
RTVSPost2010PropOp46
 70
     0
102
RTVSPost2010Prop47
 90
       50
102
RTVSPost2010PropOp47
 70
     0
102
RTVSPost2010Prop48
 90
       50
102
RTVSPost2010PropOp48
 70
     0
102
RTVSPost2010Prop49
280
     0
102
RTVSPost2010PropOp49
 70
     0
102
RTVSPost2010Prop50
 90
       50
102
RTVSPost2010PropOp50
 70
     0
102
RTVSPost2010Prop51ColorIndex
 90
      256
102
RTVSPost2010Prop51ColorRGB
 90
-16777216
102
RTVSPost2010PropOp51
 70
     0
102
RTVSPost2010Prop52
140
1.0
102
RTVSPost2010PropOp52
 70
     0
102
RTVSPost2010Prop53
 90
        2
102
RTVSPost2010PropOp53
 70
     0
102
RTVSPost2010Prop54
  1
strokes_ogs.tif
102
RTVSPost2010PropOp54
 70
     0
102
RTVSPost2010Prop55
280
     0
102
RTVSPost2010PropOp55
 70
     0
102
RTVSPost2010Prop56
140
1.0
102
RTVSPost2010PropOp56
 70
     0
102
RTVSPost2010Prop57
140
1.0
102
RTVSPost2010PropOp57
 70
     0
  0
XRECORD
  5
2F3
102
{ACAD_REACTORS
330
2F2
102
}
330
2F2
100
AcDbXrecord
280
     1
102
RTVSPropertyOp0
 70
     1
102
RTVSPropertyOp1
 70
     1
102
RTVSPropertyOp2
 70
     1
102
RTVSPropertyOp3
 70
     1
102
RTVSPropertyOp4
 70
     1
102
RTVSPropertyOp5
 70
     1
102
RTVSPropertyOp6
 70
     1
102
RTVSPropertyOp7
 70
     1
102
RTVSPropertyOp8
 70
     1
102
RTVSPropertyOp9
 70
     1
102
RTVSPropertyOp10
 70
     1
102
RTVSPropertyOp11
 70
     1
102
RTVSPropertyOp12
 70
     1
102
RTVSPropertyOp13
 70
     1
102
RTVSPropertyOp14
 70
     1
102
RTVSPropertyOp15
 70
     1
102
RTVSPropertyOp16
 70
     1
102
RTVSPropertyOp17
 70
     1
102
RTVSPropertyOp18
 70
     1
102
RTVSPropertyOp19
 70
     1
102
RTVSPropertyOp20
 70
     1
102
RTVSPropertyOp21
 70
     1
102
RTVSPropertyOp22
 70
     1
102
RTVSPropertyOp23
 70
     1
102
RTVSPropertyOp24
 70
     1
102
RTVSPropertyOp25
 70
     1
102
RTVSPropertyOp26
 70
     1
102
RTVSPropertyOp27
 70
     1
102
RTVSPropertyOp28
 70
     1
102
RTVSPropertyOp29
 70
     1
102
RTVSPropertyOp30
 70
     1
102
RTVSPropertyOp31
 70
     1
102
RTVSPropertyOp32
 70
     1
102
RTVSPropertyOp33
 70
     1
102
RTVSPropertyOp34
 70
     1
102
RTVSPropertyOp35
 70
     1
102
RTVSPropertyOp36
 70
     1
102
RTVSPropertyOp37
 70
     1
102
RTVSPropertyOp38
 70
     1
102
RTVSPropertyOp39
 70
     1
102
RTVSPropertyOp40
 70
     1
102
RTVSPropertyOp41
 70
     1
102
RTVSPropertyOp42
 70
     1
102
RTVSPropertyOp43
 70
     1
102
RTVSPropertyOp44
 70
     1
102
RTVSPropertyOp45
 70
     1
102
RTVSPropertyOp46
 70
     1
102
RTVSPropertyOp47
 70
     1
102
RTVSPropertyOp48
 70
     1
102
RTVSPropertyOp49
 70
     1
102
RTVSPropertyOp50
 70
     1
102
RTVSPropertyOp51
 70
     0
102
RTVSPropertyOp52
 70
     0
102
RTVSPropertyOp53
 70
     1
102
RTVSPropertyOp54
 70
     1
102
RTVSPropertyOp55
 70
     1
102
RTVSPropertyOp56
 70
     1
102
RTVSPropertyOp57
 70
     1
102
RTVSPost2010Prop28
280
     0
102
RTVSPost2010PropOp28
 70
     1
102
RTVSPost2010Prop29
280
     1
102
RTVSPost2010PropOp29
 70
     1
102
RTVSPost2010Prop30
280
     1
102
RTVSPost2010PropOp30
 70
     1
102
RTVSPost2010Prop31
280
     0
102
RTVSPost2010PropOp31
 70
     1
102
RTVSPost2010Prop32
280
     0
102
RTVSPost2010PropOp32
 70
     1
102
RTVSPost2010Prop33
280
     0
102
RTVSPost2010PropOp33
 70
     1
102
RTVSPost2010Prop34
280
     0
102
RTVSPost2010PropOp34
 70
     1
102
RTVSPost2010Prop35
280
     0
102
RTVSPost2010PropOp35
 70
     1
102
RTVSPost2010Prop36
280
     0
102
RTVSPost2010PropOp36
 70
     1
102
RTVSPost2010Prop37
 90
       50
102
RTVSPost2010PropOp37
 70
     1
102
RTVSPost2010Prop38
140
0.0
102
RTVSPost2010PropOp38
 70
     1
102
RTVSPost2010Prop39
140
1.0
102
RTVSPost2010PropOp39
 70
     1
102
RTVSPost2010Prop40
 90
        0
102
RTVSPost2010PropOp40
 70
     1
102
RTVSPost2010Prop41ColorIndex
 90
       18
102
RTVSPost2010Prop41ColorRGB
 90
        0
102
RTVSPost2010PropOp41
 70
     1
102
RTVSPost2010Prop42
 90
       50
102
RTVSPost2010PropOp42
 70
     1
102
RTVSPost2010Prop43
 90
        3
102
RTVSPost2010PropOp43
 70
     1
102
RTVSPost2010Prop44ColorIndex
 90
        5
102
RTVSPost2010Prop44ColorRGB
 90
      255
102
RTVSPost2010PropOp44
 70
     1
102
RTVSPost2010Prop45
280
     0
102
RTVSPost2010PropOp45
 70
     1
102
RTVSPost2010Prop46
 90
       50
102
RTVSPost2010PropOp46
 70
     1
102
RTVSPost2010Prop47
 90
       50
102
RTVSPost2010PropOp47
 70
     1
102
RTVSPost2010Prop48
 90
       50
102
RTVSPost2010PropOp48
 70
     1
102
RTVSPost2010Prop49
280
     0
102
RTVSPost2010PropOp49
 70
     1
102
RTVSPost2010Prop50
 90
       50
102
RTVSPost2010PropOp50
 70
     1
102
RTVSPost2010Prop51ColorIndex
 90
      256
102
RTVSPost2010Prop51ColorRGB
 90
-16777216
102
RTVSPost2010PropOp51
 70
     0
102
RTVSPost2010Prop52
140
1.0
102
RTVSPost2010PropOp52
 70
     0
102
RTVSPost2010Prop53
 90
        2
102
RTVSPost2010PropOp53
 70
     1
102
RTVSPost2010Prop54
  1
strokes_ogs.tif
102
RTVSPost2010PropOp54
 70
     1
102
RTVSPost2010Prop55
280
     0
102
RTVSPost2010PropOp55
 70
     1
102
RTVSPost2010Prop56
140
1.0
102
RTVSPost2010PropOp56
 70
     1
102
RTVSPost2010Prop57
140
1.0
102
RTVSPost2010PropOp57
 70
     1
  0
XRECORD
  5
2D7
102
{ACAD_REACTORS
330
2D6
102
}
330
2D6
100
AcDbXrecord
280
     1
102
RTVSPropertyOp0
 70
     1
102
RTVSPropertyOp1
 70
     1
102
RTVSPropertyOp2
 70
     1
102
RTVSPropertyOp3
 70
     1
102
RTVSPropertyOp4
 70
     1
102
RTVSPropertyOp5
 70
     1
102
RTVSPropertyOp6
 70
     1
102
RTVSPropertyOp7
 70
     1
102
RTVSPropertyOp8
 70
     1
102
RTVSPropertyOp9
 70
     1
102
RTVSPropertyOp10
 70
     1
102
RTVSPropertyOp11
 70
     1
102
RTVSPropertyOp12
 70
     1
102
RTVSPropertyOp13
 70
     1
102
RTVSPropertyOp14
 70
     1
102
RTVSPropertyOp15
 70
     1
102
RTVSPropertyOp16
 70
     1
102
RTVSPropertyOp17
 70
     1
102
RTVSPropertyOp18
 70
     1
102
RTVSPropertyOp19
 70
     1
102
RTVSPropertyOp20
 70
     1
102
RTVSPropertyOp21
 70
     1
102
RTVSPropertyOp22
 70
     1
102
RTVSPropertyOp23
 70
     1
102
RTVSPropertyOp24
 70
     1
102
RTVSPropertyOp25
 70
     1
102
RTVSPropertyOp26
 70
     1
102
RTVSPropertyOp27
 70
     1
102
RTVSPropertyOp28
 70
     1
102
RTVSPropertyOp29
 70
     1
102
RTVSPropertyOp30
 70
     1
102
RTVSPropertyOp31
 70
     1
102
RTVSPropertyOp32
 70
     1
102
RTVSPropertyOp33
 70
     1
102
RTVSPropertyOp34
 70
     1
102
RTVSPropertyOp35
 70
     1
102
RTVSPropertyOp36
 70
     1
102
RTVSPropertyOp37
 70
     1
102
RTVSPropertyOp38
 70
     1
102
RTVSPropertyOp39
 70
     1
102
RTVSPropertyOp40
 70
     1
102
RTVSPropertyOp41
 70
     1
102
RTVSPropertyOp42
 70
     1
102
RTVSPropertyOp43
 70
     1
102
RTVSPropertyOp44
 70
     1
102
RTVSPropertyOp45
 70
     1
102
RTVSPropertyOp46
 70
     1
102
RTVSPropertyOp47
 70
     1
102
RTVSPropertyOp48
 70
     1
102
RTVSPropertyOp49
 70
     1
102
RTVSPropertyOp50
 70
     1
102
RTVSPropertyOp51
 70
     0
102
RTVSPropertyOp52
 70
     0
102
RTVSPropertyOp53
 70
     1
102
RTVSPropertyOp54
 70
     1
102
RTVSPropertyOp55
 70
     1
102
RTVSPropertyOp56
 70
     1
102
RTVSPropertyOp57
 70
     1
102
RTVSPost2010Prop28
280
     0
102
RTVSPost2010PropOp28
 70
     1
102
RTVSPost2010Prop29
280
     1
102
RTVSPost2010PropOp29
 70
     1
102
RTVSPost2010Prop30
280
     1
102
RTVSPost2010PropOp30
 70
     1
102
RTVSPost2010Prop31
280
     0
102
RTVSPost2010PropOp31
 70
     1
102
RTVSPost2010Prop32
280
     0
102
RTVSPost2010PropOp32
 70
     1
102
RTVSPost2010Prop33
280
     0
102
RTVSPost2010PropOp33
 70
     1
102
RTVSPost2010Prop34
280
     0
102
RTVSPost2010PropOp34
 70
     1
102
RTVSPost2010Prop35
280
     0
102
RTVSPost2010PropOp35
 70
     1
102
RTVSPost2010Prop36
280
     0
102
RTVSPost2010PropOp36
 70
     1
102
RTVSPost2010Prop37
 90
       50
102
RTVSPost2010PropOp37
 70
     1
102
RTVSPost2010Prop38
140
0.0
102
RTVSPost2010PropOp38
 70
     1
102
RTVSPost2010Prop39
140
1.0
102
RTVSPost2010PropOp39
 70
     1
102
RTVSPost2010Prop40
 90
        0
102
RTVSPost2010PropOp40
 70
     1
102
RTVSPost2010Prop41ColorIndex
 90
       18
102
RTVSPost2010Prop41ColorRGB
 90
        0
102
RTVSPost2010PropOp41
 70
     1
102
RTVSPost2010Prop42
 90
       50
102
RTVSPost2010PropOp42
 70
     1
102
RTVSPost2010Prop43
 90
        3
102
RTVSPost2010PropOp43
 70
     1
102
RTVSPost2010Prop44ColorIndex
 90
        5
102
RTVSPost2010Prop44ColorRGB
 90
      255
102
RTVSPost2010PropOp44
 70
     1
102
RTVSPost2010Prop45
280
     0
102
RTVSPost2010PropOp45
 70
     1
102
RTVSPost2010Prop46
 90
       50
102
RTVSPost2010PropOp46
 70
     1
102
RTVSPost2010Prop47
 90
       50
102
RTVSPost2010PropOp47
 70
     1
102
RTVSPost2010Prop48
 90
       50
102
RTVSPost2010PropOp48
 70
     1
102
RTVSPost2010Prop49
280
     0
102
RTVSPost2010PropOp49
 70
     1
102
RTVSPost2010Prop50
 90
       50
102
RTVSPost2010PropOp50
 70
     1
102
RTVSPost2010Prop51ColorIndex
 90
      256
102
RTVSPost2010Prop51ColorRGB
 90
-16777216
102
RTVSPost2010PropOp51
 70
     0
102
RTVSPost2010Prop52
140
1.0
102
RTVSPost2010PropOp52
 70
     0
102
RTVSPost2010Prop53
 90
        2
102
RTVSPost2010PropOp53
 70
     1
102
RTVSPost2010Prop54
  1
strokes_ogs.tif
102
RTVSPost2010PropOp54
 70
     1
102
RTVSPost2010Prop55
280
     0
102
RTVSPost2010PropOp55
 70
     1
102
RTVSPost2010Prop56
140
1.0
102
RTVSPost2010PropOp56
 70
     1
102
RTVSPost2010Prop57
140
1.0
102
RTVSPost2010PropOp57
 70
     1
  0
XRECORD
  5
2D9
102
{ACAD_REACTORS
330
2D8
102
}
330
2D8
100
AcDbXrecord
280
     1
102
RTVSPropertyOp0
 70
     1
102
RTVSPropertyOp1
 70
     1
102
RTVSPropertyOp2
 70
     1
102
RTVSPropertyOp3
 70
     1
102
RTVSPropertyOp4
 70
     1
102
RTVSPropertyOp5
 70
     1
102
RTVSPropertyOp6
 70
     1
102
RTVSPropertyOp7
 70
     1
102
RTVSPropertyOp8
 70
     1
102
RTVSPropertyOp9
 70
     1
102
RTVSPropertyOp10
 70
     1
102
RTVSPropertyOp11
 70
     1
102
RTVSPropertyOp12
 70
     1
102
RTVSPropertyOp13
 70
     1
102
RTVSPropertyOp14
 70
     1
102
RTVSPropertyOp15
 70
     1
102
RTVSPropertyOp16
 70
     1
102
RTVSPropertyOp17
 70
     1
102
RTVSPropertyOp18
 70
     1
102
RTVSPropertyOp19
 70
     1
102
RTVSPropertyOp20
 70
     1
102
RTVSPropertyOp21
 70
     1
102
RTVSPropertyOp22
 70
     1
102
RTVSPropertyOp23
 70
     1
102
RTVSPropertyOp24
 70
     1
102
RTVSPropertyOp25
 70
     1
102
RTVSPropertyOp26
 70
     1
102
RTVSPropertyOp27
 70
     1
102
RTVSPropertyOp28
 70
     1
102
RTVSPropertyOp29
 70
     1
102
RTVSPropertyOp30
 70
     1
102
RTVSPropertyOp31
 70
     1
102
RTVSPropertyOp32
 70
     1
102
RTVSPropertyOp33
 70
     1
102
RTVSPropertyOp34
 70
     1
102
RTVSPropertyOp35
 70
     1
102
RTVSPropertyOp36
 70
     1
102
RTVSPropertyOp37
 70
     1
102
RTVSPropertyOp38
 70
     1
102
RTVSPropertyOp39
 70
     1
102
RTVSPropertyOp40
 70
     1
102
RTVSPropertyOp41
 70
     1
102
RTVSPropertyOp42
 70
     1
102
RTVSPropertyOp43
 70
     1
102
RTVSPropertyOp44
 70
     1
102
RTVSPropertyOp45
 70
     1
102
RTVSPropertyOp46
 70
     1
102
RTVSPropertyOp47
 70
     1
102
RTVSPropertyOp48
 70
     1
102
RTVSPropertyOp49
 70
     1
102
RTVSPropertyOp50
 70
     1
102
RTVSPropertyOp51
 70
     0
102
RTVSPropertyOp52
 70
     0
102
RTVSPropertyOp53
 70
     1
102
RTVSPropertyOp54
 70
     1
102
RTVSPropertyOp55
 70
     1
102
RTVSPropertyOp56
 70
     1
102
RTVSPropertyOp57
 70
     1
102
RTVSPost2010Prop28
280
     0
102
RTVSPost2010PropOp28
 70
     1
102
RTVSPost2010Prop29
280
     1
102
RTVSPost2010PropOp29
 70
     1
102
RTVSPost2010Prop30
280
     1
102
RTVSPost2010PropOp30
 70
     1
102
RTVSPost2010Prop31
280
     0
102
RTVSPost2010PropOp31
 70
     1
102
RTVSPost2010Prop32
280
     0
102
RTVSPost2010PropOp32
 70
     1
102
RTVSPost2010Prop33
280
     0
102
RTVSPost2010PropOp33
 70
     1
102
RTVSPost2010Prop34
280
     0
102
RTVSPost2010PropOp34
 70
     1
102
RTVSPost2010Prop35
280
     0
102
RTVSPost2010PropOp35
 70
     1
102
RTVSPost2010Prop36
280
     0
102
RTVSPost2010PropOp36
 70
     1
102
RTVSPost2010Prop37
 90
       50
102
RTVSPost2010PropOp37
 70
     1
102
RTVSPost2010Prop38
140
0.0
102
RTVSPost2010PropOp38
 70
     1
102
RTVSPost2010Prop39
140
1.0
102
RTVSPost2010PropOp39
 70
     1
102
RTVSPost2010Prop40
 90
        0
102
RTVSPost2010PropOp40
 70
     1
102
RTVSPost2010Prop41ColorIndex
 90
       18
102
RTVSPost2010Prop41ColorRGB
 90
        0
102
RTVSPost2010PropOp41
 70
     1
102
RTVSPost2010Prop42
 90
       50
102
RTVSPost2010PropOp42
 70
     1
102
RTVSPost2010Prop43
 90
        3
102
RTVSPost2010PropOp43
 70
     1
102
RTVSPost2010Prop44ColorIndex
 90
        5
102
RTVSPost2010Prop44ColorRGB
 90
      255
102
RTVSPost2010PropOp44
 70
     1
102
RTVSPost2010Prop45
280
     0
102
RTVSPost2010PropOp45
 70
     1
102
RTVSPost2010Prop46
 90
       50
102
RTVSPost2010PropOp46
 70
     1
102
RTVSPost2010Prop47
 90
       50
102
RTVSPost2010PropOp47
 70
     1
102
RTVSPost2010Prop48
 90
       50
102
RTVSPost2010PropOp48
 70
     1
102
RTVSPost2010Prop49
280
     0
102
RTVSPost2010PropOp49
 70
     1
102
RTVSPost2010Prop50
 90
       50
102
RTVSPost2010PropOp50
 70
     1
102
RTVSPost2010Prop51ColorIndex
 90
      256
102
RTVSPost2010Prop51ColorRGB
 90
-16777216
102
RTVSPost2010PropOp51
 70
     0
102
RTVSPost2010Prop52
140
1.0
102
RTVSPost2010PropOp52
 70
     0
102
RTVSPost2010Prop53
 90
        2
102
RTVSPost2010PropOp53
 70
     1
102
RTVSPost2010Prop54
  1
strokes_ogs.tif
102
RTVSPost2010PropOp54
 70
     1
102
RTVSPost2010Prop55
280
     0
102
RTVSPost2010PropOp55
 70
     1
102
RTVSPost2010Prop56
140
1.0
102
RTVSPost2010PropOp56
 70
     1
102
RTVSPost2010Prop57
140
1.0
102
RTVSPost2010PropOp57
 70
     1
  0
XRECORD
  5
2DB
102
{ACAD_REACTORS
330
2DA
102
}
330
2DA
100
AcDbXrecord
280
     1
102
RTVSPropertyOp0
 70
     1
102
RTVSPropertyOp1
 70
     1
102
RTVSPropertyOp2
 70
     1
102
RTVSPropertyOp3
 70
     1
102
RTVSPropertyOp4
 70
     1
102
RTVSPropertyOp5
 70
     1
102
RTVSPropertyOp6
 70
     1
102
RTVSPropertyOp7
 70
     1
102
RTVSPropertyOp8
 70
     1
102
RTVSPropertyOp9
 70
     1
102
RTVSPropertyOp10
 70
     1
102
RTVSPropertyOp11
 70
     1
102
RTVSPropertyOp12
 70
     1
102
RTVSPropertyOp13
 70
     1
102
RTVSPropertyOp14
 70
     1
102
RTVSPropertyOp15
 70
     1
102
RTVSPropertyOp16
 70
     1
102
RTVSPropertyOp17
 70
     1
102
RTVSPropertyOp18
 70
     1
102
RTVSPropertyOp19
 70
     1
102
RTVSPropertyOp20
 70
     1
102
RTVSPropertyOp21
 70
     1
102
RTVSPropertyOp22
 70
     1
102
RTVSPropertyOp23
 70
     1
102
RTVSPropertyOp24
 70
     1
102
RTVSPropertyOp25
 70
     1
102
RTVSPropertyOp26
 70
     1
102
RTVSPropertyOp27
 70
     1
102
RTVSPropertyOp28
 70
     1
102
RTVSPropertyOp29
 70
     1
102
RTVSPropertyOp30
 70
     1
102
RTVSPropertyOp31
 70
     1
102
RTVSPropertyOp32
 70
     1
102
RTVSPropertyOp33
 70
     1
102
RTVSPropertyOp34
 70
     1
102
RTVSPropertyOp35
 70
     1
102
RTVSPropertyOp36
 70
     1
102
RTVSPropertyOp37
 70
     1
102
RTVSPropertyOp38
 70
     1
102
RTVSPropertyOp39
 70
     1
102
RTVSPropertyOp40
 70
     1
102
RTVSPropertyOp41
 70
     1
102
RTVSPropertyOp42
 70
     1
102
RTVSPropertyOp43
 70
     1
102
RTVSPropertyOp44
 70
     1
102
RTVSPropertyOp45
 70
     1
102
RTVSPropertyOp46
 70
     1
102
RTVSPropertyOp47
 70
     1
102
RTVSPropertyOp48
 70
     1
102
RTVSPropertyOp49
 70
     1
102
RTVSPropertyOp50
 70
     1
102
RTVSPropertyOp51
 70
     0
102
RTVSPropertyOp52
 70
     0
102
RTVSPropertyOp53
 70
     1
102
RTVSPropertyOp54
 70
     1
102
RTVSPropertyOp55
 70
     1
102
RTVSPropertyOp56
 70
     1
102
RTVSPropertyOp57
 70
     1
102
RTVSPost2010Prop28
280
     0
102
RTVSPost2010PropOp28
 70
     1
102
RTVSPost2010Prop29
280
     1
102
RTVSPost2010PropOp29
 70
     1
102
RTVSPost2010Prop30
280
     1
102
RTVSPost2010PropOp30
 70
     1
102
RTVSPost2010Prop31
280
     0
102
RTVSPost2010PropOp31
 70
     1
102
RTVSPost2010Prop32
280
     0
102
RTVSPost2010PropOp32
 70
     1
102
RTVSPost2010Prop33
280
     0
102
RTVSPost2010PropOp33
 70
     1
102
RTVSPost2010Prop34
280
     0
102
RTVSPost2010PropOp34
 70
     1
102
RTVSPost2010Prop35
280
     0
102
RTVSPost2010PropOp35
 70
     1
102
RTVSPost2010Prop36
280
     0
102
RTVSPost2010PropOp36
 70
     1
102
RTVSPost2010Prop37
 90
       50
102
RTVSPost2010PropOp37
 70
     1
102
RTVSPost2010Prop38
140
0.0
102
RTVSPost2010PropOp38
 70
     1
102
RTVSPost2010Prop39
140
1.0
102
RTVSPost2010PropOp39
 70
     1
102
RTVSPost2010Prop40
 90
        0
102
RTVSPost2010PropOp40
 70
     1
102
RTVSPost2010Prop41ColorIndex
 90
       18
102
RTVSPost2010Prop41ColorRGB
 90
        0
102
RTVSPost2010PropOp41
 70
     1
102
RTVSPost2010Prop42
 90
       50
102
RTVSPost2010PropOp42
 70
     1
102
RTVSPost2010Prop43
 90
        3
102
RTVSPost2010PropOp43
 70
     1
102
RTVSPost2010Prop44ColorIndex
 90
        5
102
RTVSPost2010Prop44ColorRGB
 90
      255
102
RTVSPost2010PropOp44
 70
     1
102
RTVSPost2010Prop45
280
     0
102
RTVSPost2010PropOp45
 70
     1
102
RTVSPost2010Prop46
 90
       50
102
RTVSPost2010PropOp46
 70
     1
102
RTVSPost2010Prop47
 90
       50
102
RTVSPost2010PropOp47
 70
     1
102
RTVSPost2010Prop48
 90
       50
102
RTVSPost2010PropOp48
 70
     1
102
RTVSPost2010Prop49
280
     0
102
RTVSPost2010PropOp49
 70
     1
102
RTVSPost2010Prop50
 90
       50
102
RTVSPost2010PropOp50
 70
     1
102
RTVSPost2010Prop51ColorIndex
 90
      256
102
RTVSPost2010Prop51ColorRGB
 90
-16777216
102
RTVSPost2010PropOp51
 70
     0
102
RTVSPost2010Prop52
140
1.0
102
RTVSPost2010PropOp52
 70
     0
102
RTVSPost2010Prop53
 90
        2
102
RTVSPost2010PropOp53
 70
     1
102
RTVSPost2010Prop54
  1
strokes_ogs.tif
102
RTVSPost2010PropOp54
 70
     1
102
RTVSPost2010Prop55
280
     0
102
RTVSPost2010PropOp55
 70
     1
102
RTVSPost2010Prop56
140
1.0
102
RTVSPost2010PropOp56
 70
     1
102
RTVSPost2010Prop57
140
1.0
102
RTVSPost2010PropOp57
 70
     1
  0
XRECORD
  5
2DD
102
{ACAD_REACTORS
330
2DC
102
}
330
2DC
100
AcDbXrecord
280
     1
102
RTVSPropertyOp0
 70
     1
102
RTVSPropertyOp1
 70
     1
102
RTVSPropertyOp2
 70
     1
102
RTVSPropertyOp3
 70
     1
102
RTVSPropertyOp4
 70
     1
102
RTVSPropertyOp5
 70
     1
102
RTVSPropertyOp6
 70
     1
102
RTVSPropertyOp7
 70
     1
102
RTVSPropertyOp8
 70
     1
102
RTVSPropertyOp9
 70
     1
102
RTVSPropertyOp10
 70
     1
102
RTVSPropertyOp11
 70
     1
102
RTVSPropertyOp12
 70
     1
102
RTVSPropertyOp13
 70
     1
102
RTVSPropertyOp14
 70
     1
102
RTVSPropertyOp15
 70
     1
102
RTVSPropertyOp16
 70
     1
102
RTVSPropertyOp17
 70
     1
102
RTVSPropertyOp18
 70
     1
102
RTVSPropertyOp19
 70
     1
102
RTVSPropertyOp20
 70
     1
102
RTVSPropertyOp21
 70
     1
102
RTVSPropertyOp22
 70
     1
102
RTVSPropertyOp23
 70
     1
102
RTVSPropertyOp24
 70
     1
102
RTVSPropertyOp25
 70
     1
102
RTVSPropertyOp26
 70
     1
102
RTVSPropertyOp27
 70
     1
102
RTVSPropertyOp28
 70
     1
102
RTVSPropertyOp29
 70
     1
102
RTVSPropertyOp30
 70
     1
102
RTVSPropertyOp31
 70
     1
102
RTVSPropertyOp32
 70
     1
102
RTVSPropertyOp33
 70
     1
102
RTVSPropertyOp34
 70
     1
102
RTVSPropertyOp35
 70
     1
102
RTVSPropertyOp36
 70
     1
102
RTVSPropertyOp37
 70
     1
102
RTVSPropertyOp38
 70
     1
102
RTVSPropertyOp39
 70
     1
102
RTVSPropertyOp40
 70
     1
102
RTVSPropertyOp41
 70
     1
102
RTVSPropertyOp42
 70
     1
102
RTVSPropertyOp43
 70
     1
102
RTVSPropertyOp44
 70
     1
102
RTVSPropertyOp45
 70
     1
102
RTVSPropertyOp46
 70
     1
102
RTVSPropertyOp47
 70
     1
102
RTVSPropertyOp48
 70
     1
102
RTVSPropertyOp49
 70
     1
102
RTVSPropertyOp50
 70
     1
102
RTVSPropertyOp51
 70
     0
102
RTVSPropertyOp52
 70
     0
102
RTVSPropertyOp53
 70
     1
102
RTVSPropertyOp54
 70
     1
102
RTVSPropertyOp55
 70
     1
102
RTVSPropertyOp56
 70
     1
102
RTVSPropertyOp57
 70
     1
102
RTVSPost2010Prop28
280
     0
102
RTVSPost2010PropOp28
 70
     1
102
RTVSPost2010Prop29
280
     1
102
RTVSPost2010PropOp29
 70
     1
102
RTVSPost2010Prop30
280
     1
102
RTVSPost2010PropOp30
 70
     1
102
RTVSPost2010Prop31
280
     0
102
RTVSPost2010PropOp31
 70
     1
102
RTVSPost2010Prop32
280
     0
102
RTVSPost2010PropOp32
 70
     1
102
RTVSPost2010Prop33
280
     0
102
RTVSPost2010PropOp33
 70
     1
102
RTVSPost2010Prop34
280
     0
102
RTVSPost2010PropOp34
 70
     1
102
RTVSPost2010Prop35
280
     0
102
RTVSPost2010PropOp35
 70
     1
102
RTVSPost2010Prop36
280
     0
102
RTVSPost2010PropOp36
 70
     1
102
RTVSPost2010Prop37
 90
       50
102
RTVSPost2010PropOp37
 70
     1
102
RTVSPost2010Prop38
140
0.0
102
RTVSPost2010PropOp38
 70
     1
102
RTVSPost2010Prop39
140
1.0
102
RTVSPost2010PropOp39
 70
     1
102
RTVSPost2010Prop40
 90
        0
102
RTVSPost2010PropOp40
 70
     1
102
RTVSPost2010Prop41ColorIndex
 90
       18
102
RTVSPost2010Prop41ColorRGB
 90
        0
102
RTVSPost2010PropOp41
 70
     1
102
RTVSPost2010Prop42
 90
       50
102
RTVSPost2010PropOp42
 70
     1
102
RTVSPost2010Prop43
 90
        3
102
RTVSPost2010PropOp43
 70
     1
102
RTVSPost2010Prop44ColorIndex
 90
        5
102
RTVSPost2010Prop44ColorRGB
 90
      255
102
RTVSPost2010PropOp44
 70
     1
102
RTVSPost2010Prop45
280
     0
102
RTVSPost2010PropOp45
 70
     1
102
RTVSPost2010Prop46
 90
       50
102
RTVSPost2010PropOp46
 70
     1
102
RTVSPost2010Prop47
 90
       50
102
RTVSPost2010PropOp47
 70
     1
102
RTVSPost2010Prop48
 90
       50
102
RTVSPost2010PropOp48
 70
     1
102
RTVSPost2010Prop49
280
     0
102
RTVSPost2010PropOp49
 70
     1
102
RTVSPost2010Prop50
 90
       50
102
RTVSPost2010PropOp50
 70
     1
102
RTVSPost2010Prop51ColorIndex
 90
      256
102
RTVSPost2010Prop51ColorRGB
 90
-16777216
102
RTVSPost2010PropOp51
 70
     0
102
RTVSPost2010Prop52
140
1.0
102
RTVSPost2010PropOp52
 70
     0
102
RTVSPost2010Prop53
 90
        2
102
RTVSPost2010PropOp53
 70
     1
102
RTVSPost2010Prop54
  1
strokes_ogs.tif
102
RTVSPost2010PropOp54
 70
     1
102
RTVSPost2010Prop55
280
     0
102
RTVSPost2010PropOp55
 70
     1
102
RTVSPost2010Prop56
140
1.0
102
RTVSPost2010PropOp56
 70
     1
102
RTVSPost2010Prop57
140
1.0
102
RTVSPost2010PropOp57
 70
     1
  0
XRECORD
  5
2E3
102
{ACAD_REACTORS
330
2E2
102
}
330
2E2
100
AcDbXrecord
280
     1
102
RTVSPropertyOp0
 70
     1
102
RTVSPropertyOp1
 70
     1
102
RTVSPropertyOp2
 70
     1
102
RTVSPropertyOp3
 70
     1
102
RTVSPropertyOp4
 70
     1
102
RTVSPropertyOp5
 70
     1
102
RTVSPropertyOp6
 70
     1
102
RTVSPropertyOp7
 70
     1
102
RTVSPropertyOp8
 70
     1
102
RTVSPropertyOp9
 70
     1
102
RTVSPropertyOp10
 70
     1
102
RTVSPropertyOp11
 70
     1
102
RTVSPropertyOp12
 70
     1
102
RTVSPropertyOp13
 70
     1
102
RTVSPropertyOp14
 70
     1
102
RTVSPropertyOp15
 70
     1
102
RTVSPropertyOp16
 70
     1
102
RTVSPropertyOp17
 70
     1
102
RTVSPropertyOp18
 70
     1
102
RTVSPropertyOp19
 70
     1
102
RTVSPropertyOp20
 70
     1
102
RTVSPropertyOp21
 70
     1
102
RTVSPropertyOp22
 70
     1
102
RTVSPropertyOp23
 70
     1
102
RTVSPropertyOp24
 70
     1
102
RTVSPropertyOp25
 70
     1
102
RTVSPropertyOp26
 70
     1
102
RTVSPropertyOp27
 70
     1
102
RTVSPropertyOp28
 70
     1
102
RTVSPropertyOp29
 70
     1
102
RTVSPropertyOp30
 70
     1
102
RTVSPropertyOp31
 70
     1
102
RTVSPropertyOp32
 70
     1
102
RTVSPropertyOp33
 70
     1
102
RTVSPropertyOp34
 70
     1
102
RTVSPropertyOp35
 70
     1
102
RTVSPropertyOp36
 70
     1
102
RTVSPropertyOp37
 70
     1
102
RTVSPropertyOp38
 70
     1
102
RTVSPropertyOp39
 70
     1
102
RTVSPropertyOp40
 70
     1
102
RTVSPropertyOp41
 70
     1
102
RTVSPropertyOp42
 70
     1
102
RTVSPropertyOp43
 70
     1
102
RTVSPropertyOp44
 70
     1
102
RTVSPropertyOp45
 70
     1
102
RTVSPropertyOp46
 70
     1
102
RTVSPropertyOp47
 70
     1
102
RTVSPropertyOp48
 70
     1
102
RTVSPropertyOp49
 70
     1
102
RTVSPropertyOp50
 70
     1
102
RTVSPropertyOp51
 70
     0
102
RTVSPropertyOp52
 70
     0
102
RTVSPropertyOp53
 70
     1
102
RTVSPropertyOp54
 70
     1
102
RTVSPropertyOp55
 70
     1
102
RTVSPropertyOp56
 70
     1
102
RTVSPropertyOp57
 70
     1
102
RTVSPost2010Prop28
280
     0
102
RTVSPost2010PropOp28
 70
     1
102
RTVSPost2010Prop29
280
     1
102
RTVSPost2010PropOp29
 70
     1
102
RTVSPost2010Prop30
280
     1
102
RTVSPost2010PropOp30
 70
     1
102
RTVSPost2010Prop31
280
     0
102
RTVSPost2010PropOp31
 70
     1
102
RTVSPost2010Prop32
280
     0
102
RTVSPost2010PropOp32
 70
     1
102
RTVSPost2010Prop33
280
     0
102
RTVSPost2010PropOp33
 70
     1
102
RTVSPost2010Prop34
280
     0
102
RTVSPost2010PropOp34
 70
     1
102
RTVSPost2010Prop35
280
     0
102
RTVSPost2010PropOp35
 70
     1
102
RTVSPost2010Prop36
280
     0
102
RTVSPost2010PropOp36
 70
     1
102
RTVSPost2010Prop37
 90
       50
102
RTVSPost2010PropOp37
 70
     1
102
RTVSPost2010Prop38
140
0.0
102
RTVSPost2010PropOp38
 70
     1
102
RTVSPost2010Prop39
140
1.0
102
RTVSPost2010PropOp39
 70
     1
102
RTVSPost2010Prop40
 90
        0
102
RTVSPost2010PropOp40
 70
     1
102
RTVSPost2010Prop41ColorIndex
 90
       18
102
RTVSPost2010Prop41ColorRGB
 90
        0
102
RTVSPost2010PropOp41
 70
     1
102
RTVSPost2010Prop42
 90
       50
102
RTVSPost2010PropOp42
 70
     1
102
RTVSPost2010Prop43
 90
        3
102
RTVSPost2010PropOp43
 70
     1
102
RTVSPost2010Prop44ColorIndex
 90
        5
102
RTVSPost2010Prop44ColorRGB
 90
      255
102
RTVSPost2010PropOp44
 70
     1
102
RTVSPost2010Prop45
280
     0
102
RTVSPost2010PropOp45
 70
     1
102
RTVSPost2010Prop46
 90
       50
102
RTVSPost2010PropOp46
 70
     1
102
RTVSPost2010Prop47
 90
       50
102
RTVSPost2010PropOp47
 70
     1
102
RTVSPost2010Prop48
 90
       50
102
RTVSPost2010PropOp48
 70
     1
102
RTVSPost2010Prop49
280
     0
102
RTVSPost2010PropOp49
 70
     1
102
RTVSPost2010Prop50
 90
       50
102
RTVSPost2010PropOp50
 70
     1
102
RTVSPost2010Prop51ColorIndex
 90
      256
102
RTVSPost2010Prop51ColorRGB
 90
-16777216
102
RTVSPost2010PropOp51
 70
     0
102
RTVSPost2010Prop52
140
1.0
102
RTVSPost2010PropOp52
 70
     0
102
RTVSPost2010Prop53
 90
        2
102
RTVSPost2010PropOp53
 70
     1
102
RTVSPost2010Prop54
  1
strokes_ogs.tif
102
RTVSPost2010PropOp54
 70
     1
102
RTVSPost2010Prop55
280
     0
102
RTVSPost2010PropOp55
 70
     1
102
RTVSPost2010Prop56
140
1.0
102
RTVSPost2010PropOp56
 70
     1
102
RTVSPost2010Prop57
140
1.0
102
RTVSPost2010PropOp57
 70
     1
  0
XRECORD
  5
2F7
102
{ACAD_REACTORS
330
2F6
102
}
330
2F6
100
AcDbXrecord
280
     1
102
RTVSPropertyOp0
 70
     0
102
RTVSPropertyOp1
 70
     0
102
RTVSPropertyOp2
 70
     0
102
RTVSPropertyOp3
 70
     0
102
RTVSPropertyOp4
 70
     0
102
RTVSPropertyOp5
 70
     0
102
RTVSPropertyOp6
 70
     0
102
RTVSPropertyOp7
 70
     0
102
RTVSPropertyOp8
 70
     0
102
RTVSPropertyOp9
 70
     0
102
RTVSPropertyOp10
 70
     0
102
RTVSPropertyOp11
 70
     0
102
RTVSPropertyOp12
 70
     0
102
RTVSPropertyOp13
 70
     0
102
RTVSPropertyOp14
 70
     2
102
RTVSPropertyOp15
 70
     0
102
RTVSPropertyOp16
 70
     0
102
RTVSPropertyOp17
 70
     0
102
RTVSPropertyOp18
 70
     0
102
RTVSPropertyOp19
 70
     0
102
RTVSPropertyOp20
 70
     0
102
RTVSPropertyOp21
 70
     0
102
RTVSPropertyOp22
 70
     0
102
RTVSPropertyOp23
 70
     0
102
RTVSPropertyOp24
 70
     0
102
RTVSPropertyOp25
 70
     0
102
RTVSPropertyOp26
 70
     0
102
RTVSPropertyOp27
 70
     0
102
RTVSPropertyOp28
 70
     0
102
RTVSPropertyOp29
 70
     0
102
RTVSPropertyOp30
 70
     0
102
RTVSPropertyOp31
 70
     0
102
RTVSPropertyOp32
 70
     0
102
RTVSPropertyOp33
 70
     0
102
RTVSPropertyOp34
 70
     0
102
RTVSPropertyOp35
 70
     0
102
RTVSPropertyOp36
 70
     0
102
RTVSPropertyOp37
 70
     0
102
RTVSPropertyOp38
 70
     0
102
RTVSPropertyOp39
 70
     0
102
RTVSPropertyOp40
 70
     0
102
RTVSPropertyOp41
 70
     0
102
RTVSPropertyOp42
 70
     0
102
RTVSPropertyOp43
 70
     0
102
RTVSPropertyOp44
 70
     0
102
RTVSPropertyOp45
 70
     0
102
RTVSPropertyOp46
 70
     0
102
RTVSPropertyOp47
 70
     0
102
RTVSPropertyOp48
 70
     0
102
RTVSPropertyOp49
 70
     0
102
RTVSPropertyOp50
 70
     0
102
RTVSPropertyOp51
 70
     0
102
RTVSPropertyOp52
 70
     0
102
RTVSPropertyOp53
 70
     0
102
RTVSPropertyOp54
 70
     0
102
RTVSPropertyOp55
 70
     0
102
RTVSPropertyOp56
 70
     0
102
RTVSPropertyOp57
 70
     0
102
RTVSPost2010Prop28
280
     0
102
RTVSPost2010PropOp28
 70
     0
102
RTVSPost2010Prop29
280
     1
102
RTVSPost2010PropOp29
 70
     0
102
RTVSPost2010Prop30
280
     1
102
RTVSPost2010PropOp30
 70
     0
102
RTVSPost2010Prop31
280
     0
102
RTVSPost2010PropOp31
 70
     0
102
RTVSPost2010Prop32
280
     0
102
RTVSPost2010PropOp32
 70
     0
102
RTVSPost2010Prop33
280
     0
102
RTVSPost2010PropOp33
 70
     0
102
RTVSPost2010Prop34
280
     0
102
RTVSPost2010PropOp34
 70
     0
102
RTVSPost2010Prop35
280
     0
102
RTVSPost2010PropOp35
 70
     0
102
RTVSPost2010Prop36
280
     0
102
RTVSPost2010PropOp36
 70
     0
102
RTVSPost2010Prop37
 90
       50
102
RTVSPost2010PropOp37
 70
     0
102
RTVSPost2010Prop38
140
0.0
102
RTVSPost2010PropOp38
 70
     0
102
RTVSPost2010Prop39
140
1.0
102
RTVSPost2010PropOp39
 70
     0
102
RTVSPost2010Prop40
 90
        0
102
RTVSPost2010PropOp40
 70
     0
102
RTVSPost2010Prop41ColorIndex
 90
       18
102
RTVSPost2010Prop41ColorRGB
 90
        0
102
RTVSPost2010PropOp41
 70
     0
102
RTVSPost2010Prop42
 90
       50
102
RTVSPost2010PropOp42
 70
     0
102
RTVSPost2010Prop43
 90
        3
102
RTVSPost2010PropOp43
 70
     0
102
RTVSPost2010Prop44ColorIndex
 90
        5
102
RTVSPost2010Prop44ColorRGB
 90
      255
102
RTVSPost2010PropOp44
 70
     0
102
RTVSPost2010Prop45
280
     0
102
RTVSPost2010PropOp45
 70
     0
102
RTVSPost2010Prop46
 90
       50
102
RTVSPost2010PropOp46
 70
     0
102
RTVSPost2010Prop47
 90
       50
102
RTVSPost2010PropOp47
 70
     0
102
RTVSPost2010Prop48
 90
       50
102
RTVSPost2010PropOp48
 70
     0
102
RTVSPost2010Prop49
280
     0
102
RTVSPost2010PropOp49
 70
     0
102
RTVSPost2010Prop50
 90
       50
102
RTVSPost2010PropOp50
 70
     0
102
RTVSPost2010Prop51ColorIndex
 90
      256
102
RTVSPost2010Prop51ColorRGB
 90
-16777216
102
RTVSPost2010PropOp51
 70
     0
102
RTVSPost2010Prop52
140
1.0
102
RTVSPost2010PropOp52
 70
     0
102
RTVSPost2010Prop53
 90
        2
102
RTVSPost2010PropOp53
 70
     0
102
RTVSPost2010Prop54
  1
strokes_ogs.tif
102
RTVSPost2010PropOp54
 70
     0
102
RTVSPost2010Prop55
280
     0
102
RTVSPost2010PropOp55
 70
     0
102
RTVSPost2010Prop56
140
1.0
102
RTVSPost2010PropOp56
 70
     0
102
RTVSPost2010Prop57
140
1.0
102
RTVSPost2010PropOp57
 70
     0
  0
XRECORD
  5
2F1
102
{ACAD_REACTORS
330
2F0
102
}
330
2F0
100
AcDbXrecord
280
     1
102
RTVSPropertyOp0
 70
     1
102
RTVSPropertyOp1
 70
     1
102
RTVSPropertyOp2
 70
     1
102
RTVSPropertyOp3
 70
     1
102
RTVSPropertyOp4
 70
     1
102
RTVSPropertyOp5
 70
     1
102
RTVSPropertyOp6
 70
     1
102
RTVSPropertyOp7
 70
     1
102
RTVSPropertyOp8
 70
     1
102
RTVSPropertyOp9
 70
     1
102
RTVSPropertyOp10
 70
     1
102
RTVSPropertyOp11
 70
     1
102
RTVSPropertyOp12
 70
     1
102
RTVSPropertyOp13
 70
     1
102
RTVSPropertyOp14
 70
     1
102
RTVSPropertyOp15
 70
     1
102
RTVSPropertyOp16
 70
     1
102
RTVSPropertyOp17
 70
     1
102
RTVSPropertyOp18
 70
     1
102
RTVSPropertyOp19
 70
     1
102
RTVSPropertyOp20
 70
     1
102
RTVSPropertyOp21
 70
     1
102
RTVSPropertyOp22
 70
     1
102
RTVSPropertyOp23
 70
     1
102
RTVSPropertyOp24
 70
     1
102
RTVSPropertyOp25
 70
     1
102
RTVSPropertyOp26
 70
     1
102
RTVSPropertyOp27
 70
     1
102
RTVSPropertyOp28
 70
     1
102
RTVSPropertyOp29
 70
     1
102
RTVSPropertyOp30
 70
     1
102
RTVSPropertyOp31
 70
     1
102
RTVSPropertyOp32
 70
     1
102
RTVSPropertyOp33
 70
     1
102
RTVSPropertyOp34
 70
     1
102
RTVSPropertyOp35
 70
     1
102
RTVSPropertyOp36
 70
     1
102
RTVSPropertyOp37
 70
     1
102
RTVSPropertyOp38
 70
     1
102
RTVSPropertyOp39
 70
     1
102
RTVSPropertyOp40
 70
     1
102
RTVSPropertyOp41
 70
     1
102
RTVSPropertyOp42
 70
     1
102
RTVSPropertyOp43
 70
     1
102
RTVSPropertyOp44
 70
     1
102
RTVSPropertyOp45
 70
     1
102
RTVSPropertyOp46
 70
     1
102
RTVSPropertyOp47
 70
     1
102
RTVSPropertyOp48
 70
     1
102
RTVSPropertyOp49
 70
     1
102
RTVSPropertyOp50
 70
     1
102
RTVSPropertyOp51
 70
     0
102
RTVSPropertyOp52
 70
     0
102
RTVSPropertyOp53
 70
     1
102
RTVSPropertyOp54
 70
     1
102
RTVSPropertyOp55
 70
     1
102
RTVSPropertyOp56
 70
     1
102
RTVSPropertyOp57
 70
     1
102
RTVSPost2010Prop28
280
     0
102
RTVSPost2010PropOp28
 70
     1
102
RTVSPost2010Prop29
280
     1
102
RTVSPost2010PropOp29
 70
     1
102
RTVSPost2010Prop30
280
     1
102
RTVSPost2010PropOp30
 70
     1
102
RTVSPost2010Prop31
280
     0
102
RTVSPost2010PropOp31
 70
     1
102
RTVSPost2010Prop32
280
     0
102
RTVSPost2010PropOp32
 70
     1
102
RTVSPost2010Prop33
280
     0
102
RTVSPost2010PropOp33
 70
     1
102
RTVSPost2010Prop34
280
     0
102
RTVSPost2010PropOp34
 70
     1
102
RTVSPost2010Prop35
280
     0
102
RTVSPost2010PropOp35
 70
     1
102
RTVSPost2010Prop36
280
     0
102
RTVSPost2010PropOp36
 70
     1
102
RTVSPost2010Prop37
 90
       50
102
RTVSPost2010PropOp37
 70
     1
102
RTVSPost2010Prop38
140
0.0
102
RTVSPost2010PropOp38
 70
     1
102
RTVSPost2010Prop39
140
1.0
102
RTVSPost2010PropOp39
 70
     1
102
RTVSPost2010Prop40
 90
        0
102
RTVSPost2010PropOp40
 70
     1
102
RTVSPost2010Prop41ColorIndex
 90
       18
102
RTVSPost2010Prop41ColorRGB
 90
        0
102
RTVSPost2010PropOp41
 70
     1
102
RTVSPost2010Prop42
 90
       50
102
RTVSPost2010PropOp42
 70
     1
102
RTVSPost2010Prop43
 90
        3
102
RTVSPost2010PropOp43
 70
     1
102
RTVSPost2010Prop44ColorIndex
 90
        5
102
RTVSPost2010Prop44ColorRGB
 90
      255
102
RTVSPost2010PropOp44
 70
     1
102
RTVSPost2010Prop45
280
     0
102
RTVSPost2010PropOp45
 70
     1
102
RTVSPost2010Prop46
 90
       50
102
RTVSPost2010PropOp46
 70
     1
102
RTVSPost2010Prop47
 90
       50
102
RTVSPost2010PropOp47
 70
     1
102
RTVSPost2010Prop48
 90
       50
102
RTVSPost2010PropOp48
 70
     1
102
RTVSPost2010Prop49
280
     0
102
RTVSPost2010PropOp49
 70
     1
102
RTVSPost2010Prop50
 90
       50
102
RTVSPost2010PropOp50
 70
     1
102
RTVSPost2010Prop51ColorIndex
 90
      256
102
RTVSPost2010Prop51ColorRGB
 90
-16777216
102
RTVSPost2010PropOp51
 70
     0
102
RTVSPost2010Prop52
140
1.0
102
RTVSPost2010PropOp52
 70
     0
102
RTVSPost2010Prop53
 90
        2
102
RTVSPost2010PropOp53
 70
     1
102
RTVSPost2010Prop54
  1
strokes_ogs.tif
102
RTVSPost2010PropOp54
 70
     1
102
RTVSPost2010Prop55
280
     0
102
RTVSPost2010PropOp55
 70
     1
102
RTVSPost2010Prop56
140
1.0
102
RTVSPost2010PropOp56
 70
     1
102
RTVSPost2010Prop57
140
1.0
102
RTVSPost2010PropOp57
 70
     1
  0
XRECORD
  5
2F9
102
{ACAD_REACTORS
330
2F8
102
}
330
2F8
100
AcDbXrecord
280
     1
102
RTVSPropertyOp0
 70
     0
102
RTVSPropertyOp1
 70
     0
102
RTVSPropertyOp2
 70
     0
102
RTVSPropertyOp3
 70
     0
102
RTVSPropertyOp4
 70
     0
102
RTVSPropertyOp5
 70
     0
102
RTVSPropertyOp6
 70
     0
102
RTVSPropertyOp7
 70
     0
102
RTVSPropertyOp8
 70
     0
102
RTVSPropertyOp9
 70
     0
102
RTVSPropertyOp10
 70
     0
102
RTVSPropertyOp11
 70
     0
102
RTVSPropertyOp12
 70
     0
102
RTVSPropertyOp13
 70
     0
102
RTVSPropertyOp14
 70
     2
102
RTVSPropertyOp15
 70
     0
102
RTVSPropertyOp16
 70
     0
102
RTVSPropertyOp17
 70
     0
102
RTVSPropertyOp18
 70
     0
102
RTVSPropertyOp19
 70
     0
102
RTVSPropertyOp20
 70
     0
102
RTVSPropertyOp21
 70
     0
102
RTVSPropertyOp22
 70
     0
102
RTVSPropertyOp23
 70
     0
102
RTVSPropertyOp24
 70
     0
102
RTVSPropertyOp25
 70
     0
102
RTVSPropertyOp26
 70
     0
102
RTVSPropertyOp27
 70
     0
102
RTVSPropertyOp28
 70
     0
102
RTVSPropertyOp29
 70
     0
102
RTVSPropertyOp30
 70
     0
102
RTVSPropertyOp31
 70
     0
102
RTVSPropertyOp32
 70
     0
102
RTVSPropertyOp33
 70
     0
102
RTVSPropertyOp34
 70
     0
102
RTVSPropertyOp35
 70
     0
102
RTVSPropertyOp36
 70
     0
102
RTVSPropertyOp37
 70
     0
102
RTVSPropertyOp38
 70
     0
102
RTVSPropertyOp39
 70
     0
102
RTVSPropertyOp40
 70
     0
102
RTVSPropertyOp41
 70
     0
102
RTVSPropertyOp42
 70
     0
102
RTVSPropertyOp43
 70
     0
102
RTVSPropertyOp44
 70
     0
102
RTVSPropertyOp45
 70
     0
102
RTVSPropertyOp46
 70
     0
102
RTVSPropertyOp47
 70
     0
102
RTVSPropertyOp48
 70
     0
102
RTVSPropertyOp49
 70
     0
102
RTVSPropertyOp50
 70
     0
102
RTVSPropertyOp51
 70
     0
102
RTVSPropertyOp52
 70
     0
102
RTVSPropertyOp53
 70
     0
102
RTVSPropertyOp54
 70
     0
102
RTVSPropertyOp55
 70
     0
102
RTVSPropertyOp56
 70
     0
102
RTVSPropertyOp57
 70
     0
102
RTVSPost2010Prop28
280
     0
102
RTVSPost2010PropOp28
 70
     0
102
RTVSPost2010Prop29
280
     1
102
RTVSPost2010PropOp29
 70
     0
102
RTVSPost2010Prop30
280
     1
102
RTVSPost2010PropOp30
 70
     0
102
RTVSPost2010Prop31
280
     0
102
RTVSPost2010PropOp31
 70
     0
102
RTVSPost2010Prop32
280
     0
102
RTVSPost2010PropOp32
 70
     0
102
RTVSPost2010Prop33
280
     0
102
RTVSPost2010PropOp33
 70
     0
102
RTVSPost2010Prop34
280
     0
102
RTVSPost2010PropOp34
 70
     0
102
RTVSPost2010Prop35
280
     0
102
RTVSPost2010PropOp35
 70
     0
102
RTVSPost2010Prop36
280
     0
102
RTVSPost2010PropOp36
 70
     0
102
RTVSPost2010Prop37
 90
       50
102
RTVSPost2010PropOp37
 70
     0
102
RTVSPost2010Prop38
140
0.0
102
RTVSPost2010PropOp38
 70
     0
102
RTVSPost2010Prop39
140
1.0
102
RTVSPost2010PropOp39
 70
     0
102
RTVSPost2010Prop40
 90
        0
102
RTVSPost2010PropOp40
 70
     0
102
RTVSPost2010Prop41ColorIndex
 90
       18
102
RTVSPost2010Prop41ColorRGB
 90
        0
102
RTVSPost2010PropOp41
 70
     0
102
RTVSPost2010Prop42
 90
       50
102
RTVSPost2010PropOp42
 70
     0
102
RTVSPost2010Prop43
 90
        3
102
RTVSPost2010PropOp43
 70
     0
102
RTVSPost2010Prop44ColorIndex
 90
        5
102
RTVSPost2010Prop44ColorRGB
 90
      255
102
RTVSPost2010PropOp44
 70
     0
102
RTVSPost2010Prop45
280
     0
102
RTVSPost2010PropOp45
 70
     0
102
RTVSPost2010Prop46
 90
       50
102
RTVSPost2010PropOp46
 70
     0
102
RTVSPost2010Prop47
 90
       50
102
RTVSPost2010PropOp47
 70
     0
102
RTVSPost2010Prop48
 90
       50
102
RTVSPost2010PropOp48
 70
     0
102
RTVSPost2010Prop49
280
     0
102
RTVSPost2010PropOp49
 70
     0
102
RTVSPost2010Prop50
 90
       50
102
RTVSPost2010PropOp50
 70
     0
102
RTVSPost2010Prop51ColorIndex
 90
      256
102
RTVSPost2010Prop51ColorRGB
 90
-16777216
102
RTVSPost2010PropOp51
 70
     0
102
RTVSPost2010Prop52
140
1.0
102
RTVSPost2010PropOp52
 70
     0
102
RTVSPost2010Prop53
 90
        2
102
RTVSPost2010PropOp53
 70
     0
102
RTVSPost2010Prop54
  1
strokes_ogs.tif
102
RTVSPost2010PropOp54
 70
     0
102
RTVSPost2010Prop55
280
     0
102
RTVSPost2010PropOp55
 70
     0
102
RTVSPost2010Prop56
140
1.0
102
RTVSPost2010PropOp56
 70
     0
102
RTVSPost2010Prop57
140
1.0
102
RTVSPost2010PropOp57
 70
     0
  0
XRECORD
  5
2E7
102
{ACAD_REACTORS
330
2E6
102
}
330
2E6
100
AcDbXrecord
280
     1
102
RTVSPropertyOp0
 70
     1
102
RTVSPropertyOp1
 70
     1
102
RTVSPropertyOp2
 70
     1
102
RTVSPropertyOp3
 70
     1
102
RTVSPropertyOp4
 70
     1
102
RTVSPropertyOp5
 70
     1
102
RTVSPropertyOp6
 70
     1
102
RTVSPropertyOp7
 70
     1
102
RTVSPropertyOp8
 70
     1
102
RTVSPropertyOp9
 70
     1
102
RTVSPropertyOp10
 70
     1
102
RTVSPropertyOp11
 70
     1
102
RTVSPropertyOp12
 70
     1
102
RTVSPropertyOp13
 70
     1
102
RTVSPropertyOp14
 70
     1
102
RTVSPropertyOp15
 70
     1
102
RTVSPropertyOp16
 70
     1
102
RTVSPropertyOp17
 70
     1
102
RTVSPropertyOp18
 70
     1
102
RTVSPropertyOp19
 70
     1
102
RTVSPropertyOp20
 70
     1
102
RTVSPropertyOp21
 70
     1
102
RTVSPropertyOp22
 70
     1
102
RTVSPropertyOp23
 70
     1
102
RTVSPropertyOp24
 70
     1
102
RTVSPropertyOp25
 70
     1
102
RTVSPropertyOp26
 70
     1
102
RTVSPropertyOp27
 70
     1
102
RTVSPropertyOp28
 70
     1
102
RTVSPropertyOp29
 70
     1
102
RTVSPropertyOp30
 70
     1
102
RTVSPropertyOp31
 70
     1
102
RTVSPropertyOp32
 70
     1
102
RTVSPropertyOp33
 70
     1
102
RTVSPropertyOp34
 70
     1
102
RTVSPropertyOp35
 70
     1
102
RTVSPropertyOp36
 70
     1
102
RTVSPropertyOp37
 70
     1
102
RTVSPropertyOp38
 70
     1
102
RTVSPropertyOp39
 70
     1
102
RTVSPropertyOp40
 70
     1
102
RTVSPropertyOp41
 70
     1
102
RTVSPropertyOp42
 70
     1
102
RTVSPropertyOp43
 70
     1
102
RTVSPropertyOp44
 70
     1
102
RTVSPropertyOp45
 70
     1
102
RTVSPropertyOp46
 70
     1
102
RTVSPropertyOp47
 70
     1
102
RTVSPropertyOp48
 70
     1
102
RTVSPropertyOp49
 70
     1
102
RTVSPropertyOp50
 70
     1
102
RTVSPropertyOp51
 70
     0
102
RTVSPropertyOp52
 70
     0
102
RTVSPropertyOp53
 70
     1
102
RTVSPropertyOp54
 70
     1
102
RTVSPropertyOp55
 70
     1
102
RTVSPropertyOp56
 70
     1
102
RTVSPropertyOp57
 70
     1
102
RTVSPost2010Prop28
280
     0
102
RTVSPost2010PropOp28
 70
     1
102
RTVSPost2010Prop29
280
     1
102
RTVSPost2010PropOp29
 70
     1
102
RTVSPost2010Prop30
280
     1
102
RTVSPost2010PropOp30
 70
     1
102
RTVSPost2010Prop31
280
     0
102
RTVSPost2010PropOp31
 70
     1
102
RTVSPost2010Prop32
280
     0
102
RTVSPost2010PropOp32
 70
     1
102
RTVSPost2010Prop33
280
     0
102
RTVSPost2010PropOp33
 70
     1
102
RTVSPost2010Prop34
280
     0
102
RTVSPost2010PropOp34
 70
     1
102
RTVSPost2010Prop35
280
     0
102
RTVSPost2010PropOp35
 70
     1
102
RTVSPost2010Prop36
280
     0
102
RTVSPost2010PropOp36
 70
     1
102
RTVSPost2010Prop37
 90
       50
102
RTVSPost2010PropOp37
 70
     1
102
RTVSPost2010Prop38
140
0.0
102
RTVSPost2010PropOp38
 70
     1
102
RTVSPost2010Prop39
140
1.0
102
RTVSPost2010PropOp39
 70
     1
102
RTVSPost2010Prop40
 90
        0
102
RTVSPost2010PropOp40
 70
     1
102
RTVSPost2010Prop41ColorIndex
 90
       18
102
RTVSPost2010Prop41ColorRGB
 90
        0
102
RTVSPost2010PropOp41
 70
     1
102
RTVSPost2010Prop42
 90
       50
102
RTVSPost2010PropOp42
 70
     1
102
RTVSPost2010Prop43
 90
        3
102
RTVSPost2010PropOp43
 70
     1
102
RTVSPost2010Prop44ColorIndex
 90
        5
102
RTVSPost2010Prop44ColorRGB
 90
      255
102
RTVSPost2010PropOp44
 70
     1
102
RTVSPost2010Prop45
280
     0
102
RTVSPost2010PropOp45
 70
     1
102
RTVSPost2010Prop46
 90
       50
102
RTVSPost2010PropOp46
 70
     1
102
RTVSPost2010Prop47
 90
       50
102
RTVSPost2010PropOp47
 70
     1
102
RTVSPost2010Prop48
 90
       50
102
RTVSPost2010PropOp48
 70
     1
102
RTVSPost2010Prop49
280
     0
102
RTVSPost2010PropOp49
 70
     1
102
RTVSPost2010Prop50
 90
       50
102
RTVSPost2010PropOp50
 70
     1
102
RTVSPost2010Prop51ColorIndex
 90
      256
102
RTVSPost2010Prop51ColorRGB
 90
-16777216
102
RTVSPost2010PropOp51
 70
     0
102
RTVSPost2010Prop52
140
1.0
102
RTVSPost2010PropOp52
 70
     0
102
RTVSPost2010Prop53
 90
        2
102
RTVSPost2010PropOp53
 70
     1
102
RTVSPost2010Prop54
  1
strokes_ogs.tif
102
RTVSPost2010PropOp54
 70
     1
102
RTVSPost2010Prop55
280
     0
102
RTVSPost2010PropOp55
 70
     1
102
RTVSPost2010Prop56
140
1.0
102
RTVSPost2010PropOp56
 70
     1
102
RTVSPost2010Prop57
140
1.0
102
RTVSPost2010PropOp57
 70
     1
  0
XRECORD
  5
305
102
{ACAD_REACTORS
330
304
102
}
330
304
100
AcDbXrecord
280
     1
102
RTVSPropertyOp0
 70
     1
102
RTVSPropertyOp1
 70
     1
102
RTVSPropertyOp2
 70
     1
102
RTVSPropertyOp3
 70
     1
102
RTVSPropertyOp4
 70
     1
102
RTVSPropertyOp5
 70
     1
102
RTVSPropertyOp6
 70
     1
102
RTVSPropertyOp7
 70
     1
102
RTVSPropertyOp8
 70
     1
102
RTVSPropertyOp9
 70
     1
102
RTVSPropertyOp10
 70
     1
102
RTVSPropertyOp11
 70
     1
102
RTVSPropertyOp12
 70
     1
102
RTVSPropertyOp13
 70
     1
102
RTVSPropertyOp14
 70
     1
102
RTVSPropertyOp15
 70
     1
102
RTVSPropertyOp16
 70
     1
102
RTVSPropertyOp17
 70
     1
102
RTVSPropertyOp18
 70
     1
102
RTVSPropertyOp19
 70
     1
102
RTVSPropertyOp20
 70
     1
102
RTVSPropertyOp21
 70
     1
102
RTVSPropertyOp22
 70
     1
102
RTVSPropertyOp23
 70
     1
102
RTVSPropertyOp24
 70
     1
102
RTVSPropertyOp25
 70
     1
102
RTVSPropertyOp26
 70
     1
102
RTVSPropertyOp27
 70
     1
102
RTVSPropertyOp28
 70
     1
102
RTVSPropertyOp29
 70
     1
102
RTVSPropertyOp30
 70
     1
102
RTVSPropertyOp31
 70
     1
102
RTVSPropertyOp32
 70
     1
102
RTVSPropertyOp33
 70
     1
102
RTVSPropertyOp34
 70
     1
102
RTVSPropertyOp35
 70
     1
102
RTVSPropertyOp36
 70
     1
102
RTVSPropertyOp37
 70
     1
102
RTVSPropertyOp38
 70
     1
102
RTVSPropertyOp39
 70
     1
102
RTVSPropertyOp40
 70
     1
102
RTVSPropertyOp41
 70
     1
102
RTVSPropertyOp42
 70
     1
102
RTVSPropertyOp43
 70
     1
102
RTVSPropertyOp44
 70
     1
102
RTVSPropertyOp45
 70
     1
102
RTVSPropertyOp46
 70
     1
102
RTVSPropertyOp47
 70
     1
102
RTVSPropertyOp48
 70
     1
102
RTVSPropertyOp49
 70
     1
102
RTVSPropertyOp50
 70
     1
102
RTVSPropertyOp51
 70
     0
102
RTVSPropertyOp52
 70
     0
102
RTVSPropertyOp53
 70
     1
102
RTVSPropertyOp54
 70
     1
102
RTVSPropertyOp55
 70
     1
102
RTVSPropertyOp56
 70
     1
102
RTVSPropertyOp57
 70
     1
102
RTVSPost2010Prop28
280
     0
102
RTVSPost2010PropOp28
 70
     1
102
RTVSPost2010Prop29
280
     1
102
RTVSPost2010PropOp29
 70
     1
102
RTVSPost2010Prop30
280
     1
102
RTVSPost2010PropOp30
 70
     1
102
RTVSPost2010Prop31
280
     0
102
RTVSPost2010PropOp31
 70
     1
102
RTVSPost2010Prop32
280
     0
102
RTVSPost2010PropOp32
 70
     1
102
RTVSPost2010Prop33
280
     0
102
RTVSPost2010PropOp33
 70
     1
102
RTVSPost2010Prop34
280
     0
102
RTVSPost2010PropOp34
 70
     1
102
RTVSPost2010Prop35
280
     0
102
RTVSPost2010PropOp35
 70
     1
102
RTVSPost2010Prop36
280
     0
102
RTVSPost2010PropOp36
 70
     1
102
RTVSPost2010Prop37
 90
       50
102
RTVSPost2010PropOp37
 70
     1
102
RTVSPost2010Prop38
140
0.0
102
RTVSPost2010PropOp38
 70
     1
102
RTVSPost2010Prop39
140
1.0
102
RTVSPost2010PropOp39
 70
     1
102
RTVSPost2010Prop40
 90
        0
102
RTVSPost2010PropOp40
 70
     1
102
RTVSPost2010Prop41ColorIndex
 90
       18
102
RTVSPost2010Prop41ColorRGB
 90
        0
102
RTVSPost2010PropOp41
 70
     1
102
RTVSPost2010Prop42
 90
       50
102
RTVSPost2010PropOp42
 70
     1
102
RTVSPost2010Prop43
 90
        3
102
RTVSPost2010PropOp43
 70
     1
102
RTVSPost2010Prop44ColorIndex
 90
        5
102
RTVSPost2010Prop44ColorRGB
 90
      255
102
RTVSPost2010PropOp44
 70
     1
102
RTVSPost2010Prop45
280
     0
102
RTVSPost2010PropOp45
 70
     1
102
RTVSPost2010Prop46
 90
       50
102
RTVSPost2010PropOp46
 70
     1
102
RTVSPost2010Prop47
 90
       50
102
RTVSPost2010PropOp47
 70
     1
102
RTVSPost2010Prop48
 90
       50
102
RTVSPost2010PropOp48
 70
     1
102
RTVSPost2010Prop49
280
     0
102
RTVSPost2010PropOp49
 70
     1
102
RTVSPost2010Prop50
 90
       50
102
RTVSPost2010PropOp50
 70
     1
102
RTVSPost2010Prop51ColorIndex
 90
      256
102
RTVSPost2010Prop51ColorRGB
 90
-16777216
102
RTVSPost2010PropOp51
 70
     0
102
RTVSPost2010Prop52
140
1.0
102
RTVSPost2010PropOp52
 70
     0
102
RTVSPost2010Prop53
 90
        2
102
RTVSPost2010PropOp53
 70
     1
102
RTVSPost2010Prop54
  1
strokes_ogs.tif
102
RTVSPost2010PropOp54
 70
     1
102
RTVSPost2010Prop55
280
     0
102
RTVSPost2010PropOp55
 70
     1
102
RTVSPost2010Prop56
140
1.0
102
RTVSPost2010PropOp56
 70
     1
102
RTVSPost2010Prop57
140
1.0
102
RTVSPost2010PropOp57
 70
     1
  0
XRECORD
  5
303
102
{ACAD_REACTORS
330
302
102
}
330
302
100
AcDbXrecord
280
     1
102
RTVSPropertyOp0
 70
     1
102
RTVSPropertyOp1
 70
     1
102
RTVSPropertyOp2
 70
     1
102
RTVSPropertyOp3
 70
     1
102
RTVSPropertyOp4
 70
     1
102
RTVSPropertyOp5
 70
     1
102
RTVSPropertyOp6
 70
     1
102
RTVSPropertyOp7
 70
     1
102
RTVSPropertyOp8
 70
     1
102
RTVSPropertyOp9
 70
     1
102
RTVSPropertyOp10
 70
     1
102
RTVSPropertyOp11
 70
     1
102
RTVSPropertyOp12
 70
     1
102
RTVSPropertyOp13
 70
     1
102
RTVSPropertyOp14
 70
     1
102
RTVSPropertyOp15
 70
     1
102
RTVSPropertyOp16
 70
     1
102
RTVSPropertyOp17
 70
     1
102
RTVSPropertyOp18
 70
     1
102
RTVSPropertyOp19
 70
     1
102
RTVSPropertyOp20
 70
     1
102
RTVSPropertyOp21
 70
     1
102
RTVSPropertyOp22
 70
     1
102
RTVSPropertyOp23
 70
     1
102
RTVSPropertyOp24
 70
     1
102
RTVSPropertyOp25
 70
     1
102
RTVSPropertyOp26
 70
     1
102
RTVSPropertyOp27
 70
     1
102
RTVSPropertyOp28
 70
     1
102
RTVSPropertyOp29
 70
     1
102
RTVSPropertyOp30
 70
     1
102
RTVSPropertyOp31
 70
     1
102
RTVSPropertyOp32
 70
     1
102
RTVSPropertyOp33
 70
     1
102
RTVSPropertyOp34
 70
     1
102
RTVSPropertyOp35
 70
     1
102
RTVSPropertyOp36
 70
     1
102
RTVSPropertyOp37
 70
     1
102
RTVSPropertyOp38
 70
     1
102
RTVSPropertyOp39
 70
     1
102
RTVSPropertyOp40
 70
     1
102
RTVSPropertyOp41
 70
     1
102
RTVSPropertyOp42
 70
     1
102
RTVSPropertyOp43
 70
     1
102
RTVSPropertyOp44
 70
     1
102
RTVSPropertyOp45
 70
     1
102
RTVSPropertyOp46
 70
     1
102
RTVSPropertyOp47
 70
     1
102
RTVSPropertyOp48
 70
     1
102
RTVSPropertyOp49
 70
     1
102
RTVSPropertyOp50
 70
     1
102
RTVSPropertyOp51
 70
     0
102
RTVSPropertyOp52
 70
     0
102
RTVSPropertyOp53
 70
     1
102
RTVSPropertyOp54
 70
     1
102
RTVSPropertyOp55
 70
     1
102
RTVSPropertyOp56
 70
     1
102
RTVSPropertyOp57
 70
     1
102
RTVSPost2010Prop28
280
     0
102
RTVSPost2010PropOp28
 70
     1
102
RTVSPost2010Prop29
280
     1
102
RTVSPost2010PropOp29
 70
     1
102
RTVSPost2010Prop30
280
     1
102
RTVSPost2010PropOp30
 70
     1
102
RTVSPost2010Prop31
280
     0
102
RTVSPost2010PropOp31
 70
     1
102
RTVSPost2010Prop32
280
     0
102
RTVSPost2010PropOp32
 70
     1
102
RTVSPost2010Prop33
280
     0
102
RTVSPost2010PropOp33
 70
     1
102
RTVSPost2010Prop34
280
     0
102
RTVSPost2010PropOp34
 70
     1
102
RTVSPost2010Prop35
280
     0
102
RTVSPost2010PropOp35
 70
     1
102
RTVSPost2010Prop36
280
     0
102
RTVSPost2010PropOp36
 70
     1
102
RTVSPost2010Prop37
 90
       50
102
RTVSPost2010PropOp37
 70
     1
102
RTVSPost2010Prop38
140
0.0
102
RTVSPost2010PropOp38
 70
     1
102
RTVSPost2010Prop39
140
1.0
102
RTVSPost2010PropOp39
 70
     1
102
RTVSPost2010Prop40
 90
        0
102
RTVSPost2010PropOp40
 70
     1
102
RTVSPost2010Prop41ColorIndex
 90
       18
102
RTVSPost2010Prop41ColorRGB
 90
        0
102
RTVSPost2010PropOp41
 70
     1
102
RTVSPost2010Prop42
 90
       50
102
RTVSPost2010PropOp42
 70
     1
102
RTVSPost2010Prop43
 90
        3
102
RTVSPost2010PropOp43
 70
     1
102
RTVSPost2010Prop44ColorIndex
 90
        5
102
RTVSPost2010Prop44ColorRGB
 90
      255
102
RTVSPost2010PropOp44
 70
     1
102
RTVSPost2010Prop45
280
     0
102
RTVSPost2010PropOp45
 70
     1
102
RTVSPost2010Prop46
 90
       50
102
RTVSPost2010PropOp46
 70
     1
102
RTVSPost2010Prop47
 90
       50
102
RTVSPost2010PropOp47
 70
     1
102
RTVSPost2010Prop48
 90
       50
102
RTVSPost2010PropOp48
 70
     1
102
RTVSPost2010Prop49
280
     0
102
RTVSPost2010PropOp49
 70
     1
102
RTVSPost2010Prop50
 90
       50
102
RTVSPost2010PropOp50
 70
     1
102
RTVSPost2010Prop51ColorIndex
 90
      256
102
RTVSPost2010Prop51ColorRGB
 90
-16777216
102
RTVSPost2010PropOp51
 70
     0
102
RTVSPost2010Prop52
140
1.0
102
RTVSPost2010PropOp52
 70
     0
102
RTVSPost2010Prop53
 90
        2
102
RTVSPost2010PropOp53
 70
     1
102
RTVSPost2010Prop54
  1
strokes_ogs.tif
102
RTVSPost2010PropOp54
 70
     1
102
RTVSPost2010Prop55
280
     0
102
RTVSPost2010PropOp55
 70
     1
102
RTVSPost2010Prop56
140
1.0
102
RTVSPost2010PropOp56
 70
     1
102
RTVSPost2010Prop57
140
1.0
102
RTVSPost2010PropOp57
 70
     1
  0
XRECORD
  5
2FD
102
{ACAD_REACTORS
330
2FC
102
}
330
2FC
100
AcDbXrecord
280
     1
102
RTVSPropertyOp0
 70
     1
102
RTVSPropertyOp1
 70
     1
102
RTVSPropertyOp2
 70
     1
102
RTVSPropertyOp3
 70
     1
102
RTVSPropertyOp4
 70
     1
102
RTVSPropertyOp5
 70
     1
102
RTVSPropertyOp6
 70
     1
102
RTVSPropertyOp7
 70
     1
102
RTVSPropertyOp8
 70
     1
102
RTVSPropertyOp9
 70
     1
102
RTVSPropertyOp10
 70
     1
102
RTVSPropertyOp11
 70
     1
102
RTVSPropertyOp12
 70
     1
102
RTVSPropertyOp13
 70
     1
102
RTVSPropertyOp14
 70
     1
102
RTVSPropertyOp15
 70
     1
102
RTVSPropertyOp16
 70
     1
102
RTVSPropertyOp17
 70
     1
102
RTVSPropertyOp18
 70
     1
102
RTVSPropertyOp19
 70
     1
102
RTVSPropertyOp20
 70
     1
102
RTVSPropertyOp21
 70
     1
102
RTVSPropertyOp22
 70
     1
102
RTVSPropertyOp23
 70
     1
102
RTVSPropertyOp24
 70
     1
102
RTVSPropertyOp25
 70
     1
102
RTVSPropertyOp26
 70
     1
102
RTVSPropertyOp27
 70
     1
102
RTVSPropertyOp28
 70
     1
102
RTVSPropertyOp29
 70
     1
102
RTVSPropertyOp30
 70
     1
102
RTVSPropertyOp31
 70
     1
102
RTVSPropertyOp32
 70
     1
102
RTVSPropertyOp33
 70
     1
102
RTVSPropertyOp34
 70
     1
102
RTVSPropertyOp35
 70
     1
102
RTVSPropertyOp36
 70
     1
102
RTVSPropertyOp37
 70
     1
102
RTVSPropertyOp38
 70
     1
102
RTVSPropertyOp39
 70
     1
102
RTVSPropertyOp40
 70
     1
102
RTVSPropertyOp41
 70
     1
102
RTVSPropertyOp42
 70
     1
102
RTVSPropertyOp43
 70
     1
102
RTVSPropertyOp44
 70
     1
102
RTVSPropertyOp45
 70
     1
102
RTVSPropertyOp46
 70
     1
102
RTVSPropertyOp47
 70
     1
102
RTVSPropertyOp48
 70
     1
102
RTVSPropertyOp49
 70
     1
102
RTVSPropertyOp50
 70
     1
102
RTVSPropertyOp51
 70
     0
102
RTVSPropertyOp52
 70
     0
102
RTVSPropertyOp53
 70
     1
102
RTVSPropertyOp54
 70
     1
102
RTVSPropertyOp55
 70
     1
102
RTVSPropertyOp56
 70
     1
102
RTVSPropertyOp57
 70
     1
102
RTVSPost2010Prop28
280
     0
102
RTVSPost2010PropOp28
 70
     1
102
RTVSPost2010Prop29
280
     1
102
RTVSPost2010PropOp29
 70
     1
102
RTVSPost2010Prop30
280
     1
102
RTVSPost2010PropOp30
 70
     1
102
RTVSPost2010Prop31
280
     0
102
RTVSPost2010PropOp31
 70
     1
102
RTVSPost2010Prop32
280
     0
102
RTVSPost2010PropOp32
 70
     1
102
RTVSPost2010Prop33
280
     0
102
RTVSPost2010PropOp33
 70
     1
102
RTVSPost2010Prop34
280
     0
102
RTVSPost2010PropOp34
 70
     1
102
RTVSPost2010Prop35
280
     0
102
RTVSPost2010PropOp35
 70
     1
102
RTVSPost2010Prop36
280
     0
102
RTVSPost2010PropOp36
 70
     1
102
RTVSPost2010Prop37
 90
       50
102
RTVSPost2010PropOp37
 70
     1
102
RTVSPost2010Prop38
140
0.0
102
RTVSPost2010PropOp38
 70
     1
102
RTVSPost2010Prop39
140
1.0
102
RTVSPost2010PropOp39
 70
     1
102
RTVSPost2010Prop40
 90
        0
102
RTVSPost2010PropOp40
 70
     1
102
RTVSPost2010Prop41ColorIndex
 90
       18
102
RTVSPost2010Prop41ColorRGB
 90
        0
102
RTVSPost2010PropOp41
 70
     1
102
RTVSPost2010Prop42
 90
       50
102
RTVSPost2010PropOp42
 70
     1
102
RTVSPost2010Prop43
 90
        3
102
RTVSPost2010PropOp43
 70
     1
102
RTVSPost2010Prop44ColorIndex
 90
        5
102
RTVSPost2010Prop44ColorRGB
 90
      255
102
RTVSPost2010PropOp44
 70
     1
102
RTVSPost2010Prop45
280
     0
102
RTVSPost2010PropOp45
 70
     1
102
RTVSPost2010Prop46
 90
       50
102
RTVSPost2010PropOp46
 70
     1
102
RTVSPost2010Prop47
 90
       50
102
RTVSPost2010PropOp47
 70
     1
102
RTVSPost2010Prop48
 90
       50
102
RTVSPost2010PropOp48
 70
     1
102
RTVSPost2010Prop49
280
     0
102
RTVSPost2010PropOp49
 70
     1
102
RTVSPost2010Prop50
 90
       50
102
RTVSPost2010PropOp50
 70
     1
102
RTVSPost2010Prop51ColorIndex
 90
      256
102
RTVSPost2010Prop51ColorRGB
 90
-16777216
102
RTVSPost2010PropOp51
 70
     0
102
RTVSPost2010Prop52
140
1.0
102
RTVSPost2010PropOp52
 70
     0
102
RTVSPost2010Prop53
 90
        2
102
RTVSPost2010PropOp53
 70
     1
102
RTVSPost2010Prop54
  1
strokes_ogs.tif
102
RTVSPost2010PropOp54
 70
     1
102
RTVSPost2010Prop55
280
     0
102
RTVSPost2010PropOp55
 70
     1
102
RTVSPost2010Prop56
140
1.0
102
RTVSPost2010PropOp56
 70
     1
102
RTVSPost2010Prop57
140
1.0
102
RTVSPost2010PropOp57
 70
     1
  0
XRECORD
  5
2FF
102
{ACAD_REACTORS
330
2FE
102
}
330
2FE
100
AcDbXrecord
280
     1
102
RTVSPropertyOp0
 70
     1
102
RTVSPropertyOp1
 70
     1
102
RTVSPropertyOp2
 70
     1
102
RTVSPropertyOp3
 70
     1
102
RTVSPropertyOp4
 70
     1
102
RTVSPropertyOp5
 70
     1
102
RTVSPropertyOp6
 70
     1
102
RTVSPropertyOp7
 70
     1
102
RTVSPropertyOp8
 70
     1
102
RTVSPropertyOp9
 70
     1
102
RTVSPropertyOp10
 70
     1
102
RTVSPropertyOp11
 70
     1
102
RTVSPropertyOp12
 70
     1
102
RTVSPropertyOp13
 70
     1
102
RTVSPropertyOp14
 70
     1
102
RTVSPropertyOp15
 70
     1
102
RTVSPropertyOp16
 70
     1
102
RTVSPropertyOp17
 70
     1
102
RTVSPropertyOp18
 70
     1
102
RTVSPropertyOp19
 70
     1
102
RTVSPropertyOp20
 70
     1
102
RTVSPropertyOp21
 70
     1
102
RTVSPropertyOp22
 70
     1
102
RTVSPropertyOp23
 70
     1
102
RTVSPropertyOp24
 70
     1
102
RTVSPropertyOp25
 70
     1
102
RTVSPropertyOp26
 70
     1
102
RTVSPropertyOp27
 70
     1
102
RTVSPropertyOp28
 70
     1
102
RTVSPropertyOp29
 70
     1
102
RTVSPropertyOp30
 70
     1
102
RTVSPropertyOp31
 70
     1
102
RTVSPropertyOp32
 70
     1
102
RTVSPropertyOp33
 70
     1
102
RTVSPropertyOp34
 70
     1
102
RTVSPropertyOp35
 70
     1
102
RTVSPropertyOp36
 70
     1
102
RTVSPropertyOp37
 70
     1
102
RTVSPropertyOp38
 70
     1
102
RTVSPropertyOp39
 70
     1
102
RTVSPropertyOp40
 70
     1
102
RTVSPropertyOp41
 70
     1
102
RTVSPropertyOp42
 70
     1
102
RTVSPropertyOp43
 70
     1
102
RTVSPropertyOp44
 70
     1
102
RTVSPropertyOp45
 70
     1
102
RTVSPropertyOp46
 70
     1
102
RTVSPropertyOp47
 70
     1
102
RTVSPropertyOp48
 70
     1
102
RTVSPropertyOp49
 70
     1
102
RTVSPropertyOp50
 70
     1
102
RTVSPropertyOp51
 70
     0
102
RTVSPropertyOp52
 70
     0
102
RTVSPropertyOp53
 70
     1
102
RTVSPropertyOp54
 70
     1
102
RTVSPropertyOp55
 70
     1
102
RTVSPropertyOp56
 70
     1
102
RTVSPropertyOp57
 70
     1
102
RTVSPost2010Prop28
280
     0
102
RTVSPost2010PropOp28
 70
     1
102
RTVSPost2010Prop29
280
     1
102
RTVSPost2010PropOp29
 70
     1
102
RTVSPost2010Prop30
280
     1
102
RTVSPost2010PropOp30
 70
     1
102
RTVSPost2010Prop31
280
     0
102
RTVSPost2010PropOp31
 70
     1
102
RTVSPost2010Prop32
280
     0
102
RTVSPost2010PropOp32
 70
     1
102
RTVSPost2010Prop33
280
     0
102
RTVSPost2010PropOp33
 70
     1
102
RTVSPost2010Prop34
280
     0
102
RTVSPost2010PropOp34
 70
     1
102
RTVSPost2010Prop35
280
     0
102
RTVSPost2010PropOp35
 70
     1
102
RTVSPost2010Prop36
280
     0
102
RTVSPost2010PropOp36
 70
     1
102
RTVSPost2010Prop37
 90
       50
102
RTVSPost2010PropOp37
 70
     1
102
RTVSPost2010Prop38
140
0.0
102
RTVSPost2010PropOp38
 70
     1
102
RTVSPost2010Prop39
140
1.0
102
RTVSPost2010PropOp39
 70
     1
102
RTVSPost2010Prop40
 90
        0
102
RTVSPost2010PropOp40
 70
     1
102
RTVSPost2010Prop41ColorIndex
 90
       18
102
RTVSPost2010Prop41ColorRGB
 90
        0
102
RTVSPost2010PropOp41
 70
     1
102
RTVSPost2010Prop42
 90
       50
102
RTVSPost2010PropOp42
 70
     1
102
RTVSPost2010Prop43
 90
        3
102
RTVSPost2010PropOp43
 70
     1
102
RTVSPost2010Prop44ColorIndex
 90
        5
102
RTVSPost2010Prop44ColorRGB
 90
      255
102
RTVSPost2010PropOp44
 70
     1
102
RTVSPost2010Prop45
280
     0
102
RTVSPost2010PropOp45
 70
     1
102
RTVSPost2010Prop46
 90
       50
102
RTVSPost2010PropOp46
 70
     1
102
RTVSPost2010Prop47
 90
       50
102
RTVSPost2010PropOp47
 70
     1
102
RTVSPost2010Prop48
 90
       50
102
RTVSPost2010PropOp48
 70
     1
102
RTVSPost2010Prop49
280
     0
102
RTVSPost2010PropOp49
 70
     1
102
RTVSPost2010Prop50
 90
       50
102
RTVSPost2010PropOp50
 70
     1
102
RTVSPost2010Prop51ColorIndex
 90
      256
102
RTVSPost2010Prop51ColorRGB
 90
-16777216
102
RTVSPost2010PropOp51
 70
     0
102
RTVSPost2010Prop52
140
1.0
102
RTVSPost2010PropOp52
 70
     0
102
RTVSPost2010Prop53
 90
        2
102
RTVSPost2010PropOp53
 70
     1
102
RTVSPost2010Prop54
  1
strokes_ogs.tif
102
RTVSPost2010PropOp54
 70
     1
102
RTVSPost2010Prop55
280
     0
102
RTVSPost2010PropOp55
 70
     1
102
RTVSPost2010Prop56
140
1.0
102
RTVSPost2010PropOp56
 70
     1
102
RTVSPost2010Prop57
140
1.0
102
RTVSPost2010PropOp57
 70
     1
  0
XRECORD
  5
2EF
102
{ACAD_REACTORS
330
2EE
102
}
330
2EE
100
AcDbXrecord
280
     1
102
RTVSPropertyOp0
 70
     1
102
RTVSPropertyOp1
 70
     1
102
RTVSPropertyOp2
 70
     1
102
RTVSPropertyOp3
 70
     1
102
RTVSPropertyOp4
 70
     1
102
RTVSPropertyOp5
 70
     1
102
RTVSPropertyOp6
 70
     1
102
RTVSPropertyOp7
 70
     1
102
RTVSPropertyOp8
 70
     1
102
RTVSPropertyOp9
 70
     1
102
RTVSPropertyOp10
 70
     1
102
RTVSPropertyOp11
 70
     1
102
RTVSPropertyOp12
 70
     1
102
RTVSPropertyOp13
 70
     1
102
RTVSPropertyOp14
 70
     1
102
RTVSPropertyOp15
 70
     1
102
RTVSPropertyOp16
 70
     1
102
RTVSPropertyOp17
 70
     1
102
RTVSPropertyOp18
 70
     1
102
RTVSPropertyOp19
 70
     1
102
RTVSPropertyOp20
 70
     1
102
RTVSPropertyOp21
 70
     1
102
RTVSPropertyOp22
 70
     1
102
RTVSPropertyOp23
 70
     1
102
RTVSPropertyOp24
 70
     1
102
RTVSPropertyOp25
 70
     1
102
RTVSPropertyOp26
 70
     1
102
RTVSPropertyOp27
 70
     1
102
RTVSPropertyOp28
 70
     1
102
RTVSPropertyOp29
 70
     1
102
RTVSPropertyOp30
 70
     1
102
RTVSPropertyOp31
 70
     1
102
RTVSPropertyOp32
 70
     1
102
RTVSPropertyOp33
 70
     1
102
RTVSPropertyOp34
 70
     1
102
RTVSPropertyOp35
 70
     1
102
RTVSPropertyOp36
 70
     1
102
RTVSPropertyOp37
 70
     1
102
RTVSPropertyOp38
 70
     1
102
RTVSPropertyOp39
 70
     1
102
RTVSPropertyOp40
 70
     1
102
RTVSPropertyOp41
 70
     1
102
RTVSPropertyOp42
 70
     1
102
RTVSPropertyOp43
 70
     1
102
RTVSPropertyOp44
 70
     1
102
RTVSPropertyOp45
 70
     1
102
RTVSPropertyOp46
 70
     1
102
RTVSPropertyOp47
 70
     1
102
RTVSPropertyOp48
 70
     1
102
RTVSPropertyOp49
 70
     1
102
RTVSPropertyOp50
 70
     1
102
RTVSPropertyOp51
 70
     0
102
RTVSPropertyOp52
 70
     0
102
RTVSPropertyOp53
 70
     1
102
RTVSPropertyOp54
 70
     1
102
RTVSPropertyOp55
 70
     1
102
RTVSPropertyOp56
 70
     1
102
RTVSPropertyOp57
 70
     1
102
RTVSPost2010Prop28
280
     0
102
RTVSPost2010PropOp28
 70
     1
102
RTVSPost2010Prop29
280
     1
102
RTVSPost2010PropOp29
 70
     1
102
RTVSPost2010Prop30
280
     1
102
RTVSPost2010PropOp30
 70
     1
102
RTVSPost2010Prop31
280
     0
102
RTVSPost2010PropOp31
 70
     1
102
RTVSPost2010Prop32
280
     0
102
RTVSPost2010PropOp32
 70
     1
102
RTVSPost2010Prop33
280
     0
102
RTVSPost2010PropOp33
 70
     1
102
RTVSPost2010Prop34
280
     0
102
RTVSPost2010PropOp34
 70
     1
102
RTVSPost2010Prop35
280
     0
102
RTVSPost2010PropOp35
 70
     1
102
RTVSPost2010Prop36
280
     0
102
RTVSPost2010PropOp36
 70
     1
102
RTVSPost2010Prop37
 90
       50
102
RTVSPost2010PropOp37
 70
     1
102
RTVSPost2010Prop38
140
0.0
102
RTVSPost2010PropOp38
 70
     1
102
RTVSPost2010Prop39
140
1.0
102
RTVSPost2010PropOp39
 70
     1
102
RTVSPost2010Prop40
 90
        0
102
RTVSPost2010PropOp40
 70
     1
102
RTVSPost2010Prop41ColorIndex
 90
       18
102
RTVSPost2010Prop41ColorRGB
 90
        0
102
RTVSPost2010PropOp41
 70
     1
102
RTVSPost2010Prop42
 90
       50
102
RTVSPost2010PropOp42
 70
     1
102
RTVSPost2010Prop43
 90
        3
102
RTVSPost2010PropOp43
 70
     1
102
RTVSPost2010Prop44ColorIndex
 90
        5
102
RTVSPost2010Prop44ColorRGB
 90
      255
102
RTVSPost2010PropOp44
 70
     1
102
RTVSPost2010Prop45
280
     0
102
RTVSPost2010PropOp45
 70
     1
102
RTVSPost2010Prop46
 90
       50
102
RTVSPost2010PropOp46
 70
     1
102
RTVSPost2010Prop47
 90
       50
102
RTVSPost2010PropOp47
 70
     1
102
RTVSPost2010Prop48
 90
       50
102
RTVSPost2010PropOp48
 70
     1
102
RTVSPost2010Prop49
280
     0
102
RTVSPost2010PropOp49
 70
     1
102
RTVSPost2010Prop50
 90
       50
102
RTVSPost2010PropOp50
 70
     1
102
RTVSPost2010Prop51ColorIndex
 90
      256
102
RTVSPost2010Prop51ColorRGB
 90
-16777216
102
RTVSPost2010PropOp51
 70
     0
102
RTVSPost2010Prop52
140
1.0
102
RTVSPost2010PropOp52
 70
     0
102
RTVSPost2010Prop53
 90
        2
102
RTVSPost2010PropOp53
 70
     1
102
RTVSPost2010Prop54
  1
strokes_ogs.tif
102
RTVSPost2010PropOp54
 70
     1
102
RTVSPost2010Prop55
280
     0
102
RTVSPost2010PropOp55
 70
     1
102
RTVSPost2010Prop56
140
1.0
102
RTVSPost2010PropOp56
 70
     1
102
RTVSPost2010Prop57
140
1.0
102
RTVSPost2010PropOp57
 70
     1
  0
XRECORD
  5
2E1
102
{ACAD_REACTORS
330
2E0
102
}
330
2E0
100
AcDbXrecord
280
     1
102
RTVSPropertyOp0
 70
     1
102
RTVSPropertyOp1
 70
     1
102
RTVSPropertyOp2
 70
     1
102
RTVSPropertyOp3
 70
     1
102
RTVSPropertyOp4
 70
     1
102
RTVSPropertyOp5
 70
     1
102
RTVSPropertyOp6
 70
     1
102
RTVSPropertyOp7
 70
     1
102
RTVSPropertyOp8
 70
     1
102
RTVSPropertyOp9
 70
     1
102
RTVSPropertyOp10
 70
     1
102
RTVSPropertyOp11
 70
     1
102
RTVSPropertyOp12
 70
     1
102
RTVSPropertyOp13
 70
     1
102
RTVSPropertyOp14
 70
     1
102
RTVSPropertyOp15
 70
     1
102
RTVSPropertyOp16
 70
     1
102
RTVSPropertyOp17
 70
     1
102
RTVSPropertyOp18
 70
     1
102
RTVSPropertyOp19
 70
     1
102
RTVSPropertyOp20
 70
     1
102
RTVSPropertyOp21
 70
     1
102
RTVSPropertyOp22
 70
     1
102
RTVSPropertyOp23
 70
     1
102
RTVSPropertyOp24
 70
     1
102
RTVSPropertyOp25
 70
     1
102
RTVSPropertyOp26
 70
     1
102
RTVSPropertyOp27
 70
     1
102
RTVSPropertyOp28
 70
     1
102
RTVSPropertyOp29
 70
     1
102
RTVSPropertyOp30
 70
     1
102
RTVSPropertyOp31
 70
     1
102
RTVSPropertyOp32
 70
     1
102
RTVSPropertyOp33
 70
     1
102
RTVSPropertyOp34
 70
     1
102
RTVSPropertyOp35
 70
     1
102
RTVSPropertyOp36
 70
     1
102
RTVSPropertyOp37
 70
     1
102
RTVSPropertyOp38
 70
     1
102
RTVSPropertyOp39
 70
     1
102
RTVSPropertyOp40
 70
     1
102
RTVSPropertyOp41
 70
     1
102
RTVSPropertyOp42
 70
     1
102
RTVSPropertyOp43
 70
     1
102
RTVSPropertyOp44
 70
     1
102
RTVSPropertyOp45
 70
     1
102
RTVSPropertyOp46
 70
     1
102
RTVSPropertyOp47
 70
     1
102
RTVSPropertyOp48
 70
     1
102
RTVSPropertyOp49
 70
     1
102
RTVSPropertyOp50
 70
     1
102
RTVSPropertyOp51
 70
     0
102
RTVSPropertyOp52
 70
     0
102
RTVSPropertyOp53
 70
     1
102
RTVSPropertyOp54
 70
     1
102
RTVSPropertyOp55
 70
     1
102
RTVSPropertyOp56
 70
     1
102
RTVSPropertyOp57
 70
     1
102
RTVSPost2010Prop28
280
     0
102
RTVSPost2010PropOp28
 70
     1
102
RTVSPost2010Prop29
280
     1
102
RTVSPost2010PropOp29
 70
     1
102
RTVSPost2010Prop30
280
     1
102
RTVSPost2010PropOp30
 70
     1
102
RTVSPost2010Prop31
280
     0
102
RTVSPost2010PropOp31
 70
     1
102
RTVSPost2010Prop32
280
     0
102
RTVSPost2010PropOp32
 70
     1
102
RTVSPost2010Prop33
280
     0
102
RTVSPost2010PropOp33
 70
     1
102
RTVSPost2010Prop34
280
     0
102
RTVSPost2010PropOp34
 70
     1
102
RTVSPost2010Prop35
280
     0
102
RTVSPost2010PropOp35
 70
     1
102
RTVSPost2010Prop36
280
     0
102
RTVSPost2010PropOp36
 70
     1
102
RTVSPost2010Prop37
 90
       50
102
RTVSPost2010PropOp37
 70
     1
102
RTVSPost2010Prop38
140
0.0
102
RTVSPost2010PropOp38
 70
     1
102
RTVSPost2010Prop39
140
1.0
102
RTVSPost2010PropOp39
 70
     1
102
RTVSPost2010Prop40
 90
        0
102
RTVSPost2010PropOp40
 70
     1
102
RTVSPost2010Prop41ColorIndex
 90
       18
102
RTVSPost2010Prop41ColorRGB
 90
        0
102
RTVSPost2010PropOp41
 70
     1
102
RTVSPost2010Prop42
 90
       50
102
RTVSPost2010PropOp42
 70
     1
102
RTVSPost2010Prop43
 90
        3
102
RTVSPost2010PropOp43
 70
     1
102
RTVSPost2010Prop44ColorIndex
 90
        5
102
RTVSPost2010Prop44ColorRGB
 90
      255
102
RTVSPost2010PropOp44
 70
     1
102
RTVSPost2010Prop45
280
     0
102
RTVSPost2010PropOp45
 70
     1
102
RTVSPost2010Prop46
 90
       50
102
RTVSPost2010PropOp46
 70
     1
102
RTVSPost2010Prop47
 90
       50
102
RTVSPost2010PropOp47
 70
     1
102
RTVSPost2010Prop48
 90
       50
102
RTVSPost2010PropOp48
 70
     1
102
RTVSPost2010Prop49
280
     0
102
RTVSPost2010PropOp49
 70
     1
102
RTVSPost2010Prop50
 90
       50
102
RTVSPost2010PropOp50
 70
     1
102
RTVSPost2010Prop51ColorIndex
 90
      256
102
RTVSPost2010Prop51ColorRGB
 90
-16777216
102
RTVSPost2010PropOp51
 70
     0
102
RTVSPost2010Prop52
140
1.0
102
RTVSPost2010PropOp52
 70
     0
102
RTVSPost2010Prop53
 90
        2
102
RTVSPost2010PropOp53
 70
     1
102
RTVSPost2010Prop54
  1
strokes_ogs.tif
102
RTVSPost2010PropOp54
 70
     1
102
RTVSPost2010Prop55
280
     0
102
RTVSPost2010PropOp55
 70
     1
102
RTVSPost2010Prop56
140
1.0
102
RTVSPost2010PropOp56
 70
     1
102
RTVSPost2010Prop57
140
1.0
102
RTVSPost2010PropOp57
 70
     1
  0
XRECORD
  5
301
102
{ACAD_REACTORS
330
300
102
}
330
300
100
AcDbXrecord
280
     1
102
RTVSPropertyOp0
 70
     1
102
RTVSPropertyOp1
 70
     1
102
RTVSPropertyOp2
 70
     1
102
RTVSPropertyOp3
 70
     1
102
RTVSPropertyOp4
 70
     1
102
RTVSPropertyOp5
 70
     1
102
RTVSPropertyOp6
 70
     1
102
RTVSPropertyOp7
 70
     1
102
RTVSPropertyOp8
 70
     1
102
RTVSPropertyOp9
 70
     1
102
RTVSPropertyOp10
 70
     1
102
RTVSPropertyOp11
 70
     1
102
RTVSPropertyOp12
 70
     1
102
RTVSPropertyOp13
 70
     1
102
RTVSPropertyOp14
 70
     1
102
RTVSPropertyOp15
 70
     1
102
RTVSPropertyOp16
 70
     1
102
RTVSPropertyOp17
 70
     1
102
RTVSPropertyOp18
 70
     1
102
RTVSPropertyOp19
 70
     1
102
RTVSPropertyOp20
 70
     1
102
RTVSPropertyOp21
 70
     1
102
RTVSPropertyOp22
 70
     1
102
RTVSPropertyOp23
 70
     1
102
RTVSPropertyOp24
 70
     1
102
RTVSPropertyOp25
 70
     1
102
RTVSPropertyOp26
 70
     1
102
RTVSPropertyOp27
 70
     1
102
RTVSPropertyOp28
 70
     1
102
RTVSPropertyOp29
 70
     1
102
RTVSPropertyOp30
 70
     1
102
RTVSPropertyOp31
 70
     1
102
RTVSPropertyOp32
 70
     1
102
RTVSPropertyOp33
 70
     1
102
RTVSPropertyOp34
 70
     1
102
RTVSPropertyOp35
 70
     1
102
RTVSPropertyOp36
 70
     1
102
RTVSPropertyOp37
 70
     1
102
RTVSPropertyOp38
 70
     1
102
RTVSPropertyOp39
 70
     1
102
RTVSPropertyOp40
 70
     1
102
RTVSPropertyOp41
 70
     1
102
RTVSPropertyOp42
 70
     1
102
RTVSPropertyOp43
 70
     1
102
RTVSPropertyOp44
 70
     1
102
RTVSPropertyOp45
 70
     1
102
RTVSPropertyOp46
 70
     1
102
RTVSPropertyOp47
 70
     1
102
RTVSPropertyOp48
 70
     1
102
RTVSPropertyOp49
 70
     1
102
RTVSPropertyOp50
 70
     1
102
RTVSPropertyOp51
 70
     0
102
RTVSPropertyOp52
 70
     0
102
RTVSPropertyOp53
 70
     1
102
RTVSPropertyOp54
 70
     1
102
RTVSPropertyOp55
 70
     1
102
RTVSPropertyOp56
 70
     1
102
RTVSPropertyOp57
 70
     1
102
RTVSPost2010Prop28
280
     0
102
RTVSPost2010PropOp28
 70
     1
102
RTVSPost2010Prop29
280
     1
102
RTVSPost2010PropOp29
 70
     1
102
RTVSPost2010Prop30
280
     1
102
RTVSPost2010PropOp30
 70
     1
102
RTVSPost2010Prop31
280
     0
102
RTVSPost2010PropOp31
 70
     1
102
RTVSPost2010Prop32
280
     0
102
RTVSPost2010PropOp32
 70
     1
102
RTVSPost2010Prop33
280
     0
102
RTVSPost2010PropOp33
 70
     1
102
RTVSPost2010Prop34
280
     0
102
RTVSPost2010PropOp34
 70
     1
102
RTVSPost2010Prop35
280
     0
102
RTVSPost2010PropOp35
 70
     1
102
RTVSPost2010Prop36
280
     0
102
RTVSPost2010PropOp36
 70
     1
102
RTVSPost2010Prop37
 90
       50
102
RTVSPost2010PropOp37
 70
     1
102
RTVSPost2010Prop38
140
0.0
102
RTVSPost2010PropOp38
 70
     1
102
RTVSPost2010Prop39
140
1.0
102
RTVSPost2010PropOp39
 70
     1
102
RTVSPost2010Prop40
 90
        0
102
RTVSPost2010PropOp40
 70
     1
102
RTVSPost2010Prop41ColorIndex
 90
       18
102
RTVSPost2010Prop41ColorRGB
 90
        0
102
RTVSPost2010PropOp41
 70
     1
102
RTVSPost2010Prop42
 90
       50
102
RTVSPost2010PropOp42
 70
     1
102
RTVSPost2010Prop43
 90
        3
102
RTVSPost2010PropOp43
 70
     1
102
RTVSPost2010Prop44ColorIndex
 90
        5
102
RTVSPost2010Prop44ColorRGB
 90
      255
102
RTVSPost2010PropOp44
 70
     1
102
RTVSPost2010Prop45
280
     0
102
RTVSPost2010PropOp45
 70
     1
102
RTVSPost2010Prop46
 90
       50
102
RTVSPost2010PropOp46
 70
     1
102
RTVSPost2010Prop47
 90
       50
102
RTVSPost2010PropOp47
 70
     1
102
RTVSPost2010Prop48
 90
       50
102
RTVSPost2010PropOp48
 70
     1
102
RTVSPost2010Prop49
280
     0
102
RTVSPost2010PropOp49
 70
     1
102
RTVSPost2010Prop50
 90
       50
102
RTVSPost2010PropOp50
 70
     1
102
RTVSPost2010Prop51ColorIndex
 90
      256
102
RTVSPost2010Prop51ColorRGB
 90
-16777216
102
RTVSPost2010PropOp51
 70
     0
102
RTVSPost2010Prop52
140
1.0
102
RTVSPost2010PropOp52
 70
     0
102
RTVSPost2010Prop53
 90
        2
102
RTVSPost2010PropOp53
 70
     1
102
RTVSPost2010Prop54
  1
strokes_ogs.tif
102
RTVSPost2010PropOp54
 70
     1
102
RTVSPost2010Prop55
280
     0
102
RTVSPost2010PropOp55
 70
     1
102
RTVSPost2010Prop56
140
1.0
102
RTVSPost2010PropOp56
 70
     1
102
RTVSPost2010Prop57
140
1.0
102
RTVSPost2010PropOp57
 70
     1
  0
ENDSEC
  0
EOF
