  0
SECTION
  2
HEADER
  9
$ACADVER
  1
AC1015
  9
$ACADMAINTVER
 70
     6
  9
$DWGCODEPAGE
  3
ANSI_1252
  9
$INSBASE
 10
0.0
 20
0.0
 30
0.0
  9
$EXTMIN
 10
0.0
 20
0.0
 30
0.0
  9
$EXTMAX
 10
796.463745
 20
1008.301697
 30
0.0
  9
$LIMMIN
 10
0.0
 20
0.0
  9
$LIMMAX
 10
796.463745
 20
1008.301697
  9
$ORTHOMODE
 70
     0
  9
$REGENMODE
 70
     1
  9
$FILLMODE
 70
     1
  9
$QTEXTMODE
 70
     0
  9
$MIRRTEXT
 70
     1
  9
$LTSCALE
 40
1.0
  9
$ATTMODE
 70
     1
  9
$TEXTSIZE
 40
2.5
  9
$TRACEWID
 40
1.0
  9
$TEXTSTYLE
  7
Standard
  9
$CLAYER
  8
0
  9
$CELTYPE
  6
ByLayer
  9
$CECOLOR
 62
   256
  9
$CELTSCALE
 40
1.0
  9
$DISPSILH
 70
     0
  9
$DIMSCALE
 40
1.0
  9
$DIMASZ
 40
2.5
  9
$DIMEXO
 40
0.625
  9
$DIMDLI
 40
3.75
  9
$DIMRND
 40
0.0
  9
$DIMDLE
 40
0.0
  9
$DIMEXE
 40
1.25
  9
$DIMTP
 40
0.0
  9
$DIMTM
 40
0.0
  9
$DIMTXT
 40
2.5
  9
$DIMCEN
 40
2.5
  9
$DIMTSZ
 40
0.0
  9
$DIMTOL
 70
     0
  9
$DIMLIM
 70
     0
  9
$DIMTIH
 70
     0
  9
$DIMTOH
 70
     0
  9
$DIMSE1
 70
     0
  9
$DIMSE2
 70
     0
  9
$DIMTAD
 70
     1
  9
$DIMZIN
 70
     8
  9
$DIMBLK
  1

  9
$DIMASO
 70
     1
  9
$DIMSHO
 70
     1
  9
$DIMPOST
  1

  9
$DIMAPOST
  1

  9
$DIMALT
 70
     0
  9
$DIMALTD
 70
     3
  9
$DIMALTF
 40
0.03937
  9
$DIMLFAC
 40
1.0
  9
$DIMTOFL
 70
     1
  9
$DIMTVP
 40
0.0
  9
$DIMTIX
 70
     0
  9
$DIMSOXD
 70
     0
  9
$DIMSAH
 70
     0
  9
$DIMBLK1
  1

  9
$DIMBLK2
  1

  9
$DIMSTYLE
  2
ISO-25
  9
$DIMCLRD
 70
     0
  9
$DIMCLRE
 70
     0
  9
$DIMCLRT
 70
     0
  9
$DIMTFAC
 40
1.0
  9
$DIMGAP
 40
0.625
  9
$DIMJUST
 70
     0
  9
$DIMSD1
 70
     0
  9
$DIMSD2
 70
     0
  9
$DIMTOLJ
 70
     0
  9
$DIMTZIN
 70
     8
  9
$DIMALTZ
 70
     0
  9
$DIMALTTZ
 70
     0
  9
$DIMUPT
 70
     0
  9
$DIMDEC
 70
     2
  9
$DIMTDEC
 70
     2
  9
$DIMALTU
 70
     2
  9
$DIMALTTD
 70
     3
  9
$DIMTXSTY
  7
Standard
  9
$DIMAUNIT
 70
     0
  9
$DIMADEC
 70
     0
  9
$DIMALTRND
 40
0.0
  9
$DIMAZIN
 70
     0
  9
$DIMDSEP
 70
    44
  9
$DIMATFIT
 70
     3
  9
$DIMFRAC
 70
     0
  9
$DIMLDRBLK
  1

  9
$DIMLUNIT
 70
     2
  9
$DIMLWD
 70
    -2
  9
$DIMLWE
 70
    -2
  9
$DIMTMOVE
 70
     0
  9
$LUNITS
 70
     2
  9
$LUPREC
 70
     4
  9
$SKETCHINC
 40
1.0
  9
$FILLETRAD
 40
10.0
  9
$AUNITS
 70
     0
  9
$AUPREC
 70
     0
  9
$MENU
  1
.
  9
$ELEVATION
 40
0.0
  9
$PELEVATION
 40
0.0
  9
$THICKNESS
 40
0.0
  9
$LIMCHECK
 70
     0
  9
$CHAMFERA
 40
0.0
  9
$CHAMFERB
 40
0.0
  9
$CHAMFERC
 40
0.0
  9
$CHAMFERD
 40
0.0
  9
$SKPOLY
 70
     0
  9
$TDCREATE
 40
2459530.703179086
  9
$TDUCREATE
 40
2459530.661512419
  9
$TDUPDATE
 40
2459530.703180532
  9
$TDUUPDATE
 40
2459530.661513866
  9
$TDINDWG
 40
0.0000000116
  9
$TDUSRTIMER
 40
0.0000000116
  9
$USRTIMER
 70
     1
  9
$ANGBASE
 50
0.0
  9
$ANGDIR
 70
     0
  9
$PDMODE
 70
     0
  9
$PDSIZE
 40
0.0
  9
$PLINEWID
 40
0.0
  9
$SPLFRAME
 70
     0
  9
$SPLINETYPE
 70
     6
  9
$SPLINESEGS
 70
     8
  9
$HANDSEED
  5
312
  9
$SURFTAB1
 70
     6
  9
$SURFTAB2
 70
     6
  9
$SURFTYPE
 70
     6
  9
$SURFU
 70
     6
  9
$SURFV
 70
     6
  9
$UCSBASE
  2

  9
$UCSNAME
  2

  9
$UCSORG
 10
0.0
 20
0.0
 30
0.0
  9
$UCSXDIR
 10
1.0
 20
0.0
 30
0.0
  9
$UCSYDIR
 10
0.0
 20
1.0
 30
0.0
  9
$UCSORTHOREF
  2

  9
$UCSORTHOVIEW
 70
     0
  9
$UCSORGTOP
 10
0.0
 20
0.0
 30
0.0
  9
$UCSORGBOTTOM
 10
0.0
 20
0.0
 30
0.0
  9
$UCSORGLEFT
 10
0.0
 20
0.0
 30
0.0
  9
$UCSORGRIGHT
 10
0.0
 20
0.0
 30
0.0
  9
$UCSORGFRONT
 10
0.0
 20
0.0
 30
0.0
  9
$UCSORGBACK
 10
0.0
 20
0.0
 30
0.0
  9
$PUCSBASE
  2

  9
$PUCSNAME
  2

  9
$PUCSORG
 10
0.0
 20
0.0
 30
0.0
  9
$PUCSXDIR
 10
1.0
 20
0.0
 30
0.0
  9
$PUCSYDIR
 10
0.0
 20
1.0
 30
0.0
  9
$PUCSORTHOREF
  2

  9
$PUCSORTHOVIEW
 70
     0
  9
$PUCSORGTOP
 10
0.0
 20
0.0
 30
0.0
  9
$PUCSORGBOTTOM
 10
0.0
 20
0.0
 30
0.0
  9
$PUCSORGLEFT
 10
0.0
 20
0.0
 30
0.0
  9
$PUCSORGRIGHT
 10
0.0
 20
0.0
 30
0.0
  9
$PUCSORGFRONT
 10
0.0
 20
0.0
 30
0.0
  9
$PUCSORGBACK
 10
0.0
 20
0.0
 30
0.0
  9
$USERI1
 70
     0
  9
$USERI2
 70
     0
  9
$USERI3
 70
     0
  9
$USERI4
 70
     0
  9
$USERI5
 70
     0
  9
$USERR1
 40
0.0
  9
$USERR2
 40
0.0
  9
$USERR3
 40
0.0
  9
$USERR4
 40
0.0
  9
$USERR5
 40
0.0
  9
$WORLDVIEW
 70
     1
  9
$SHADEDGE
 70
     3
  9
$SHADEDIF
 70
    70
  9
$TILEMODE
 70
     1
  9
$MAXACTVP
 70
    64
  9
$PINSBASE
 10
0.0
 20
0.0
 30
0.0
  9
$PLIMCHECK
 70
     0
  9
$PEXTMIN
 10
1.000000E+20
 20
1.000000E+20
 30
1.000000E+20
  9
$PEXTMAX
 10
-1.000000E+20
 20
-1.000000E+20
 30
-1.000000E+20
  9
$PLIMMIN
 10
0.0
 20
0.0
  9
$PLIMMAX
 10
420.0
 20
297.0
  9
$UNITMODE
 70
     0
  9
$VISRETAIN
 70
     1
  9
$PLINEGEN
 70
     0
  9
$PSLTSCALE
 70
     1
  9
$TREEDEPTH
 70
  3020
  9
$CMLSTYLE
  2
Standard
  9
$CMLJUST
 70
     0
  9
$CMLSCALE
 40
20.0
  9
$PROXYGRAPHICS
 70
     1
  9
$MEASUREMENT
 70
     1
  9
$CELWEIGHT
370
    -1
  9
$ENDCAPS
280
     0
  9
$JOINSTYLE
280
     0
  9
$LWDISPLAY
290
     0
  9
$INSUNITS
 70
     4
  9
$HYPERLINKBASE
  1

  9
$STYLESHEET
  1

  9
$XEDIT
290
     1
  9
$CEPSNTYPE
380
     0
  9
$PSTYLEMODE
290
     1
  9
$FINGERPRINTGUID
  2
{d7d5b3a6-8cee-4d00-9522-a493f985e2b2}
  9
$VERSIONGUID
  2
{FAEB1C32-E019-11D5-929B-00C0DF256EC4}
  9
$EXTNAMES
290
     1
  9
$PSVPSCALE
 40
0.0
  9
$OLESTARTUP
290
     0
  0
ENDSEC
  0
SECTION
  2
CLASSES
  0
CLASS
  1
ACDBDICTIONARYWDFLT
  2
AcDbDictionaryWithDefault
  3
ObjectDBX Classes
 90
        0
280
     0
281
     0
  0
CLASS
  1
VISUALSTYLE
  2
AcDbVisualStyle
  3
ObjectDBX Classes
 90
     4095
280
     0
281
     0
  0
CLASS
  1
MATERIAL
  2
AcDbMaterial
  3
ObjectDBX Classes
 90
     1153
280
     0
281
     0
  0
CLASS
  1
SCALE
  2
AcDbScale
  3
ObjectDBX Classes
 90
     1153
280
     0
281
     0
  0
CLASS
  1
TABLESTYLE
  2
AcDbTableStyle
  3
ObjectDBX Classes
 90
     4095
280
     0
281
     0
  0
CLASS
  1
MLEADERSTYLE
  2
AcDbMLeaderStyle
  3
ACDB_MLEADERSTYLE_CLASS
 90
     4095
280
     0
281
     0
  0
CLASS
  1
SUN
  2
AcDbSun
  3
SCENEOE
 90
     1153
280
     0
281
     0
  0
CLASS
  1
DICTIONARYVAR
  2
AcDbDictionaryVar
  3
ObjectDBX Classes
 90
        0
280
     0
281
     0
  0
CLASS
  1
ACDBPLACEHOLDER
  2
AcDbPlaceHolder
  3
ObjectDBX Classes
 90
        0
280
     0
281
     0
  0
CLASS
  1
LAYOUT
  2
AcDbLayout
  3
ObjectDBX Classes
 90
        0
280
     0
281
     0
  0
ENDSEC
  0
SECTION
  2
TABLES
  0
TABLE
  2
VPORT
  5
8
102
{ACAD_XDICTIONARY
360
2D5
102
}
330
0
100
AcDbSymbolTable
 70
     1
  0
VPORT
  5
29
330
8
100
AcDbSymbolTableRecord
100
AcDbViewportTableRecord
  2
*Active
 70
     0
 10
0.0
 20
0.0
 11
1.0
 21
1.0
 12
344.186916
 22
148.5
 13
0.0
 23
0.0
 14
10.0
 24
10.0
 15
10.0
 25
10.0
 16
0.0
 26
0.0
 36
1.0
 17
0.0
 27
0.0
 37
0.0
 40
297.0
 41
1.972973
 42
50.0
 43
0.0
 44
0.0
 50
0.0
 51
0.0
 71
     0
 72
   100
 73
     1
 74
     3
 75
     0
 76
     0
 77
     0
 78
     0
281
     0
 65
     1
110
0.0
120
0.0
130
0.0
111
1.0
121
0.0
131
0.0
112
0.0
122
1.0
132
0.0
 79
     0
146
0.0
  0
ENDTAB
  0
TABLE
  2
LTYPE
  5
5
330
0
100
AcDbSymbolTable
 70
     1
  0
LTYPE
  5
14
330
5
100
AcDbSymbolTableRecord
100
AcDbLinetypeTableRecord
  2
ByBlock
 70
     0
  3

 72
    65
 73
     0
 40
0.0
  0
LTYPE
  5
15
330
5
100
AcDbSymbolTableRecord
100
AcDbLinetypeTableRecord
  2
ByLayer
 70
     0
  3

 72
    65
 73
     0
 40
0.0
  0
LTYPE
  5
16
330
5
100
AcDbSymbolTableRecord
100
AcDbLinetypeTableRecord
  2
Continuous
 70
     0
  3
Solid line
 72
    65
 73
     0
 40
0.0
  0
ENDTAB
  0
TABLE
  2
LAYER
  5
2
330
0
100
AcDbSymbolTable
 70
     1
  0
LAYER
  5
10
330
2
100
AcDbSymbolTableRecord
100
AcDbLayerTableRecord
  2
0
 70
     0
 62
   102
  6
Continuous
370
     0
390
F
  0
ENDTAB
  0
TABLE
  2
STYLE
  5
3
330
0
100
AcDbSymbolTable
 70
     4
  0
STYLE
  5
11
330
3
100
AcDbSymbolTableRecord
100
AcDbTextStyleTableRecord
  2
Standard
 70
     0
 40
0.0
 41
1.0
 50
0.0
 71
     0
 42
2.5
  3
txt
  4

1001
ACAD
1000
txt
1071
        0
  0
STYLE
  5
6E
330
3
100
AcDbSymbolTableRecord
100
AcDbTextStyleTableRecord
  2
Default
 70
     0
 40
0.0
 41
1.0
 50
0.0
 71
     0
 42
2.5
  3

  4

1001
ACAD
1000
txt
1071
        0
  0
STYLE
  5
6F
330
3
100
AcDbSymbolTableRecord
100
AcDbTextStyleTableRecord
  2
ISO
 70
     0
 40
0.0
 41
1.0
 50
0.0
 71
     0
 42
2.5
  3

  4

1001
ACAD
1000
txt
1071
        0
  0
STYLE
  5
70
330
3
100
AcDbSymbolTableRecord
100
AcDbTextStyleTableRecord
  2
zucchetti
 70
     0
 40
0.0
 41
1.0
 50
0.0
 71
     0
 42
2.5
  3

  4

1001
ACAD
1000
Arial
1071
        0
  0
ENDTAB
  0
TABLE
  2
VIEW
  5
6
330
0
100
AcDbSymbolTable
 70
     0
  0
ENDTAB
  0
TABLE
  2
UCS
  5
7
330
0
100
AcDbSymbolTable
 70
     0
  0
ENDTAB
  0
TABLE
  2
APPID
  5
9
330
0
100
AcDbSymbolTable
 70
     2
  0
APPID
  5
12
330
9
100
AcDbSymbolTableRecord
100
AcDbRegAppTableRecord
  2
ACAD
 70
     0
  0
APPID
  5
30F
330
9
100
AcDbSymbolTableRecord
100
AcDbRegAppTableRecord
  2
ACAD_MLEADERVER
 70
     0
  0
ENDTAB
  0
TABLE
  2
DIMSTYLE
  5
A
330
0
100
AcDbSymbolTable
 70
     5
100
AcDbDimStyleTable
  0
DIMSTYLE
105
27
330
A
100
AcDbSymbolTableRecord
100
AcDbDimStyleTableRecord
  2
ISO-25
 70
     0
 41
2.5
 42
0.625
 43
3.75
 44
1.25
 73
     0
 74
     0
 77
     1
 78
     8
140
2.5
141
2.5
143
0.03937
147
0.625
171
     3
172
     1
178
     0
271
     2
272
     2
274
     3
278
    44
283
     0
284
     8
340
11
  0
DIMSTYLE
105
71
330
A
100
AcDbSymbolTableRecord
100
AcDbDimStyleTableRecord
  2
Default
 70
     0
  3
<>
 41
4.375
 42
1.05
 44
2.1
 73
     0
 74
     0
 77
     1
 78
     8
140
3.5
146
0.4
147
1.75
172
     1
271
     2
178
     2
271
     2
272
     3
284
     8
340
6E
341
72
342
72
  0
DIMSTYLE
105
79
330
A
100
AcDbSymbolTableRecord
100
AcDbDimStyleTableRecord
  2
DefaultDimensionStyle
 70
     0
  3
<>
 41
2.5
 42
0.875
 44
1.75
 73
     0
 74
     0
 77
     1
 78
     8
140
3.5
147
1.75
172
     1
271
     2
178
     2
271
     2
272
     2
278
    44
284
     8
340
11
  0
DIMSTYLE
105
7A
330
A
100
AcDbSymbolTableRecord
100
AcDbDimStyleTableRecord
  2
ISO
 70
     0
  3
<>
 41
4.375
 42
1.05
 44
2.1
 73
     0
 74
     0
 77
     1
 78
     8
140
3.5
146
0.4
147
1.75
172
     1
271
     2
178
     2
271
     2
272
     3
284
     8
340
6F
341
72
342
72
  0
DIMSTYLE
105
7B
330
A
100
AcDbSymbolTableRecord
100
AcDbDimStyleTableRecord
  2
zucchetti
 70
     0
  3
<>
 41
3.0
 42
1.05
 44
2.1
 73
     0
 74
     0
 77
     1
 78
     8
140
3.5
146
0.6
147
1.75
172
     1
271
     2
178
     2
271
     2
272
     2
284
     8
340
70
  0
ENDTAB
  0
TABLE
  2
BLOCK_RECORD
  5
1
330
0
100
AcDbSymbolTable
 70
     7
  0
BLOCK_RECORD
  5
1F
330
1
100
AcDbSymbolTableRecord
100
AcDbBlockTableRecord
  2
*Model_Space
340
22
  0
BLOCK_RECORD
  5
1B
330
1
100
AcDbSymbolTableRecord
100
AcDbBlockTableRecord
  2
*Paper_Space
340
1E
  0
BLOCK_RECORD
  5
23
330
1
100
AcDbSymbolTableRecord
100
AcDbBlockTableRecord
  2
*Paper_Space0
340
26
  0
BLOCK_RECORD
  5
72
330
1
100
AcDbSymbolTableRecord
100
AcDbBlockTableRecord
  2
_Closed
340
0
  0
BLOCK_RECORD
  5
7C
330
1
100
AcDbSymbolTableRecord
100
AcDbBlockTableRecord
  2
a
340
0
102
{BLKREFS
331
D5
102
}
  0
BLOCK_RECORD
  5
D6
330
1
100
AcDbSymbolTableRecord
100
AcDbBlockTableRecord
  2
b
340
0
102
{BLKREFS
331
143
102
}
  0
BLOCK_RECORD
  5
144
330
1
100
AcDbSymbolTableRecord
100
AcDbBlockTableRecord
  2
c
340
0
102
{BLKREFS
331
1AF
102
}
  0
BLOCK_RECORD
  5
1B0
330
1
100
AcDbSymbolTableRecord
100
AcDbBlockTableRecord
  2
d
340
0
102
{BLKREFS
331
259
102
}
  0
BLOCK_RECORD
  5
25A
330
1
100
AcDbSymbolTableRecord
100
AcDbBlockTableRecord
  2
e
340
0
102
{BLKREFS
331
2C9
102
}
  0
ENDTAB
  0
ENDSEC
  0
SECTION
  2
BLOCKS
  0
BLOCK
  5
20
330
1F
100
AcDbEntity
  8
0
100
AcDbBlockBegin
  2
*Model_Space
 70
     0
 10
0.0
 20
0.0
 30
0.0
  3
*Model_Space
  1

  0
ENDBLK
  5
21
330
1F
100
AcDbEntity
  8
0
100
AcDbBlockEnd
  0
BLOCK
  5
1C
330
1B
100
AcDbEntity
 67
     1
  8
0
100
AcDbBlockBegin
  2
*Paper_Space
 70
     0
 10
0.0
 20
0.0
 30
0.0
  3
*Paper_Space
  1

  0
ENDBLK
  5
1D
330
1B
100
AcDbEntity
 67
     1
  8
0
100
AcDbBlockEnd
  0
BLOCK
  5
24
330
23
100
AcDbEntity
  8
0
100
AcDbBlockBegin
  2
*Paper_Space0
 70
     0
 10
0.0
 20
0.0
 30
0.0
  3
*Paper_Space0
  1

  0
ENDBLK
  5
25
330
23
100
AcDbEntity
  8
0
100
AcDbBlockEnd
  0
BLOCK
  5
73
330
72
100
AcDbEntity
  8
0
100
AcDbBlockBegin
  2
_Closed
 70
     0
 10
0.0
 20
0.0
 30
0.0
  3
_Closed
  1

  0
LINE
  5
75
330
72
100
AcDbEntity
  8
0
  6
ByBlock
 62
     0
370
    -2
100
AcDbLine
 10
-1.0
 20
0.166667
 30
0.0
 11
0.0
 21
0.0
 31
0.0
  0
LINE
  5
76
330
72
100
AcDbEntity
  8
0
  6
ByBlock
 62
     0
370
    -2
100
AcDbLine
 10
0.0
 20
0.0
 30
0.0
 11
-1.0
 21
-0.166667
 31
0.0
  0
LINE
  5
77
330
72
100
AcDbEntity
  8
0
  6
ByBlock
 62
     0
370
    -2
100
AcDbLine
 10
-1.0
 20
0.166667
 30
0.0
 11
-1.0
 21
-0.166667
 31
0.0
  0
LINE
  5
78
330
72
100
AcDbEntity
  8
0
  6
ByBlock
 62
     0
370
    -2
100
AcDbLine
 10
0.0
 20
0.0
 30
0.0
 11
-1.0
 21
0.0
 31
0.0
  0
ENDBLK
  5
74
330
72
100
AcDbEntity
  8
0
100
AcDbBlockEnd
  0
BLOCK
  5
D3
330
7C
100
AcDbEntity
  8
0
100
AcDbBlockBegin
  2
a
 70
     0
 10
843.115417
 20
361.123352
 30
0.0
  3
a
  1

  0
LINE
  5
7D
330
7C
100
AcDbEntity
  8
0
  6
Continuous
 62
     0
370
     0
100
AcDbLine
 10
509.851291
 20
689.791481
 30
0.0
 11
509.151291
 21
689.791481
 31
0.0
  0
LINE
  5
7E
330
7C
100
AcDbEntity
  8
0
  6
Continuous
 62
     0
370
     0
100
AcDbLine
 10
509.851291
 20
715.591489
 30
0.0
 11
509.851291
 21
689.791481
 31
0.0
  0
LINE
  5
7F
330
7C
100
AcDbEntity
  8
0
  6
Continuous
 62
     0
370
     0
100
AcDbLine
 10
509.851291
 20
715.591489
 30
0.0
 11
509.151291
 21
715.591489
 31
0.0
  0
LINE
  5
80
330
7C
100
AcDbEntity
  8
0
  6
Continuous
 62
     0
370
    30
100
AcDbLine
 10
509.151291
 20
715.591489
 30
0.0
 11
509.151291
 21
689.791481
 31
0.0
  0
LINE
  5
81
330
7C
100
AcDbEntity
  8
0
  6
Continuous
 62
     0
370
    30
100
AcDbLine
 10
521.451291
 20
716.291489
 30
0.0
 11
509.851291
 21
716.291489
 31
0.0
  0
LINE
  5
82
330
7C
100
AcDbEntity
  8
0
  6
Continuous
 62
     0
370
     0
100
AcDbLine
 10
509.851291
 20
716.291489
 30
0.0
 11
509.851291
 21
715.591489
 31
0.0
  0
LINE
  5
83
330
7C
100
AcDbEntity
  8
0
  6
Continuous
 62
     0
370
     0
100
AcDbLine
 10
521.451291
 20
715.591489
 30
0.0
 11
509.851291
 21
715.591489
 31
0.0
  0
LINE
  5
84
330
7C
100
AcDbEntity
  8
0
  6
Continuous
 62
     0
370
     0
100
AcDbLine
 10
521.451291
 20
716.291489
 30
0.0
 11
521.451291
 21
715.591489
 31
0.0
  0
ARC
  5
85
330
7C
100
AcDbEntity
  8
0
  6
Continuous
 62
     0
370
    30
100
AcDbCircle
 10
509.851291
 20
715.591489
 30
0.0
 40
0.699999988079071
100
AcDbArc
 50
90.0
 51
180.0
  0
LINE
  5
86
330
7C
100
AcDbEntity
  8
0
  6
Continuous
 62
     0
370
    30
100
AcDbLine
 10
522.151291
 20
715.591489
 30
0.0
 11
522.151291
 21
689.791481
 31
0.0
  0
LINE
  5
87
330
7C
100
AcDbEntity
  8
0
  6
Continuous
 62
     0
370
     0
100
AcDbLine
 10
522.151291
 20
715.591489
 30
0.0
 11
521.451291
 21
715.591489
 31
0.0
  0
LINE
  5
88
330
7C
100
AcDbEntity
  8
0
  6
Continuous
 62
     0
370
     0
100
AcDbLine
 10
521.451291
 20
715.591489
 30
0.0
 11
521.451291
 21
689.791481
 31
0.0
  0
LINE
  5
89
330
7C
100
AcDbEntity
  8
0
  6
Continuous
 62
     0
370
     0
100
AcDbLine
 10
521.451291
 20
689.791481
 30
0.0
 11
522.151291
 21
689.791481
 31
0.0
  0
ARC
  5
8A
330
7C
100
AcDbEntity
  8
0
  6
Continuous
 62
     0
370
    30
100
AcDbCircle
 10
521.451291
 20
715.591489
 30
0.0
 40
0.6999999880790782
100
AcDbArc
 50
0.0
 51
90.0
  0
LINE
  5
8B
330
7C
100
AcDbEntity
  8
0
  6
Continuous
 62
     0
370
     0
100
AcDbLine
 10
524.151291
 20
687.091481
 30
0.0
 11
524.151291
 21
687.791481
 31
0.0
  0
LINE
  5
8C
330
7C
100
AcDbEntity
  8
0
  6
Continuous
 62
     0
370
     0
100
AcDbLine
 10
549.951283
 20
687.091481
 30
0.0
 11
524.151291
 21
687.091481
 31
0.0
  0
LINE
  5
8D
330
7C
100
AcDbEntity
  8
0
  6
Continuous
 62
     0
370
     0
100
AcDbLine
 10
549.951283
 20
687.091481
 30
0.0
 11
549.951283
 21
687.791481
 31
0.0
  0
LINE
  5
8E
330
7C
100
AcDbEntity
  8
0
  6
Continuous
 62
     0
370
    30
100
AcDbLine
 10
549.951283
 20
687.791481
 30
0.0
 11
524.151291
 21
687.791481
 31
0.0
  0
LINE
  5
8F
330
7C
100
AcDbEntity
  8
0
  6
Continuous
 62
     0
370
    30
100
AcDbLine
 10
550.651283
 20
675.491481
 30
0.0
 11
550.651283
 21
687.091481
 31
0.0
  0
LINE
  5
90
330
7C
100
AcDbEntity
  8
0
  6
Continuous
 62
     0
370
     0
100
AcDbLine
 10
550.651283
 20
687.091481
 30
0.0
 11
549.951283
 21
687.091481
 31
0.0
  0
LINE
  5
91
330
7C
100
AcDbEntity
  8
0
  6
Continuous
 62
     0
370
     0
100
AcDbLine
 10
549.951283
 20
675.491481
 30
0.0
 11
549.951283
 21
687.091481
 31
0.0
  0
LINE
  5
92
330
7C
100
AcDbEntity
  8
0
  6
Continuous
 62
     0
370
     0
100
AcDbLine
 10
550.651283
 20
675.491481
 30
0.0
 11
549.951283
 21
675.491481
 31
0.0
  0
ARC
  5
93
330
7C
100
AcDbEntity
  8
0
  6
Continuous
 62
     0
370
    30
100
AcDbCircle
 10
549.951283
 20
687.091481
 30
0.0
 40
0.699999988079071
100
AcDbArc
 50
0.0
 51
90.0
  0
LINE
  5
94
330
7C
100
AcDbEntity
  8
0
  6
Continuous
 62
     0
370
    30
100
AcDbLine
 10
549.951283
 20
674.791481
 30
0.0
 11
524.151291
 21
674.791481
 31
0.0
  0
LINE
  5
95
330
7C
100
AcDbEntity
  8
0
  6
Continuous
 62
     0
370
     0
100
AcDbLine
 10
549.951283
 20
674.791481
 30
0.0
 11
549.951283
 21
675.491481
 31
0.0
  0
LINE
  5
96
330
7C
100
AcDbEntity
  8
0
  6
Continuous
 62
     0
370
     0
100
AcDbLine
 10
549.951283
 20
675.491481
 30
0.0
 11
524.151291
 21
675.491481
 31
0.0
  0
LINE
  5
97
330
7C
100
AcDbEntity
  8
0
  6
Continuous
 62
     0
370
     0
100
AcDbLine
 10
524.151291
 20
675.491481
 30
0.0
 11
524.151291
 21
674.791481
 31
0.0
  0
ARC
  5
98
330
7C
100
AcDbEntity
  8
0
  6
Continuous
 62
     0
370
    30
100
AcDbCircle
 10
549.951283
 20
675.491481
 30
0.0
 40
0.6999999880790639
100
AcDbArc
 50
270.0
 51
0.0
  0
LINE
  5
99
330
7C
100
AcDbEntity
  8
0
  6
Continuous
 62
     0
370
     0
100
AcDbLine
 10
522.151291
 20
672.791481
 30
0.0
 11
521.451291
 21
672.791481
 31
0.0
  0
LINE
  5
9A
330
7C
100
AcDbEntity
  8
0
  6
Continuous
 62
     0
370
     0
100
AcDbLine
 10
521.451291
 20
672.791481
 30
0.0
 11
521.451291
 21
646.991489
 31
0.0
  0
LINE
  5
9B
330
7C
100
AcDbEntity
  8
0
  6
Continuous
 62
     0
370
     0
100
AcDbLine
 10
522.151291
 20
646.991489
 30
0.0
 11
521.451291
 21
646.991489
 31
0.0
  0
LINE
  5
9C
330
7C
100
AcDbEntity
  8
0
  6
Continuous
 62
     0
370
    30
100
AcDbLine
 10
522.151291
 20
672.791481
 30
0.0
 11
522.151291
 21
646.991489
 31
0.0
  0
ARC
  5
9D
330
7C
100
AcDbEntity
  8
0
  6
Continuous
 62
     0
370
    30
100
AcDbCircle
 10
521.451291
 20
646.991489
 30
0.0
 40
0.6999999880790639
100
AcDbArc
 50
270.0
 51
360.0
  0
LINE
  5
9E
330
7C
100
AcDbEntity
  8
0
  6
Continuous
 62
     0
370
    30
100
AcDbLine
 10
521.451291
 20
646.291489
 30
0.0
 11
509.851291
 21
646.291489
 31
0.0
  0
LINE
  5
9F
330
7C
100
AcDbEntity
  8
0
  6
Continuous
 62
     0
370
     0
100
AcDbLine
 10
521.451291
 20
646.291489
 30
0.0
 11
521.451291
 21
646.991489
 31
0.0
  0
LINE
  5
A0
330
7C
100
AcDbEntity
  8
0
  6
Continuous
 62
     0
370
     0
100
AcDbLine
 10
521.451291
 20
646.991489
 30
0.0
 11
509.851291
 21
646.991489
 31
0.0
  0
LINE
  5
A1
330
7C
100
AcDbEntity
  8
0
  6
Continuous
 62
     0
370
     0
100
AcDbLine
 10
509.851291
 20
646.291489
 30
0.0
 11
509.851291
 21
646.991489
 31
0.0
  0
LINE
  5
A2
330
7C
100
AcDbEntity
  8
0
  6
Continuous
 62
     0
370
    30
100
AcDbLine
 10
507.151291
 20
687.791481
 30
0.0
 11
481.351283
 21
687.791481
 31
0.0
  0
LINE
  5
A3
330
7C
100
AcDbEntity
  8
0
  6
Continuous
 62
     0
370
     0
100
AcDbLine
 10
481.351283
 20
687.091481
 30
0.0
 11
481.351283
 21
687.791481
 31
0.0
  0
LINE
  5
A4
330
7C
100
AcDbEntity
  8
0
  6
Continuous
 62
     0
370
     0
100
AcDbLine
 10
507.151291
 20
687.091481
 30
0.0
 11
481.351283
 21
687.091481
 31
0.0
  0
LINE
  5
A5
330
7C
100
AcDbEntity
  8
0
  6
Continuous
 62
     0
370
     0
100
AcDbLine
 10
507.151291
 20
687.791481
 30
0.0
 11
507.151291
 21
687.091481
 31
0.0
  0
LINE
  5
A6
330
7C
100
AcDbEntity
  8
0
  6
Continuous
 62
     0
370
     0
100
AcDbLine
 10
480.651283
 20
675.491481
 30
0.0
 11
481.351283
 21
675.491481
 31
0.0
  0
LINE
  5
A7
330
7C
100
AcDbEntity
  8
0
  6
Continuous
 62
     0
370
     0
100
AcDbLine
 10
481.351283
 20
675.491481
 30
0.0
 11
481.351283
 21
687.091481
 31
0.0
  0
LINE
  5
A8
330
7C
100
AcDbEntity
  8
0
  6
Continuous
 62
     0
370
     0
100
AcDbLine
 10
480.651283
 20
687.091481
 30
0.0
 11
481.351283
 21
687.091481
 31
0.0
  0
LINE
  5
A9
330
7C
100
AcDbEntity
  8
0
  6
Continuous
 62
     0
370
    30
100
AcDbLine
 10
480.651283
 20
675.491481
 30
0.0
 11
480.651283
 21
687.091481
 31
0.0
  0
ARC
  5
AA
330
7C
100
AcDbEntity
  8
0
  6
Continuous
 62
     0
370
    30
100
AcDbCircle
 10
481.351283
 20
687.091481
 30
0.0
 40
0.6999999880790782
100
AcDbArc
 50
90.0
 51
180.0
  0
LINE
  5
AB
330
7C
100
AcDbEntity
  8
0
  6
Continuous
 62
     0
370
    30
100
AcDbLine
 10
509.151291
 20
672.791481
 30
0.0
 11
509.151291
 21
646.991489
 31
0.0
  0
LINE
  5
AC
330
7C
100
AcDbEntity
  8
0
  6
Continuous
 62
     0
370
     0
100
AcDbLine
 10
509.851291
 20
646.991489
 30
0.0
 11
509.151291
 21
646.991489
 31
0.0
  0
LINE
  5
AD
330
7C
100
AcDbEntity
  8
0
  6
Continuous
 62
     0
370
     0
100
AcDbLine
 10
509.851291
 20
672.791481
 30
0.0
 11
509.851291
 21
646.991489
 31
0.0
  0
LINE
  5
AE
330
7C
100
AcDbEntity
  8
0
  6
Continuous
 62
     0
370
     0
100
AcDbLine
 10
509.151291
 20
672.791481
 30
0.0
 11
509.851291
 21
672.791481
 31
0.0
  0
ARC
  5
AF
330
7C
100
AcDbEntity
  8
0
  6
Continuous
 62
     0
370
    30
100
AcDbCircle
 10
509.851291
 20
646.991489
 30
0.0
 40
0.699999988079071
100
AcDbArc
 50
180.0
 51
270.0
  0
LINE
  5
B0
330
7C
100
AcDbEntity
  8
0
  6
Continuous
 62
     0
370
     0
100
AcDbLine
 10
507.151291
 20
674.791481
 30
0.0
 11
507.151291
 21
675.491481
 31
0.0
  0
LINE
  5
B1
330
7C
100
AcDbEntity
  8
0
  6
Continuous
 62
     0
370
     0
100
AcDbLine
 10
507.151291
 20
675.491481
 30
0.0
 11
481.351283
 21
675.491481
 31
0.0
  0
LINE
  5
B2
330
7C
100
AcDbEntity
  8
0
  6
Continuous
 62
     0
370
     0
100
AcDbLine
 10
481.351283
 20
674.791481
 30
0.0
 11
481.351283
 21
675.491481
 31
0.0
  0
LINE
  5
B3
330
7C
100
AcDbEntity
  8
0
  6
Continuous
 62
     0
370
    30
100
AcDbLine
 10
507.151291
 20
674.791481
 30
0.0
 11
481.351283
 21
674.791481
 31
0.0
  0
ARC
  5
B4
330
7C
100
AcDbEntity
  8
0
  6
Continuous
 62
     0
370
    30
100
AcDbCircle
 10
481.351283
 20
675.491481
 30
0.0
 40
0.699999988079071
100
AcDbArc
 50
180.0
 51
270.0
  0
ARC
  5
B5
330
7C
100
AcDbEntity
  8
0
  6
Continuous
 62
     0
370
     0
100
AcDbCircle
 10
507.151291
 20
672.791481
 30
0.0
 40
2.699999988079074
100
AcDbArc
 50
0.0
 51
90.0
  0
ARC
  5
B6
330
7C
100
AcDbEntity
  8
0
  6
Continuous
 62
     0
370
     0
100
AcDbCircle
 10
524.151291
 20
672.791481
 30
0.0
 40
2.699999988079073
100
AcDbArc
 50
90.0
 51
180.0
  0
ARC
  5
B7
330
7C
100
AcDbEntity
  8
0
  6
Continuous
 62
     0
370
     0
100
AcDbCircle
 10
524.151291
 20
689.791481
 30
0.0
 40
2.69999998807907
100
AcDbArc
 50
180.0
 51
270.0
  0
ARC
  5
B8
330
7C
100
AcDbEntity
  8
0
  6
Continuous
 62
     0
370
     0
100
AcDbCircle
 10
507.151291
 20
689.791481
 30
0.0
 40
2.699999988079068
100
AcDbArc
 50
270.0
 51
360.0
  0
ARC
  5
B9
330
7C
100
AcDbEntity
  8
0
  6
Continuous
 62
     0
370
    30
100
AcDbCircle
 10
507.151291
 20
689.791481
 30
0.0
 40
1.999999999999996
100
AcDbArc
 50
270.0
 51
360.0
  0
ARC
  5
BA
330
7C
100
AcDbEntity
  8
0
  6
Continuous
 62
     0
370
    30
100
AcDbCircle
 10
524.151291
 20
689.791481
 30
0.0
 40
1.999999999999999
100
AcDbArc
 50
180.0
 51
270.0
  0
ARC
  5
BB
330
7C
100
AcDbEntity
  8
0
  6
Continuous
 62
     0
370
    30
100
AcDbCircle
 10
524.151291
 20
672.791481
 30
0.0
 40
2.000000000000002
100
AcDbArc
 50
90.0
 51
180.0
  0
ARC
  5
BC
330
7C
100
AcDbEntity
  8
0
  6
Continuous
 62
     0
370
    30
100
AcDbCircle
 10
507.151291
 20
672.791481
 30
0.0
 40
2.000000000000003
100
AcDbArc
 50
0.0
 51
90.0
  0
ARC
  5
BD
330
7C
100
AcDbEntity
  8
0
  6
Continuous
 62
     0
370
    30
100
AcDbCircle
 10
515.651283
 20
681.291494
 30
0.0
 40
16.5
100
AcDbArc
 50
313.446704
 51
336.800109
  0
ARC
  5
BE
330
7C
100
AcDbEntity
  8
0
  6
Continuous
 62
     0
370
    30
100
AcDbCircle
 10
515.651283
 20
681.291494
 30
0.0
 40
16.5
100
AcDbArc
 50
23.199796
 51
66.800128
  0
ARC
  5
BF
330
7C
100
AcDbEntity
  8
0
  6
Continuous
 62
     0
370
    30
100
AcDbCircle
 10
515.651283
 20
681.291494
 30
0.0
 40
16.5
100
AcDbArc
 50
113.199814
 51
156.800204
  0
ARC
  5
C0
330
7C
100
AcDbEntity
  8
0
  6
Continuous
 62
     0
370
    30
100
AcDbCircle
 10
515.651283
 20
681.291494
 30
0.0
 40
16.5
100
AcDbArc
 50
203.199891
 51
246.800186
  0
ARC
  5
C1
330
7C
100
AcDbEntity
  8
0
  6
Continuous
 62
     0
370
    30
100
AcDbCircle
 10
515.651283
 20
681.291494
 30
0.0
 40
16.5
100
AcDbArc
 50
293.199872
 51
313.446704
  0
CIRCLE
  5
C2
330
7C
100
AcDbEntity
  8
0
  6
Continuous
 62
     0
370
    30
100
AcDbCircle
 10
515.651283
 20
551.290695
 30
0.0
 40
21.5
  0
CIRCLE
  5
C3
330
7C
100
AcDbEntity
  8
0
  6
Continuous
 62
     0
370
    30
100
AcDbCircle
 10
515.651283
 20
551.290695
 30
0.0
 40
22.0
  0
LINE
  5
C4
330
7C
100
AcDbEntity
  8
0
  6
Continuous
 62
     0
370
    30
100
AcDbLine
 10
512.201283
 20
581.120695
 30
0.0
 11
515.651283
 21
581.120695
 31
0.0
  0
LINE
  5
C5
330
7C
100
AcDbEntity
  8
0
  6
Continuous
 62
     0
370
    30
100
AcDbLine
 10
515.651283
 20
581.120695
 30
0.0
 11
519.101283
 21
581.120695
 31
0.0
  0
LINE
  5
C6
330
7C
100
AcDbEntity
  8
0
  6
Continuous
 62
     0
370
    30
100
AcDbLine
 10
519.601283
 20
580.620695
 30
0.0
 11
515.651283
 21
580.620695
 31
0.0
  0
LINE
  5
C7
330
7C
100
AcDbEntity
  8
0
  6
Continuous
 62
     0
370
    30
100
AcDbLine
 10
515.651283
 20
580.620695
 30
0.0
 11
511.701283
 21
580.620695
 31
0.0
  0
LINE
  5
C8
330
7C
100
AcDbEntity
  8
0
  6
Continuous
 62
     0
370
    30
100
AcDbLine
 10
511.701283
 20
580.620695
 30
0.0
 11
511.701283
 21
572.933188
 31
0.0
  0
LINE
  5
C9
330
7C
100
AcDbEntity
  8
0
  6
Continuous
 62
     0
370
    30
100
AcDbLine
 10
519.601283
 20
580.620695
 30
0.0
 11
519.601283
 21
572.933188
 31
0.0
  0
LINE
  5
CA
330
7C
100
AcDbEntity
  8
0
  6
Continuous
 62
     0
370
    30
100
AcDbLine
 10
519.101341
 20
581.120637
 30
0.0
 11
519.601283
 21
580.620696
 31
0.0
  0
LINE
  5
CB
330
7C
100
AcDbEntity
  8
0
  6
Continuous
 62
     0
370
    30
100
AcDbLine
 10
512.201226
 20
581.120637
 30
0.0
 11
511.701284
 21
580.620696
 31
0.0
  0
ARC
  5
CC
330
7C
100
AcDbEntity
  8
0
  6
Continuous
 62
     0
370
    30
100
AcDbCircle
 10
515.651283
 20
681.291494
 30
0.0
 40
30.0
100
AcDbArc
 50
43.446704
 51
77.48666
  0
ARC
  5
CD
330
7C
100
AcDbEntity
  8
0
  6
Continuous
 62
     0
370
    30
100
AcDbCircle
 10
515.651283
 20
681.291494
 30
0.0
 40
30.0
100
AcDbArc
 50
102.51331
 51
167.486699
  0
ARC
  5
CE
330
7C
100
AcDbEntity
  8
0
  6
Continuous
 62
     0
370
    30
100
AcDbCircle
 10
515.651283
 20
681.291494
 30
0.0
 40
30.0
100
AcDbArc
 50
192.51335
 51
257.48669
  0
ARC
  5
CF
330
7C
100
AcDbEntity
  8
0
  6
Continuous
 62
     0
370
    30
100
AcDbCircle
 10
515.651283
 20
681.291494
 30
0.0
 40
30.0
100
AcDbArc
 50
282.51334
 51
347.48665
  0
ARC
  5
D0
330
7C
100
AcDbEntity
  8
0
  6
Continuous
 62
     0
370
    30
100
AcDbCircle
 10
515.651283
 20
681.291494
 30
0.0
 40
30.0
100
AcDbArc
 50
12.513301
 51
43.446704
  0
CIRCLE
  5
D1
330
7C
100
AcDbEntity
  8
0
  6
Continuous
 62
     0
370
    30
100
AcDbCircle
 10
515.651283
 20
551.290695
 30
0.0
 40
65.0
  0
CIRCLE
  5
D2
330
7C
100
AcDbEntity
  8
0
  6
Continuous
 62
     0
370
     0
100
AcDbCircle
 10
515.651283
 20
551.290695
 30
0.0
 40
64.51526627218934
  0
ENDBLK
  5
D4
330
7C
100
AcDbEntity
  8
0
100
AcDbBlockEnd
  0
BLOCK
  5
141
330
D6
100
AcDbEntity
  8
0
100
AcDbBlockBegin
  2
b
 70
     0
 10
843.11554
 20
619.213396
 30
0.0
  3
b
  1

  0
SPLINE
  5
D7
330
D6
100
AcDbEntity
  8
0
  6
Continuous
 62
     0
370
     0
100
AcDbSpline
210
0.0
220
0.0
230
1.0
 70
     8
 71
     3
 72
    12
 73
     8
 74
     0
 42
0.000000001
 43
0.0
 40
7.102135838942108
 40
7.102135838942108
 40
7.102135838942108
 40
7.102135838942108
 40
7.41403273394689
 40
9.118176729562256
 40
10.6295864351307
 40
12.2743040219912
 40
13.16784666328683
 40
13.16784666328683
 40
13.16784666328683
 40
13.16784666328683
 10
522.6512395366425
 20
303.6534755718847
 30
0.0
 10
522.6512835955477
 20
303.653512141052
 30
0.0
 10
522.6377563151116
 20
303.6397187107348
 30
0.0
 10
522.4560414752532
 20
303.4553550206825
 30
0.0
 10
521.9017992057198
 20
302.8862235526033
 30
0.0
 10
521.2480342084426
 20
302.199784563065
 30
0.0
 10
520.7737159087678
 20
301.6856536533099
 30
0.0
 10
520.600953676624
 20
301.4948783875458
 30
0.0
  0
SPLINE
  5
D8
330
D6
100
AcDbEntity
  8
0
  6
Continuous
 62
     0
370
     0
100
AcDbSpline
210
0.0
220
0.0
230
1.0
 70
     8
 71
     3
 72
    10
 73
     6
 74
     0
 42
0.000000001
 43
0.0
 40
0.0
 40
0.0
 40
0.0
 40
0.0
 40
0.724039994823727
 40
1.448094429070311
 40
2.172163302831896
 40
2.172163302831896
 40
2.172163302831896
 40
2.172163302831896
 10
522.0151878597773
 20
299.9774322703811
 30
0.0
 10
521.8229210308738
 20
300.072481575789
 30
0.0
 10
521.4346877022006
 20
300.3322849410873
 30
0.0
 10
520.9316479939935
 20
300.8720319359709
 30
0.0
 10
520.6895281570039
 20
301.2885856038036
 30
0.0
 10
520.600953676624
 20
301.4948783875458
 30
0.0
  0
SPLINE
  5
D9
330
D6
100
AcDbEntity
  8
0
  6
Continuous
 62
     0
370
     0
100
AcDbSpline
210
0.0
220
0.0
230
1.0
 70
     8
 71
     3
 72
    16
 73
    12
 74
     0
 42
0.000000001
 43
0.0
 40
7.282708979029231
 40
7.282708979029231
 40
7.282708979029231
 40
7.282708979029231
 40
7.384927086952992
 40
7.602637128883383
 40
8.050609971066821
 40
8.865679014618964
 40
9.588051011786922
 40
10.89999078725118
 40
11.92011468447403
 40
13.27024017354261
 40
13.50286664542282
 40
13.50286664542282
 40
13.50286664542282
 40
13.50286664542282
 10
524.6513364525554
 20
301.6535560372816
 30
0.0
 10
524.6513364679311
 20
301.6535560493206
 30
0.0
 10
524.6504598802125
 20
301.6529850050928
 30
0.0
 10
524.6417681885475
 20
301.6473226506018
 30
0.0
 10
524.5986561966217
 20
301.6192439663364
 30
0.0
 10
524.4746606279793
 20
301.5385770883285
 30
0.0
 10
524.1876891809475
 20
301.3526016601896
 30
0.0
 10
523.737736072326
 20
301.0628984909024
 30
0.0
 10
523.0373127856884
 20
300.6174454862307
 30
0.0
 10
522.4520242724817
 20
300.250046968594
 30
0.0
 10
522.0715854415587
 20
300.0126178123436
 30
0.0
 10
522.0151878597773
 20
299.9774322703811
 30
0.0
  0
SPLINE
  5
DA
330
D6
100
AcDbEntity
  8
0
  6
Continuous
 62
     0
370
     0
100
AcDbSpline
210
0.0
220
0.0
230
1.0
 70
     8
 71
     3
 72
    12
 73
     8
 74
     0
 42
0.000000001
 43
0.0
 40
0.0
 40
0.0
 40
0.0
 40
0.0
 40
0.652089755406342
 40
1.284965752309294
 40
2.406270478567791
 40
3.546936274571016
 40
4.151737047032045
 40
4.151737047032045
 40
4.151737047032045
 40
4.151737047032045
 10
524.1513442888466
 20
297.1535204018977
 30
0.0
 10
524.1513436910228
 20
297.329827213928
 30
0.0
 10
524.1022394747022
 20
297.677151929625
 30
0.0
 10
523.8440237282117
 20
298.3032508508434
 30
0.0
 10
523.3162571260225
 20
298.9900007771964
 30
0.0
 10
522.6342265795367
 20
299.5689861521822
 30
0.0
 10
522.1775747414279
 20
299.8763349785487
 30
0.0
 10
522.0153706674845
 20
299.9776065648159
 30
0.0
  0
SPLINE
  5
DB
330
D6
100
AcDbEntity
  8
0
  6
Continuous
 62
     0
370
     0
100
AcDbSpline
210
0.0
220
0.0
230
1.0
 70
     8
 71
     3
 72
    12
 73
     8
 74
     0
 42
0.000000001
 43
0.0
 40
0.0
 40
0.0
 40
0.0
 40
0.0
 40
0.111110799394611
 40
0.333332398183832
 40
0.66666573151717
 40
0.8888885771723901
 40
0.990960482093917
 40
0.990960482093917
 40
0.990960482093917
 40
0.990960482093917
 10
522.0151878597773
 20
299.9774322703811
 30
0.0
 10
521.9589158110473
 20
299.9496214825433
 30
0.0
 10
521.790100188934
 20
299.8747042060625
 30
0.0
 10
521.4552444913722
 20
299.7779132548379
 30
0.0
 10
521.1006836759105
 20
299.7779238339959
 30
0.0
 10
520.8523900320962
 20
299.8734198533435
 30
0.0
 10
520.7501987261167
 20
299.9456140648545
 30
0.0
 10
520.7200871752024
 20
299.9707399353309
 30
0.0
  0
LINE
  5
DC
330
D6
100
AcDbEntity
  8
0
  6
Continuous
 62
     0
370
     0
100
AcDbLine
 10
524.151344
 20
297.15352
 30
0.0
 11
522.151344
 21
297.15352
 31
0.0
  0
SPLINE
  5
DD
330
D6
100
AcDbEntity
  8
0
  6
Continuous
 62
     0
370
     0
100
AcDbSpline
210
0.0
220
0.0
230
1.0
 70
     8
 71
     3
 72
    12
 73
     8
 74
     0
 42
0.000000001
 43
0.0
 40
0.0043533283961952
 40
0.0043533283961952
 40
0.0043533283961952
 40
0.0043533283961952
 40
0.111109627363873
 40
0.333328882091619
 40
0.66666221542495
 40
0.8888874051416499
 40
1.0
 40
1.0
 40
1.0
 40
1.0
 10
520.707813967724
 20
299.9812128163211
 30
0.0
 10
520.6726080543277
 20
300.0119309810004
 30
0.0
 10
520.5731358921377
 20
300.1170590376956
 30
0.0
 10
520.4318438300261
 20
300.3926571726357
 30
0.0
 10
520.4011414964922
 20
300.8116656936862
 30
0.0
 10
520.4931292667945
 20
301.2198264401047
 30
0.0
 10
520.5714232318544
 20
301.4261157351717
 30
0.0
 10
520.600953676624
 20
301.4948783875458
 30
0.0
  0
SPLINE
  5
DE
330
D6
100
AcDbEntity
  8
0
  6
Continuous
 62
     0
370
     0
100
AcDbSpline
210
0.0
220
0.0
230
1.0
 70
     8
 71
     3
 72
    16
 73
    12
 74
     0
 42
0.000000001
 43
0.0
 40
1.036551057264528
 40
1.036551057264528
 40
1.036551057264528
 40
1.036551057264528
 40
1.110209468683914
 40
2.188886951357268
 40
4.177064877331093
 40
5.670853416855161
 40
7.413623982659933
 40
9.117775860919043
 40
10.62916237558552
 40
12.27383619275323
 40
13.16794967043762
 40
13.16794967043762
 40
13.16794967043762
 40
13.16794967043762
 10
520.6009532857892
 20
301.4947762108782
 30
0.0
 10
520.5867128908699
 20
301.5105007407507
 30
0.0
 10
520.3626297408324
 20
301.7554804331902
 30
0.0
 10
519.696468974342
 20
302.3795501101068
 30
0.0
 10
518.5186869462636
 20
303.0958501511668
 30
0.0
 10
516.9512791359493
 20
303.5889475858185
 30
0.0
 10
515.3601425249991
 20
303.7145209340345
 30
0.0
 10
513.7900782846773
 20
303.4554620136985
 30
0.0
 10
512.3940827567476
 20
302.8864130421145
 30
0.0
 10
511.3999723522286
 20
302.1999426271677
 30
0.0
 10
510.8743763733701
 20
301.6857166584935
 30
0.0
 10
510.7015222117106
 20
301.4948173704698
 30
0.0
  0
SPLINE
  5
DF
330
D6
100
AcDbEntity
  8
0
  6
Continuous
 62
     0
370
     0
100
AcDbSpline
210
0.0
220
0.0
230
1.0
 70
     8
 71
     3
 72
    12
 73
     8
 74
     0
 42
0.000000001
 43
0.0
 40
0.0038142598803563
 40
0.0038142598803563
 40
0.0038142598803563
 40
0.0038142598803563
 40
0.111111241458455
 40
0.3333337243753641
 40
0.6666670577086921
 40
0.8888890192362308
 40
1.0
 40
1.0
 40
1.0
 40
1.0
 10
510.5943406263166
 20
299.9807560126488
 30
0.0
 10
510.6297436812424
 20
300.0115899206277
 30
0.0
 10
510.7293955261667
 20
300.1168221612775
 30
0.0
 10
510.8707412915481
 20
300.3926055175637
 30
0.0
 10
510.9013863336472
 20
300.8115606732662
 30
0.0
 10
510.8093679959139
 20
301.2196744162001
 30
0.0
 10
510.7310655922075
 20
301.4259411696413
 30
0.0
 10
510.7015330320924
 20
301.4946966087129
 30
0.0
  0
ARC
  5
E0
330
D6
100
AcDbEntity
  8
0
  6
Continuous
 62
     0
370
    30
100
AcDbCircle
 10
506.651337
 20
303.653556
 30
0.0
 40
1.999999999999993
100
AcDbArc
 50
270.0
 51
0.0
  0
LINE
  5
E1
330
D6
100
AcDbEntity
  8
0
  6
Continuous
 62
     0
370
     0
100
AcDbLine
 10
509.151344
 20
297.15352
 30
0.0
 11
507.151344
 21
297.15352
 31
0.0
  0
SPLINE
  5
E2
330
D6
100
AcDbEntity
  8
0
  6
Continuous
 62
     0
370
     0
100
AcDbSpline
210
0.0
220
0.0
230
1.0
 70
     8
 71
     3
 72
    12
 73
     8
 74
     0
 42
0.000000001
 43
0.0
 40
0.0
 40
0.0
 40
0.0
 40
0.0
 40
0.111109047727821
 40
0.333327143183463
 40
0.6666604765167989
 40
0.8888868255055999
 40
0.9977917419337549
 40
0.9977917419337549
 40
0.9977917419337549
 40
0.9977917419337549
 10
509.287672429066
 20
299.9778047491286
 30
0.0
 10
509.3439392232556
 20
299.9499809498624
 30
0.0
 10
509.5127385729644
 20
299.8750236960485
 30
0.0
 10
509.8475610794692
 20
299.7781469773719
 30
0.0
 10
510.2020782502044
 20
299.7780575044706
 30
0.0
 10
510.4529087291028
 20
299.8744672600287
 30
0.0
 10
510.5567949029345
 20
299.9486873262866
 30
0.0
 10
510.5886207388759
 20
299.9758264546695
 30
0.0
  0
SPLINE
  5
E3
330
D6
100
AcDbEntity
  8
0
  6
Continuous
 62
     0
370
     0
100
AcDbSpline
210
0.0
220
0.0
230
1.0
 70
     8
 71
     3
 72
    13
 73
     9
 74
     0
 42
0.000000001
 43
0.0
 40
1.088162456940774
 40
1.088162456940774
 40
1.088162456940774
 40
1.088162456940774
 40
1.789405597119858
 40
2.507174003888361
 40
3.180442430366789
 40
4.09568822247947
 40
4.601650003097493
 40
5.240023456047269
 40
5.240023456047269
 40
5.240023456047269
 40
5.240023456047269
 10
509.2877078884417
 20
299.9776886266899
 30
0.0
 10
509.0995211167324
 20
299.8602702945446
 30
0.0
 10
508.7292902100543
 20
299.6084513468485
 30
0.0
 10
508.2268339856712
 20
299.1928352359825
 30
0.0
 10
507.7407089563587
 20
298.6855826599216
 30
0.0
 10
507.3981667350628
 20
298.1740318587933
 30
0.0
 10
507.1941625012719
 20
297.6354579367158
 30
0.0
 10
507.1513442888397
 20
297.326119774649
 30
0.0
 10
507.1513442888397
 20
297.1535204018977
 30
0.0
  0
SPLINE
  5
E4
330
D6
100
AcDbEntity
  8
0
  6
Continuous
 62
     0
370
     0
100
AcDbSpline
210
0.0
220
0.0
230
1.0
 70
     8
 71
     3
 72
    10
 73
     6
 74
     0
 42
0.000000001
 43
0.0
 40
0.0
 40
0.0
 40
0.0
 40
0.0
 40
0.723768534793083
 40
1.447569395276909
 40
2.171402590894657
 40
2.171402590894657
 40
2.171402590894657
 40
2.171402590894657
 10
509.287672429066
 20
299.9778047491286
 30
0.0
 10
509.4798675851804
 20
300.0728544302323
 30
0.0
 10
509.8679575487471
 20
300.3325935440229
 30
0.0
 10
510.3708533091208
 20
300.8721129088087
 30
0.0
 10
510.6129490119563
 20
301.288483728845
 30
0.0
 10
510.7015330320924
 20
301.4946966087129
 30
0.0
  0
ARC
  5
E5
330
D6
100
AcDbEntity
  8
0
  6
Continuous
 62
     0
370
     0
100
AcDbCircle
 10
453.237093
 20
248.975581
 30
0.0
 40
77.84869500308811
100
AcDbArc
 50
42.425474
 51
44.616826
  0
ARC
  5
E6
330
D6
100
AcDbEntity
  8
0
  6
Continuous
 62
     0
370
     0
100
AcDbCircle
 10
584.181421
 20
420.714251
 30
0.0
 40
142.078721068159
100
AcDbArc
 50
236.928582
 51
238.188354
  0
LINE
  5
E7
330
D6
100
AcDbEntity
  8
0
  6
Continuous
 62
     0
370
    30
100
AcDbLine
 10
508.651337
 20
324.353546
 30
0.0
 11
508.651337
 21
303.653556
 31
0.0
  0
ARC
  5
E8
330
D6
100
AcDbEntity
  8
0
  6
Continuous
 62
     0
370
    30
100
AcDbCircle
 10
509.851344
 20
296.353519
 30
0.0
 40
0.699999988079071
100
AcDbArc
 50
180.0
 51
270.0
  0
LINE
  5
E9
330
D6
100
AcDbEntity
  8
0
  6
Continuous
 62
     0
370
     0
100
AcDbLine
 10
521.451344
 20
296.353519
 30
0.0
 11
509.851344
 21
296.353519
 31
0.0
  0
LINE
  5
EA
330
D6
100
AcDbEntity
  8
0
  6
Continuous
 62
     0
370
     0
100
AcDbLine
 10
509.851344
 20
296.353519
 30
0.0
 11
509.851344
 21
295.653519
 31
0.0
  0
LINE
  5
EB
330
D6
100
AcDbEntity
  8
0
  6
Continuous
 62
     0
370
    30
100
AcDbLine
 10
521.451344
 20
295.653519
 30
0.0
 11
509.851344
 21
295.653519
 31
0.0
  0
LINE
  5
EC
330
D6
100
AcDbEntity
  8
0
  6
Continuous
 62
     0
370
     0
100
AcDbLine
 10
521.451344
 20
296.353519
 30
0.0
 11
521.451344
 21
295.653519
 31
0.0
  0
LINE
  5
ED
330
D6
100
AcDbEntity
  8
0
  6
Continuous
 62
     0
370
     0
100
AcDbLine
 10
509.851344
 20
297.153519
 30
0.0
 11
509.151344
 21
297.153519
 31
0.0
  0
LINE
  5
EE
330
D6
100
AcDbEntity
  8
0
  6
Continuous
 62
     0
370
    30
100
AcDbLine
 10
509.151344
 20
296.353519
 30
0.0
 11
509.151344
 21
297.153519
 31
0.0
  0
LINE
  5
EF
330
D6
100
AcDbEntity
  8
0
  6
Continuous
 62
     0
370
     0
100
AcDbLine
 10
509.851344
 20
296.353519
 30
0.0
 11
509.151344
 21
296.353519
 31
0.0
  0
LINE
  5
F0
330
D6
100
AcDbEntity
  8
0
  6
Continuous
 62
     0
370
     0
100
AcDbLine
 10
509.851344
 20
296.353519
 30
0.0
 11
509.851344
 21
297.153519
 31
0.0
  0
ARC
  5
F1
330
D6
100
AcDbEntity
  8
0
  6
Continuous
 62
     0
370
    30
100
AcDbCircle
 10
521.451344
 20
296.353519
 30
0.0
 40
0.6999999880790782
100
AcDbArc
 50
270.0
 51
0.0
  0
LINE
  5
F2
330
D6
100
AcDbEntity
  8
0
  6
Continuous
 62
     0
370
     0
100
AcDbLine
 10
521.451344
 20
297.153517
 30
0.0
 11
521.451344
 21
296.353519
 31
0.0
  0
LINE
  5
F3
330
D6
100
AcDbEntity
  8
0
  6
Continuous
 62
     0
370
     0
100
AcDbLine
 10
521.451344
 20
296.353519
 30
0.0
 11
522.151344
 21
296.353519
 31
0.0
  0
LINE
  5
F4
330
D6
100
AcDbEntity
  8
0
  6
Continuous
 62
     0
370
    30
100
AcDbLine
 10
522.151344
 20
297.153519
 30
0.0
 11
522.151344
 21
296.353519
 31
0.0
  0
LINE
  5
F5
330
D6
100
AcDbEntity
  8
0
  6
Continuous
 62
     0
370
     0
100
AcDbLine
 10
521.451344
 20
297.153519
 30
0.0
 11
522.151344
 21
297.153519
 31
0.0
  0
LINE
  5
F6
330
D6
100
AcDbEntity
  8
0
  6
Continuous
 62
     0
370
     0
100
AcDbLine
 10
524.151344
 20
295.65352
 30
0.0
 11
524.151344
 21
296.35352
 31
0.0
  0
LINE
  5
F7
330
D6
100
AcDbEntity
  8
0
  6
Continuous
 62
     0
370
    30
100
AcDbLine
 10
549.951337
 20
295.65352
 30
0.0
 11
524.151344
 21
295.65352
 31
0.0
  0
LINE
  5
F8
330
D6
100
AcDbEntity
  8
0
  6
Continuous
 62
     0
370
     0
100
AcDbLine
 10
549.951337
 20
295.65352
 30
0.0
 11
549.951337
 21
296.35352
 31
0.0
  0
LINE
  5
F9
330
D6
100
AcDbEntity
  8
0
  6
Continuous
 62
     0
370
     0
100
AcDbLine
 10
549.951337
 20
296.35352
 30
0.0
 11
524.151344
 21
296.35352
 31
0.0
  0
ARC
  5
FA
330
D6
100
AcDbEntity
  8
0
  6
Continuous
 62
     0
370
    30
100
AcDbCircle
 10
549.951337
 20
296.35352
 30
0.0
 40
0.699999988079071
100
AcDbArc
 50
270.0
 51
0.0
  0
LINE
  5
FB
330
D6
100
AcDbEntity
  8
0
  6
Continuous
 62
     0
370
     0
100
AcDbLine
 10
550.651337
 20
297.15352
 30
0.0
 11
549.951337
 21
297.15352
 31
0.0
  0
LINE
  5
FC
330
D6
100
AcDbEntity
  8
0
  6
Continuous
 62
     0
370
     0
100
AcDbLine
 10
549.951337
 20
296.35352
 30
0.0
 11
549.951337
 21
297.15352
 31
0.0
  0
LINE
  5
FD
330
D6
100
AcDbEntity
  8
0
  6
Continuous
 62
     0
370
     0
100
AcDbLine
 10
550.651337
 20
296.35352
 30
0.0
 11
549.951337
 21
296.35352
 31
0.0
  0
LINE
  5
FE
330
D6
100
AcDbEntity
  8
0
  6
Continuous
 62
     0
370
    30
100
AcDbLine
 10
550.651337
 20
296.35352
 30
0.0
 11
550.651337
 21
297.15352
 31
0.0
  0
LINE
  5
FF
330
D6
100
AcDbEntity
  8
0
  6
Continuous
 62
     0
370
     0
100
AcDbLine
 10
507.151344
 20
296.35352
 30
0.0
 11
481.351337
 21
296.35352
 31
0.0
  0
LINE
  5
100
330
D6
100
AcDbEntity
  8
0
  6
Continuous
 62
     0
370
     0
100
AcDbLine
 10
481.351337
 20
295.65352
 30
0.0
 11
481.351337
 21
296.35352
 31
0.0
  0
LINE
  5
101
330
D6
100
AcDbEntity
  8
0
  6
Continuous
 62
     0
370
    30
100
AcDbLine
 10
507.151344
 20
295.65352
 30
0.0
 11
481.351337
 21
295.65352
 31
0.0
  0
LINE
  5
102
330
D6
100
AcDbEntity
  8
0
  6
Continuous
 62
     0
370
     0
100
AcDbLine
 10
507.151344
 20
296.35352
 30
0.0
 11
507.151344
 21
295.65352
 31
0.0
  0
ARC
  5
103
330
D6
100
AcDbEntity
  8
0
  6
Continuous
 62
     0
370
    30
100
AcDbCircle
 10
481.351337
 20
296.35352
 30
0.0
 40
0.6999999880790782
100
AcDbArc
 50
180.0
 51
270.0
  0
LINE
  5
104
330
D6
100
AcDbEntity
  8
0
  6
Continuous
 62
     0
370
    30
100
AcDbLine
 10
480.651337
 20
296.35352
 30
0.0
 11
480.651337
 21
297.15352
 31
0.0
  0
LINE
  5
105
330
D6
100
AcDbEntity
  8
0
  6
Continuous
 62
     0
370
     0
100
AcDbLine
 10
480.651337
 20
296.35352
 30
0.0
 11
481.351337
 21
296.35352
 31
0.0
  0
LINE
  5
106
330
D6
100
AcDbEntity
  8
0
  6
Continuous
 62
     0
370
     0
100
AcDbLine
 10
481.351337
 20
296.35352
 30
0.0
 11
481.351337
 21
297.15352
 31
0.0
  0
LINE
  5
107
330
D6
100
AcDbEntity
  8
0
  6
Continuous
 62
     0
370
     0
100
AcDbLine
 10
480.651337
 20
297.15352
 30
0.0
 11
481.351337
 21
297.15352
 31
0.0
  0
LINE
  5
108
330
D6
100
AcDbEntity
  8
0
  6
Continuous
 62
     0
370
    30
100
AcDbLine
 10
524.151344
 20
295.65352
 30
0.0
 11
521.451344
 21
295.65352
 31
0.0
  0
LINE
  5
109
330
D6
100
AcDbEntity
  8
0
  6
Continuous
 62
     0
370
    30
100
AcDbLine
 10
507.151344
 20
295.65352
 30
0.0
 11
509.851344
 21
295.65352
 31
0.0
  0
LINE
  5
10A
330
D6
100
AcDbEntity
  8
0
  6
Continuous
 62
     0
370
     0
100
AcDbLine
 10
507.151344
 20
297.15352
 30
0.0
 11
481.351337
 21
297.15352
 31
0.0
  0
LINE
  5
10B
330
D6
100
AcDbEntity
  8
0
  6
Continuous
 62
     0
370
     0
100
AcDbLine
 10
507.151344
 20
296.35352
 30
0.0
 11
507.151344
 21
297.15352
 31
0.0
  0
LINE
  5
10C
330
D6
100
AcDbEntity
  8
0
  6
Continuous
 62
     0
370
     0
100
AcDbLine
 10
507.151344
 20
296.35352
 30
0.0
 11
509.151344
 21
296.35352
 31
0.0
  0
LINE
  5
10D
330
D6
100
AcDbEntity
  8
0
  6
Continuous
 62
     0
370
     0
100
AcDbLine
 10
549.951337
 20
297.15352
 30
0.0
 11
524.151344
 21
297.15352
 31
0.0
  0
LINE
  5
10E
330
D6
100
AcDbEntity
  8
0
  6
Continuous
 62
     0
370
     0
100
AcDbLine
 10
524.151344
 20
297.15352
 30
0.0
 11
524.151344
 21
296.35352
 31
0.0
  0
LINE
  5
10F
330
D6
100
AcDbEntity
  8
0
  6
Continuous
 62
     0
370
     0
100
AcDbLine
 10
524.151344
 20
296.35352
 30
0.0
 11
522.151344
 21
296.35352
 31
0.0
  0
SPLINE
  5
110
330
D6
100
AcDbEntity
  8
0
  6
Continuous
 62
     0
370
     0
100
AcDbSpline
210
0.0
220
0.0
230
1.0
 70
     8
 71
     3
 72
    27
 73
    23
 74
     0
 42
0.000000001
 43
0.0
 40
0.0
 40
0.0
 40
0.0
 40
0.0
 40
1.029141359914143
 40
1.899953279841495
 40
2.770765199768846
 40
3.799906559682989
 40
4.987377359583923
 40
5.699859839524484
 40
6.49150703945844
 40
6.887330639425417
 40
7.283154239392395
 40
7.599813119365979
 40
7.916471999339561
 40
8.31229559930654
 40
8.708119199273517
 40
9.499766399207472
 40
10.21224887914803
 40
11.39971967904897
 40
12.4288610389631
 40
13.29967295889046
 40
14.17048487881781
 40
15.19962623873196
 40
15.19962623873196
 40
15.19962623873196
 40
15.19962623873196
 10
509.8513442769188
 20
297.1535191561229
 30
0.0
 10
509.8513442769188
 20
297.3762388206266
 30
0.0
 10
509.9079494748855
 20
297.8040994707446
 30
0.0
 10
510.1832551414449
 20
298.4617050261471
 30
0.0
 10
510.6630107711381
 20
299.1242040371384
 30
0.0
 10
511.4546470593094
 20
299.816174889918
 30
0.0
 10
512.4481171724041
 20
300.3457821731087
 30
0.0
 10
513.4688863623542
 20
300.6876933344564
 30
0.0
 10
514.2169731335532
 20
300.8438110750073
 30
0.0
 10
514.8363466373416
 20
300.9193654168907
 30
0.0
 10
515.2645836965447
 20
300.948131095153
 30
0.0
 10
515.6513366543712
 20
300.9559651539124
 30
0.0
 10
516.0380896451783
 20
300.9481310951551
 30
0.0
 10
516.4663268255388
 20
300.9193654155623
 30
0.0
 10
517.085700648014
 20
300.8438110664323
 30
0.0
 10
517.8337880796788
 20
300.6876933010238
 30
0.0
 10
518.8545587261546
 20
300.3457820439322
 30
0.0
 10
519.8480311195779
 20
299.8161745221508
 30
0.0
 10
520.6396703851923
 20
299.124203140824
 30
0.0
 10
521.1194287466486
 20
298.4617034690222
 30
0.0
 10
521.3947368956287
 20
297.8040972807773
 30
0.0
 10
521.4513435455634
 20
297.376236447057
 30
0.0
 10
521.4513443007646
 20
297.1535167825522
 30
0.0
  0
SPLINE
  5
111
330
D6
100
AcDbEntity
  8
0
  6
Continuous
 62
     0
370
    30
100
AcDbSpline
210
0.0
220
0.0
230
1.0
 70
     8
 71
     3
 72
    41
 73
    37
 74
     0
 42
0.000000001
 43
0.0
 40
0.0
 40
0.0
 40
0.0
 40
0.0
 40
0.6219021576259569
 40
1.243804315251914
 40
1.865706472877871
 40
2.487608630503828
 40
3.109510788129786
 40
3.731412945755742
 40
4.353315103381699
 40
4.975217261007655
 40
5.597119418633612
 40
6.219021576259571
 40
6.840923733885527
 40
7.462825891511484
 40
7.773776970324461
 40
8.084728049137441
 40
8.395679127950421
 40
8.55115466735691
 40
8.706630206763398
 40
8.862105746169885
 40
9.017581285576377
 40
9.328532364389355
 40
9.639483443202334
 40
9.95043452201531
 40
10.57233667964127
 40
11.19423883726722
 40
11.81614099489318
 40
12.43804315251914
 40
13.0599453101451
 40
13.68184746777105
 40
14.30374962539701
 40
14.92565178302297
 40
15.54755394064892
 40
16.16945609827488
 40
16.79135825590084
 40
17.4132604135268
 40
17.4132604135268
 40
17.4132604135268
 40
17.4132604135268
 10
509.1513442888397
 20
297.1535191867208
 30
0.0
 10
509.1513442888397
 20
297.3050432639613
 30
0.0
 10
509.1734849606123
 20
297.6144773872705
 30
0.0
 10
509.2808747925997
 20
298.0911988293882
 30
0.0
 10
509.4685008164488
 20
298.5723367223953
 30
0.0
 10
509.7399510203668
 20
299.0484329147607
 30
0.0
 10
510.0957111036741
 20
299.5091792989494
 30
0.0
 10
510.5327419753003
 20
299.9440401080083
 30
0.0
 10
511.0443812897601
 20
300.3429787479199
 30
0.0
 10
511.6206207248346
 20
300.6971937529376
 30
0.0
 10
512.2487474312242
 20
300.9997564537626
 30
0.0
 10
512.914263517842
 20
301.2460536703155
 30
0.0
 10
513.6019534088952
 20
301.4339841464138
 30
0.0
 10
514.1810905726911
 20
301.5422255974598
 30
0.0
 10
514.6412250134798
 20
301.6010595251677
 30
0.0
 10
514.9832537043209
 20
301.6318043014379
 30
0.0
 10
515.2644492767167
 20
301.646739560943
 30
0.0
 10
515.4866893952908
 20
301.6525979503343
 30
0.0
 10
515.6513366586341
 20
301.65403306429
 30
0.0
 10
515.8159839268436
 20
301.6525979503343
 30
0.0
 10
516.0382240652823
 20
301.646739560943
 30
0.0
 10
516.3194196883209
 20
301.6318043014379
 30
0.0
 10
516.6614484834117
 20
301.6010595251677
 30
0.0
 10
517.1215831236955
 20
301.5422255974598
 30
0.0
 10
517.7007206545182
 20
301.4339841464138
 30
0.0
 10
518.3884111828089
 20
301.2460536703155
 30
0.0
 10
519.0539281045751
 20
300.9997564537626
 30
0.0
 10
519.6820558368989
 20
300.6971937529376
 30
0.0
 10
520.258296473051
 20
300.3429787479199
 30
0.0
 10
520.7699371402381
 20
299.9440401080083
 30
0.0
 10
521.2069694863969
 20
299.5091792989494
 30
0.0
 10
521.5627311320102
 20
299.0484329147607
 30
0.0
 10
521.8341829502824
 20
298.5723367223952
 30
0.0
 10
522.0218106055813
 20
298.0911988293882
 30
0.0
 10
522.1292020540429
 20
297.6144773872704
 30
0.0
 10
522.1513437750496
 20
297.3050432639612
 30
0.0
 10
522.1513442888397
 20
297.1535191867208
 30
0.0
  0
LINE
  5
112
330
D6
100
AcDbEntity
  8
0
  6
Continuous
 62
     0
370
    30
100
AcDbLine
 10
550.651337
 20
297.15352
 30
0.0
 11
550.651337
 21
300.953556
 31
0.0
  0
LINE
  5
113
330
D6
100
AcDbEntity
  8
0
  6
Continuous
 62
     0
370
     0
100
AcDbLine
 10
549.951337
 20
297.15352
 30
0.0
 11
549.951337
 21
301.653556
 31
0.0
  0
LINE
  5
114
330
D6
100
AcDbEntity
  8
0
  6
Continuous
 62
     0
370
    30
100
AcDbLine
 10
480.651337
 20
297.15352
 30
0.0
 11
480.651337
 21
300.953556
 31
0.0
  0
LINE
  5
115
330
D6
100
AcDbEntity
  8
0
  6
Continuous
 62
     0
370
     0
100
AcDbLine
 10
481.351337
 20
297.15352
 30
0.0
 11
481.351337
 21
301.653556
 31
0.0
  0
LINE
  5
116
330
D6
100
AcDbEntity
  8
0
  6
Continuous
 62
     0
370
    30
100
AcDbLine
 10
522.651337
 20
324.353546
 30
0.0
 11
522.651337
 21
303.653596
 31
0.0
  0
ARC
  5
117
330
D6
100
AcDbEntity
  8
0
  6
Continuous
 62
     0
370
    30
100
AcDbCircle
 10
549.951334
 20
300.953553
 30
0.0
 40
0.7000031410629404
100
AcDbArc
 50
0.000662
 51
89.999742
  0
ARC
  5
118
330
D6
100
AcDbEntity
  8
0
  6
Continuous
 62
     0
370
    30
100
AcDbCircle
 10
481.35134
 20
300.953553
 30
0.0
 40
0.7000031410619136
100
AcDbArc
 50
90.000258
 51
179.999338
  0
LINE
  5
119
330
D6
100
AcDbEntity
  8
0
  6
Continuous
 62
     0
370
    30
100
AcDbLine
 10
506.651337
 20
301.653556
 30
0.0
 11
481.351337
 21
301.653556
 31
0.0
  0
LINE
  5
11A
330
D6
100
AcDbEntity
  8
0
  6
Continuous
 62
     0
370
    30
100
AcDbLine
 10
524.651346
 20
301.653556
 30
0.0
 11
549.951337
 21
301.653556
 31
0.0
  0
ARC
  5
11B
330
D6
100
AcDbEntity
  8
0
  6
Continuous
 62
     0
370
    30
100
AcDbCircle
 10
524.651431
 20
303.653748
 30
0.0
 40
2.000191586200526
100
AcDbArc
 50
180.007794
 51
269.997289
  0
LINE
  5
11C
330
D6
100
AcDbEntity
  8
0
  6
Continuous
 62
     0
370
    30
100
AcDbLine
 10
499.151337
 20
324.353546
 30
0.0
 11
532.151337
 21
324.353546
 31
0.0
  0
LINE
  5
11D
330
D6
100
AcDbEntity
  8
0
  6
Continuous
 62
     0
370
    30
100
AcDbLine
 10
532.151337
 20
344.353546
 30
0.0
 11
532.151337
 21
324.353546
 31
0.0
  0
LINE
  5
11E
330
D6
100
AcDbEntity
  8
0
  6
Continuous
 62
     0
370
    30
100
AcDbLine
 10
499.151337
 20
344.353546
 30
0.0
 11
499.151337
 21
324.353546
 31
0.0
  0
LINE
  5
11F
330
D6
100
AcDbEntity
  8
0
  6
Continuous
 62
     0
370
    30
100
AcDbLine
 10
537.151337
 20
287.153551
 30
0.0
 11
494.151337
 21
287.153551
 31
0.0
  0
LINE
  5
120
330
D6
100
AcDbEntity
  8
0
  6
Continuous
 62
     0
370
    30
100
AcDbLine
 10
537.651337
 20
287.653551
 30
0.0
 11
493.651337
 21
287.653551
 31
0.0
  0
LINE
  5
121
330
D6
100
AcDbEntity
  8
0
  6
Continuous
 62
     0
370
    30
100
AcDbLine
 10
499.151337
 20
337.153551
 30
0.0
 11
493.651337
 21
337.153551
 31
0.0
  0
LINE
  5
122
330
D6
100
AcDbEntity
  8
0
  6
Continuous
 62
     0
370
    30
100
AcDbLine
 10
537.651337
 20
337.153551
 30
0.0
 11
532.151337
 21
337.153551
 31
0.0
  0
LINE
  5
123
330
D6
100
AcDbEntity
  8
0
  6
Continuous
 62
     0
370
    30
100
AcDbLine
 10
537.151357
 20
287.153572
 30
0.0
 11
537.651337
 21
287.653551
 31
0.0
  0
LINE
  5
124
330
D6
100
AcDbEntity
  8
0
  6
Continuous
 62
     0
370
    30
100
AcDbLine
 10
494.151316
 20
287.153572
 30
0.0
 11
493.651337
 21
287.653551
 31
0.0
  0
LINE
  5
125
330
D6
100
AcDbEntity
  8
0
  6
Continuous
 62
     0
370
    30
100
AcDbLine
 10
493.651337
 20
301.653562
 30
0.0
 11
493.651337
 21
337.153551
 31
0.0
  0
LINE
  5
126
330
D6
100
AcDbEntity
  8
0
  6
Continuous
 62
     0
370
    30
100
AcDbLine
 10
493.651337
 20
287.653551
 30
0.0
 11
493.651337
 21
295.653526
 31
0.0
  0
LINE
  5
127
330
D6
100
AcDbEntity
  8
0
  6
Continuous
 62
     0
370
    30
100
AcDbLine
 10
537.651337
 20
301.653562
 30
0.0
 11
537.651337
 21
337.153551
 31
0.0
  0
LINE
  5
128
330
D6
100
AcDbEntity
  8
0
  6
Continuous
 62
     0
370
    30
100
AcDbLine
 10
537.651337
 20
287.653551
 30
0.0
 11
537.651337
 21
295.653526
 31
0.0
  0
ARC
  5
129
330
D6
100
AcDbEntity
  8
0
  6
Continuous
 62
     0
370
    30
100
AcDbCircle
 10
515.651337
 20
296.15355
 30
0.0
 40
3.45
100
AcDbArc
 50
188.333496
 51
270.0
  0
ARC
  5
12A
330
D6
100
AcDbEntity
  8
0
  6
Continuous
 62
     0
370
    30
100
AcDbCircle
 10
515.651337
 20
296.15355
 30
0.0
 40
3.45
100
AcDbArc
 50
270.0
 51
351.666504
  0
ARC
  5
12B
330
D6
100
AcDbEntity
  8
0
  6
Continuous
 62
     0
370
    30
100
AcDbCircle
 10
515.651337
 20
296.15355
 30
0.0
 40
3.95
100
AcDbArc
 50
270.0
 51
352.7275
  0
ARC
  5
12C
330
D6
100
AcDbEntity
  8
0
  6
Continuous
 62
     0
370
    30
100
AcDbCircle
 10
515.651337
 20
296.15355
 30
0.0
 40
3.95
100
AcDbArc
 50
187.2725
 51
270.0
  0
LINE
  5
12D
330
D6
100
AcDbEntity
  8
0
  6
Continuous
 62
     0
370
    30
100
AcDbLine
 10
534.651337
 20
340.738976
 30
0.0
 11
534.651337
 21
337.153551
 31
0.0
  0
LINE
  5
12E
330
D6
100
AcDbEntity
  8
0
  6
Continuous
 62
     0
370
    30
100
AcDbLine
 10
496.651337
 20
340.738976
 30
0.0
 11
496.651337
 21
337.153551
 31
0.0
  0
LINE
  5
12F
330
D6
100
AcDbEntity
  8
0
  6
Continuous
 62
     0
370
    30
100
AcDbLine
 10
485.651337
 20
344.353546
 30
0.0
 11
537.431768
 21
344.353546
 31
0.0
  0
LINE
  5
130
330
D6
100
AcDbEntity
  8
0
  6
Continuous
 62
     0
370
    30
100
AcDbLine
 10
537.431768
 20
344.353546
 30
0.0
 11
545.651337
 21
344.353546
 31
0.0
  0
LINE
  5
131
330
D6
100
AcDbEntity
  8
0
  6
Continuous
 62
     0
370
    30
100
AcDbLine
 10
545.651337
 20
344.353546
 30
0.0
 11
545.651337
 21
351.153551
 31
0.0
  0
LINE
  5
132
330
D6
100
AcDbEntity
  8
0
  6
Continuous
 62
     0
370
    30
100
AcDbLine
 10
485.651337
 20
344.353546
 30
0.0
 11
485.651337
 21
351.153551
 31
0.0
  0
ARC
  5
133
330
D6
100
AcDbEntity
  8
0
  6
Continuous
 62
     0
370
    30
100
AcDbCircle
 10
580.149462
 20
342.138448
 30
0.0
 40
0.4999933723565786
100
AcDbArc
 50
271.971277
 51
0.000789
  0
LINE
  5
134
330
D6
100
AcDbEntity
  8
0
  6
Continuous
 62
     0
370
     0
100
AcDbLine
 10
499.151337
 20
342.138455
 30
0.0
 11
450.651337
 21
342.138455
 31
0.0
  0
LINE
  5
135
330
D6
100
AcDbEntity
  8
0
  6
Continuous
 62
     0
370
     0
100
AcDbLine
 10
580.651337
 20
342.138455
 30
0.0
 11
532.151337
 21
342.138455
 31
0.0
  0
LINE
  5
136
330
D6
100
AcDbEntity
  8
0
  6
Continuous
 62
     0
370
     0
100
AcDbLine
 10
532.151337
 20
341.638688
 30
0.0
 11
580.166603
 21
341.638688
 31
0.0
  0
LINE
  5
137
330
D6
100
AcDbEntity
  8
0
  6
Continuous
 62
     0
370
     0
100
AcDbLine
 10
451.13607
 20
341.638688
 30
0.0
 11
499.151337
 21
341.638688
 31
0.0
  0
LINE
  5
138
330
D6
100
AcDbEntity
  8
0
  6
Continuous
 62
     0
370
    30
100
AcDbLine
 10
580.651337
 20
351.153551
 30
0.0
 11
450.651337
 21
351.153551
 31
0.0
  0
LINE
  5
139
330
D6
100
AcDbEntity
  8
0
  6
Continuous
 62
     0
370
    30
100
AcDbLine
 10
580.651337
 20
351.153551
 30
0.0
 11
580.651337
 21
342.138455
 31
0.0
  0
LINE
  5
13A
330
D6
100
AcDbEntity
  8
0
  6
Continuous
 62
     0
370
    30
100
AcDbLine
 10
450.651337
 20
351.153551
 30
0.0
 11
450.651337
 21
342.138455
 31
0.0
  0
ARC
  5
13B
330
D6
100
AcDbEntity
  8
0
  6
Continuous
 62
     0
370
    30
100
AcDbCircle
 10
515.651092
 20
2453.666112
 30
0.0
 40
2113.012562314916
100
AcDbArc
 50
270.515212
 51
271.749656
  0
ARC
  5
13C
330
D6
100
AcDbEntity
  8
0
  6
Continuous
 62
     0
370
    30
100
AcDbCircle
 10
515.651581
 20
2453.666112
 30
0.0
 40
2113.012562314649
100
AcDbArc
 50
268.250344
 51
269.484788
  0
ARC
  5
13D
330
D6
100
AcDbEntity
  8
0
  6
Continuous
 62
     0
370
    30
100
AcDbCircle
 10
580.151252
 20
342.138537
 30
0.0
 40
0.5000844233595563
100
AcDbArc
 50
271.759035
 51
359.990622
  0
ARC
  5
13E
330
D6
100
AcDbEntity
  8
0
  6
Continuous
 62
     0
370
    30
100
AcDbCircle
 10
451.151421
 20
342.138537
 30
0.0
 40
0.5000844233625548
100
AcDbArc
 50
180.009378
 51
268.240965
  0
LINE
  5
13F
330
D6
100
AcDbEntity
  8
0
  6
Continuous
 62
     0
370
    30
100
AcDbLine
 10
532.151337
 20
340.738976
 30
0.0
 11
534.651337
 21
340.738976
 31
0.0
  0
LINE
  5
140
330
D6
100
AcDbEntity
  8
0
  6
Continuous
 62
     0
370
    30
100
AcDbLine
 10
496.651337
 20
340.738976
 30
0.0
 11
499.151337
 21
340.738976
 31
0.0
  0
ENDBLK
  5
142
330
D6
100
AcDbEntity
  8
0
100
AcDbBlockEnd
  0
BLOCK
  5
1AD
330
144
100
AcDbEntity
  8
0
100
AcDbBlockBegin
  2
c
 70
     0
 10
1048.730896
 20
361.123352
 30
0.0
  3
c
  1

  0
SPLINE
  5
145
330
144
100
AcDbEntity
  8
0
  6
Continuous
 62
     0
370
     0
100
AcDbSpline
210
0.0
220
0.0
230
1.0
 70
     8
 71
     3
 72
    12
 73
     8
 74
     0
 42
0.000000001
 43
0.0
 40
0.0
 40
0.0
 40
0.0
 40
0.0
 40
0.111109389663755
 40
0.333328168991265
 40
0.666661502324595
 40
0.8888871674415318
 40
1.0
 40
1.0
 40
1.0
 40
1.0
 10
783.8398219412966
 20
674.9275281768837
 30
0.0
 10
783.8081381494561
 20
674.991613627871
 30
0.0
 10
783.7020403775116
 20
675.1838704745498
 30
0.0
 10
783.4246208189506
 20
675.5642675104405
 30
0.0
 10
783.0056001678836
 20
675.9547700610137
 30
0.0
 10
782.5974296516906
 20
676.2133010286863
 30
0.0
 10
782.3911359416619
 20
676.3121720745838
 30
0.0
 10
782.3223718990562
 20
676.3416971737971
 30
0.0
  0
SPLINE
  5
146
330
144
100
AcDbEntity
  8
0
  6
Continuous
 62
     0
370
     0
100
AcDbSpline
210
0.0
220
0.0
230
1.0
 70
     8
 71
     3
 72
    12
 73
     8
 74
     0
 42
0.000000001
 43
0.0
 40
1.036635856510563
 40
1.036635856510563
 40
1.036635856510563
 40
1.036635856510563
 40
1.110310092514155
 40
2.188994991329097
 40
4.177157147560492
 40
5.670932717091721
 40
7.102293978971531
 40
7.102293978971531
 40
7.102293978971531
 40
7.102293978971531
 10
782.3224757411274
 20
676.34157035242
 30
0.0
 10
782.3067479272721
 20
676.3273254598588
 30
0.0
 10
782.0617650024869
 20
676.1051377735914
 30
0.0
 10
781.4377000571217
 20
675.5269251240677
 30
0.0
 10
780.7214157214596
 20
674.8379482500748
 30
0.0
 10
780.2577262719498
 20
674.384144102936
 30
0.0
 10
780.163981552593
 20
674.2917785086933
 30
0.0
 10
780.1638230641541
 20
674.291585546586
 30
0.0
  0
SPLINE
  5
147
330
144
100
AcDbEntity
  8
0
  6
Continuous
 62
     0
370
     0
100
AcDbSpline
210
0.0
220
0.0
230
1.0
 70
     8
 71
     3
 72
    16
 73
    12
 74
     0
 42
0.000000001
 43
0.0
 40
1.062730039620169
 40
1.062730039620169
 40
1.062730039620169
 40
1.062730039620169
 40
1.298844020412494
 40
3.00647762785051
 40
3.878810137768495
 40
4.283418985048317
 40
5.569278828870885
 40
6.279170434890743
 40
6.951151654700984
 40
7.169019754993681
 40
7.282736434396779
 40
7.282736434396779
 40
7.282736434396779
 40
7.282736434396779
 10
783.8398034761697
 20
674.9275264576069
 30
0.0
 10
783.8040890049002
 20
674.8702830327968
 30
0.0
 10
783.5125222241113
 20
674.4031278023592
 30
0.0
 10
783.1206168544188
 20
673.7799555121137
 30
0.0
 10
782.7775933151888
 20
673.2422367328488
 30
0.0
 10
782.5215307523144
 20
672.8431236457611
 30
0.0
 10
782.3338504895853
 20
672.5530542369511
 30
0.0
 10
782.209462764149
 20
672.3616789667899
 30
0.0
 10
782.172202395417
 20
672.3044750585816
 30
0.0
 10
782.1644010874369
 20
672.2924993384427
 30
0.0
 10
782.1637427440413
 20
672.2914887775844
 30
0.0
 10
782.1637427882072
 20
672.2914888539681
 30
0.0
  0
SPLINE
  5
148
330
144
100
AcDbEntity
  8
0
  6
Continuous
 62
     0
370
     0
100
AcDbSpline
210
0.0
220
0.0
230
1.0
 70
     8
 71
     3
 72
    12
 73
     8
 74
     0
 42
0.000000001
 43
0.0
 40
7.102250363851074
 40
7.102250363851074
 40
7.102250363851074
 40
7.102250363851074
 40
7.413623982659933
 40
9.117775860919043
 40
10.62916237558552
 40
12.27383619275323
 40
13.16794967043762
 40
13.16794967043762
 40
13.16794967043762
 40
13.16794967043762
 10
780.1638230493471
 20
688.2913917648771
 30
0.0
 10
780.1637880514334
 20
688.2914342624213
 30
0.0
 10
780.1775644364905
 20
688.2779236982358
 30
0.0
 10
780.3618365959908
 20
688.0962987782934
 30
0.0
 10
780.9308856528189
 20
687.54213431973
 30
0.0
 10
781.6173561397982
 20
686.8883343162772
 30
0.0
 10
782.1315821521841
 20
686.4139238958821
 30
0.0
 10
782.32248145532
 20
686.2410500841472
 30
0.0
  0
SPLINE
  5
149
330
144
100
AcDbEntity
  8
0
  6
Continuous
 62
     0
370
     0
100
AcDbSpline
210
0.0
220
0.0
230
1.0
 70
     8
 71
     3
 72
    12
 73
     8
 74
     0
 42
0.000000001
 43
0.0
 40
0.0
 40
0.0
 40
0.0
 40
0.0
 40
0.111111241458455
 40
0.3333337243753641
 40
0.6666670577086921
 40
0.8888890192362308
 40
1.0
 40
1.0
 40
1.0
 40
1.0
 10
783.8398180536371
 20
687.655452494713
 30
0.0
 10
783.8081407521904
 20
687.5913601757775
 30
0.0
 10
783.7020635553845
 20
687.3990832563577
 30
0.0
 10
783.4246932668392
 20
687.0186525602309
 30
0.0
 10
783.0057381268679
 20
686.6281216612375
 30
0.0
 10
782.5976243992577
 20
686.3695752632594
 30
0.0
 10
782.3913576535612
 20
686.2706991924206
 30
0.0
 10
782.3226022170711
 20
686.2411726185269
 30
0.0
  0
SPLINE
  5
14A
330
144
100
AcDbEntity
  8
0
  6
Continuous
 62
     0
370
     0
100
AcDbSpline
210
0.0
220
0.0
230
1.0
 70
     8
 71
     3
 72
    16
 73
    12
 74
     0
 42
0.000000001
 43
0.0
 40
7.282720684980313
 40
7.282720684980313
 40
7.282720684980313
 40
7.282720684980313
 40
7.384513118866292
 40
7.602217266638417
 40
8.050191807642802
 40
8.86526448578363
 40
9.587637740828352
 40
10.8995549181586
 40
11.91965418861641
 40
13.26974015494066
 40
13.50272488721378
 40
13.50272488721378
 40
13.50272488721378
 40
13.50272488721378
 10
782.1637427881435
 20
690.2914884410438
 30
0.0
 10
782.1637427953507
 20
690.2914884267954
 30
0.0
 10
782.164310755383
 20
690.2906165733386
 30
0.0
 10
782.169958608954
 20
690.2819471430124
 30
0.0
 10
782.1980154787157
 20
690.2388686740674
 30
0.0
 10
782.2786545875049
 20
690.1149159845536
 30
0.0
 10
782.4645921418207
 20
689.828003693603
 30
0.0
 10
782.7542567583183
 20
689.3781122088893
 30
0.0
 10
783.199666241446
 20
688.6777607749427
 30
0.0
 10
783.5670887681997
 20
688.0924372768142
 30
0.0
 10
783.8045599772665
 20
687.7119312260074
 30
0.0
 10
783.8397993249143
 20
687.6554473996765
 30
0.0
  0
LINE
  5
14B
330
144
100
AcDbEntity
  8
0
  6
Continuous
 62
     0
370
     0
100
AcDbLine
 10
786.663779
 20
672.791481
 30
0.0
 11
786.663783
 21
674.791481
 31
0.0
  0
SPLINE
  5
14C
330
144
100
AcDbEntity
  8
0
  6
Continuous
 62
     0
370
     0
100
AcDbSpline
210
0.0
220
0.0
230
1.0
 70
     8
 71
     3
 72
    12
 73
     8
 74
     0
 42
0.000000001
 43
0.0
 40
0.0
 40
0.0
 40
0.0
 40
0.0
 40
0.111108038113273
 40
0.33332411433982
 40
0.66665744767315
 40
0.88888581589105
 40
1.0
 40
1.0
 40
1.0
 40
1.0
 10
783.8394884355018
 20
676.2308216037591
 30
0.0
 10
783.8673142496791
 20
676.1984390200853
 30
0.0
 10
783.9422771132483
 20
676.093974564819
 30
0.0
 10
784.0391627645832
 20
675.8422374771063
 30
0.0
 10
784.0392554525893
 20
675.4876084712512
 30
0.0
 10
783.9425209640203
 20
675.1526737821514
 30
0.0
 10
783.8676258834977
 20
674.9838147719544
 30
0.0
 10
783.8398219412966
 20
674.9275281768837
 30
0.0
  0
SPLINE
  5
14D
330
144
100
AcDbEntity
  8
0
  6
Continuous
 62
     0
370
     0
100
AcDbSpline
210
0.0
220
0.0
230
1.0
 70
     8
 71
     3
 72
    12
 73
     8
 74
     0
 42
0.000000001
 43
0.0
 40
0.0
 40
0.0
 40
0.0
 40
0.0
 40
0.652157515117174
 40
1.285081495959968
 40
2.40640929533869
 40
3.54711927326115
 40
4.151709447694246
 40
4.151709447694246
 40
4.151709447694246
 40
4.151709447694246
 10
786.663778423881
 20
672.7914810180594
 30
0.0
 10
786.4874527165343
 20
672.7914816159473
 30
0.0
 10
786.1400956167985
 20
672.8405958289527
 30
0.0
 10
785.513963253595
 20
673.0988503168625
 30
0.0
 10
784.8271955122273
 20
673.6266655616103
 30
0.0
 10
784.2482522507402
 20
674.3086823188087
 30
0.0
 10
783.9409362124436
 20
674.7652956879756
 30
0.0
 10
783.8396993181404
 20
674.9274436353744
 30
0.0
  0
LINE
  5
14E
330
144
100
AcDbEntity
  8
0
  6
Continuous
 62
     0
370
     0
100
AcDbLine
 10
780.163743
 20
681.291489
 30
0.0
 11
782.163743
 21
681.291489
 31
0.0
  0
SPLINE
  5
14F
330
144
100
AcDbEntity
  8
0
  6
Continuous
 62
     0
370
     0
100
AcDbSpline
210
0.0
220
0.0
230
1.0
 70
     8
 71
     3
 72
    11
 73
     7
 74
     0
 42
0.000000001
 43
0.0
 40
0.0
 40
0.0
 40
0.0
 40
0.0
 40
1.883296316188154
 40
3.289825110510949
 40
5.023818361468754
 40
6.068230926565725
 40
6.068230926565725
 40
6.068230926565725
 40
6.068230926565725
 10
780.1637429394865
 20
681.2914886474609
 30
0.0
 10
780.1637429394864
 20
680.6892557714814
 30
0.0
 10
780.304010448046
 20
679.6382530482739
 30
0.0
 10
780.856395153213
 20
678.1756353159747
 30
0.0
 10
781.5419789717132
 20
677.1248813333424
 30
0.0
 10
782.0994343658822
 20
676.5435344252212
 30
0.0
 10
782.3223718990562
 20
676.3416971737971
 30
0.0
  0
SPLINE
  5
150
330
144
100
AcDbEntity
  8
0
  6
Continuous
 62
     0
370
     0
100
AcDbSpline
210
0.0
220
0.0
230
1.0
 70
     8
 71
     3
 72
    10
 73
     6
 74
     0
 42
0.000000001
 43
0.0
 40
0.0
 40
0.0
 40
0.0
 40
0.0
 40
0.7239316039813539
 40
1.447888680737982
 40
2.171871227611908
 40
2.171871227611908
 40
2.171871227611908
 40
2.171871227611908
 10
783.8394884355018
 20
676.2308216037591
 30
0.0
 10
783.7444514757968
 20
676.3414489979535
 30
0.0
 10
783.4846942011129
 20
676.5065318821528
 30
0.0
 10
782.9450690347761
 20
676.545974537828
 30
0.0
 10
782.5286165637949
 20
676.4303111780808
 30
0.0
 10
782.3223718990562
 20
676.3416971737971
 30
0.0
  0
LINE
  5
151
330
144
100
AcDbEntity
  8
0
  6
Continuous
 62
     0
370
     0
100
AcDbLine
 10
786.663779
 20
689.791481
 30
0.0
 11
786.663779
 21
687.791481
 31
0.0
  0
SPLINE
  5
152
330
144
100
AcDbEntity
  8
0
  6
Continuous
 62
     0
370
     0
100
AcDbSpline
210
0.0
220
0.0
230
1.0
 70
     8
 71
     3
 72
    13
 73
     9
 74
     0
 42
0.000000001
 43
0.0
 40
1.088573759845575
 40
1.088573759845575
 40
1.088573759845575
 40
1.088573759845575
 40
1.789405597119867
 40
2.507174003888374
 40
3.180442430366806
 40
4.095688222479491
 40
4.601650003097516
 40
5.240023456047296
 40
5.240023456047296
 40
5.240023456047296
 40
5.240023456047296
 10
783.8398168158513
 20
687.6554485468574
 30
0.0
 10
783.9571745140579
 20
687.8435188118117
 30
0.0
 10
784.2089291812433
 20
688.2136338702985
 30
0.0
 10
784.6244635897963
 20
688.7159913212348
 30
0.0
 10
785.1317161658571
 20
689.2021163505473
 30
0.0
 10
785.6432669669855
 20
689.5446585718432
 30
0.0
 10
786.181840889063
 20
689.7486628056341
 30
0.0
 10
786.4911790511296
 20
689.7914810180664
 30
0.0
 10
786.663778423881
 20
689.7914810180664
 30
0.0
  0
SPLINE
  5
153
330
144
100
AcDbEntity
  8
0
  6
Continuous
 62
     0
370
     0
100
AcDbSpline
210
0.0
220
0.0
230
1.0
 70
     8
 71
     3
 72
    12
 73
     8
 74
     0
 42
0.000000001
 43
0.0
 40
0.0
 40
0.0
 40
0.0
 40
0.0
 40
0.111109047727821
 40
0.333327143183463
 40
0.6666604765167989
 40
0.8888868255055999
 40
1.0
 40
1.0
 40
1.0
 40
1.0
 10
783.8394941336089
 20
686.3520882953399
 30
0.0
 10
783.8673179289999
 20
686.3844748919016
 30
0.0
 10
783.9422751708686
 20
686.4889511016759
 30
0.0
 10
784.039151863905
 20
686.7407088626137
 30
0.0
 10
784.0392413058078
 20
687.0953562812354
 30
0.0
 10
783.942511119848
 20
687.4303018329747
 30
0.0
 10
783.8676203603318
 20
687.5991646991761
 30
0.0
 10
783.8398180536371
 20
687.655452494713
 30
0.0
  0
SPLINE
  5
154
330
144
100
AcDbEntity
  8
0
  6
Continuous
 62
     0
370
     0
100
AcDbSpline
210
0.0
220
0.0
230
1.0
 70
     8
 71
     3
 72
    10
 73
     6
 74
     0
 42
0.000000001
 43
0.0
 40
0.0
 40
0.0
 40
0.0
 40
0.0
 40
0.723768534793083
 40
1.447569395276909
 40
2.171402590894657
 40
2.171402590894657
 40
2.171402590894657
 40
2.171402590894657
 10
783.8394941336089
 20
686.3520882953399
 30
0.0
 10
783.7444444489383
 20
686.2414938806619
 30
0.0
 10
783.4847053253976
 20
686.076462137652
 30
0.0
 10
782.945185940354
 20
686.0370111859894
 30
0.0
 10
782.5288151046825
 20
686.1526059100295
 30
0.0
 10
782.3226022170711
 20
686.2411726185269
 30
0.0
  0
SPLINE
  5
155
330
144
100
AcDbEntity
  8
0
  6
Continuous
 62
     0
370
     0
100
AcDbSpline
210
0.0
220
0.0
230
1.0
 70
     8
 71
     3
 72
    12
 73
     8
 74
     0
 42
0.000000001
 43
0.0
 40
1.036846323820207
 40
1.036846323820207
 40
1.036846323820207
 40
1.036846323820207
 40
1.111290277148617
 40
2.190440414270058
 40
4.17929580208464
 40
5.433683420479644
 40
7.104807553753638
 40
7.104807553753638
 40
7.104807553753638
 40
7.104807553753638
 10
782.3226022170711
 20
686.2411726185269
 30
0.0
 10
782.3067158317685
 20
686.2267862523148
 30
0.0
 10
782.0615691796694
 20
686.0025370891277
 30
0.0
 10
781.4373996000606
 20
685.3361696802692
 30
0.0
 10
780.7589286079035
 20
684.220190867977
 30
0.0
 10
780.2740236162035
 20
682.7607644287787
 30
0.0
 10
780.1637429394865
 20
681.8258736089225
 30
0.0
 10
780.1637429394865
 20
681.2914886474609
 30
0.0
  0
LINE
  5
156
330
144
100
AcDbEntity
  8
0
  6
Continuous
 62
     0
370
     0
100
AcDbLine
 10
788.163778
 20
689.791481
 30
0.0
 11
787.463778
 21
689.791481
 31
0.0
  0
LINE
  5
157
330
144
100
AcDbEntity
  8
0
  6
Continuous
 62
     0
370
    30
100
AcDbLine
 10
788.163778
 20
715.591489
 30
0.0
 11
788.163778
 21
689.791481
 31
0.0
  0
LINE
  5
158
330
144
100
AcDbEntity
  8
0
  6
Continuous
 62
     0
370
     0
100
AcDbLine
 10
788.163778
 20
715.591489
 30
0.0
 11
787.463778
 21
715.591489
 31
0.0
  0
LINE
  5
159
330
144
100
AcDbEntity
  8
0
  6
Continuous
 62
     0
370
     0
100
AcDbLine
 10
787.463778
 20
715.591489
 30
0.0
 11
787.463778
 21
689.791481
 31
0.0
  0
ARC
  5
15A
330
144
100
AcDbEntity
  8
0
  6
Continuous
 62
     0
370
    30
100
AcDbCircle
 10
787.463778
 20
715.591489
 30
0.0
 40
0.699999988079071
100
AcDbArc
 50
0.0
 51
90.0
  0
LINE
  5
15B
330
144
100
AcDbEntity
  8
0
  6
Continuous
 62
     0
370
     0
100
AcDbLine
 10
786.663778
 20
716.291489
 30
0.0
 11
786.663778
 21
715.591489
 31
0.0
  0
LINE
  5
15C
330
144
100
AcDbEntity
  8
0
  6
Continuous
 62
     0
370
     0
100
AcDbLine
 10
787.463778
 20
715.591489
 30
0.0
 11
786.663778
 21
715.591489
 31
0.0
  0
LINE
  5
15D
330
144
100
AcDbEntity
  8
0
  6
Continuous
 62
     0
370
     0
100
AcDbLine
 10
787.463778
 20
716.291489
 30
0.0
 11
787.463778
 21
715.591489
 31
0.0
  0
LINE
  5
15E
330
144
100
AcDbEntity
  8
0
  6
Continuous
 62
     0
370
    30
100
AcDbLine
 10
787.463778
 20
716.291489
 30
0.0
 11
786.663778
 21
716.291489
 31
0.0
  0
ARC
  5
15F
330
144
100
AcDbEntity
  8
0
  6
Continuous
 62
     0
370
    30
100
AcDbCircle
 10
787.463778
 20
646.991489
 30
0.0
 40
0.699999988079071
100
AcDbArc
 50
270.0
 51
360.0
  0
ARC
  5
160
330
144
100
AcDbEntity
  8
0
  6
Continuous
 62
     0
370
    30
100
AcDbCircle
 10
787.46378
 20
687.091481
 30
0.0
 40
0.6999999880790782
100
AcDbArc
 50
360.0
 51
90.0
  0
LINE
  5
161
330
144
100
AcDbEntity
  8
0
  6
Continuous
 62
     0
370
     0
100
AcDbLine
 10
787.46378
 20
675.491481
 30
0.0
 11
788.16378
 21
675.491481
 31
0.0
  0
LINE
  5
162
330
144
100
AcDbEntity
  8
0
  6
Continuous
 62
     0
370
    30
100
AcDbLine
 10
788.16378
 20
675.491481
 30
0.0
 11
788.16378
 21
687.091481
 31
0.0
  0
LINE
  5
163
330
144
100
AcDbEntity
  8
0
  6
Continuous
 62
     0
370
     0
100
AcDbLine
 10
787.46378
 20
687.091481
 30
0.0
 11
788.16378
 21
687.091481
 31
0.0
  0
LINE
  5
164
330
144
100
AcDbEntity
  8
0
  6
Continuous
 62
     0
370
     0
100
AcDbLine
 10
787.46378
 20
675.491481
 30
0.0
 11
787.46378
 21
687.091481
 31
0.0
  0
LINE
  5
165
330
144
100
AcDbEntity
  8
0
  6
Continuous
 62
     0
370
     0
100
AcDbLine
 10
787.46378
 20
687.091481
 30
0.0
 11
786.66378
 21
687.091481
 31
0.0
  0
LINE
  5
166
330
144
100
AcDbEntity
  8
0
  6
Continuous
 62
     0
370
     0
100
AcDbLine
 10
787.46378
 20
687.091481
 30
0.0
 11
787.46378
 21
687.791481
 31
0.0
  0
LINE
  5
167
330
144
100
AcDbEntity
  8
0
  6
Continuous
 62
     0
370
    30
100
AcDbLine
 10
787.46378
 20
687.791481
 30
0.0
 11
786.66378
 21
687.791481
 31
0.0
  0
LINE
  5
168
330
144
100
AcDbEntity
  8
0
  6
Continuous
 62
     0
370
     0
100
AcDbLine
 10
786.66378
 20
687.091481
 30
0.0
 11
786.66378
 21
687.791481
 31
0.0
  0
LINE
  5
169
330
144
100
AcDbEntity
  8
0
  6
Continuous
 62
     0
370
     0
100
AcDbLine
 10
787.463778
 20
672.791481
 30
0.0
 11
787.463778
 21
646.991489
 31
0.0
  0
LINE
  5
16A
330
144
100
AcDbEntity
  8
0
  6
Continuous
 62
     0
370
     0
100
AcDbLine
 10
788.163778
 20
646.991489
 30
0.0
 11
787.463778
 21
646.991489
 31
0.0
  0
LINE
  5
16B
330
144
100
AcDbEntity
  8
0
  6
Continuous
 62
     0
370
    30
100
AcDbLine
 10
788.163778
 20
672.791481
 30
0.0
 11
788.163778
 21
646.991489
 31
0.0
  0
LINE
  5
16C
330
144
100
AcDbEntity
  8
0
  6
Continuous
 62
     0
370
     0
100
AcDbLine
 10
787.463778
 20
672.791481
 30
0.0
 11
788.163778
 21
672.791481
 31
0.0
  0
LINE
  5
16D
330
144
100
AcDbEntity
  8
0
  6
Continuous
 62
     0
370
    30
100
AcDbLine
 10
787.463778
 20
646.291489
 30
0.0
 11
786.663778
 21
646.291489
 31
0.0
  0
LINE
  5
16E
330
144
100
AcDbEntity
  8
0
  6
Continuous
 62
     0
370
     0
100
AcDbLine
 10
787.463778
 20
646.291489
 30
0.0
 11
787.463778
 21
646.991489
 31
0.0
  0
LINE
  5
16F
330
144
100
AcDbEntity
  8
0
  6
Continuous
 62
     0
370
     0
100
AcDbLine
 10
787.463778
 20
646.991489
 30
0.0
 11
786.663778
 21
646.991489
 31
0.0
  0
LINE
  5
170
330
144
100
AcDbEntity
  8
0
  6
Continuous
 62
     0
370
     0
100
AcDbLine
 10
786.663778
 20
646.291489
 30
0.0
 11
786.663778
 21
646.991489
 31
0.0
  0
ARC
  5
171
330
144
100
AcDbEntity
  8
0
  6
Continuous
 62
     0
370
    30
100
AcDbCircle
 10
787.46378
 20
675.491481
 30
0.0
 40
0.699999988079071
100
AcDbArc
 50
270.0
 51
360.0
  0
LINE
  5
172
330
144
100
AcDbEntity
  8
0
  6
Continuous
 62
     0
370
     0
100
AcDbLine
 10
786.66378
 20
675.491481
 30
0.0
 11
786.66378
 21
674.791481
 31
0.0
  0
LINE
  5
173
330
144
100
AcDbEntity
  8
0
  6
Continuous
 62
     0
370
    30
100
AcDbLine
 10
786.66378
 20
674.791481
 30
0.0
 11
787.46378
 21
674.791481
 31
0.0
  0
LINE
  5
174
330
144
100
AcDbEntity
  8
0
  6
Continuous
 62
     0
370
     0
100
AcDbLine
 10
787.46378
 20
675.491481
 30
0.0
 11
787.46378
 21
674.791481
 31
0.0
  0
LINE
  5
175
330
144
100
AcDbEntity
  8
0
  6
Continuous
 62
     0
370
     0
100
AcDbLine
 10
786.663782
 20
675.491481
 30
0.0
 11
787.46378
 21
675.491481
 31
0.0
  0
LINE
  5
176
330
144
100
AcDbEntity
  8
0
  6
Continuous
 62
     0
370
    30
100
AcDbLine
 10
788.163779
 20
675.491481
 30
0.0
 11
788.163779
 21
672.791481
 31
0.0
  0
LINE
  5
177
330
144
100
AcDbEntity
  8
0
  6
Continuous
 62
     0
370
    30
100
AcDbLine
 10
788.163779
 20
687.091481
 30
0.0
 11
788.163779
 21
689.791481
 31
0.0
  0
LINE
  5
178
330
144
100
AcDbEntity
  8
0
  6
Continuous
 62
     0
370
     0
100
AcDbLine
 10
787.463779
 20
687.791481
 30
0.0
 11
787.463779
 21
689.791481
 31
0.0
  0
LINE
  5
179
330
144
100
AcDbEntity
  8
0
  6
Continuous
 62
     0
370
     0
100
AcDbLine
 10
787.463778
 20
689.791481
 30
0.0
 11
786.663778
 21
689.791481
 31
0.0
  0
LINE
  5
17A
330
144
100
AcDbEntity
  8
0
  6
Continuous
 62
     0
370
     0
100
AcDbLine
 10
786.663778
 20
715.591489
 30
0.0
 11
786.663778
 21
689.791481
 31
0.0
  0
LINE
  5
17B
330
144
100
AcDbEntity
  8
0
  6
Continuous
 62
     0
370
    30
100
AcDbLine
 10
786.663778
 20
716.291489
 30
0.0
 11
782.863743
 21
716.291489
 31
0.0
  0
LINE
  5
17C
330
144
100
AcDbEntity
  8
0
  6
Continuous
 62
     0
370
     0
100
AcDbLine
 10
786.663778
 20
715.591489
 30
0.0
 11
782.163743
 21
715.591489
 31
0.0
  0
LINE
  5
17D
330
144
100
AcDbEntity
  8
0
  6
Continuous
 62
     0
370
    30
100
AcDbLine
 10
786.663778
 20
646.291489
 30
0.0
 11
782.863743
 21
646.291489
 31
0.0
  0
LINE
  5
17E
330
144
100
AcDbEntity
  8
0
  6
Continuous
 62
     0
370
     0
100
AcDbLine
 10
786.663778
 20
646.991489
 30
0.0
 11
782.163743
 21
646.991489
 31
0.0
  0
LINE
  5
17F
330
144
100
AcDbEntity
  8
0
  6
Continuous
 62
     0
370
     0
100
AcDbLine
 10
786.663778
 20
672.791481
 30
0.0
 11
786.663778
 21
646.991489
 31
0.0
  0
LINE
  5
180
330
144
100
AcDbEntity
  8
0
  6
Continuous
 62
     0
370
     0
100
AcDbLine
 10
786.663778
 20
672.791481
 30
0.0
 11
787.463778
 21
672.791481
 31
0.0
  0
SPLINE
  5
181
330
144
100
AcDbEntity
  8
0
  6
Continuous
 62
     0
370
     0
100
AcDbSpline
210
0.0
220
0.0
230
1.0
 70
     8
 71
     3
 72
    27
 73
    23
 74
     0
 42
0.000000001
 43
0.0
 40
0.0
 40
0.0
 40
0.0
 40
0.0
 40
1.029141359914143
 40
1.899953279841494
 40
2.770765199768845
 40
3.799906559682988
 40
4.987377359583922
 40
5.699859839524484
 40
6.491507039458438
 40
6.887330639425416
 40
7.283154239392394
 40
7.599813119365976
 40
7.916471999339558
 40
8.312295599306537
 40
8.708119199273515
 40
9.49976639920747
 40
10.21224887914803
 40
11.39971967904896
 40
12.4288610389631
 40
13.29967295889045
 40
14.17048487881781
 40
15.19962623873195
 40
15.19962623873195
 40
15.19962623873195
 40
15.19962623873195
 10
786.663779669656
 20
687.0914810299873
 30
0.0
 10
786.4410600051523
 20
687.0914810299873
 30
0.0
 10
786.0131993550342
 20
687.0348758320206
 30
0.0
 10
785.3555937996318
 20
686.7595701654611
 30
0.0
 10
784.6930947886406
 20
686.279814535768
 30
0.0
 10
784.001123935861
 20
685.4881782475966
 30
0.0
 10
783.4715166526702
 20
684.4947081345019
 30
0.0
 10
783.1296054913225
 20
683.473938944552
 30
0.0
 10
782.9734877507716
 20
682.7258521733529
 30
0.0
 10
782.8979334088883
 20
682.1064786695645
 30
0.0
 10
782.869167730626
 20
681.6782416103614
 30
0.0
 10
782.8613336718665
 20
681.2914886525349
 30
0.0
 10
782.8691677306238
 20
680.9047356617278
 30
0.0
 10
782.8979334102166
 20
680.4764984813673
 30
0.0
 10
782.9734877593467
 20
679.8571246588921
 30
0.0
 10
783.1296055247551
 20
679.1090372272273
 30
0.0
 10
783.4715167818467
 20
678.0882665807515
 30
0.0
 10
784.0011243036281
 20
677.0947941873281
 30
0.0
 10
784.6930956849549
 20
676.3031549217138
 30
0.0
 10
785.3555953567567
 20
675.8233965602574
 30
0.0
 10
786.0132015450015
 20
675.5480884112774
 30
0.0
 10
786.4410623787219
 20
675.4914817613427
 30
0.0
 10
786.6637820432268
 20
675.4914810061415
 30
0.0
  0
SPLINE
  5
182
330
144
100
AcDbEntity
  8
0
  6
Continuous
 62
     0
370
    30
100
AcDbSpline
210
0.0
220
0.0
230
1.0
 70
     8
 71
     3
 72
    41
 73
    37
 74
     0
 42
0.000000001
 43
0.0
 40
0.0
 40
0.0
 40
0.0
 40
0.0
 40
0.6219021576259569
 40
1.243804315251913
 40
1.86570647287787
 40
2.487608630503826
 40
3.109510788129783
 40
3.73141294575574
 40
4.353315103381695
 40
4.975217261007653
 40
5.597119418633609
 40
6.219021576259564
 40
6.84092373388552
 40
7.462825891511478
 40
7.773776970324458
 40
8.084728049137436
 40
8.395679127950412
 40
8.551154667356904
 40
8.706630206763391
 40
8.86210574616988
 40
9.017581285576368
 40
9.32853236438935
 40
9.639483443202327
 40
9.950434522015305
 40
10.57233667964126
 40
11.19423883726722
 40
11.81614099489317
 40
12.43804315251913
 40
13.05994531014509
 40
13.68184746777104
 40
14.303749625397
 40
14.92565178302296
 40
15.54755394064892
 40
16.16945609827487
 40
16.79135825590082
 40
17.41326041352678
 40
17.41326041352678
 40
17.41326041352678
 40
17.41326041352678
 10
786.663779639058
 20
687.7914810180664
 30
0.0
 10
786.5122555618176
 20
687.7914810180664
 30
0.0
 10
786.2028214385084
 20
687.7693403462938
 30
0.0
 10
785.7260999963906
 20
687.6619505143065
 30
0.0
 10
785.2449621033836
 20
687.4743244904573
 30
0.0
 10
784.7688659110182
 20
687.2028742865393
 30
0.0
 10
784.3081195268294
 20
686.847114203232
 30
0.0
 10
783.8732587177706
 20
686.4100833316057
 30
0.0
 10
783.474320077859
 20
685.898444017146
 30
0.0
 10
783.1201050728414
 20
685.3222045820715
 30
0.0
 10
782.8175423720163
 20
684.694077875682
 30
0.0
 10
782.5712451554634
 20
684.028561789064
 30
0.0
 10
782.3833146793652
 20
683.3408718980108
 30
0.0
 10
782.2750732283191
 20
682.761734734215
 30
0.0
 10
782.2162393006112
 20
682.3016002934262
 30
0.0
 10
782.185494524341
 20
681.9595716025851
 30
0.0
 10
782.1705592648359
 20
681.6783760301894
 30
0.0
 10
782.1647008754446
 20
681.4561359116153
 30
0.0
 10
782.1632657614889
 20
681.291488648272
 30
0.0
 10
782.1647008754446
 20
681.1268413800625
 30
0.0
 10
782.1705592648359
 20
680.9046012416238
 30
0.0
 10
782.185494524341
 20
680.6234056185851
 30
0.0
 10
782.2162393006112
 20
680.2813768234943
 30
0.0
 10
782.2750732283191
 20
679.8212421832106
 30
0.0
 10
782.3833146793651
 20
679.2421046523879
 30
0.0
 10
782.5712451554634
 20
678.5544141240971
 30
0.0
 10
782.8175423720163
 20
677.8888972023309
 30
0.0
 10
783.1201050728414
 20
677.2607694700071
 30
0.0
 10
783.474320077859
 20
676.684528833855
 30
0.0
 10
783.8732587177707
 20
676.172888166668
 30
0.0
 10
784.3081195268295
 20
675.7358558205092
 30
0.0
 10
784.7688659110182
 20
675.3800941748959
 30
0.0
 10
785.2449621033836
 20
675.1086423566237
 30
0.0
 10
785.7260999963908
 20
674.9210147013248
 30
0.0
 10
786.2028214385084
 20
674.8136232528632
 30
0.0
 10
786.5122555618177
 20
674.7914815318566
 30
0.0
 10
786.663779639058
 20
674.7914810180664
 30
0.0
  0
LINE
  5
183
330
144
100
AcDbEntity
  8
0
  6
Continuous
 62
     0
370
     0
100
AcDbLine
 10
787.463779
 20
674.791481
 30
0.0
 11
787.463779
 21
672.791481
 31
0.0
  0
LINE
  5
184
330
144
100
AcDbEntity
  8
0
  6
Continuous
 62
     0
370
    30
100
AcDbLine
 10
759.463753
 20
674.291489
 30
0.0
 11
780.163703
 21
674.291489
 31
0.0
  0
LINE
  5
185
330
144
100
AcDbEntity
  8
0
  6
Continuous
 62
     0
370
    30
100
AcDbLine
 10
759.463753
 20
688.291489
 30
0.0
 11
780.163703
 21
688.291489
 31
0.0
  0
ARC
  5
186
330
144
100
AcDbEntity
  8
0
  6
Continuous
 62
     0
370
    30
100
AcDbCircle
 10
782.863746
 20
715.591486
 30
0.0
 40
0.7000031410595617
100
AcDbArc
 50
90.000662
 51
179.999742
  0
ARC
  5
187
330
144
100
AcDbEntity
  8
0
  6
Continuous
 62
     0
370
    30
100
AcDbCircle
 10
782.863746
 20
646.991492
 30
0.0
 40
0.7000031410631429
100
AcDbArc
 50
180.000258
 51
269.999338
  0
LINE
  5
188
330
144
100
AcDbEntity
  8
0
  6
Continuous
 62
     0
370
    30
100
AcDbLine
 10
782.163743
 20
672.29148
 30
0.0
 11
782.163743
 21
646.991489
 31
0.0
  0
LINE
  5
189
330
144
100
AcDbEntity
  8
0
  6
Continuous
 62
     0
370
    30
100
AcDbLine
 10
782.163743
 20
690.291498
 30
0.0
 11
782.163743
 21
715.591489
 31
0.0
  0
ARC
  5
18A
330
144
100
AcDbEntity
  8
0
  6
Continuous
 62
     0
370
    30
100
AcDbCircle
 10
780.163551
 20
690.291583
 30
0.0
 40
2.00019159672675
100
AcDbArc
 50
270.00779
 51
359.997255
  0
ARC
  5
18B
330
144
100
AcDbEntity
  8
0
  6
Continuous
 62
     0
370
    30
100
AcDbCircle
 10
780.163551
 20
672.291394
 30
0.0
 40
2.000191594560915
100
AcDbArc
 50
0.002743
 51
89.992209
  0
LINE
  5
18C
330
144
100
AcDbEntity
  8
0
  6
Continuous
 62
     0
370
    30
100
AcDbLine
 10
759.463753
 20
664.791494
 30
0.0
 11
759.463753
 21
697.791494
 31
0.0
  0
LINE
  5
18D
330
144
100
AcDbEntity
  8
0
  6
Continuous
 62
     0
370
    30
100
AcDbLine
 10
739.463753
 20
697.791494
 30
0.0
 11
759.463753
 21
697.791494
 31
0.0
  0
LINE
  5
18E
330
144
100
AcDbEntity
  8
0
  6
Continuous
 62
     0
370
    30
100
AcDbLine
 10
739.463753
 20
664.791494
 30
0.0
 11
759.463753
 21
664.791494
 31
0.0
  0
LINE
  5
18F
330
144
100
AcDbEntity
  8
0
  6
Continuous
 62
     0
370
    30
100
AcDbLine
 10
796.463753
 20
529.790695
 30
0.0
 11
795.963753
 21
529.290695
 31
0.0
  0
LINE
  5
190
330
144
100
AcDbEntity
  8
0
  6
Continuous
 62
     0
370
    30
100
AcDbLine
 10
796.463753
 20
572.790695
 30
0.0
 11
796.463753
 21
529.790695
 31
0.0
  0
LINE
  5
191
330
144
100
AcDbEntity
  8
0
  6
Continuous
 62
     0
370
    30
100
AcDbLine
 10
795.963753
 20
573.290695
 30
0.0
 11
795.963753
 21
529.290695
 31
0.0
  0
LINE
  5
192
330
144
100
AcDbEntity
  8
0
  6
Continuous
 62
     0
370
    30
100
AcDbLine
 10
746.463753
 20
573.290695
 30
0.0
 11
746.463753
 21
529.290695
 31
0.0
  0
LINE
  5
193
330
144
100
AcDbEntity
  8
0
  6
Continuous
 62
     0
370
    30
100
AcDbLine
 10
795.963753
 20
529.290695
 30
0.0
 11
746.463753
 21
529.290695
 31
0.0
  0
LINE
  5
194
330
144
100
AcDbEntity
  8
0
  6
Continuous
 62
     0
370
    30
100
AcDbLine
 10
796.463712
 20
572.790736
 30
0.0
 11
795.963753
 21
573.290695
 31
0.0
  0
LINE
  5
195
330
144
100
AcDbEntity
  8
0
  6
Continuous
 62
     0
370
    30
100
AcDbLine
 10
783.513753
 20
573.290695
 30
0.0
 11
746.463753
 21
573.290695
 31
0.0
  0
LINE
  5
196
330
144
100
AcDbEntity
  8
0
  6
Continuous
 62
     0
370
    30
100
AcDbLine
 10
795.963753
 20
573.290695
 30
0.0
 11
791.413753
 21
573.290695
 31
0.0
  0
LINE
  5
197
330
144
100
AcDbEntity
  8
0
  6
Continuous
 62
     0
370
    30
100
AcDbLine
 10
790.913753
 20
581.120695
 30
0.0
 11
791.413753
 21
580.620695
 31
0.0
  0
LINE
  5
198
330
144
100
AcDbEntity
  8
0
  6
Continuous
 62
     0
370
    30
100
AcDbLine
 10
784.013753
 20
581.120695
 30
0.0
 11
790.913753
 21
581.120695
 31
0.0
  0
LINE
  5
199
330
144
100
AcDbEntity
  8
0
  6
Continuous
 62
     0
370
    30
100
AcDbLine
 10
791.413753
 20
580.620695
 30
0.0
 11
783.513753
 21
580.620695
 31
0.0
  0
LINE
  5
19A
330
144
100
AcDbEntity
  8
0
  6
Continuous
 62
     0
370
    30
100
AcDbLine
 10
791.413753
 20
580.620695
 30
0.0
 11
791.413753
 21
573.290695
 31
0.0
  0
LINE
  5
19B
330
144
100
AcDbEntity
  8
0
  6
Continuous
 62
     0
370
    30
100
AcDbLine
 10
783.513753
 20
580.620695
 30
0.0
 11
783.513753
 21
573.290695
 31
0.0
  0
LINE
  5
19C
330
144
100
AcDbEntity
  8
0
  6
Continuous
 62
     0
370
    30
100
AcDbLine
 10
784.013605
 20
581.120548
 30
0.0
 11
783.513753
 21
580.620695
 31
0.0
  0
LINE
  5
19D
330
144
100
AcDbEntity
  8
0
  6
Continuous
 62
     0
370
    30
100
AcDbLine
 10
742.878327
 20
570.290695
 30
0.0
 11
746.463753
 21
570.290695
 31
0.0
  0
LINE
  5
19E
330
144
100
AcDbEntity
  8
0
  6
Continuous
 62
     0
370
    30
100
AcDbLine
 10
742.878327
 20
532.290695
 30
0.0
 11
746.463753
 21
532.290695
 31
0.0
  0
LINE
  5
19F
330
144
100
AcDbEntity
  8
0
  6
Continuous
 62
     0
370
    30
100
AcDbLine
 10
739.463753
 20
651.291494
 30
0.0
 11
739.463753
 21
711.291494
 31
0.0
  0
LINE
  5
1A0
330
144
100
AcDbEntity
  8
0
  6
Continuous
 62
     0
370
    30
100
AcDbLine
 10
732.463753
 20
651.291494
 30
0.0
 11
732.463753
 21
711.291494
 31
0.0
  0
LINE
  5
1A1
330
144
100
AcDbEntity
  8
0
  6
Continuous
 62
     0
370
    30
100
AcDbLine
 10
739.463753
 20
651.291494
 30
0.0
 11
732.463753
 21
651.291494
 31
0.0
  0
LINE
  5
1A2
330
144
100
AcDbEntity
  8
0
  6
Continuous
 62
     0
370
    30
100
AcDbLine
 10
739.463753
 20
711.291494
 30
0.0
 11
732.463753
 21
711.291494
 31
0.0
  0
LINE
  5
1A3
330
144
100
AcDbEntity
  8
0
  6
Continuous
 62
     0
370
     0
100
AcDbLine
 10
741.478849
 20
616.290695
 30
0.0
 11
741.478849
 21
486.290695
 31
0.0
  0
LINE
  5
1A4
330
144
100
AcDbEntity
  8
0
  6
Continuous
 62
     0
370
     0
100
AcDbLine
 10
741.978615
 20
486.775429
 30
0.0
 11
741.978615
 21
615.805961
 31
0.0
  0
LINE
  5
1A5
330
144
100
AcDbEntity
  8
0
  6
Continuous
 62
     0
370
    30
100
AcDbLine
 10
732.463753
 20
616.290695
 30
0.0
 11
732.463753
 21
486.290695
 31
0.0
  0
LINE
  5
1A6
330
144
100
AcDbEntity
  8
0
  6
Continuous
 62
     0
370
    30
100
AcDbLine
 10
732.463753
 20
616.290695
 30
0.0
 11
741.478849
 21
616.290695
 31
0.0
  0
LINE
  5
1A7
330
144
100
AcDbEntity
  8
0
  6
Continuous
 62
     0
370
    30
100
AcDbLine
 10
732.463753
 20
486.290695
 30
0.0
 11
741.478849
 21
486.290695
 31
0.0
  0
ARC
  5
1A8
330
144
100
AcDbEntity
  8
0
  6
Continuous
 62
     0
370
    30
100
AcDbCircle
 10
-1370.048808
 20
551.290451
 30
0.0
 40
2113.012562314653
100
AcDbArc
 50
0.515212
 51
1.749656
  0
ARC
  5
1A9
330
144
100
AcDbEntity
  8
0
  6
Continuous
 62
     0
370
    30
100
AcDbCircle
 10
-1370.048808
 20
551.29094
 30
0.0
 40
2113.01256231467
100
AcDbArc
 50
358.250344
 51
359.484788
  0
ARC
  5
1AA
330
144
100
AcDbEntity
  8
0
  6
Continuous
 62
     0
370
    30
100
AcDbCircle
 10
741.478767
 20
615.790611
 30
0.0
 40
0.500084423360333
100
AcDbArc
 50
1.759035
 51
89.990622
  0
ARC
  5
1AB
330
144
100
AcDbEntity
  8
0
  6
Continuous
 62
     0
370
    30
100
AcDbCircle
 10
741.478767
 20
486.79078
 30
0.0
 40
0.5000844233603272
100
AcDbArc
 50
270.009378
 51
358.240965
  0
LINE
  5
1AC
330
144
100
AcDbEntity
  8
0
  6
Continuous
 62
     0
370
    30
100
AcDbLine
 10
742.878327
 20
570.290695
 30
0.0
 11
742.878327
 21
532.290695
 31
0.0
  0
ENDBLK
  5
1AE
330
144
100
AcDbEntity
  8
0
100
AcDbBlockEnd
  0
BLOCK
  5
257
330
1B0
100
AcDbEntity
  8
0
100
AcDbBlockBegin
  2
d
 70
     0
 10
506.776304
 20
1532.409768
 30
0.0
  3
d
  1

  0
SPLINE
  5
1B1
330
1B0
100
AcDbEntity
  8
0
  6
Continuous
 62
     0
370
     0
100
AcDbSpline
210
0.0
220
0.0
230
1.0
 70
     8
 71
     3
 72
     9
 73
     5
 74
     0
 42
0.000000001
 43
0.0
 40
0.0
 40
0.0
 40
0.0
 40
0.0
 40
0.652089755406342
 40
0.9476254811266672
 40
0.9476254811266672
 40
0.9476254811266672
 40
0.9476254811266672
 10
549.9885269590349
 20
967.5680600578871
 30
0.0
 10
549.8638587939536
 20
967.640036768435
 30
0.0
 10
549.6571325944144
 20
967.7118894640614
 30
0.0
 10
549.4212554296336
 20
967.7365899871481
 30
0.0
 10
549.345325603183
 20
967.7399597305953
 30
0.0
  0
ELLIPSE
  5
1B2
330
1B0
100
AcDbEntity
  8
0
  6
Continuous
 62
     0
370
     0
100
AcDbEllipse
 10
549.988527
 20
969.201053
 30
0.0
 11
-1.0
 21
-1.732050807568877
 31
0.0
210
0.0
220
0.0
230
-1.0
 40
0.57735
 41
5.497787143782135
 42
5.927517893477264
  0
SPLINE
  5
1B3
330
1B0
100
AcDbEntity
  8
0
  6
Continuous
 62
     0
370
     0
100
AcDbSpline
210
0.0
220
0.0
230
1.0
 70
     8
 71
     3
 72
    11
 73
     7
 74
     0
 42
0.000000001
 43
0.0
 40
8.78555448342221
 40
8.78555448342221
 40
8.78555448342221
 40
8.78555448342221
 40
9.117775860919043
 40
10.62916237558552
 40
12.27383619275323
 40
13.16794967043762
 40
13.16794967043762
 40
13.16794967043762
 40
13.16794967043762
 10
538.3879341707535
 20
966.2831579096833
 30
0.0
 10
538.3330601469345
 20
966.2122549177407
 30
0.0
 10
538.0408008092347
 20
965.8055565507852
 30
0.0
 10
537.6211203474991
 20
964.9050310255457
 30
0.0
 10
537.4035860449164
 20
963.6851112999157
 30
0.0
 10
537.3955462482763
 20
962.8732512727736
 30
0.0
 10
537.4083060848392
 20
962.5835986694915
 30
0.0
  0
SPLINE
  5
1B4
330
1B0
100
AcDbEntity
  8
0
  6
Continuous
 62
     0
370
     0
100
AcDbSpline
210
0.0
220
0.0
230
1.0
 70
     8
 71
     3
 72
    11
 73
     7
 74
     0
 42
0.000000001
 43
0.0
 40
0.2011645061775665
 40
0.2011645061775665
 40
0.2011645061775665
 40
0.2011645061775665
 40
0.3333337243753641
 40
0.6666670577086921
 40
0.8888890192362308
 40
1.0
 40
1.0
 40
1.0
 40
1.0
 10
538.3747584223544
 20
962.9441808342588
 30
0.0
 10
538.358128018918
 20
962.9166044752671
 30
0.0
 10
538.2755522442645
 20
962.8219481751266
 30
0.0
 10
538.0327667926963
 20
962.7022971031918
 30
0.0
 10
537.679120014959
 20
962.6202402574145
 30
0.0
 10
537.4778992372794
 20
962.5917495088938
 30
0.0
 10
537.4083991274579
 20
962.5836538350175
 30
0.0
  0
ELLIPSE
  5
1B5
330
1B0
100
AcDbEntity
  8
0
  6
Continuous
 62
     0
370
     0
100
AcDbEllipse
 10
537.967712
 20
948.38039
 30
0.0
 11
1.000003097640246
 21
1.732049019141753
 31
0.0
210
0.0
220
0.0
230
1.0
 40
0.577349
 41
5.497788176328351
 42
5.92752049893768
  0
SPLINE
  5
1B6
330
1B0
100
AcDbEntity
  8
0
  6
Continuous
 62
     0
370
     0
100
AcDbSpline
210
0.0
220
0.0
230
1.0
 70
     8
 71
     3
 72
     9
 73
     5
 74
     0
 42
0.000000001
 43
0.0
 40
0.0
 40
0.0
 40
0.0
 40
0.0
 40
0.652157515117174
 40
0.9476273127353597
 40
0.9476273127353597
 40
0.9476273127353597
 40
0.9476273127353597
 10
539.3819252412317
 20
949.1968869870047
 30
0.0
 10
539.2572441378693
 20
949.2688721437676
 30
0.0
 10
539.0916556337099
 20
949.4119809089129
 30
0.0
 10
538.952327158607
 20
949.6039106989879
 30
0.0
 10
538.9114530414743
 20
949.667969051221
 30
0.0
  0
ELLIPSE
  5
1B7
330
1B0
100
AcDbEntity
  8
0
  6
Continuous
 62
     0
370
     0
100
AcDbEllipse
 10
537.967712
 20
962.260832
 30
0.0
 11
-0.9999999999999983
 21
-1.732050807568874
 31
0.0
210
0.0
220
0.0
230
-1.0
 40
0.57735
 41
3.926990816987268
 42
5.497787143782105
  0
SPLINE
  5
1B8
330
1B0
100
AcDbEntity
  8
0
  6
Continuous
 62
     0
370
     0
100
AcDbSpline
210
0.0
220
0.0
230
1.0
 70
     8
 71
     3
 72
    13
 73
     9
 74
     0
 42
0.000000001
 43
0.0
 40
1.589329675908664
 40
1.589329675908664
 40
1.589329675908664
 40
1.589329675908664
 40
1.789405597119867
 40
2.507174003888374
 40
3.180442430366806
 40
4.095688222479491
 40
4.601650003097516
 40
5.240023456047296
 40
5.240023456047296
 40
5.240023456047296
 40
5.240023456047296
 10
538.3879270257522
 20
963.1729126861874
 30
0.0
 10
538.3879286438591
 20
963.1850485009218
 30
0.0
 10
538.3916642187171
 20
963.2386405415039
 30
0.0
 10
538.4287981660348
 20
963.3140005938487
 30
0.0
 10
538.5593121804909
 20
963.3721023370608
 30
0.0
 10
538.7676059173384
 20
963.3543658622636
 30
0.0
 10
539.0595070086251
 20
963.2497200338153
 30
0.0
 10
539.2598790543307
 20
963.1477922616427
 30
0.0
 10
539.3819252412318
 20
963.077328862782
 30
0.0
  0
SPLINE
  5
1B9
330
1B0
100
AcDbEntity
  8
0
  6
Continuous
 62
     0
370
     0
100
AcDbSpline
210
0.0
220
0.0
230
1.0
 70
     8
 71
     3
 72
    13
 73
     9
 74
     0
 42
0.000000001
 43
0.0
 40
1.589329972900654
 40
1.589329972900654
 40
1.589329972900654
 40
1.589329972900654
 40
1.789405597119858
 40
2.507174003888361
 40
3.180442430366789
 40
4.09568822247947
 40
4.601650003097493
 40
5.240023456047269
 40
5.240023456047269
 40
5.240023456047269
 40
5.240023456047269
 10
537.3879345050595
 20
961.4408748871897
 30
0.0
 10
537.3774254082298
 20
961.434805586094
 30
0.0
 10
537.3328811471846
 20
961.4047744694767
 30
0.0
 10
537.2861844097986
 20
961.3349355146206
 30
0.0
 10
537.3011238314008
 20
961.1928561909456
 30
0.0
 10
537.4206309375725
 20
961.0213367607851
 30
0.0
 10
537.6572074290522
 20
960.8208659145625
 30
0.0
 10
537.8456654919576
 20
960.6983025188597
 30
0.0
 10
537.9677116788587
 20
960.6278391199987
 30
0.0
  0
SPLINE
  5
1BA
330
1B0
100
AcDbEntity
  8
0
  6
Continuous
 62
     0
370
     0
100
AcDbSpline
210
0.0
220
0.0
230
1.0
 70
     8
 71
     3
 72
    10
 73
     6
 74
     0
 42
0.000000001
 43
0.0
 40
0.4346377221668696
 40
0.4346377221668696
 40
0.4346377221668696
 40
0.4346377221668696
 40
0.723768534793083
 40
1.447569395276909
 40
2.171402590894657
 40
2.171402590894657
 40
2.171402590894657
 40
2.171402590894657
 10
537.5789841659366
 20
961.5662889098458
 30
0.0
 10
537.5947077095574
 20
961.5945561275819
 30
0.0
 10
537.6355195934403
 20
961.7131711650431
 30
0.0
 10
537.6148064153126
 20
962.0277885569992
 30
0.0
 10
537.491575294575
 20
962.3909890883042
 30
0.0
 10
537.4083991274579
 20
962.5836538350175
 30
0.0
  0
SPLINE
  5
1BB
330
1B0
100
AcDbEntity
  8
0
  6
Continuous
 62
     0
370
     0
100
AcDbSpline
210
0.0
220
0.0
230
1.0
 70
     8
 71
     3
 72
    11
 73
     7
 74
     0
 42
0.000000001
 43
0.0
 40
1.036846323820207
 40
1.036846323820207
 40
1.036846323820207
 40
1.036846323820207
 40
1.111290277148617
 40
2.190440414270058
 40
4.17929580208464
 40
5.420870929517054
 40
5.420870929517054
 40
5.420870929517054
 40
5.420870929517054
 10
537.4083991274579
 20
962.5836538350175
 30
0.0
 10
537.3869916017042
 20
962.5725189552331
 30
0.0
 10
537.0564300198105
 20
962.3987318731251
 30
0.0
 10
536.2061412236319
 20
961.8733630450977
 30
0.0
 10
535.2677206431895
 20
960.975400941028
 30
0.0
 10
534.8211302787934
 20
960.1955290526739
 30
0.0
 10
534.6941890500734
 20
959.8856318333083
 30
0.0
  0
ELLIPSE
  5
1BC
330
1B0
100
AcDbEntity
  8
0
  6
Continuous
 62
     0
370
     0
100
AcDbEllipse
 10
540.442585
 20
963.036504
 30
0.0
 11
0.699999988079071
 21
0.0
 31
0.0
210
0.0
220
0.0
230
-1.0
 40
0.57735
 41
0.7853981633974889
 42
2.356194490192344
  0
LINE
  5
1BD
330
1B0
100
AcDbEntity
  8
0
  6
Continuous
 62
     0
370
     0
100
AcDbLine
 10
540.93756
 20
983.816348
 30
0.0
 11
540.93756
 21
962.75073
 31
0.0
  0
ELLIPSE
  5
1BE
330
1B0
100
AcDbEntity
  8
0
  6
Continuous
 62
     0
370
     0
100
AcDbEllipse
 10
540.442585
 20
984.102122
 30
0.0
 11
0.699999988079071
 21
0.0
 31
0.0
210
0.0
220
0.0
230
-1.0
 40
0.57735
 41
0.7853981633974482
 42
2.356194490192344
  0
LINE
  5
1BF
330
1B0
100
AcDbEntity
  8
0
  6
Continuous
 62
     0
370
     0
100
AcDbLine
 10
539.947611
 20
983.816348
 30
0.0
 11
539.947611
 21
962.75073
 31
0.0
  0
LINE
  5
1C0
330
1B0
100
AcDbEntity
  8
0
  6
Continuous
 62
     0
370
     0
100
AcDbLine
 10
548.645024
 20
989.40935
 30
0.0
 11
540.442585
 21
984.67367
 31
0.0
  0
ELLIPSE
  5
1C1
330
1B0
100
AcDbEntity
  8
0
  6
Continuous
 62
     0
370
     0
100
AcDbEllipse
 10
540.442585
 20
984.102122
 30
0.0
 11
-0.3499999940395356
 21
0.6062177723252798
 31
0.0
210
0.0
220
0.0
230
-1.0
 40
0.57735
 41
0.7853981633974483
 42
2.356194490192344
  0
LINE
  5
1C2
330
1B0
100
AcDbEntity
  8
0
  6
Continuous
 62
     0
370
     0
100
AcDbLine
 10
549.139999
 20
988.552028
 30
0.0
 11
540.93756
 21
983.816348
 31
0.0
  0
ELLIPSE
  5
1C3
330
1B0
100
AcDbEntity
  8
0
  6
Continuous
 62
     0
370
     0
100
AcDbEllipse
 10
548.645024
 20
988.837802
 30
0.0
 11
-0.3499999940395391
 21
0.6062177723252858
 31
0.0
210
0.0
220
0.0
230
-1.0
 40
0.57735
 41
0.7853981633974483
 42
2.356194490192181
  0
ELLIPSE
  5
1C4
330
1B0
100
AcDbEntity
  8
0
  6
Continuous
 62
     0
370
     0
100
AcDbEllipse
 10
539.8769
 20
984.428721
 30
0.0
 11
0.3499999940395391
 21
0.6062177723252858
 31
0.0
210
0.0
220
0.0
230
1.0
 40
0.57735
 41
0.7853981633975502
 42
2.356194490192181
  0
LINE
  5
1C5
330
1B0
100
AcDbEntity
  8
0
  6
Continuous
 62
     0
370
     0
100
AcDbLine
 10
539.947611
 20
983.816348
 30
0.0
 11
539.381925
 21
984.142947
 31
0.0
  0
ELLIPSE
  5
1C6
330
1B0
100
AcDbEntity
  8
0
  6
Continuous
 62
     0
370
     0
100
AcDbEllipse
 10
540.442585
 20
984.102122
 30
0.0
 11
0.3499999940395356
 21
0.6062177723252798
 31
0.0
210
0.0
220
0.0
230
1.0
 40
0.57735
 41
0.7853981633974481
 42
2.356194490192344
  0
LINE
  5
1C7
330
1B0
100
AcDbEntity
  8
0
  6
Continuous
 62
     0
370
     0
100
AcDbLine
 10
540.442585
 20
984.67367
 30
0.0
 11
539.8769
 21
985.000268
 31
0.0
  0
ELLIPSE
  5
1C8
330
1B0
100
AcDbEntity
  8
0
  6
Continuous
 62
     0
370
     0
100
AcDbEllipse
 10
548.645024
 20
988.837802
 30
0.0
 11
0.6999999880790782
 21
0.0
 31
0.0
210
0.0
220
0.0
230
-1.0
 40
0.57735
 41
6.283185030682029
 42
7.068583470577034
  0
LINE
  5
1C9
330
1B0
100
AcDbEntity
  8
0
  6
Continuous
 62
     0
370
     0
100
AcDbLine
 10
549.139999
 20
988.552028
 30
0.0
 11
549.139999
 21
967.48641
 31
0.0
  0
ELLIPSE
  5
1CA
330
1B0
100
AcDbEntity
  8
0
  6
Continuous
 62
     0
370
     0
100
AcDbEllipse
 10
548.645024
 20
967.772184
 30
0.0
 11
-0.6999999880790669
 21
0.0
 31
0.0
210
0.0
220
0.0
230
1.0
 40
0.57735
 41
2.356194490191917
 42
3.141592644950098
  0
LINE
  5
1CB
330
1B0
100
AcDbEntity
  8
0
  6
Continuous
 62
     0
370
     0
100
AcDbLine
 10
548.07934
 20
989.735947
 30
0.0
 11
548.645024
 21
989.40935
 31
0.0
  0
ELLIPSE
  5
1CC
330
1B0
100
AcDbEntity
  8
0
  6
Continuous
 62
     0
370
     0
100
AcDbEllipse
 10
548.645024
 20
988.837802
 30
0.0
 11
-0.3499999940395391
 21
-0.6062177723252858
 31
0.0
210
0.0
220
0.0
230
-1.0
 40
0.57735
 41
2.356194490192344
 42
3.141592676439945
  0
ELLIPSE
  5
1CD
330
1B0
100
AcDbEntity
  8
0
  6
Continuous
 62
     0
370
     0
100
AcDbEllipse
 10
548.079339
 20
989.164401
 30
0.0
 11
-0.3499999940395356
 21
-0.6062177723252798
 31
0.0
210
0.0
220
0.0
230
-1.0
 40
0.57735
 41
2.356194490198109
 42
3.141592676439973
  0
ELLIPSE
  5
1CE
330
1B0
100
AcDbEntity
  8
0
  6
Continuous
 62
     0
370
     0
100
AcDbEllipse
 10
550.554212
 20
966.669914
 30
0.0
 11
0.3499999940395366
 21
-0.6062177723252816
 31
0.0
210
0.0
220
0.0
230
1.0
 40
0.57735
 41
0.785398163397448
 42
2.356194490192344
  0
LINE
  5
1CF
330
1B0
100
AcDbEntity
  8
0
  6
Continuous
 62
     0
370
     0
100
AcDbLine
 10
569.292537
 20
976.916943
 30
0.0
 11
551.049187
 21
966.38414
 31
0.0
  0
ELLIPSE
  5
1D0
330
1B0
100
AcDbEntity
  8
0
  6
Continuous
 62
     0
370
     0
100
AcDbEllipse
 10
568.797562
 20
977.202717
 30
0.0
 11
0.3499999940395356
 21
-0.6062177723252798
 31
0.0
210
0.0
220
0.0
230
1.0
 40
0.57735
 41
0.7853981633974481
 42
2.356194490192344
  0
LINE
  5
1D1
330
1B0
100
AcDbEntity
  8
0
  6
Continuous
 62
     0
370
     0
100
AcDbLine
 10
568.797562
 20
977.774264
 30
0.0
 11
550.554212
 21
967.241461
 31
0.0
  0
ELLIPSE
  5
1D2
330
1B0
100
AcDbEntity
  8
0
  6
Continuous
 62
     0
370
     0
100
AcDbEllipse
 10
568.797562
 20
977.202717
 30
0.0
 11
0.699999988079071
 21
0.0
 31
0.0
210
0.0
220
0.0
230
-1.0
 40
0.57735
 41
6.283184915088454
 42
7.068583470577013
  0
LINE
  5
1D3
330
1B0
100
AcDbEntity
  8
0
  6
Continuous
 62
     0
370
     0
100
AcDbLine
 10
569.292537
 20
967.445582
 30
0.0
 11
569.292537
 21
976.916943
 31
0.0
  0
ELLIPSE
  5
1D4
330
1B0
100
AcDbEntity
  8
0
  6
Continuous
 62
     0
370
     0
100
AcDbEllipse
 10
568.797562
 20
967.731356
 30
0.0
 11
0.6999999880790639
 21
0.0
 31
0.0
210
0.0
220
0.0
230
-1.0
 40
0.57735
 41
0.0000000084542249
 42
0.7853981633974482
  0
ELLIPSE
  5
1D5
330
1B0
100
AcDbEntity
  8
0
  6
Continuous
 62
     0
370
     0
100
AcDbEllipse
 10
568.231877
 20
977.529315
 30
0.0
 11
0.3499999940395321
 21
0.6062177723252737
 31
0.0
210
0.0
220
0.0
230
1.0
 40
0.57735
 41
-0.0000000228501687
 42
0.7853981633974485
  0
LINE
  5
1D6
330
1B0
100
AcDbEntity
  8
0
  6
Continuous
 62
     0
370
     0
100
AcDbLine
 10
568.797562
 20
977.774264
 30
0.0
 11
568.231877
 21
978.100863
 31
0.0
  0
ELLIPSE
  5
1D7
330
1B0
100
AcDbEntity
  8
0
  6
Continuous
 62
     0
370
     0
100
AcDbEllipse
 10
568.797562
 20
977.202717
 30
0.0
 11
0.3499999940395356
 21
0.6062177723252798
 31
0.0
210
0.0
220
0.0
230
1.0
 40
0.57735
 41
-0.0000000228501395
 42
0.7853981633974679
  0
ELLIPSE
  5
1D8
330
1B0
100
AcDbEntity
  8
0
  6
Continuous
 62
     0
370
     0
100
AcDbEllipse
 10
568.797562
 20
967.731356
 30
0.0
 11
0.3499999940395321
 21
-0.6062177723252737
 31
0.0
210
0.0
220
0.0
230
1.0
 40
0.57735
 41
0.0000000314898463
 42
0.785398163397448
  0
LINE
  5
1D9
330
1B0
100
AcDbEntity
  8
0
  6
Continuous
 62
     0
370
     0
100
AcDbLine
 10
569.292537
 20
967.445582
 30
0.0
 11
551.049187
 21
956.91278
 31
0.0
  0
ELLIPSE
  5
1DA
330
1B0
100
AcDbEntity
  8
0
  6
Continuous
 62
     0
370
     0
100
AcDbEllipse
 10
550.554212
 20
957.198553
 30
0.0
 11
-0.3499999940395346
 21
0.606217772325278
 31
0.0
210
0.0
220
0.0
230
-1.0
 40
0.57735
 41
2.356194490192729
 42
3.141592622350327
  0
ELLIPSE
  5
1DB
330
1B0
100
AcDbEntity
  8
0
  6
Continuous
 62
     0
370
     0
100
AcDbEllipse
 10
548.645024
 20
953.891742
 30
0.0
 11
0.699999988079069
 21
0.0
 31
0.0
210
0.0
220
0.0
230
-1.0
 40
0.57735
 41
6.28318498408503
 42
7.068583470577034
  0
LINE
  5
1DC
330
1B0
100
AcDbEntity
  8
0
  6
Continuous
 62
     0
370
     0
100
AcDbLine
 10
549.139999
 20
953.605969
 30
0.0
 11
549.139999
 21
932.540363
 31
0.0
  0
ELLIPSE
  5
1DD
330
1B0
100
AcDbEntity
  8
0
  6
Continuous
 62
     0
370
     0
100
AcDbEllipse
 10
548.645024
 20
932.826137
 30
0.0
 11
0.6999999880790639
 21
0.0
 31
0.0
210
0.0
220
0.0
230
-1.0
 40
0.57735
 41
0.0000000085056019
 42
0.7853981633974583
  0
ELLIPSE
  5
1DE
330
1B0
100
AcDbEntity
  8
0
  6
Continuous
 62
     0
370
     0
100
AcDbEllipse
 10
548.645024
 20
932.826137
 30
0.0
 11
0.3499999940395321
 21
-0.6062177723252737
 31
0.0
210
0.0
220
0.0
230
1.0
 40
0.57735
 41
0.0000000314898179
 42
0.7853981633974783
  0
LINE
  5
1DF
330
1B0
100
AcDbEntity
  8
0
  6
Continuous
 62
     0
370
     0
100
AcDbLine
 10
549.139999
 20
932.540363
 30
0.0
 11
540.93756
 21
927.804683
 31
0.0
  0
ELLIPSE
  5
1E0
330
1B0
100
AcDbEntity
  8
0
  6
Continuous
 62
     0
370
     0
100
AcDbEllipse
 10
540.442585
 20
928.090457
 30
0.0
 11
0.3499999940395356
 21
-0.6062177723252798
 31
0.0
210
0.0
220
0.0
230
1.0
 40
0.57735
 41
6.283185074635919
 42
7.068583470577074
  0
LINE
  5
1E1
330
1B0
100
AcDbEntity
  8
0
  6
Continuous
 62
     0
370
     0
100
AcDbLine
 10
538.533397
 20
960.30124
 30
0.0
 11
520.290037
 21
949.768431
 31
0.0
  0
ELLIPSE
  5
1E2
330
1B0
100
AcDbEntity
  8
0
  6
Continuous
 62
     0
370
     0
100
AcDbEllipse
 10
520.290037
 20
949.196884
 30
0.0
 11
0.3499999940395391
 21
-0.6062177723252858
 31
0.0
210
0.0
220
0.0
230
1.0
 40
0.57735
 41
0.785398163397448
 42
2.356194490192344
  0
LINE
  5
1E3
330
1B0
100
AcDbEntity
  8
0
  6
Continuous
 62
     0
370
     0
100
AcDbLine
 10
539.028372
 20
959.443919
 30
0.0
 11
520.785011
 21
948.91111
 31
0.0
  0
ELLIPSE
  5
1E4
330
1B0
100
AcDbEntity
  8
0
  6
Continuous
 62
     0
370
     0
100
AcDbEllipse
 10
538.533397
 20
959.729693
 30
0.0
 11
-0.3499999940395375
 21
0.6062177723252832
 31
0.0
210
0.0
220
0.0
230
-1.0
 40
0.57735
 41
0.7853981633974481
 42
2.356194490192344
  0
ELLIPSE
  5
1E5
330
1B0
100
AcDbEntity
  8
0
  6
Continuous
 62
     0
370
     0
100
AcDbEllipse
 10
520.290037
 20
939.725524
 30
0.0
 11
-0.699999988079071
 21
0.0
 31
0.0
210
0.0
220
0.0
230
1.0
 40
0.57735
 41
0.785398163397448
 42
2.356194490192344
  0
LINE
  5
1E6
330
1B0
100
AcDbEntity
  8
0
  6
Continuous
 62
     0
370
     0
100
AcDbLine
 10
520.785011
 20
939.43975
 30
0.0
 11
520.785011
 21
948.91111
 31
0.0
  0
ELLIPSE
  5
1E7
330
1B0
100
AcDbEntity
  8
0
  6
Continuous
 62
     0
370
     0
100
AcDbEllipse
 10
520.290037
 20
949.196884
 30
0.0
 11
-0.6999999880790782
 21
0.0
 31
0.0
210
0.0
220
0.0
230
1.0
 40
0.57735
 41
0.785398163397448
 42
2.356194490192344
  0
LINE
  5
1E8
330
1B0
100
AcDbEntity
  8
0
  6
Continuous
 62
     0
370
     0
100
AcDbLine
 10
519.795062
 20
939.43975
 30
0.0
 11
519.795062
 21
948.91111
 31
0.0
  0
LINE
  5
1E9
330
1B0
100
AcDbEntity
  8
0
  6
Continuous
 62
     0
370
     0
100
AcDbLine
 10
519.795062
 20
948.91111
 30
0.0
 11
519.229377
 21
949.237709
 31
0.0
  0
ELLIPSE
  5
1EA
330
1B0
100
AcDbEntity
  8
0
  6
Continuous
 62
     0
370
     0
100
AcDbEllipse
 10
520.290037
 20
949.196884
 30
0.0
 11
-0.3499999940395391
 21
-0.6062177723252858
 31
0.0
210
0.0
220
0.0
230
-1.0
 40
0.57735
 41
0.785398163397448
 42
2.356194490192344
  0
LINE
  5
1EB
330
1B0
100
AcDbEntity
  8
0
  6
Continuous
 62
     0
370
     0
100
AcDbLine
 10
520.290037
 20
949.768431
 30
0.0
 11
519.724351
 21
950.09503
 31
0.0
  0
ELLIPSE
  5
1EC
330
1B0
100
AcDbEntity
  8
0
  6
Continuous
 62
     0
370
     0
100
AcDbEllipse
 10
519.724351
 20
949.523483
 30
0.0
 11
-0.3499999940395356
 21
-0.6062177723252798
 31
0.0
210
0.0
220
0.0
230
-1.0
 40
0.57735
 41
0.7853981633976108
 42
2.356194490192374
  0
LINE
  5
1ED
330
1B0
100
AcDbEntity
  8
0
  6
Continuous
 62
     0
370
     0
100
AcDbLine
 10
539.947611
 20
948.870288
 30
0.0
 11
539.947611
 21
927.804683
 31
0.0
  0
ELLIPSE
  5
1EE
330
1B0
100
AcDbEntity
  8
0
  6
Continuous
 62
     0
370
     0
100
AcDbEllipse
 10
540.442585
 20
928.090457
 30
0.0
 11
0.699999988079071
 21
0.0
 31
0.0
210
0.0
220
0.0
230
-1.0
 40
0.57735
 41
0.7853981633974482
 42
2.356194490192344
  0
LINE
  5
1EF
330
1B0
100
AcDbEntity
  8
0
  6
Continuous
 62
     0
370
     0
100
AcDbLine
 10
540.93756
 20
948.870288
 30
0.0
 11
540.93756
 21
927.804683
 31
0.0
  0
ELLIPSE
  5
1F0
330
1B0
100
AcDbEntity
  8
0
  6
Continuous
 62
     0
370
     0
100
AcDbEllipse
 10
540.442585
 20
949.156062
 30
0.0
 11
-0.699999988079073
 21
0.0
 31
0.0
210
0.0
220
0.0
230
1.0
 40
0.57735
 41
0.785398163397448
 42
2.356194490192344
  0
ELLIPSE
  5
1F1
330
1B0
100
AcDbEntity
  8
0
  6
Continuous
 62
     0
370
     0
100
AcDbEllipse
 10
540.442585
 20
928.090457
 30
0.0
 11
-0.3499999940395356
 21
-0.6062177723252798
 31
0.0
210
0.0
220
0.0
230
-1.0
 40
0.57735
 41
6.28318508027745
 42
7.068583470577074
  0
LINE
  5
1F2
330
1B0
100
AcDbEntity
  8
0
  6
Continuous
 62
     0
370
     0
100
AcDbLine
 10
539.947611
 20
927.804683
 30
0.0
 11
539.381925
 21
928.131281
 31
0.0
  0
ELLIPSE
  5
1F3
330
1B0
100
AcDbEntity
  8
0
  6
Continuous
 62
     0
370
     0
100
AcDbEllipse
 10
539.8769
 20
928.417055
 30
0.0
 11
-0.3499999940395321
 21
-0.6062177723252737
 31
0.0
210
0.0
220
0.0
230
-1.0
 40
0.57735
 41
0.0000000228501679
 42
0.7853981633974482
  0
ELLIPSE
  5
1F4
330
1B0
100
AcDbEntity
  8
0
  6
Continuous
 62
     0
370
     0
100
AcDbEllipse
 10
538.533397
 20
950.258333
 30
0.0
 11
0.3499999940395356
 21
-0.6062177723252798
 31
0.0
210
0.0
220
0.0
230
1.0
 40
0.57735
 41
0.0000000312140562
 42
0.7853981633974481
  0
LINE
  5
1F5
330
1B0
100
AcDbEntity
  8
0
  6
Continuous
 62
     0
370
     0
100
AcDbLine
 10
539.028372
 20
949.972559
 30
0.0
 11
520.785011
 21
939.43975
 31
0.0
  0
ELLIPSE
  5
1F6
330
1B0
100
AcDbEntity
  8
0
  6
Continuous
 62
     0
370
     0
100
AcDbEllipse
 10
520.290037
 20
939.725524
 30
0.0
 11
0.3499999940395356
 21
-0.6062177723252798
 31
0.0
210
0.0
220
0.0
230
1.0
 40
0.57735
 41
6.28318491509276
 42
7.068583470577034
  0
ELLIPSE
  5
1F7
330
1B0
100
AcDbEntity
  8
0
  6
Continuous
 62
     0
370
     0
100
AcDbEllipse
 10
519.724351
 20
940.052122
 30
0.0
 11
0.3499999940395356
 21
0.6062177723252798
 31
0.0
210
0.0
220
0.0
230
1.0
 40
0.57735
 41
2.356194490198129
 42
3.141592630739638
  0
ELLIPSE
  5
1F8
330
1B0
100
AcDbEntity
  8
0
  6
Continuous
 62
     0
370
     0
100
AcDbEllipse
 10
520.290037
 20
939.725524
 30
0.0
 11
0.3499999940395356
 21
0.6062177723252798
 31
0.0
210
0.0
220
0.0
230
1.0
 40
0.57735
 41
2.356194490192344
 42
3.141592630739638
  0
LINE
  5
1F9
330
1B0
100
AcDbEntity
  8
0
  6
Continuous
 62
     0
370
     0
100
AcDbLine
 10
519.229378
 20
939.766347
 30
0.0
 11
519.795062
 21
939.43975
 31
0.0
  0
ELLIPSE
  5
1FA
330
1B0
100
AcDbEntity
  8
0
  6
Continuous
 62
     0
370
     0
100
AcDbEllipse
 10
539.028372
 20
947.768018
 30
0.0
 11
-1.349999994039537
 21
-2.338268579894159
 31
0.0
210
0.0
220
0.0
230
-1.0
 40
0.57735
 41
2.356194490192349
 42
3.92699081698724
  0
ELLIPSE
  5
1FB
330
1B0
100
AcDbEntity
  8
0
  6
Continuous
 62
     0
370
     0
100
AcDbEllipse
 10
551.049187
 20
954.708239
 30
0.0
 11
-1.349999994039537
 21
-2.338268579894159
 31
0.0
210
0.0
220
0.0
230
-1.0
 40
0.57735
 41
0.785398163397448
 42
2.356194490192344
  0
ELLIPSE
  5
1FC
330
1B0
100
AcDbEntity
  8
0
  6
Continuous
 62
     0
370
     0
100
AcDbEllipse
 10
551.049187
 20
968.588681
 30
0.0
 11
-1.349999994039536
 21
-2.338268579894157
 31
0.0
210
0.0
220
0.0
230
-1.0
 40
0.57735
 41
5.497787143782143
 42
7.068583470577013
  0
ELLIPSE
  5
1FD
330
1B0
100
AcDbEntity
  8
0
  6
Continuous
 62
     0
370
     0
100
AcDbEllipse
 10
539.028372
 20
961.64846
 30
0.0
 11
1.349999994039535
 21
2.338268579894155
 31
0.0
210
0.0
220
0.0
230
1.0
 40
0.57735
 41
3.92699081698724
 42
5.497787143782135
  0
LINE
  5
1FE
330
1B0
100
AcDbEntity
  8
0
  6
Continuous
 62
     0
370
     0
100
AcDbLine
 10
537.967712
 20
960.627839
 30
0.0
 11
519.724351
 21
950.09503
 31
0.0
  0
LINE
  5
1FF
330
1B0
100
AcDbEntity
  8
0
  6
Continuous
 62
     0
370
     0
100
AcDbLine
 10
538.533397
 20
960.30124
 30
0.0
 11
537.967712
 21
960.627839
 31
0.0
  0
ELLIPSE
  5
200
330
1B0
100
AcDbEntity
  8
0
  6
Continuous
 62
     0
370
     0
100
AcDbEllipse
 10
538.533397
 20
961.934234
 30
0.0
 11
0.9999999999999983
 21
1.732050807568874
 31
0.0
210
0.0
220
0.0
230
1.0
 40
0.57735
 41
3.926990816987247
 42
5.497787143782135
  0
LINE
  5
201
330
1B0
100
AcDbEntity
  8
0
  6
Continuous
 62
     0
370
     0
100
AcDbLine
 10
539.947611
 20
962.75073
 30
0.0
 11
539.381925
 21
963.077329
 31
0.0
  0
LINE
  5
202
330
1B0
100
AcDbEntity
  8
0
  6
Continuous
 62
     0
370
     0
100
AcDbLine
 10
539.381925
 20
984.142947
 30
0.0
 11
539.381925
 21
963.077329
 31
0.0
  0
LINE
  5
203
330
1B0
100
AcDbEntity
  8
0
  6
Continuous
 62
     0
370
     0
100
AcDbLine
 10
568.231877
 20
978.100863
 30
0.0
 11
549.988527
 21
967.56806
 31
0.0
  0
LINE
  5
204
330
1B0
100
AcDbEntity
  8
0
  6
Continuous
 62
     0
370
     0
100
AcDbLine
 10
549.988527
 20
967.56806
 30
0.0
 11
550.554212
 21
967.241461
 31
0.0
  0
ELLIPSE
  5
205
330
1B0
100
AcDbEntity
  8
0
  6
Continuous
 62
     0
370
     0
100
AcDbEllipse
 10
550.554212
 20
968.874455
 30
0.0
 11
-1.0
 21
-1.732050807568877
 31
0.0
210
0.0
220
0.0
230
-1.0
 40
0.57735
 41
5.497787143782138
 42
6.283185540729965
  0
SPLINE
  5
206
330
1B0
100
AcDbEntity
  8
0
  6
Continuous
 62
     0
370
     0
100
AcDbSpline
210
0.0
220
0.0
230
1.0
 70
     8
 71
     3
 72
    27
 73
    23
 74
     0
 42
0.000000001
 43
0.0
 40
0.0
 40
0.0
 40
0.0
 40
0.0
 40
1.029141359914143
 40
1.899953279841495
 40
2.770765199768846
 40
3.799906559682989
 40
4.987377359583923
 40
5.699859839524484
 40
6.49150703945844
 40
6.887330639425417
 40
7.283154239392395
 40
7.599813119365979
 40
7.916471999339561
 40
8.31229559930654
 40
8.708119199273517
 40
9.499766399207472
 40
10.21224887914803
 40
11.39971967904897
 40
12.4288610389631
 40
13.29967295889046
 40
14.17048487881781
 40
15.19962623873196
 40
15.19962623873196
 40
15.19962623873196
 40
15.19962623873196
 10
539.8768999796329
 20
985.0002682851991
 30
0.0
 10
539.7194133945587
 20
985.0911932074855
 30
0.0
 10
539.4568961467901
 20
985.2889755617543
 30
0.0
 10
539.1865693029422
 20
985.6698349732746
 30
0.0
 10
539.0573502188093
 20
986.1361584776087
 30
0.0
 10
539.1278243240249
 20
986.7418385566218
 30
0.0
 10
539.4558248765902
 20
987.3636322998996
 30
0.0
 10
539.9358499920779
 20
987.9199442237655
 30
0.0
 10
540.3544353079017
 20
988.289084169917
 30
0.0
 10
540.7389735250239
 20
988.5727872749083
 30
0.0
 10
541.021442447377
 20
988.7593578612159
 30
0.0
 10
541.2893785704272
 20
988.9204473361763
 30
0.0
 10
541.5683937489425
 20
989.0751403424101
 30
0.0
 10
541.8915435702371
 20
989.2382238996875
 30
0.0
 10
542.3829319928168
 20
989.4602372700017
 30
0.0
 10
543.0223016192514
 20
989.7019078742571
 30
0.0
 10
543.985863233864
 20
989.9790510594387
 30
0.0
 10
545.0628433701944
 20
990.1684231002928
 30
0.0
 10
546.111914519287
 20
990.2091123436671
 30
0.0
 10
546.9196129204687
 20
990.1345085161215
 30
0.0
 10
547.5792829745867
 20
989.9784359951441
 30
0.0
 10
547.9218532175435
 20
989.8268721092859
 30
0.0
 10
548.0793403366263
 20
989.7359474953089
 30
0.0
  0
SPLINE
  5
207
330
1B0
100
AcDbEntity
  8
0
  6
Continuous
 62
     0
370
     0
100
AcDbSpline
210
0.0
220
0.0
230
1.0
 70
     8
 71
     3
 72
    13
 73
     9
 74
     0
 42
0.000000001
 43
0.0
 40
0.0
 40
0.0
 40
0.0
 40
0.0
 40
0.6219021576259569
 40
1.243804315251914
 40
1.865706472877871
 40
2.487608630503828
 40
3.109510788129786
 40
3.406348710051686
 40
3.406348710051686
 40
3.406348710051686
 40
3.406348710051686
 10
539.3819252412318
 20
984.1429468898252
 30
0.0
 10
539.274781538702
 20
984.2048063353227
 30
0.0
 10
539.07163439093
 20
984.3401711785759
 30
0.0
 10
538.8104775049002
 20
984.5786336076699
 30
0.0
 10
538.6029332718599
 20
984.8516553334503
 30
0.0
 10
538.4582267056861
 20
985.1568398717754
 30
0.0
 10
538.3969244976176
 20
985.4320994788777
 30
0.0
 10
538.3879286675947
 20
985.6044711039006
 30
0.0
 10
538.3879424681579
 20
985.6608980519429
 30
0.0
  0
SPLINE
  5
208
330
1B0
100
AcDbEntity
  8
0
  6
Continuous
 62
     0
370
     0
100
AcDbSpline
210
0.0
220
0.0
230
1.0
 70
     8
 71
     3
 72
    13
 73
     9
 74
     0
 42
0.000000001
 43
0.0
 40
0.0
 40
0.0
 40
0.0
 40
0.0
 40
0.621902157625956
 40
1.243804315251913
 40
1.865706472877869
 40
2.487608630503825
 40
3.109510788129781
 40
3.405661679554239
 40
3.405661679554239
 40
3.405661679554239
 40
3.405661679554239
 10
568.231876527276
 20
978.1008628420318
 30
0.0
 10
568.1247328247462
 20
978.162722287529
 30
0.0
 10
567.9059298578237
 20
978.2709704565796
 30
0.0
 10
567.5688368933652
 20
978.3779077397076
 30
0.0
 10
567.2286210265341
 20
978.4211354550391
 30
0.0
 10
566.8919701804155
 20
978.3938627482776
 30
0.0
 10
566.6230572359223
 20
978.3093599140352
 30
0.0
 10
566.469391132996
 20
978.2310442506764
 30
0.0
 10
566.4206401467304
 20
978.2028975298233
 30
0.0
  0
SPLINE
  5
209
330
1B0
100
AcDbEntity
  8
0
  6
Continuous
 62
     0
370
     0
100
AcDbSpline
210
0.0
220
0.0
230
1.0
 70
     8
 71
     3
 72
    13
 73
     9
 74
     0
 42
0.000000001
 43
0.0
 40
0.0
 40
0.0
 40
0.0
 40
0.0
 40
0.6219021576259569
 40
1.243804315251915
 40
1.865706472877872
 40
2.487608630503829
 40
3.109510788129787
 40
3.405661566250095
 40
3.405661566250095
 40
3.405661566250095
 40
3.405661566250095
 10
539.3819252412316
 20
928.1312814187163
 30
0.0
 10
539.2747815387019
 20
928.193140864214
 30
0.0
 10
539.0716343909298
 20
928.328505707467
 30
0.0
 10
538.8104775049001
 20
928.5669681365612
 30
0.0
 10
538.6029332718598
 20
928.8399898623416
 30
0.0
 10
538.458226705686
 20
929.1451744006667
 30
0.0
 10
538.3969518390933
 20
929.4203112388818
 30
0.0
 10
538.3879421393285
 20
929.5925477971252
 30
0.0
 10
538.3879424192637
 20
929.6488407280203
 30
0.0
  0
LINE
  5
20A
330
1B0
100
AcDbEntity
  8
0
  6
Continuous
 62
     0
370
     0
100
AcDbLine
 10
539.381925
 20
949.196887
 30
0.0
 11
539.381925
 21
928.131281
 31
0.0
  0
LINE
  5
20B
330
1B0
100
AcDbEntity
  8
0
  6
Continuous
 62
     0
370
     0
100
AcDbLine
 10
539.381925
 20
949.196887
 30
0.0
 11
539.947611
 21
948.870288
 31
0.0
  0
SPLINE
  5
20C
330
1B0
100
AcDbEntity
  8
0
  6
Continuous
 62
     0
370
     0
100
AcDbSpline
210
0.0
220
0.0
230
1.0
 70
     8
 71
     3
 72
    27
 73
    23
 74
     0
 42
0.000000001
 43
0.0
 40
0.0
 40
0.0
 40
0.0
 40
0.0
 40
1.029141359914143
 40
1.899953279841494
 40
2.770765199768845
 40
3.799906559682988
 40
4.987377359583922
 40
5.699859839524484
 40
6.491507039458438
 40
6.887330639425416
 40
7.283154239392394
 40
7.599813119365976
 40
7.916471999339558
 40
8.312295599306537
 40
8.708119199273515
 40
9.49976639920747
 40
10.21224887914803
 40
11.39971967904896
 40
12.4288610389631
 40
13.29967295889045
 40
14.17048487881781
 40
15.19962623873195
 40
15.19962623873195
 40
15.19962623873195
 40
15.19962623873195
 10
519.2293765826189
 20
949.2377087111031
 30
0.0
 10
519.0718899975446
 20
949.3286336333895
 30
0.0
 10
518.7693468304433
 20
949.4570890617545
 30
0.0
 10
518.3043494828723
 20
949.5007692700913
 30
0.0
 10
517.835891939671
 20
949.3795145274371
 30
0.0
 10
517.3465946572871
 20
949.0156421225049
 30
0.0
 10
516.972105755977
 20
948.4206884398891
 30
0.0
 10
516.7303380552248
 20
947.7268185334892
 30
0.0
 10
516.6199461422177
 20
947.1797430432589
 30
0.0
 10
516.5665211547239
 20
946.7048716260094
 30
0.0
 10
516.5461807485592
 20
946.3669610703182
 30
0.0
 10
516.5406412324862
 20
946.0543768436851
 30
0.0
 10
516.5461807485576
 20
945.7353961079325
 30
0.0
 10
516.5665211556632
 20
945.3739983748244
 30
0.0
 10
516.6199461482812
 20
944.8374368325876
 30
0.0
 10
516.7303380788652
 20
944.1628911915593
 30
0.0
 10
516.9721058473187
 20
943.1898507626024
 30
0.0
 10
517.3465949173378
 20
942.1624725847421
 30
0.0
 10
517.8358925734609
 20
941.2336056975632
 30
0.0
 10
518.3043505839258
 20
940.5714202773167
 30
0.0
 10
518.769348378984
 20
940.0781655128235
 30
0.0
 10
519.0718916759117
 20
939.8572729227712
 30
0.0
 10
519.2293782609868
 20
939.7663473838654
 30
0.0
  0
SPLINE
  5
20D
330
1B0
100
AcDbEntity
  8
0
  6
Continuous
 62
     0
370
     0
100
AcDbSpline
210
0.0
220
0.0
230
1.0
 70
     8
 71
     3
 72
    13
 73
     9
 74
     0
 42
0.000000001
 43
0.0
 40
0.0
 40
0.0
 40
0.0
 40
0.0
 40
0.6219021576259569
 40
1.243804315251913
 40
1.86570647287787
 40
2.487608630503826
 40
3.109510788129783
 40
3.40634882356742
 40
3.40634882356742
 40
3.40634882356742
 40
3.40634882356742
 10
519.7243513210201
 20
950.0950301064772
 30
0.0
 10
519.6172076184903
 20
950.1568895519747
 30
0.0
 10
519.398404651568
 20
950.265137721025
 30
0.0
 10
519.0613116871093
 20
950.3720750041532
 30
0.0
 10
518.7210958202784
 20
950.4153027194848
 30
0.0
 10
518.3844449741596
 20
950.388030012723
 30
0.0
 10
518.1154120379166
 20
950.3034894724383
 30
0.0
 10
517.9616358985664
 20
950.2250942641115
 30
0.0
 10
517.9127756103303
 20
950.1968688254428
 30
0.0
  0
ELLIPSE
  5
20E
330
1B0
100
AcDbEntity
  8
0
  6
Continuous
 62
     0
370
     0
100
AcDbEllipse
 10
538.533397
 20
948.053792
 30
0.0
 11
-1.000000000000002
 21
-1.73205080756888
 31
0.0
210
0.0
220
0.0
230
-1.0
 40
0.57735
 41
3.141592430701666
 42
3.926990816987218
  0
LINE
  5
20F
330
1B0
100
AcDbEntity
  8
0
  6
Continuous
 62
     0
370
    30
100
AcDbLine
 10
519.898503
 20
964.610191
 30
0.0
 11
531.387935
 21
957.976765
 31
0.0
  0
LINE
  5
210
330
1B0
100
AcDbEntity
  8
0
  6
Continuous
 62
     0
370
    30
100
AcDbLine
 10
526.898494
 20
976.734552
 30
0.0
 11
538.387934
 21
970.10112
 31
0.0
  0
ARC
  5
211
330
1B0
100
AcDbEntity
  8
0
  6
Continuous
 62
     0
370
    30
100
AcDbCircle
 10
548.644883
 20
988.837721
 30
0.0
 40
0.7001411978678216
100
AcDbArc
 50
0.006671
 51
59.993328
  0
ARC
  5
212
330
1B0
100
AcDbEntity
  8
0
  6
Continuous
 62
     0
370
    30
100
AcDbCircle
 10
568.797355
 20
977.202597
 30
0.0
 40
0.7002070349786995
100
AcDbArc
 50
0.009781
 51
59.990218
  0
ARC
  5
213
330
1B0
100
AcDbEntity
  8
0
  6
Continuous
 62
     0
370
    30
100
AcDbCircle
 10
568.797395
 20
967.731453
 30
0.0
 40
0.7001667826915524
100
AcDbArc
 50
300.007881
 51
359.99212
  0
ARC
  5
214
330
1B0
100
AcDbEntity
  8
0
  6
Continuous
 62
     0
370
    30
100
AcDbCircle
 10
548.644785
 20
932.826275
 30
0.0
 40
0.7002391056097887
100
AcDbArc
 50
299.98659
 51
359.988724
  0
ARC
  5
215
330
1B0
100
AcDbEntity
  8
0
  6
Continuous
 62
     0
370
    30
100
AcDbCircle
 10
540.442585
 20
928.090499
 30
0.0
 40
0.7000367804152423
100
AcDbArc
 50
240.001738
 51
299.998262
  0
ARC
  5
216
330
1B0
100
AcDbEntity
  8
0
  6
Continuous
 62
     0
370
    30
100
AcDbCircle
 10
520.290037
 20
939.725687
 30
0.0
 40
0.7001411978541392
100
AcDbArc
 50
240.006671
 51
299.993329
  0
SPLINE
  5
217
330
1B0
100
AcDbEntity
  8
0
  6
Continuous
 62
     0
370
    30
100
AcDbSpline
210
0.0
220
0.0
230
1.0
 70
     8
 71
     3
 72
    11
 73
     7
 74
     0
 42
0.000000001
 43
0.0
 40
0.0
 40
0.0
 40
0.0
 40
0.0
 40
0.4132330920692155
 40
0.8601046981000798
 40
1.237418351687201
 40
1.738983677257788
 40
1.738983677257788
 40
1.738983677257788
 40
1.738983677257788
 10
549.5542123697583
 20
967.1424037880101
 30
0.0
 10
549.5349372620167
 20
967.1535322799202
 30
0.0
 10
549.500367643434
 20
967.179910680281
 30
0.0
 10
549.4323177276365
 20
967.2758922266244
 30
0.0
 10
549.3665019409721
 20
967.4664182166468
 30
0.0
 10
549.3450240799452
 20
967.6531459644568
 30
0.0
 10
549.3450240797133
 20
967.7721841996154
 30
0.0
  0
SPLINE
  5
218
330
1B0
100
AcDbEntity
  8
0
  6
Continuous
 62
     0
370
    30
100
AcDbSpline
210
0.0
220
0.0
230
1.0
 70
     8
 71
     3
 72
    20
 73
    16
 74
     0
 42
0.000000001
 43
0.0
 40
0.0
 40
0.0
 40
0.0
 40
0.0
 40
0.6171197787287743
 40
1.19354942823151
 40
2.293485114191092
 40
3.280219039720055
 40
4.649652972487337
 40
5.629425580095373
 40
7.833801245601209
 40
8.996445474041428
 40
10.4432925894064
 40
11.52092576877279
 40
12.23829455033667
 40
13.24818484771701
 40
14.08546122426396
 40
14.08546122426396
 40
14.08546122426396
 40
14.08546122426396
 10
538.3879261406564
 20
985.6608980559445
 30
0.0
 10
538.3879260550286
 20
985.8097303629968
 30
0.0
 10
538.4189940908168
 20
986.0963453591478
 30
0.0
 10
538.5733068698936
 20
986.6195817867253
 30
0.0
 10
538.8758502155583
 20
987.1769627266563
 30
0.0
 10
539.414228108745
 20
987.8309263579574
 30
0.0
 10
540.0623990646261
 20
988.3951633984502
 30
0.0
 10
541.0927227977286
 20
989.0788182100878
 30
0.0
 10
542.2432585914378
 20
989.6204843078995
 30
0.0
 10
543.6780221514364
 20
990.0587970991389
 30
0.0
 10
544.8593768913477
 20
990.2783901732653
 30
0.0
 10
545.9414157245294
 20
990.337360746516
 30
0.0
 10
546.8750080499298
 20
990.2805480018487
 30
0.0
 10
547.6960396275592
 20
990.115841875182
 30
0.0
 10
548.2174254823083
 20
989.8929376691312
 30
0.0
 10
548.4293176439128
 20
989.7706307673825
 30
0.0
  0
SPLINE
  5
219
330
1B0
100
AcDbEntity
  8
0
  6
Continuous
 62
     0
370
    30
100
AcDbSpline
210
0.0
220
0.0
230
1.0
 70
     8
 71
     3
 72
    12
 73
     8
 74
     0
 42
0.000000001
 43
0.0
 40
0.0
 40
0.0
 40
0.0
 40
0.0
 40
0.481040823367843
 40
1.319558656696693
 40
1.647906381012788
 40
2.108914615780738
 40
2.869642788868864
 40
2.869642788868864
 40
2.869642788868864
 40
2.869642788868864
 10
568.5818564693172
 20
978.1355445931295
 30
0.0
 10
568.4599209491441
 20
978.2059278187226
 30
0.0
 10
568.1182109932231
 20
978.3717099229502
 30
0.0
 10
567.6767519840271
 20
978.4716298138478
 30
0.0
 10
567.2531473432273
 20
978.472435510233
 30
0.0
 10
566.8603822980728
 20
978.4115524763354
 30
0.0
 10
566.5790155752034
 20
978.2943545562498
 30
0.0
 10
566.4202909865908
 20
978.2027147390395
 30
0.0
  0
SPLINE
  5
21A
330
1B0
100
AcDbEntity
  8
0
  6
Continuous
 62
     0
370
    30
100
AcDbSpline
210
0.0
220
0.0
230
1.0
 70
     8
 71
     3
 72
    15
 73
    11
 74
     0
 42
0.000000001
 43
0.0
 40
0.0
 40
0.0
 40
0.0
 40
0.0
 40
0.2466711646573491
 40
0.6510360494684213
 40
1.075280760625243
 40
1.730929020684617
 40
2.391797182589811
 40
2.827462467150998
 40
3.251341681825803
 40
3.571047340273452
 40
3.571047340273452
 40
3.571047340273452
 40
3.571047340273452
 10
549.3450240797133
 20
953.8917423238838
 30
0.0
 10
549.3450240796002
 20
953.950417050846
 30
0.0
 10
549.3526717739475
 20
954.1147186933199
 30
0.0
 10
549.400105836727
 20
954.415112102834
 30
0.0
 10
549.527824512319
 20
954.8572997909364
 30
0.0
 10
549.7679021927106
 20
955.3858932749486
 30
0.0
 10
550.0967881165705
 20
955.873224994828
 30
0.0
 10
550.4193948791443
 20
956.2278922477396
 30
0.0
 10
550.6788299477554
 20
956.4490884982943
 30
0.0
 10
550.8383845919783
 20
956.5543299989365
 30
0.0
 10
550.904212397382
 20
956.5923356994895
 30
0.0
  0
SPLINE
  5
21B
330
1B0
100
AcDbEntity
  8
0
  6
Continuous
 62
     0
370
    30
100
AcDbSpline
210
0.0
220
0.0
230
1.0
 70
     8
 71
     3
 72
    12
 73
     8
 74
     0
 42
0.000000001
 43
0.0
 40
0.0
 40
0.0
 40
0.0
 40
0.0
 40
0.4810408099878765
 40
1.319558629406905
 40
1.647906358370947
 40
2.108914602274794
 40
2.869642683778695
 40
2.869642683778695
 40
2.869642683778695
 40
2.869642683778695
 10
539.5268799188982
 20
927.8108490317013
 30
0.0
 10
539.4049585009191
 20
927.88125667599
 30
0.0
 10
539.090532015551
 20
928.0942951243615
 30
0.0
 10
538.7832693510705
 20
928.4266498928471
 30
0.0
 10
538.5707692776696
 20
928.7930994240392
 30
0.0
 10
538.4271130177774
 20
929.1636854286476
 30
0.0
 10
538.3879260309353
 20
929.4659550938511
 30
0.0
 10
538.3879261406564
 20
929.6492345048443
 30
0.0
  0
SPLINE
  5
21C
330
1B0
100
AcDbEntity
  8
0
  6
Continuous
 62
     0
370
    30
100
AcDbSpline
210
0.0
220
0.0
230
1.0
 70
     8
 71
     3
 72
    20
 73
    16
 74
     0
 42
0.000000001
 43
0.0
 40
0.0
 40
0.0
 40
0.0
 40
0.0
 40
0.6171197530681769
 40
1.193549377591862
 40
2.293485011651296
 40
3.280218889265188
 40
4.649652765618604
 40
5.629425342106036
 40
7.833800964151618
 40
8.996445177260181
 40
10.44329227808941
 40
11.52092548001396
 40
12.23829428205543
 40
13.24818460462131
 40
14.08546108344592
 40
14.08546108344592
 40
14.08546108344592
 40
14.08546108344592
 10
517.9127674431132
 20
950.1968829634909
 30
0.0
 10
517.7838748480352
 20
950.1224668825798
 30
0.0
 10
517.5511930101261
 20
949.9522536758543
 30
0.0
 10
517.1752133804207
 20
949.556996682219
 30
0.0
 10
516.8437790157852
 20
949.0162960073378
 30
0.0
 10
516.5466188551685
 20
948.2230652920825
 30
0.0
 10
516.3820607229736
 20
947.3796142940678
 30
0.0
 10
516.3051601451972
 20
946.1455004019695
 30
0.0
 10
516.411331423524
 20
944.878274160108
 30
0.0
 10
516.7491231641113
 20
943.4165760993626
 30
0.0
 10
517.1496273317975
 20
942.283696348326
 30
0.0
 10
517.6395767179777
 20
941.317137927856
 30
0.0
 10
518.1555741572432
 20
940.5370295977445
 30
0.0
 10
518.708729655302
 20
939.9083484041535
 30
0.0
 10
519.1624633147132
 20
939.5682670779911
 30
0.0
 10
519.3743303040753
 20
939.4459165181252
 30
0.0
  0
SPLINE
  5
21D
330
1B0
100
AcDbEntity
  8
0
  6
Continuous
 62
     0
370
    30
100
AcDbSpline
210
0.0
220
0.0
230
1.0
 70
     8
 71
     3
 72
    12
 73
     8
 74
     0
 42
0.000000001
 43
0.0
 40
0.0
 40
0.0
 40
0.0
 40
0.0
 40
0.4269979376779409
 40
0.6893628053838501
 40
1.22489717238432
 40
1.492768094312399
 40
1.738960958374876
 40
1.738960958374876
 40
1.738960958374876
 40
1.738960958374876
 10
538.8833971172018
 20
949.6521147615986
 30
0.0
 10
538.9712338749066
 20
949.7028273364817
 30
0.0
 10
539.1071387629039
 20
949.7649398069
 30
0.0
 10
539.3091433276309
 20
949.8206939014779
 30
0.0
 10
539.4307758713303
 20
949.8207623636586
 30
0.0
 10
539.4978448472946
 20
949.803523408232
 30
0.0
 10
539.52191100245
 20
949.7924740719668
 30
0.0
 10
539.5333969606899
 20
949.7858426639098
 30
0.0
  0
LINE
  5
21E
330
1B0
100
AcDbEntity
  8
0
  6
Continuous
 62
     0
370
    30
100
AcDbLine
 10
517.913111
 20
950.197072
 30
0.0
 11
537.387925
 21
961.440861
 31
0.0
  0
LINE
  5
21F
330
1B0
100
AcDbEntity
  8
0
  6
Continuous
 62
     0
370
    30
100
AcDbLine
 10
538.387934
 20
949.366059
 30
0.0
 11
538.387934
 21
929.648841
 31
0.0
  0
LINE
  5
220
330
1B0
100
AcDbEntity
  8
0
  6
Continuous
 62
     0
370
    30
100
AcDbLine
 10
549.345024
 20
968.344296
 30
0.0
 11
566.420636
 21
978.202905
 31
0.0
  0
LINE
  5
221
330
1B0
100
AcDbEntity
  8
0
  6
Continuous
 62
     0
370
    30
100
AcDbLine
 10
538.387934
 20
963.172926
 30
0.0
 11
538.387934
 21
985.660506
 31
0.0
  0
LINE
  5
222
330
1B0
100
AcDbEntity
  8
0
  6
Continuous
 62
     0
370
    30
100
AcDbLine
 10
519.374351
 20
939.445904
 30
0.0
 11
519.940037
 21
939.119306
 31
0.0
  0
LINE
  5
223
330
1B0
100
AcDbEntity
  8
0
  6
Continuous
 62
     0
370
    30
100
AcDbLine
 10
538.883397
 20
949.652115
 30
0.0
 11
520.640037
 21
939.119306
 31
0.0
  0
LINE
  5
224
330
1B0
100
AcDbEntity
  8
0
  6
Continuous
 62
     0
370
    30
100
AcDbLine
 10
540.092585
 20
927.484239
 30
0.0
 11
539.5269
 21
927.810837
 31
0.0
  0
LINE
  5
225
330
1B0
100
AcDbEntity
  8
0
  6
Continuous
 62
     0
370
    30
100
AcDbLine
 10
548.995024
 20
932.219919
 30
0.0
 11
540.792585
 21
927.484239
 31
0.0
  0
LINE
  5
226
330
1B0
100
AcDbEntity
  8
0
  6
Continuous
 62
     0
370
    30
100
AcDbLine
 10
549.345024
 20
953.891742
 30
0.0
 11
549.345024
 21
932.826137
 31
0.0
  0
LINE
  5
227
330
1B0
100
AcDbEntity
  8
0
  6
Continuous
 62
     0
370
    30
100
AcDbLine
 10
569.147562
 20
967.125138
 30
0.0
 11
550.904212
 21
956.592336
 31
0.0
  0
LINE
  5
228
330
1B0
100
AcDbEntity
  8
0
  6
Continuous
 62
     0
370
    30
100
AcDbLine
 10
568.581877
 20
978.135533
 30
0.0
 11
569.147562
 21
977.808934
 31
0.0
  0
LINE
  5
229
330
1B0
100
AcDbEntity
  8
0
  6
Continuous
 62
     0
370
    30
100
AcDbLine
 10
569.497562
 20
977.202717
 30
0.0
 11
569.497562
 21
967.731356
 31
0.0
  0
LINE
  5
22A
330
1B0
100
AcDbEntity
  8
0
  6
Continuous
 62
     0
370
    30
100
AcDbLine
 10
548.995024
 20
989.44402
 30
0.0
 11
548.429339
 21
989.770619
 31
0.0
  0
LINE
  5
22B
330
1B0
100
AcDbEntity
  8
0
  6
Continuous
 62
     0
370
    30
100
AcDbLine
 10
549.345024
 20
988.837802
 30
0.0
 11
549.345024
 21
967.772184
 31
0.0
  0
ARC
  5
22C
330
1B0
100
AcDbEntity
  8
0
  6
Continuous
 62
     0
370
    30
100
AcDbCircle
 10
536.387063
 20
963.17342
 30
0.0
 40
2.000865023798255
100
AcDbArc
 50
300.014539
 51
359.985459
  0
ELLIPSE
  5
22D
330
1B0
100
AcDbEntity
  8
0
  6
Continuous
 62
     0
370
    30
100
AcDbEllipse
 10
510.602656
 20
978.060059
 30
0.0
 11
-8.250000000000004
 21
-14.28941916244324
 31
0.0
210
0.0
220
0.0
230
-1.0
 40
0.57735
 41
0.0000000228501543
 42
3.141592676439945
  0
ELLIPSE
  5
22E
330
1B0
100
AcDbEntity
  8
0
  6
Continuous
 62
     0
370
    30
100
AcDbEllipse
 10
524.744791
 20
969.895093
 30
0.0
 11
-8.250000000000004
 21
-14.28941916244324
 31
0.0
210
0.0
220
0.0
230
-1.0
 40
0.57735
 41
5.15051436627899
 42
10.55744941665851
  0
ELLIPSE
  5
22F
330
1B0
100
AcDbEntity
  8
0
  6
Continuous
 62
     0
370
    30
100
AcDbEllipse
 10
524.744791
 20
969.895093
 30
0.0
 11
-3.750000000000001
 21
-6.49519052838329
 31
0.0
210
0.0
220
0.0
230
-1.0
 40
0.57735
 41
5.915978611550276
 42
9.791987306251336
  0
ELLIPSE
  5
230
330
1B0
100
AcDbEntity
  8
0
  6
Continuous
 62
     0
370
    30
100
AcDbEllipse
 10
523.330578
 20
970.711589
 30
0.0
 11
-3.750000000000001
 21
-6.49519052838329
 31
0.0
210
0.0
220
0.0
230
-1.0
 40
0.57735
 41
3.331290162005294
 42
3.508801999071749
  0
ELLIPSE
  5
231
330
1B0
100
AcDbEntity
  8
0
  6
Continuous
 62
     0
370
    30
100
AcDbEllipse
 10
523.330578
 20
970.711589
 30
0.0
 11
-3.750000000000001
 21
-6.49519052838329
 31
0.0
210
0.0
220
0.0
230
-1.0
 40
0.57735
 41
5.915978611550271
 42
6.093487844464387
  0
LINE
  5
232
330
1B0
100
AcDbEntity
  8
0
  6
Continuous
 62
     0
370
    30
100
AcDbLine
 10
518.852656
 20
992.349478
 30
0.0
 11
532.994792
 21
984.184512
 31
0.0
  0
LINE
  5
233
330
1B0
100
AcDbEntity
  8
0
  6
Continuous
 62
     0
370
    30
100
AcDbLine
 10
502.352656
 20
963.77064
 30
0.0
 11
516.494791
 21
955.605674
 31
0.0
  0
LINE
  5
234
330
1B0
100
AcDbEntity
  8
0
  6
Continuous
 62
     0
370
    30
100
AcDbLine
 10
551.049164
 20
831.008372
 30
0.0
 11
550.695611
 21
830.804248
 31
0.0
  0
ELLIPSE
  5
235
330
1B0
100
AcDbEntity
  8
0
  6
Continuous
 62
     0
370
    30
100
AcDbEllipse
 10
551.049164
 20
848.563049
 30
0.0
 11
10.75
 21
18.61954618136544
 31
0.0
210
0.0
220
0.0
230
1.0
 40
0.57735
 41
0.0
 42
6.283185307179586
  0
ELLIPSE
  5
236
330
1B0
100
AcDbEntity
  8
0
  6
Continuous
 62
     0
370
    30
100
AcDbEllipse
 10
550.695611
 20
848.767173
 30
0.0
 11
11.0
 21
19.05255888325765
 31
0.0
210
0.0
220
0.0
230
1.0
 40
0.57735
 41
5.48635796238631
 42
10.21017612416682
  0
ELLIPSE
  5
237
330
1B0
100
AcDbEntity
  8
0
  6
Continuous
 62
     0
370
    30
100
AcDbEllipse
 10
550.695611
 20
848.767173
 30
0.0
 11
11.0
 21
19.05255888325765
 31
0.0
210
0.0
220
0.0
230
1.0
 40
0.57735
 41
3.926990816987242
 42
3.93841995268276
  0
ELLIPSE
  5
238
330
1B0
100
AcDbEntity
  8
0
  6
Continuous
 62
     0
370
    30
100
AcDbEllipse
 10
515.693825
 20
868.975463
 30
0.0
 11
11.0
 21
19.05255888325765
 31
0.0
210
0.0
220
0.0
230
1.0
 40
0.57735
 41
-0.0000000228501564
 42
3.141592630739635
  0
LINE
  5
239
330
1B0
100
AcDbEntity
  8
0
  6
Continuous
 62
     0
370
    30
100
AcDbLine
 10
566.25196
 20
857.340403
 30
0.0
 11
566.25196
 21
857.748635
 31
0.0
  0
LINE
  5
23A
330
1B0
100
AcDbEntity
  8
0
  6
Continuous
 62
     0
370
    30
100
AcDbLine
 10
539.695611
 20
829.714614
 30
0.0
 11
504.693825
 21
849.922904
 31
0.0
  0
LINE
  5
23B
330
1B0
100
AcDbEntity
  8
0
  6
Continuous
 62
     0
370
    30
100
AcDbLine
 10
543.327569
 20
878.424526
 30
0.0
 11
526.693826
 21
888.028022
 31
0.0
  0
LINE
  5
23C
330
1B0
100
AcDbEntity
  8
0
  6
Continuous
 62
     0
370
    30
100
AcDbLine
 10
561.695611
 20
867.819732
 30
0.0
 11
548.635203
 21
875.360162
 31
0.0
  0
ELLIPSE
  5
23D
330
1B0
100
AcDbEntity
  8
0
  6
Continuous
 62
     0
370
    30
100
AcDbEllipse
 10
544.685203
 20
876.593376
 30
0.0
 11
-3.45
 21
0.0
 31
0.0
210
0.0
220
0.0
230
1.0
 40
0.57735
 41
0.0
 42
6.283185307179586
  0
ELLIPSE
  5
23E
330
1B0
100
AcDbEntity
  8
0
  6
Continuous
 62
     0
370
    30
100
AcDbEllipse
 10
544.685203
 20
876.185128
 30
0.0
 11
3.95
 21
0.0
 31
0.0
210
0.0
220
0.0
230
-1.0
 40
0.57735
 41
5.432306063977145
 42
7.068583470577033
  0
ELLIPSE
  5
23F
330
1B0
100
AcDbEntity
  8
0
  6
Continuous
 62
     0
370
    30
100
AcDbEllipse
 10
544.685203
 20
876.185128
 30
0.0
 11
3.95
 21
0.0
 31
0.0
210
0.0
220
0.0
230
-1.0
 40
0.57735
 41
0.7853981633974482
 42
3.992471914071623
  0
LINE
  5
240
330
1B0
100
AcDbEntity
  8
0
  6
Continuous
 62
     0
370
    30
100
AcDbLine
 10
547.125184
 20
878.001566
 30
0.0
 11
547.478757
 21
877.79743
 31
0.0
  0
LINE
  5
241
330
1B0
100
AcDbEntity
  8
0
  6
Continuous
 62
     0
370
    30
100
AcDbLine
 10
542.245581
 20
878.001773
 30
0.0
 11
541.892132
 21
877.797709
 31
0.0
  0
ELLIPSE
  5
242
330
1B0
100
AcDbEntity
  8
0
  6
Continuous
 62
     0
370
    30
100
AcDbEllipse
 10
510.602656
 20
978.060059
 30
0.0
 11
-15.00000000000001
 21
-25.98076211353316
 31
0.0
210
0.0
220
0.0
230
-1.0
 40
0.57735
 41
5.294753241103588
 42
9.451888095058827
  0
ELLIPSE
  5
243
330
1B0
100
AcDbEntity
  8
0
  6
Continuous
 62
     0
370
    30
100
AcDbEllipse
 10
510.602656
 20
978.060059
 30
0.0
 11
-15.00000000000001
 21
-25.98076211353316
 31
0.0
210
0.0
220
0.0
230
-1.0
 40
0.57735
 41
3.168702787879242
 42
4.130024765366098
  0
ELLIPSE
  5
244
330
1B0
100
AcDbEntity
  8
0
  6
Continuous
 62
     0
370
    30
100
AcDbEllipse
 10
505.652908
 20
980.917797
 30
0.0
 11
-15.00000000000001
 21
-25.98076211353316
 31
0.0
210
0.0
220
0.0
230
-1.0
 40
0.57735
 41
0.0000000228501555
 42
3.141592676439946
  0
LINE
  5
245
330
1B0
100
AcDbEntity
  8
0
  6
Continuous
 62
     0
370
    30
100
AcDbLine
 10
495.602656
 20
952.079297
 30
0.0
 11
490.652908
 21
954.937035
 31
0.0
  0
LINE
  5
246
330
1B0
100
AcDbEntity
  8
0
  6
Continuous
 62
     0
370
    30
100
AcDbLine
 10
525.602656
 20
1004.040821
 30
0.0
 11
520.652909
 21
1006.898559
 31
0.0
  0
ELLIPSE
  5
247
330
1B0
100
AcDbEntity
  8
0
  6
Continuous
 62
     0
370
     0
100
AcDbEllipse
 10
512.168966
 20
871.010542
 30
0.0
 11
32.50000000000001
 21
56.29165124598853
 31
0.0
210
0.0
220
0.0
230
1.0
 40
0.57735
 41
0.1783450574413256
 42
3.141592630739634
  0
ELLIPSE
  5
248
330
1B0
100
AcDbEntity
  8
0
  6
Continuous
 62
     0
370
     0
100
AcDbEllipse
 10
512.168966
 20
871.010542
 30
0.0
 11
32.50000000000001
 21
56.29165124598853
 31
0.0
210
0.0
220
0.0
230
1.0
 40
0.57735
 41
-0.0000000518759428
 42
0.066765068029315
  0
ELLIPSE
  5
249
330
1B0
100
AcDbEntity
  8
0
  6
Continuous
 62
     0
370
     0
100
AcDbEllipse
 10
512.522354
 20
870.806513
 30
0.0
 11
-32.25763313609468
 21
-55.87185952363336
 31
0.0
210
0.0
220
0.0
230
-1.0
 40
0.57735
 41
3.054226884579486
 42
3.934598480538852
  0
ELLIPSE
  5
24A
330
1B0
100
AcDbEntity
  8
0
  6
Continuous
 62
     0
370
     0
100
AcDbEllipse
 10
512.522354
 20
870.806513
 30
0.0
 11
-32.25763313609468
 21
-55.87185952363336
 31
0.0
210
0.0
220
0.0
230
-1.0
 40
0.57735
 41
5.060374304896178
 42
9.24412542810169
  0
ELLIPSE
  5
24B
330
1B0
100
AcDbEntity
  8
0
  6
Continuous
 62
     0
370
     0
100
AcDbEllipse
 10
512.522354
 20
870.806513
 30
0.0
 11
-32.25763313609468
 21
-55.87185952363336
 31
0.0
210
0.0
220
0.0
230
-1.0
 40
0.57735
 41
3.934598480538852
 42
4.364403701573514
  0
ELLIPSE
  5
24C
330
1B0
100
AcDbEntity
  8
0
  6
Continuous
 62
     0
370
    30
100
AcDbEllipse
 10
505.79433
 20
874.690939
 30
0.0
 11
32.50000000000001
 21
56.29165124598853
 31
0.0
210
0.0
220
0.0
230
1.0
 40
0.57735
 41
-0.0000000228501564
 42
3.141592630739635
  0
LINE
  5
24D
330
1B0
100
AcDbEntity
  8
0
  6
Continuous
 62
     0
370
    30
100
AcDbLine
 10
542.573122
 20
928.512229
 30
0.0
 11
544.668966
 21
927.302193
 31
0.0
  0
LINE
  5
24E
330
1B0
100
AcDbEntity
  8
0
  6
Continuous
 62
     0
370
    30
100
AcDbLine
 10
538.294331
 20
930.98259
 30
0.0
 11
538.387935
 21
930.928548
 31
0.0
  0
LINE
  5
24F
330
1B0
100
AcDbEntity
  8
0
  6
Continuous
 62
     0
370
    30
100
AcDbLine
 10
473.29433
 20
818.399288
 30
0.0
 11
479.668965
 21
814.718891
 31
0.0
  0
SPLINE
  5
250
330
1B0
100
AcDbEntity
  8
0
  6
Continuous
 62
     0
370
    30
100
AcDbSpline
210
0.0
220
0.0
230
1.0
 70
     8
 71
     3
 72
    14
 73
    10
 74
     0
 42
0.000000001
 43
0.0
 40
0.0
 40
0.0
 40
0.0
 40
0.0
 40
5.967819894784538
 40
15.43295709883768
 40
28.04419270420136
 40
32.47724004592583
 40
44.13265063598803
 40
48.46681733016361
 40
51.4955500063591
 40
51.4955500063591
 40
51.4955500063591
 40
51.4955500063591
 10
544.6689651593679
 20
927.3021934054891
 30
0.0
 10
545.6784814204144
 20
926.7193489612123
 30
0.0
 10
548.1707435043907
 20
925.0033951596474
 30
0.0
 10
552.0791832622735
 20
920.9478877874694
 30
0.0
 10
554.8416413421021
 20
915.9508983560693
 30
0.0
 10
556.9840221495658
 20
909.7135106182582
 30
0.0
 10
557.9282201595503
 20
904.7568087606021
 30
0.0
 10
558.2540609398918
 20
899.7616808793018
 30
0.0
 10
558.2814673558305
 20
897.767410044662
 30
0.0
 10
558.2760225120649
 20
896.9378634675702
 30
0.0
  0
SPLINE
  5
251
330
1B0
100
AcDbEntity
  8
0
  6
Continuous
 62
     0
370
    30
100
AcDbSpline
210
0.0
220
0.0
230
1.0
 70
     8
 71
     3
 72
    12
 73
     8
 74
     0
 42
0.000000001
 43
0.0
 40
124.3469448475066
 40
124.3469448475066
 40
124.3469448475066
 40
124.3469448475066
 40
130.7862006211594
 40
137.7620746687934
 40
142.4293178061188
 40
148.3359688398369
 40
152.3113495505329
 40
152.3113495505329
 40
152.3113495505329
 40
152.3113495505329
 10
553.9272141012964
 20
872.3048161281292
 30
0.0
 10
554.5725527522193
 20
874.2643887934355
 30
0.0
 10
555.7751601828231
 20
878.3423502878918
 30
0.0
 10
556.9795057249597
 20
883.7703430164115
 30
0.0
 10
557.7867266990932
 20
888.9304559596853
 30
0.0
 10
558.179525308018
 20
893.1020426229861
 30
0.0
 10
558.2688764744349
 20
895.84911617956
 30
0.0
 10
558.2760225516391
 20
896.9378694969355
 30
0.0
  0
SPLINE
  5
252
330
1B0
100
AcDbEntity
  8
0
  6
Continuous
 62
     0
370
    30
100
AcDbSpline
210
0.0
220
0.0
230
1.0
 70
     8
 71
     3
 72
    16
 73
    12
 74
     0
 42
0.000000001
 43
0.0
 40
0.0
 40
0.0
 40
0.0
 40
0.0
 40
4.43513146493501
 40
11.34211138301649
 40
17.29598366882831
 40
25.74243547855507
 40
38.46594450562353
 40
50.89861006932745
 40
63.43618919770286
 40
77.54619849799987
 40
79.46005818511448
 40
79.46005818511448
 40
79.46005818511448
 40
79.46005818511448
 10
479.6689636741077
 20
814.7188917710275
 30
0.0
 10
480.4193317845176
 20
814.285666432178
 30
0.0
 10
482.4044184785487
 20
813.2908302567507
 30
0.0
 10
485.666272632496
 20
812.2266915949722
 30
0.0
 10
489.966597914256
 20
811.5612662587716
 30
0.0
 10
495.7829431968025
 20
811.6401072790686
 30
0.0
 10
503.4571399632124
 20
813.4156584440921
 30
0.0
 10
512.3725361828299
 20
817.5578659442319
 30
0.0
 10
521.6020543753152
 20
823.9031916593221
 30
0.0
 10
528.075098522105
 20
829.9577294838209
 30
0.0
 10
531.5188711178089
 20
833.7422846535464
 30
0.0
 10
531.9273394604068
 20
834.1996259854914
 30
0.0
  0
ELLIPSE
  5
253
330
1B0
100
AcDbEntity
  8
0
  6
Continuous
 62
     0
370
    30
100
AcDbEllipse
 10
544.685203
 20
866.747346
 30
0.0
 11
3.95
 21
0.0
 31
0.0
210
0.0
220
0.0
230
-1.0
 40
0.57735
 41
0.7853981633974482
 42
3.141592681447471
  0
ELLIPSE
  5
254
330
1B0
100
AcDbEntity
  8
0
  6
Continuous
 62
     0
370
    30
100
AcDbEllipse
 10
544.685203
 20
866.747346
 30
0.0
 11
3.95
 21
0.0
 31
0.0
210
0.0
220
0.0
230
-1.0
 40
0.57735
 41
-0.0000000278576881
 42
0.7853981633974464
  0
LINE
  5
255
330
1B0
100
AcDbEntity
  8
0
  6
Continuous
 62
     0
370
    30
100
AcDbLine
 10
548.635203
 20
876.185128
 30
0.0
 11
548.635203
 21
866.747347
 31
0.0
  0
LINE
  5
256
330
1B0
100
AcDbEntity
  8
0
  6
Continuous
 62
     0
370
    30
100
AcDbLine
 10
540.735203
 20
876.185128
 30
0.0
 11
540.735203
 21
866.747347
 31
0.0
  0
ENDBLK
  5
258
330
1B0
100
AcDbEntity
  8
0
100
AcDbBlockEnd
  0
BLOCK
  5
2C7
330
25A
100
AcDbEntity
  8
0
100
AcDbBlockBegin
  2
e
 70
     0
 10
746.510677
 20
-5.673376
 30
0.0
  3
e
  1

  0
SPLINE
  5
25B
330
25A
100
AcDbEntity
  8
0
  6
Continuous
 62
     0
370
     0
100
AcDbSpline
210
0.0
220
0.0
230
1.0
 70
     8
 71
     3
 72
    13
 73
     9
 74
     0
 42
0.000000001
 43
0.0
 40
1.088698917416127
 40
1.088698917416127
 40
1.088698917416127
 40
1.088698917416127
 40
1.789436987000319
 40
2.507231324727775
 40
3.180523459596307
 40
4.095798448001911
 40
4.601774968688336
 40
5.240165855242434
 40
5.240165855242434
 40
5.240165855242434
 40
5.240165855242434
 10
263.052331233039
 20
669.2541757780257
 30
0.0
 10
262.9349897719684
 20
669.0661314680383
 30
0.0
 10
262.6832502807289
 20
668.6960342332211
 30
0.0
 10
262.2677321024069
 20
668.1936827326444
 30
0.0
 10
261.7604692724182
 20
667.7075347249149
 30
0.0
 10
261.2489070058833
 20
667.364974621983
 30
0.0
 10
260.7103206322629
 20
667.1609582436431
 30
0.0
 10
260.4009752796789
 20
667.1181363100575
 30
0.0
 10
260.2283719879853
 20
667.1181353490717
 30
0.0
  0
SPLINE
  5
25C
330
25A
100
AcDbEntity
  8
0
  6
Continuous
 62
     0
370
     0
100
AcDbSpline
210
0.0
220
0.0
230
1.0
 70
     8
 71
     3
 72
    12
 73
     8
 74
     0
 42
0.000000001
 43
0.0
 40
0.0
 40
0.0
 40
0.0
 40
0.0
 40
0.111110656590974
 40
0.333331969772922
 40
0.666665303106258
 40
0.8888884343687529
 40
1.0
 40
1.0
 40
1.0
 40
1.0
 10
263.0522727288893
 20
670.5572452675146
 30
0.0
 10
263.0244630129747
 20
670.5248615031448
 30
0.0
 10
262.9495487869641
 20
670.4203970135213
 30
0.0
 10
262.8527627479232
 20
670.1686835025073
 30
0.0
 10
262.8527762032394
 20
669.814120323724
 30
0.0
 10
262.9495848232797
 20
669.4792668421501
 30
0.0
 10
263.0245099603093
 20
669.3104530625465
 30
0.0
 10
263.0523232332903
 20
669.2541817644767
 30
0.0
  0
LINE
  5
25D
330
25A
100
AcDbEntity
  8
0
  6
Continuous
 62
     0
370
     0
100
AcDbLine
 10
260.228372
 20
669.118135
 30
0.0
 11
260.228379
 21
667.118135
 31
0.0
  0
SPLINE
  5
25E
330
25A
100
AcDbEntity
  8
0
  6
Continuous
 62
     0
370
     0
100
AcDbSpline
210
0.0
220
0.0
230
1.0
 70
     8
 71
     3
 72
    12
 73
     8
 74
     0
 42
0.000000001
 43
0.0
 40
7.102293978971531
 40
7.102293978971531
 40
7.102293978971531
 40
7.102293978971531
 40
7.413697331254708
 40
9.117847923670784
 40
10.62923903960934
 40
12.27392158409421
 40
13.1679521014325
 40
13.1679521014325
 40
13.1679521014325
 40
13.1679521014325
 10
266.7283273476849
 20
668.6182398775795
 30
0.0
 10
266.7283618193237
 20
668.6181978972293
 30
0.0
 10
266.7145804886125
 20
668.6317133261966
 30
0.0
 10
266.5302962669995
 20
668.813350132627
 30
0.0
 10
265.9612339767826
 20
669.3675277507007
 30
0.0
 10
265.2747675057942
 20
670.021324577797
 30
0.0
 10
264.7605553722173
 20
670.4957229952113
 30
0.0
 10
264.5696743889117
 20
670.6685809590826
 30
0.0
  0
SPLINE
  5
25F
330
25A
100
AcDbEntity
  8
0
  6
Continuous
 62
     0
370
     0
100
AcDbSpline
210
0.0
220
0.0
230
1.0
 70
     8
 71
     3
 72
    12
 73
     8
 74
     0
 42
0.000000001
 43
0.0
 40
0.0
 40
0.0
 40
0.0
 40
0.0
 40
0.111111043893932
 40
0.333333131681796
 40
0.6666664650151282
 40
0.888888821671709
 40
1.0
 40
1.0
 40
1.0
 40
1.0
 10
263.0523232332903
 20
669.2541817644767
 30
0.0
 10
263.0840008201019
 20
669.3182735927076
 30
0.0
 10
263.1900789196907
 20
669.5105490966794
 30
0.0
 10
263.4674514794684
 20
669.8909776616358
 30
0.0
 10
263.8864098656431
 20
670.2815073313532
 30
0.0
 10
264.2945266967785
 20
670.5400537316548
 30
0.0
 10
264.5007950741153
 20
670.6389301145086
 30
0.0
 10
264.569551041916
 20
670.6684568156957
 30
0.0
  0
SPLINE
  5
260
330
25A
100
AcDbEntity
  8
0
  6
Continuous
 62
     0
370
     0
100
AcDbSpline
210
0.0
220
0.0
230
1.0
 70
     8
 71
     3
 72
    16
 73
    12
 74
     0
 42
0.000000001
 43
0.0
 40
7.282736434396779
 40
7.282736434396779
 40
7.282736434396779
 40
7.282736434396779
 40
7.384587825379404
 40
7.602292845660429
 40
8.050267079956257
 40
8.865339190644987
 40
9.587712381118447
 40
10.89963405505803
 40
11.9197382566156
 40
13.26983234920002
 40
13.50274282917339
 40
13.50274282917339
 40
13.50274282917339
 40
13.50274282917339
 10
264.728407623658
 20
666.6181431849618
 30
0.0
 10
264.7284075811561
 20
666.6181432533758
 30
0.0
 10
264.7278390751563
 20
666.6190159448938
 30
0.0
 10
264.722188927833
 20
666.6276888968678
 30
0.0
 10
264.6941284933401
 20
666.6707728487902
 30
0.0
 10
264.6134848557143
 20
666.7947325642772
 30
0.0
 10
264.4275411165956
 20
667.0816546556853
 30
0.0
 10
264.1378701540661
 20
667.5315566226798
 30
0.0
 10
263.6924534075292
 20
668.2319208750118
 30
0.0
 10
263.3250369354429
 20
668.8172363128181
 30
0.0
 10
263.0875750889802
 20
669.1977283121093
 30
0.0
 10
263.0523469873176
 20
669.2541942569612
 30
0.0
  0
SPLINE
  5
261
330
25A
100
AcDbEntity
  8
0
  6
Continuous
 62
     0
370
     0
100
AcDbSpline
210
0.0
220
0.0
230
1.0
 70
     8
 71
     3
 72
    10
 73
     6
 74
     0
 42
0.000000001
 43
0.0
 40
0.0
 40
0.0
 40
0.0
 40
0.0
 40
0.723941824859435
 40
1.44790153126454
 40
2.171879117896169
 40
2.171879117896169
 40
2.171879117896169
 40
2.171879117896169
 10
263.0522727288893
 20
670.5572452675146
 30
0.0
 10
263.1473174258608
 20
670.6678968699077
 30
0.0
 10
263.4070916633926
 20
670.8330369507551
 30
0.0
 10
263.9467659048009
 20
670.8725932034877
 30
0.0
 10
264.3632740327834
 20
670.757022147277
 30
0.0
 10
264.569551041916
 20
670.6684568156957
 30
0.0
  0
SPLINE
  5
262
330
25A
100
AcDbEntity
  8
0
  6
Continuous
 62
     0
370
     0
100
AcDbSpline
210
0.0
220
0.0
230
1.0
 70
     8
 71
     3
 72
    16
 73
    12
 74
     0
 42
0.000000001
 43
0.0
 40
1.036425014597385
 40
1.036425014597385
 40
1.036425014597385
 40
1.036425014597385
 40
1.110744251506268
 40
2.189467893912901
 40
4.177571134119697
 40
5.671291979533451
 40
7.41403273394689
 40
9.118176729562256
 40
10.6295864351307
 40
12.2743040219912
 40
13.16784666328683
 40
13.16784666328683
 40
13.16784666328683
 40
13.16784666328683
 10
264.569551041916
 20
670.6684568156957
 30
0.0
 10
264.5854168530738
 20
670.6828246969958
 30
0.0
 10
264.8305409136189
 20
670.9070528084771
 30
0.0
 10
265.4546915934026
 20
671.5734017205839
 30
0.0
 10
266.1708975680334
 20
672.7512295057704
 30
0.0
 10
266.6638789196239
 20
674.3186339991289
 30
0.0
 10
266.7893536574909
 20
675.9097484094598
 30
0.0
 10
266.5302063907026
 20
677.4797844056191
 30
0.0
 10
265.9610750078697
 20
678.8757498836785
 30
0.0
 10
265.2746360903546
 20
679.8696833984629
 30
0.0
 10
264.7605052243017
 20
680.3951555661195
 30
0.0
 10
264.5697299736403
 20
680.5679019913478
 30
0.0
  0
SPLINE
  5
263
330
25A
100
AcDbEntity
  8
0
  6
Continuous
 62
     0
370
     0
100
AcDbSpline
210
0.0
220
0.0
230
1.0
 70
     8
 71
     3
 72
    10
 73
     6
 74
     0
 42
0.000000001
 43
0.0
 40
0.0
 40
0.0
 40
0.0
 40
0.0
 40
0.724039994823727
 40
1.448094429070311
 40
2.172163302831896
 40
2.172163302831896
 40
2.172163302831896
 40
2.172163302831896
 10
263.0522837995143
 20
680.6790130612744
 30
0.0
 10
263.147333108489
 20
680.5683454976311
 30
0.0
 10
263.4071364835382
 20
680.4031873020115
 30
0.0
 10
263.9468834986828
 20
680.3636640005943
 30
0.0
 10
264.3634371821533
 20
680.4792977785178
 30
0.0
 10
264.5697299736403
 20
680.5679019913478
 30
0.0
  0
SPLINE
  5
264
330
25A
100
AcDbEntity
  8
0
  6
Continuous
 62
     0
370
     0
100
AcDbSpline
210
0.0
220
0.0
230
1.0
 70
     8
 71
     3
 72
    12
 73
     8
 74
     0
 42
0.000000001
 43
0.0
 40
0.0078499107250376
 40
0.0078499107250376
 40
0.0078499107250376
 40
0.0078499107250376
 40
0.111110799394611
 40
0.333332398183832
 40
0.66666573151717
 40
0.8888885771723901
 40
1.0
 40
1.0
 40
1.0
 40
1.0
 10
263.046431894288
 20
680.6859132939451
 30
0.0
 10
263.0209591514654
 20
680.7163293159476
 30
0.0
 10
262.9484160492306
 20
680.8188268759538
 30
0.0
 10
262.8527648254318
 20
681.0675806088345
 30
0.0
 10
262.852775435587
 20
681.4221508794683
 30
0.0
 10
262.9495841343339
 20
681.7570113278575
 30
0.0
 10
263.0245099471952
 20
681.9258284401858
 30
0.0
 10
263.0523235162706
 20
681.9821008371619
 30
0.0
  0
SPLINE
  5
265
330
25A
100
AcDbEntity
  8
0
  6
Continuous
 62
     0
370
     0
100
AcDbSpline
210
0.0
220
0.0
230
1.0
 70
     8
 71
     3
 72
    12
 73
     8
 74
     0
 42
0.000000001
 43
0.0
 40
0.0
 40
0.0
 40
0.0
 40
0.0
 40
0.6520897743775019
 40
1.28496578969263
 40
2.406270548573095
 40
3.546936377761555
 40
4.151717962033913
 40
4.151717962033913
 40
4.151717962033913
 40
4.151717962033913
 10
260.228367857792
 20
684.1181353490601
 30
0.0
 10
260.4046746698226
 20
684.1181353490601
 30
0.0
 10
260.751999481427
 20
684.0690323104536
 30
0.0
 10
261.3780988808763
 20
683.8108186869497
 30
0.0
 10
262.0648496647256
 20
683.283054413404
 30
0.0
 10
262.6438319699673
 20
682.6010303993664
 30
0.0
 10
262.9511783101278
 20
682.1443850834762
 30
0.0
 10
263.052447139191
 20
681.9821867562528
 30
0.0
  0
LINE
  5
266
330
25A
100
AcDbEntity
  8
0
  6
Continuous
 62
     0
370
     0
100
AcDbLine
 10
260.228372
 20
682.118135
 30
0.0
 11
260.228372
 21
684.118135
 31
0.0
  0
SPLINE
  5
267
330
25A
100
AcDbEntity
  8
0
  6
Continuous
 62
     0
370
     0
100
AcDbSpline
210
0.0
220
0.0
230
1.0
 70
     8
 71
     3
 72
    12
 73
     8
 74
     0
 42
0.000000001
 43
0.0
 40
0.0
 40
0.0
 40
0.0
 40
0.0
 40
0.111109627363873
 40
0.333328882091619
 40
0.66666221542495
 40
0.8888874051416499
 40
1.0
 40
1.0
 40
1.0
 40
1.0
 10
263.0523235162706
 20
681.9821008371619
 30
0.0
 10
263.0840058692903
 20
681.918013798314
 30
0.0
 10
263.190099180653
 20
681.7257522562172
 30
0.0
 10
263.4675088001055
 20
681.3453467068448
 30
0.0
 10
263.8865173054282
 20
680.954836207756
 30
0.0
 10
264.2946780365249
 20
680.6963003977512
 30
0.0
 10
264.5009673238476
 20
680.5974276084382
 30
0.0
 10
264.5697299736403
 20
680.5679019913478
 30
0.0
  0
SPLINE
  5
268
330
25A
100
AcDbEntity
  8
0
  6
Continuous
 62
     0
370
     0
100
AcDbSpline
210
0.0
220
0.0
230
1.0
 70
     8
 71
     3
 72
    12
 73
     8
 74
     0
 42
0.000000001
 43
0.0
 40
1.036551057264528
 40
1.036551057264528
 40
1.036551057264528
 40
1.036551057264528
 40
1.110209468683914
 40
2.188886951357268
 40
4.177064877331093
 40
5.670853416855161
 40
7.102250363851074
 40
7.102250363851074
 40
7.102250363851074
 40
7.102250363851074
 10
264.5696277969776
 20
680.5680144138828
 30
0.0
 10
264.5853523280951
 20
680.5822563486104
 30
0.0
 10
264.8303320400416
 20
680.804441294784
 30
0.0
 10
265.4544017713517
 20
681.3826586706873
 30
0.0
 10
266.170701894011
 20
682.0716510522825
 30
0.0
 10
266.634412760218
 20
682.525476305352
 30
0.0
 10
266.7281664357174
 20
682.6178507329653
 30
0.0
 10
266.728327362545
 20
682.6180460958708
 30
0.0
  0
SPLINE
  5
269
330
25A
100
AcDbEntity
  8
0
  6
Continuous
 62
     0
370
     0
100
AcDbSpline
210
0.0
220
0.0
230
1.0
 70
     8
 71
     3
 72
    16
 73
    12
 74
     0
 42
0.000000001
 43
0.0
 40
1.062716482746849
 40
1.062716482746849
 40
1.062716482746849
 40
1.062716482746849
 40
1.298726515577399
 40
3.006372394677578
 40
3.878711725755534
 40
4.283324162189563
 40
5.569195165989425
 40
6.279091221316628
 40
6.951075768366389
 40
7.168944913119137
 40
7.282720684980313
 40
7.282720684980313
 40
7.282720684980313
 40
7.282720684980313
 10
263.0523448336961
 20
681.9820983461645
 30
0.0
 10
263.0880435563751
 20
682.0393166729054
 30
0.0
 10
263.379597496119
 20
682.5064524840363
 30
0.0
 10
263.7714950093782
 20
683.129614118003
 30
0.0
 10
264.1145269835529
 20
683.6673472268149
 30
0.0
 10
264.370597239055
 20
684.0664729888217
 30
0.0
 10
264.5582847450541
 20
684.3565539264714
 30
0.0
 10
264.6826799436806
 20
684.5479408157246
 30
0.0
 10
264.7199444733034
 20
684.6051511275052
 30
0.0
 10
264.7277487084148
 20
684.6171313419559
 30
0.0
 10
264.7284076284913
 20
684.6181427879635
 30
0.0
 10
264.7284076237245
 20
684.6181427720376
 30
0.0
  0
ARC
  5
26A
330
25A
100
AcDbEntity
  8
0
  6
Continuous
 62
     0
370
    30
100
AcDbCircle
 10
259.428372
 20
709.918143
 30
0.0
 40
0.6999999880790782
100
AcDbArc
 50
90.0
 51
180.0
  0
LINE
  5
26B
330
25A
100
AcDbEntity
  8
0
  6
Continuous
 62
     0
370
     0
100
AcDbLine
 10
259.428372
 20
709.918143
 30
0.0
 11
259.428372
 21
684.118135
 31
0.0
  0
LINE
  5
26C
330
25A
100
AcDbEntity
  8
0
  6
Continuous
 62
     0
370
     0
100
AcDbLine
 10
259.428372
 20
709.918143
 30
0.0
 11
258.728372
 21
709.918143
 31
0.0
  0
LINE
  5
26D
330
25A
100
AcDbEntity
  8
0
  6
Continuous
 62
     0
370
    30
100
AcDbLine
 10
258.728372
 20
709.918143
 30
0.0
 11
258.728372
 21
684.118135
 31
0.0
  0
LINE
  5
26E
330
25A
100
AcDbEntity
  8
0
  6
Continuous
 62
     0
370
     0
100
AcDbLine
 10
258.728372
 20
684.118135
 30
0.0
 11
259.428372
 21
684.118135
 31
0.0
  0
LINE
  5
26F
330
25A
100
AcDbEntity
  8
0
  6
Continuous
 62
     0
370
    30
100
AcDbLine
 10
260.22837
 20
710.618143
 30
0.0
 11
259.428372
 21
710.618143
 31
0.0
  0
LINE
  5
270
330
25A
100
AcDbEntity
  8
0
  6
Continuous
 62
     0
370
     0
100
AcDbLine
 10
259.428372
 20
710.618143
 30
0.0
 11
259.428372
 21
709.918143
 31
0.0
  0
LINE
  5
271
330
25A
100
AcDbEntity
  8
0
  6
Continuous
 62
     0
370
     0
100
AcDbLine
 10
260.228372
 20
709.918143
 30
0.0
 11
259.428372
 21
709.918143
 31
0.0
  0
LINE
  5
272
330
25A
100
AcDbEntity
  8
0
  6
Continuous
 62
     0
370
     0
100
AcDbLine
 10
260.228372
 20
710.618143
 30
0.0
 11
260.228372
 21
709.918143
 31
0.0
  0
ARC
  5
273
330
25A
100
AcDbEntity
  8
0
  6
Continuous
 62
     0
370
    30
100
AcDbCircle
 10
259.428371
 20
681.418135
 30
0.0
 40
0.699999988079071
100
AcDbArc
 50
90.0
 51
180.0
  0
LINE
  5
274
330
25A
100
AcDbEntity
  8
0
  6
Continuous
 62
     0
370
     0
100
AcDbLine
 10
259.428371
 20
669.818135
 30
0.0
 11
259.428371
 21
681.418135
 31
0.0
  0
LINE
  5
275
330
25A
100
AcDbEntity
  8
0
  6
Continuous
 62
     0
370
     0
100
AcDbLine
 10
259.428371
 20
681.418135
 30
0.0
 11
258.728371
 21
681.418135
 31
0.0
  0
LINE
  5
276
330
25A
100
AcDbEntity
  8
0
  6
Continuous
 62
     0
370
    30
100
AcDbLine
 10
258.728371
 20
669.818135
 30
0.0
 11
258.728371
 21
681.418135
 31
0.0
  0
LINE
  5
277
330
25A
100
AcDbEntity
  8
0
  6
Continuous
 62
     0
370
     0
100
AcDbLine
 10
259.428371
 20
669.818135
 30
0.0
 11
258.728371
 21
669.818135
 31
0.0
  0
LINE
  5
278
330
25A
100
AcDbEntity
  8
0
  6
Continuous
 62
     0
370
     0
100
AcDbLine
 10
260.228371
 20
681.418135
 30
0.0
 11
260.228371
 21
682.118135
 31
0.0
  0
LINE
  5
279
330
25A
100
AcDbEntity
  8
0
  6
Continuous
 62
     0
370
    30
100
AcDbLine
 10
259.428371
 20
682.118135
 30
0.0
 11
260.228371
 21
682.118135
 31
0.0
  0
LINE
  5
27A
330
25A
100
AcDbEntity
  8
0
  6
Continuous
 62
     0
370
     0
100
AcDbLine
 10
259.428371
 20
681.418135
 30
0.0
 11
259.428371
 21
682.118135
 31
0.0
  0
LINE
  5
27B
330
25A
100
AcDbEntity
  8
0
  6
Continuous
 62
     0
370
     0
100
AcDbLine
 10
259.428371
 20
681.418135
 30
0.0
 11
260.228371
 21
681.418135
 31
0.0
  0
ARC
  5
27C
330
25A
100
AcDbEntity
  8
0
  6
Continuous
 62
     0
370
    30
100
AcDbCircle
 10
259.428371
 20
669.818135
 30
0.0
 40
0.6999999880790639
100
AcDbArc
 50
180.0
 51
270.0
  0
LINE
  5
27D
330
25A
100
AcDbEntity
  8
0
  6
Continuous
 62
     0
370
     0
100
AcDbLine
 10
260.228368
 20
669.818135
 30
0.0
 11
259.428371
 21
669.818135
 31
0.0
  0
LINE
  5
27E
330
25A
100
AcDbEntity
  8
0
  6
Continuous
 62
     0
370
     0
100
AcDbLine
 10
259.428371
 20
669.818135
 30
0.0
 11
259.428371
 21
669.118135
 31
0.0
  0
LINE
  5
27F
330
25A
100
AcDbEntity
  8
0
  6
Continuous
 62
     0
370
    30
100
AcDbLine
 10
260.228371
 20
669.118135
 30
0.0
 11
259.428371
 21
669.118135
 31
0.0
  0
LINE
  5
280
330
25A
100
AcDbEntity
  8
0
  6
Continuous
 62
     0
370
     0
100
AcDbLine
 10
260.228371
 20
669.818135
 30
0.0
 11
260.228371
 21
669.118135
 31
0.0
  0
LINE
  5
281
330
25A
100
AcDbEntity
  8
0
  6
Continuous
 62
     0
370
     0
100
AcDbLine
 10
259.428372
 20
667.118135
 30
0.0
 11
258.728372
 21
667.118135
 31
0.0
  0
LINE
  5
282
330
25A
100
AcDbEntity
  8
0
  6
Continuous
 62
     0
370
    30
100
AcDbLine
 10
258.728372
 20
667.118135
 30
0.0
 11
258.728372
 21
641.318143
 31
0.0
  0
LINE
  5
283
330
25A
100
AcDbEntity
  8
0
  6
Continuous
 62
     0
370
     0
100
AcDbLine
 10
259.428372
 20
641.318143
 30
0.0
 11
258.728372
 21
641.318143
 31
0.0
  0
LINE
  5
284
330
25A
100
AcDbEntity
  8
0
  6
Continuous
 62
     0
370
     0
100
AcDbLine
 10
259.428372
 20
667.118135
 30
0.0
 11
259.428372
 21
641.318143
 31
0.0
  0
LINE
  5
285
330
25A
100
AcDbEntity
  8
0
  6
Continuous
 62
     0
370
     0
100
AcDbLine
 10
260.228372
 20
640.618143
 30
0.0
 11
260.228372
 21
641.318143
 31
0.0
  0
LINE
  5
286
330
25A
100
AcDbEntity
  8
0
  6
Continuous
 62
     0
370
     0
100
AcDbLine
 10
260.228372
 20
641.318143
 30
0.0
 11
259.428372
 21
641.318143
 31
0.0
  0
LINE
  5
287
330
25A
100
AcDbEntity
  8
0
  6
Continuous
 62
     0
370
     0
100
AcDbLine
 10
259.428372
 20
640.618143
 30
0.0
 11
259.428372
 21
641.318143
 31
0.0
  0
LINE
  5
288
330
25A
100
AcDbEntity
  8
0
  6
Continuous
 62
     0
370
    30
100
AcDbLine
 10
260.22837
 20
640.618143
 30
0.0
 11
259.428372
 21
640.618143
 31
0.0
  0
ARC
  5
289
330
25A
100
AcDbEntity
  8
0
  6
Continuous
 62
     0
370
    30
100
AcDbCircle
 10
259.428372
 20
641.318143
 30
0.0
 40
0.6999999880790639
100
AcDbArc
 50
180.0
 51
270.0
  0
LINE
  5
28A
330
25A
100
AcDbEntity
  8
0
  6
Continuous
 62
     0
370
    30
100
AcDbLine
 10
258.728372
 20
667.118135
 30
0.0
 11
258.728372
 21
669.818135
 31
0.0
  0
LINE
  5
28B
330
25A
100
AcDbEntity
  8
0
  6
Continuous
 62
     0
370
    30
100
AcDbLine
 10
258.728372
 20
681.418135
 30
0.0
 11
258.728372
 21
684.118135
 31
0.0
  0
LINE
  5
28C
330
25A
100
AcDbEntity
  8
0
  6
Continuous
 62
     0
370
     0
100
AcDbLine
 10
260.228368
 20
684.118135
 30
0.0
 11
259.428372
 21
684.118135
 31
0.0
  0
LINE
  5
28D
330
25A
100
AcDbEntity
  8
0
  6
Continuous
 62
     0
370
     0
100
AcDbLine
 10
259.428372
 20
682.118135
 30
0.0
 11
259.428372
 21
684.118135
 31
0.0
  0
LINE
  5
28E
330
25A
100
AcDbEntity
  8
0
  6
Continuous
 62
     0
370
     0
100
AcDbLine
 10
260.228372
 20
709.918143
 30
0.0
 11
260.228372
 21
684.118135
 31
0.0
  0
LINE
  5
28F
330
25A
100
AcDbEntity
  8
0
  6
Continuous
 62
     0
370
    30
100
AcDbLine
 10
264.028408
 20
710.618143
 30
0.0
 11
260.22837
 21
710.618143
 31
0.0
  0
LINE
  5
290
330
25A
100
AcDbEntity
  8
0
  6
Continuous
 62
     0
370
     0
100
AcDbLine
 10
264.728408
 20
709.918143
 30
0.0
 11
260.228372
 21
709.918143
 31
0.0
  0
SPLINE
  5
291
330
25A
100
AcDbEntity
  8
0
  6
Continuous
 62
     0
370
     0
100
AcDbSpline
210
0.0
220
0.0
230
1.0
 70
     8
 71
     3
 72
    27
 73
    23
 74
     0
 42
0.000000001
 43
0.0
 40
0.0
 40
0.0
 40
0.0
 40
0.0
 40
1.029141359914143
 40
1.899953279841495
 40
2.770765199768846
 40
3.799906559682989
 40
4.987377359583923
 40
5.699859839524484
 40
6.49150703945844
 40
6.887330639425417
 40
7.283154239392395
 40
7.599813119365979
 40
7.916471999339561
 40
8.31229559930654
 40
8.708119199273517
 40
9.499766399207472
 40
10.21224887914803
 40
11.39971967904897
 40
12.4288610389631
 40
13.29967295889046
 40
14.17048487881781
 40
15.19962623873196
 40
15.19962623873196
 40
15.19962623873196
 40
15.19962623873196
 10
260.2283707422111
 20
681.4181353609811
 30
0.0
 10
260.4510904067149
 20
681.4181353609811
 30
0.0
 10
260.8789510568329
 20
681.3615301630143
 30
0.0
 10
261.5365566122354
 20
681.0862244964549
 30
0.0
 10
262.1990556232267
 20
680.6064688667618
 30
0.0
 10
262.8910264760062
 20
679.8148325785903
 30
0.0
 10
263.420633759197
 20
678.8213624654957
 30
0.0
 10
263.7625449205446
 20
677.8005932755457
 30
0.0
 10
263.9186626610956
 20
677.0525065043466
 30
0.0
 10
263.9942170029789
 20
676.4331330005582
 30
0.0
 10
264.0229826812413
 20
676.004895941355
 30
0.0
 10
264.0308167400007
 20
675.6181429835287
 30
0.0
 10
264.0229826812434
 20
675.2313899927215
 30
0.0
 10
263.9942170016506
 20
674.8031528123611
 30
0.0
 10
263.9186626525205
 20
674.1837789898857
 30
0.0
 10
263.7625448871121
 20
673.4356915582212
 30
0.0
 10
263.4206336300205
 20
672.4149209117452
 30
0.0
 10
262.891026108239
 20
671.421448518322
 30
0.0
 10
262.1990547269123
 20
670.6298092527077
 30
0.0
 10
261.5365550551105
 20
670.1500508912511
 30
0.0
 10
260.8789488668656
 20
669.8747427422711
 30
0.0
 10
260.4510880331453
 20
669.8181360923363
 30
0.0
 10
260.2283683686404
 20
669.8181353371351
 30
0.0
  0
SPLINE
  5
292
330
25A
100
AcDbEntity
  8
0
  6
Continuous
 62
     0
370
    30
100
AcDbSpline
210
0.0
220
0.0
230
1.0
 70
     8
 71
     3
 72
    41
 73
    37
 74
     0
 42
0.000000001
 43
0.0
 40
0.0
 40
0.0
 40
0.0
 40
0.0
 40
0.621902157625956
 40
1.243804315251913
 40
1.865706472877869
 40
2.487608630503825
 40
3.109510788129781
 40
3.731412945755738
 40
4.353315103381694
 40
4.97521726100765
 40
5.597119418633605
 40
6.219021576259562
 40
6.840923733885518
 40
7.462825891511476
 40
7.773776970324453
 40
8.084728049137432
 40
8.395679127950409
 40
8.551154667356899
 40
8.706630206763387
 40
8.862105746169878
 40
9.017581285576364
 40
9.328532364389345
 40
9.639483443202323
 40
9.9504345220153
 40
10.57233667964126
 40
11.19423883726721
 40
11.81614099489317
 40
12.43804315251912
 40
13.05994531014508
 40
13.68184746777104
 40
14.30374962539699
 40
14.92565178302295
 40
15.54755394064891
 40
16.16945609827486
 40
16.79135825590082
 40
17.41326041352677
 40
17.41326041352677
 40
17.41326041352677
 40
17.41326041352677
 10
260.2283707728091
 20
682.1181353490601
 30
0.0
 10
260.3798948500496
 20
682.1181353490601
 30
0.0
 10
260.6893289733588
 20
682.0959946772875
 30
0.0
 10
261.1660504154765
 20
681.9886048453002
 30
0.0
 10
261.6471883084835
 20
681.800978821451
 30
0.0
 10
262.1232845008489
 20
681.5295286175331
 30
0.0
 10
262.5840308850377
 20
681.1737685342257
 30
0.0
 10
263.0188916940966
 20
680.7367376625996
 30
0.0
 10
263.4178303340082
 20
680.2250983481397
 30
0.0
 10
263.7720453390259
 20
679.6488589130652
 30
0.0
 10
264.0746080398509
 20
679.0207322066758
 30
0.0
 10
264.3209052564037
 20
678.3552161200578
 30
0.0
 10
264.5088357325021
 20
677.6675262290046
 30
0.0
 10
264.6170771835481
 20
677.0883890652087
 30
0.0
 10
264.675911111256
 20
676.6282546244199
 30
0.0
 10
264.7066558875262
 20
676.2862259335789
 30
0.0
 10
264.7215911470312
 20
676.0050303611831
 30
0.0
 10
264.7274495364226
 20
675.782790242609
 30
0.0
 10
264.7288846503783
 20
675.6181429792657
 30
0.0
 10
264.7274495364226
 20
675.4534957110563
 30
0.0
 10
264.7215911470313
 20
675.2312555726176
 30
0.0
 10
264.7066558875262
 20
674.9500599495789
 30
0.0
 10
264.675911111256
 20
674.6080311544881
 30
0.0
 10
264.6170771835481
 20
674.1478965142044
 30
0.0
 10
264.5088357325021
 20
673.5687589833817
 30
0.0
 10
264.3209052564036
 20
672.8810684550908
 30
0.0
 10
264.0746080398509
 20
672.2155515333247
 30
0.0
 10
263.7720453390258
 20
671.5874238010008
 30
0.0
 10
263.4178303340082
 20
671.0111831648487
 30
0.0
 10
263.0188916940965
 20
670.4995424976617
 30
0.0
 10
262.5840308850377
 20
670.0625101515029
 30
0.0
 10
262.1232845008489
 20
669.7067485058897
 30
0.0
 10
261.6471883084835
 20
669.4352966876174
 30
0.0
 10
261.1660504154765
 20
669.2476690323185
 30
0.0
 10
260.6893289733587
 20
669.1402775838569
 30
0.0
 10
260.3798948500495
 20
669.1181358628503
 30
0.0
 10
260.2283707728091
 20
669.1181353490601
 30
0.0
  0
LINE
  5
293
330
25A
100
AcDbEntity
  8
0
  6
Continuous
 62
     0
370
     0
100
AcDbLine
 10
260.228372
 20
667.118135
 30
0.0
 11
259.428372
 21
667.118135
 31
0.0
  0
LINE
  5
294
330
25A
100
AcDbEntity
  8
0
  6
Continuous
 62
     0
370
     0
100
AcDbLine
 10
260.228372
 20
667.118135
 30
0.0
 11
260.228372
 21
641.318143
 31
0.0
  0
LINE
  5
295
330
25A
100
AcDbEntity
  8
0
  6
Continuous
 62
     0
370
     0
100
AcDbLine
 10
259.428372
 20
667.118135
 30
0.0
 11
259.428372
 21
669.118135
 31
0.0
  0
LINE
  5
296
330
25A
100
AcDbEntity
  8
0
  6
Continuous
 62
     0
370
    30
100
AcDbLine
 10
264.028408
 20
640.618143
 30
0.0
 11
260.22837
 21
640.618143
 31
0.0
  0
LINE
  5
297
330
25A
100
AcDbEntity
  8
0
  6
Continuous
 62
     0
370
     0
100
AcDbLine
 10
264.728408
 20
641.318143
 30
0.0
 11
260.228372
 21
641.318143
 31
0.0
  0
LINE
  5
298
330
25A
100
AcDbEntity
  8
0
  6
Continuous
 62
     0
370
    30
100
AcDbLine
 10
287.428398
 20
668.618143
 30
0.0
 11
266.728447
 21
668.618143
 31
0.0
  0
LINE
  5
299
330
25A
100
AcDbEntity
  8
0
  6
Continuous
 62
     0
370
    30
100
AcDbLine
 10
287.428398
 20
682.618143
 30
0.0
 11
266.728447
 21
682.618143
 31
0.0
  0
ARC
  5
29A
330
25A
100
AcDbEntity
  8
0
  6
Continuous
 62
     0
370
    30
100
AcDbCircle
 10
264.028405
 20
709.91814
 30
0.0
 40
0.7000031410595617
100
AcDbArc
 50
0.000258
 51
89.999338
  0
ARC
  5
29B
330
25A
100
AcDbEntity
  8
0
  6
Continuous
 62
     0
370
    30
100
AcDbCircle
 10
264.028405
 20
641.318146
 30
0.0
 40
0.7000031410631429
100
AcDbArc
 50
270.000662
 51
359.999742
  0
LINE
  5
29C
330
25A
100
AcDbEntity
  8
0
  6
Continuous
 62
     0
370
    30
100
AcDbLine
 10
264.728408
 20
666.618134
 30
0.0
 11
264.728408
 21
641.318143
 31
0.0
  0
LINE
  5
29D
330
25A
100
AcDbEntity
  8
0
  6
Continuous
 62
     0
370
    30
100
AcDbLine
 10
264.728408
 20
684.618152
 30
0.0
 11
264.728408
 21
709.918143
 31
0.0
  0
ARC
  5
29E
330
25A
100
AcDbEntity
  8
0
  6
Continuous
 62
     0
370
    30
100
AcDbCircle
 10
266.728599
 20
684.618238
 30
0.0
 40
2.000191596708497
100
AcDbArc
 50
180.002744
 51
269.99221
  0
ARC
  5
29F
330
25A
100
AcDbEntity
  8
0
  6
Continuous
 62
     0
370
    30
100
AcDbCircle
 10
266.728599
 20
666.618048
 30
0.0
 40
2.000191594581023
100
AcDbArc
 50
90.007791
 51
179.997257
  0
LINE
  5
2A0
330
25A
100
AcDbEntity
  8
0
  6
Continuous
 62
     0
370
    30
100
AcDbLine
 10
287.428398
 20
692.118148
 30
0.0
 11
287.428398
 21
663.638911
 31
0.0
  0
LINE
  5
2A1
330
25A
100
AcDbEntity
  8
0
  6
Continuous
 62
     0
370
    30
100
AcDbLine
 10
287.428398
 20
663.638911
 30
0.0
 11
287.428398
 21
659.118148
 31
0.0
  0
LINE
  5
2A2
330
25A
100
AcDbEntity
  8
0
  6
Continuous
 62
     0
370
    30
100
AcDbLine
 10
307.428398
 20
692.118148
 30
0.0
 11
287.428398
 21
692.118148
 31
0.0
  0
LINE
  5
2A3
330
25A
100
AcDbEntity
  8
0
  6
Continuous
 62
     0
370
    30
100
AcDbLine
 10
307.428398
 20
659.118148
 30
0.0
 11
287.428398
 21
659.118148
 31
0.0
  0
LINE
  5
2A4
330
25A
100
AcDbEntity
  8
0
  6
Continuous
 62
     0
370
    30
100
AcDbLine
 10
250.428398
 20
524.11735
 30
0.0
 11
250.928398
 21
523.61735
 31
0.0
  0
LINE
  5
2A5
330
25A
100
AcDbEntity
  8
0
  6
Continuous
 62
     0
370
    30
100
AcDbLine
 10
250.428398
 20
524.11735
 30
0.0
 11
250.428398
 21
567.11735
 31
0.0
  0
LINE
  5
2A6
330
25A
100
AcDbEntity
  8
0
  6
Continuous
 62
     0
370
    30
100
AcDbLine
 10
250.928398
 20
523.61735
 30
0.0
 11
250.928398
 21
567.61735
 31
0.0
  0
LINE
  5
2A7
330
25A
100
AcDbEntity
  8
0
  6
Continuous
 62
     0
370
    30
100
AcDbLine
 10
300.428398
 20
523.61735
 30
0.0
 11
300.428398
 21
567.61735
 31
0.0
  0
LINE
  5
2A8
330
25A
100
AcDbEntity
  8
0
  6
Continuous
 62
     0
370
    30
100
AcDbLine
 10
250.928398
 20
523.61735
 30
0.0
 11
300.428398
 21
523.61735
 31
0.0
  0
LINE
  5
2A9
330
25A
100
AcDbEntity
  8
0
  6
Continuous
 62
     0
370
    30
100
AcDbLine
 10
250.428439
 20
567.11739
 30
0.0
 11
250.928398
 21
567.61735
 31
0.0
  0
LINE
  5
2AA
330
25A
100
AcDbEntity
  8
0
  6
Continuous
 62
     0
370
    30
100
AcDbLine
 10
263.378398
 20
567.61735
 30
0.0
 11
300.428398
 21
567.61735
 31
0.0
  0
LINE
  5
2AB
330
25A
100
AcDbEntity
  8
0
  6
Continuous
 62
     0
370
    30
100
AcDbLine
 10
250.928398
 20
567.61735
 30
0.0
 11
255.478398
 21
567.61735
 31
0.0
  0
LINE
  5
2AC
330
25A
100
AcDbEntity
  8
0
  6
Continuous
 62
     0
370
    30
100
AcDbLine
 10
255.978398
 20
575.447349
 30
0.0
 11
255.478398
 21
574.947349
 31
0.0
  0
LINE
  5
2AD
330
25A
100
AcDbEntity
  8
0
  6
Continuous
 62
     0
370
    30
100
AcDbLine
 10
255.978398
 20
575.447349
 30
0.0
 11
262.878398
 21
575.447349
 31
0.0
  0
LINE
  5
2AE
330
25A
100
AcDbEntity
  8
0
  6
Continuous
 62
     0
370
    30
100
AcDbLine
 10
263.378398
 20
574.947349
 30
0.0
 11
255.478398
 21
574.947349
 31
0.0
  0
LINE
  5
2AF
330
25A
100
AcDbEntity
  8
0
  6
Continuous
 62
     0
370
    30
100
AcDbLine
 10
255.478398
 20
574.947349
 30
0.0
 11
255.478398
 21
567.61735
 31
0.0
  0
LINE
  5
2B0
330
25A
100
AcDbEntity
  8
0
  6
Continuous
 62
     0
370
    30
100
AcDbLine
 10
263.378398
 20
574.947349
 30
0.0
 11
263.378398
 21
567.61735
 31
0.0
  0
LINE
  5
2B1
330
25A
100
AcDbEntity
  8
0
  6
Continuous
 62
     0
370
    30
100
AcDbLine
 10
262.878545
 20
575.447202
 30
0.0
 11
263.378397
 21
574.94735
 31
0.0
  0
LINE
  5
2B2
330
25A
100
AcDbEntity
  8
0
  6
Continuous
 62
     0
370
    30
100
AcDbLine
 10
304.013823
 20
564.61735
 30
0.0
 11
300.428398
 21
564.61735
 31
0.0
  0
LINE
  5
2B3
330
25A
100
AcDbEntity
  8
0
  6
Continuous
 62
     0
370
    30
100
AcDbLine
 10
304.013823
 20
526.61735
 30
0.0
 11
300.428398
 21
526.61735
 31
0.0
  0
LINE
  5
2B4
330
25A
100
AcDbEntity
  8
0
  6
Continuous
 62
     0
370
    30
100
AcDbLine
 10
307.428398
 20
705.618148
 30
0.0
 11
307.428398
 21
696.248534
 31
0.0
  0
LINE
  5
2B5
330
25A
100
AcDbEntity
  8
0
  6
Continuous
 62
     0
370
    30
100
AcDbLine
 10
307.428398
 20
696.248534
 30
0.0
 11
307.428398
 21
645.618148
 31
0.0
  0
LINE
  5
2B6
330
25A
100
AcDbEntity
  8
0
  6
Continuous
 62
     0
370
    30
100
AcDbLine
 10
314.428398
 20
705.618148
 30
0.0
 11
314.428398
 21
696.248534
 31
0.0
  0
LINE
  5
2B7
330
25A
100
AcDbEntity
  8
0
  6
Continuous
 62
     0
370
    30
100
AcDbLine
 10
314.428398
 20
696.248534
 30
0.0
 11
314.428398
 21
645.618148
 31
0.0
  0
LINE
  5
2B8
330
25A
100
AcDbEntity
  8
0
  6
Continuous
 62
     0
370
    30
100
AcDbLine
 10
307.428398
 20
645.618148
 30
0.0
 11
314.428398
 21
645.618148
 31
0.0
  0
LINE
  5
2B9
330
25A
100
AcDbEntity
  8
0
  6
Continuous
 62
     0
370
    30
100
AcDbLine
 10
307.428398
 20
705.618148
 30
0.0
 11
314.428398
 21
705.618148
 31
0.0
  0
LINE
  5
2BA
330
25A
100
AcDbEntity
  8
0
  6
Continuous
 62
     0
370
     0
100
AcDbLine
 10
305.413302
 20
480.61735
 30
0.0
 11
305.413302
 21
545.122856
 31
0.0
  0
LINE
  5
2BB
330
25A
100
AcDbEntity
  8
0
  6
Continuous
 62
     0
370
     0
100
AcDbLine
 10
305.413302
 20
545.122856
 30
0.0
 11
305.413302
 21
610.61735
 31
0.0
  0
LINE
  5
2BC
330
25A
100
AcDbEntity
  8
0
  6
Continuous
 62
     0
370
     0
100
AcDbLine
 10
304.913535
 20
610.132616
 30
0.0
 11
304.913535
 21
545.126544
 31
0.0
  0
LINE
  5
2BD
330
25A
100
AcDbEntity
  8
0
  6
Continuous
 62
     0
370
     0
100
AcDbLine
 10
304.913535
 20
545.126544
 30
0.0
 11
304.913535
 21
481.102083
 31
0.0
  0
LINE
  5
2BE
330
25A
100
AcDbEntity
  8
0
  6
Continuous
 62
     0
370
    30
100
AcDbLine
 10
314.428398
 20
480.61735
 30
0.0
 11
314.428398
 21
545.122856
 31
0.0
  0
LINE
  5
2BF
330
25A
100
AcDbEntity
  8
0
  6
Continuous
 62
     0
370
    30
100
AcDbLine
 10
314.428398
 20
545.122856
 30
0.0
 11
314.428398
 21
610.61735
 31
0.0
  0
LINE
  5
2C0
330
25A
100
AcDbEntity
  8
0
  6
Continuous
 62
     0
370
    30
100
AcDbLine
 10
314.428398
 20
610.61735
 30
0.0
 11
305.413302
 21
610.61735
 31
0.0
  0
LINE
  5
2C1
330
25A
100
AcDbEntity
  8
0
  6
Continuous
 62
     0
370
    30
100
AcDbLine
 10
314.428398
 20
480.61735
 30
0.0
 11
305.413302
 21
480.61735
 31
0.0
  0
ARC
  5
2C2
330
25A
100
AcDbEntity
  8
0
  6
Continuous
 62
     0
370
    30
100
AcDbCircle
 10
2416.940958
 20
545.617105
 30
0.0
 40
2113.012562314653
100
AcDbArc
 50
178.250344
 51
179.484788
  0
ARC
  5
2C3
330
25A
100
AcDbEntity
  8
0
  6
Continuous
 62
     0
370
    30
100
AcDbCircle
 10
2416.940958
 20
545.617594
 30
0.0
 40
2113.01256231467
100
AcDbArc
 50
180.515212
 51
181.749656
  0
ARC
  5
2C4
330
25A
100
AcDbEntity
  8
0
  6
Continuous
 62
     0
370
    30
100
AcDbCircle
 10
305.413384
 20
610.117265
 30
0.0
 40
0.500084423360333
100
AcDbArc
 50
90.009378
 51
178.240965
  0
ARC
  5
2C5
330
25A
100
AcDbEntity
  8
0
  6
Continuous
 62
     0
370
    30
100
AcDbCircle
 10
305.413384
 20
481.117434
 30
0.0
 40
0.5000844233603272
100
AcDbArc
 50
181.759035
 51
269.990622
  0
LINE
  5
2C6
330
25A
100
AcDbEntity
  8
0
  6
Continuous
 62
     0
370
    30
100
AcDbLine
 10
304.013823
 20
564.61735
 30
0.0
 11
304.013823
 21
526.61735
 31
0.0
  0
ENDBLK
  5
2C8
330
25A
100
AcDbEntity
  8
0
100
AcDbBlockEnd
  0
ENDSEC
  0
SECTION
  2
ENTITIES
  0
INSERT
  5
D5
330
1F
100
AcDbEntity
  8
0
  6
Continuous
 62
     7
370
     0
100
AcDbBlockReference
  2
a
 10
843.115417
 20
361.123352
 30
0.0
  0
INSERT
  5
143
330
1F
100
AcDbEntity
  8
0
  6
Continuous
 62
     7
370
     0
100
AcDbBlockReference
  2
b
 10
843.11554
 20
619.213396
 30
0.0
  0
INSERT
  5
1AF
330
1F
100
AcDbEntity
  8
0
  6
Continuous
 62
     7
370
     0
100
AcDbBlockReference
  2
c
 10
1048.730896
 20
361.123352
 30
0.0
  0
INSERT
  5
259
330
1F
100
AcDbEntity
  8
0
  6
Continuous
 62
     7
370
     0
100
AcDbBlockReference
  2
d
 10
506.776304
 20
1532.409768
 30
0.0
  0
INSERT
  5
2C9
330
1F
100
AcDbEntity
  8
0
  6
Continuous
 62
     7
370
     0
100
AcDbBlockReference
  2
e
 10
746.510677
 20
-5.673376
 30
0.0
  0
ENDSEC
  0
SECTION
  2
OBJECTS
  0
DICTIONARY
  5
C
330
0
100
AcDbDictionary
281
     1
  3
ACAD_GROUP
350
D
  3
ACAD_LAYOUT
350
1A
  3
ACAD_MATERIAL
350
43
  3
ACAD_MLEADERSTYLE
350
6B
  3
ACAD_MLINESTYLE
350
17
  3
ACAD_PLOTSETTINGS
350
19
  3
ACAD_PLOTSTYLENAME
350
E
  3
ACAD_SCALELIST
350
47
  3
ACAD_TABLESTYLE
350
69
  3
ACAD_VISUALSTYLE
350
2A
  3
AcDbVariableDictionary
350
2CA
  0
DICTIONARY
  5
2D5
330
8
100
AcDbDictionary
280
     1
281
     1
  3
ACAD_XREC_ROUNDTRIP
360
2D6
  0
DICTIONARY
  5
D
102
{ACAD_REACTORS
330
C
102
}
330
C
100
AcDbDictionary
281
     1
  0
DICTIONARY
  5
1A
102
{ACAD_REACTORS
330
C
102
}
330
C
100
AcDbDictionary
281
     1
  3
Layout1
350
1E
  3
Layout2
350
26
  3
Model
350
22
  0
DICTIONARY
  5
43
102
{ACAD_REACTORS
330
C
102
}
330
C
100
AcDbDictionary
281
     1
  3
ByBlock
350
45
  3
ByLayer
350
44
  3
Global
350
46
  0
DICTIONARY
  5
6B
102
{ACAD_REACTORS
330
C
102
}
330
C
100
AcDbDictionary
281
     1
  3
Standard
350
6C
  0
DICTIONARY
  5
17
102
{ACAD_REACTORS
330
C
102
}
330
C
100
AcDbDictionary
281
     1
  3
Standard
350
18
  0
DICTIONARY
  5
19
102
{ACAD_REACTORS
330
C
102
}
330
C
100
AcDbDictionary
281
     1
  0
ACDBDICTIONARYWDFLT
  5
E
102
{ACAD_REACTORS
330
C
102
}
330
C
100
AcDbDictionary
281
     1
  3
Normal
350
F
100
AcDbDictionaryWithDefault
340
F
  0
DICTIONARY
  5
47
102
{ACAD_REACTORS
330
C
102
}
330
C
100
AcDbDictionary
281
     1
  3
A0
350
48
  3
A1
350
49
  3
A2
350
4A
  3
A3
350
4B
  3
A4
350
4C
  3
A5
350
4D
  3
A6
350
4E
  3
A7
350
4F
  3
A8
350
50
  3
A9
350
51
  3
B0
350
52
  3
B1
350
53
  3
B2
350
54
  3
B3
350
55
  3
B4
350
56
  3
B5
350
57
  3
B6
350
58
  3
B7
350
59
  3
B8
350
5A
  3
B9
350
5B
  3
C0
350
5C
  3
C1
350
5D
  3
C2
350
5E
  3
C3
350
5F
  3
C4
350
60
  3
C5
350
61
  3
C6
350
62
  3
C7
350
63
  3
C8
350
64
  3
C9
350
65
  3
D0
350
66
  3
D1
350
67
  3
D2
350
68
  0
DICTIONARY
  5
69
102
{ACAD_REACTORS
330
C
102
}
330
C
100
AcDbDictionary
281
     1
  3
Standard
350
6A
  0
DICTIONARY
  5
2A
102
{ACAD_REACTORS
330
C
102
}
330
C
100
AcDbDictionary
281
     1
  3
2dWireframe
350
2F
  3
Basic
350
32
  3
Brighten
350
36
  3
ColorChange
350
3A
  3
Conceptual
350
34
  3
Dim
350
35
  3
EdgeColorOff
350
3D
  3
Facepattern
350
39
  3
Flat
350
2B
  3
FlatWithEdges
350
2C
  3
Gouraud
350
2D
  3
GouraudWithEdges
350
2E
  3
Hidden
350
31
  3
JitterOff
350
3B
  3
Linepattern
350
38
  3
OverhangOff
350
3C
  3
Realistic
350
33
  3
Shaded
350
42
  3
Shaded with edges
350
41
  3
Shades of Gray
350
3E
  3
Sketchy
350
3F
  3
Thicken
350
37
  3
Wireframe
350
30
  3
X-Ray
350
40
  0
DICTIONARY
  5
2CA
102
{ACAD_REACTORS
330
C
102
}
330
C
100
AcDbDictionary
281
     1
  3
CANNOSCALE
350
2D7
  3
CENTEREXE
350
2D1
  3
CENTERLTYPEFILE
350
2D2
  3
CMLEADERSTYLE
350
2CC
  3
CTABLESTYLE
350
2CB
  3
DIMASSOC
350
2D3
  3
HIDETEXT
350
2D4
  3
MSLTSCALE
350
2D8
  3
PSOLHEIGHT
350
2CE
  3
PSOLWIDTH
350
2CD
  0
XRECORD
  5
2D6
102
{ACAD_REACTORS
330
2D5
102
}
330
2D5
100
AcDbXrecord
280
     1
102
VTR_0.000_0.000_1.000_1.000_VISUALSTYLE
340
2F
102
VTR_0.000_0.000_1.000_1.000_GRIDDISPLAY
 70
     3
102
VTR_0.000_0.000_1.000_1.000_GRIDMAJOR
 70
     5
102
VTR_0.000_0.000_1.000_1.000_DEFAULTLIGHTING
280
     1
102
VTR_0.000_0.000_1.000_1.000_DEFAULTLIGHTINGTYPE
 70
     1
102
VTR_0.000_0.000_1.000_1.000_BRIGHTNESS
141
0.0
102
VTR_0.000_0.000_1.000_1.000_CONTRAST
142
0.0
  0
LAYOUT
  5
1E
102
{ACAD_REACTORS
330
1A
102
}
330
1A
100
AcDbPlotSettings
  1

  2
none_device
  4

  6

 40
0.0
 41
0.0
 42
0.0
 43
0.0
 44
0.0
 45
0.0
 46
0.0
 47
0.0
 48
0.0
 49
0.0
140
0.0
141
0.0
142
1.0
143
1.0
 70
   688
 72
     1
 73
     0
 74
     5
  7

 75
    16
147
1.0
148
0.0
149
0.0
100
AcDbLayout
  1
Layout1
 70
     1
 71
     1
 10
0.0
 20
0.0
 11
420.0
 21
297.0
 12
0.0
 22
0.0
 32
0.0
 14
1.000000E+20
 24
1.000000E+20
 34
1.000000E+20
 15
-1.000000E+20
 25
-1.000000E+20
 35
-1.000000E+20
146
0.0
 13
0.0
 23
0.0
 33
0.0
 16
1.0
 26
0.0
 36
0.0
 17
0.0
 27
1.0
 37
0.0
 76
     0
330
1B
  0
LAYOUT
  5
26
102
{ACAD_REACTORS
330
1A
102
}
330
1A
100
AcDbPlotSettings
  1

  2
none_device
  4

  6

 40
0.0
 41
0.0
 42
0.0
 43
0.0
 44
0.0
 45
0.0
 46
0.0
 47
0.0
 48
0.0
 49
0.0
140
0.0
141
0.0
142
1.0
143
1.0
 70
   688
 72
     1
 73
     0
 74
     5
  7

 75
    16
147
1.0
148
0.0
149
0.0
100
AcDbLayout
  1
Layout2
 70
     1
 71
     2
 10
0.0
 20
0.0
 11
0.0
 21
0.0
 12
0.0
 22
0.0
 32
0.0
 14
0.0
 24
0.0
 34
0.0
 15
0.0
 25
0.0
 35
0.0
146
0.0
 13
0.0
 23
0.0
 33
0.0
 16
1.0
 26
0.0
 36
0.0
 17
0.0
 27
1.0
 37
0.0
 76
     0
330
23
  0
LAYOUT
  5
22
102
{ACAD_REACTORS
330
1A
102
}
330
1A
100
AcDbPlotSettings
  1

  2
none_device
  4
Letter_(8.50_x_11.00_Inches)
  6

 40
6.35
 41
6.35
 42
6.350005
 43
6.350005
 44
215.9
 45
279.4
 46
0.0
 47
0.0
 48
0.0
 49
0.0
140
0.0
141
0.0
142
1.0
143
1.0
 70
  1712
 72
     1
 73
     0
 74
     0
  7

 75
     0
147
1.0
148
0.0
149
0.0
100
AcDbLayout
  1
Model
 70
     1
 71
     0
 10
0.0
 20
0.0
 11
796.463745
 21
1008.301697
 12
0.0
 22
0.0
 32
0.0
 14
0.0
 24
0.0
 34
0.0
 15
796.463745
 25
1008.301697
 35
0.0
146
0.0
 13
0.0
 23
0.0
 33
0.0
 16
1.0
 26
0.0
 36
0.0
 17
0.0
 27
1.0
 37
0.0
 76
     0
330
1F
331
29
  0
MATERIAL
  5
45
102
{ACAD_REACTORS
330
43
102
}
102
{ACAD_XDICTIONARY
360
30B
102
}
330
43
100
AcDbMaterial
  1
ByBlock
  0
MATERIAL
  5
44
102
{ACAD_REACTORS
330
43
102
}
102
{ACAD_XDICTIONARY
360
309
102
}
330
43
100
AcDbMaterial
  1
ByLayer
  0
MATERIAL
  5
46
102
{ACAD_REACTORS
330
43
102
}
102
{ACAD_XDICTIONARY
360
30D
102
}
330
43
100
AcDbMaterial
  1
Global
  0
MLEADERSTYLE
  5
6C
102
{ACAD_REACTORS
330
6B
102
}
102
{ACAD_XDICTIONARY
360
310
102
}
330
6B
100
AcDbMLeaderStyle
170
     2
171
     1
172
     0
 90
        2
 40
0.0
 41
0.0
173
     1
 91
-1056964608
340
14
 92
       -2
290
     1
 42
2.0
291
     1
 43
8.0
  3
Standard
341
0
 44
4.0
300

342
11
174
     1
178
     6
175
     1
176
     0
 93
-1056964608
 45
4.0
292
     0
297
     0
 46
4.0
343
0
 94
-1056964608
 47
1.0
 49
1.0
140
1.0
293
     1
141
0.0
294
     1
177
     0
142
1.0
295
     0
296
     0
143
3.75
1001
ACAD_MLEADERVER
1070
     2
  0
MLINESTYLE
  5
18
102
{ACAD_REACTORS
330
17
102
}
330
17
100
AcDbMlineStyle
  2
Standard
 70
     0
  3

 62
   256
 51
90.0
 52
90.0
 71
     2
 49
0.5
 62
   256
  6
BYLAYER
 49
-0.5
 62
   256
  6
BYLAYER
  0
ACDBPLACEHOLDER
  5
F
102
{ACAD_REACTORS
330
E
102
}
330
E
  0
SCALE
  5
48
102
{ACAD_REACTORS
330
47
102
}
330
47
100
AcDbScale
 70
     0
300
1:1
140
1.0
141
1.0
290
     1
  0
SCALE
  5
49
102
{ACAD_REACTORS
330
47
102
}
330
47
100
AcDbScale
 70
     0
300
1:2
140
1.0
141
2.0
290
     0
  0
SCALE
  5
4A
102
{ACAD_REACTORS
330
47
102
}
330
47
100
AcDbScale
 70
     0
300
1:4
140
1.0
141
4.0
290
     0
  0
SCALE
  5
4B
102
{ACAD_REACTORS
330
47
102
}
330
47
100
AcDbScale
 70
     0
300
1:5
140
1.0
141
5.0
290
     0
  0
SCALE
  5
4C
102
{ACAD_REACTORS
330
47
102
}
330
47
100
AcDbScale
 70
     0
300
1:8
140
1.0
141
8.0
290
     0
  0
SCALE
  5
4D
102
{ACAD_REACTORS
330
47
102
}
330
47
100
AcDbScale
 70
     0
300
1:10
140
1.0
141
10.0
290
     0
  0
SCALE
  5
4E
102
{ACAD_REACTORS
330
47
102
}
330
47
100
AcDbScale
 70
     0
300
1:16
140
1.0
141
16.0
290
     0
  0
SCALE
  5
4F
102
{ACAD_REACTORS
330
47
102
}
330
47
100
AcDbScale
 70
     0
300
1:20
140
1.0
141
20.0
290
     0
  0
SCALE
  5
50
102
{ACAD_REACTORS
330
47
102
}
330
47
100
AcDbScale
 70
     0
300
1:30
140
1.0
141
30.0
290
     0
  0
SCALE
  5
51
102
{ACAD_REACTORS
330
47
102
}
330
47
100
AcDbScale
 70
     0
300
1:40
140
1.0
141
40.0
290
     0
  0
SCALE
  5
52
102
{ACAD_REACTORS
330
47
102
}
330
47
100
AcDbScale
 70
     0
300
1:50
140
1.0
141
50.0
290
     0
  0
SCALE
  5
53
102
{ACAD_REACTORS
330
47
102
}
330
47
100
AcDbScale
 70
     0
300
1:100
140
1.0
141
100.0
290
     0
  0
SCALE
  5
54
102
{ACAD_REACTORS
330
47
102
}
330
47
100
AcDbScale
 70
     0
300
2:1
140
2.0
141
1.0
290
     0
  0
SCALE
  5
55
102
{ACAD_REACTORS
330
47
102
}
330
47
100
AcDbScale
 70
     0
300
4:1
140
4.0
141
1.0
290
     0
  0
SCALE
  5
56
102
{ACAD_REACTORS
330
47
102
}
330
47
100
AcDbScale
 70
     0
300
8:1
140
8.0
141
1.0
290
     0
  0
SCALE
  5
57
102
{ACAD_REACTORS
330
47
102
}
330
47
100
AcDbScale
 70
     0
300
10:1
140
10.0
141
1.0
290
     0
  0
SCALE
  5
58
102
{ACAD_REACTORS
330
47
102
}
330
47
100
AcDbScale
 70
     0
300
100:1
140
100.0
141
1.0
290
     0
  0
SCALE
  5
59
102
{ACAD_REACTORS
330
47
102
}
330
47
100
AcDbScale
 70
     0
300
1/128" = 1'-0"
140
0.007812
141
12.0
290
     0
  0
SCALE
  5
5A
102
{ACAD_REACTORS
330
47
102
}
330
47
100
AcDbScale
 70
     0
300
1/64" = 1'-0"
140
0.015625
141
12.0
290
     0
  0
SCALE
  5
5B
102
{ACAD_REACTORS
330
47
102
}
330
47
100
AcDbScale
 70
     0
300
1/32" = 1'-0"
140
0.03125
141
12.0
290
     0
  0
SCALE
  5
5C
102
{ACAD_REACTORS
330
47
102
}
330
47
100
AcDbScale
 70
     0
300
1/16" = 1'-0"
140
0.0625
141
12.0
290
     0
  0
SCALE
  5
5D
102
{ACAD_REACTORS
330
47
102
}
330
47
100
AcDbScale
 70
     0
300
3/32" = 1'-0"
140
0.09375
141
12.0
290
     0
  0
SCALE
  5
5E
102
{ACAD_REACTORS
330
47
102
}
330
47
100
AcDbScale
 70
     0
300
1/8" = 1'-0"
140
0.125
141
12.0
290
     0
  0
SCALE
  5
5F
102
{ACAD_REACTORS
330
47
102
}
330
47
100
AcDbScale
 70
     0
300
3/16" = 1'-0"
140
0.1875
141
12.0
290
     0
  0
SCALE
  5
60
102
{ACAD_REACTORS
330
47
102
}
330
47
100
AcDbScale
 70
     0
300
1/4" = 1'-0"
140
0.25
141
12.0
290
     0
  0
SCALE
  5
61
102
{ACAD_REACTORS
330
47
102
}
330
47
100
AcDbScale
 70
     0
300
3/8" = 1'-0"
140
0.375
141
12.0
290
     0
  0
SCALE
  5
62
102
{ACAD_REACTORS
330
47
102
}
330
47
100
AcDbScale
 70
     0
300
1/2" = 1'-0"
140
0.5
141
12.0
290
     0
  0
SCALE
  5
63
102
{ACAD_REACTORS
330
47
102
}
330
47
100
AcDbScale
 70
     0
300
3/4" = 1'-0"
140
0.75
141
12.0
290
     0
  0
SCALE
  5
64
102
{ACAD_REACTORS
330
47
102
}
330
47
100
AcDbScale
 70
     0
300
1" = 1'-0"
140
1.0
141
12.0
290
     0
  0
SCALE
  5
65
102
{ACAD_REACTORS
330
47
102
}
330
47
100
AcDbScale
 70
     0
300
1-1/2" = 1'-0"
140
1.5
141
12.0
290
     0
  0
SCALE
  5
66
102
{ACAD_REACTORS
330
47
102
}
330
47
100
AcDbScale
 70
     0
300
3" = 1'-0"
140
3.0
141
12.0
290
     0
  0
SCALE
  5
67
102
{ACAD_REACTORS
330
47
102
}
330
47
100
AcDbScale
 70
     0
300
6" = 1'-0"
140
6.0
141
12.0
290
     0
  0
SCALE
  5
68
102
{ACAD_REACTORS
330
47
102
}
330
47
100
AcDbScale
 70
     0
300
1'-0" = 1'-0"
140
12.0
141
12.0
290
     0
  0
TABLESTYLE
  5
6A
102
{ACAD_REACTORS
330
69
102
}
330
69
100
AcDbTableStyle
  3
Standard
 70
     0
 71
     0
 40
1.5
 41
1.5
280
     0
281
     0
  7
Standard
140
4.5
170
     2
 62
     0
 63
   257
283
     0
274
    -2
284
     1
 64
     0
275
    -2
285
     1
 65
     0
276
    -2
286
     1
 66
     0
277
    -2
287
     1
 67
     0
278
    -2
288
     1
 68
     0
279
    -2
289
     1
 69
     0
  7
Standard
140
6.0
170
     5
 62
     0
 63
   257
283
     0
274
    -2
284
     1
 64
     0
275
    -2
285
     1
 65
     0
276
    -2
286
     1
 66
     0
277
    -2
287
     1
 67
     0
278
    -2
288
     1
 68
     0
279
    -2
289
     1
 69
     0
  7
Standard
140
4.5
170
     5
 62
     0
 63
   257
283
     0
274
    -2
284
     1
 64
     0
275
    -2
285
     1
 65
     0
276
    -2
286
     1
 66
     0
277
    -2
287
     1
 67
     0
278
    -2
288
     1
 68
     0
279
    -2
289
     1
 69
     0
  0
VISUALSTYLE
  5
2F
102
{ACAD_REACTORS
330
2A
102
}
102
{ACAD_XDICTIONARY
360
2E1
102
}
330
2A
100
AcDbVisualStyle
  2
2dWireframe
 70
     4
 71
     0
 72
     2
 73
     0
 90
        0
 40
0.6
 41
30.0
 62
     5
 63
     7
 74
     1
 91
        4
 64
     7
 65
   257
 75
     1
175
     1
 42
1.0
 92
        0
 66
   257
 43
1.0
 76
     1
 77
     6
 78
     2
 67
     7
 79
     5
170
     0
171
     0
290
     0
174
     0
 93
        1
 44
0.0
173
     0
291
     0
 45
0.0
1001
ACAD
1000
AcDbSavedByObjectVersion
1070
     0
  0
VISUALSTYLE
  5
32
102
{ACAD_REACTORS
330
2A
102
}
102
{ACAD_XDICTIONARY
360
2E7
102
}
330
2A
100
AcDbVisualStyle
  2
Basic
 70
     7
 71
     1
 72
     0
 73
     1
 90
        0
 40
0.6
 41
30.0
 62
     5
 63
     7
 74
     0
 91
        4
 64
     7
 65
   257
 75
     1
175
     1
 42
1.0
 92
        8
 66
     7
 43
1.0
 76
     1
 77
     6
 78
     2
 67
     7
 79
     5
170
     0
171
     0
290
     0
174
     0
 93
        1
 44
0.0
173
     0
291
     1
 45
0.0
1001
ACAD
1000
AcDbSavedByObjectVersion
1070
     0
  0
VISUALSTYLE
  5
36
102
{ACAD_REACTORS
330
2A
102
}
102
{ACAD_XDICTIONARY
360
2EF
102
}
330
2A
100
AcDbVisualStyle
  2
Brighten
 70
    12
 71
     2
 72
     2
 73
     0
 90
        0
 40
0.6
 41
30.0
 62
     5
 63
     7
 74
     1
 91
        4
 64
     7
 65
   257
 75
     1
175
     1
 42
1.0
 92
        8
 66
     7
 43
1.0
 76
     1
 77
     6
 78
     2
 67
     7
 79
     5
170
     0
171
     0
290
     0
174
     0
 93
        1
 44
50.0
173
     0
291
     1
 45
0.0
1001
ACAD
1000
AcDbSavedByObjectVersion
1070
     0
  0
VISUALSTYLE
  5
3A
102
{ACAD_REACTORS
330
2A
102
}
102
{ACAD_XDICTIONARY
360
2F7
102
}
330
2A
100
AcDbVisualStyle
  2
ColorChange
 70
    16
 71
     2
 72
     2
 73
     3
 90
        0
 40
0.6
 41
30.0
 62
     5
 63
     8
 74
     1
 91
        4
 64
     7
 65
   257
 75
     1
175
     1
 42
1.0
 92
        8
 66
     8
 43
1.0
 76
     1
 77
     6
 78
     2
 67
     7
 79
     5
170
     0
171
     0
290
     0
174
     0
 93
        1
 44
0.0
173
     0
291
     1
 45
0.0
1001
ACAD
1000
AcDbSavedByObjectVersion
1070
     0
  0
VISUALSTYLE
  5
34
102
{ACAD_REACTORS
330
2A
102
}
102
{ACAD_XDICTIONARY
360
2EB
102
}
330
2A
100
AcDbVisualStyle
  2
Conceptual
 70
     9
 71
     3
 72
     2
 73
     0
 90
        0
 40
0.6
 41
30.0
 62
     5
 63
     7
 74
     2
 91
        2
 64
     7
 65
   257
 75
     1
175
     1
 42
179.0
 92
        8
 66
     7
 43
1.0
 76
     1
 77
     6
 78
     2
 67
     7
 79
     3
170
     0
171
     0
290
     0
174
     0
 93
        1
 44
0.0
173
     0
291
     0
 45
0.0
1001
ACAD
1000
AcDbSavedByObjectVersion
1070
     0
  0
VISUALSTYLE
  5
35
102
{ACAD_REACTORS
330
2A
102
}
102
{ACAD_XDICTIONARY
360
2ED
102
}
330
2A
100
AcDbVisualStyle
  2
Dim
 70
    11
 71
     2
 72
     2
 73
     0
 90
        0
 40
0.6
 41
30.0
 62
     5
 63
     7
 74
     1
 91
        4
 64
     7
 65
   257
 75
     1
175
     1
 42
1.0
 92
        8
 66
     7
 43
1.0
 76
     1
 77
     6
 78
     2
 67
     7
 79
     5
170
     0
171
     0
290
     0
174
     0
 93
        1
 44
-50.0
173
     0
291
     1
 45
0.0
1001
ACAD
1000
AcDbSavedByObjectVersion
1070
     0
  0
VISUALSTYLE
  5
3D
102
{ACAD_REACTORS
330
2A
102
}
102
{ACAD_XDICTIONARY
360
2FD
102
}
330
2A
100
AcDbVisualStyle
  2
EdgeColorOff
 70
    22
 71
     2
 72
     2
 73
     0
 90
        0
 40
0.6
 41
30.0
 62
     5
 63
     7
 74
     1
 91
        4
 64
     7
 65
   257
 75
     1
175
     1
 42
1.0
 92
        8
 66
     7
 43
1.0
 76
     1
 77
     6
 78
     2
 67
     7
 79
     5
170
     0
171
     0
290
     0
174
     0
 93
        1
 44
0.0
173
     0
291
     1
 45
0.0
1001
ACAD
1000
AcDbSavedByObjectVersion
1070
     0
  0
VISUALSTYLE
  5
39
102
{ACAD_REACTORS
330
2A
102
}
102
{ACAD_XDICTIONARY
360
2F5
102
}
330
2A
100
AcDbVisualStyle
  2
Facepattern
 70
    15
 71
     2
 72
     2
 73
     0
 90
        0
 40
0.6
 41
30.0
 62
     5
 63
     7
 74
     1
 91
        4
 64
     7
 65
   257
 75
     1
175
     1
 42
1.0
 92
        8
 66
     7
 43
1.0
 76
     1
 77
     6
 78
     2
 67
     7
 79
     5
170
     0
171
     0
290
     0
174
     0
 93
        1
 44
0.0
173
     0
291
     1
 45
0.0
1001
ACAD
1000
AcDbSavedByObjectVersion
1070
     0
  0
VISUALSTYLE
  5
2B
102
{ACAD_REACTORS
330
2A
102
}
102
{ACAD_XDICTIONARY
360
2D9
102
}
330
2A
100
AcDbVisualStyle
  2
Flat
 70
     0
 71
     2
 72
     1
 73
     1
 90
        2
 40
0.6
 41
30.0
 62
     5
 63
     7
 74
     0
 91
        0
 64
     7
 65
   257
 75
     1
175
     1
 42
1.0
 92
        8
 66
     7
 43
1.0
 76
     1
 77
     6
 78
     2
 67
     7
 79
     5
170
     0
171
     0
290
     0
174
     0
 93
       13
 44
0.0
173
     0
291
     1
 45
0.0
1001
ACAD
1000
AcDbSavedByObjectVersion
1070
     0
  0
VISUALSTYLE
  5
2C
102
{ACAD_REACTORS
330
2A
102
}
102
{ACAD_XDICTIONARY
360
2DB
102
}
330
2A
100
AcDbVisualStyle
  2
FlatWithEdges
 70
     1
 71
     2
 72
     1
 73
     1
 90
        2
 40
0.6
 41
30.0
 62
     5
 63
     7
 74
     1
 91
        0
 64
     7
 65
   257
 75
     1
175
     1
 42
1.0
 92
        0
 66
   257
 43
1.0
 76
     1
 77
     6
 78
     2
 67
     7
 79
     5
170
     0
171
     0
290
     0
174
     0
 93
       13
 44
0.0
173
     0
291
     1
 45
0.0
1001
ACAD
1000
AcDbSavedByObjectVersion
1070
     0
  0
VISUALSTYLE
  5
2D
102
{ACAD_REACTORS
330
2A
102
}
102
{ACAD_XDICTIONARY
360
2DD
102
}
330
2A
100
AcDbVisualStyle
  2
Gouraud
 70
     2
 71
     2
 72
     2
 73
     1
 90
        2
 40
0.6
 41
30.0
 62
     5
 63
     7
 74
     0
 91
        0
 64
     7
 65
   257
 75
     1
175
     1
 42
1.0
 92
        0
 66
     7
 43
1.0
 76
     1
 77
     6
 78
     2
 67
     7
 79
     5
170
     0
171
     0
290
     0
174
     0
 93
       13
 44
0.0
173
     0
291
     1
 45
0.0
1001
ACAD
1000
AcDbSavedByObjectVersion
1070
     0
  0
VISUALSTYLE
  5
2E
102
{ACAD_REACTORS
330
2A
102
}
102
{ACAD_XDICTIONARY
360
2DF
102
}
330
2A
100
AcDbVisualStyle
  2
GouraudWithEdges
 70
     3
 71
     2
 72
     2
 73
     1
 90
        2
 40
0.6
 41
30.0
 62
     5
 63
     7
 74
     1
 91
        0
 64
     7
 65
   257
 75
     1
175
     1
 42
1.0
 92
        0
 66
   257
 43
1.0
 76
     1
 77
     6
 78
     2
 67
     7
 79
     5
170
     0
171
     0
290
     0
174
     0
 93
       13
 44
0.0
173
     0
291
     1
 45
0.0
1001
ACAD
1000
AcDbSavedByObjectVersion
1070
     0
  0
VISUALSTYLE
  5
31
102
{ACAD_REACTORS
330
2A
102
}
102
{ACAD_XDICTIONARY
360
2E5
102
}
330
2A
100
AcDbVisualStyle
  2
Hidden
 70
     6
 71
     1
 72
     2
 73
     2
 90
        0
 40
0.6
 41
30.0
 62
     5
 63
     7
 74
     2
 91
        2
 64
     7
 65
   257
 75
     2
175
     1
 42
40.0
 92
        0
 66
   257
 43
1.0
 76
     1
 77
     6
 78
     2
 67
     7
 79
     3
170
     0
171
     0
290
     0
174
     0
 93
        1
 44
0.0
173
     0
291
     0
 45
0.0
1001
ACAD
1000
AcDbSavedByObjectVersion
1070
     0
  0
VISUALSTYLE
  5
3B
102
{ACAD_REACTORS
330
2A
102
}
102
{ACAD_XDICTIONARY
360
2F9
102
}
330
2A
100
AcDbVisualStyle
  2
JitterOff
 70
    20
 71
     2
 72
     2
 73
     0
 90
        0
 40
0.6
 41
30.0
 62
     5
 63
     7
 74
     1
 91
        4
 64
     7
 65
   257
 75
     1
175
     1
 42
1.0
 92
       10
 66
     7
 43
1.0
 76
     1
 77
     6
 78
     2
 67
     7
 79
     5
170
     0
171
     0
290
     0
174
     0
 93
        1
 44
0.0
173
     0
291
     1
 45
0.0
1001
ACAD
1000
AcDbSavedByObjectVersion
1070
     0
  0
VISUALSTYLE
  5
38
102
{ACAD_REACTORS
330
2A
102
}
102
{ACAD_XDICTIONARY
360
2F3
102
}
330
2A
100
AcDbVisualStyle
  2
Linepattern
 70
    14
 71
     2
 72
     2
 73
     0
 90
        0
 40
0.6
 41
30.0
 62
     5
 63
     7
 74
     1
 91
        4
 64
     7
 65
   257
 75
     7
175
     7
 42
1.0
 92
        8
 66
     7
 43
1.0
 76
     1
 77
     6
 78
     2
 67
     7
 79
     5
170
     0
171
     0
290
     0
174
     0
 93
        1
 44
0.0
173
     0
291
     1
 45
0.0
1001
ACAD
1000
AcDbSavedByObjectVersion
1070
     0
  0
VISUALSTYLE
  5
3C
102
{ACAD_REACTORS
330
2A
102
}
102
{ACAD_XDICTIONARY
360
2FB
102
}
330
2A
100
AcDbVisualStyle
  2
OverhangOff
 70
    21
 71
     2
 72
     2
 73
     0
 90
        0
 40
0.6
 41
30.0
 62
     5
 63
     7
 74
     1
 91
        4
 64
     7
 65
   257
 75
     1
175
     1
 42
1.0
 92
        9
 66
     7
 43
1.0
 76
     1
 77
     6
 78
     2
 67
     7
 79
     5
170
     0
171
     0
290
     0
174
     0
 93
        1
 44
0.0
173
     0
291
     1
 45
0.0
1001
ACAD
1000
AcDbSavedByObjectVersion
1070
     0
  0
VISUALSTYLE
  5
33
102
{ACAD_REACTORS
330
2A
102
}
102
{ACAD_XDICTIONARY
360
2E9
102
}
330
2A
100
AcDbVisualStyle
  2
Realistic
 70
     8
 71
     2
 72
     3
 73
     0
 90
        2
 40
0.6
 41
30.0
 62
     5
 63
     7
 74
     0
 91
        0
 64
     7
 65
   257
 75
     1
175
     1
 42
1.0
 92
        8
 66
   257
 43
1.0
 76
     1
 77
     6
 78
     2
 67
     7
 79
     3
170
     0
171
     0
290
     0
174
     0
 93
       13
 44
0.0
173
     0
291
     0
 45
0.0
1001
ACAD
1000
AcDbSavedByObjectVersion
1070
     0
  0
VISUALSTYLE
  5
42
102
{ACAD_REACTORS
330
2A
102
}
102
{ACAD_XDICTIONARY
360
307
102
}
330
2A
100
AcDbVisualStyle
  2
Shaded
 70
    27
 71
     2
 72
     2
 73
     1
 90
        2
 40
0.6
 41
30.0
 62
     5
 63
     7
 74
     0
 91
        4
 64
     7
 65
   257
 75
     1
175
     1
 42
1.0
 92
        8
 66
   257
 43
1.0
 76
     1
 77
     6
 78
     2
 67
     8
 79
     3
170
     0
171
     0
290
     0
174
     0
 93
        5
 44
0.0
173
     0
291
     0
 45
0.0
1001
ACAD
1000
AcDbSavedByObjectVersion
1070
     0
  0
VISUALSTYLE
  5
41
102
{ACAD_REACTORS
330
2A
102
}
102
{ACAD_XDICTIONARY
360
305
102
}
330
2A
100
AcDbVisualStyle
  2
Shaded with edges
 70
    26
 71
     2
 72
     2
 73
     1
 90
        2
 40
0.6
 41
30.0
 62
     5
 63
     7
 74
     1
 91
       10
 64
     7
 65
   257
 75
     2
175
     1
 42
1.0
 92
        8
 66
   257
 43
1.0
 76
     1
 77
     6
 78
     2
 67
     7
 79
     3
170
     0
171
     0
290
     0
174
     0
 93
        5
 44
0.0
173
     0
291
     0
 45
0.0
1001
ACAD
1000
AcDbSavedByObjectVersion
1070
     0
  0
VISUALSTYLE
  5
3E
102
{ACAD_REACTORS
330
2A
102
}
102
{ACAD_XDICTIONARY
360
2FF
102
}
330
2A
100
AcDbVisualStyle
  2
Shades of Gray
 70
    23
 71
     2
 72
     2
 73
     3
 90
        0
 40
0.6
 41
30.0
 62
     5
 63
     7
 74
     2
 91
        2
 64
     7
 65
     7
 75
     1
175
     1
 42
40.0
 92
        8
 66
     7
 43
1.0
 76
     1
 77
     6
 78
     2
 67
     7
 79
     3
170
     0
171
     0
290
     0
174
     0
 93
        1
 44
0.0
173
     0
291
     0
 45
0.0
1001
ACAD
1000
AcDbSavedByObjectVersion
1070
     0
  0
VISUALSTYLE
  5
3F
102
{ACAD_REACTORS
330
2A
102
}
102
{ACAD_XDICTIONARY
360
301
102
}
330
2A
100
AcDbVisualStyle
  2
Sketchy
 70
    24
 71
     1
 72
     2
 73
     2
 90
        0
 40
0.6
 41
30.0
 62
     5
 63
     7
 74
     2
 91
        2
 64
     7
 65
     7
 75
     1
175
     1
 42
40.0
 92
       11
 66
     7
 43
1.0
 76
     1
 77
     6
 78
     2
 67
     7
 79
     6
170
     0
171
     0
290
     0
174
     0
 93
        1
 44
0.0
173
     0
291
     0
 45
0.0
1001
ACAD
1000
AcDbSavedByObjectVersion
1070
     0
  0
VISUALSTYLE
  5
37
102
{ACAD_REACTORS
330
2A
102
}
102
{ACAD_XDICTIONARY
360
2F1
102
}
330
2A
100
AcDbVisualStyle
  2
Thicken
 70
    13
 71
     2
 72
     2
 73
     0
 90
        0
 40
0.6
 41
30.0
 62
     5
 63
     7
 74
     1
 91
        4
 64
     7
 65
   257
 75
     1
175
     1
 42
1.0
 92
       12
 66
     7
 43
1.0
 76
     1
 77
     6
 78
     2
 67
     7
 79
     5
170
     0
171
     0
290
     0
174
     0
 93
        1
 44
0.0
173
     0
291
     1
 45
0.0
1001
ACAD
1000
AcDbSavedByObjectVersion
1070
     0
  0
VISUALSTYLE
  5
30
102
{ACAD_REACTORS
330
2A
102
}
102
{ACAD_XDICTIONARY
360
2E3
102
}
330
2A
100
AcDbVisualStyle
  2
Wireframe
 70
     5
 71
     0
 72
     2
 73
     0
 90
        0
 40
0.6
 41
30.0
 62
     5
 63
     7
 74
     1
 91
        4
 64
     7
 65
   257
 75
     1
175
     1
 42
1.0
 92
        0
 66
   257
 43
1.0
 76
     1
 77
     6
 78
     2
 67
     7
 79
     3
170
     0
171
     0
290
     0
174
     0
 93
        1
 44
0.0
173
     0
291
     0
 45
0.0
1001
ACAD
1000
AcDbSavedByObjectVersion
1070
     0
  0
VISUALSTYLE
  5
40
102
{ACAD_REACTORS
330
2A
102
}
102
{ACAD_XDICTIONARY
360
303
102
}
330
2A
100
AcDbVisualStyle
  2
X-Ray
 70
    25
 71
     2
 72
     2
 73
     1
 90
        1
 40
0.5
 41
30.0
 62
     5
 63
     7
 74
     1
 91
        0
 64
     7
 65
   257
 75
     1
175
     1
 42
1.0
 92
        8
 66
     7
 43
1.0
 76
     1
 77
     6
 78
     2
 67
     7
 79
     3
170
     0
171
     0
290
     0
174
     0
 93
       13
 44
0.0
173
     0
291
     0
 45
0.0
1001
ACAD
1000
AcDbSavedByObjectVersion
1070
     0
  0
DICTIONARYVAR
  5
2D7
102
{ACAD_REACTORS
330
2CA
102
}
330
2CA
100
DictionaryVariables
280
     0
  1
1:1
  0
DICTIONARYVAR
  5
2D1
102
{ACAD_REACTORS
330
2CA
102
}
330
2CA
100
DictionaryVariables
280
     0
  1
3.500000
  0
DICTIONARYVAR
  5
2D2
102
{ACAD_REACTORS
330
2CA
102
}
330
2CA
100
DictionaryVariables
280
     0
  1
acadiso.lin
  0
DICTIONARYVAR
  5
2CC
102
{ACAD_REACTORS
330
2CA
102
}
330
2CA
100
DictionaryVariables
280
     0
  1
Standard
  0
DICTIONARYVAR
  5
2CB
102
{ACAD_REACTORS
330
2CA
102
}
330
2CA
100
DictionaryVariables
280
     0
  1
Standard
  0
DICTIONARYVAR
  5
2D3
102
{ACAD_REACTORS
330
2CA
102
}
330
2CA
100
DictionaryVariables
280
     0
  1
2
  0
DICTIONARYVAR
  5
2D4
102
{ACAD_REACTORS
330
2CA
102
}
330
2CA
100
DictionaryVariables
280
     0
  1
1
  0
DICTIONARYVAR
  5
2D8
102
{ACAD_REACTORS
330
2CA
102
}
330
2CA
100
DictionaryVariables
280
     0
  1
1
  0
DICTIONARYVAR
  5
2CE
102
{ACAD_REACTORS
330
2CA
102
}
330
2CA
100
DictionaryVariables
280
     0
  1
80.000000
  0
DICTIONARYVAR
  5
2CD
102
{ACAD_REACTORS
330
2CA
102
}
330
2CA
100
DictionaryVariables
280
     0
  1
5.000000
  0
DICTIONARY
  5
30B
330
45
100
AcDbDictionary
280
     1
281
     1
  3
ACAD_XREC_ROUNDTRIP
360
30C
  0
DICTIONARY
  5
309
330
44
100
AcDbDictionary
280
     1
281
     1
  3
ACAD_XREC_ROUNDTRIP
360
30A
  0
DICTIONARY
  5
30D
330
46
100
AcDbDictionary
280
     1
281
     1
  3
ACAD_XREC_ROUNDTRIP
360
30E
  0
DICTIONARY
  5
310
330
6C
100
AcDbDictionary
280
     1
281
     1
  3
ACAD_XREC_ROUNDTRIP
360
311
  0
DICTIONARY
  5
2E1
330
2F
100
AcDbDictionary
280
     1
281
     1
  3
ACAD_XREC_ROUNDTRIP
360
2E2
  0
DICTIONARY
  5
2E7
330
32
100
AcDbDictionary
280
     1
281
     1
  3
ACAD_XREC_ROUNDTRIP
360
2E8
  0
DICTIONARY
  5
2EF
330
36
100
AcDbDictionary
280
     1
281
     1
  3
ACAD_XREC_ROUNDTRIP
360
2F0
  0
DICTIONARY
  5
2F7
330
3A
100
AcDbDictionary
280
     1
281
     1
  3
ACAD_XREC_ROUNDTRIP
360
2F8
  0
DICTIONARY
  5
2EB
330
34
100
AcDbDictionary
280
     1
281
     1
  3
ACAD_XREC_ROUNDTRIP
360
2EC
  0
DICTIONARY
  5
2ED
330
35
100
AcDbDictionary
280
     1
281
     1
  3
ACAD_XREC_ROUNDTRIP
360
2EE
  0
DICTIONARY
  5
2FD
330
3D
100
AcDbDictionary
280
     1
281
     1
  3
ACAD_XREC_ROUNDTRIP
360
2FE
  0
DICTIONARY
  5
2F5
330
39
100
AcDbDictionary
280
     1
281
     1
  3
ACAD_XREC_ROUNDTRIP
360
2F6
  0
DICTIONARY
  5
2D9
330
2B
100
AcDbDictionary
280
     1
281
     1
  3
ACAD_XREC_ROUNDTRIP
360
2DA
  0
DICTIONARY
  5
2DB
330
2C
100
AcDbDictionary
280
     1
281
     1
  3
ACAD_XREC_ROUNDTRIP
360
2DC
  0
DICTIONARY
  5
2DD
330
2D
100
AcDbDictionary
280
     1
281
     1
  3
ACAD_XREC_ROUNDTRIP
360
2DE
  0
DICTIONARY
  5
2DF
330
2E
100
AcDbDictionary
280
     1
281
     1
  3
ACAD_XREC_ROUNDTRIP
360
2E0
  0
DICTIONARY
  5
2E5
330
31
100
AcDbDictionary
280
     1
281
     1
  3
ACAD_XREC_ROUNDTRIP
360
2E6
  0
DICTIONARY
  5
2F9
330
3B
100
AcDbDictionary
280
     1
281
     1
  3
ACAD_XREC_ROUNDTRIP
360
2FA
  0
DICTIONARY
  5
2F3
330
38
100
AcDbDictionary
280
     1
281
     1
  3
ACAD_XREC_ROUNDTRIP
360
2F4
  0
DICTIONARY
  5
2FB
330
3C
100
AcDbDictionary
280
     1
281
     1
  3
ACAD_XREC_ROUNDTRIP
360
2FC
  0
DICTIONARY
  5
2E9
330
33
100
AcDbDictionary
280
     1
281
     1
  3
ACAD_XREC_ROUNDTRIP
360
2EA
  0
DICTIONARY
  5
307
330
42
100
AcDbDictionary
280
     1
281
     1
  3
ACAD_XREC_ROUNDTRIP
360
308
  0
DICTIONARY
  5
305
330
41
100
AcDbDictionary
280
     1
281
     1
  3
ACAD_XREC_ROUNDTRIP
360
306
  0
DICTIONARY
  5
2FF
330
3E
100
AcDbDictionary
280
     1
281
     1
  3
ACAD_XREC_ROUNDTRIP
360
300
  0
DICTIONARY
  5
301
330
3F
100
AcDbDictionary
280
     1
281
     1
  3
ACAD_XREC_ROUNDTRIP
360
302
  0
DICTIONARY
  5
2F1
330
37
100
AcDbDictionary
280
     1
281
     1
  3
ACAD_XREC_ROUNDTRIP
360
2F2
  0
DICTIONARY
  5
2E3
330
30
100
AcDbDictionary
280
     1
281
     1
  3
ACAD_XREC_ROUNDTRIP
360
2E4
  0
DICTIONARY
  5
303
330
40
100
AcDbDictionary
280
     1
281
     1
  3
ACAD_XREC_ROUNDTRIP
360
304
  0
XRECORD
  5
30C
102
{ACAD_REACTORS
330
30B
102
}
330
30B
100
AcDbXrecord
280
     1
102
MATERIAL
148
0.0
149
0.0
149
0.0
 93
        0
 94
      127
282
     0
 72
     1
 77
     1
171
     1
175
     1
179
     1
273
     0
  0
XRECORD
  5
30A
102
{ACAD_REACTORS
330
309
102
}
330
309
100
AcDbXrecord
280
     1
102
MATERIAL
148
0.0
149
0.0
149
0.0
 93
        0
 94
      127
282
     0
 72
     1
 77
     1
171
     1
175
     1
179
     1
273
     0
  0
XRECORD
  5
30E
102
{ACAD_REACTORS
330
30D
102
}
330
30D
100
AcDbXrecord
280
     1
102
MATERIAL
148
0.0
149
0.0
149
0.0
 93
        0
 94
      127
282
     0
 72
     1
 77
     1
171
     1
175
     1
179
     1
273
     0
  0
XRECORD
  5
311
102
{ACAD_REACTORS
330
310
102
}
330
310
100
AcDbXrecord
280
     1
102
ACAD_ROUNDTRIP_2010_MLEADER_STYLE
  0
XRECORD
  5
2E2
102
{ACAD_REACTORS
330
2E1
102
}
330
2E1
100
AcDbXrecord
280
     1
102
RTVSPropertyOp0
 70
     1
102
RTVSPropertyOp1
 70
     1
102
RTVSPropertyOp2
 70
     1
102
RTVSPropertyOp3
 70
     1
102
RTVSPropertyOp4
 70
     1
102
RTVSPropertyOp5
 70
     1
102
RTVSPropertyOp6
 70
     1
102
RTVSPropertyOp7
 70
     1
102
RTVSPropertyOp8
 70
     1
102
RTVSPropertyOp9
 70
     1
102
RTVSPropertyOp10
 70
     1
102
RTVSPropertyOp11
 70
     1
102
RTVSPropertyOp12
 70
     1
102
RTVSPropertyOp13
 70
     1
102
RTVSPropertyOp14
 70
     1
102
RTVSPropertyOp15
 70
     1
102
RTVSPropertyOp16
 70
     1
102
RTVSPropertyOp17
 70
     1
102
RTVSPropertyOp18
 70
     1
102
RTVSPropertyOp19
 70
     1
102
RTVSPropertyOp20
 70
     1
102
RTVSPropertyOp21
 70
     1
102
RTVSPropertyOp22
 70
     1
102
RTVSPropertyOp23
 70
     1
102
RTVSPropertyOp24
 70
     1
102
RTVSPropertyOp25
 70
     1
102
RTVSPropertyOp26
 70
     1
102
RTVSPropertyOp27
 70
     1
102
RTVSPropertyOp28
 70
     1
102
RTVSPropertyOp29
 70
     1
102
RTVSPropertyOp30
 70
     1
102
RTVSPropertyOp31
 70
     1
102
RTVSPropertyOp32
 70
     1
102
RTVSPropertyOp33
 70
     1
102
RTVSPropertyOp34
 70
     1
102
RTVSPropertyOp35
 70
     1
102
RTVSPropertyOp36
 70
     1
102
RTVSPropertyOp37
 70
     1
102
RTVSPropertyOp38
 70
     1
102
RTVSPropertyOp39
 70
     1
102
RTVSPropertyOp40
 70
     1
102
RTVSPropertyOp41
 70
     1
102
RTVSPropertyOp42
 70
     1
102
RTVSPropertyOp43
 70
     1
102
RTVSPropertyOp44
 70
     1
102
RTVSPropertyOp45
 70
     1
102
RTVSPropertyOp46
 70
     1
102
RTVSPropertyOp47
 70
     1
102
RTVSPropertyOp48
 70
     1
102
RTVSPropertyOp49
 70
     1
102
RTVSPropertyOp50
 70
     1
102
RTVSPropertyOp51
 70
     0
102
RTVSPropertyOp52
 70
     0
102
RTVSPropertyOp53
 70
     1
102
RTVSPropertyOp54
 70
     1
102
RTVSPropertyOp55
 70
     1
102
RTVSPropertyOp56
 70
     1
102
RTVSPropertyOp57
 70
     1
102
RTVSPost2010Prop28
280
     1
102
RTVSPost2010PropOp28
 70
     1
102
RTVSPost2010Prop29
280
     1
102
RTVSPost2010PropOp29
 70
     1
102
RTVSPost2010Prop30
280
     0
102
RTVSPost2010PropOp30
 70
     1
102
RTVSPost2010Prop31
280
     0
102
RTVSPost2010PropOp31
 70
     1
102
RTVSPost2010Prop32
280
     0
102
RTVSPost2010PropOp32
 70
     1
102
RTVSPost2010Prop33
280
     0
102
RTVSPost2010PropOp33
 70
     1
102
RTVSPost2010Prop34
280
     0
102
RTVSPost2010PropOp34
 70
     1
102
RTVSPost2010Prop35
280
     0
102
RTVSPost2010PropOp35
 70
     1
102
RTVSPost2010Prop36
280
     0
102
RTVSPost2010PropOp36
 70
     1
102
RTVSPost2010Prop37
 90
       50
102
RTVSPost2010PropOp37
 70
     1
102
RTVSPost2010Prop38
140
0.0
102
RTVSPost2010PropOp38
 70
     1
102
RTVSPost2010Prop39
140
1.0
102
RTVSPost2010PropOp39
 70
     1
102
RTVSPost2010Prop40
 90
        0
102
RTVSPost2010PropOp40
 70
     1
102
RTVSPost2010Prop41ColorIndex
 90
       18
102
RTVSPost2010Prop41ColorRGB
 90
        0
102
RTVSPost2010PropOp41
 70
     1
102
RTVSPost2010Prop42
 90
       50
102
RTVSPost2010PropOp42
 70
     1
102
RTVSPost2010Prop43
 90
        3
102
RTVSPost2010PropOp43
 70
     1
102
RTVSPost2010Prop44ColorIndex
 90
        5
102
RTVSPost2010Prop44ColorRGB
 90
      255
102
RTVSPost2010PropOp44
 70
     1
102
RTVSPost2010Prop45
280
     0
102
RTVSPost2010PropOp45
 70
     1
102
RTVSPost2010Prop46
 90
       50
102
RTVSPost2010PropOp46
 70
     1
102
RTVSPost2010Prop47
 90
       50
102
RTVSPost2010PropOp47
 70
     1
102
RTVSPost2010Prop48
 90
       50
102
RTVSPost2010PropOp48
 70
     1
102
RTVSPost2010Prop49
280
     0
102
RTVSPost2010PropOp49
 70
     1
102
RTVSPost2010Prop50
 90
       50
102
RTVSPost2010PropOp50
 70
     1
102
RTVSPost2010Prop51ColorIndex
 90
      256
102
RTVSPost2010Prop51ColorRGB
 90
-16777216
102
RTVSPost2010PropOp51
 70
     0
102
RTVSPost2010Prop52
140
1.0
102
RTVSPost2010PropOp52
 70
     0
102
RTVSPost2010Prop53
 90
        2
102
RTVSPost2010PropOp53
 70
     1
102
RTVSPost2010Prop54
  1
strokes_ogs.tif
102
RTVSPost2010PropOp54
 70
     1
102
RTVSPost2010Prop55
280
     0
102
RTVSPost2010PropOp55
 70
     1
102
RTVSPost2010Prop56
140
1.0
102
RTVSPost2010PropOp56
 70
     1
102
RTVSPost2010Prop57
140
1.0
102
RTVSPost2010PropOp57
 70
     1
  0
XRECORD
  5
2E8
102
{ACAD_REACTORS
330
2E7
102
}
330
2E7
100
AcDbXrecord
280
     1
102
RTVSPropertyOp0
 70
     1
102
RTVSPropertyOp1
 70
     1
102
RTVSPropertyOp2
 70
     1
102
RTVSPropertyOp3
 70
     1
102
RTVSPropertyOp4
 70
     1
102
RTVSPropertyOp5
 70
     1
102
RTVSPropertyOp6
 70
     1
102
RTVSPropertyOp7
 70
     1
102
RTVSPropertyOp8
 70
     1
102
RTVSPropertyOp9
 70
     1
102
RTVSPropertyOp10
 70
     1
102
RTVSPropertyOp11
 70
     1
102
RTVSPropertyOp12
 70
     1
102
RTVSPropertyOp13
 70
     1
102
RTVSPropertyOp14
 70
     1
102
RTVSPropertyOp15
 70
     1
102
RTVSPropertyOp16
 70
     1
102
RTVSPropertyOp17
 70
     1
102
RTVSPropertyOp18
 70
     1
102
RTVSPropertyOp19
 70
     1
102
RTVSPropertyOp20
 70
     1
102
RTVSPropertyOp21
 70
     1
102
RTVSPropertyOp22
 70
     1
102
RTVSPropertyOp23
 70
     1
102
RTVSPropertyOp24
 70
     1
102
RTVSPropertyOp25
 70
     1
102
RTVSPropertyOp26
 70
     1
102
RTVSPropertyOp27
 70
     1
102
RTVSPropertyOp28
 70
     1
102
RTVSPropertyOp29
 70
     1
102
RTVSPropertyOp30
 70
     1
102
RTVSPropertyOp31
 70
     1
102
RTVSPropertyOp32
 70
     1
102
RTVSPropertyOp33
 70
     1
102
RTVSPropertyOp34
 70
     1
102
RTVSPropertyOp35
 70
     1
102
RTVSPropertyOp36
 70
     1
102
RTVSPropertyOp37
 70
     1
102
RTVSPropertyOp38
 70
     1
102
RTVSPropertyOp39
 70
     1
102
RTVSPropertyOp40
 70
     1
102
RTVSPropertyOp41
 70
     1
102
RTVSPropertyOp42
 70
     1
102
RTVSPropertyOp43
 70
     1
102
RTVSPropertyOp44
 70
     1
102
RTVSPropertyOp45
 70
     1
102
RTVSPropertyOp46
 70
     1
102
RTVSPropertyOp47
 70
     1
102
RTVSPropertyOp48
 70
     1
102
RTVSPropertyOp49
 70
     1
102
RTVSPropertyOp50
 70
     1
102
RTVSPropertyOp51
 70
     0
102
RTVSPropertyOp52
 70
     0
102
RTVSPropertyOp53
 70
     1
102
RTVSPropertyOp54
 70
     1
102
RTVSPropertyOp55
 70
     1
102
RTVSPropertyOp56
 70
     1
102
RTVSPropertyOp57
 70
     1
102
RTVSPost2010Prop28
280
     0
102
RTVSPost2010PropOp28
 70
     1
102
RTVSPost2010Prop29
280
     1
102
RTVSPost2010PropOp29
 70
     1
102
RTVSPost2010Prop30
280
     1
102
RTVSPost2010PropOp30
 70
     1
102
RTVSPost2010Prop31
280
     0
102
RTVSPost2010PropOp31
 70
     1
102
RTVSPost2010Prop32
280
     0
102
RTVSPost2010PropOp32
 70
     1
102
RTVSPost2010Prop33
280
     0
102
RTVSPost2010PropOp33
 70
     1
102
RTVSPost2010Prop34
280
     0
102
RTVSPost2010PropOp34
 70
     1
102
RTVSPost2010Prop35
280
     0
102
RTVSPost2010PropOp35
 70
     1
102
RTVSPost2010Prop36
280
     0
102
RTVSPost2010PropOp36
 70
     1
102
RTVSPost2010Prop37
 90
       50
102
RTVSPost2010PropOp37
 70
     1
102
RTVSPost2010Prop38
140
0.0
102
RTVSPost2010PropOp38
 70
     1
102
RTVSPost2010Prop39
140
1.0
102
RTVSPost2010PropOp39
 70
     1
102
RTVSPost2010Prop40
 90
        0
102
RTVSPost2010PropOp40
 70
     1
102
RTVSPost2010Prop41ColorIndex
 90
       18
102
RTVSPost2010Prop41ColorRGB
 90
        0
102
RTVSPost2010PropOp41
 70
     1
102
RTVSPost2010Prop42
 90
       50
102
RTVSPost2010PropOp42
 70
     1
102
RTVSPost2010Prop43
 90
        3
102
RTVSPost2010PropOp43
 70
     1
102
RTVSPost2010Prop44ColorIndex
 90
        5
102
RTVSPost2010Prop44ColorRGB
 90
      255
102
RTVSPost2010PropOp44
 70
     1
102
RTVSPost2010Prop45
280
     0
102
RTVSPost2010PropOp45
 70
     1
102
RTVSPost2010Prop46
 90
       50
102
RTVSPost2010PropOp46
 70
     1
102
RTVSPost2010Prop47
 90
       50
102
RTVSPost2010PropOp47
 70
     1
102
RTVSPost2010Prop48
 90
       50
102
RTVSPost2010PropOp48
 70
     1
102
RTVSPost2010Prop49
280
     0
102
RTVSPost2010PropOp49
 70
     1
102
RTVSPost2010Prop50
 90
       50
102
RTVSPost2010PropOp50
 70
     1
102
RTVSPost2010Prop51ColorIndex
 90
      256
102
RTVSPost2010Prop51ColorRGB
 90
-16777216
102
RTVSPost2010PropOp51
 70
     0
102
RTVSPost2010Prop52
140
1.0
102
RTVSPost2010PropOp52
 70
     0
102
RTVSPost2010Prop53
 90
        2
102
RTVSPost2010PropOp53
 70
     1
102
RTVSPost2010Prop54
  1
strokes_ogs.tif
102
RTVSPost2010PropOp54
 70
     1
102
RTVSPost2010Prop55
280
     0
102
RTVSPost2010PropOp55
 70
     1
102
RTVSPost2010Prop56
140
1.0
102
RTVSPost2010PropOp56
 70
     1
102
RTVSPost2010Prop57
140
1.0
102
RTVSPost2010PropOp57
 70
     1
  0
XRECORD
  5
2F0
102
{ACAD_REACTORS
330
2EF
102
}
330
2EF
100
AcDbXrecord
280
     1
102
RTVSPropertyOp0
 70
     1
102
RTVSPropertyOp1
 70
     1
102
RTVSPropertyOp2
 70
     1
102
RTVSPropertyOp3
 70
     1
102
RTVSPropertyOp4
 70
     1
102
RTVSPropertyOp5
 70
     1
102
RTVSPropertyOp6
 70
     1
102
RTVSPropertyOp7
 70
     1
102
RTVSPropertyOp8
 70
     1
102
RTVSPropertyOp9
 70
     1
102
RTVSPropertyOp10
 70
     1
102
RTVSPropertyOp11
 70
     1
102
RTVSPropertyOp12
 70
     1
102
RTVSPropertyOp13
 70
     1
102
RTVSPropertyOp14
 70
     1
102
RTVSPropertyOp15
 70
     1
102
RTVSPropertyOp16
 70
     1
102
RTVSPropertyOp17
 70
     1
102
RTVSPropertyOp18
 70
     1
102
RTVSPropertyOp19
 70
     1
102
RTVSPropertyOp20
 70
     1
102
RTVSPropertyOp21
 70
     1
102
RTVSPropertyOp22
 70
     1
102
RTVSPropertyOp23
 70
     1
102
RTVSPropertyOp24
 70
     1
102
RTVSPropertyOp25
 70
     1
102
RTVSPropertyOp26
 70
     1
102
RTVSPropertyOp27
 70
     1
102
RTVSPropertyOp28
 70
     1
102
RTVSPropertyOp29
 70
     1
102
RTVSPropertyOp30
 70
     1
102
RTVSPropertyOp31
 70
     1
102
RTVSPropertyOp32
 70
     1
102
RTVSPropertyOp33
 70
     1
102
RTVSPropertyOp34
 70
     1
102
RTVSPropertyOp35
 70
     1
102
RTVSPropertyOp36
 70
     1
102
RTVSPropertyOp37
 70
     1
102
RTVSPropertyOp38
 70
     1
102
RTVSPropertyOp39
 70
     1
102
RTVSPropertyOp40
 70
     1
102
RTVSPropertyOp41
 70
     1
102
RTVSPropertyOp42
 70
     1
102
RTVSPropertyOp43
 70
     1
102
RTVSPropertyOp44
 70
     1
102
RTVSPropertyOp45
 70
     1
102
RTVSPropertyOp46
 70
     1
102
RTVSPropertyOp47
 70
     1
102
RTVSPropertyOp48
 70
     1
102
RTVSPropertyOp49
 70
     1
102
RTVSPropertyOp50
 70
     1
102
RTVSPropertyOp51
 70
     0
102
RTVSPropertyOp52
 70
     0
102
RTVSPropertyOp53
 70
     1
102
RTVSPropertyOp54
 70
     1
102
RTVSPropertyOp55
 70
     1
102
RTVSPropertyOp56
 70
     1
102
RTVSPropertyOp57
 70
     1
102
RTVSPost2010Prop28
280
     0
102
RTVSPost2010PropOp28
 70
     1
102
RTVSPost2010Prop29
280
     1
102
RTVSPost2010PropOp29
 70
     1
102
RTVSPost2010Prop30
280
     1
102
RTVSPost2010PropOp30
 70
     1
102
RTVSPost2010Prop31
280
     0
102
RTVSPost2010PropOp31
 70
     1
102
RTVSPost2010Prop32
280
     0
102
RTVSPost2010PropOp32
 70
     1
102
RTVSPost2010Prop33
280
     0
102
RTVSPost2010PropOp33
 70
     1
102
RTVSPost2010Prop34
280
     0
102
RTVSPost2010PropOp34
 70
     1
102
RTVSPost2010Prop35
280
     0
102
RTVSPost2010PropOp35
 70
     1
102
RTVSPost2010Prop36
280
     0
102
RTVSPost2010PropOp36
 70
     1
102
RTVSPost2010Prop37
 90
       50
102
RTVSPost2010PropOp37
 70
     1
102
RTVSPost2010Prop38
140
0.0
102
RTVSPost2010PropOp38
 70
     1
102
RTVSPost2010Prop39
140
1.0
102
RTVSPost2010PropOp39
 70
     1
102
RTVSPost2010Prop40
 90
        0
102
RTVSPost2010PropOp40
 70
     1
102
RTVSPost2010Prop41ColorIndex
 90
       18
102
RTVSPost2010Prop41ColorRGB
 90
        0
102
RTVSPost2010PropOp41
 70
     1
102
RTVSPost2010Prop42
 90
       50
102
RTVSPost2010PropOp42
 70
     1
102
RTVSPost2010Prop43
 90
        3
102
RTVSPost2010PropOp43
 70
     1
102
RTVSPost2010Prop44ColorIndex
 90
        5
102
RTVSPost2010Prop44ColorRGB
 90
      255
102
RTVSPost2010PropOp44
 70
     1
102
RTVSPost2010Prop45
280
     0
102
RTVSPost2010PropOp45
 70
     1
102
RTVSPost2010Prop46
 90
       50
102
RTVSPost2010PropOp46
 70
     1
102
RTVSPost2010Prop47
 90
       50
102
RTVSPost2010PropOp47
 70
     1
102
RTVSPost2010Prop48
 90
       50
102
RTVSPost2010PropOp48
 70
     1
102
RTVSPost2010Prop49
280
     0
102
RTVSPost2010PropOp49
 70
     1
102
RTVSPost2010Prop50
 90
       50
102
RTVSPost2010PropOp50
 70
     1
102
RTVSPost2010Prop51ColorIndex
 90
      256
102
RTVSPost2010Prop51ColorRGB
 90
-16777216
102
RTVSPost2010PropOp51
 70
     0
102
RTVSPost2010Prop52
140
1.0
102
RTVSPost2010PropOp52
 70
     0
102
RTVSPost2010Prop53
 90
        2
102
RTVSPost2010PropOp53
 70
     1
102
RTVSPost2010Prop54
  1
strokes_ogs.tif
102
RTVSPost2010PropOp54
 70
     1
102
RTVSPost2010Prop55
280
     0
102
RTVSPost2010PropOp55
 70
     1
102
RTVSPost2010Prop56
140
1.0
102
RTVSPost2010PropOp56
 70
     1
102
RTVSPost2010Prop57
140
1.0
102
RTVSPost2010PropOp57
 70
     1
  0
XRECORD
  5
2F8
102
{ACAD_REACTORS
330
2F7
102
}
330
2F7
100
AcDbXrecord
280
     1
102
RTVSPropertyOp0
 70
     1
102
RTVSPropertyOp1
 70
     1
102
RTVSPropertyOp2
 70
     1
102
RTVSPropertyOp3
 70
     1
102
RTVSPropertyOp4
 70
     1
102
RTVSPropertyOp5
 70
     1
102
RTVSPropertyOp6
 70
     1
102
RTVSPropertyOp7
 70
     1
102
RTVSPropertyOp8
 70
     1
102
RTVSPropertyOp9
 70
     1
102
RTVSPropertyOp10
 70
     1
102
RTVSPropertyOp11
 70
     1
102
RTVSPropertyOp12
 70
     1
102
RTVSPropertyOp13
 70
     1
102
RTVSPropertyOp14
 70
     1
102
RTVSPropertyOp15
 70
     1
102
RTVSPropertyOp16
 70
     1
102
RTVSPropertyOp17
 70
     1
102
RTVSPropertyOp18
 70
     1
102
RTVSPropertyOp19
 70
     1
102
RTVSPropertyOp20
 70
     1
102
RTVSPropertyOp21
 70
     1
102
RTVSPropertyOp22
 70
     1
102
RTVSPropertyOp23
 70
     1
102
RTVSPropertyOp24
 70
     1
102
RTVSPropertyOp25
 70
     1
102
RTVSPropertyOp26
 70
     1
102
RTVSPropertyOp27
 70
     1
102
RTVSPropertyOp28
 70
     1
102
RTVSPropertyOp29
 70
     1
102
RTVSPropertyOp30
 70
     1
102
RTVSPropertyOp31
 70
     1
102
RTVSPropertyOp32
 70
     1
102
RTVSPropertyOp33
 70
     1
102
RTVSPropertyOp34
 70
     1
102
RTVSPropertyOp35
 70
     1
102
RTVSPropertyOp36
 70
     1
102
RTVSPropertyOp37
 70
     1
102
RTVSPropertyOp38
 70
     1
102
RTVSPropertyOp39
 70
     1
102
RTVSPropertyOp40
 70
     1
102
RTVSPropertyOp41
 70
     1
102
RTVSPropertyOp42
 70
     1
102
RTVSPropertyOp43
 70
     1
102
RTVSPropertyOp44
 70
     1
102
RTVSPropertyOp45
 70
     1
102
RTVSPropertyOp46
 70
     1
102
RTVSPropertyOp47
 70
     1
102
RTVSPropertyOp48
 70
     1
102
RTVSPropertyOp49
 70
     1
102
RTVSPropertyOp50
 70
     1
102
RTVSPropertyOp51
 70
     0
102
RTVSPropertyOp52
 70
     0
102
RTVSPropertyOp53
 70
     1
102
RTVSPropertyOp54
 70
     1
102
RTVSPropertyOp55
 70
     1
102
RTVSPropertyOp56
 70
     1
102
RTVSPropertyOp57
 70
     1
102
RTVSPost2010Prop28
280
     0
102
RTVSPost2010PropOp28
 70
     1
102
RTVSPost2010Prop29
280
     1
102
RTVSPost2010PropOp29
 70
     1
102
RTVSPost2010Prop30
280
     1
102
RTVSPost2010PropOp30
 70
     1
102
RTVSPost2010Prop31
280
     0
102
RTVSPost2010PropOp31
 70
     1
102
RTVSPost2010Prop32
280
     0
102
RTVSPost2010PropOp32
 70
     1
102
RTVSPost2010Prop33
280
     0
102
RTVSPost2010PropOp33
 70
     1
102
RTVSPost2010Prop34
280
     0
102
RTVSPost2010PropOp34
 70
     1
102
RTVSPost2010Prop35
280
     0
102
RTVSPost2010PropOp35
 70
     1
102
RTVSPost2010Prop36
280
     0
102
RTVSPost2010PropOp36
 70
     1
102
RTVSPost2010Prop37
 90
       50
102
RTVSPost2010PropOp37
 70
     1
102
RTVSPost2010Prop38
140
0.0
102
RTVSPost2010PropOp38
 70
     1
102
RTVSPost2010Prop39
140
1.0
102
RTVSPost2010PropOp39
 70
     1
102
RTVSPost2010Prop40
 90
        0
102
RTVSPost2010PropOp40
 70
     1
102
RTVSPost2010Prop41ColorIndex
 90
       18
102
RTVSPost2010Prop41ColorRGB
 90
        0
102
RTVSPost2010PropOp41
 70
     1
102
RTVSPost2010Prop42
 90
       50
102
RTVSPost2010PropOp42
 70
     1
102
RTVSPost2010Prop43
 90
        3
102
RTVSPost2010PropOp43
 70
     1
102
RTVSPost2010Prop44ColorIndex
 90
        5
102
RTVSPost2010Prop44ColorRGB
 90
      255
102
RTVSPost2010PropOp44
 70
     1
102
RTVSPost2010Prop45
280
     0
102
RTVSPost2010PropOp45
 70
     1
102
RTVSPost2010Prop46
 90
       50
102
RTVSPost2010PropOp46
 70
     1
102
RTVSPost2010Prop47
 90
       50
102
RTVSPost2010PropOp47
 70
     1
102
RTVSPost2010Prop48
 90
       50
102
RTVSPost2010PropOp48
 70
     1
102
RTVSPost2010Prop49
280
     0
102
RTVSPost2010PropOp49
 70
     1
102
RTVSPost2010Prop50
 90
       50
102
RTVSPost2010PropOp50
 70
     1
102
RTVSPost2010Prop51ColorIndex
 90
      256
102
RTVSPost2010Prop51ColorRGB
 90
-16777216
102
RTVSPost2010PropOp51
 70
     0
102
RTVSPost2010Prop52
140
1.0
102
RTVSPost2010PropOp52
 70
     0
102
RTVSPost2010Prop53
 90
        2
102
RTVSPost2010PropOp53
 70
     1
102
RTVSPost2010Prop54
  1
strokes_ogs.tif
102
RTVSPost2010PropOp54
 70
     1
102
RTVSPost2010Prop55
280
     0
102
RTVSPost2010PropOp55
 70
     1
102
RTVSPost2010Prop56
140
1.0
102
RTVSPost2010PropOp56
 70
     1
102
RTVSPost2010Prop57
140
1.0
102
RTVSPost2010PropOp57
 70
     1
  0
XRECORD
  5
2EC
102
{ACAD_REACTORS
330
2EB
102
}
330
2EB
100
AcDbXrecord
280
     1
102
RTVSPropertyOp0
 70
     1
102
RTVSPropertyOp1
 70
     1
102
RTVSPropertyOp2
 70
     1
102
RTVSPropertyOp3
 70
     1
102
RTVSPropertyOp4
 70
     1
102
RTVSPropertyOp5
 70
     1
102
RTVSPropertyOp6
 70
     1
102
RTVSPropertyOp7
 70
     1
102
RTVSPropertyOp8
 70
     1
102
RTVSPropertyOp9
 70
     1
102
RTVSPropertyOp10
 70
     1
102
RTVSPropertyOp11
 70
     1
102
RTVSPropertyOp12
 70
     1
102
RTVSPropertyOp13
 70
     1
102
RTVSPropertyOp14
 70
     1
102
RTVSPropertyOp15
 70
     1
102
RTVSPropertyOp16
 70
     1
102
RTVSPropertyOp17
 70
     1
102
RTVSPropertyOp18
 70
     1
102
RTVSPropertyOp19
 70
     1
102
RTVSPropertyOp20
 70
     1
102
RTVSPropertyOp21
 70
     1
102
RTVSPropertyOp22
 70
     1
102
RTVSPropertyOp23
 70
     1
102
RTVSPropertyOp24
 70
     1
102
RTVSPropertyOp25
 70
     1
102
RTVSPropertyOp26
 70
     1
102
RTVSPropertyOp27
 70
     1
102
RTVSPropertyOp28
 70
     1
102
RTVSPropertyOp29
 70
     1
102
RTVSPropertyOp30
 70
     1
102
RTVSPropertyOp31
 70
     1
102
RTVSPropertyOp32
 70
     1
102
RTVSPropertyOp33
 70
     1
102
RTVSPropertyOp34
 70
     1
102
RTVSPropertyOp35
 70
     1
102
RTVSPropertyOp36
 70
     1
102
RTVSPropertyOp37
 70
     1
102
RTVSPropertyOp38
 70
     1
102
RTVSPropertyOp39
 70
     1
102
RTVSPropertyOp40
 70
     1
102
RTVSPropertyOp41
 70
     1
102
RTVSPropertyOp42
 70
     1
102
RTVSPropertyOp43
 70
     1
102
RTVSPropertyOp44
 70
     1
102
RTVSPropertyOp45
 70
     1
102
RTVSPropertyOp46
 70
     1
102
RTVSPropertyOp47
 70
     1
102
RTVSPropertyOp48
 70
     1
102
RTVSPropertyOp49
 70
     1
102
RTVSPropertyOp50
 70
     1
102
RTVSPropertyOp51
 70
     0
102
RTVSPropertyOp52
 70
     0
102
RTVSPropertyOp53
 70
     1
102
RTVSPropertyOp54
 70
     1
102
RTVSPropertyOp55
 70
     1
102
RTVSPropertyOp56
 70
     1
102
RTVSPropertyOp57
 70
     1
102
RTVSPost2010Prop28
280
     0
102
RTVSPost2010PropOp28
 70
     1
102
RTVSPost2010Prop29
280
     1
102
RTVSPost2010PropOp29
 70
     1
102
RTVSPost2010Prop30
280
     1
102
RTVSPost2010PropOp30
 70
     1
102
RTVSPost2010Prop31
280
     0
102
RTVSPost2010PropOp31
 70
     1
102
RTVSPost2010Prop32
280
     0
102
RTVSPost2010PropOp32
 70
     1
102
RTVSPost2010Prop33
280
     0
102
RTVSPost2010PropOp33
 70
     1
102
RTVSPost2010Prop34
280
     0
102
RTVSPost2010PropOp34
 70
     1
102
RTVSPost2010Prop35
280
     0
102
RTVSPost2010PropOp35
 70
     1
102
RTVSPost2010Prop36
280
     0
102
RTVSPost2010PropOp36
 70
     1
102
RTVSPost2010Prop37
 90
       50
102
RTVSPost2010PropOp37
 70
     1
102
RTVSPost2010Prop38
140
0.0
102
RTVSPost2010PropOp38
 70
     1
102
RTVSPost2010Prop39
140
1.0
102
RTVSPost2010PropOp39
 70
     1
102
RTVSPost2010Prop40
 90
        0
102
RTVSPost2010PropOp40
 70
     1
102
RTVSPost2010Prop41ColorIndex
 90
       18
102
RTVSPost2010Prop41ColorRGB
 90
        0
102
RTVSPost2010PropOp41
 70
     1
102
RTVSPost2010Prop42
 90
       50
102
RTVSPost2010PropOp42
 70
     1
102
RTVSPost2010Prop43
 90
        3
102
RTVSPost2010PropOp43
 70
     1
102
RTVSPost2010Prop44ColorIndex
 90
        5
102
RTVSPost2010Prop44ColorRGB
 90
      255
102
RTVSPost2010PropOp44
 70
     1
102
RTVSPost2010Prop45
280
     0
102
RTVSPost2010PropOp45
 70
     1
102
RTVSPost2010Prop46
 90
       50
102
RTVSPost2010PropOp46
 70
     1
102
RTVSPost2010Prop47
 90
       50
102
RTVSPost2010PropOp47
 70
     1
102
RTVSPost2010Prop48
 90
       50
102
RTVSPost2010PropOp48
 70
     1
102
RTVSPost2010Prop49
280
     0
102
RTVSPost2010PropOp49
 70
     1
102
RTVSPost2010Prop50
 90
       50
102
RTVSPost2010PropOp50
 70
     1
102
RTVSPost2010Prop51ColorIndex
 90
      256
102
RTVSPost2010Prop51ColorRGB
 90
-16777216
102
RTVSPost2010PropOp51
 70
     0
102
RTVSPost2010Prop52
140
1.0
102
RTVSPost2010PropOp52
 70
     0
102
RTVSPost2010Prop53
 90
        2
102
RTVSPost2010PropOp53
 70
     1
102
RTVSPost2010Prop54
  1
strokes_ogs.tif
102
RTVSPost2010PropOp54
 70
     1
102
RTVSPost2010Prop55
280
     0
102
RTVSPost2010PropOp55
 70
     1
102
RTVSPost2010Prop56
140
1.0
102
RTVSPost2010PropOp56
 70
     1
102
RTVSPost2010Prop57
140
1.0
102
RTVSPost2010PropOp57
 70
     1
  0
XRECORD
  5
2EE
102
{ACAD_REACTORS
330
2ED
102
}
330
2ED
100
AcDbXrecord
280
     1
102
RTVSPropertyOp0
 70
     1
102
RTVSPropertyOp1
 70
     1
102
RTVSPropertyOp2
 70
     1
102
RTVSPropertyOp3
 70
     1
102
RTVSPropertyOp4
 70
     1
102
RTVSPropertyOp5
 70
     1
102
RTVSPropertyOp6
 70
     1
102
RTVSPropertyOp7
 70
     1
102
RTVSPropertyOp8
 70
     1
102
RTVSPropertyOp9
 70
     1
102
RTVSPropertyOp10
 70
     1
102
RTVSPropertyOp11
 70
     1
102
RTVSPropertyOp12
 70
     1
102
RTVSPropertyOp13
 70
     1
102
RTVSPropertyOp14
 70
     1
102
RTVSPropertyOp15
 70
     1
102
RTVSPropertyOp16
 70
     1
102
RTVSPropertyOp17
 70
     1
102
RTVSPropertyOp18
 70
     1
102
RTVSPropertyOp19
 70
     1
102
RTVSPropertyOp20
 70
     1
102
RTVSPropertyOp21
 70
     1
102
RTVSPropertyOp22
 70
     1
102
RTVSPropertyOp23
 70
     1
102
RTVSPropertyOp24
 70
     1
102
RTVSPropertyOp25
 70
     1
102
RTVSPropertyOp26
 70
     1
102
RTVSPropertyOp27
 70
     1
102
RTVSPropertyOp28
 70
     1
102
RTVSPropertyOp29
 70
     1
102
RTVSPropertyOp30
 70
     1
102
RTVSPropertyOp31
 70
     1
102
RTVSPropertyOp32
 70
     1
102
RTVSPropertyOp33
 70
     1
102
RTVSPropertyOp34
 70
     1
102
RTVSPropertyOp35
 70
     1
102
RTVSPropertyOp36
 70
     1
102
RTVSPropertyOp37
 70
     1
102
RTVSPropertyOp38
 70
     1
102
RTVSPropertyOp39
 70
     1
102
RTVSPropertyOp40
 70
     1
102
RTVSPropertyOp41
 70
     1
102
RTVSPropertyOp42
 70
     1
102
RTVSPropertyOp43
 70
     1
102
RTVSPropertyOp44
 70
     1
102
RTVSPropertyOp45
 70
     1
102
RTVSPropertyOp46
 70
     1
102
RTVSPropertyOp47
 70
     1
102
RTVSPropertyOp48
 70
     1
102
RTVSPropertyOp49
 70
     1
102
RTVSPropertyOp50
 70
     1
102
RTVSPropertyOp51
 70
     0
102
RTVSPropertyOp52
 70
     0
102
RTVSPropertyOp53
 70
     1
102
RTVSPropertyOp54
 70
     1
102
RTVSPropertyOp55
 70
     1
102
RTVSPropertyOp56
 70
     1
102
RTVSPropertyOp57
 70
     1
102
RTVSPost2010Prop28
280
     0
102
RTVSPost2010PropOp28
 70
     1
102
RTVSPost2010Prop29
280
     1
102
RTVSPost2010PropOp29
 70
     1
102
RTVSPost2010Prop30
280
     1
102
RTVSPost2010PropOp30
 70
     1
102
RTVSPost2010Prop31
280
     0
102
RTVSPost2010PropOp31
 70
     1
102
RTVSPost2010Prop32
280
     0
102
RTVSPost2010PropOp32
 70
     1
102
RTVSPost2010Prop33
280
     0
102
RTVSPost2010PropOp33
 70
     1
102
RTVSPost2010Prop34
280
     0
102
RTVSPost2010PropOp34
 70
     1
102
RTVSPost2010Prop35
280
     0
102
RTVSPost2010PropOp35
 70
     1
102
RTVSPost2010Prop36
280
     0
102
RTVSPost2010PropOp36
 70
     1
102
RTVSPost2010Prop37
 90
       50
102
RTVSPost2010PropOp37
 70
     1
102
RTVSPost2010Prop38
140
0.0
102
RTVSPost2010PropOp38
 70
     1
102
RTVSPost2010Prop39
140
1.0
102
RTVSPost2010PropOp39
 70
     1
102
RTVSPost2010Prop40
 90
        0
102
RTVSPost2010PropOp40
 70
     1
102
RTVSPost2010Prop41ColorIndex
 90
       18
102
RTVSPost2010Prop41ColorRGB
 90
        0
102
RTVSPost2010PropOp41
 70
     1
102
RTVSPost2010Prop42
 90
       50
102
RTVSPost2010PropOp42
 70
     1
102
RTVSPost2010Prop43
 90
        3
102
RTVSPost2010PropOp43
 70
     1
102
RTVSPost2010Prop44ColorIndex
 90
        5
102
RTVSPost2010Prop44ColorRGB
 90
      255
102
RTVSPost2010PropOp44
 70
     1
102
RTVSPost2010Prop45
280
     0
102
RTVSPost2010PropOp45
 70
     1
102
RTVSPost2010Prop46
 90
       50
102
RTVSPost2010PropOp46
 70
     1
102
RTVSPost2010Prop47
 90
       50
102
RTVSPost2010PropOp47
 70
     1
102
RTVSPost2010Prop48
 90
       50
102
RTVSPost2010PropOp48
 70
     1
102
RTVSPost2010Prop49
280
     0
102
RTVSPost2010PropOp49
 70
     1
102
RTVSPost2010Prop50
 90
       50
102
RTVSPost2010PropOp50
 70
     1
102
RTVSPost2010Prop51ColorIndex
 90
      256
102
RTVSPost2010Prop51ColorRGB
 90
-16777216
102
RTVSPost2010PropOp51
 70
     0
102
RTVSPost2010Prop52
140
1.0
102
RTVSPost2010PropOp52
 70
     0
102
RTVSPost2010Prop53
 90
        2
102
RTVSPost2010PropOp53
 70
     1
102
RTVSPost2010Prop54
  1
strokes_ogs.tif
102
RTVSPost2010PropOp54
 70
     1
102
RTVSPost2010Prop55
280
     0
102
RTVSPost2010PropOp55
 70
     1
102
RTVSPost2010Prop56
140
1.0
102
RTVSPost2010PropOp56
 70
     1
102
RTVSPost2010Prop57
140
1.0
102
RTVSPost2010PropOp57
 70
     1
  0
XRECORD
  5
2FE
102
{ACAD_REACTORS
330
2FD
102
}
330
2FD
100
AcDbXrecord
280
     1
102
RTVSPropertyOp0
 70
     0
102
RTVSPropertyOp1
 70
     0
102
RTVSPropertyOp2
 70
     0
102
RTVSPropertyOp3
 70
     0
102
RTVSPropertyOp4
 70
     0
102
RTVSPropertyOp5
 70
     0
102
RTVSPropertyOp6
 70
     0
102
RTVSPropertyOp7
 70
     0
102
RTVSPropertyOp8
 70
     0
102
RTVSPropertyOp9
 70
     0
102
RTVSPropertyOp10
 70
     0
102
RTVSPropertyOp11
 70
     0
102
RTVSPropertyOp12
 70
     0
102
RTVSPropertyOp13
 70
     0
102
RTVSPropertyOp14
 70
     2
102
RTVSPropertyOp15
 70
     0
102
RTVSPropertyOp16
 70
     0
102
RTVSPropertyOp17
 70
     0
102
RTVSPropertyOp18
 70
     0
102
RTVSPropertyOp19
 70
     0
102
RTVSPropertyOp20
 70
     0
102
RTVSPropertyOp21
 70
     0
102
RTVSPropertyOp22
 70
     0
102
RTVSPropertyOp23
 70
     0
102
RTVSPropertyOp24
 70
     0
102
RTVSPropertyOp25
 70
     0
102
RTVSPropertyOp26
 70
     0
102
RTVSPropertyOp27
 70
     0
102
RTVSPropertyOp28
 70
     0
102
RTVSPropertyOp29
 70
     0
102
RTVSPropertyOp30
 70
     0
102
RTVSPropertyOp31
 70
     0
102
RTVSPropertyOp32
 70
     0
102
RTVSPropertyOp33
 70
     0
102
RTVSPropertyOp34
 70
     0
102
RTVSPropertyOp35
 70
     0
102
RTVSPropertyOp36
 70
     0
102
RTVSPropertyOp37
 70
     0
102
RTVSPropertyOp38
 70
     0
102
RTVSPropertyOp39
 70
     0
102
RTVSPropertyOp40
 70
     0
102
RTVSPropertyOp41
 70
     0
102
RTVSPropertyOp42
 70
     0
102
RTVSPropertyOp43
 70
     0
102
RTVSPropertyOp44
 70
     0
102
RTVSPropertyOp45
 70
     0
102
RTVSPropertyOp46
 70
     0
102
RTVSPropertyOp47
 70
     0
102
RTVSPropertyOp48
 70
     0
102
RTVSPropertyOp49
 70
     0
102
RTVSPropertyOp50
 70
     0
102
RTVSPropertyOp51
 70
     0
102
RTVSPropertyOp52
 70
     0
102
RTVSPropertyOp53
 70
     0
102
RTVSPropertyOp54
 70
     0
102
RTVSPropertyOp55
 70
     0
102
RTVSPropertyOp56
 70
     0
102
RTVSPropertyOp57
 70
     0
102
RTVSPost2010Prop28
280
     0
102
RTVSPost2010PropOp28
 70
     0
102
RTVSPost2010Prop29
280
     1
102
RTVSPost2010PropOp29
 70
     0
102
RTVSPost2010Prop30
280
     1
102
RTVSPost2010PropOp30
 70
     0
102
RTVSPost2010Prop31
280
     0
102
RTVSPost2010PropOp31
 70
     0
102
RTVSPost2010Prop32
280
     0
102
RTVSPost2010PropOp32
 70
     0
102
RTVSPost2010Prop33
280
     0
102
RTVSPost2010PropOp33
 70
     0
102
RTVSPost2010Prop34
280
     0
102
RTVSPost2010PropOp34
 70
     0
102
RTVSPost2010Prop35
280
     0
102
RTVSPost2010PropOp35
 70
     0
102
RTVSPost2010Prop36
280
     0
102
RTVSPost2010PropOp36
 70
     0
102
RTVSPost2010Prop37
 90
       50
102
RTVSPost2010PropOp37
 70
     0
102
RTVSPost2010Prop38
140
0.0
102
RTVSPost2010PropOp38
 70
     0
102
RTVSPost2010Prop39
140
1.0
102
RTVSPost2010PropOp39
 70
     0
102
RTVSPost2010Prop40
 90
        0
102
RTVSPost2010PropOp40
 70
     0
102
RTVSPost2010Prop41ColorIndex
 90
       18
102
RTVSPost2010Prop41ColorRGB
 90
        0
102
RTVSPost2010PropOp41
 70
     0
102
RTVSPost2010Prop42
 90
       50
102
RTVSPost2010PropOp42
 70
     0
102
RTVSPost2010Prop43
 90
        3
102
RTVSPost2010PropOp43
 70
     0
102
RTVSPost2010Prop44ColorIndex
 90
        5
102
RTVSPost2010Prop44ColorRGB
 90
      255
102
RTVSPost2010PropOp44
 70
     0
102
RTVSPost2010Prop45
280
     0
102
RTVSPost2010PropOp45
 70
     0
102
RTVSPost2010Prop46
 90
       50
102
RTVSPost2010PropOp46
 70
     0
102
RTVSPost2010Prop47
 90
       50
102
RTVSPost2010PropOp47
 70
     0
102
RTVSPost2010Prop48
 90
       50
102
RTVSPost2010PropOp48
 70
     0
102
RTVSPost2010Prop49
280
     0
102
RTVSPost2010PropOp49
 70
     0
102
RTVSPost2010Prop50
 90
       50
102
RTVSPost2010PropOp50
 70
     0
102
RTVSPost2010Prop51ColorIndex
 90
      256
102
RTVSPost2010Prop51ColorRGB
 90
-16777216
102
RTVSPost2010PropOp51
 70
     0
102
RTVSPost2010Prop52
140
1.0
102
RTVSPost2010PropOp52
 70
     0
102
RTVSPost2010Prop53
 90
        2
102
RTVSPost2010PropOp53
 70
     0
102
RTVSPost2010Prop54
  1
strokes_ogs.tif
102
RTVSPost2010PropOp54
 70
     0
102
RTVSPost2010Prop55
280
     0
102
RTVSPost2010PropOp55
 70
     0
102
RTVSPost2010Prop56
140
1.0
102
RTVSPost2010PropOp56
 70
     0
102
RTVSPost2010Prop57
140
1.0
102
RTVSPost2010PropOp57
 70
     0
  0
XRECORD
  5
2F6
102
{ACAD_REACTORS
330
2F5
102
}
330
2F5
100
AcDbXrecord
280
     1
102
RTVSPropertyOp0
 70
     1
102
RTVSPropertyOp1
 70
     1
102
RTVSPropertyOp2
 70
     1
102
RTVSPropertyOp3
 70
     1
102
RTVSPropertyOp4
 70
     1
102
RTVSPropertyOp5
 70
     1
102
RTVSPropertyOp6
 70
     1
102
RTVSPropertyOp7
 70
     1
102
RTVSPropertyOp8
 70
     1
102
RTVSPropertyOp9
 70
     1
102
RTVSPropertyOp10
 70
     1
102
RTVSPropertyOp11
 70
     1
102
RTVSPropertyOp12
 70
     1
102
RTVSPropertyOp13
 70
     1
102
RTVSPropertyOp14
 70
     1
102
RTVSPropertyOp15
 70
     1
102
RTVSPropertyOp16
 70
     1
102
RTVSPropertyOp17
 70
     1
102
RTVSPropertyOp18
 70
     1
102
RTVSPropertyOp19
 70
     1
102
RTVSPropertyOp20
 70
     1
102
RTVSPropertyOp21
 70
     1
102
RTVSPropertyOp22
 70
     1
102
RTVSPropertyOp23
 70
     1
102
RTVSPropertyOp24
 70
     1
102
RTVSPropertyOp25
 70
     1
102
RTVSPropertyOp26
 70
     1
102
RTVSPropertyOp27
 70
     1
102
RTVSPropertyOp28
 70
     1
102
RTVSPropertyOp29
 70
     1
102
RTVSPropertyOp30
 70
     1
102
RTVSPropertyOp31
 70
     1
102
RTVSPropertyOp32
 70
     1
102
RTVSPropertyOp33
 70
     1
102
RTVSPropertyOp34
 70
     1
102
RTVSPropertyOp35
 70
     1
102
RTVSPropertyOp36
 70
     1
102
RTVSPropertyOp37
 70
     1
102
RTVSPropertyOp38
 70
     1
102
RTVSPropertyOp39
 70
     1
102
RTVSPropertyOp40
 70
     1
102
RTVSPropertyOp41
 70
     1
102
RTVSPropertyOp42
 70
     1
102
RTVSPropertyOp43
 70
     1
102
RTVSPropertyOp44
 70
     1
102
RTVSPropertyOp45
 70
     1
102
RTVSPropertyOp46
 70
     1
102
RTVSPropertyOp47
 70
     1
102
RTVSPropertyOp48
 70
     1
102
RTVSPropertyOp49
 70
     1
102
RTVSPropertyOp50
 70
     1
102
RTVSPropertyOp51
 70
     0
102
RTVSPropertyOp52
 70
     0
102
RTVSPropertyOp53
 70
     1
102
RTVSPropertyOp54
 70
     1
102
RTVSPropertyOp55
 70
     1
102
RTVSPropertyOp56
 70
     1
102
RTVSPropertyOp57
 70
     1
102
RTVSPost2010Prop28
280
     0
102
RTVSPost2010PropOp28
 70
     1
102
RTVSPost2010Prop29
280
     1
102
RTVSPost2010PropOp29
 70
     1
102
RTVSPost2010Prop30
280
     1
102
RTVSPost2010PropOp30
 70
     1
102
RTVSPost2010Prop31
280
     0
102
RTVSPost2010PropOp31
 70
     1
102
RTVSPost2010Prop32
280
     0
102
RTVSPost2010PropOp32
 70
     1
102
RTVSPost2010Prop33
280
     0
102
RTVSPost2010PropOp33
 70
     1
102
RTVSPost2010Prop34
280
     0
102
RTVSPost2010PropOp34
 70
     1
102
RTVSPost2010Prop35
280
     0
102
RTVSPost2010PropOp35
 70
     1
102
RTVSPost2010Prop36
280
     0
102
RTVSPost2010PropOp36
 70
     1
102
RTVSPost2010Prop37
 90
       50
102
RTVSPost2010PropOp37
 70
     1
102
RTVSPost2010Prop38
140
0.0
102
RTVSPost2010PropOp38
 70
     1
102
RTVSPost2010Prop39
140
1.0
102
RTVSPost2010PropOp39
 70
     1
102
RTVSPost2010Prop40
 90
        0
102
RTVSPost2010PropOp40
 70
     1
102
RTVSPost2010Prop41ColorIndex
 90
       18
102
RTVSPost2010Prop41ColorRGB
 90
        0
102
RTVSPost2010PropOp41
 70
     1
102
RTVSPost2010Prop42
 90
       50
102
RTVSPost2010PropOp42
 70
     1
102
RTVSPost2010Prop43
 90
        3
102
RTVSPost2010PropOp43
 70
     1
102
RTVSPost2010Prop44ColorIndex
 90
        5
102
RTVSPost2010Prop44ColorRGB
 90
      255
102
RTVSPost2010PropOp44
 70
     1
102
RTVSPost2010Prop45
280
     0
102
RTVSPost2010PropOp45
 70
     1
102
RTVSPost2010Prop46
 90
       50
102
RTVSPost2010PropOp46
 70
     1
102
RTVSPost2010Prop47
 90
       50
102
RTVSPost2010PropOp47
 70
     1
102
RTVSPost2010Prop48
 90
       50
102
RTVSPost2010PropOp48
 70
     1
102
RTVSPost2010Prop49
280
     0
102
RTVSPost2010PropOp49
 70
     1
102
RTVSPost2010Prop50
 90
       50
102
RTVSPost2010PropOp50
 70
     1
102
RTVSPost2010Prop51ColorIndex
 90
      256
102
RTVSPost2010Prop51ColorRGB
 90
-16777216
102
RTVSPost2010PropOp51
 70
     0
102
RTVSPost2010Prop52
140
1.0
102
RTVSPost2010PropOp52
 70
     0
102
RTVSPost2010Prop53
 90
        2
102
RTVSPost2010PropOp53
 70
     1
102
RTVSPost2010Prop54
  1
strokes_ogs.tif
102
RTVSPost2010PropOp54
 70
     1
102
RTVSPost2010Prop55
280
     0
102
RTVSPost2010PropOp55
 70
     1
102
RTVSPost2010Prop56
140
1.0
102
RTVSPost2010PropOp56
 70
     1
102
RTVSPost2010Prop57
140
1.0
102
RTVSPost2010PropOp57
 70
     1
  0
XRECORD
  5
2DA
102
{ACAD_REACTORS
330
2D9
102
}
330
2D9
100
AcDbXrecord
280
     1
102
RTVSPropertyOp0
 70
     1
102
RTVSPropertyOp1
 70
     1
102
RTVSPropertyOp2
 70
     1
102
RTVSPropertyOp3
 70
     1
102
RTVSPropertyOp4
 70
     1
102
RTVSPropertyOp5
 70
     1
102
RTVSPropertyOp6
 70
     1
102
RTVSPropertyOp7
 70
     1
102
RTVSPropertyOp8
 70
     1
102
RTVSPropertyOp9
 70
     1
102
RTVSPropertyOp10
 70
     1
102
RTVSPropertyOp11
 70
     1
102
RTVSPropertyOp12
 70
     1
102
RTVSPropertyOp13
 70
     1
102
RTVSPropertyOp14
 70
     1
102
RTVSPropertyOp15
 70
     1
102
RTVSPropertyOp16
 70
     1
102
RTVSPropertyOp17
 70
     1
102
RTVSPropertyOp18
 70
     1
102
RTVSPropertyOp19
 70
     1
102
RTVSPropertyOp20
 70
     1
102
RTVSPropertyOp21
 70
     1
102
RTVSPropertyOp22
 70
     1
102
RTVSPropertyOp23
 70
     1
102
RTVSPropertyOp24
 70
     1
102
RTVSPropertyOp25
 70
     1
102
RTVSPropertyOp26
 70
     1
102
RTVSPropertyOp27
 70
     1
102
RTVSPropertyOp28
 70
     1
102
RTVSPropertyOp29
 70
     1
102
RTVSPropertyOp30
 70
     1
102
RTVSPropertyOp31
 70
     1
102
RTVSPropertyOp32
 70
     1
102
RTVSPropertyOp33
 70
     1
102
RTVSPropertyOp34
 70
     1
102
RTVSPropertyOp35
 70
     1
102
RTVSPropertyOp36
 70
     1
102
RTVSPropertyOp37
 70
     1
102
RTVSPropertyOp38
 70
     1
102
RTVSPropertyOp39
 70
     1
102
RTVSPropertyOp40
 70
     1
102
RTVSPropertyOp41
 70
     1
102
RTVSPropertyOp42
 70
     1
102
RTVSPropertyOp43
 70
     1
102
RTVSPropertyOp44
 70
     1
102
RTVSPropertyOp45
 70
     1
102
RTVSPropertyOp46
 70
     1
102
RTVSPropertyOp47
 70
     1
102
RTVSPropertyOp48
 70
     1
102
RTVSPropertyOp49
 70
     1
102
RTVSPropertyOp50
 70
     1
102
RTVSPropertyOp51
 70
     0
102
RTVSPropertyOp52
 70
     0
102
RTVSPropertyOp53
 70
     1
102
RTVSPropertyOp54
 70
     1
102
RTVSPropertyOp55
 70
     1
102
RTVSPropertyOp56
 70
     1
102
RTVSPropertyOp57
 70
     1
102
RTVSPost2010Prop28
280
     0
102
RTVSPost2010PropOp28
 70
     1
102
RTVSPost2010Prop29
280
     1
102
RTVSPost2010PropOp29
 70
     1
102
RTVSPost2010Prop30
280
     1
102
RTVSPost2010PropOp30
 70
     1
102
RTVSPost2010Prop31
280
     0
102
RTVSPost2010PropOp31
 70
     1
102
RTVSPost2010Prop32
280
     0
102
RTVSPost2010PropOp32
 70
     1
102
RTVSPost2010Prop33
280
     0
102
RTVSPost2010PropOp33
 70
     1
102
RTVSPost2010Prop34
280
     0
102
RTVSPost2010PropOp34
 70
     1
102
RTVSPost2010Prop35
280
     0
102
RTVSPost2010PropOp35
 70
     1
102
RTVSPost2010Prop36
280
     0
102
RTVSPost2010PropOp36
 70
     1
102
RTVSPost2010Prop37
 90
       50
102
RTVSPost2010PropOp37
 70
     1
102
RTVSPost2010Prop38
140
0.0
102
RTVSPost2010PropOp38
 70
     1
102
RTVSPost2010Prop39
140
1.0
102
RTVSPost2010PropOp39
 70
     1
102
RTVSPost2010Prop40
 90
        0
102
RTVSPost2010PropOp40
 70
     1
102
RTVSPost2010Prop41ColorIndex
 90
       18
102
RTVSPost2010Prop41ColorRGB
 90
        0
102
RTVSPost2010PropOp41
 70
     1
102
RTVSPost2010Prop42
 90
       50
102
RTVSPost2010PropOp42
 70
     1
102
RTVSPost2010Prop43
 90
        3
102
RTVSPost2010PropOp43
 70
     1
102
RTVSPost2010Prop44ColorIndex
 90
        5
102
RTVSPost2010Prop44ColorRGB
 90
      255
102
RTVSPost2010PropOp44
 70
     1
102
RTVSPost2010Prop45
280
     0
102
RTVSPost2010PropOp45
 70
     1
102
RTVSPost2010Prop46
 90
       50
102
RTVSPost2010PropOp46
 70
     1
102
RTVSPost2010Prop47
 90
       50
102
RTVSPost2010PropOp47
 70
     1
102
RTVSPost2010Prop48
 90
       50
102
RTVSPost2010PropOp48
 70
     1
102
RTVSPost2010Prop49
280
     0
102
RTVSPost2010PropOp49
 70
     1
102
RTVSPost2010Prop50
 90
       50
102
RTVSPost2010PropOp50
 70
     1
102
RTVSPost2010Prop51ColorIndex
 90
      256
102
RTVSPost2010Prop51ColorRGB
 90
-16777216
102
RTVSPost2010PropOp51
 70
     0
102
RTVSPost2010Prop52
140
1.0
102
RTVSPost2010PropOp52
 70
     0
102
RTVSPost2010Prop53
 90
        2
102
RTVSPost2010PropOp53
 70
     1
102
RTVSPost2010Prop54
  1
strokes_ogs.tif
102
RTVSPost2010PropOp54
 70
     1
102
RTVSPost2010Prop55
280
     0
102
RTVSPost2010PropOp55
 70
     1
102
RTVSPost2010Prop56
140
1.0
102
RTVSPost2010PropOp56
 70
     1
102
RTVSPost2010Prop57
140
1.0
102
RTVSPost2010PropOp57
 70
     1
  0
XRECORD
  5
2DC
102
{ACAD_REACTORS
330
2DB
102
}
330
2DB
100
AcDbXrecord
280
     1
102
RTVSPropertyOp0
 70
     1
102
RTVSPropertyOp1
 70
     1
102
RTVSPropertyOp2
 70
     1
102
RTVSPropertyOp3
 70
     1
102
RTVSPropertyOp4
 70
     1
102
RTVSPropertyOp5
 70
     1
102
RTVSPropertyOp6
 70
     1
102
RTVSPropertyOp7
 70
     1
102
RTVSPropertyOp8
 70
     1
102
RTVSPropertyOp9
 70
     1
102
RTVSPropertyOp10
 70
     1
102
RTVSPropertyOp11
 70
     1
102
RTVSPropertyOp12
 70
     1
102
RTVSPropertyOp13
 70
     1
102
RTVSPropertyOp14
 70
     1
102
RTVSPropertyOp15
 70
     1
102
RTVSPropertyOp16
 70
     1
102
RTVSPropertyOp17
 70
     1
102
RTVSPropertyOp18
 70
     1
102
RTVSPropertyOp19
 70
     1
102
RTVSPropertyOp20
 70
     1
102
RTVSPropertyOp21
 70
     1
102
RTVSPropertyOp22
 70
     1
102
RTVSPropertyOp23
 70
     1
102
RTVSPropertyOp24
 70
     1
102
RTVSPropertyOp25
 70
     1
102
RTVSPropertyOp26
 70
     1
102
RTVSPropertyOp27
 70
     1
102
RTVSPropertyOp28
 70
     1
102
RTVSPropertyOp29
 70
     1
102
RTVSPropertyOp30
 70
     1
102
RTVSPropertyOp31
 70
     1
102
RTVSPropertyOp32
 70
     1
102
RTVSPropertyOp33
 70
     1
102
RTVSPropertyOp34
 70
     1
102
RTVSPropertyOp35
 70
     1
102
RTVSPropertyOp36
 70
     1
102
RTVSPropertyOp37
 70
     1
102
RTVSPropertyOp38
 70
     1
102
RTVSPropertyOp39
 70
     1
102
RTVSPropertyOp40
 70
     1
102
RTVSPropertyOp41
 70
     1
102
RTVSPropertyOp42
 70
     1
102
RTVSPropertyOp43
 70
     1
102
RTVSPropertyOp44
 70
     1
102
RTVSPropertyOp45
 70
     1
102
RTVSPropertyOp46
 70
     1
102
RTVSPropertyOp47
 70
     1
102
RTVSPropertyOp48
 70
     1
102
RTVSPropertyOp49
 70
     1
102
RTVSPropertyOp50
 70
     1
102
RTVSPropertyOp51
 70
     0
102
RTVSPropertyOp52
 70
     0
102
RTVSPropertyOp53
 70
     1
102
RTVSPropertyOp54
 70
     1
102
RTVSPropertyOp55
 70
     1
102
RTVSPropertyOp56
 70
     1
102
RTVSPropertyOp57
 70
     1
102
RTVSPost2010Prop28
280
     0
102
RTVSPost2010PropOp28
 70
     1
102
RTVSPost2010Prop29
280
     1
102
RTVSPost2010PropOp29
 70
     1
102
RTVSPost2010Prop30
280
     1
102
RTVSPost2010PropOp30
 70
     1
102
RTVSPost2010Prop31
280
     0
102
RTVSPost2010PropOp31
 70
     1
102
RTVSPost2010Prop32
280
     0
102
RTVSPost2010PropOp32
 70
     1
102
RTVSPost2010Prop33
280
     0
102
RTVSPost2010PropOp33
 70
     1
102
RTVSPost2010Prop34
280
     0
102
RTVSPost2010PropOp34
 70
     1
102
RTVSPost2010Prop35
280
     0
102
RTVSPost2010PropOp35
 70
     1
102
RTVSPost2010Prop36
280
     0
102
RTVSPost2010PropOp36
 70
     1
102
RTVSPost2010Prop37
 90
       50
102
RTVSPost2010PropOp37
 70
     1
102
RTVSPost2010Prop38
140
0.0
102
RTVSPost2010PropOp38
 70
     1
102
RTVSPost2010Prop39
140
1.0
102
RTVSPost2010PropOp39
 70
     1
102
RTVSPost2010Prop40
 90
        0
102
RTVSPost2010PropOp40
 70
     1
102
RTVSPost2010Prop41ColorIndex
 90
       18
102
RTVSPost2010Prop41ColorRGB
 90
        0
102
RTVSPost2010PropOp41
 70
     1
102
RTVSPost2010Prop42
 90
       50
102
RTVSPost2010PropOp42
 70
     1
102
RTVSPost2010Prop43
 90
        3
102
RTVSPost2010PropOp43
 70
     1
102
RTVSPost2010Prop44ColorIndex
 90
        5
102
RTVSPost2010Prop44ColorRGB
 90
      255
102
RTVSPost2010PropOp44
 70
     1
102
RTVSPost2010Prop45
280
     0
102
RTVSPost2010PropOp45
 70
     1
102
RTVSPost2010Prop46
 90
       50
102
RTVSPost2010PropOp46
 70
     1
102
RTVSPost2010Prop47
 90
       50
102
RTVSPost2010PropOp47
 70
     1
102
RTVSPost2010Prop48
 90
       50
102
RTVSPost2010PropOp48
 70
     1
102
RTVSPost2010Prop49
280
     0
102
RTVSPost2010PropOp49
 70
     1
102
RTVSPost2010Prop50
 90
       50
102
RTVSPost2010PropOp50
 70
     1
102
RTVSPost2010Prop51ColorIndex
 90
      256
102
RTVSPost2010Prop51ColorRGB
 90
-16777216
102
RTVSPost2010PropOp51
 70
     0
102
RTVSPost2010Prop52
140
1.0
102
RTVSPost2010PropOp52
 70
     0
102
RTVSPost2010Prop53
 90
        2
102
RTVSPost2010PropOp53
 70
     1
102
RTVSPost2010Prop54
  1
strokes_ogs.tif
102
RTVSPost2010PropOp54
 70
     1
102
RTVSPost2010Prop55
280
     0
102
RTVSPost2010PropOp55
 70
     1
102
RTVSPost2010Prop56
140
1.0
102
RTVSPost2010PropOp56
 70
     1
102
RTVSPost2010Prop57
140
1.0
102
RTVSPost2010PropOp57
 70
     1
  0
XRECORD
  5
2DE
102
{ACAD_REACTORS
330
2DD
102
}
330
2DD
100
AcDbXrecord
280
     1
102
RTVSPropertyOp0
 70
     1
102
RTVSPropertyOp1
 70
     1
102
RTVSPropertyOp2
 70
     1
102
RTVSPropertyOp3
 70
     1
102
RTVSPropertyOp4
 70
     1
102
RTVSPropertyOp5
 70
     1
102
RTVSPropertyOp6
 70
     1
102
RTVSPropertyOp7
 70
     1
102
RTVSPropertyOp8
 70
     1
102
RTVSPropertyOp9
 70
     1
102
RTVSPropertyOp10
 70
     1
102
RTVSPropertyOp11
 70
     1
102
RTVSPropertyOp12
 70
     1
102
RTVSPropertyOp13
 70
     1
102
RTVSPropertyOp14
 70
     1
102
RTVSPropertyOp15
 70
     1
102
RTVSPropertyOp16
 70
     1
102
RTVSPropertyOp17
 70
     1
102
RTVSPropertyOp18
 70
     1
102
RTVSPropertyOp19
 70
     1
102
RTVSPropertyOp20
 70
     1
102
RTVSPropertyOp21
 70
     1
102
RTVSPropertyOp22
 70
     1
102
RTVSPropertyOp23
 70
     1
102
RTVSPropertyOp24
 70
     1
102
RTVSPropertyOp25
 70
     1
102
RTVSPropertyOp26
 70
     1
102
RTVSPropertyOp27
 70
     1
102
RTVSPropertyOp28
 70
     1
102
RTVSPropertyOp29
 70
     1
102
RTVSPropertyOp30
 70
     1
102
RTVSPropertyOp31
 70
     1
102
RTVSPropertyOp32
 70
     1
102
RTVSPropertyOp33
 70
     1
102
RTVSPropertyOp34
 70
     1
102
RTVSPropertyOp35
 70
     1
102
RTVSPropertyOp36
 70
     1
102
RTVSPropertyOp37
 70
     1
102
RTVSPropertyOp38
 70
     1
102
RTVSPropertyOp39
 70
     1
102
RTVSPropertyOp40
 70
     1
102
RTVSPropertyOp41
 70
     1
102
RTVSPropertyOp42
 70
     1
102
RTVSPropertyOp43
 70
     1
102
RTVSPropertyOp44
 70
     1
102
RTVSPropertyOp45
 70
     1
102
RTVSPropertyOp46
 70
     1
102
RTVSPropertyOp47
 70
     1
102
RTVSPropertyOp48
 70
     1
102
RTVSPropertyOp49
 70
     1
102
RTVSPropertyOp50
 70
     1
102
RTVSPropertyOp51
 70
     0
102
RTVSPropertyOp52
 70
     0
102
RTVSPropertyOp53
 70
     1
102
RTVSPropertyOp54
 70
     1
102
RTVSPropertyOp55
 70
     1
102
RTVSPropertyOp56
 70
     1
102
RTVSPropertyOp57
 70
     1
102
RTVSPost2010Prop28
280
     0
102
RTVSPost2010PropOp28
 70
     1
102
RTVSPost2010Prop29
280
     1
102
RTVSPost2010PropOp29
 70
     1
102
RTVSPost2010Prop30
280
     1
102
RTVSPost2010PropOp30
 70
     1
102
RTVSPost2010Prop31
280
     0
102
RTVSPost2010PropOp31
 70
     1
102
RTVSPost2010Prop32
280
     0
102
RTVSPost2010PropOp32
 70
     1
102
RTVSPost2010Prop33
280
     0
102
RTVSPost2010PropOp33
 70
     1
102
RTVSPost2010Prop34
280
     0
102
RTVSPost2010PropOp34
 70
     1
102
RTVSPost2010Prop35
280
     0
102
RTVSPost2010PropOp35
 70
     1
102
RTVSPost2010Prop36
280
     0
102
RTVSPost2010PropOp36
 70
     1
102
RTVSPost2010Prop37
 90
       50
102
RTVSPost2010PropOp37
 70
     1
102
RTVSPost2010Prop38
140
0.0
102
RTVSPost2010PropOp38
 70
     1
102
RTVSPost2010Prop39
140
1.0
102
RTVSPost2010PropOp39
 70
     1
102
RTVSPost2010Prop40
 90
        0
102
RTVSPost2010PropOp40
 70
     1
102
RTVSPost2010Prop41ColorIndex
 90
       18
102
RTVSPost2010Prop41ColorRGB
 90
        0
102
RTVSPost2010PropOp41
 70
     1
102
RTVSPost2010Prop42
 90
       50
102
RTVSPost2010PropOp42
 70
     1
102
RTVSPost2010Prop43
 90
        3
102
RTVSPost2010PropOp43
 70
     1
102
RTVSPost2010Prop44ColorIndex
 90
        5
102
RTVSPost2010Prop44ColorRGB
 90
      255
102
RTVSPost2010PropOp44
 70
     1
102
RTVSPost2010Prop45
280
     0
102
RTVSPost2010PropOp45
 70
     1
102
RTVSPost2010Prop46
 90
       50
102
RTVSPost2010PropOp46
 70
     1
102
RTVSPost2010Prop47
 90
       50
102
RTVSPost2010PropOp47
 70
     1
102
RTVSPost2010Prop48
 90
       50
102
RTVSPost2010PropOp48
 70
     1
102
RTVSPost2010Prop49
280
     0
102
RTVSPost2010PropOp49
 70
     1
102
RTVSPost2010Prop50
 90
       50
102
RTVSPost2010PropOp50
 70
     1
102
RTVSPost2010Prop51ColorIndex
 90
      256
102
RTVSPost2010Prop51ColorRGB
 90
-16777216
102
RTVSPost2010PropOp51
 70
     0
102
RTVSPost2010Prop52
140
1.0
102
RTVSPost2010PropOp52
 70
     0
102
RTVSPost2010Prop53
 90
        2
102
RTVSPost2010PropOp53
 70
     1
102
RTVSPost2010Prop54
  1
strokes_ogs.tif
102
RTVSPost2010PropOp54
 70
     1
102
RTVSPost2010Prop55
280
     0
102
RTVSPost2010PropOp55
 70
     1
102
RTVSPost2010Prop56
140
1.0
102
RTVSPost2010PropOp56
 70
     1
102
RTVSPost2010Prop57
140
1.0
102
RTVSPost2010PropOp57
 70
     1
  0
XRECORD
  5
2E0
102
{ACAD_REACTORS
330
2DF
102
}
330
2DF
100
AcDbXrecord
280
     1
102
RTVSPropertyOp0
 70
     1
102
RTVSPropertyOp1
 70
     1
102
RTVSPropertyOp2
 70
     1
102
RTVSPropertyOp3
 70
     1
102
RTVSPropertyOp4
 70
     1
102
RTVSPropertyOp5
 70
     1
102
RTVSPropertyOp6
 70
     1
102
RTVSPropertyOp7
 70
     1
102
RTVSPropertyOp8
 70
     1
102
RTVSPropertyOp9
 70
     1
102
RTVSPropertyOp10
 70
     1
102
RTVSPropertyOp11
 70
     1
102
RTVSPropertyOp12
 70
     1
102
RTVSPropertyOp13
 70
     1
102
RTVSPropertyOp14
 70
     1
102
RTVSPropertyOp15
 70
     1
102
RTVSPropertyOp16
 70
     1
102
RTVSPropertyOp17
 70
     1
102
RTVSPropertyOp18
 70
     1
102
RTVSPropertyOp19
 70
     1
102
RTVSPropertyOp20
 70
     1
102
RTVSPropertyOp21
 70
     1
102
RTVSPropertyOp22
 70
     1
102
RTVSPropertyOp23
 70
     1
102
RTVSPropertyOp24
 70
     1
102
RTVSPropertyOp25
 70
     1
102
RTVSPropertyOp26
 70
     1
102
RTVSPropertyOp27
 70
     1
102
RTVSPropertyOp28
 70
     1
102
RTVSPropertyOp29
 70
     1
102
RTVSPropertyOp30
 70
     1
102
RTVSPropertyOp31
 70
     1
102
RTVSPropertyOp32
 70
     1
102
RTVSPropertyOp33
 70
     1
102
RTVSPropertyOp34
 70
     1
102
RTVSPropertyOp35
 70
     1
102
RTVSPropertyOp36
 70
     1
102
RTVSPropertyOp37
 70
     1
102
RTVSPropertyOp38
 70
     1
102
RTVSPropertyOp39
 70
     1
102
RTVSPropertyOp40
 70
     1
102
RTVSPropertyOp41
 70
     1
102
RTVSPropertyOp42
 70
     1
102
RTVSPropertyOp43
 70
     1
102
RTVSPropertyOp44
 70
     1
102
RTVSPropertyOp45
 70
     1
102
RTVSPropertyOp46
 70
     1
102
RTVSPropertyOp47
 70
     1
102
RTVSPropertyOp48
 70
     1
102
RTVSPropertyOp49
 70
     1
102
RTVSPropertyOp50
 70
     1
102
RTVSPropertyOp51
 70
     0
102
RTVSPropertyOp52
 70
     0
102
RTVSPropertyOp53
 70
     1
102
RTVSPropertyOp54
 70
     1
102
RTVSPropertyOp55
 70
     1
102
RTVSPropertyOp56
 70
     1
102
RTVSPropertyOp57
 70
     1
102
RTVSPost2010Prop28
280
     0
102
RTVSPost2010PropOp28
 70
     1
102
RTVSPost2010Prop29
280
     1
102
RTVSPost2010PropOp29
 70
     1
102
RTVSPost2010Prop30
280
     1
102
RTVSPost2010PropOp30
 70
     1
102
RTVSPost2010Prop31
280
     0
102
RTVSPost2010PropOp31
 70
     1
102
RTVSPost2010Prop32
280
     0
102
RTVSPost2010PropOp32
 70
     1
102
RTVSPost2010Prop33
280
     0
102
RTVSPost2010PropOp33
 70
     1
102
RTVSPost2010Prop34
280
     0
102
RTVSPost2010PropOp34
 70
     1
102
RTVSPost2010Prop35
280
     0
102
RTVSPost2010PropOp35
 70
     1
102
RTVSPost2010Prop36
280
     0
102
RTVSPost2010PropOp36
 70
     1
102
RTVSPost2010Prop37
 90
       50
102
RTVSPost2010PropOp37
 70
     1
102
RTVSPost2010Prop38
140
0.0
102
RTVSPost2010PropOp38
 70
     1
102
RTVSPost2010Prop39
140
1.0
102
RTVSPost2010PropOp39
 70
     1
102
RTVSPost2010Prop40
 90
        0
102
RTVSPost2010PropOp40
 70
     1
102
RTVSPost2010Prop41ColorIndex
 90
       18
102
RTVSPost2010Prop41ColorRGB
 90
        0
102
RTVSPost2010PropOp41
 70
     1
102
RTVSPost2010Prop42
 90
       50
102
RTVSPost2010PropOp42
 70
     1
102
RTVSPost2010Prop43
 90
        3
102
RTVSPost2010PropOp43
 70
     1
102
RTVSPost2010Prop44ColorIndex
 90
        5
102
RTVSPost2010Prop44ColorRGB
 90
      255
102
RTVSPost2010PropOp44
 70
     1
102
RTVSPost2010Prop45
280
     0
102
RTVSPost2010PropOp45
 70
     1
102
RTVSPost2010Prop46
 90
       50
102
RTVSPost2010PropOp46
 70
     1
102
RTVSPost2010Prop47
 90
       50
102
RTVSPost2010PropOp47
 70
     1
102
RTVSPost2010Prop48
 90
       50
102
RTVSPost2010PropOp48
 70
     1
102
RTVSPost2010Prop49
280
     0
102
RTVSPost2010PropOp49
 70
     1
102
RTVSPost2010Prop50
 90
       50
102
RTVSPost2010PropOp50
 70
     1
102
RTVSPost2010Prop51ColorIndex
 90
      256
102
RTVSPost2010Prop51ColorRGB
 90
-16777216
102
RTVSPost2010PropOp51
 70
     0
102
RTVSPost2010Prop52
140
1.0
102
RTVSPost2010PropOp52
 70
     0
102
RTVSPost2010Prop53
 90
        2
102
RTVSPost2010PropOp53
 70
     1
102
RTVSPost2010Prop54
  1
strokes_ogs.tif
102
RTVSPost2010PropOp54
 70
     1
102
RTVSPost2010Prop55
280
     0
102
RTVSPost2010PropOp55
 70
     1
102
RTVSPost2010Prop56
140
1.0
102
RTVSPost2010PropOp56
 70
     1
102
RTVSPost2010Prop57
140
1.0
102
RTVSPost2010PropOp57
 70
     1
  0
XRECORD
  5
2E6
102
{ACAD_REACTORS
330
2E5
102
}
330
2E5
100
AcDbXrecord
280
     1
102
RTVSPropertyOp0
 70
     1
102
RTVSPropertyOp1
 70
     1
102
RTVSPropertyOp2
 70
     1
102
RTVSPropertyOp3
 70
     1
102
RTVSPropertyOp4
 70
     1
102
RTVSPropertyOp5
 70
     1
102
RTVSPropertyOp6
 70
     1
102
RTVSPropertyOp7
 70
     1
102
RTVSPropertyOp8
 70
     1
102
RTVSPropertyOp9
 70
     1
102
RTVSPropertyOp10
 70
     1
102
RTVSPropertyOp11
 70
     1
102
RTVSPropertyOp12
 70
     1
102
RTVSPropertyOp13
 70
     1
102
RTVSPropertyOp14
 70
     1
102
RTVSPropertyOp15
 70
     1
102
RTVSPropertyOp16
 70
     1
102
RTVSPropertyOp17
 70
     1
102
RTVSPropertyOp18
 70
     1
102
RTVSPropertyOp19
 70
     1
102
RTVSPropertyOp20
 70
     1
102
RTVSPropertyOp21
 70
     1
102
RTVSPropertyOp22
 70
     1
102
RTVSPropertyOp23
 70
     1
102
RTVSPropertyOp24
 70
     1
102
RTVSPropertyOp25
 70
     1
102
RTVSPropertyOp26
 70
     1
102
RTVSPropertyOp27
 70
     1
102
RTVSPropertyOp28
 70
     1
102
RTVSPropertyOp29
 70
     1
102
RTVSPropertyOp30
 70
     1
102
RTVSPropertyOp31
 70
     1
102
RTVSPropertyOp32
 70
     1
102
RTVSPropertyOp33
 70
     1
102
RTVSPropertyOp34
 70
     1
102
RTVSPropertyOp35
 70
     1
102
RTVSPropertyOp36
 70
     1
102
RTVSPropertyOp37
 70
     1
102
RTVSPropertyOp38
 70
     1
102
RTVSPropertyOp39
 70
     1
102
RTVSPropertyOp40
 70
     1
102
RTVSPropertyOp41
 70
     1
102
RTVSPropertyOp42
 70
     1
102
RTVSPropertyOp43
 70
     1
102
RTVSPropertyOp44
 70
     1
102
RTVSPropertyOp45
 70
     1
102
RTVSPropertyOp46
 70
     1
102
RTVSPropertyOp47
 70
     1
102
RTVSPropertyOp48
 70
     1
102
RTVSPropertyOp49
 70
     1
102
RTVSPropertyOp50
 70
     1
102
RTVSPropertyOp51
 70
     0
102
RTVSPropertyOp52
 70
     0
102
RTVSPropertyOp53
 70
     1
102
RTVSPropertyOp54
 70
     1
102
RTVSPropertyOp55
 70
     1
102
RTVSPropertyOp56
 70
     1
102
RTVSPropertyOp57
 70
     1
102
RTVSPost2010Prop28
280
     0
102
RTVSPost2010PropOp28
 70
     1
102
RTVSPost2010Prop29
280
     1
102
RTVSPost2010PropOp29
 70
     1
102
RTVSPost2010Prop30
280
     1
102
RTVSPost2010PropOp30
 70
     1
102
RTVSPost2010Prop31
280
     0
102
RTVSPost2010PropOp31
 70
     1
102
RTVSPost2010Prop32
280
     0
102
RTVSPost2010PropOp32
 70
     1
102
RTVSPost2010Prop33
280
     0
102
RTVSPost2010PropOp33
 70
     1
102
RTVSPost2010Prop34
280
     0
102
RTVSPost2010PropOp34
 70
     1
102
RTVSPost2010Prop35
280
     0
102
RTVSPost2010PropOp35
 70
     1
102
RTVSPost2010Prop36
280
     0
102
RTVSPost2010PropOp36
 70
     1
102
RTVSPost2010Prop37
 90
       50
102
RTVSPost2010PropOp37
 70
     1
102
RTVSPost2010Prop38
140
0.0
102
RTVSPost2010PropOp38
 70
     1
102
RTVSPost2010Prop39
140
1.0
102
RTVSPost2010PropOp39
 70
     1
102
RTVSPost2010Prop40
 90
        0
102
RTVSPost2010PropOp40
 70
     1
102
RTVSPost2010Prop41ColorIndex
 90
       18
102
RTVSPost2010Prop41ColorRGB
 90
        0
102
RTVSPost2010PropOp41
 70
     1
102
RTVSPost2010Prop42
 90
       50
102
RTVSPost2010PropOp42
 70
     1
102
RTVSPost2010Prop43
 90
        3
102
RTVSPost2010PropOp43
 70
     1
102
RTVSPost2010Prop44ColorIndex
 90
        5
102
RTVSPost2010Prop44ColorRGB
 90
      255
102
RTVSPost2010PropOp44
 70
     1
102
RTVSPost2010Prop45
280
     0
102
RTVSPost2010PropOp45
 70
     1
102
RTVSPost2010Prop46
 90
       50
102
RTVSPost2010PropOp46
 70
     1
102
RTVSPost2010Prop47
 90
       50
102
RTVSPost2010PropOp47
 70
     1
102
RTVSPost2010Prop48
 90
       50
102
RTVSPost2010PropOp48
 70
     1
102
RTVSPost2010Prop49
280
     0
102
RTVSPost2010PropOp49
 70
     1
102
RTVSPost2010Prop50
 90
       50
102
RTVSPost2010PropOp50
 70
     1
102
RTVSPost2010Prop51ColorIndex
 90
      256
102
RTVSPost2010Prop51ColorRGB
 90
-16777216
102
RTVSPost2010PropOp51
 70
     0
102
RTVSPost2010Prop52
140
1.0
102
RTVSPost2010PropOp52
 70
     0
102
RTVSPost2010Prop53
 90
        2
102
RTVSPost2010PropOp53
 70
     1
102
RTVSPost2010Prop54
  1
strokes_ogs.tif
102
RTVSPost2010PropOp54
 70
     1
102
RTVSPost2010Prop55
280
     0
102
RTVSPost2010PropOp55
 70
     1
102
RTVSPost2010Prop56
140
1.0
102
RTVSPost2010PropOp56
 70
     1
102
RTVSPost2010Prop57
140
1.0
102
RTVSPost2010PropOp57
 70
     1
  0
XRECORD
  5
2FA
102
{ACAD_REACTORS
330
2F9
102
}
330
2F9
100
AcDbXrecord
280
     1
102
RTVSPropertyOp0
 70
     0
102
RTVSPropertyOp1
 70
     0
102
RTVSPropertyOp2
 70
     0
102
RTVSPropertyOp3
 70
     0
102
RTVSPropertyOp4
 70
     0
102
RTVSPropertyOp5
 70
     0
102
RTVSPropertyOp6
 70
     0
102
RTVSPropertyOp7
 70
     0
102
RTVSPropertyOp8
 70
     0
102
RTVSPropertyOp9
 70
     0
102
RTVSPropertyOp10
 70
     0
102
RTVSPropertyOp11
 70
     0
102
RTVSPropertyOp12
 70
     0
102
RTVSPropertyOp13
 70
     0
102
RTVSPropertyOp14
 70
     2
102
RTVSPropertyOp15
 70
     0
102
RTVSPropertyOp16
 70
     0
102
RTVSPropertyOp17
 70
     0
102
RTVSPropertyOp18
 70
     0
102
RTVSPropertyOp19
 70
     0
102
RTVSPropertyOp20
 70
     0
102
RTVSPropertyOp21
 70
     0
102
RTVSPropertyOp22
 70
     0
102
RTVSPropertyOp23
 70
     0
102
RTVSPropertyOp24
 70
     0
102
RTVSPropertyOp25
 70
     0
102
RTVSPropertyOp26
 70
     0
102
RTVSPropertyOp27
 70
     0
102
RTVSPropertyOp28
 70
     0
102
RTVSPropertyOp29
 70
     0
102
RTVSPropertyOp30
 70
     0
102
RTVSPropertyOp31
 70
     0
102
RTVSPropertyOp32
 70
     0
102
RTVSPropertyOp33
 70
     0
102
RTVSPropertyOp34
 70
     0
102
RTVSPropertyOp35
 70
     0
102
RTVSPropertyOp36
 70
     0
102
RTVSPropertyOp37
 70
     0
102
RTVSPropertyOp38
 70
     0
102
RTVSPropertyOp39
 70
     0
102
RTVSPropertyOp40
 70
     0
102
RTVSPropertyOp41
 70
     0
102
RTVSPropertyOp42
 70
     0
102
RTVSPropertyOp43
 70
     0
102
RTVSPropertyOp44
 70
     0
102
RTVSPropertyOp45
 70
     0
102
RTVSPropertyOp46
 70
     0
102
RTVSPropertyOp47
 70
     0
102
RTVSPropertyOp48
 70
     0
102
RTVSPropertyOp49
 70
     0
102
RTVSPropertyOp50
 70
     0
102
RTVSPropertyOp51
 70
     0
102
RTVSPropertyOp52
 70
     0
102
RTVSPropertyOp53
 70
     0
102
RTVSPropertyOp54
 70
     0
102
RTVSPropertyOp55
 70
     0
102
RTVSPropertyOp56
 70
     0
102
RTVSPropertyOp57
 70
     0
102
RTVSPost2010Prop28
280
     0
102
RTVSPost2010PropOp28
 70
     0
102
RTVSPost2010Prop29
280
     1
102
RTVSPost2010PropOp29
 70
     0
102
RTVSPost2010Prop30
280
     1
102
RTVSPost2010PropOp30
 70
     0
102
RTVSPost2010Prop31
280
     0
102
RTVSPost2010PropOp31
 70
     0
102
RTVSPost2010Prop32
280
     0
102
RTVSPost2010PropOp32
 70
     0
102
RTVSPost2010Prop33
280
     0
102
RTVSPost2010PropOp33
 70
     0
102
RTVSPost2010Prop34
280
     0
102
RTVSPost2010PropOp34
 70
     0
102
RTVSPost2010Prop35
280
     0
102
RTVSPost2010PropOp35
 70
     0
102
RTVSPost2010Prop36
280
     0
102
RTVSPost2010PropOp36
 70
     0
102
RTVSPost2010Prop37
 90
       50
102
RTVSPost2010PropOp37
 70
     0
102
RTVSPost2010Prop38
140
0.0
102
RTVSPost2010PropOp38
 70
     0
102
RTVSPost2010Prop39
140
1.0
102
RTVSPost2010PropOp39
 70
     0
102
RTVSPost2010Prop40
 90
        0
102
RTVSPost2010PropOp40
 70
     0
102
RTVSPost2010Prop41ColorIndex
 90
       18
102
RTVSPost2010Prop41ColorRGB
 90
        0
102
RTVSPost2010PropOp41
 70
     0
102
RTVSPost2010Prop42
 90
       50
102
RTVSPost2010PropOp42
 70
     0
102
RTVSPost2010Prop43
 90
        3
102
RTVSPost2010PropOp43
 70
     0
102
RTVSPost2010Prop44ColorIndex
 90
        5
102
RTVSPost2010Prop44ColorRGB
 90
      255
102
RTVSPost2010PropOp44
 70
     0
102
RTVSPost2010Prop45
280
     0
102
RTVSPost2010PropOp45
 70
     0
102
RTVSPost2010Prop46
 90
       50
102
RTVSPost2010PropOp46
 70
     0
102
RTVSPost2010Prop47
 90
       50
102
RTVSPost2010PropOp47
 70
     0
102
RTVSPost2010Prop48
 90
       50
102
RTVSPost2010PropOp48
 70
     0
102
RTVSPost2010Prop49
280
     0
102
RTVSPost2010PropOp49
 70
     0
102
RTVSPost2010Prop50
 90
       50
102
RTVSPost2010PropOp50
 70
     0
102
RTVSPost2010Prop51ColorIndex
 90
      256
102
RTVSPost2010Prop51ColorRGB
 90
-16777216
102
RTVSPost2010PropOp51
 70
     0
102
RTVSPost2010Prop52
140
1.0
102
RTVSPost2010PropOp52
 70
     0
102
RTVSPost2010Prop53
 90
        2
102
RTVSPost2010PropOp53
 70
     0
102
RTVSPost2010Prop54
  1
strokes_ogs.tif
102
RTVSPost2010PropOp54
 70
     0
102
RTVSPost2010Prop55
280
     0
102
RTVSPost2010PropOp55
 70
     0
102
RTVSPost2010Prop56
140
1.0
102
RTVSPost2010PropOp56
 70
     0
102
RTVSPost2010Prop57
140
1.0
102
RTVSPost2010PropOp57
 70
     0
  0
XRECORD
  5
2F4
102
{ACAD_REACTORS
330
2F3
102
}
330
2F3
100
AcDbXrecord
280
     1
102
RTVSPropertyOp0
 70
     1
102
RTVSPropertyOp1
 70
     1
102
RTVSPropertyOp2
 70
     1
102
RTVSPropertyOp3
 70
     1
102
RTVSPropertyOp4
 70
     1
102
RTVSPropertyOp5
 70
     1
102
RTVSPropertyOp6
 70
     1
102
RTVSPropertyOp7
 70
     1
102
RTVSPropertyOp8
 70
     1
102
RTVSPropertyOp9
 70
     1
102
RTVSPropertyOp10
 70
     1
102
RTVSPropertyOp11
 70
     1
102
RTVSPropertyOp12
 70
     1
102
RTVSPropertyOp13
 70
     1
102
RTVSPropertyOp14
 70
     1
102
RTVSPropertyOp15
 70
     1
102
RTVSPropertyOp16
 70
     1
102
RTVSPropertyOp17
 70
     1
102
RTVSPropertyOp18
 70
     1
102
RTVSPropertyOp19
 70
     1
102
RTVSPropertyOp20
 70
     1
102
RTVSPropertyOp21
 70
     1
102
RTVSPropertyOp22
 70
     1
102
RTVSPropertyOp23
 70
     1
102
RTVSPropertyOp24
 70
     1
102
RTVSPropertyOp25
 70
     1
102
RTVSPropertyOp26
 70
     1
102
RTVSPropertyOp27
 70
     1
102
RTVSPropertyOp28
 70
     1
102
RTVSPropertyOp29
 70
     1
102
RTVSPropertyOp30
 70
     1
102
RTVSPropertyOp31
 70
     1
102
RTVSPropertyOp32
 70
     1
102
RTVSPropertyOp33
 70
     1
102
RTVSPropertyOp34
 70
     1
102
RTVSPropertyOp35
 70
     1
102
RTVSPropertyOp36
 70
     1
102
RTVSPropertyOp37
 70
     1
102
RTVSPropertyOp38
 70
     1
102
RTVSPropertyOp39
 70
     1
102
RTVSPropertyOp40
 70
     1
102
RTVSPropertyOp41
 70
     1
102
RTVSPropertyOp42
 70
     1
102
RTVSPropertyOp43
 70
     1
102
RTVSPropertyOp44
 70
     1
102
RTVSPropertyOp45
 70
     1
102
RTVSPropertyOp46
 70
     1
102
RTVSPropertyOp47
 70
     1
102
RTVSPropertyOp48
 70
     1
102
RTVSPropertyOp49
 70
     1
102
RTVSPropertyOp50
 70
     1
102
RTVSPropertyOp51
 70
     0
102
RTVSPropertyOp52
 70
     0
102
RTVSPropertyOp53
 70
     1
102
RTVSPropertyOp54
 70
     1
102
RTVSPropertyOp55
 70
     1
102
RTVSPropertyOp56
 70
     1
102
RTVSPropertyOp57
 70
     1
102
RTVSPost2010Prop28
280
     0
102
RTVSPost2010PropOp28
 70
     1
102
RTVSPost2010Prop29
280
     1
102
RTVSPost2010PropOp29
 70
     1
102
RTVSPost2010Prop30
280
     1
102
RTVSPost2010PropOp30
 70
     1
102
RTVSPost2010Prop31
280
     0
102
RTVSPost2010PropOp31
 70
     1
102
RTVSPost2010Prop32
280
     0
102
RTVSPost2010PropOp32
 70
     1
102
RTVSPost2010Prop33
280
     0
102
RTVSPost2010PropOp33
 70
     1
102
RTVSPost2010Prop34
280
     0
102
RTVSPost2010PropOp34
 70
     1
102
RTVSPost2010Prop35
280
     0
102
RTVSPost2010PropOp35
 70
     1
102
RTVSPost2010Prop36
280
     0
102
RTVSPost2010PropOp36
 70
     1
102
RTVSPost2010Prop37
 90
       50
102
RTVSPost2010PropOp37
 70
     1
102
RTVSPost2010Prop38
140
0.0
102
RTVSPost2010PropOp38
 70
     1
102
RTVSPost2010Prop39
140
1.0
102
RTVSPost2010PropOp39
 70
     1
102
RTVSPost2010Prop40
 90
        0
102
RTVSPost2010PropOp40
 70
     1
102
RTVSPost2010Prop41ColorIndex
 90
       18
102
RTVSPost2010Prop41ColorRGB
 90
        0
102
RTVSPost2010PropOp41
 70
     1
102
RTVSPost2010Prop42
 90
       50
102
RTVSPost2010PropOp42
 70
     1
102
RTVSPost2010Prop43
 90
        3
102
RTVSPost2010PropOp43
 70
     1
102
RTVSPost2010Prop44ColorIndex
 90
        5
102
RTVSPost2010Prop44ColorRGB
 90
      255
102
RTVSPost2010PropOp44
 70
     1
102
RTVSPost2010Prop45
280
     0
102
RTVSPost2010PropOp45
 70
     1
102
RTVSPost2010Prop46
 90
       50
102
RTVSPost2010PropOp46
 70
     1
102
RTVSPost2010Prop47
 90
       50
102
RTVSPost2010PropOp47
 70
     1
102
RTVSPost2010Prop48
 90
       50
102
RTVSPost2010PropOp48
 70
     1
102
RTVSPost2010Prop49
280
     0
102
RTVSPost2010PropOp49
 70
     1
102
RTVSPost2010Prop50
 90
       50
102
RTVSPost2010PropOp50
 70
     1
102
RTVSPost2010Prop51ColorIndex
 90
      256
102
RTVSPost2010Prop51ColorRGB
 90
-16777216
102
RTVSPost2010PropOp51
 70
     0
102
RTVSPost2010Prop52
140
1.0
102
RTVSPost2010PropOp52
 70
     0
102
RTVSPost2010Prop53
 90
        2
102
RTVSPost2010PropOp53
 70
     1
102
RTVSPost2010Prop54
  1
strokes_ogs.tif
102
RTVSPost2010PropOp54
 70
     1
102
RTVSPost2010Prop55
280
     0
102
RTVSPost2010PropOp55
 70
     1
102
RTVSPost2010Prop56
140
1.0
102
RTVSPost2010PropOp56
 70
     1
102
RTVSPost2010Prop57
140
1.0
102
RTVSPost2010PropOp57
 70
     1
  0
XRECORD
  5
2FC
102
{ACAD_REACTORS
330
2FB
102
}
330
2FB
100
AcDbXrecord
280
     1
102
RTVSPropertyOp0
 70
     0
102
RTVSPropertyOp1
 70
     0
102
RTVSPropertyOp2
 70
     0
102
RTVSPropertyOp3
 70
     0
102
RTVSPropertyOp4
 70
     0
102
RTVSPropertyOp5
 70
     0
102
RTVSPropertyOp6
 70
     0
102
RTVSPropertyOp7
 70
     0
102
RTVSPropertyOp8
 70
     0
102
RTVSPropertyOp9
 70
     0
102
RTVSPropertyOp10
 70
     0
102
RTVSPropertyOp11
 70
     0
102
RTVSPropertyOp12
 70
     0
102
RTVSPropertyOp13
 70
     0
102
RTVSPropertyOp14
 70
     2
102
RTVSPropertyOp15
 70
     0
102
RTVSPropertyOp16
 70
     0
102
RTVSPropertyOp17
 70
     0
102
RTVSPropertyOp18
 70
     0
102
RTVSPropertyOp19
 70
     0
102
RTVSPropertyOp20
 70
     0
102
RTVSPropertyOp21
 70
     0
102
RTVSPropertyOp22
 70
     0
102
RTVSPropertyOp23
 70
     0
102
RTVSPropertyOp24
 70
     0
102
RTVSPropertyOp25
 70
     0
102
RTVSPropertyOp26
 70
     0
102
RTVSPropertyOp27
 70
     0
102
RTVSPropertyOp28
 70
     0
102
RTVSPropertyOp29
 70
     0
102
RTVSPropertyOp30
 70
     0
102
RTVSPropertyOp31
 70
     0
102
RTVSPropertyOp32
 70
     0
102
RTVSPropertyOp33
 70
     0
102
RTVSPropertyOp34
 70
     0
102
RTVSPropertyOp35
 70
     0
102
RTVSPropertyOp36
 70
     0
102
RTVSPropertyOp37
 70
     0
102
RTVSPropertyOp38
 70
     0
102
RTVSPropertyOp39
 70
     0
102
RTVSPropertyOp40
 70
     0
102
RTVSPropertyOp41
 70
     0
102
RTVSPropertyOp42
 70
     0
102
RTVSPropertyOp43
 70
     0
102
RTVSPropertyOp44
 70
     0
102
RTVSPropertyOp45
 70
     0
102
RTVSPropertyOp46
 70
     0
102
RTVSPropertyOp47
 70
     0
102
RTVSPropertyOp48
 70
     0
102
RTVSPropertyOp49
 70
     0
102
RTVSPropertyOp50
 70
     0
102
RTVSPropertyOp51
 70
     0
102
RTVSPropertyOp52
 70
     0
102
RTVSPropertyOp53
 70
     0
102
RTVSPropertyOp54
 70
     0
102
RTVSPropertyOp55
 70
     0
102
RTVSPropertyOp56
 70
     0
102
RTVSPropertyOp57
 70
     0
102
RTVSPost2010Prop28
280
     0
102
RTVSPost2010PropOp28
 70
     0
102
RTVSPost2010Prop29
280
     1
102
RTVSPost2010PropOp29
 70
     0
102
RTVSPost2010Prop30
280
     1
102
RTVSPost2010PropOp30
 70
     0
102
RTVSPost2010Prop31
280
     0
102
RTVSPost2010PropOp31
 70
     0
102
RTVSPost2010Prop32
280
     0
102
RTVSPost2010PropOp32
 70
     0
102
RTVSPost2010Prop33
280
     0
102
RTVSPost2010PropOp33
 70
     0
102
RTVSPost2010Prop34
280
     0
102
RTVSPost2010PropOp34
 70
     0
102
RTVSPost2010Prop35
280
     0
102
RTVSPost2010PropOp35
 70
     0
102
RTVSPost2010Prop36
280
     0
102
RTVSPost2010PropOp36
 70
     0
102
RTVSPost2010Prop37
 90
       50
102
RTVSPost2010PropOp37
 70
     0
102
RTVSPost2010Prop38
140
0.0
102
RTVSPost2010PropOp38
 70
     0
102
RTVSPost2010Prop39
140
1.0
102
RTVSPost2010PropOp39
 70
     0
102
RTVSPost2010Prop40
 90
        0
102
RTVSPost2010PropOp40
 70
     0
102
RTVSPost2010Prop41ColorIndex
 90
       18
102
RTVSPost2010Prop41ColorRGB
 90
        0
102
RTVSPost2010PropOp41
 70
     0
102
RTVSPost2010Prop42
 90
       50
102
RTVSPost2010PropOp42
 70
     0
102
RTVSPost2010Prop43
 90
        3
102
RTVSPost2010PropOp43
 70
     0
102
RTVSPost2010Prop44ColorIndex
 90
        5
102
RTVSPost2010Prop44ColorRGB
 90
      255
102
RTVSPost2010PropOp44
 70
     0
102
RTVSPost2010Prop45
280
     0
102
RTVSPost2010PropOp45
 70
     0
102
RTVSPost2010Prop46
 90
       50
102
RTVSPost2010PropOp46
 70
     0
102
RTVSPost2010Prop47
 90
       50
102
RTVSPost2010PropOp47
 70
     0
102
RTVSPost2010Prop48
 90
       50
102
RTVSPost2010PropOp48
 70
     0
102
RTVSPost2010Prop49
280
     0
102
RTVSPost2010PropOp49
 70
     0
102
RTVSPost2010Prop50
 90
       50
102
RTVSPost2010PropOp50
 70
     0
102
RTVSPost2010Prop51ColorIndex
 90
      256
102
RTVSPost2010Prop51ColorRGB
 90
-16777216
102
RTVSPost2010PropOp51
 70
     0
102
RTVSPost2010Prop52
140
1.0
102
RTVSPost2010PropOp52
 70
     0
102
RTVSPost2010Prop53
 90
        2
102
RTVSPost2010PropOp53
 70
     0
102
RTVSPost2010Prop54
  1
strokes_ogs.tif
102
RTVSPost2010PropOp54
 70
     0
102
RTVSPost2010Prop55
280
     0
102
RTVSPost2010PropOp55
 70
     0
102
RTVSPost2010Prop56
140
1.0
102
RTVSPost2010PropOp56
 70
     0
102
RTVSPost2010Prop57
140
1.0
102
RTVSPost2010PropOp57
 70
     0
  0
XRECORD
  5
2EA
102
{ACAD_REACTORS
330
2E9
102
}
330
2E9
100
AcDbXrecord
280
     1
102
RTVSPropertyOp0
 70
     1
102
RTVSPropertyOp1
 70
     1
102
RTVSPropertyOp2
 70
     1
102
RTVSPropertyOp3
 70
     1
102
RTVSPropertyOp4
 70
     1
102
RTVSPropertyOp5
 70
     1
102
RTVSPropertyOp6
 70
     1
102
RTVSPropertyOp7
 70
     1
102
RTVSPropertyOp8
 70
     1
102
RTVSPropertyOp9
 70
     1
102
RTVSPropertyOp10
 70
     1
102
RTVSPropertyOp11
 70
     1
102
RTVSPropertyOp12
 70
     1
102
RTVSPropertyOp13
 70
     1
102
RTVSPropertyOp14
 70
     1
102
RTVSPropertyOp15
 70
     1
102
RTVSPropertyOp16
 70
     1
102
RTVSPropertyOp17
 70
     1
102
RTVSPropertyOp18
 70
     1
102
RTVSPropertyOp19
 70
     1
102
RTVSPropertyOp20
 70
     1
102
RTVSPropertyOp21
 70
     1
102
RTVSPropertyOp22
 70
     1
102
RTVSPropertyOp23
 70
     1
102
RTVSPropertyOp24
 70
     1
102
RTVSPropertyOp25
 70
     1
102
RTVSPropertyOp26
 70
     1
102
RTVSPropertyOp27
 70
     1
102
RTVSPropertyOp28
 70
     1
102
RTVSPropertyOp29
 70
     1
102
RTVSPropertyOp30
 70
     1
102
RTVSPropertyOp31
 70
     1
102
RTVSPropertyOp32
 70
     1
102
RTVSPropertyOp33
 70
     1
102
RTVSPropertyOp34
 70
     1
102
RTVSPropertyOp35
 70
     1
102
RTVSPropertyOp36
 70
     1
102
RTVSPropertyOp37
 70
     1
102
RTVSPropertyOp38
 70
     1
102
RTVSPropertyOp39
 70
     1
102
RTVSPropertyOp40
 70
     1
102
RTVSPropertyOp41
 70
     1
102
RTVSPropertyOp42
 70
     1
102
RTVSPropertyOp43
 70
     1
102
RTVSPropertyOp44
 70
     1
102
RTVSPropertyOp45
 70
     1
102
RTVSPropertyOp46
 70
     1
102
RTVSPropertyOp47
 70
     1
102
RTVSPropertyOp48
 70
     1
102
RTVSPropertyOp49
 70
     1
102
RTVSPropertyOp50
 70
     1
102
RTVSPropertyOp51
 70
     0
102
RTVSPropertyOp52
 70
     0
102
RTVSPropertyOp53
 70
     1
102
RTVSPropertyOp54
 70
     1
102
RTVSPropertyOp55
 70
     1
102
RTVSPropertyOp56
 70
     1
102
RTVSPropertyOp57
 70
     1
102
RTVSPost2010Prop28
280
     0
102
RTVSPost2010PropOp28
 70
     1
102
RTVSPost2010Prop29
280
     1
102
RTVSPost2010PropOp29
 70
     1
102
RTVSPost2010Prop30
280
     1
102
RTVSPost2010PropOp30
 70
     1
102
RTVSPost2010Prop31
280
     0
102
RTVSPost2010PropOp31
 70
     1
102
RTVSPost2010Prop32
280
     0
102
RTVSPost2010PropOp32
 70
     1
102
RTVSPost2010Prop33
280
     0
102
RTVSPost2010PropOp33
 70
     1
102
RTVSPost2010Prop34
280
     0
102
RTVSPost2010PropOp34
 70
     1
102
RTVSPost2010Prop35
280
     0
102
RTVSPost2010PropOp35
 70
     1
102
RTVSPost2010Prop36
280
     0
102
RTVSPost2010PropOp36
 70
     1
102
RTVSPost2010Prop37
 90
       50
102
RTVSPost2010PropOp37
 70
     1
102
RTVSPost2010Prop38
140
0.0
102
RTVSPost2010PropOp38
 70
     1
102
RTVSPost2010Prop39
140
1.0
102
RTVSPost2010PropOp39
 70
     1
102
RTVSPost2010Prop40
 90
        0
102
RTVSPost2010PropOp40
 70
     1
102
RTVSPost2010Prop41ColorIndex
 90
       18
102
RTVSPost2010Prop41ColorRGB
 90
        0
102
RTVSPost2010PropOp41
 70
     1
102
RTVSPost2010Prop42
 90
       50
102
RTVSPost2010PropOp42
 70
     1
102
RTVSPost2010Prop43
 90
        3
102
RTVSPost2010PropOp43
 70
     1
102
RTVSPost2010Prop44ColorIndex
 90
        5
102
RTVSPost2010Prop44ColorRGB
 90
      255
102
RTVSPost2010PropOp44
 70
     1
102
RTVSPost2010Prop45
280
     0
102
RTVSPost2010PropOp45
 70
     1
102
RTVSPost2010Prop46
 90
       50
102
RTVSPost2010PropOp46
 70
     1
102
RTVSPost2010Prop47
 90
       50
102
RTVSPost2010PropOp47
 70
     1
102
RTVSPost2010Prop48
 90
       50
102
RTVSPost2010PropOp48
 70
     1
102
RTVSPost2010Prop49
280
     0
102
RTVSPost2010PropOp49
 70
     1
102
RTVSPost2010Prop50
 90
       50
102
RTVSPost2010PropOp50
 70
     1
102
RTVSPost2010Prop51ColorIndex
 90
      256
102
RTVSPost2010Prop51ColorRGB
 90
-16777216
102
RTVSPost2010PropOp51
 70
     0
102
RTVSPost2010Prop52
140
1.0
102
RTVSPost2010PropOp52
 70
     0
102
RTVSPost2010Prop53
 90
        2
102
RTVSPost2010PropOp53
 70
     1
102
RTVSPost2010Prop54
  1
strokes_ogs.tif
102
RTVSPost2010PropOp54
 70
     1
102
RTVSPost2010Prop55
280
     0
102
RTVSPost2010PropOp55
 70
     1
102
RTVSPost2010Prop56
140
1.0
102
RTVSPost2010PropOp56
 70
     1
102
RTVSPost2010Prop57
140
1.0
102
RTVSPost2010PropOp57
 70
     1
  0
XRECORD
  5
308
102
{ACAD_REACTORS
330
307
102
}
330
307
100
AcDbXrecord
280
     1
102
RTVSPropertyOp0
 70
     1
102
RTVSPropertyOp1
 70
     1
102
RTVSPropertyOp2
 70
     1
102
RTVSPropertyOp3
 70
     1
102
RTVSPropertyOp4
 70
     1
102
RTVSPropertyOp5
 70
     1
102
RTVSPropertyOp6
 70
     1
102
RTVSPropertyOp7
 70
     1
102
RTVSPropertyOp8
 70
     1
102
RTVSPropertyOp9
 70
     1
102
RTVSPropertyOp10
 70
     1
102
RTVSPropertyOp11
 70
     1
102
RTVSPropertyOp12
 70
     1
102
RTVSPropertyOp13
 70
     1
102
RTVSPropertyOp14
 70
     1
102
RTVSPropertyOp15
 70
     1
102
RTVSPropertyOp16
 70
     1
102
RTVSPropertyOp17
 70
     1
102
RTVSPropertyOp18
 70
     1
102
RTVSPropertyOp19
 70
     1
102
RTVSPropertyOp20
 70
     1
102
RTVSPropertyOp21
 70
     1
102
RTVSPropertyOp22
 70
     1
102
RTVSPropertyOp23
 70
     1
102
RTVSPropertyOp24
 70
     1
102
RTVSPropertyOp25
 70
     1
102
RTVSPropertyOp26
 70
     1
102
RTVSPropertyOp27
 70
     1
102
RTVSPropertyOp28
 70
     1
102
RTVSPropertyOp29
 70
     1
102
RTVSPropertyOp30
 70
     1
102
RTVSPropertyOp31
 70
     1
102
RTVSPropertyOp32
 70
     1
102
RTVSPropertyOp33
 70
     1
102
RTVSPropertyOp34
 70
     1
102
RTVSPropertyOp35
 70
     1
102
RTVSPropertyOp36
 70
     1
102
RTVSPropertyOp37
 70
     1
102
RTVSPropertyOp38
 70
     1
102
RTVSPropertyOp39
 70
     1
102
RTVSPropertyOp40
 70
     1
102
RTVSPropertyOp41
 70
     1
102
RTVSPropertyOp42
 70
     1
102
RTVSPropertyOp43
 70
     1
102
RTVSPropertyOp44
 70
     1
102
RTVSPropertyOp45
 70
     1
102
RTVSPropertyOp46
 70
     1
102
RTVSPropertyOp47
 70
     1
102
RTVSPropertyOp48
 70
     1
102
RTVSPropertyOp49
 70
     1
102
RTVSPropertyOp50
 70
     1
102
RTVSPropertyOp51
 70
     0
102
RTVSPropertyOp52
 70
     0
102
RTVSPropertyOp53
 70
     1
102
RTVSPropertyOp54
 70
     1
102
RTVSPropertyOp55
 70
     1
102
RTVSPropertyOp56
 70
     1
102
RTVSPropertyOp57
 70
     1
102
RTVSPost2010Prop28
280
     0
102
RTVSPost2010PropOp28
 70
     1
102
RTVSPost2010Prop29
280
     1
102
RTVSPost2010PropOp29
 70
     1
102
RTVSPost2010Prop30
280
     1
102
RTVSPost2010PropOp30
 70
     1
102
RTVSPost2010Prop31
280
     0
102
RTVSPost2010PropOp31
 70
     1
102
RTVSPost2010Prop32
280
     0
102
RTVSPost2010PropOp32
 70
     1
102
RTVSPost2010Prop33
280
     0
102
RTVSPost2010PropOp33
 70
     1
102
RTVSPost2010Prop34
280
     0
102
RTVSPost2010PropOp34
 70
     1
102
RTVSPost2010Prop35
280
     0
102
RTVSPost2010PropOp35
 70
     1
102
RTVSPost2010Prop36
280
     0
102
RTVSPost2010PropOp36
 70
     1
102
RTVSPost2010Prop37
 90
       50
102
RTVSPost2010PropOp37
 70
     1
102
RTVSPost2010Prop38
140
0.0
102
RTVSPost2010PropOp38
 70
     1
102
RTVSPost2010Prop39
140
1.0
102
RTVSPost2010PropOp39
 70
     1
102
RTVSPost2010Prop40
 90
        0
102
RTVSPost2010PropOp40
 70
     1
102
RTVSPost2010Prop41ColorIndex
 90
       18
102
RTVSPost2010Prop41ColorRGB
 90
        0
102
RTVSPost2010PropOp41
 70
     1
102
RTVSPost2010Prop42
 90
       50
102
RTVSPost2010PropOp42
 70
     1
102
RTVSPost2010Prop43
 90
        3
102
RTVSPost2010PropOp43
 70
     1
102
RTVSPost2010Prop44ColorIndex
 90
        5
102
RTVSPost2010Prop44ColorRGB
 90
      255
102
RTVSPost2010PropOp44
 70
     1
102
RTVSPost2010Prop45
280
     0
102
RTVSPost2010PropOp45
 70
     1
102
RTVSPost2010Prop46
 90
       50
102
RTVSPost2010PropOp46
 70
     1
102
RTVSPost2010Prop47
 90
       50
102
RTVSPost2010PropOp47
 70
     1
102
RTVSPost2010Prop48
 90
       50
102
RTVSPost2010PropOp48
 70
     1
102
RTVSPost2010Prop49
280
     0
102
RTVSPost2010PropOp49
 70
     1
102
RTVSPost2010Prop50
 90
       50
102
RTVSPost2010PropOp50
 70
     1
102
RTVSPost2010Prop51ColorIndex
 90
      256
102
RTVSPost2010Prop51ColorRGB
 90
-16777216
102
RTVSPost2010PropOp51
 70
     0
102
RTVSPost2010Prop52
140
1.0
102
RTVSPost2010PropOp52
 70
     0
102
RTVSPost2010Prop53
 90
        2
102
RTVSPost2010PropOp53
 70
     1
102
RTVSPost2010Prop54
  1
strokes_ogs.tif
102
RTVSPost2010PropOp54
 70
     1
102
RTVSPost2010Prop55
280
     0
102
RTVSPost2010PropOp55
 70
     1
102
RTVSPost2010Prop56
140
1.0
102
RTVSPost2010PropOp56
 70
     1
102
RTVSPost2010Prop57
140
1.0
102
RTVSPost2010PropOp57
 70
     1
  0
XRECORD
  5
306
102
{ACAD_REACTORS
330
305
102
}
330
305
100
AcDbXrecord
280
     1
102
RTVSPropertyOp0
 70
     1
102
RTVSPropertyOp1
 70
     1
102
RTVSPropertyOp2
 70
     1
102
RTVSPropertyOp3
 70
     1
102
RTVSPropertyOp4
 70
     1
102
RTVSPropertyOp5
 70
     1
102
RTVSPropertyOp6
 70
     1
102
RTVSPropertyOp7
 70
     1
102
RTVSPropertyOp8
 70
     1
102
RTVSPropertyOp9
 70
     1
102
RTVSPropertyOp10
 70
     1
102
RTVSPropertyOp11
 70
     1
102
RTVSPropertyOp12
 70
     1
102
RTVSPropertyOp13
 70
     1
102
RTVSPropertyOp14
 70
     1
102
RTVSPropertyOp15
 70
     1
102
RTVSPropertyOp16
 70
     1
102
RTVSPropertyOp17
 70
     1
102
RTVSPropertyOp18
 70
     1
102
RTVSPropertyOp19
 70
     1
102
RTVSPropertyOp20
 70
     1
102
RTVSPropertyOp21
 70
     1
102
RTVSPropertyOp22
 70
     1
102
RTVSPropertyOp23
 70
     1
102
RTVSPropertyOp24
 70
     1
102
RTVSPropertyOp25
 70
     1
102
RTVSPropertyOp26
 70
     1
102
RTVSPropertyOp27
 70
     1
102
RTVSPropertyOp28
 70
     1
102
RTVSPropertyOp29
 70
     1
102
RTVSPropertyOp30
 70
     1
102
RTVSPropertyOp31
 70
     1
102
RTVSPropertyOp32
 70
     1
102
RTVSPropertyOp33
 70
     1
102
RTVSPropertyOp34
 70
     1
102
RTVSPropertyOp35
 70
     1
102
RTVSPropertyOp36
 70
     1
102
RTVSPropertyOp37
 70
     1
102
RTVSPropertyOp38
 70
     1
102
RTVSPropertyOp39
 70
     1
102
RTVSPropertyOp40
 70
     1
102
RTVSPropertyOp41
 70
     1
102
RTVSPropertyOp42
 70
     1
102
RTVSPropertyOp43
 70
     1
102
RTVSPropertyOp44
 70
     1
102
RTVSPropertyOp45
 70
     1
102
RTVSPropertyOp46
 70
     1
102
RTVSPropertyOp47
 70
     1
102
RTVSPropertyOp48
 70
     1
102
RTVSPropertyOp49
 70
     1
102
RTVSPropertyOp50
 70
     1
102
RTVSPropertyOp51
 70
     0
102
RTVSPropertyOp52
 70
     0
102
RTVSPropertyOp53
 70
     1
102
RTVSPropertyOp54
 70
     1
102
RTVSPropertyOp55
 70
     1
102
RTVSPropertyOp56
 70
     1
102
RTVSPropertyOp57
 70
     1
102
RTVSPost2010Prop28
280
     0
102
RTVSPost2010PropOp28
 70
     1
102
RTVSPost2010Prop29
280
     1
102
RTVSPost2010PropOp29
 70
     1
102
RTVSPost2010Prop30
280
     1
102
RTVSPost2010PropOp30
 70
     1
102
RTVSPost2010Prop31
280
     0
102
RTVSPost2010PropOp31
 70
     1
102
RTVSPost2010Prop32
280
     0
102
RTVSPost2010PropOp32
 70
     1
102
RTVSPost2010Prop33
280
     0
102
RTVSPost2010PropOp33
 70
     1
102
RTVSPost2010Prop34
280
     0
102
RTVSPost2010PropOp34
 70
     1
102
RTVSPost2010Prop35
280
     0
102
RTVSPost2010PropOp35
 70
     1
102
RTVSPost2010Prop36
280
     0
102
RTVSPost2010PropOp36
 70
     1
102
RTVSPost2010Prop37
 90
       50
102
RTVSPost2010PropOp37
 70
     1
102
RTVSPost2010Prop38
140
0.0
102
RTVSPost2010PropOp38
 70
     1
102
RTVSPost2010Prop39
140
1.0
102
RTVSPost2010PropOp39
 70
     1
102
RTVSPost2010Prop40
 90
        0
102
RTVSPost2010PropOp40
 70
     1
102
RTVSPost2010Prop41ColorIndex
 90
       18
102
RTVSPost2010Prop41ColorRGB
 90
        0
102
RTVSPost2010PropOp41
 70
     1
102
RTVSPost2010Prop42
 90
       50
102
RTVSPost2010PropOp42
 70
     1
102
RTVSPost2010Prop43
 90
        3
102
RTVSPost2010PropOp43
 70
     1
102
RTVSPost2010Prop44ColorIndex
 90
        5
102
RTVSPost2010Prop44ColorRGB
 90
      255
102
RTVSPost2010PropOp44
 70
     1
102
RTVSPost2010Prop45
280
     0
102
RTVSPost2010PropOp45
 70
     1
102
RTVSPost2010Prop46
 90
       50
102
RTVSPost2010PropOp46
 70
     1
102
RTVSPost2010Prop47
 90
       50
102
RTVSPost2010PropOp47
 70
     1
102
RTVSPost2010Prop48
 90
       50
102
RTVSPost2010PropOp48
 70
     1
102
RTVSPost2010Prop49
280
     0
102
RTVSPost2010PropOp49
 70
     1
102
RTVSPost2010Prop50
 90
       50
102
RTVSPost2010PropOp50
 70
     1
102
RTVSPost2010Prop51ColorIndex
 90
      256
102
RTVSPost2010Prop51ColorRGB
 90
-16777216
102
RTVSPost2010PropOp51
 70
     0
102
RTVSPost2010Prop52
140
1.0
102
RTVSPost2010PropOp52
 70
     0
102
RTVSPost2010Prop53
 90
        2
102
RTVSPost2010PropOp53
 70
     1
102
RTVSPost2010Prop54
  1
strokes_ogs.tif
102
RTVSPost2010PropOp54
 70
     1
102
RTVSPost2010Prop55
280
     0
102
RTVSPost2010PropOp55
 70
     1
102
RTVSPost2010Prop56
140
1.0
102
RTVSPost2010PropOp56
 70
     1
102
RTVSPost2010Prop57
140
1.0
102
RTVSPost2010PropOp57
 70
     1
  0
XRECORD
  5
300
102
{ACAD_REACTORS
330
2FF
102
}
330
2FF
100
AcDbXrecord
280
     1
102
RTVSPropertyOp0
 70
     1
102
RTVSPropertyOp1
 70
     1
102
RTVSPropertyOp2
 70
     1
102
RTVSPropertyOp3
 70
     1
102
RTVSPropertyOp4
 70
     1
102
RTVSPropertyOp5
 70
     1
102
RTVSPropertyOp6
 70
     1
102
RTVSPropertyOp7
 70
     1
102
RTVSPropertyOp8
 70
     1
102
RTVSPropertyOp9
 70
     1
102
RTVSPropertyOp10
 70
     1
102
RTVSPropertyOp11
 70
     1
102
RTVSPropertyOp12
 70
     1
102
RTVSPropertyOp13
 70
     1
102
RTVSPropertyOp14
 70
     1
102
RTVSPropertyOp15
 70
     1
102
RTVSPropertyOp16
 70
     1
102
RTVSPropertyOp17
 70
     1
102
RTVSPropertyOp18
 70
     1
102
RTVSPropertyOp19
 70
     1
102
RTVSPropertyOp20
 70
     1
102
RTVSPropertyOp21
 70
     1
102
RTVSPropertyOp22
 70
     1
102
RTVSPropertyOp23
 70
     1
102
RTVSPropertyOp24
 70
     1
102
RTVSPropertyOp25
 70
     1
102
RTVSPropertyOp26
 70
     1
102
RTVSPropertyOp27
 70
     1
102
RTVSPropertyOp28
 70
     1
102
RTVSPropertyOp29
 70
     1
102
RTVSPropertyOp30
 70
     1
102
RTVSPropertyOp31
 70
     1
102
RTVSPropertyOp32
 70
     1
102
RTVSPropertyOp33
 70
     1
102
RTVSPropertyOp34
 70
     1
102
RTVSPropertyOp35
 70
     1
102
RTVSPropertyOp36
 70
     1
102
RTVSPropertyOp37
 70
     1
102
RTVSPropertyOp38
 70
     1
102
RTVSPropertyOp39
 70
     1
102
RTVSPropertyOp40
 70
     1
102
RTVSPropertyOp41
 70
     1
102
RTVSPropertyOp42
 70
     1
102
RTVSPropertyOp43
 70
     1
102
RTVSPropertyOp44
 70
     1
102
RTVSPropertyOp45
 70
     1
102
RTVSPropertyOp46
 70
     1
102
RTVSPropertyOp47
 70
     1
102
RTVSPropertyOp48
 70
     1
102
RTVSPropertyOp49
 70
     1
102
RTVSPropertyOp50
 70
     1
102
RTVSPropertyOp51
 70
     0
102
RTVSPropertyOp52
 70
     0
102
RTVSPropertyOp53
 70
     1
102
RTVSPropertyOp54
 70
     1
102
RTVSPropertyOp55
 70
     1
102
RTVSPropertyOp56
 70
     1
102
RTVSPropertyOp57
 70
     1
102
RTVSPost2010Prop28
280
     0
102
RTVSPost2010PropOp28
 70
     1
102
RTVSPost2010Prop29
280
     1
102
RTVSPost2010PropOp29
 70
     1
102
RTVSPost2010Prop30
280
     1
102
RTVSPost2010PropOp30
 70
     1
102
RTVSPost2010Prop31
280
     0
102
RTVSPost2010PropOp31
 70
     1
102
RTVSPost2010Prop32
280
     0
102
RTVSPost2010PropOp32
 70
     1
102
RTVSPost2010Prop33
280
     0
102
RTVSPost2010PropOp33
 70
     1
102
RTVSPost2010Prop34
280
     0
102
RTVSPost2010PropOp34
 70
     1
102
RTVSPost2010Prop35
280
     0
102
RTVSPost2010PropOp35
 70
     1
102
RTVSPost2010Prop36
280
     0
102
RTVSPost2010PropOp36
 70
     1
102
RTVSPost2010Prop37
 90
       50
102
RTVSPost2010PropOp37
 70
     1
102
RTVSPost2010Prop38
140
0.0
102
RTVSPost2010PropOp38
 70
     1
102
RTVSPost2010Prop39
140
1.0
102
RTVSPost2010PropOp39
 70
     1
102
RTVSPost2010Prop40
 90
        0
102
RTVSPost2010PropOp40
 70
     1
102
RTVSPost2010Prop41ColorIndex
 90
       18
102
RTVSPost2010Prop41ColorRGB
 90
        0
102
RTVSPost2010PropOp41
 70
     1
102
RTVSPost2010Prop42
 90
       50
102
RTVSPost2010PropOp42
 70
     1
102
RTVSPost2010Prop43
 90
        3
102
RTVSPost2010PropOp43
 70
     1
102
RTVSPost2010Prop44ColorIndex
 90
        5
102
RTVSPost2010Prop44ColorRGB
 90
      255
102
RTVSPost2010PropOp44
 70
     1
102
RTVSPost2010Prop45
280
     0
102
RTVSPost2010PropOp45
 70
     1
102
RTVSPost2010Prop46
 90
       50
102
RTVSPost2010PropOp46
 70
     1
102
RTVSPost2010Prop47
 90
       50
102
RTVSPost2010PropOp47
 70
     1
102
RTVSPost2010Prop48
 90
       50
102
RTVSPost2010PropOp48
 70
     1
102
RTVSPost2010Prop49
280
     0
102
RTVSPost2010PropOp49
 70
     1
102
RTVSPost2010Prop50
 90
       50
102
RTVSPost2010PropOp50
 70
     1
102
RTVSPost2010Prop51ColorIndex
 90
      256
102
RTVSPost2010Prop51ColorRGB
 90
-16777216
102
RTVSPost2010PropOp51
 70
     0
102
RTVSPost2010Prop52
140
1.0
102
RTVSPost2010PropOp52
 70
     0
102
RTVSPost2010Prop53
 90
        2
102
RTVSPost2010PropOp53
 70
     1
102
RTVSPost2010Prop54
  1
strokes_ogs.tif
102
RTVSPost2010PropOp54
 70
     1
102
RTVSPost2010Prop55
280
     0
102
RTVSPost2010PropOp55
 70
     1
102
RTVSPost2010Prop56
140
1.0
102
RTVSPost2010PropOp56
 70
     1
102
RTVSPost2010Prop57
140
1.0
102
RTVSPost2010PropOp57
 70
     1
  0
XRECORD
  5
302
102
{ACAD_REACTORS
330
301
102
}
330
301
100
AcDbXrecord
280
     1
102
RTVSPropertyOp0
 70
     1
102
RTVSPropertyOp1
 70
     1
102
RTVSPropertyOp2
 70
     1
102
RTVSPropertyOp3
 70
     1
102
RTVSPropertyOp4
 70
     1
102
RTVSPropertyOp5
 70
     1
102
RTVSPropertyOp6
 70
     1
102
RTVSPropertyOp7
 70
     1
102
RTVSPropertyOp8
 70
     1
102
RTVSPropertyOp9
 70
     1
102
RTVSPropertyOp10
 70
     1
102
RTVSPropertyOp11
 70
     1
102
RTVSPropertyOp12
 70
     1
102
RTVSPropertyOp13
 70
     1
102
RTVSPropertyOp14
 70
     1
102
RTVSPropertyOp15
 70
     1
102
RTVSPropertyOp16
 70
     1
102
RTVSPropertyOp17
 70
     1
102
RTVSPropertyOp18
 70
     1
102
RTVSPropertyOp19
 70
     1
102
RTVSPropertyOp20
 70
     1
102
RTVSPropertyOp21
 70
     1
102
RTVSPropertyOp22
 70
     1
102
RTVSPropertyOp23
 70
     1
102
RTVSPropertyOp24
 70
     1
102
RTVSPropertyOp25
 70
     1
102
RTVSPropertyOp26
 70
     1
102
RTVSPropertyOp27
 70
     1
102
RTVSPropertyOp28
 70
     1
102
RTVSPropertyOp29
 70
     1
102
RTVSPropertyOp30
 70
     1
102
RTVSPropertyOp31
 70
     1
102
RTVSPropertyOp32
 70
     1
102
RTVSPropertyOp33
 70
     1
102
RTVSPropertyOp34
 70
     1
102
RTVSPropertyOp35
 70
     1
102
RTVSPropertyOp36
 70
     1
102
RTVSPropertyOp37
 70
     1
102
RTVSPropertyOp38
 70
     1
102
RTVSPropertyOp39
 70
     1
102
RTVSPropertyOp40
 70
     1
102
RTVSPropertyOp41
 70
     1
102
RTVSPropertyOp42
 70
     1
102
RTVSPropertyOp43
 70
     1
102
RTVSPropertyOp44
 70
     1
102
RTVSPropertyOp45
 70
     1
102
RTVSPropertyOp46
 70
     1
102
RTVSPropertyOp47
 70
     1
102
RTVSPropertyOp48
 70
     1
102
RTVSPropertyOp49
 70
     1
102
RTVSPropertyOp50
 70
     1
102
RTVSPropertyOp51
 70
     0
102
RTVSPropertyOp52
 70
     0
102
RTVSPropertyOp53
 70
     1
102
RTVSPropertyOp54
 70
     1
102
RTVSPropertyOp55
 70
     1
102
RTVSPropertyOp56
 70
     1
102
RTVSPropertyOp57
 70
     1
102
RTVSPost2010Prop28
280
     0
102
RTVSPost2010PropOp28
 70
     1
102
RTVSPost2010Prop29
280
     1
102
RTVSPost2010PropOp29
 70
     1
102
RTVSPost2010Prop30
280
     1
102
RTVSPost2010PropOp30
 70
     1
102
RTVSPost2010Prop31
280
     0
102
RTVSPost2010PropOp31
 70
     1
102
RTVSPost2010Prop32
280
     0
102
RTVSPost2010PropOp32
 70
     1
102
RTVSPost2010Prop33
280
     0
102
RTVSPost2010PropOp33
 70
     1
102
RTVSPost2010Prop34
280
     0
102
RTVSPost2010PropOp34
 70
     1
102
RTVSPost2010Prop35
280
     0
102
RTVSPost2010PropOp35
 70
     1
102
RTVSPost2010Prop36
280
     0
102
RTVSPost2010PropOp36
 70
     1
102
RTVSPost2010Prop37
 90
       50
102
RTVSPost2010PropOp37
 70
     1
102
RTVSPost2010Prop38
140
0.0
102
RTVSPost2010PropOp38
 70
     1
102
RTVSPost2010Prop39
140
1.0
102
RTVSPost2010PropOp39
 70
     1
102
RTVSPost2010Prop40
 90
        0
102
RTVSPost2010PropOp40
 70
     1
102
RTVSPost2010Prop41ColorIndex
 90
       18
102
RTVSPost2010Prop41ColorRGB
 90
        0
102
RTVSPost2010PropOp41
 70
     1
102
RTVSPost2010Prop42
 90
       50
102
RTVSPost2010PropOp42
 70
     1
102
RTVSPost2010Prop43
 90
        3
102
RTVSPost2010PropOp43
 70
     1
102
RTVSPost2010Prop44ColorIndex
 90
        5
102
RTVSPost2010Prop44ColorRGB
 90
      255
102
RTVSPost2010PropOp44
 70
     1
102
RTVSPost2010Prop45
280
     0
102
RTVSPost2010PropOp45
 70
     1
102
RTVSPost2010Prop46
 90
       50
102
RTVSPost2010PropOp46
 70
     1
102
RTVSPost2010Prop47
 90
       50
102
RTVSPost2010PropOp47
 70
     1
102
RTVSPost2010Prop48
 90
       50
102
RTVSPost2010PropOp48
 70
     1
102
RTVSPost2010Prop49
280
     0
102
RTVSPost2010PropOp49
 70
     1
102
RTVSPost2010Prop50
 90
       50
102
RTVSPost2010PropOp50
 70
     1
102
RTVSPost2010Prop51ColorIndex
 90
      256
102
RTVSPost2010Prop51ColorRGB
 90
-16777216
102
RTVSPost2010PropOp51
 70
     0
102
RTVSPost2010Prop52
140
1.0
102
RTVSPost2010PropOp52
 70
     0
102
RTVSPost2010Prop53
 90
        2
102
RTVSPost2010PropOp53
 70
     1
102
RTVSPost2010Prop54
  1
strokes_ogs.tif
102
RTVSPost2010PropOp54
 70
     1
102
RTVSPost2010Prop55
280
     0
102
RTVSPost2010PropOp55
 70
     1
102
RTVSPost2010Prop56
140
1.0
102
RTVSPost2010PropOp56
 70
     1
102
RTVSPost2010Prop57
140
1.0
102
RTVSPost2010PropOp57
 70
     1
  0
XRECORD
  5
2F2
102
{ACAD_REACTORS
330
2F1
102
}
330
2F1
100
AcDbXrecord
280
     1
102
RTVSPropertyOp0
 70
     1
102
RTVSPropertyOp1
 70
     1
102
RTVSPropertyOp2
 70
     1
102
RTVSPropertyOp3
 70
     1
102
RTVSPropertyOp4
 70
     1
102
RTVSPropertyOp5
 70
     1
102
RTVSPropertyOp6
 70
     1
102
RTVSPropertyOp7
 70
     1
102
RTVSPropertyOp8
 70
     1
102
RTVSPropertyOp9
 70
     1
102
RTVSPropertyOp10
 70
     1
102
RTVSPropertyOp11
 70
     1
102
RTVSPropertyOp12
 70
     1
102
RTVSPropertyOp13
 70
     1
102
RTVSPropertyOp14
 70
     1
102
RTVSPropertyOp15
 70
     1
102
RTVSPropertyOp16
 70
     1
102
RTVSPropertyOp17
 70
     1
102
RTVSPropertyOp18
 70
     1
102
RTVSPropertyOp19
 70
     1
102
RTVSPropertyOp20
 70
     1
102
RTVSPropertyOp21
 70
     1
102
RTVSPropertyOp22
 70
     1
102
RTVSPropertyOp23
 70
     1
102
RTVSPropertyOp24
 70
     1
102
RTVSPropertyOp25
 70
     1
102
RTVSPropertyOp26
 70
     1
102
RTVSPropertyOp27
 70
     1
102
RTVSPropertyOp28
 70
     1
102
RTVSPropertyOp29
 70
     1
102
RTVSPropertyOp30
 70
     1
102
RTVSPropertyOp31
 70
     1
102
RTVSPropertyOp32
 70
     1
102
RTVSPropertyOp33
 70
     1
102
RTVSPropertyOp34
 70
     1
102
RTVSPropertyOp35
 70
     1
102
RTVSPropertyOp36
 70
     1
102
RTVSPropertyOp37
 70
     1
102
RTVSPropertyOp38
 70
     1
102
RTVSPropertyOp39
 70
     1
102
RTVSPropertyOp40
 70
     1
102
RTVSPropertyOp41
 70
     1
102
RTVSPropertyOp42
 70
     1
102
RTVSPropertyOp43
 70
     1
102
RTVSPropertyOp44
 70
     1
102
RTVSPropertyOp45
 70
     1
102
RTVSPropertyOp46
 70
     1
102
RTVSPropertyOp47
 70
     1
102
RTVSPropertyOp48
 70
     1
102
RTVSPropertyOp49
 70
     1
102
RTVSPropertyOp50
 70
     1
102
RTVSPropertyOp51
 70
     0
102
RTVSPropertyOp52
 70
     0
102
RTVSPropertyOp53
 70
     1
102
RTVSPropertyOp54
 70
     1
102
RTVSPropertyOp55
 70
     1
102
RTVSPropertyOp56
 70
     1
102
RTVSPropertyOp57
 70
     1
102
RTVSPost2010Prop28
280
     0
102
RTVSPost2010PropOp28
 70
     1
102
RTVSPost2010Prop29
280
     1
102
RTVSPost2010PropOp29
 70
     1
102
RTVSPost2010Prop30
280
     1
102
RTVSPost2010PropOp30
 70
     1
102
RTVSPost2010Prop31
280
     0
102
RTVSPost2010PropOp31
 70
     1
102
RTVSPost2010Prop32
280
     0
102
RTVSPost2010PropOp32
 70
     1
102
RTVSPost2010Prop33
280
     0
102
RTVSPost2010PropOp33
 70
     1
102
RTVSPost2010Prop34
280
     0
102
RTVSPost2010PropOp34
 70
     1
102
RTVSPost2010Prop35
280
     0
102
RTVSPost2010PropOp35
 70
     1
102
RTVSPost2010Prop36
280
     0
102
RTVSPost2010PropOp36
 70
     1
102
RTVSPost2010Prop37
 90
       50
102
RTVSPost2010PropOp37
 70
     1
102
RTVSPost2010Prop38
140
0.0
102
RTVSPost2010PropOp38
 70
     1
102
RTVSPost2010Prop39
140
1.0
102
RTVSPost2010PropOp39
 70
     1
102
RTVSPost2010Prop40
 90
        0
102
RTVSPost2010PropOp40
 70
     1
102
RTVSPost2010Prop41ColorIndex
 90
       18
102
RTVSPost2010Prop41ColorRGB
 90
        0
102
RTVSPost2010PropOp41
 70
     1
102
RTVSPost2010Prop42
 90
       50
102
RTVSPost2010PropOp42
 70
     1
102
RTVSPost2010Prop43
 90
        3
102
RTVSPost2010PropOp43
 70
     1
102
RTVSPost2010Prop44ColorIndex
 90
        5
102
RTVSPost2010Prop44ColorRGB
 90
      255
102
RTVSPost2010PropOp44
 70
     1
102
RTVSPost2010Prop45
280
     0
102
RTVSPost2010PropOp45
 70
     1
102
RTVSPost2010Prop46
 90
       50
102
RTVSPost2010PropOp46
 70
     1
102
RTVSPost2010Prop47
 90
       50
102
RTVSPost2010PropOp47
 70
     1
102
RTVSPost2010Prop48
 90
       50
102
RTVSPost2010PropOp48
 70
     1
102
RTVSPost2010Prop49
280
     0
102
RTVSPost2010PropOp49
 70
     1
102
RTVSPost2010Prop50
 90
       50
102
RTVSPost2010PropOp50
 70
     1
102
RTVSPost2010Prop51ColorIndex
 90
      256
102
RTVSPost2010Prop51ColorRGB
 90
-16777216
102
RTVSPost2010PropOp51
 70
     0
102
RTVSPost2010Prop52
140
1.0
102
RTVSPost2010PropOp52
 70
     0
102
RTVSPost2010Prop53
 90
        2
102
RTVSPost2010PropOp53
 70
     1
102
RTVSPost2010Prop54
  1
strokes_ogs.tif
102
RTVSPost2010PropOp54
 70
     1
102
RTVSPost2010Prop55
280
     0
102
RTVSPost2010PropOp55
 70
     1
102
RTVSPost2010Prop56
140
1.0
102
RTVSPost2010PropOp56
 70
     1
102
RTVSPost2010Prop57
140
1.0
102
RTVSPost2010PropOp57
 70
     1
  0
XRECORD
  5
2E4
102
{ACAD_REACTORS
330
2E3
102
}
330
2E3
100
AcDbXrecord
280
     1
102
RTVSPropertyOp0
 70
     1
102
RTVSPropertyOp1
 70
     1
102
RTVSPropertyOp2
 70
     1
102
RTVSPropertyOp3
 70
     1
102
RTVSPropertyOp4
 70
     1
102
RTVSPropertyOp5
 70
     1
102
RTVSPropertyOp6
 70
     1
102
RTVSPropertyOp7
 70
     1
102
RTVSPropertyOp8
 70
     1
102
RTVSPropertyOp9
 70
     1
102
RTVSPropertyOp10
 70
     1
102
RTVSPropertyOp11
 70
     1
102
RTVSPropertyOp12
 70
     1
102
RTVSPropertyOp13
 70
     1
102
RTVSPropertyOp14
 70
     1
102
RTVSPropertyOp15
 70
     1
102
RTVSPropertyOp16
 70
     1
102
RTVSPropertyOp17
 70
     1
102
RTVSPropertyOp18
 70
     1
102
RTVSPropertyOp19
 70
     1
102
RTVSPropertyOp20
 70
     1
102
RTVSPropertyOp21
 70
     1
102
RTVSPropertyOp22
 70
     1
102
RTVSPropertyOp23
 70
     1
102
RTVSPropertyOp24
 70
     1
102
RTVSPropertyOp25
 70
     1
102
RTVSPropertyOp26
 70
     1
102
RTVSPropertyOp27
 70
     1
102
RTVSPropertyOp28
 70
     1
102
RTVSPropertyOp29
 70
     1
102
RTVSPropertyOp30
 70
     1
102
RTVSPropertyOp31
 70
     1
102
RTVSPropertyOp32
 70
     1
102
RTVSPropertyOp33
 70
     1
102
RTVSPropertyOp34
 70
     1
102
RTVSPropertyOp35
 70
     1
102
RTVSPropertyOp36
 70
     1
102
RTVSPropertyOp37
 70
     1
102
RTVSPropertyOp38
 70
     1
102
RTVSPropertyOp39
 70
     1
102
RTVSPropertyOp40
 70
     1
102
RTVSPropertyOp41
 70
     1
102
RTVSPropertyOp42
 70
     1
102
RTVSPropertyOp43
 70
     1
102
RTVSPropertyOp44
 70
     1
102
RTVSPropertyOp45
 70
     1
102
RTVSPropertyOp46
 70
     1
102
RTVSPropertyOp47
 70
     1
102
RTVSPropertyOp48
 70
     1
102
RTVSPropertyOp49
 70
     1
102
RTVSPropertyOp50
 70
     1
102
RTVSPropertyOp51
 70
     0
102
RTVSPropertyOp52
 70
     0
102
RTVSPropertyOp53
 70
     1
102
RTVSPropertyOp54
 70
     1
102
RTVSPropertyOp55
 70
     1
102
RTVSPropertyOp56
 70
     1
102
RTVSPropertyOp57
 70
     1
102
RTVSPost2010Prop28
280
     0
102
RTVSPost2010PropOp28
 70
     1
102
RTVSPost2010Prop29
280
     1
102
RTVSPost2010PropOp29
 70
     1
102
RTVSPost2010Prop30
280
     1
102
RTVSPost2010PropOp30
 70
     1
102
RTVSPost2010Prop31
280
     0
102
RTVSPost2010PropOp31
 70
     1
102
RTVSPost2010Prop32
280
     0
102
RTVSPost2010PropOp32
 70
     1
102
RTVSPost2010Prop33
280
     0
102
RTVSPost2010PropOp33
 70
     1
102
RTVSPost2010Prop34
280
     0
102
RTVSPost2010PropOp34
 70
     1
102
RTVSPost2010Prop35
280
     0
102
RTVSPost2010PropOp35
 70
     1
102
RTVSPost2010Prop36
280
     0
102
RTVSPost2010PropOp36
 70
     1
102
RTVSPost2010Prop37
 90
       50
102
RTVSPost2010PropOp37
 70
     1
102
RTVSPost2010Prop38
140
0.0
102
RTVSPost2010PropOp38
 70
     1
102
RTVSPost2010Prop39
140
1.0
102
RTVSPost2010PropOp39
 70
     1
102
RTVSPost2010Prop40
 90
        0
102
RTVSPost2010PropOp40
 70
     1
102
RTVSPost2010Prop41ColorIndex
 90
       18
102
RTVSPost2010Prop41ColorRGB
 90
        0
102
RTVSPost2010PropOp41
 70
     1
102
RTVSPost2010Prop42
 90
       50
102
RTVSPost2010PropOp42
 70
     1
102
RTVSPost2010Prop43
 90
        3
102
RTVSPost2010PropOp43
 70
     1
102
RTVSPost2010Prop44ColorIndex
 90
        5
102
RTVSPost2010Prop44ColorRGB
 90
      255
102
RTVSPost2010PropOp44
 70
     1
102
RTVSPost2010Prop45
280
     0
102
RTVSPost2010PropOp45
 70
     1
102
RTVSPost2010Prop46
 90
       50
102
RTVSPost2010PropOp46
 70
     1
102
RTVSPost2010Prop47
 90
       50
102
RTVSPost2010PropOp47
 70
     1
102
RTVSPost2010Prop48
 90
       50
102
RTVSPost2010PropOp48
 70
     1
102
RTVSPost2010Prop49
280
     0
102
RTVSPost2010PropOp49
 70
     1
102
RTVSPost2010Prop50
 90
       50
102
RTVSPost2010PropOp50
 70
     1
102
RTVSPost2010Prop51ColorIndex
 90
      256
102
RTVSPost2010Prop51ColorRGB
 90
-16777216
102
RTVSPost2010PropOp51
 70
     0
102
RTVSPost2010Prop52
140
1.0
102
RTVSPost2010PropOp52
 70
     0
102
RTVSPost2010Prop53
 90
        2
102
RTVSPost2010PropOp53
 70
     1
102
RTVSPost2010Prop54
  1
strokes_ogs.tif
102
RTVSPost2010PropOp54
 70
     1
102
RTVSPost2010Prop55
280
     0
102
RTVSPost2010PropOp55
 70
     1
102
RTVSPost2010Prop56
140
1.0
102
RTVSPost2010PropOp56
 70
     1
102
RTVSPost2010Prop57
140
1.0
102
RTVSPost2010PropOp57
 70
     1
  0
XRECORD
  5
304
102
{ACAD_REACTORS
330
303
102
}
330
303
100
AcDbXrecord
280
     1
102
RTVSPropertyOp0
 70
     1
102
RTVSPropertyOp1
 70
     1
102
RTVSPropertyOp2
 70
     1
102
RTVSPropertyOp3
 70
     1
102
RTVSPropertyOp4
 70
     1
102
RTVSPropertyOp5
 70
     1
102
RTVSPropertyOp6
 70
     1
102
RTVSPropertyOp7
 70
     1
102
RTVSPropertyOp8
 70
     1
102
RTVSPropertyOp9
 70
     1
102
RTVSPropertyOp10
 70
     1
102
RTVSPropertyOp11
 70
     1
102
RTVSPropertyOp12
 70
     1
102
RTVSPropertyOp13
 70
     1
102
RTVSPropertyOp14
 70
     1
102
RTVSPropertyOp15
 70
     1
102
RTVSPropertyOp16
 70
     1
102
RTVSPropertyOp17
 70
     1
102
RTVSPropertyOp18
 70
     1
102
RTVSPropertyOp19
 70
     1
102
RTVSPropertyOp20
 70
     1
102
RTVSPropertyOp21
 70
     1
102
RTVSPropertyOp22
 70
     1
102
RTVSPropertyOp23
 70
     1
102
RTVSPropertyOp24
 70
     1
102
RTVSPropertyOp25
 70
     1
102
RTVSPropertyOp26
 70
     1
102
RTVSPropertyOp27
 70
     1
102
RTVSPropertyOp28
 70
     1
102
RTVSPropertyOp29
 70
     1
102
RTVSPropertyOp30
 70
     1
102
RTVSPropertyOp31
 70
     1
102
RTVSPropertyOp32
 70
     1
102
RTVSPropertyOp33
 70
     1
102
RTVSPropertyOp34
 70
     1
102
RTVSPropertyOp35
 70
     1
102
RTVSPropertyOp36
 70
     1
102
RTVSPropertyOp37
 70
     1
102
RTVSPropertyOp38
 70
     1
102
RTVSPropertyOp39
 70
     1
102
RTVSPropertyOp40
 70
     1
102
RTVSPropertyOp41
 70
     1
102
RTVSPropertyOp42
 70
     1
102
RTVSPropertyOp43
 70
     1
102
RTVSPropertyOp44
 70
     1
102
RTVSPropertyOp45
 70
     1
102
RTVSPropertyOp46
 70
     1
102
RTVSPropertyOp47
 70
     1
102
RTVSPropertyOp48
 70
     1
102
RTVSPropertyOp49
 70
     1
102
RTVSPropertyOp50
 70
     1
102
RTVSPropertyOp51
 70
     0
102
RTVSPropertyOp52
 70
     0
102
RTVSPropertyOp53
 70
     1
102
RTVSPropertyOp54
 70
     1
102
RTVSPropertyOp55
 70
     1
102
RTVSPropertyOp56
 70
     1
102
RTVSPropertyOp57
 70
     1
102
RTVSPost2010Prop28
280
     0
102
RTVSPost2010PropOp28
 70
     1
102
RTVSPost2010Prop29
280
     1
102
RTVSPost2010PropOp29
 70
     1
102
RTVSPost2010Prop30
280
     1
102
RTVSPost2010PropOp30
 70
     1
102
RTVSPost2010Prop31
280
     0
102
RTVSPost2010PropOp31
 70
     1
102
RTVSPost2010Prop32
280
     0
102
RTVSPost2010PropOp32
 70
     1
102
RTVSPost2010Prop33
280
     0
102
RTVSPost2010PropOp33
 70
     1
102
RTVSPost2010Prop34
280
     0
102
RTVSPost2010PropOp34
 70
     1
102
RTVSPost2010Prop35
280
     0
102
RTVSPost2010PropOp35
 70
     1
102
RTVSPost2010Prop36
280
     0
102
RTVSPost2010PropOp36
 70
     1
102
RTVSPost2010Prop37
 90
       50
102
RTVSPost2010PropOp37
 70
     1
102
RTVSPost2010Prop38
140
0.0
102
RTVSPost2010PropOp38
 70
     1
102
RTVSPost2010Prop39
140
1.0
102
RTVSPost2010PropOp39
 70
     1
102
RTVSPost2010Prop40
 90
        0
102
RTVSPost2010PropOp40
 70
     1
102
RTVSPost2010Prop41ColorIndex
 90
       18
102
RTVSPost2010Prop41ColorRGB
 90
        0
102
RTVSPost2010PropOp41
 70
     1
102
RTVSPost2010Prop42
 90
       50
102
RTVSPost2010PropOp42
 70
     1
102
RTVSPost2010Prop43
 90
        3
102
RTVSPost2010PropOp43
 70
     1
102
RTVSPost2010Prop44ColorIndex
 90
        5
102
RTVSPost2010Prop44ColorRGB
 90
      255
102
RTVSPost2010PropOp44
 70
     1
102
RTVSPost2010Prop45
280
     0
102
RTVSPost2010PropOp45
 70
     1
102
RTVSPost2010Prop46
 90
       50
102
RTVSPost2010PropOp46
 70
     1
102
RTVSPost2010Prop47
 90
       50
102
RTVSPost2010PropOp47
 70
     1
102
RTVSPost2010Prop48
 90
       50
102
RTVSPost2010PropOp48
 70
     1
102
RTVSPost2010Prop49
280
     0
102
RTVSPost2010PropOp49
 70
     1
102
RTVSPost2010Prop50
 90
       50
102
RTVSPost2010PropOp50
 70
     1
102
RTVSPost2010Prop51ColorIndex
 90
      256
102
RTVSPost2010Prop51ColorRGB
 90
-16777216
102
RTVSPost2010PropOp51
 70
     0
102
RTVSPost2010Prop52
140
1.0
102
RTVSPost2010PropOp52
 70
     0
102
RTVSPost2010Prop53
 90
        2
102
RTVSPost2010PropOp53
 70
     1
102
RTVSPost2010Prop54
  1
strokes_ogs.tif
102
RTVSPost2010PropOp54
 70
     1
102
RTVSPost2010Prop55
280
     0
102
RTVSPost2010PropOp55
 70
     1
102
RTVSPost2010Prop56
140
1.0
102
RTVSPost2010PropOp56
 70
     1
102
RTVSPost2010Prop57
140
1.0
102
RTVSPost2010PropOp57
 70
     1
  0
ENDSEC
  0
EOF
