  0
SECTION
  2
HEADER
  9
$ACADVER
  1
AC1015
  9
$ACADMAINTVER
 70
     6
  9
$DWGCODEPAGE
  3
ANSI_1252
  9
$INSBASE
 10
0.0
 20
0.0
 30
0.0
  9
$EXTMIN
 10
-95.481934
 20
150.024521
 30
0.0
  9
$EXTMAX
 10
416.256378
 20
523.663086
 30
0.0
  9
$LIMMIN
 10
-95.481934
 20
150.024521
  9
$LIMMAX
 10
416.256378
 20
523.663086
  9
$ORTHOMODE
 70
     0
  9
$REGENMODE
 70
     1
  9
$FILLMODE
 70
     1
  9
$QTEXTMODE
 70
     0
  9
$MIRRTEXT
 70
     1
  9
$LTSCALE
 40
1.0
  9
$ATTMODE
 70
     1
  9
$TEXTSIZE
 40
2.5
  9
$TRACEWID
 40
1.0
  9
$TEXTSTYLE
  7
Standard
  9
$CLAYER
  8
0
  9
$CELTYPE
  6
ByLayer
  9
$CECOLOR
 62
   256
  9
$CELTSCALE
 40
1.0
  9
$DISPSILH
 70
     0
  9
$DIMSCALE
 40
1.0
  9
$DIMASZ
 40
2.5
  9
$DIMEXO
 40
0.625
  9
$DIMDLI
 40
3.75
  9
$DIMRND
 40
0.0
  9
$DIMDLE
 40
0.0
  9
$DIMEXE
 40
1.25
  9
$DIMTP
 40
0.0
  9
$DIMTM
 40
0.0
  9
$DIMTXT
 40
2.5
  9
$DIMCEN
 40
2.5
  9
$DIMTSZ
 40
0.0
  9
$DIMTOL
 70
     0
  9
$DIMLIM
 70
     0
  9
$DIMTIH
 70
     0
  9
$DIMTOH
 70
     0
  9
$DIMSE1
 70
     0
  9
$DIMSE2
 70
     0
  9
$DIMTAD
 70
     1
  9
$DIMZIN
 70
     8
  9
$DIMBLK
  1

  9
$DIMASO
 70
     1
  9
$DIMSHO
 70
     1
  9
$DIMPOST
  1

  9
$DIMAPOST
  1

  9
$DIMALT
 70
     0
  9
$DIMALTD
 70
     3
  9
$DIMALTF
 40
0.03937
  9
$DIMLFAC
 40
1.0
  9
$DIMTOFL
 70
     1
  9
$DIMTVP
 40
0.0
  9
$DIMTIX
 70
     0
  9
$DIMSOXD
 70
     0
  9
$DIMSAH
 70
     0
  9
$DIMBLK1
  1

  9
$DIMBLK2
  1

  9
$DIMSTYLE
  2
ISO-25
  9
$DIMCLRD
 70
     0
  9
$DIMCLRE
 70
     0
  9
$DIMCLRT
 70
     0
  9
$DIMTFAC
 40
1.0
  9
$DIMGAP
 40
0.625
  9
$DIMJUST
 70
     0
  9
$DIMSD1
 70
     0
  9
$DIMSD2
 70
     0
  9
$DIMTOLJ
 70
     0
  9
$DIMTZIN
 70
     8
  9
$DIMALTZ
 70
     0
  9
$DIMALTTZ
 70
     0
  9
$DIMUPT
 70
     0
  9
$DIMDEC
 70
     2
  9
$DIMTDEC
 70
     2
  9
$DIMALTU
 70
     2
  9
$DIMALTTD
 70
     3
  9
$DIMTXSTY
  7
Standard
  9
$DIMAUNIT
 70
     0
  9
$DIMADEC
 70
     0
  9
$DIMALTRND
 40
0.0
  9
$DIMAZIN
 70
     0
  9
$DIMDSEP
 70
    44
  9
$DIMATFIT
 70
     3
  9
$DIMFRAC
 70
     0
  9
$DIMLDRBLK
  1

  9
$DIMLUNIT
 70
     2
  9
$DIMLWD
 70
    -2
  9
$DIMLWE
 70
    -2
  9
$DIMTMOVE
 70
     0
  9
$LUNITS
 70
     2
  9
$LUPREC
 70
     4
  9
$SKETCHINC
 40
1.0
  9
$FILLETRAD
 40
10.0
  9
$AUNITS
 70
     0
  9
$AUPREC
 70
     0
  9
$MENU
  1
.
  9
$ELEVATION
 40
0.0
  9
$PELEVATION
 40
0.0
  9
$THICKNESS
 40
0.0
  9
$LIMCHECK
 70
     0
  9
$CHAMFERA
 40
0.0
  9
$CHAMFERB
 40
0.0
  9
$CHAMFERC
 40
0.0
  9
$CHAMFERD
 40
0.0
  9
$SKPOLY
 70
     0
  9
$TDCREATE
 40
2458899.495063403
  9
$TDUCREATE
 40
2458899.453396736
  9
$TDUPDATE
 40
2458899.49506419
  9
$TDUUPDATE
 40
2458899.453397523
  9
$TDINDWG
 40
0.0000000116
  9
$TDUSRTIMER
 40
0.0000000116
  9
$USRTIMER
 70
     1
  9
$ANGBASE
 50
0.0
  9
$ANGDIR
 70
     0
  9
$PDMODE
 70
     0
  9
$PDSIZE
 40
0.0
  9
$PLINEWID
 40
0.0
  9
$SPLFRAME
 70
     0
  9
$SPLINETYPE
 70
     6
  9
$SPLINESEGS
 70
     8
  9
$HANDSEED
  5
3CF
  9
$SURFTAB1
 70
     6
  9
$SURFTAB2
 70
     6
  9
$SURFTYPE
 70
     6
  9
$SURFU
 70
     6
  9
$SURFV
 70
     6
  9
$UCSBASE
  2

  9
$UCSNAME
  2

  9
$UCSORG
 10
0.0
 20
0.0
 30
0.0
  9
$UCSXDIR
 10
1.0
 20
0.0
 30
0.0
  9
$UCSYDIR
 10
0.0
 20
1.0
 30
0.0
  9
$UCSORTHOREF
  2

  9
$UCSORTHOVIEW
 70
     0
  9
$UCSORGTOP
 10
0.0
 20
0.0
 30
0.0
  9
$UCSORGBOTTOM
 10
0.0
 20
0.0
 30
0.0
  9
$UCSORGLEFT
 10
0.0
 20
0.0
 30
0.0
  9
$UCSORGRIGHT
 10
0.0
 20
0.0
 30
0.0
  9
$UCSORGFRONT
 10
0.0
 20
0.0
 30
0.0
  9
$UCSORGBACK
 10
0.0
 20
0.0
 30
0.0
  9
$PUCSBASE
  2

  9
$PUCSNAME
  2

  9
$PUCSORG
 10
0.0
 20
0.0
 30
0.0
  9
$PUCSXDIR
 10
1.0
 20
0.0
 30
0.0
  9
$PUCSYDIR
 10
0.0
 20
1.0
 30
0.0
  9
$PUCSORTHOREF
  2

  9
$PUCSORTHOVIEW
 70
     0
  9
$PUCSORGTOP
 10
0.0
 20
0.0
 30
0.0
  9
$PUCSORGBOTTOM
 10
0.0
 20
0.0
 30
0.0
  9
$PUCSORGLEFT
 10
0.0
 20
0.0
 30
0.0
  9
$PUCSORGRIGHT
 10
0.0
 20
0.0
 30
0.0
  9
$PUCSORGFRONT
 10
0.0
 20
0.0
 30
0.0
  9
$PUCSORGBACK
 10
0.0
 20
0.0
 30
0.0
  9
$USERI1
 70
     0
  9
$USERI2
 70
     0
  9
$USERI3
 70
     0
  9
$USERI4
 70
     0
  9
$USERI5
 70
     0
  9
$USERR1
 40
0.0
  9
$USERR2
 40
0.0
  9
$USERR3
 40
0.0
  9
$USERR4
 40
0.0
  9
$USERR5
 40
0.0
  9
$WORLDVIEW
 70
     1
  9
$SHADEDGE
 70
     3
  9
$SHADEDIF
 70
    70
  9
$TILEMODE
 70
     1
  9
$MAXACTVP
 70
    64
  9
$PINSBASE
 10
0.0
 20
0.0
 30
0.0
  9
$PLIMCHECK
 70
     0
  9
$PEXTMIN
 10
1.000000E+20
 20
1.000000E+20
 30
1.000000E+20
  9
$PEXTMAX
 10
-1.000000E+20
 20
-1.000000E+20
 30
-1.000000E+20
  9
$PLIMMIN
 10
0.0
 20
0.0
  9
$PLIMMAX
 10
420.0
 20
297.0
  9
$UNITMODE
 70
     0
  9
$VISRETAIN
 70
     1
  9
$PLINEGEN
 70
     0
  9
$PSLTSCALE
 70
     1
  9
$TREEDEPTH
 70
  3020
  9
$CMLSTYLE
  2
Standard
  9
$CMLJUST
 70
     0
  9
$CMLSCALE
 40
20.0
  9
$PROXYGRAPHICS
 70
     1
  9
$MEASUREMENT
 70
     1
  9
$CELWEIGHT
370
    -1
  9
$ENDCAPS
280
     0
  9
$JOINSTYLE
280
     0
  9
$LWDISPLAY
290
     0
  9
$INSUNITS
 70
     4
  9
$HYPERLINKBASE
  1

  9
$STYLESHEET
  1

  9
$XEDIT
290
     1
  9
$CEPSNTYPE
380
     0
  9
$PSTYLEMODE
290
     1
  9
$FINGERPRINTGUID
  2
{16a4067b-28bd-4b17-bbcb-803a6e239243}
  9
$VERSIONGUID
  2
{FAEB1C32-E019-11D5-929B-00C0DF256EC4}
  9
$EXTNAMES
290
     1
  9
$PSVPSCALE
 40
0.0
  9
$OLESTARTUP
290
     0
  0
ENDSEC
  0
SECTION
  2
CLASSES
  0
CLASS
  1
ACDBDICTIONARYWDFLT
  2
AcDbDictionaryWithDefault
  3
ObjectDBX Classes
 90
        0
280
     0
281
     0
  0
CLASS
  1
VISUALSTYLE
  2
AcDbVisualStyle
  3
ObjectDBX Classes
 90
     4095
280
     0
281
     0
  0
CLASS
  1
MATERIAL
  2
AcDbMaterial
  3
ObjectDBX Classes
 90
     1153
280
     0
281
     0
  0
CLASS
  1
SCALE
  2
AcDbScale
  3
ObjectDBX Classes
 90
     1153
280
     0
281
     0
  0
CLASS
  1
TABLESTYLE
  2
AcDbTableStyle
  3
ObjectDBX Classes
 90
     4095
280
     0
281
     0
  0
CLASS
  1
MLEADERSTYLE
  2
AcDbMLeaderStyle
  3
ACDB_MLEADERSTYLE_CLASS
 90
     4095
280
     0
281
     0
  0
CLASS
  1
SUN
  2
AcDbSun
  3
SCENEOE
 90
     1153
280
     0
281
     0
  0
CLASS
  1
DICTIONARYVAR
  2
AcDbDictionaryVar
  3
ObjectDBX Classes
 90
        0
280
     0
281
     0
  0
CLASS
  1
ACDBPLACEHOLDER
  2
AcDbPlaceHolder
  3
ObjectDBX Classes
 90
        0
280
     0
281
     0
  0
CLASS
  1
LAYOUT
  2
AcDbLayout
  3
ObjectDBX Classes
 90
        0
280
     0
281
     0
  0
ENDSEC
  0
SECTION
  2
TABLES
  0
TABLE
  2
VPORT
  5
8
102
{ACAD_XDICTIONARY
360
392
102
}
330
0
100
AcDbSymbolTable
 70
     1
  0
VPORT
  5
29
330
8
100
AcDbSymbolTableRecord
100
AcDbViewportTableRecord
  2
*Active
 70
     0
 10
0.0
 20
0.0
 11
1.0
 21
1.0
 12
344.186916
 22
148.5
 13
0.0
 23
0.0
 14
10.0
 24
10.0
 15
10.0
 25
10.0
 16
0.0
 26
0.0
 36
1.0
 17
0.0
 27
0.0
 37
0.0
 40
297.0
 41
1.972973
 42
50.0
 43
0.0
 44
0.0
 50
0.0
 51
0.0
 71
     0
 72
   100
 73
     1
 74
     3
 75
     0
 76
     0
 77
     0
 78
     0
281
     0
 65
     1
110
0.0
120
0.0
130
0.0
111
1.0
121
0.0
131
0.0
112
0.0
122
1.0
132
0.0
 79
     0
146
0.0
  0
ENDTAB
  0
TABLE
  2
LTYPE
  5
5
330
0
100
AcDbSymbolTable
 70
     1
  0
LTYPE
  5
14
330
5
100
AcDbSymbolTableRecord
100
AcDbLinetypeTableRecord
  2
ByBlock
 70
     0
  3

 72
    65
 73
     0
 40
0.0
  0
LTYPE
  5
15
330
5
100
AcDbSymbolTableRecord
100
AcDbLinetypeTableRecord
  2
ByLayer
 70
     0
  3

 72
    65
 73
     0
 40
0.0
  0
LTYPE
  5
16
330
5
100
AcDbSymbolTableRecord
100
AcDbLinetypeTableRecord
  2
Continuous
 70
     0
  3
Solid line
 72
    65
 73
     0
 40
0.0
  0
ENDTAB
  0
TABLE
  2
LAYER
  5
2
330
0
100
AcDbSymbolTable
 70
     1
  0
LAYER
  5
10
330
2
100
AcDbSymbolTableRecord
100
AcDbLayerTableRecord
  2
0
 70
     0
 62
   106
  6
Continuous
370
     0
390
F
  0
ENDTAB
  0
TABLE
  2
STYLE
  5
3
330
0
100
AcDbSymbolTable
 70
     4
  0
STYLE
  5
11
330
3
100
AcDbSymbolTableRecord
100
AcDbTextStyleTableRecord
  2
Standard
 70
     0
 40
0.0
 41
1.0
 50
0.0
 71
     0
 42
2.5
  3
txt
  4

  0
STYLE
  5
6E
330
3
100
AcDbSymbolTableRecord
100
AcDbTextStyleTableRecord
  2
Default
 70
     0
 40
0.0
 41
1.0
 50
0.0
 71
     0
 42
2.5
  3

  4

1001
ACAD
1000
txt
1071
        0
  0
STYLE
  5
6F
330
3
100
AcDbSymbolTableRecord
100
AcDbTextStyleTableRecord
  2
ISO
 70
     0
 40
0.0
 41
1.0
 50
0.0
 71
     0
 42
2.5
  3

  4

1001
ACAD
1000
txt
1071
        0
  0
STYLE
  5
70
330
3
100
AcDbSymbolTableRecord
100
AcDbTextStyleTableRecord
  2
zucchetti
 70
     0
 40
0.0
 41
1.0
 50
0.0
 71
     0
 42
2.5
  3

  4

1001
ACAD
1000
Arial
1071
        0
  0
ENDTAB
  0
TABLE
  2
VIEW
  5
6
330
0
100
AcDbSymbolTable
 70
     0
  0
ENDTAB
  0
TABLE
  2
UCS
  5
7
330
0
100
AcDbSymbolTable
 70
     0
  0
ENDTAB
  0
TABLE
  2
APPID
  5
9
330
0
100
AcDbSymbolTable
 70
     2
  0
APPID
  5
12
330
9
100
AcDbSymbolTableRecord
100
AcDbRegAppTableRecord
  2
ACAD
 70
     0
  0
APPID
  5
3CC
330
9
100
AcDbSymbolTableRecord
100
AcDbRegAppTableRecord
  2
ACAD_MLEADERVER
 70
     0
  0
ENDTAB
  0
TABLE
  2
DIMSTYLE
  5
A
330
0
100
AcDbSymbolTable
 70
     4
100
AcDbDimStyleTable
  0
DIMSTYLE
105
27
330
A
100
AcDbSymbolTableRecord
100
AcDbDimStyleTableRecord
  2
ISO-25
 70
     0
 41
2.5
 42
0.625
 43
3.75
 44
1.25
 73
     0
 74
     0
 77
     1
 78
     8
140
2.5
141
2.5
143
0.03937
147
0.625
171
     3
172
     1
178
     0
271
     2
272
     2
274
     3
278
    44
283
     0
284
     8
340
11
  0
DIMSTYLE
105
71
330
A
100
AcDbSymbolTableRecord
100
AcDbDimStyleTableRecord
  2
Default
 70
     0
  3
<>
 41
4.375
 42
1.05
 44
2.1
 73
     0
 74
     0
 77
     1
 78
     8
140
3.5
146
0.4
147
1.75
172
     1
271
     2
178
     3
271
     2
272
     3
284
     8
340
6E
341
72
342
72
  0
DIMSTYLE
105
79
330
A
100
AcDbSymbolTableRecord
100
AcDbDimStyleTableRecord
  2
ISO
 70
     0
  3
<>
 41
4.375
 42
1.05
 44
2.1
 73
     0
 74
     0
 77
     1
 78
     8
140
3.5
146
0.4
147
1.75
172
     1
271
     2
178
     3
271
     2
272
     3
284
     8
340
6F
341
72
342
72
  0
DIMSTYLE
105
7A
330
A
100
AcDbSymbolTableRecord
100
AcDbDimStyleTableRecord
  2
zucchetti
 70
     0
  3
<>
 41
3.0
 42
0.9
 44
1.8
 73
     0
 74
     0
 77
     1
 78
     8
140
3.0
146
0.6
147
1.5
172
     1
176
     3
177
     3
271
     2
178
     3
271
     2
272
     2
284
     8
340
70
  0
ENDTAB
  0
TABLE
  2
BLOCK_RECORD
  5
1
330
0
100
AcDbSymbolTable
 70
     6
  0
BLOCK_RECORD
  5
1F
330
1
100
AcDbSymbolTableRecord
100
AcDbBlockTableRecord
  2
*Model_Space
340
22
  0
BLOCK_RECORD
  5
1B
330
1
100
AcDbSymbolTableRecord
100
AcDbBlockTableRecord
  2
*Paper_Space
340
1E
  0
BLOCK_RECORD
  5
23
330
1
100
AcDbSymbolTableRecord
100
AcDbBlockTableRecord
  2
*Paper_Space0
340
26
  0
BLOCK_RECORD
  5
72
330
1
100
AcDbSymbolTableRecord
100
AcDbBlockTableRecord
  2
_Closed
340
0
  0
BLOCK_RECORD
  5
7B
330
1
100
AcDbSymbolTableRecord
100
AcDbBlockTableRecord
  2
a
340
0
102
{BLKREFS
331
E0
102
}
  0
BLOCK_RECORD
  5
E1
330
1
100
AcDbSymbolTableRecord
100
AcDbBlockTableRecord
  2
b
340
0
102
{BLKREFS
331
2D3
102
}
  0
BLOCK_RECORD
  5
2D4
330
1
100
AcDbSymbolTableRecord
100
AcDbBlockTableRecord
  2
c
340
0
102
{BLKREFS
331
320
102
}
  0
BLOCK_RECORD
  5
321
330
1
100
AcDbSymbolTableRecord
100
AcDbBlockTableRecord
  2
d
340
0
102
{BLKREFS
331
386
102
}
  0
ENDTAB
  0
ENDSEC
  0
SECTION
  2
BLOCKS
  0
BLOCK
  5
20
330
1F
100
AcDbEntity
  8
0
100
AcDbBlockBegin
  2
*Model_Space
 70
     0
 10
0.0
 20
0.0
 30
0.0
  3
*Model_Space
  1

  0
ENDBLK
  5
21
330
1F
100
AcDbEntity
  8
0
100
AcDbBlockEnd
  0
BLOCK
  5
1C
330
1B
100
AcDbEntity
 67
     1
  8
0
100
AcDbBlockBegin
  2
*Paper_Space
 70
     0
 10
0.0
 20
0.0
 30
0.0
  3
*Paper_Space
  1

  0
ENDBLK
  5
1D
330
1B
100
AcDbEntity
 67
     1
  8
0
100
AcDbBlockEnd
  0
BLOCK
  5
24
330
23
100
AcDbEntity
  8
0
100
AcDbBlockBegin
  2
*Paper_Space0
 70
     0
 10
0.0
 20
0.0
 30
0.0
  3
*Paper_Space0
  1

  0
ENDBLK
  5
25
330
23
100
AcDbEntity
  8
0
100
AcDbBlockEnd
  0
BLOCK
  5
73
330
72
100
AcDbEntity
  8
0
100
AcDbBlockBegin
  2
_Closed
 70
     0
 10
0.0
 20
0.0
 30
0.0
  3
_Closed
  1

  0
LINE
  5
75
330
72
100
AcDbEntity
  8
0
  6
ByBlock
 62
     0
370
    -2
100
AcDbLine
 10
-1.0
 20
0.166667
 30
0.0
 11
0.0
 21
0.0
 31
0.0
  0
LINE
  5
76
330
72
100
AcDbEntity
  8
0
  6
ByBlock
 62
     0
370
    -2
100
AcDbLine
 10
0.0
 20
0.0
 30
0.0
 11
-1.0
 21
-0.166667
 31
0.0
  0
LINE
  5
77
330
72
100
AcDbEntity
  8
0
  6
ByBlock
 62
     0
370
    -2
100
AcDbLine
 10
-1.0
 20
0.166667
 30
0.0
 11
-1.0
 21
-0.166667
 31
0.0
  0
LINE
  5
78
330
72
100
AcDbEntity
  8
0
  6
ByBlock
 62
     0
370
    -2
100
AcDbLine
 10
0.0
 20
0.0
 30
0.0
 11
-1.0
 21
0.0
 31
0.0
  0
ENDBLK
  5
74
330
72
100
AcDbEntity
  8
0
100
AcDbBlockEnd
  0
BLOCK
  5
DE
330
7B
100
AcDbEntity
  8
0
100
AcDbBlockBegin
  2
a
 70
     0
 10
236.744843
 20
114.574432
 30
0.0
  3
a
  1

  0
LINE
  5
7C
330
7B
100
AcDbEntity
  8
0
  6
Continuous
 62
     0
370
     0
100
AcDbLine
 10
326.999821
 20
523.074621
 30
0.0
 11
370.481361
 21
523.074621
 31
0.0
  0
LINE
  5
7D
330
7B
100
AcDbEntity
  8
0
  6
Continuous
 62
     0
370
     0
100
AcDbLine
 10
370.481361
 20
523.074621
 30
0.0
 11
370.481361
 21
523.663113
 31
0.0
  0
LINE
  5
7E
330
7B
100
AcDbEntity
  8
0
  6
Continuous
 62
     0
370
    30
100
AcDbLine
 10
370.481361
 20
523.663113
 30
0.0
 11
326.999821
 21
523.663113
 31
0.0
  0
LINE
  5
7F
330
7B
100
AcDbEntity
  8
0
  6
Continuous
 62
     0
370
     0
100
AcDbLine
 10
326.999821
 20
523.663113
 30
0.0
 11
326.999821
 21
523.074621
 31
0.0
  0
ARC
  5
80
330
7B
100
AcDbEntity
  8
0
  6
Continuous
 62
     0
370
    30
100
AcDbCircle
 10
370.481361
 20
523.163113
 30
0.0
 40
0.5
100
AcDbArc
 50
0.0
 51
90.0
  0
LINE
  5
81
330
7B
100
AcDbEntity
  8
0
  6
Continuous
 62
     0
370
    30
100
AcDbLine
 10
370.981361
 20
518.163458
 30
0.0
 11
370.981361
 21
523.163113
 31
0.0
  0
SPLINE
  5
82
330
7B
100
AcDbEntity
  8
0
  6
Continuous
 62
     0
370
     0
100
AcDbSpline
210
0.0
220
0.0
230
1.0
 70
     8
 71
     3
 72
    11
 73
     7
 74
     0
 42
0.000000001
 43
0.0
 40
0.0
 40
0.0
 40
0.0
 40
0.0
 40
0.195090322016125
 40
0.3901806440322549
 40
0.585270966048386
 40
0.7803612880645139
 40
0.7803612880645139
 40
0.7803612880645139
 40
0.7803612880645139
 10
370.9813613891602
 20
523.1631126403809
 30
0.0
 10
370.9813613891602
 20
523.1516034197105
 30
0.0
 10
370.9553420011022
 20
523.1283330277938
 30
0.0
 10
370.8440678448966
 20
523.0989197794346
 30
0.0
 10
370.6778752978318
 20
523.0792261502663
 30
0.0
 10
370.5463914964988
 20
523.0746211620366
 30
0.0
 10
370.4813613891602
 20
523.0746211620366
 30
0.0
  0
LINE
  5
83
330
7B
100
AcDbEntity
  8
0
  6
Continuous
 62
     0
370
     0
100
AcDbLine
 10
370.481361
 20
523.074621
 30
0.0
 11
370.481361
 21
517.663113
 31
0.0
  0
SPLINE
  5
84
330
7B
100
AcDbEntity
  8
0
  6
Continuous
 62
     0
370
     0
100
AcDbSpline
210
0.0
220
0.0
230
1.0
 70
     8
 71
     3
 72
    14
 73
    10
 74
     0
 42
0.000000001
 43
0.0
 40
0.0
 40
0.0
 40
0.0
 40
0.0
 40
0.048354094158107
 40
0.145062282474322
 40
0.264687218634128
 40
0.328503800250731
 40
0.403354935164173
 40
0.49998709135908
 40
0.5
 40
0.5
 40
0.5
 40
0.5
 10
326.9998210518988
 20
523.0746211620365
 30
0.0
 10
327.0259945667607
 20
522.782106589887
 30
0.0
 10
327.1257103456508
 20
521.9170991480316
 30
0.0
 10
327.4446196113281
 20
520.4360871215754
 30
0.0
 10
327.8572756916598
 20
519.1894213141813
 30
0.0
 10
328.1868259094994
 20
518.3437326197087
 30
0.0
 10
328.415082265653
 20
517.8101491859713
 30
0.0
 10
328.4815524700664
 20
517.6631246893015
 30
0.0
 10
328.4815590053446
 20
517.6631126405473
 30
0.0
 10
328.4815590055493
 20
517.6631126404159
 30
0.0
  0
LINE
  5
85
330
7B
100
AcDbEntity
  8
0
  6
Continuous
 62
     0
370
    30
100
AcDbLine
 10
290.981361
 20
523.663113
 30
0.0
 11
325.597334
 21
523.663113
 31
0.0
  0
LINE
  5
86
330
7B
100
AcDbEntity
  8
0
  6
Continuous
 62
     0
370
    30
100
AcDbLine
 10
325.597358
 20
523.663113
 30
0.0
 11
326.999817
 21
523.663113
 31
0.0
  0
SPLINE
  5
87
330
7B
100
AcDbEntity
  8
0
  6
Continuous
 62
     0
370
     0
100
AcDbSpline
210
0.0
220
0.0
230
1.0
 70
     8
 71
     3
 72
    15
 73
    11
 74
     0
 42
0.000000001
 43
0.0
 40
0.001067120215926
 40
0.001067120215926
 40
0.001067120215926
 40
0.001067120215926
 40
0.316827091973909
 40
0.633520554628056
 40
1.266165740865884
 40
2.526889210371088
 40
5.01931939226252
 40
7.475346581360222
 40
8.695445936514298
 40
9.910789627008276
 40
9.910789627008276
 40
9.910789627008276
 40
9.910789627008276
 10
326.0589108093657
 20
523.1631346261455
 30
0.0
 10
326.0652946394581
 20
523.0509497568418
 30
0.0
 10
326.0799573277948
 20
522.8269293709213
 30
0.0
 10
326.1167699041646
 20
522.3831481448374
 30
0.0
 10
326.1999031923216
 20
521.6210564618432
 30
0.0
 10
326.4301863334855
 20
520.1795262464484
 30
0.0
 10
326.8768112399719
 20
518.4174066995372
 30
0.0
 10
327.274269500951
 20
517.2351298869214
 30
0.0
 10
327.4503613529462
 20
516.746420611336
 30
0.0
 10
327.481313757656
 20
516.6631692584627
 30
0.0
 10
327.4813312594607
 20
516.6631465690793
 30
0.0
  0
SPLINE
  5
88
330
7B
100
AcDbEntity
  8
0
  6
Continuous
 62
     0
370
     0
100
AcDbSpline
210
0.0
220
0.0
230
1.0
 70
     8
 71
     3
 72
    12
 73
     8
 74
     0
 42
0.000000001
 43
0.0
 40
0.0
 40
0.0
 40
0.0
 40
0.0
 40
0.111012187958316
 40
0.3330365638749471
 40
0.666419699098937
 40
0.8888065663663131
 40
1.0
 40
1.0
 40
1.0
 40
1.0
 10
326.9998201525833
 20
523.0746356843966
 30
0.0
 10
326.9553887217803
 20
523.0766140586734
 30
0.0
 10
326.8222098326349
 20
523.0834859625841
 30
0.0
 10
326.560137094174
 20
523.1018583098539
 30
0.0
 10
326.299230233134
 20
523.1274731392588
 30
0.0
 10
326.1351706983084
 20
523.1494974850166
 30
0.0
 10
326.0759956271346
 20
523.1597993406954
 30
0.0
 10
326.0589108093657
 20
523.1631346261455
 30
0.0
  0
LINE
  5
89
330
7B
100
AcDbEntity
  8
0
  6
Continuous
 62
     0
370
     0
100
AcDbLine
 10
326.058888
 20
523.163113
 30
0.0
 11
290.481361
 21
523.163113
 31
0.0
  0
SPLINE
  5
8A
330
7B
100
AcDbEntity
  8
0
  6
Continuous
 62
     0
370
     0
100
AcDbSpline
210
0.0
220
0.0
230
1.0
 70
     8
 71
     3
 72
    11
 73
     7
 74
     0
 42
0.000000001
 43
0.0
 40
0.0
 40
0.0
 40
0.0
 40
0.0
 40
0.195090322016126
 40
0.390180644032258
 40
0.585270966048397
 40
0.7803393033667899
 40
0.7803393033667899
 40
0.7803393033667899
 40
0.7803393033667899
 10
325.5973339385211
 20
523.6631126403809
 30
0.0
 10
325.657363853989
 20
523.6631126403809
 30
0.0
 10
325.7787378114131
 20
523.637093252323
 30
0.0
 10
325.932151744743
 20
523.5258190961174
 30
0.0
 10
326.0348661265847
 20
523.3596327917897
 30
0.0
 10
326.058886024749
 20
523.2281575645428
 30
0.0
 10
326.0588887311014
 20
523.1631346251058
 30
0.0
  0
ARC
  5
8B
330
7B
100
AcDbEntity
  8
0
  6
Continuous
 62
     0
370
    30
100
AcDbCircle
 10
290.981361
 20
523.163113
 30
0.0
 40
0.499999999989468
100
AcDbArc
 50
90.0
 51
180.0
  0
SPLINE
  5
8C
330
7B
100
AcDbEntity
  8
0
  6
Continuous
 62
     0
370
    30
100
AcDbSpline
210
0.0
220
0.0
230
1.0
 70
     8
 71
     3
 72
    18
 73
    14
 74
     0
 42
0.000000001
 43
0.0
 40
0.0
 40
0.0
 40
0.0
 40
0.0
 40
0.062955829521723
 40
0.188867488565168
 40
0.30060642748158
 40
0.3869285227655511
 40
0.460764789592247
 40
0.5877448564161971
 40
0.6996831362609349
 40
0.8034481224650809
 40
0.9027318011791632
 40
0.967577267059721
 40
1.0
 40
1.0
 40
1.0
 40
1.0
 10
290.4813613891601
 20
500.9679022769188
 30
0.0
 10
290.4813613891601
 20
500.9668320660591
 30
0.0
 10
290.5752068112325
 20
500.9414549475882
 30
0.0
 10
291.1782340703199
 20
500.7684653569177
 30
0.0
 10
292.3998953117776
 20
500.4180165764782
 30
0.0
 10
293.7906191156836
 20
500.0186266786459
 30
0.0
 10
295.5388187273136
 20
499.5178890337703
 30
0.0
 10
297.7909607225018
 20
498.8718306850619
 30
0.0
 10
300.6039775057698
 20
498.0653150340556
 30
0.0
 10
303.4014588038942
 20
497.2631161994823
 30
0.0
 10
305.8904711114393
 20
496.5494135886558
 30
0.0
 10
307.7513701991002
 20
496.0158079426551
 30
0.0
 10
308.6738633964195
 20
495.7512857851131
 30
0.0
 10
308.9813613891601
 20
495.6631126403809
 30
0.0
  0
LINE
  5
8D
330
7B
100
AcDbEntity
  8
0
  6
Continuous
 62
     0
370
    30
100
AcDbLine
 10
308.981361
 20
495.663113
 30
0.0
 11
327.481361
 21
495.663113
 31
0.0
  0
LINE
  5
8E
330
7B
100
AcDbEntity
  8
0
  6
Continuous
 62
     0
370
     0
100
AcDbLine
 10
277.237995
 20
413.563095
 30
0.0
 11
277.237995
 21
411.563095
 31
0.0
  0
SPLINE
  5
8F
330
7B
100
AcDbEntity
  8
0
  6
Continuous
 62
     0
370
     0
100
AcDbSpline
210
0.0
220
0.0
230
1.0
 70
    12
 71
     2
 72
     6
 73
     3
 74
     0
 42
0.000000001
 43
0.0
 40
0.750000000000001
 40
0.750000000000001
 40
0.750000000000001
 40
1.0
 40
1.0
 40
1.0
 10
277.2379949167909
 20
415.5630947907147
 30
0.0
 41
1.0
 10
277.2379949446441
 20
415.5630947910756
 30
0.0
 41
0.707106781186548
 10
277.2379948920904
 20
413.5630947910756
 30
0.0
 41
1.0
  0
LINE
  5
90
330
7B
100
AcDbEntity
  8
0
  6
Continuous
 62
     0
370
     0
100
AcDbLine
 10
282.222688
 20
410.387495
 30
0.0
 11
284.035303
 21
411.232732
 31
0.0
  0
LINE
  5
91
330
7B
100
AcDbEntity
  8
0
  6
Continuous
 62
     0
370
     0
100
AcDbLine
 10
280.410072
 20
409.542259
 30
0.0
 11
282.222688
 21
410.387495
 31
0.0
  0
SPLINE
  5
92
330
7B
100
AcDbEntity
  8
0
  6
Continuous
 62
     0
370
    30
100
AcDbSpline
210
0.0
220
0.0
230
1.0
 70
    12
 71
     2
 72
     8
 73
     5
 74
     0
 42
0.000000001
 43
0.0
 40
0.5
 40
0.5
 40
0.5
 40
0.666666666666667
 40
0.666666666666667
 40
1.0
 40
1.0
 40
1.0
 10
265.742744485216
 20
415.0630950927735
 30
0.0
 41
0.9330127018922194
 10
265.7427444908135
 20
415.0630950928461
 30
0.0
 41
0.9330127018922194
 10
265.7427444903804
 20
414.8621331985855
 30
0.0
 41
1.0
 10
265.7427444894472
 20
414.4291204968287
 30
0.0
 41
0.866025403784439
 10
265.7427444666907
 20
413.5630950930442
 30
0.0
 41
1.0
  0
LINE
  5
93
330
7B
100
AcDbEntity
  8
0
  6
Continuous
 62
     0
370
    30
100
AcDbLine
 10
265.742744
 20
413.563095
 30
0.0
 11
265.742744
 21
412.063095
 31
0.0
  0
LINE
  5
94
330
7B
100
AcDbEntity
  8
0
  6
Continuous
 62
     0
370
    30
100
AcDbLine
 10
285.010107
 20
363.013115
 30
0.0
 11
335.981361
 21
363.013115
 31
0.0
  0
SPLINE
  5
95
330
7B
100
AcDbEntity
  8
0
  6
Continuous
 62
     0
370
    30
100
AcDbSpline
210
0.0
220
0.0
230
1.0
 70
    28
 71
     2
 72
     6
 73
     3
 74
     0
 42
0.000000001
 43
0.0
 40
0.9217204781657764
 40
0.9217204781657764
 40
0.9217204781657764
 40
1.0
 40
1.0
 40
1.0
 10
281.9813613838858
 20
363.0131149291992
 30
0.0
 41
0.8740118936380254
 10
281.9813613814436
 20
363.0131149291992
 30
0.0
 41
0.9082898355311855
 10
285.010106534738
 20
363.0131149291992
 30
0.0
 41
1.0
  0
LINE
  5
96
330
7B
100
AcDbEntity
  8
0
  6
Continuous
 62
     0
370
     0
100
AcDbLine
 10
285.033364
 20
366.01486
 30
0.0
 11
282.007557
 21
366.01486
 31
0.0
  0
LINE
  5
97
330
7B
100
AcDbEntity
  8
0
  6
Continuous
 62
     0
370
     0
100
AcDbLine
 10
335.955166
 20
366.01486
 30
0.0
 11
285.033364
 21
366.01486
 31
0.0
  0
SPLINE
  5
98
330
7B
100
AcDbEntity
  8
0
  6
Continuous
 62
     0
370
     0
100
AcDbSpline
210
0.0
220
0.0
230
1.0
 70
     8
 71
     3
 72
    20
 73
    16
 74
     0
 42
0.000000001
 43
0.0
 40
0.0
 40
0.0
 40
0.0
 40
0.0
 40
0.035902497549978
 40
0.107707492649933
 40
0.159577211674609
 40
0.235413261392195
 40
0.351471804518828
 40
0.451776892634059
 40
0.548269557656316
 40
0.648575108994928
 40
0.7646447072938851
 40
0.8405174184987209
 40
0.892358959032309
 40
0.9641196530107701
 40
1.0
 40
1.0
 40
1.0
 40
1.0
 10
331.5644607196363
 20
458.2131004334086
 30
0.0
 10
331.5660018067656
 20
458.2131001755124
 30
0.0
 10
331.5778881602848
 20
458.2156292161846
 30
0.0
 10
331.6684052494181
 20
458.2307136600903
 30
0.0
 10
331.8620339047977
 20
458.2611875214399
 30
0.0
 10
332.1918423066479
 20
458.3077368669072
 30
0.0
 10
332.7167795348527
 20
458.3638466290572
 30
0.0
 10
333.3615197153163
 20
458.3979677701361
 30
0.0
 10
333.9976147238701
 20
458.3979247566452
 30
0.0
 10
334.6423677659683
 20
458.3638284666588
 30
0.0
 10
335.1674148470056
 20
458.3076980768652
 30
0.0
 10
335.4969722229937
 20
458.2611376411062
 30
0.0
 10
335.6906760101008
 20
458.2306981248595
 30
0.0
 10
335.7815278575199
 20
458.2156272630593
 30
0.0
 10
335.7930958684944
 20
458.2131004333495
 30
0.0
 10
335.7945315251432
 20
458.2131004333495
 30
0.0
  0
LINE
  5
99
330
7B
100
AcDbEntity
  8
0
  6
Continuous
 62
     0
370
    30
100
AcDbLine
 10
414.222051
 20
459.870454
 30
0.0
 11
414.938206
 21
463.931972
 31
0.0
  0
LINE
  5
9A
330
7B
100
AcDbEntity
  8
0
  6
Continuous
 62
     0
370
    30
100
AcDbLine
 10
414.214375
 20
459.826924
 30
0.0
 11
414.222051
 21
459.870454
 31
0.0
  0
LINE
  5
9B
330
7B
100
AcDbEntity
  8
0
  6
Continuous
 62
     0
370
    30
100
AcDbLine
 10
413.58393
 20
456.251494
 30
0.0
 11
414.214375
 21
459.826924
 31
0.0
  0
LINE
  5
9C
330
7B
100
AcDbEntity
  8
0
  6
Continuous
 62
     0
370
    30
100
AcDbLine
 10
415.925037
 20
469.528568
 30
0.0
 11
415.956622
 21
469.7077
 31
0.0
  0
LINE
  5
9D
330
7B
100
AcDbEntity
  8
0
  6
Continuous
 62
     0
370
    30
100
AcDbLine
 10
415.834214
 20
469.013489
 30
0.0
 11
415.925037
 21
469.528568
 31
0.0
  0
LINE
  5
9E
330
7B
100
AcDbEntity
  8
0
  6
Continuous
 62
     0
370
    30
100
AcDbLine
 10
414.938206
 20
463.931972
 30
0.0
 11
415.834214
 21
469.013489
 31
0.0
  0
LINE
  5
9F
330
7B
100
AcDbEntity
  8
0
  6
Continuous
 62
     0
370
    30
100
AcDbLine
 10
415.834214
 20
469.013489
 30
0.0
 11
415.757483
 21
469.027019
 31
0.0
  0
LINE
  5
A0
330
7B
100
AcDbEntity
  8
0
  6
Continuous
 62
     0
370
    30
100
AcDbLine
 10
414.938206
 20
463.931972
 30
0.0
 11
414.861474
 21
463.945502
 31
0.0
  0
LINE
  5
A1
330
7B
100
AcDbEntity
  8
0
  6
Continuous
 62
     0
370
    30
100
AcDbLine
 10
415.956622
 20
469.7077
 30
0.0
 11
415.879891
 21
469.72123
 31
0.0
  0
LINE
  5
A2
330
7B
100
AcDbEntity
  8
0
  6
Continuous
 62
     0
370
    30
100
AcDbLine
 10
414.214375
 20
459.826924
 30
0.0
 11
414.137644
 21
459.840454
 31
0.0
  0
LINE
  5
A3
330
7B
100
AcDbEntity
  8
0
  6
Continuous
 62
     0
370
    30
100
AcDbLine
 10
413.58393
 20
456.251494
 30
0.0
 11
413.507199
 21
456.265024
 31
0.0
  0
LINE
  5
A4
330
7B
100
AcDbEntity
  8
0
  6
Continuous
 62
     0
370
    30
100
AcDbLine
 10
414.222051
 20
459.870454
 30
0.0
 11
414.145319
 21
459.883984
 31
0.0
  0
SPLINE
  5
A5
330
7B
100
AcDbEntity
  8
0
  6
Continuous
 62
     0
370
    30
100
AcDbSpline
210
0.0
220
0.0
230
1.0
 70
    28
 71
     2
 72
     6
 73
     3
 74
     0
 42
0.000000001
 43
0.0
 40
0.9602858428931745
 40
0.9602858428931745
 40
0.9602858428931745
 40
1.0
 40
1.0
 40
1.0
 10
397.7912326412478
 20
475.1122974840029
 30
0.0
 41
0.9571676136954914
 10
397.7912326414801
 20
475.1122974853199
 30
0.0
 41
0.9767359853850375
 10
397.78093173547
 20
475.0538781443395
 30
0.0
 41
1.0
  0
LINE
  5
A6
330
7B
100
AcDbEntity
  8
0
  6
Continuous
 62
     0
370
    30
100
AcDbLine
 10
397.780932
 20
475.053878
 30
0.0
 11
394.665565
 21
457.385758
 31
0.0
  0
SPLINE
  5
A7
330
7B
100
AcDbEntity
  8
0
  6
Continuous
 62
     0
370
    30
100
AcDbSpline
210
0.0
220
0.0
230
1.0
 70
    28
 71
     2
 72
     8
 73
     5
 74
     0
 42
0.000000001
 43
0.0
 40
0.723652607420368
 40
0.723652607420368
 40
0.723652607420368
 40
0.75
 40
0.75
 40
1.0
 40
1.0
 40
1.0
 10
386.6146084205846
 20
463.374778626888
 30
0.0
 41
0.9447705264687227
 10
386.6146084204198
 20
463.3747786259528
 30
0.0
 41
0.9691321095200388
 10
386.6237949540122
 20
463.4268780469008
 30
0.0
 41
1.0
 10
386.7432630698526
 20
464.1044154002908
 30
0.0
 41
0.707106781186548
 10
387.5154933359263
 20
468.4839508688329
 30
0.0
 41
1.0
  0
LINE
  5
A8
330
7B
100
AcDbEntity
  8
0
  6
Continuous
 62
     0
370
    30
100
AcDbLine
 10
387.515493
 20
468.483951
 30
0.0
 11
388.177442
 21
472.238048
 31
0.0
  0
LINE
  5
A9
330
7B
100
AcDbEntity
  8
0
  6
Continuous
 62
     0
370
    30
100
AcDbLine
 10
290.481361
 20
500.967902
 30
0.0
 11
290.481361
 21
523.163113
 31
0.0
  0
LINE
  5
AA
330
7B
100
AcDbEntity
  8
0
  6
Continuous
 62
     0
370
    30
100
AcDbLine
 10
327.481361
 20
493.213115
 30
0.0
 11
290.481361
 21
493.213115
 31
0.0
  0
LINE
  5
AB
330
7B
100
AcDbEntity
  8
0
  6
Continuous
 62
     0
370
    30
100
AcDbLine
 10
327.481361
 20
458.2131
 30
0.0
 11
327.481361
 21
366.213115
 31
0.0
  0
SPLINE
  5
AC
330
7B
100
AcDbEntity
  8
0
  6
Continuous
 62
     0
370
    30
100
AcDbSpline
210
0.0
220
0.0
230
1.0
 70
     8
 71
     3
 72
    24
 73
    20
 74
     0
 42
0.000000001
 43
0.0
 40
0.0
 40
0.0
 40
0.0
 40
0.0
 40
0.785717310095564
 40
1.959225733640751
 40
4.494371874093807
 40
6.342419639744625
 40
9.163835040318482
 40
11.42312354112429
 40
13.28182840211447
 40
15.25749023059749
 40
17.12949633286797
 40
19.34301985534408
 40
21.60262637526615
 40
23.44178739240733
 40
26.2027953948351
 40
27.63899696034697
 40
29.90338252657616
 40
31.7465565528672
 40
32.92469493109556
 40
32.92469493109556
 40
32.92469493109556
 40
32.92469493109556
 10
327.4813613777947
 20
478.7131004334334
 30
0.0
 10
327.4813613777947
 20
478.7131004334334
 30
0.0
 10
327.4674540108217
 20
478.6880414421374
 30
0.0
 10
327.3571481582761
 20
478.4881699069477
 30
0.0
 10
327.0469507810708
 20
477.9173707947314
 30
0.0
 10
326.4577190958204
 20
476.7483546918237
 30
0.0
 10
325.7786751266216
 20
475.2422495697979
 30
0.0
 10
325.1219348845447
 20
473.3913676787726
 30
0.0
 10
324.6574287219304
 20
471.5603584858472
 30
0.0
 10
324.3928541279143
 20
469.708496458204
 30
0.0
 10
324.3563869257736
 20
467.676516681928
 30
0.0
 10
324.6008212404302
 20
465.5906747514197
 30
0.0
 10
325.0788430052185
 20
463.6819981277262
 30
0.0
 10
325.7191791653126
 20
461.841120593184
 30
0.0
 10
326.3153449257424
 20
460.484857837576
 30
0.0
 10
326.8734792330472
 20
459.3448108807893
 30
0.0
 10
327.2519827688312
 20
458.6294455319624
 30
0.0
 10
327.4491916812464
 20
458.2710651085162
 30
0.0
 10
327.4813613777947
 20
458.2130990687481
 30
0.0
 10
327.4813613777947
 20
458.2131004334115
 30
0.0
  0
LINE
  5
AD
330
7B
100
AcDbEntity
  8
0
  6
Continuous
 62
     0
370
    30
100
AcDbLine
 10
327.481361
 20
493.213115
 30
0.0
 11
327.481361
 21
478.7131
 31
0.0
  0
SPLINE
  5
AE
330
7B
100
AcDbEntity
  8
0
  6
Continuous
 62
     0
370
    30
100
AcDbSpline
210
0.0
220
0.0
230
1.0
 70
     8
 71
     3
 72
    15
 73
    11
 74
     0
 42
0.000000001
 43
0.0
 40
16.73045599595361
 40
16.73045599595361
 40
16.73045599595361
 40
16.73045599595361
 40
16.75057122746407
 40
17.14124044056528
 40
17.55439141859775
 40
18.12241817221591
 40
18.61597694495966
 40
19.54143342748187
 40
20.60536124469671
 40
22.04116076967981
 40
22.04116076967981
 40
22.04116076967981
 40
22.04116076967981
 10
290.4813618919006
 20
387.9443172999042
 30
0.0
 10
290.4813618346797
 20
387.9443173028852
 30
0.0
 10
290.4814377433497
 20
387.9458296688646
 30
0.0
 10
290.4847906745894
 20
388.0115114881731
 30
0.0
 10
290.4974138065564
 20
388.2702559278887
 30
0.0
 10
290.5143513619461
 20
388.6505201431147
 30
0.0
 10
290.5368188988891
 20
389.2282892774842
 30
0.0
 10
290.5612545692155
 20
390.0102644492088
 30
0.0
 10
290.583934308893
 20
391.131745256599
 30
0.0
 10
290.5897874390586
 20
391.9659760781559
 30
0.0
 10
290.5897874390492
 20
392.4441910215415
 30
0.0
  0
SPLINE
  5
AF
330
7B
100
AcDbEntity
  8
0
  6
Continuous
 62
     0
370
    30
100
AcDbSpline
210
0.0
220
0.0
230
1.0
 70
     8
 71
     3
 72
    18
 73
    14
 74
     0
 42
0.000000001
 43
0.0
 40
0.0
 40
0.0
 40
0.0
 40
0.0
 40
1.634091851589132
 40
2.478209869820931
 40
3.285397875769576
 40
3.749312993161772
 40
4.175976894681588
 40
4.600303245414135
 40
4.927147935258775
 40
5.178964191678263
 40
5.387941377990925
 40
5.579222718778444
 40
5.70929811148571
 40
5.70929811148571
 40
5.70929811148571
 40
5.70929811148571
 10
290.5897874390492
 20
392.4441910215415
 30
0.0
 10
290.5897874390386
 20
392.9884086471308
 30
0.0
 10
290.5831905579935
 20
393.8152413960219
 30
0.0
 10
290.5630042132603
 20
394.892223513986
 30
0.0
 10
290.5457084248146
 20
395.5712331586757
 30
0.0
 10
290.529752216988
 20
396.0988289224675
 30
0.0
 10
290.5166022740949
 20
396.4923329777024
 30
0.0
 10
290.5045801644349
 20
396.8238158321458
 30
0.0
 10
290.4948291425783
 20
397.0770360513428
 30
0.0
 10
290.4881318457647
 20
397.2445316749873
 30
0.0
 10
290.483838172159
 20
397.3494542980268
 30
0.0
 10
290.481736093458
 20
397.4001049087071
 30
0.0
 10
290.4813687233126
 20
397.4089562126772
 30
0.0
 10
290.4813687201283
 20
397.4089562130147
 30
0.0
  0
LINE
  5
B0
330
7B
100
AcDbEntity
  8
0
  6
Continuous
 62
     0
370
    30
100
AcDbLine
 10
266.242744
 20
413.563095
 30
0.0
 11
266.242744
 21
411.563095
 31
0.0
  0
LINE
  5
B1
330
7B
100
AcDbEntity
  8
0
  6
Continuous
 62
     0
370
    30
100
AcDbLine
 10
266.242744
 20
415.563095
 30
0.0
 11
266.242744
 21
413.563095
 31
0.0
  0
LINE
  5
B2
330
7B
100
AcDbEntity
  8
0
  6
Continuous
 62
     0
370
    30
100
AcDbLine
 10
285.210922
 20
366.213115
 30
0.0
 11
282.207729
 21
366.213115
 31
0.0
  0
SPLINE
  5
B3
330
7B
100
AcDbEntity
  8
0
  6
Continuous
 62
     0
370
    30
100
AcDbSpline
210
0.0
220
0.0
230
1.0
 70
     8
 71
     3
 72
    23
 73
    19
 74
     0
 42
0.000000001
 43
0.0
 40
1.152227122301529
 40
1.152227122301529
 40
1.152227122301529
 40
1.152227122301529
 40
1.214301705417536
 40
1.285698077118075
 40
1.321452432672112
 40
1.357207039447038
 40
1.428603478758242
 40
1.499999953186434
 40
1.57139643720853
 40
1.642792871341839
 40
1.678547463834371
 40
1.714301858912693
 40
1.785697975798893
 40
1.857095604689613
 40
1.892846364751856
 40
1.928600643282679
 40
1.976200214427562
 40
2.000000000000004
 40
2.000000000000004
 40
2.000000000000004
 40
2.000000000000004
 10
335.7550745537906
 20
366.213114922447
 30
0.0
 10
335.7550745756855
 20
366.2131149215704
 30
0.0
 10
335.3900156432776
 20
366.213114918675
 30
0.0
 10
333.9436205246453
 20
366.2131149220638
 30
0.0
 10
332.1087383216965
 20
366.2131149220457
 30
0.0
 10
329.8872798746833
 20
366.2131149204087
 30
0.0
 10
326.428164923741
 20
366.2131149203026
 30
0.0
 10
321.4059418317506
 20
366.2131149244724
 30
0.0
 10
315.7614427613304
 20
366.2131149163398
 30
0.0
 10
310.7683639727492
 20
366.2131149221189
 30
0.0
 10
306.7624545291296
 20
366.2131149256147
 30
0.0
 10
302.7935426246733
 20
366.2131149240715
 30
0.0
 10
297.9865572402156
 20
366.2131149006486
 30
0.0
 10
293.640930861147
 20
366.2131149306441
 30
0.0
 10
290.5755560896071
 20
366.213114930169
 30
0.0
 10
288.2783426267913
 20
366.2131149209551
 30
0.0
 10
286.5037013934178
 20
366.2131148484749
 30
0.0
 10
285.5174368436445
 20
366.2131149291993
 30
0.0
 10
285.2109219195466
 20
366.2131149291993
 30
0.0
  0
SPLINE
  5
B4
330
7B
100
AcDbEntity
  8
0
  6
Continuous
 62
     0
370
    30
100
AcDbSpline
210
0.0
220
0.0
230
1.0
 70
     8
 71
     3
 72
    23
 73
    19
 74
     0
 42
0.000000001
 43
0.0
 40
1.0
 40
1.0
 40
1.0
 40
1.0
 40
1.035184711330872
 40
1.105554133992614
 40
1.192442570798401
 40
1.264634434147917
 40
1.328861411633564
 40
1.388161178351679
 40
1.444667997439861
 40
1.499999999999997
 40
1.555332002560139
 40
1.611838821648323
 40
1.671138588366432
 40
1.735365565852079
 40
1.807557429201596
 40
1.89444586600738
 40
1.964815288669123
 40
1.999999999999994
 40
1.999999999999994
 40
1.999999999999994
 40
1.999999999999994
 10
381.86457929438
 20
458.2131004333494
 30
0.0
 10
381.86457929438
 20
458.2131004333494
 30
0.0
 10
381.8755914167315
 20
458.2763683011513
 30
0.0
 10
381.9591662070804
 20
458.7421184013313
 30
0.0
 10
382.15684434299
 20
459.879480941798
 30
0.0
 10
382.4414807093286
 20
461.4764935420848
 30
0.0
 10
382.7388744519865
 20
463.1724215171214
 30
0.0
 10
383.0465463192712
 20
464.9169960759585
 30
0.0
 10
383.3588831843144
 20
466.6846725404234
 30
0.0
 10
383.6721177470546
 20
468.4631004333495
 30
0.0
 10
383.9853523097948
 20
470.2415283262756
 30
0.0
 10
384.297689174838
 20
472.0092047907405
 30
0.0
 10
384.6053610421228
 20
473.7537793495775
 30
0.0
 10
384.9027547847807
 20
475.4497073246141
 30
0.0
 10
385.1873911511192
 20
477.046719924901
 30
0.0
 10
385.3850692870288
 20
478.1840824653677
 30
0.0
 10
385.4686440773778
 20
478.6498325655476
 30
0.0
 10
385.4796561997292
 20
478.7131004333495
 30
0.0
 10
385.4794692993164
 20
478.7131004333495
 30
0.0
  0
LINE
  5
B5
330
7B
100
AcDbEntity
  8
0
  6
Continuous
 62
     0
370
    30
100
AcDbLine
 10
385.479469
 20
478.7131
 30
0.0
 11
327.481361
 21
478.7131
 31
0.0
  0
LINE
  5
B6
330
7B
100
AcDbEntity
  8
0
  6
Continuous
 62
     0
370
    30
100
AcDbLine
 10
397.988194
 20
475.077568
 30
0.0
 11
396.738831
 21
467.99208
 31
0.0
  0
LINE
  5
B7
330
7B
100
AcDbEntity
  8
0
  6
Continuous
 62
     0
370
    30
100
AcDbLine
 10
396.738831
 20
467.99208
 30
0.0
 11
394.862527
 21
457.351028
 31
0.0
  0
LINE
  5
B8
330
7B
100
AcDbEntity
  8
0
  6
Continuous
 62
     0
370
    30
100
AcDbLine
 10
413.130711
 20
454.129855
 30
0.0
 11
415.007015
 21
464.770906
 31
0.0
  0
LINE
  5
B9
330
7B
100
AcDbEntity
  8
0
  6
Continuous
 62
     0
370
    30
100
AcDbLine
 10
415.007015
 20
464.770906
 30
0.0
 11
416.256378
 21
471.856394
 31
0.0
  0
LINE
  5
BA
330
7B
100
AcDbEntity
  8
0
  6
Continuous
 62
     0
370
    30
100
AcDbLine
 10
390.405174
 20
476.414659
 30
0.0
 11
390.394874
 21
476.356239
 31
0.0
  0
LINE
  5
BB
330
7B
100
AcDbEntity
  8
0
  6
Continuous
 62
     0
370
    30
100
AcDbLine
 10
390.394874
 20
476.356239
 30
0.0
 11
387.279507
 21
458.688119
 31
0.0
  0
LINE
  5
BC
330
7B
100
AcDbEntity
  8
0
  6
Continuous
 62
     0
370
    30
100
AcDbLine
 10
382.890421
 20
464.031453
 30
0.0
 11
386.614608
 21
463.374779
 31
0.0
  0
LINE
  5
BD
330
7B
100
AcDbEntity
  8
0
  6
Continuous
 62
     0
370
    30
100
AcDbLine
 10
384.453794
 20
472.894628
 30
0.0
 11
388.177442
 21
472.238048
 31
0.0
  0
LINE
  5
BE
330
7B
100
AcDbEntity
  8
0
  6
Continuous
 62
     0
370
    30
100
AcDbLine
 10
394.665565
 20
457.385758
 30
0.0
 11
387.279507
 21
458.688119
 31
0.0
  0
LINE
  5
BF
330
7B
100
AcDbEntity
  8
0
  6
Continuous
 62
     0
370
    30
100
AcDbLine
 10
397.791233
 20
475.112297
 30
0.0
 11
390.405174
 21
476.414659
 31
0.0
  0
LINE
  5
C0
330
7B
100
AcDbEntity
  8
0
  6
Continuous
 62
     0
370
    30
100
AcDbLine
 10
397.988194
 20
475.077568
 30
0.0
 11
416.256378
 21
471.856394
 31
0.0
  0
LINE
  5
C1
330
7B
100
AcDbEntity
  8
0
  6
Continuous
 62
     0
370
    30
100
AcDbLine
 10
394.862527
 20
457.351028
 30
0.0
 11
413.130711
 21
454.129855
 31
0.0
  0
LINE
  5
C2
330
7B
100
AcDbEntity
  8
0
  6
Continuous
 62
     0
370
    30
100
AcDbLine
 10
381.864579
 20
458.2131
 30
0.0
 11
335.794532
 21
458.2131
 31
0.0
  0
LINE
  5
C3
330
7B
100
AcDbEntity
  8
0
  6
Continuous
 62
     0
370
    30
100
AcDbLine
 10
331.564461
 20
458.2131
 30
0.0
 11
327.481361
 21
458.2131
 31
0.0
  0
ARC
  5
C4
330
7B
100
AcDbEntity
  8
0
  6
Continuous
 62
     0
370
    30
100
AcDbCircle
 10
282.207726
 20
366.013087
 30
0.0
 40
0.2000282819177756
100
AcDbArc
 50
89.990674
 51
179.491982
  0
ARC
  5
C5
330
7B
100
AcDbEntity
  8
0
  6
Continuous
 62
     0
370
    30
100
AcDbCircle
 10
335.755043
 20
366.013087
 30
0.0
 40
0.2000281894144524
100
AcDbArc
 50
0.50799
 51
89.999518
  0
LINE
  5
C6
330
7B
100
AcDbEntity
  8
0
  6
Continuous
 62
     0
370
    30
100
AcDbLine
 10
266.242744
 20
415.563095
 30
0.0
 11
265.742772
 21
415.063122
 31
0.0
  0
LINE
  5
C7
330
7B
100
AcDbEntity
  8
0
  6
Continuous
 62
     0
370
    30
100
AcDbLine
 10
266.242744
 20
411.563095
 30
0.0
 11
265.742771
 21
412.063069
 31
0.0
  0
LINE
  5
C8
330
7B
100
AcDbEntity
  8
0
  6
Continuous
 62
     0
370
    30
100
AcDbLine
 10
266.242744
 20
411.563095
 30
0.0
 11
277.237995
 21
411.563095
 31
0.0
  0
LINE
  5
C9
330
7B
100
AcDbEntity
  8
0
  6
Continuous
 62
     0
370
    30
100
AcDbLine
 10
266.242744
 20
415.563095
 30
0.0
 11
277.237995
 21
415.563095
 31
0.0
  0
LINE
  5
CA
330
7B
100
AcDbEntity
  8
0
  6
Continuous
 62
     0
370
    30
100
AcDbLine
 10
280.410072
 20
409.542259
 30
0.0
 11
290.480988
 21
387.94511
 31
0.0
  0
LINE
  5
CB
330
7B
100
AcDbEntity
  8
0
  6
Continuous
 62
     0
370
    30
100
AcDbLine
 10
284.035303
 20
411.232732
 30
0.0
 11
290.481424
 21
397.408982
 31
0.0
  0
LINE
  5
CC
330
7B
100
AcDbEntity
  8
0
  6
Continuous
 62
     0
370
    30
100
AcDbLine
 10
290.481361
 20
366.213115
 30
0.0
 11
290.481361
 21
387.944611
 31
0.0
  0
LINE
  5
CD
330
7B
100
AcDbEntity
  8
0
  6
Continuous
 62
     0
370
    30
100
AcDbLine
 10
290.481361
 20
397.407982
 30
0.0
 11
290.481361
 21
493.213115
 31
0.0
  0
ARC
  5
CE
330
7B
100
AcDbEntity
  8
0
  6
Continuous
 62
     0
370
    30
100
AcDbCircle
 10
309.699393
 20
492.257886
 30
0.0
 40
17.50005773845033
100
AcDbArc
 50
153.878625
 51
176.871002
  0
ARC
  5
CF
330
7B
100
AcDbEntity
  8
0
  6
Continuous
 62
     0
370
    30
100
AcDbCircle
 10
308.262992
 20
492.257852
 30
0.0
 40
17.5003973268703
100
AcDbArc
 50
3.12905
 51
11.220301
  0
LINE
  5
D0
330
7B
100
AcDbEntity
  8
0
  6
Continuous
 62
     0
370
    30
100
AcDbLine
 10
327.481361
 20
495.663113
 30
0.0
 11
327.481361
 21
516.663139
 31
0.0
  0
ARC
  5
D1
330
7B
100
AcDbEntity
  8
0
  6
Continuous
 62
     0
370
    30
100
AcDbCircle
 10
391.304459
 20
467.117035
 30
0.0
 40
6.000251263799173
100
AcDbArc
 50
104.624668
 51
121.409268
  0
ARC
  5
D2
330
7B
100
AcDbEntity
  8
0
  6
Continuous
 62
     0
370
    30
100
AcDbCircle
 10
391.304533
 20
467.117454
 30
0.0
 40
6.000251263780852
100
AcDbArc
 50
218.590732
 51
235.375332
  0
LINE
  5
D3
330
7B
100
AcDbEntity
  8
0
  6
Continuous
 62
     0
370
    30
100
AcDbLine
 10
395.122999
 20
458.82824
 30
0.0
 11
394.926038
 21
458.86297
 31
0.0
  0
LINE
  5
D4
330
7B
100
AcDbEntity
  8
0
  6
Continuous
 62
     0
370
    30
100
AcDbLine
 10
397.727722
 20
473.600356
 30
0.0
 11
397.53076
 21
473.635086
 31
0.0
  0
LINE
  5
D5
330
7B
100
AcDbEntity
  8
0
  6
Continuous
 62
     0
370
    30
100
AcDbLine
 10
415.925037
 20
469.528568
 30
0.0
 11
415.848305
 21
469.542098
 31
0.0
  0
LINE
  5
D6
330
7B
100
AcDbEntity
  8
0
  6
Continuous
 62
     0
370
    30
100
AcDbLine
 10
335.794532
 20
458.2131
 30
0.0
 11
331.564461
 21
458.2131
 31
0.0
  0
LINE
  5
D7
330
7B
100
AcDbEntity
  8
0
  6
Continuous
 62
     0
370
    30
100
AcDbLine
 10
335.981361
 20
363.013115
 30
0.0
 11
335.955166
 21
366.01486
 31
0.0
  0
LINE
  5
D8
330
7B
100
AcDbEntity
  8
0
  6
Continuous
 62
     0
370
    30
100
AcDbLine
 10
281.981361
 20
363.013115
 30
0.0
 11
282.007557
 21
366.01486
 31
0.0
  0
ARC
  5
D9
330
7B
100
AcDbEntity
  8
0
  6
Continuous
 62
     0
370
    30
100
AcDbCircle
 10
277.23794
 20
408.063009
 30
0.0
 40
3.500086042933956
100
AcDbArc
 50
25.000897
 51
89.999101
  0
ARC
  5
DA
330
7B
100
AcDbEntity
  8
0
  6
Continuous
 62
     0
370
    30
100
AcDbCircle
 10
277.238088
 20
408.063241
 30
0.0
 40
7.499853779216092
100
AcDbArc
 50
24.999288
 51
90.00071
  0
ARC
  5
DB
330
7B
100
AcDbEntity
  8
0
  6
Continuous
 62
     0
370
    30
100
AcDbCircle
 10
328.481338
 20
516.663139
 30
0.0
 40
1.000006823275477
100
AcDbArc
 50
89.999034
 51
179.99954
  0
LINE
  5
DC
330
7B
100
AcDbEntity
  8
0
  6
Continuous
 62
     0
370
    30
100
AcDbLine
 10
328.481713
 20
517.663113
 30
0.0
 11
370.481361
 21
517.663113
 31
0.0
  0
ARC
  5
DD
330
7B
100
AcDbEntity
  8
0
  6
Continuous
 62
     0
370
    30
100
AcDbCircle
 10
370.481359
 20
518.163115
 30
0.0
 40
0.5000027427125919
100
AcDbArc
 50
270.000314
 51
359.999029
  0
ENDBLK
  5
DF
330
7B
100
AcDbEntity
  8
0
100
AcDbBlockEnd
  0
BLOCK
  5
2D1
330
E1
100
AcDbEntity
  8
0
100
AcDbBlockBegin
  2
b
 70
     0
 10
241.798203
 20
-0.159973
 30
0.0
  3
b
  1

  0
ARC
  5
E2
330
E1
100
AcDbEntity
  8
0
  6
Continuous
 62
     0
370
    30
100
AcDbCircle
 10
167.100678
 20
523.163082
 30
0.0
 40
0.500000000000001
100
AcDbArc
 50
90.0
 51
190.194075
  0
LINE
  5
E3
330
E1
100
AcDbEntity
  8
0
  6
Continuous
 62
     0
370
     0
100
AcDbLine
 10
179.059287
 20
523.163082
 30
0.0
 11
179.059287
 21
523.663082
 31
0.0
  0
LINE
  5
E4
330
E1
100
AcDbEntity
  8
0
  6
Continuous
 62
     0
370
    30
100
AcDbLine
 10
179.059287
 20
523.663082
 30
0.0
 11
167.100678
 21
523.663082
 31
0.0
  0
LINE
  5
E5
330
E1
100
AcDbEntity
  8
0
  6
Continuous
 62
     0
370
     0
100
AcDbLine
 10
167.100678
 20
523.663082
 30
0.0
 11
167.100678
 21
523.163082
 31
0.0
  0
LINE
  5
E6
330
E1
100
AcDbEntity
  8
0
  6
Continuous
 62
     0
370
     0
100
AcDbLine
 10
167.100678
 20
523.163082
 30
0.0
 11
179.059287
 21
523.163082
 31
0.0
  0
ARC
  5
E7
330
E1
100
AcDbEntity
  8
0
  6
Continuous
 62
     0
370
     0
100
AcDbCircle
 10
173.079983
 20
524.23871
 30
0.0
 40
6.07528262994094
100
AcDbArc
 50
190.19797
 51
349.80203
  0
LINE
  5
E8
330
E1
100
AcDbEntity
  8
0
  6
Continuous
 62
     0
370
     0
100
AcDbLine
 10
167.100678
 20
523.163082
 30
0.0
 11
166.608571
 21
523.074591
 31
0.0
  0
ARC
  5
E9
330
E1
100
AcDbEntity
  8
0
  6
Continuous
 62
     0
370
    30
100
AcDbCircle
 10
173.079983
 20
524.23829
 30
0.0
 40
6.575208333333302
100
AcDbArc
 50
190.194075
 51
349.805925
  0
LINE
  5
EA
330
E1
100
AcDbEntity
  8
0
  6
Continuous
 62
     0
370
     0
100
AcDbLine
 10
179.551394
 20
523.074591
 30
0.0
 11
179.059287
 21
523.163082
 31
0.0
  0
ARC
  5
EB
330
E1
100
AcDbEntity
  8
0
  6
Continuous
 62
     0
370
    30
100
AcDbCircle
 10
179.059287
 20
523.163082
 30
0.0
 40
0.500000000000001
100
AcDbArc
 50
349.805925
 51
90.0
  0
SPLINE
  5
EC
330
E1
100
AcDbEntity
  8
0
  6
Continuous
 62
     0
370
    30
100
AcDbSpline
210
0.0
220
0.0
230
1.0
 70
    28
 71
     2
 72
     6
 73
     3
 74
     0
 42
0.000000001
 43
0.0
 40
0.5754046567659956
 40
0.5754046567659956
 40
0.5754046567659956
 40
1.0
 40
1.0
 40
1.0
 10
155.0799854397774
 20
523.6630821228027
 30
0.0
 41
0.94194228279986
 10
155.0799849206616
 20
523.6630821228027
 30
0.0
 41
0.8075128258314623
 10
166.1583190007329
 20
523.6630821228027
 30
0.0
 41
1.0
  0
LINE
  5
ED
330
E1
100
AcDbEntity
  8
0
  6
Continuous
 62
     0
370
    30
100
AcDbLine
 10
166.158313
 20
523.663082
 30
0.0
 11
167.100704
 21
523.663082
 31
0.0
  0
SPLINE
  5
EE
330
E1
100
AcDbEntity
  8
0
  6
Continuous
 62
     0
370
    30
100
AcDbSpline
210
0.0
220
0.0
230
1.0
 70
    24
 71
     3
 72
    11
 73
     7
 74
     0
 42
0.000000001
 43
0.0
 40
0.000011780684728
 40
0.000011780684728
 40
0.000011780684728
 40
0.000011780684728
 40
0.396915130353283
 40
0.9623746722751839
 40
1.477333088986333
 40
1.790797882459533
 40
1.790797882459533
 40
1.790797882459533
 40
1.790797882459533
 10
179.0591749469799
 20
523.6630821228027
 30
0.0
 10
179.0591719613677
 20
523.6630821228027
 30
0.0
 10
179.1021840966442
 20
523.6630821228027
 30
0.0
 10
179.3213531978935
 20
523.6630821228027
 30
0.0
 10
179.6609224640577
 20
523.6630821228027
 30
0.0
 10
179.9053138835602
 20
523.6630821228027
 30
0.0
 10
180.0016138375055
 20
523.6630821228027
 30
0.0
  0
LINE
  5
EF
330
E1
100
AcDbEntity
  8
0
  6
Continuous
 62
     0
370
    30
100
AcDbLine
 10
180.001592
 20
523.663082
 30
0.0
 11
191.079985
 21
523.663082
 31
0.0
  0
SPLINE
  5
F0
330
E1
100
AcDbEntity
  8
0
  6
Continuous
 62
     0
370
     0
100
AcDbSpline
210
0.0
220
0.0
230
1.0
 70
     8
 71
     3
 72
    22
 73
    18
 74
     0
 42
0.000000001
 43
0.0
 40
0.001067120215926
 40
0.001067120215926
 40
0.001067120215926
 40
0.001067120215926
 40
0.316827091973909
 40
0.633520554628056
 40
1.266165740865884
 40
2.526889210371088
 40
5.01931939226252
 40
7.475346581360222
 40
8.695445936514298
 40
9.910864643839737
 40
11.12631452071983
 40
12.34647426686971
 40
14.80242169380894
 40
17.29483436352839
 40
18.55560707764101
 40
19.18826865186634
 40
19.82051213380063
 40
19.82051213380063
 40
19.82051213380063
 40
19.82051213380063
 10
165.9660388241118
 20
523.1631041085674
 30
0.0
 10
165.9813079280673
 20
523.0509192392636
 30
0.0
 10
166.0166725460009
 20
522.8268988533432
 30
0.0
 10
166.1062790690077
 20
522.3831176272593
 30
0.0
 10
166.3119888255993
 20
521.621025944265
 30
0.0
 10
166.9086526193827
 20
520.1794957288703
 30
0.0
 10
168.2468783769179
 20
518.4173761819591
 30
0.0
 10
170.1105182875908
 20
517.2350993693433
 30
0.0
 10
171.7798740965799
 20
516.7463825987882
 30
0.0
 10
173.0799831611898
 20
516.6215880489244
 30
0.0
 10
174.3801549642442
 20
516.7462823364197
 30
0.0
 10
176.0494213106009
 20
517.2351242964432
 30
0.0
 10
177.9130601774347
 20
518.4174331072998
 30
0.0
 10
179.2513235778773
 20
520.1794091838217
 30
0.0
 10
179.848065041336
 20
521.6210701477621
 30
0.0
 10
180.0828862647215
 20
522.4918783409021
 30
0.0
 10
180.1632820170523
 20
522.9385972099275
 30
0.0
 10
180.1938921121564
 20
523.163161665581
 30
0.0
  0
SPLINE
  5
F1
330
E1
100
AcDbEntity
  8
0
  6
Continuous
 62
     0
370
     0
100
AcDbSpline
210
0.0
220
0.0
230
1.0
 70
     8
 71
     3
 72
    12
 73
     8
 74
     0
 42
0.000000001
 43
0.0
 40
0.0
 40
0.0
 40
0.0
 40
0.0
 40
0.111191551848023
 40
0.33357465554407
 40
0.666964095999752
 40
0.888988031999917
 40
0.9999893265827129
 40
0.9999893265827129
 40
0.9999893265827129
 40
0.9999893265827129
 10
180.1938921121564
 20
523.163161665581
 30
0.0
 10
180.1528838100816
 20
523.159831641286
 30
0.0
 10
180.0331823102916
 20
523.1495633974777
 30
0.0
 10
179.8164985562803
 20
523.1276628596358
 30
0.0
 10
179.6363956988401
 20
523.1019700175974
 30
0.0
 10
179.5618863802863
 20
523.083420568817
 30
0.0
 10
179.5515993712469
 20
523.0765084308526
 30
0.0
 10
179.5512368826076
 20
523.0745252789372
 30
0.0
  0
SPLINE
  5
F2
330
E1
100
AcDbEntity
  8
0
  6
Continuous
 62
     0
370
     0
100
AcDbSpline
210
0.0
220
0.0
230
1.0
 70
     8
 71
     3
 72
    12
 73
     8
 74
     0
 42
0.000000001
 43
0.0
 40
0.0
 40
0.0
 40
0.0
 40
0.0
 40
0.111012187958316
 40
0.3330365638749471
 40
0.666419699098937
 40
0.8888065663663131
 40
1.0
 40
1.0
 40
1.0
 40
1.0
 10
166.6085961733095
 20
523.0746051668185
 30
0.0
 10
166.6082401072763
 20
523.0765835410953
 30
0.0
 10
166.597976393838
 20
523.0834554450059
 30
0.0
 10
166.5235191445316
 20
523.1018277922758
 30
0.0
 10
166.3434239459615
 20
523.1274426216806
 30
0.0
 10
166.1267461656088
 20
523.1494669674385
 30
0.0
 10
166.0070466566302
 20
523.1597688231172
 30
0.0
 10
165.9660388241118
 20
523.1631041085674
 30
0.0
  0
LINE
  5
F3
330
E1
100
AcDbEntity
  8
0
  6
Continuous
 62
     0
370
     0
100
AcDbLine
 10
165.966048
 20
523.163082
 30
0.0
 11
154.579985
 21
523.163082
 31
0.0
  0
SPLINE
  5
F4
330
E1
100
AcDbEntity
  8
0
  6
Continuous
 62
     0
370
     0
100
AcDbSpline
210
0.0
220
0.0
230
1.0
 70
     8
 71
     3
 72
    11
 73
     7
 74
     0
 42
0.000000001
 43
0.0
 40
0.0
 40
0.0
 40
0.0
 40
0.0
 40
0.195090322016126
 40
0.390180644032258
 40
0.585270966048397
 40
0.7803393033667899
 40
0.7803393033667899
 40
0.7803393033667899
 40
0.7803393033667899
 10
166.1583190007329
 20
523.6630821228027
 30
0.0
 10
166.1333125167611
 20
523.6630821228027
 30
0.0
 10
166.0827521270408
 20
523.6370627347449
 30
0.0
 10
166.0188449395165
 20
523.5257885785393
 30
0.0
 10
165.976057513894
 20
523.3596022742116
 30
0.0
 10
165.9660516161051
 20
523.2281270469647
 30
0.0
 10
165.9660504887278
 20
523.1631041075277
 30
0.0
  0
SPLINE
  5
F5
330
E1
100
AcDbEntity
  8
0
  6
Continuous
 62
     0
370
     0
100
AcDbSpline
210
0.0
220
0.0
230
1.0
 70
     8
 71
     3
 72
    11
 73
     7
 74
     0
 42
0.000000001
 43
0.0
 40
0.000079532333787
 40
0.000079532333787
 40
0.000079532333787
 40
0.000079532333787
 40
0.195090322016119
 40
0.390180644032258
 40
0.5852709660483899
 40
0.780300225515837
 40
0.780300225515837
 40
0.780300225515837
 40
0.780300225515837
 10
180.1938591144702
 20
523.1631616554911
 30
0.0
 10
180.1938550373283
 20
523.2281658311903
 30
0.0
 10
180.1838479705417
 20
523.3596186153404
 30
0.0
 10
180.1410651207166
 20
523.5257885785393
 30
0.0
 10
180.0771651511541
 20
523.6370511252785
 30
0.0
 10
180.0266143542929
 20
523.663073977651
 30
0.0
 10
180.0016157415131
 20
523.6630821189792
 30
0.0
  0
LINE
  5
F6
330
E1
100
AcDbEntity
  8
0
  6
Continuous
 62
     0
370
     0
100
AcDbLine
 10
191.579985
 20
523.163082
 30
0.0
 11
180.193868
 21
523.163082
 31
0.0
  0
LINE
  5
F7
330
E1
100
AcDbEntity
  8
0
  6
Continuous
 62
     0
370
    30
100
AcDbLine
 10
154.579985
 20
495.663082
 30
0.0
 11
191.579985
 21
495.663082
 31
0.0
  0
SPLINE
  5
F8
330
E1
100
AcDbEntity
  8
0
  6
Continuous
 62
     0
370
    30
100
AcDbSpline
210
0.0
220
0.0
230
1.0
 70
    28
 71
     2
 72
     8
 73
     5
 74
     0
 42
0.000000001
 43
0.0
 40
0.1717204781657768
 40
0.1717204781657768
 40
0.1717204781657768
 40
0.25
 40
0.25
 40
0.5
 40
0.5
 40
0.5
 10
146.0799854397774
 20
363.0130844116212
 30
0.0
 41
0.8740118936380257
 10
146.0799851496436
 20
363.0130844116211
 30
0.0
 41
0.9082898355311859
 10
149.1087300475185
 20
363.0130844116211
 30
0.0
 41
1.0
 10
161.5336612311951
 20
363.0130844116211
 30
0.0
 41
0.707106781186548
 10
185.504916623454
 20
363.0130844116211
 30
0.0
 41
1.0
  0
LINE
  5
F9
330
E1
100
AcDbEntity
  8
0
  6
Continuous
 62
     0
370
    30
100
AcDbLine
 10
185.504917
 20
363.013084
 30
0.0
 11
200.079985
 21
363.013084
 31
0.0
  0
LINE
  5
FA
330
E1
100
AcDbEntity
  8
0
  6
Continuous
 62
     0
370
     0
100
AcDbLine
 10
200.05379
 20
366.01483
 30
0.0
 11
185.492862
 21
366.01483
 31
0.0
  0
LINE
  5
FB
330
E1
100
AcDbEntity
  8
0
  6
Continuous
 62
     0
370
     0
100
AcDbLine
 10
185.492862
 20
366.01483
 30
0.0
 11
146.106181
 21
366.01483
 31
0.0
  0
ARC
  5
FC
330
E1
100
AcDbEntity
  8
0
  6
Continuous
 62
     0
370
    30
100
AcDbCircle
 10
173.085885
 20
468.254527
 30
0.0
 40
8.333208496119873
100
AcDbArc
 50
52.75712
 51
90.040834
  0
LINE
  5
FD
330
E1
100
AcDbEntity
  8
0
  6
Continuous
 62
     0
370
     0
100
AcDbLine
 10
173.502743
 20
476.404843
 30
0.0
 11
173.079946
 21
476.587734
 31
0.0
  0
ARC
  5
FE
330
E1
100
AcDbEntity
  8
0
  6
Continuous
 62
     0
370
    30
100
AcDbCircle
 10
173.074008
 20
468.254526
 30
0.0
 40
8.33321022516619
100
AcDbArc
 50
89.959169
 51
127.242045
  0
LINE
  5
FF
330
E1
100
AcDbEntity
  8
0
  6
Continuous
 62
     0
370
    30
100
AcDbLine
 10
166.507269
 20
463.975404
 30
0.0
 11
166.248044
 21
463.931941
 31
0.0
  0
ELLIPSE
  5
100
330
E1
100
AcDbEntity
  8
0
  6
Continuous
 62
     0
370
    30
100
AcDbEllipse
 10
173.079938
 20
462.979566
 30
0.0
 11
-6.649999999999849
 21
1.417226262333160E-6
 31
0.0
210
0.0
220
0.0
230
-1.0
 40
0.984808
 41
5.788501961382181
 42
6.435837498824759
  0
LINE
  5
101
330
E1
100
AcDbEntity
  8
0
  6
Continuous
 62
     0
370
    30
100
AcDbLine
 10
166.967523
 20
459.826894
 30
0.0
 11
167.227145
 21
459.870424
 31
0.0
  0
ELLIPSE
  5
102
330
E1
100
AcDbEntity
  8
0
  6
Continuous
 62
     0
370
    30
100
AcDbEllipse
 10
173.079938
 20
462.979567
 30
0.0
 11
-6.89999999999984
 21
1.470505444714057E-6
 31
0.0
210
0.0
220
0.0
230
-1.0
 40
0.984808
 41
4.853006283892597
 42
5.800727481576561
  0
LINE
  5
103
330
E1
100
AcDbEntity
  8
0
  6
Continuous
 62
     0
370
    30
100
AcDbLine
 10
172.068737
 20
456.506751
 30
0.0
 11
172.112872
 21
456.251464
 31
0.0
  0
ELLIPSE
  5
104
330
E1
100
AcDbEntity
  8
0
  6
Continuous
 62
     0
370
    30
100
AcDbEllipse
 10
173.079938
 20
462.979566
 30
0.0
 11
-6.649999999999852
 21
1.417226261934564E-6
 31
0.0
210
0.0
220
0.0
230
-1.0
 40
0.984808
 41
4.222463993500265
 42
4.865041172029883
  0
LINE
  5
105
330
E1
100
AcDbEntity
  8
0
  6
Continuous
 62
     0
370
    30
100
AcDbLine
 10
176.253293
 20
456.945674
 30
0.0
 11
176.209159
 21
457.200962
 31
0.0
  0
ELLIPSE
  5
106
330
E1
100
AcDbEntity
  8
0
  6
Continuous
 62
     0
370
    30
100
AcDbEllipse
 10
173.079938
 20
462.979567
 30
0.0
 11
-6.89999999999984
 21
1.470505444714057E-6
 31
0.0
210
0.0
220
0.0
230
-1.0
 40
0.984808
 41
3.282209957097708
 42
4.234498881637558
  0
LINE
  5
107
330
E1
100
AcDbEntity
  8
0
  6
Continuous
 62
     0
370
    30
100
AcDbLine
 10
179.652607
 20
461.983728
 30
0.0
 11
179.911833
 21
462.027192
 31
0.0
  0
ELLIPSE
  5
108
330
E1
100
AcDbEntity
  8
0
  6
Continuous
 62
     0
370
    30
100
AcDbEllipse
 10
173.079938
 20
462.979567
 30
0.0
 11
-6.649999999999849
 21
1.417226262200294E-6
 31
0.0
210
0.0
220
0.0
230
-1.0
 40
0.984808
 41
2.646909307792412
 42
3.29424484523499
  0
LINE
  5
109
330
E1
100
AcDbEntity
  8
0
  6
Continuous
 62
     0
370
    30
100
AcDbLine
 10
179.192354
 20
466.132239
 30
0.0
 11
178.932731
 21
466.088709
 31
0.0
  0
ELLIPSE
  5
10A
330
E1
100
AcDbEntity
  8
0
  6
Continuous
 62
     0
370
    30
100
AcDbEllipse
 10
173.079938
 20
462.979567
 30
0.0
 11
-6.89999999999984
 21
1.470505444714057E-6
 31
0.0
210
0.0
220
0.0
230
-1.0
 40
0.984808
 41
1.711413543329469
 42
2.659134851258307
  0
LINE
  5
10B
330
E1
100
AcDbEntity
  8
0
  6
Continuous
 62
     0
370
    30
100
AcDbLine
 10
174.091138
 20
469.452381
 30
0.0
 11
174.047004
 21
469.707669
 31
0.0
  0
ELLIPSE
  5
10C
330
E1
100
AcDbEntity
  8
0
  6
Continuous
 62
     0
370
    30
100
AcDbEllipse
 10
173.079938
 20
462.979566
 30
0.0
 11
-6.649999999999849
 21
1.417226261934563E-6
 31
0.0
210
0.0
220
0.0
230
-1.0
 40
0.984808
 41
1.080871339910466
 42
1.723448518440085
  0
LINE
  5
10D
330
E1
100
AcDbEntity
  8
0
  6
Continuous
 62
     0
370
    30
100
AcDbLine
 10
169.906583
 20
469.013459
 30
0.0
 11
169.950717
 21
468.758171
 31
0.0
  0
ELLIPSE
  5
10E
330
E1
100
AcDbEntity
  8
0
  6
Continuous
 62
     0
370
    30
100
AcDbEllipse
 10
173.079938
 20
462.979567
 30
0.0
 11
-6.89999999999984
 21
1.470505444714057E-6
 31
0.0
210
0.0
220
0.0
230
-1.0
 40
0.984808
 41
0.1406173035078962
 42
1.092906141074421
  0
LINE
  5
10F
330
E1
100
AcDbEntity
  8
0
  6
Continuous
 62
     0
370
    30
100
AcDbLine
 10
172.423623
 20
457.974529
 30
0.0
 11
172.558923
 21
457.1919
 31
0.0
  0
LINE
  5
110
330
E1
100
AcDbEntity
  8
0
  6
Continuous
 62
     0
370
    30
100
AcDbLine
 10
173.803763
 20
458.205932
 30
0.0
 11
172.423623
 21
457.974529
 31
0.0
  0
LINE
  5
111
330
E1
100
AcDbEntity
  8
0
  6
Continuous
 62
     0
370
    30
100
AcDbLine
 10
173.971459
 20
457.235917
 30
0.0
 11
173.803763
 21
458.205932
 31
0.0
  0
ELLIPSE
  5
112
330
E1
100
AcDbEntity
  8
0
  6
Continuous
 62
     0
370
    30
100
AcDbEllipse
 10
173.079938
 20
462.979567
 30
0.0
 11
5.899999999999867
 21
-1.257388713478198E-6
 31
0.0
210
0.0
220
0.0
230
1.0
 40
0.984808
 41
4.623966381232565
 42
4.864075413849176
  0
ELLIPSE
  5
113
330
E1
100
AcDbEntity
  8
0
  6
Continuous
 62
     0
370
    30
100
AcDbEllipse
 10
173.079938
 20
462.979567
 30
0.0
 11
5.899999999999867
 21
-1.257388713478198E-6
 31
0.0
210
0.0
220
0.0
230
1.0
 40
0.984808
 41
0.1855863617747442
 42
0.4256953943913544
  0
LINE
  5
114
330
E1
100
AcDbEntity
  8
0
  6
Continuous
 62
     0
370
    30
100
AcDbLine
 10
177.795065
 20
463.870034
 30
0.0
 11
178.878625
 21
464.051711
 31
0.0
  0
LINE
  5
115
330
E1
100
AcDbEntity
  8
0
  6
Continuous
 62
     0
370
    30
100
AcDbLine
 10
177.560091
 20
465.229207
 30
0.0
 11
177.795065
 21
463.870034
 31
0.0
  0
LINE
  5
116
330
E1
100
AcDbEntity
  8
0
  6
Continuous
 62
     0
370
    30
100
AcDbLine
 10
178.453375
 20
465.37898
 30
0.0
 11
177.560091
 21
465.229207
 31
0.0
  0
LINE
  5
117
330
E1
100
AcDbEntity
  8
0
  6
Continuous
 62
     0
370
    30
100
AcDbLine
 10
178.912193
 20
463.857543
 30
0.0
 11
177.828632
 21
463.675866
 31
0.0
  0
ELLIPSE
  5
118
330
E1
100
AcDbEntity
  8
0
  6
Continuous
 62
     0
370
    30
100
AcDbEllipse
 10
173.079938
 20
462.979567
 30
0.0
 11
5.899999999999867
 21
-1.257388713831840E-6
 31
0.0
210
0.0
220
0.0
230
1.0
 40
0.984808
 41
6.194762708027469
 42
6.434871740644065
  0
LINE
  5
119
330
E1
100
AcDbEntity
  8
0
  6
Continuous
 62
     0
370
    30
100
AcDbLine
 10
178.063606
 20
462.316693
 30
0.0
 11
178.956889
 21
462.466467
 31
0.0
  0
LINE
  5
11A
330
E1
100
AcDbEntity
  8
0
  6
Continuous
 62
     0
370
    30
100
AcDbLine
 10
177.828632
 20
463.675866
 30
0.0
 11
178.063606
 21
462.316693
 31
0.0
  0
ELLIPSE
  5
11B
330
E1
100
AcDbEntity
  8
0
  6
Continuous
 62
     0
370
    30
100
AcDbEllipse
 10
173.079938
 20
462.979567
 30
0.0
 11
5.899999999999867
 21
-1.257388713478198E-6
 31
0.0
210
0.0
220
0.0
230
1.0
 40
0.984808
 41
2.388562459541855
 42
2.661099316082056
  0
LINE
  5
11C
330
E1
100
AcDbEntity
  8
0
  6
Continuous
 62
     0
370
    30
100
AcDbLine
 10
169.037912
 20
466.997053
 30
0.0
 11
168.775181
 21
466.953002
 31
0.0
  0
LINE
  5
11D
330
E1
100
AcDbEntity
  8
0
  6
Continuous
 62
     0
370
    30
100
AcDbLine
 10
169.272885
 20
465.63788
 30
0.0
 11
169.037912
 21
466.997053
 31
0.0
  0
LINE
  5
11E
330
E1
100
AcDbEntity
  8
0
  6
Continuous
 62
     0
370
    30
100
AcDbLine
 10
167.892744
 20
465.406477
 30
0.0
 11
169.272885
 21
465.63788
 31
0.0
  0
LINE
  5
11F
330
E1
100
AcDbEntity
  8
0
  6
Continuous
 62
     0
370
    30
100
AcDbLine
 10
167.848014
 20
465.665216
 30
0.0
 11
167.892744
 21
465.406477
 31
0.0
  0
ELLIPSE
  5
120
330
E1
100
AcDbEntity
  8
0
  6
Continuous
 62
     0
370
    30
100
AcDbEllipse
 10
173.079938
 20
462.979567
 30
0.0
 11
5.899999999999867
 21
-1.257388713478198E-6
 31
0.0
210
0.0
220
0.0
230
1.0
 40
0.984808
 41
2.757016002727168
 42
3.017949764230007
  0
LINE
  5
121
330
E1
100
AcDbEntity
  8
0
  6
Continuous
 62
     0
370
    30
100
AcDbLine
 10
167.729149
 20
465.179252
 30
0.0
 11
167.610891
 21
465.159424
 31
0.0
  0
LINE
  5
122
330
E1
100
AcDbEntity
  8
0
  6
Continuous
 62
     0
370
    30
100
AcDbLine
 10
167.964122
 20
463.820079
 30
0.0
 11
167.729149
 21
465.179252
 31
0.0
  0
LINE
  5
123
330
E1
100
AcDbEntity
  8
0
  6
Continuous
 62
     0
370
    30
100
AcDbLine
 10
167.22498
 20
463.696149
 30
0.0
 11
167.964122
 21
463.820079
 31
0.0
  0
ELLIPSE
  5
124
330
E1
100
AcDbEntity
  8
0
  6
Continuous
 62
     0
370
    30
100
AcDbEllipse
 10
173.079938
 20
462.979567
 30
0.0
 11
5.899999999999867
 21
-1.257388714185481E-6
 31
0.0
210
0.0
220
0.0
230
1.0
 40
0.984808
 41
1.148656332628322
 42
1.166173786385107
  0
LINE
  5
125
330
E1
100
AcDbEntity
  8
0
  6
Continuous
 62
     0
370
    30
100
AcDbLine
 10
175.412139
 20
468.265594
 30
0.0
 11
175.497249
 21
468.279864
 31
0.0
  0
LINE
  5
126
330
E1
100
AcDbEntity
  8
0
  6
Continuous
 62
     0
370
    30
100
AcDbLine
 10
175.402603
 20
468.320751
 30
0.0
 11
175.412139
 21
468.265594
 31
0.0
  0
ELLIPSE
  5
127
330
E1
100
AcDbEntity
  8
0
  6
Continuous
 62
     0
370
    30
100
AcDbEllipse
 10
173.079938
 20
462.979567
 30
0.0
 11
5.899999999999867
 21
-1.257388713478198E-6
 31
0.0
210
0.0
220
0.0
230
1.0
 40
0.984808
 41
0.7622041109207229
 42
0.7891854383597341
  0
LINE
  5
128
330
E1
100
AcDbEntity
  8
0
  6
Continuous
 62
     0
370
    30
100
AcDbLine
 10
177.257983
 20
466.976715
 30
0.0
 11
177.347502
 21
466.991724
 31
0.0
  0
LINE
  5
129
330
E1
100
AcDbEntity
  8
0
  6
Continuous
 62
     0
370
    30
100
AcDbLine
 10
177.236039
 20
467.103645
 30
0.0
 11
177.257983
 21
466.976715
 31
0.0
  0
ELLIPSE
  5
12A
330
E1
100
AcDbEntity
  8
0
  6
Continuous
 62
     0
370
    30
100
AcDbEllipse
 10
173.079938
 20
462.979567
 30
0.0
 11
5.899999999999867
 21
-1.257388713478198E-6
 31
0.0
210
0.0
220
0.0
230
1.0
 40
0.984808
 41
0.4609156845990094
 42
0.7218494461018548
  0
LINE
  5
12B
330
E1
100
AcDbEntity
  8
0
  6
Continuous
 62
     0
370
    30
100
AcDbLine
 10
177.526524
 20
465.423374
 30
0.0
 11
178.364248
 21
465.563833
 31
0.0
  0
LINE
  5
12C
330
E1
100
AcDbEntity
  8
0
  6
Continuous
 62
     0
370
    30
100
AcDbLine
 10
177.291551
 20
466.782547
 30
0.0
 11
177.526524
 21
465.423374
 31
0.0
  0
LINE
  5
12D
330
E1
100
AcDbEntity
  8
0
  6
Continuous
 62
     0
370
    30
100
AcDbLine
 10
177.50839
 20
466.818904
 30
0.0
 11
177.291551
 21
466.782547
 31
0.0
  0
ELLIPSE
  5
12E
330
E1
100
AcDbEntity
  8
0
  6
Continuous
 62
     0
370
    30
100
AcDbEllipse
 10
173.079938
 20
462.979567
 30
0.0
 11
5.899999999999867
 21
-1.257388713478198E-6
 31
0.0
210
0.0
220
0.0
230
1.0
 40
0.984808
 41
5.898608656316971
 42
6.15954241781982
  0
LINE
  5
12F
330
E1
100
AcDbEntity
  8
0
  6
Continuous
 62
     0
370
    30
100
AcDbLine
 10
178.332146
 20
460.763353
 30
0.0
 11
178.548986
 21
460.799709
 31
0.0
  0
LINE
  5
130
330
E1
100
AcDbEntity
  8
0
  6
Continuous
 62
     0
370
    30
100
AcDbLine
 10
178.097173
 20
462.122526
 30
0.0
 11
178.332146
 21
460.763353
 31
0.0
  0
LINE
  5
131
330
E1
100
AcDbEntity
  8
0
  6
Continuous
 62
     0
370
    30
100
AcDbLine
 10
178.934897
 20
462.262984
 30
0.0
 11
178.097173
 21
462.122526
 31
0.0
  0
LINE
  5
132
330
E1
100
AcDbEntity
  8
0
  6
Continuous
 62
     0
370
    30
100
AcDbLine
 10
178.234778
 20
460.153044
 30
0.0
 11
178.168551
 21
460.536127
 31
0.0
  0
ELLIPSE
  5
133
330
E1
100
AcDbEntity
  8
0
  6
Continuous
 62
     0
370
    30
100
AcDbEllipse
 10
173.079938
 20
462.979567
 30
0.0
 11
5.899999999999867
 21
-1.257388714185483E-6
 31
0.0
210
0.0
220
0.0
230
1.0
 40
0.984808
 41
5.530155113131656
 42
5.775149680700147
  0
LINE
  5
134
330
E1
100
AcDbEntity
  8
0
  6
Continuous
 62
     0
370
    30
100
AcDbLine
 10
177.023384
 20
458.945551
 30
0.0
 11
177.384696
 21
459.006131
 31
0.0
  0
LINE
  5
135
330
E1
100
AcDbEntity
  8
0
  6
Continuous
 62
     0
370
    30
100
AcDbLine
 10
176.788411
 20
460.304724
 30
0.0
 11
177.023384
 21
458.945551
 31
0.0
  0
LINE
  5
136
330
E1
100
AcDbEntity
  8
0
  6
Continuous
 62
     0
370
    30
100
AcDbLine
 10
178.168551
 20
460.536127
 30
0.0
 11
176.788411
 21
460.304724
 31
0.0
  0
LINE
  5
137
330
E1
100
AcDbEntity
  8
0
  6
Continuous
 62
     0
370
    30
100
AcDbLine
 10
174.000926
 20
458.23899
 30
0.0
 11
174.168622
 21
457.268975
 31
0.0
  0
LINE
  5
138
330
E1
100
AcDbEntity
  8
0
  6
Continuous
 62
     0
370
    30
100
AcDbLine
 10
175.282485
 20
458.453865
 30
0.0
 11
174.000926
 21
458.23899
 31
0.0
  0
LINE
  5
139
330
E1
100
AcDbEntity
  8
0
  6
Continuous
 62
     0
370
    30
100
AcDbLine
 10
175.422041
 20
457.646621
 30
0.0
 11
175.282485
 21
458.453865
 31
0.0
  0
ELLIPSE
  5
13A
330
E1
100
AcDbEntity
  8
0
  6
Continuous
 62
     0
370
    30
100
AcDbEllipse
 10
173.079938
 20
462.979567
 30
0.0
 11
5.899999999999867
 21
-1.257388713478198E-6
 31
0.0
210
0.0
220
0.0
230
1.0
 40
0.984808
 41
4.897975342159436
 42
5.120598678732071
  0
LINE
  5
13B
330
E1
100
AcDbEntity
  8
0
  6
Continuous
 62
     0
370
    30
100
AcDbLine
 10
168.769745
 20
459.160057
 30
0.0
 11
168.534772
 21
460.51923
 31
0.0
  0
LINE
  5
13C
330
E1
100
AcDbEntity
  8
0
  6
Continuous
 62
     0
370
    30
100
AcDbLine
 10
168.651486
 20
459.140229
 30
0.0
 11
168.769745
 21
459.160057
 31
0.0
  0
ELLIPSE
  5
13D
330
E1
100
AcDbEntity
  8
0
  6
Continuous
 62
     0
370
    30
100
AcDbEllipse
 10
173.079938
 20
462.979567
 30
0.0
 11
5.899999999999867
 21
-1.257388714185481E-6
 31
0.0
210
0.0
220
0.0
230
1.0
 40
0.984808
 41
3.602508338188799
 42
3.863442099691646
  0
LINE
  5
13E
330
E1
100
AcDbEntity
  8
0
  6
Continuous
 62
     0
370
    30
100
AcDbLine
 10
168.534772
 20
460.51923
 30
0.0
 11
167.795629
 21
460.3953
 31
0.0
  0
LINE
  5
13F
330
E1
100
AcDbEntity
  8
0
  6
Continuous
 62
     0
370
    30
100
AcDbLine
 10
168.501204
 20
460.713398
 30
0.0
 11
168.266231
 21
462.072571
 31
0.0
  0
LINE
  5
140
330
E1
100
AcDbEntity
  8
0
  6
Continuous
 62
     0
370
    30
100
AcDbLine
 10
167.706502
 20
460.580153
 30
0.0
 11
168.501204
 21
460.713398
 31
0.0
  0
ELLIPSE
  5
141
330
E1
100
AcDbEntity
  8
0
  6
Continuous
 62
     0
370
    30
100
AcDbEllipse
 10
173.079938
 20
462.979567
 30
0.0
 11
5.899999999999867
 21
-1.257388713949720E-6
 31
0.0
210
0.0
220
0.0
230
1.0
 40
0.984808
 41
3.32717901536454
 42
3.56728804798115
  0
LINE
  5
142
330
E1
100
AcDbEntity
  8
0
  6
Continuous
 62
     0
370
    30
100
AcDbLine
 10
168.266231
 20
462.072571
 30
0.0
 11
167.281252
 21
461.907423
 31
0.0
  0
LINE
  5
143
330
E1
100
AcDbEntity
  8
0
  6
Continuous
 62
     0
370
    30
100
AcDbLine
 10
168.966908
 20
459.193115
 30
0.0
 11
170.347048
 21
459.424518
 31
0.0
  0
LINE
  5
144
330
E1
100
AcDbEntity
  8
0
  6
Continuous
 62
     0
370
    30
100
AcDbLine
 10
168.731935
 20
460.552288
 30
0.0
 11
168.966908
 21
459.193115
 31
0.0
  0
LINE
  5
145
330
E1
100
AcDbEntity
  8
0
  6
Continuous
 62
     0
370
    30
100
AcDbLine
 10
170.112075
 20
460.783691
 30
0.0
 11
168.731935
 21
460.552288
 31
0.0
  0
LINE
  5
146
330
E1
100
AcDbEntity
  8
0
  6
Continuous
 62
     0
370
    30
100
AcDbLine
 10
170.347048
 20
459.424518
 30
0.0
 11
170.112075
 21
460.783691
 31
0.0
  0
ELLIPSE
  5
147
330
E1
100
AcDbEntity
  8
0
  6
Continuous
 62
     0
370
    30
100
AcDbEllipse
 10
173.079938
 20
462.979567
 30
0.0
 11
5.899999999999867
 21
-1.257388713478198E-6
 31
0.0
210
0.0
220
0.0
230
1.0
 40
0.984808
 41
3.053170054437668
 42
3.293279087054269
  0
LINE
  5
148
330
E1
100
AcDbEntity
  8
0
  6
Continuous
 62
     0
370
    30
100
AcDbLine
 10
167.99769
 20
463.625911
 30
0.0
 11
167.202988
 21
463.492666
 31
0.0
  0
LINE
  5
149
330
E1
100
AcDbEntity
  8
0
  6
Continuous
 62
     0
370
    30
100
AcDbLine
 10
168.232663
 20
462.266738
 30
0.0
 11
167.99769
 21
463.625911
 31
0.0
  0
LINE
  5
14A
330
E1
100
AcDbEntity
  8
0
  6
Continuous
 62
     0
370
    30
100
AcDbLine
 10
167.247684
 20
462.10159
 30
0.0
 11
168.232663
 21
462.266738
 31
0.0
  0
LINE
  5
14B
330
E1
100
AcDbEntity
  8
0
  6
Continuous
 62
     0
370
    30
100
AcDbLine
 10
168.698367
 20
460.746455
 30
0.0
 11
170.078507
 21
460.977859
 31
0.0
  0
LINE
  5
14C
330
E1
100
AcDbEntity
  8
0
  6
Continuous
 62
     0
370
    30
100
AcDbLine
 10
168.463394
 20
462.105628
 30
0.0
 11
168.698367
 21
460.746455
 31
0.0
  0
LINE
  5
14D
330
E1
100
AcDbEntity
  8
0
  6
Continuous
 62
     0
370
    30
100
AcDbLine
 10
169.843534
 20
462.337032
 30
0.0
 11
168.463394
 21
462.105628
 31
0.0
  0
LINE
  5
14E
330
E1
100
AcDbEntity
  8
0
  6
Continuous
 62
     0
370
    30
100
AcDbLine
 10
170.078507
 20
460.977859
 30
0.0
 11
169.843534
 21
462.337032
 31
0.0
  0
LINE
  5
14F
330
E1
100
AcDbEntity
  8
0
  6
Continuous
 62
     0
370
    30
100
AcDbLine
 10
168.194853
 20
463.658969
 30
0.0
 11
168.429826
 21
462.299796
 31
0.0
  0
LINE
  5
150
330
E1
100
AcDbEntity
  8
0
  6
Continuous
 62
     0
370
    30
100
AcDbLine
 10
169.574993
 20
463.890372
 30
0.0
 11
168.194853
 21
463.658969
 31
0.0
  0
LINE
  5
151
330
E1
100
AcDbEntity
  8
0
  6
Continuous
 62
     0
370
    30
100
AcDbLine
 10
169.809967
 20
462.531199
 30
0.0
 11
169.574993
 21
463.890372
 31
0.0
  0
LINE
  5
152
330
E1
100
AcDbEntity
  8
0
  6
Continuous
 62
     0
370
    30
100
AcDbLine
 10
168.429826
 20
462.299796
 30
0.0
 11
169.809967
 21
462.531199
 31
0.0
  0
LINE
  5
153
330
E1
100
AcDbEntity
  8
0
  6
Continuous
 62
     0
370
    30
100
AcDbLine
 10
171.655811
 20
461.24232
 30
0.0
 11
171.420837
 21
462.601493
 31
0.0
  0
LINE
  5
154
330
E1
100
AcDbEntity
  8
0
  6
Continuous
 62
     0
370
    30
100
AcDbLine
 10
170.27567
 20
461.010916
 30
0.0
 11
171.655811
 21
461.24232
 31
0.0
  0
LINE
  5
155
330
E1
100
AcDbEntity
  8
0
  6
Continuous
 62
     0
370
    30
100
AcDbLine
 10
170.040697
 20
462.370089
 30
0.0
 11
170.27567
 21
461.010916
 31
0.0
  0
LINE
  5
156
330
E1
100
AcDbEntity
  8
0
  6
Continuous
 62
     0
370
    30
100
AcDbLine
 10
171.420837
 20
462.601493
 30
0.0
 11
170.040697
 21
462.370089
 31
0.0
  0
LINE
  5
157
330
E1
100
AcDbEntity
  8
0
  6
Continuous
 62
     0
370
    30
100
AcDbLine
 10
171.152297
 20
464.154833
 30
0.0
 11
169.772156
 21
463.92343
 31
0.0
  0
LINE
  5
158
330
E1
100
AcDbEntity
  8
0
  6
Continuous
 62
     0
370
    30
100
AcDbLine
 10
171.38727
 20
462.79566
 30
0.0
 11
171.152297
 21
464.154833
 31
0.0
  0
LINE
  5
159
330
E1
100
AcDbEntity
  8
0
  6
Continuous
 62
     0
370
    30
100
AcDbLine
 10
170.007129
 20
462.564257
 30
0.0
 11
171.38727
 21
462.79566
 31
0.0
  0
LINE
  5
15A
330
E1
100
AcDbEntity
  8
0
  6
Continuous
 62
     0
370
    30
100
AcDbLine
 10
169.772156
 20
463.92343
 30
0.0
 11
170.007129
 21
462.564257
 31
0.0
  0
LINE
  5
15B
330
E1
100
AcDbEntity
  8
0
  6
Continuous
 62
     0
370
    30
100
AcDbLine
 10
171.852974
 20
461.275378
 30
0.0
 11
173.233114
 21
461.506781
 31
0.0
  0
LINE
  5
15C
330
E1
100
AcDbEntity
  8
0
  6
Continuous
 62
     0
370
    30
100
AcDbLine
 10
171.618
 20
462.63455
 30
0.0
 11
171.852974
 21
461.275378
 31
0.0
  0
LINE
  5
15D
330
E1
100
AcDbEntity
  8
0
  6
Continuous
 62
     0
370
    30
100
AcDbLine
 10
172.998141
 20
462.865954
 30
0.0
 11
171.618
 21
462.63455
 31
0.0
  0
LINE
  5
15E
330
E1
100
AcDbEntity
  8
0
  6
Continuous
 62
     0
370
    30
100
AcDbLine
 10
173.233114
 20
461.506781
 30
0.0
 11
172.998141
 21
462.865954
 31
0.0
  0
LINE
  5
15F
330
E1
100
AcDbEntity
  8
0
  6
Continuous
 62
     0
370
    30
100
AcDbLine
 10
172.7296
 20
464.419295
 30
0.0
 11
171.34946
 21
464.187891
 31
0.0
  0
LINE
  5
160
330
E1
100
AcDbEntity
  8
0
  6
Continuous
 62
     0
370
    30
100
AcDbLine
 10
172.964573
 20
463.060122
 30
0.0
 11
172.7296
 21
464.419295
 31
0.0
  0
LINE
  5
161
330
E1
100
AcDbEntity
  8
0
  6
Continuous
 62
     0
370
    30
100
AcDbLine
 10
171.584433
 20
462.828718
 30
0.0
 11
172.964573
 21
463.060122
 31
0.0
  0
LINE
  5
162
330
E1
100
AcDbEntity
  8
0
  6
Continuous
 62
     0
370
    30
100
AcDbLine
 10
171.34946
 20
464.187891
 30
0.0
 11
171.584433
 21
462.828718
 31
0.0
  0
LINE
  5
163
330
E1
100
AcDbEntity
  8
0
  6
Continuous
 62
     0
370
    30
100
AcDbLine
 10
172.926763
 20
464.452352
 30
0.0
 11
173.161736
 21
463.093179
 31
0.0
  0
LINE
  5
164
330
E1
100
AcDbEntity
  8
0
  6
Continuous
 62
     0
370
    30
100
AcDbLine
 10
174.208322
 20
464.667227
 30
0.0
 11
172.926763
 21
464.452352
 31
0.0
  0
LINE
  5
165
330
E1
100
AcDbEntity
  8
0
  6
Continuous
 62
     0
370
    30
100
AcDbLine
 10
174.443295
 20
463.308054
 30
0.0
 11
174.208322
 21
464.667227
 31
0.0
  0
LINE
  5
166
330
E1
100
AcDbEntity
  8
0
  6
Continuous
 62
     0
370
    30
100
AcDbLine
 10
173.161736
 20
463.093179
 30
0.0
 11
174.443295
 21
463.308054
 31
0.0
  0
LINE
  5
167
330
E1
100
AcDbEntity
  8
0
  6
Continuous
 62
     0
370
    30
100
AcDbLine
 10
173.195304
 20
462.899012
 30
0.0
 11
173.430277
 21
461.539839
 31
0.0
  0
LINE
  5
168
330
E1
100
AcDbEntity
  8
0
  6
Continuous
 62
     0
370
    30
100
AcDbLine
 10
174.476863
 20
463.113886
 30
0.0
 11
173.195304
 21
462.899012
 31
0.0
  0
LINE
  5
169
330
E1
100
AcDbEntity
  8
0
  6
Continuous
 62
     0
370
    30
100
AcDbLine
 10
174.711836
 20
461.754713
 30
0.0
 11
174.476863
 21
463.113886
 31
0.0
  0
LINE
  5
16A
330
E1
100
AcDbEntity
  8
0
  6
Continuous
 62
     0
370
    30
100
AcDbLine
 10
173.430277
 20
461.539839
 30
0.0
 11
174.711836
 21
461.754713
 31
0.0
  0
LINE
  5
16B
330
E1
100
AcDbEntity
  8
0
  6
Continuous
 62
     0
370
    30
100
AcDbLine
 10
176.289139
 20
462.019174
 30
0.0
 11
176.054166
 21
463.378347
 31
0.0
  0
LINE
  5
16C
330
E1
100
AcDbEntity
  8
0
  6
Continuous
 62
     0
370
    30
100
AcDbLine
 10
174.908999
 20
461.787771
 30
0.0
 11
176.289139
 21
462.019174
 31
0.0
  0
LINE
  5
16D
330
E1
100
AcDbEntity
  8
0
  6
Continuous
 62
     0
370
    30
100
AcDbLine
 10
174.674026
 20
463.146944
 30
0.0
 11
174.908999
 21
461.787771
 31
0.0
  0
LINE
  5
16E
330
E1
100
AcDbEntity
  8
0
  6
Continuous
 62
     0
370
    30
100
AcDbLine
 10
176.054166
 20
463.378347
 30
0.0
 11
174.674026
 21
463.146944
 31
0.0
  0
LINE
  5
16F
330
E1
100
AcDbEntity
  8
0
  6
Continuous
 62
     0
370
    30
100
AcDbLine
 10
175.785625
 20
464.931688
 30
0.0
 11
174.405485
 21
464.700284
 31
0.0
  0
LINE
  5
170
330
E1
100
AcDbEntity
  8
0
  6
Continuous
 62
     0
370
    30
100
AcDbLine
 10
176.020598
 20
463.572515
 30
0.0
 11
175.785625
 21
464.931688
 31
0.0
  0
LINE
  5
171
330
E1
100
AcDbEntity
  8
0
  6
Continuous
 62
     0
370
    30
100
AcDbLine
 10
174.640458
 20
463.341111
 30
0.0
 11
176.020598
 21
463.572515
 31
0.0
  0
LINE
  5
172
330
E1
100
AcDbEntity
  8
0
  6
Continuous
 62
     0
370
    30
100
AcDbLine
 10
174.405485
 20
464.700284
 30
0.0
 11
174.640458
 21
463.341111
 31
0.0
  0
LINE
  5
173
330
E1
100
AcDbEntity
  8
0
  6
Continuous
 62
     0
370
    30
100
AcDbLine
 10
176.486302
 20
462.052232
 30
0.0
 11
177.866443
 21
462.283636
 31
0.0
  0
LINE
  5
174
330
E1
100
AcDbEntity
  8
0
  6
Continuous
 62
     0
370
    30
100
AcDbLine
 10
176.251329
 20
463.411405
 30
0.0
 11
176.486302
 21
462.052232
 31
0.0
  0
LINE
  5
175
330
E1
100
AcDbEntity
  8
0
  6
Continuous
 62
     0
370
    30
100
AcDbLine
 10
177.631469
 20
463.642808
 30
0.0
 11
176.251329
 21
463.411405
 31
0.0
  0
LINE
  5
176
330
E1
100
AcDbEntity
  8
0
  6
Continuous
 62
     0
370
    30
100
AcDbLine
 10
177.866443
 20
462.283636
 30
0.0
 11
177.631469
 21
463.642808
 31
0.0
  0
LINE
  5
177
330
E1
100
AcDbEntity
  8
0
  6
Continuous
 62
     0
370
    30
100
AcDbLine
 10
175.982788
 20
464.964746
 30
0.0
 11
176.217761
 21
463.605573
 31
0.0
  0
LINE
  5
178
330
E1
100
AcDbEntity
  8
0
  6
Continuous
 62
     0
370
    30
100
AcDbLine
 10
177.362928
 20
465.196149
 30
0.0
 11
175.982788
 21
464.964746
 31
0.0
  0
LINE
  5
179
330
E1
100
AcDbEntity
  8
0
  6
Continuous
 62
     0
370
    30
100
AcDbLine
 10
177.597902
 20
463.836976
 30
0.0
 11
177.362928
 21
465.196149
 31
0.0
  0
LINE
  5
17A
330
E1
100
AcDbEntity
  8
0
  6
Continuous
 62
     0
370
    30
100
AcDbLine
 10
176.217761
 20
463.605573
 30
0.0
 11
177.597902
 21
463.836976
 31
0.0
  0
LINE
  5
17B
330
E1
100
AcDbEntity
  8
0
  6
Continuous
 62
     0
370
    30
100
AcDbLine
 10
173.704105
 20
468.757327
 30
0.0
 11
173.834835
 21
468.001133
 31
0.0
  0
ELLIPSE
  5
17C
330
E1
100
AcDbEntity
  8
0
  6
Continuous
 62
     0
370
    30
100
AcDbEllipse
 10
173.079938
 20
462.979567
 30
0.0
 11
5.899999999999867
 21
-1.257388714185481E-6
 31
0.0
210
0.0
220
0.0
230
1.0
 40
0.984808
 41
1.206020392625661
 42
1.464807275330283
  0
LINE
  5
17D
330
E1
100
AcDbEntity
  8
0
  6
Continuous
 62
     0
370
    30
100
AcDbLine
 10
175.214976
 20
468.232537
 30
0.0
 11
175.184705
 21
468.407631
 31
0.0
  0
LINE
  5
17E
330
E1
100
AcDbEntity
  8
0
  6
Continuous
 62
     0
370
    30
100
AcDbLine
 10
173.834835
 20
468.001133
 30
0.0
 11
175.214976
 21
468.232537
 31
0.0
  0
LINE
  5
17F
330
E1
100
AcDbEntity
  8
0
  6
Continuous
 62
     0
370
    30
100
AcDbLine
 10
170.64351
 20
468.271368
 30
0.0
 11
170.77881
 21
467.48874
 31
0.0
  0
ELLIPSE
  5
180
330
E1
100
AcDbEntity
  8
0
  6
Continuous
 62
     0
370
    30
100
AcDbEllipse
 10
173.079938
 20
462.979567
 30
0.0
 11
5.899999999999867
 21
-1.257388713478198E-6
 31
0.0
210
0.0
220
0.0
230
1.0
 40
0.984808
 41
1.756382688569642
 42
1.996491721186251
  0
LINE
  5
181
330
E1
100
AcDbEntity
  8
0
  6
Continuous
 62
     0
370
    30
100
AcDbLine
 10
172.158951
 20
467.720143
 30
0.0
 11
171.991255
 21
468.690158
 31
0.0
  0
LINE
  5
182
330
E1
100
AcDbEntity
  8
0
  6
Continuous
 62
     0
370
    30
100
AcDbLine
 10
170.77881
 20
467.48874
 30
0.0
 11
172.158951
 21
467.720143
 31
0.0
  0
LINE
  5
183
330
E1
100
AcDbEntity
  8
0
  6
Continuous
 62
     0
370
    30
100
AcDbLine
 10
169.181373
 20
467.34074
 30
0.0
 11
169.201507
 21
467.224279
 31
0.0
  0
ELLIPSE
  5
184
330
E1
100
AcDbEntity
  8
0
  6
Continuous
 62
     0
370
    30
100
AcDbEllipse
 10
173.079938
 20
462.979567
 30
0.0
 11
5.899999999999867
 21
-1.257388713478198E-6
 31
0.0
210
0.0
220
0.0
230
1.0
 40
0.984808
 41
2.031712011393902
 42
2.292645772896748
  0
LINE
  5
185
330
E1
100
AcDbEntity
  8
0
  6
Continuous
 62
     0
370
    30
100
AcDbLine
 10
170.581647
 20
467.455682
 30
0.0
 11
170.455806
 21
468.183596
 31
0.0
  0
LINE
  5
186
330
E1
100
AcDbEntity
  8
0
  6
Continuous
 62
     0
370
    30
100
AcDbLine
 10
169.201507
 20
467.224279
 30
0.0
 11
170.581647
 21
467.455682
 31
0.0
  0
LINE
  5
187
330
E1
100
AcDbEntity
  8
0
  6
Continuous
 62
     0
370
    30
100
AcDbLine
 10
169.541426
 20
464.08454
 30
0.0
 11
169.306452
 21
465.443713
 31
0.0
  0
LINE
  5
188
330
E1
100
AcDbEntity
  8
0
  6
Continuous
 62
     0
370
    30
100
AcDbLine
 10
168.161285
 20
463.853136
 30
0.0
 11
169.541426
 21
464.08454
 31
0.0
  0
LINE
  5
189
330
E1
100
AcDbEntity
  8
0
  6
Continuous
 62
     0
370
    30
100
AcDbLine
 10
167.926312
 20
465.212309
 30
0.0
 11
168.161285
 21
463.853136
 31
0.0
  0
LINE
  5
18A
330
E1
100
AcDbEntity
  8
0
  6
Continuous
 62
     0
370
    30
100
AcDbLine
 10
169.306452
 20
465.443713
 30
0.0
 11
167.926312
 21
465.212309
 31
0.0
  0
LINE
  5
18B
330
E1
100
AcDbEntity
  8
0
  6
Continuous
 62
     0
370
    30
100
AcDbLine
 10
170.850188
 20
465.902342
 30
0.0
 11
170.615215
 21
467.261515
 31
0.0
  0
LINE
  5
18C
330
E1
100
AcDbEntity
  8
0
  6
Continuous
 62
     0
370
    30
100
AcDbLine
 10
169.470048
 20
465.670938
 30
0.0
 11
170.850188
 21
465.902342
 31
0.0
  0
LINE
  5
18D
330
E1
100
AcDbEntity
  8
0
  6
Continuous
 62
     0
370
    30
100
AcDbLine
 10
169.235074
 20
467.030111
 30
0.0
 11
169.470048
 21
465.670938
 31
0.0
  0
LINE
  5
18E
330
E1
100
AcDbEntity
  8
0
  6
Continuous
 62
     0
370
    30
100
AcDbLine
 10
170.615215
 20
467.261515
 30
0.0
 11
169.235074
 21
467.030111
 31
0.0
  0
LINE
  5
18F
330
E1
100
AcDbEntity
  8
0
  6
Continuous
 62
     0
370
    30
100
AcDbLine
 10
171.047351
 20
465.935399
 30
0.0
 11
172.427491
 21
466.166803
 31
0.0
  0
LINE
  5
190
330
E1
100
AcDbEntity
  8
0
  6
Continuous
 62
     0
370
    30
100
AcDbLine
 10
170.812378
 20
467.294572
 30
0.0
 11
171.047351
 21
465.935399
 31
0.0
  0
LINE
  5
191
330
E1
100
AcDbEntity
  8
0
  6
Continuous
 62
     0
370
    30
100
AcDbLine
 10
172.192518
 20
467.525976
 30
0.0
 11
170.812378
 21
467.294572
 31
0.0
  0
LINE
  5
192
330
E1
100
AcDbEntity
  8
0
  6
Continuous
 62
     0
370
    30
100
AcDbLine
 10
172.427491
 20
466.166803
 30
0.0
 11
172.192518
 21
467.525976
 31
0.0
  0
LINE
  5
193
330
E1
100
AcDbEntity
  8
0
  6
Continuous
 62
     0
370
    30
100
AcDbLine
 10
173.906213
 20
466.414735
 30
0.0
 11
173.67124
 21
467.773908
 31
0.0
  0
LINE
  5
194
330
E1
100
AcDbEntity
  8
0
  6
Continuous
 62
     0
370
    30
100
AcDbLine
 10
172.624654
 20
466.19986
 30
0.0
 11
173.906213
 21
466.414735
 31
0.0
  0
LINE
  5
195
330
E1
100
AcDbEntity
  8
0
  6
Continuous
 62
     0
370
    30
100
AcDbLine
 10
172.389681
 20
467.559033
 30
0.0
 11
172.624654
 21
466.19986
 31
0.0
  0
LINE
  5
196
330
E1
100
AcDbEntity
  8
0
  6
Continuous
 62
     0
370
    30
100
AcDbLine
 10
173.67124
 20
467.773908
 30
0.0
 11
172.389681
 21
467.559033
 31
0.0
  0
LINE
  5
197
330
E1
100
AcDbEntity
  8
0
  6
Continuous
 62
     0
370
    30
100
AcDbLine
 10
172.188418
 20
468.723216
 30
0.0
 11
172.356114
 21
467.753201
 31
0.0
  0
ELLIPSE
  5
198
330
E1
100
AcDbEntity
  8
0
  6
Continuous
 62
     0
370
    30
100
AcDbEllipse
 10
173.079938
 20
462.979567
 30
0.0
 11
5.899999999999867
 21
-1.257388714185481E-6
 31
0.0
210
0.0
220
0.0
230
1.0
 40
0.984808
 41
1.499859423686749
 42
1.722482760259383
  0
LINE
  5
199
330
E1
100
AcDbEntity
  8
0
  6
Continuous
 62
     0
370
    30
100
AcDbLine
 10
173.637672
 20
467.968075
 30
0.0
 11
173.498117
 21
468.775319
 31
0.0
  0
LINE
  5
19A
330
E1
100
AcDbEntity
  8
0
  6
Continuous
 62
     0
370
    30
100
AcDbLine
 10
172.356114
 20
467.753201
 30
0.0
 11
173.637672
 21
467.968075
 31
0.0
  0
LINE
  5
19B
330
E1
100
AcDbEntity
  8
0
  6
Continuous
 62
     0
370
    30
100
AcDbLine
 10
175.483517
 20
466.679196
 30
0.0
 11
175.248543
 21
468.038369
 31
0.0
  0
LINE
  5
19C
330
E1
100
AcDbEntity
  8
0
  6
Continuous
 62
     0
370
    30
100
AcDbLine
 10
174.103376
 20
466.447793
 30
0.0
 11
175.483517
 21
466.679196
 31
0.0
  0
LINE
  5
19D
330
E1
100
AcDbEntity
  8
0
  6
Continuous
 62
     0
370
    30
100
AcDbLine
 10
173.868403
 20
467.806966
 30
0.0
 11
174.103376
 21
466.447793
 31
0.0
  0
LINE
  5
19E
330
E1
100
AcDbEntity
  8
0
  6
Continuous
 62
     0
370
    30
100
AcDbLine
 10
175.248543
 20
468.038369
 30
0.0
 11
173.868403
 21
467.806966
 31
0.0
  0
LINE
  5
19F
330
E1
100
AcDbEntity
  8
0
  6
Continuous
 62
     0
370
    30
100
AcDbLine
 10
175.807018
 20
468.132007
 30
0.0
 11
175.445706
 21
468.071427
 31
0.0
  0
ELLIPSE
  5
1A0
330
E1
100
AcDbEntity
  8
0
  6
Continuous
 62
     0
370
    30
100
AcDbEllipse
 10
173.079938
 20
462.979567
 30
0.0
 11
5.899999999999867
 21
-1.257388714185481E-6
 31
0.0
210
0.0
220
0.0
230
1.0
 40
0.984808
 41
0.8453084217186664
 42
1.090302989287165
  0
LINE
  5
1A1
330
E1
100
AcDbEntity
  8
0
  6
Continuous
 62
     0
370
    30
100
AcDbLine
 10
177.06082
 20
466.943657
 30
0.0
 11
176.994593
 21
467.326741
 31
0.0
  0
LINE
  5
1A2
330
E1
100
AcDbEntity
  8
0
  6
Continuous
 62
     0
370
    30
100
AcDbLine
 10
175.68068
 20
466.712254
 30
0.0
 11
177.06082
 21
466.943657
 31
0.0
  0
LINE
  5
1A3
330
E1
100
AcDbEntity
  8
0
  6
Continuous
 62
     0
370
    30
100
AcDbLine
 10
175.445706
 20
468.071427
 30
0.0
 11
175.68068
 21
466.712254
 31
0.0
  0
LINE
  5
1A4
330
E1
100
AcDbEntity
  8
0
  6
Continuous
 62
     0
370
    30
100
AcDbLine
 10
171.118729
 20
464.349001
 30
0.0
 11
170.883756
 21
465.708174
 31
0.0
  0
LINE
  5
1A5
330
E1
100
AcDbEntity
  8
0
  6
Continuous
 62
     0
370
    30
100
AcDbLine
 10
169.738589
 20
464.117597
 30
0.0
 11
171.118729
 21
464.349001
 31
0.0
  0
LINE
  5
1A6
330
E1
100
AcDbEntity
  8
0
  6
Continuous
 62
     0
370
    30
100
AcDbLine
 10
169.503615
 20
465.47677
 30
0.0
 11
169.738589
 21
464.117597
 31
0.0
  0
LINE
  5
1A7
330
E1
100
AcDbEntity
  8
0
  6
Continuous
 62
     0
370
    30
100
AcDbLine
 10
170.883756
 20
465.708174
 30
0.0
 11
169.503615
 21
465.47677
 31
0.0
  0
LINE
  5
1A8
330
E1
100
AcDbEntity
  8
0
  6
Continuous
 62
     0
370
    30
100
AcDbLine
 10
172.696032
 20
464.613462
 30
0.0
 11
172.461059
 21
465.972635
 31
0.0
  0
LINE
  5
1A9
330
E1
100
AcDbEntity
  8
0
  6
Continuous
 62
     0
370
    30
100
AcDbLine
 10
171.315892
 20
464.382059
 30
0.0
 11
172.696032
 21
464.613462
 31
0.0
  0
LINE
  5
1AA
330
E1
100
AcDbEntity
  8
0
  6
Continuous
 62
     0
370
    30
100
AcDbLine
 10
171.080919
 20
465.741232
 30
0.0
 11
171.315892
 21
464.382059
 31
0.0
  0
LINE
  5
1AB
330
E1
100
AcDbEntity
  8
0
  6
Continuous
 62
     0
370
    30
100
AcDbLine
 10
172.461059
 20
465.972635
 30
0.0
 11
171.080919
 21
465.741232
 31
0.0
  0
LINE
  5
1AC
330
E1
100
AcDbEntity
  8
0
  6
Continuous
 62
     0
370
    30
100
AcDbLine
 10
174.174754
 20
464.861394
 30
0.0
 11
173.939781
 21
466.220567
 31
0.0
  0
LINE
  5
1AD
330
E1
100
AcDbEntity
  8
0
  6
Continuous
 62
     0
370
    30
100
AcDbLine
 10
172.893195
 20
464.64652
 30
0.0
 11
174.174754
 21
464.861394
 31
0.0
  0
LINE
  5
1AE
330
E1
100
AcDbEntity
  8
0
  6
Continuous
 62
     0
370
    30
100
AcDbLine
 10
172.658222
 20
466.005693
 30
0.0
 11
172.893195
 21
464.64652
 31
0.0
  0
LINE
  5
1AF
330
E1
100
AcDbEntity
  8
0
  6
Continuous
 62
     0
370
    30
100
AcDbLine
 10
173.939781
 20
466.220567
 30
0.0
 11
172.658222
 21
466.005693
 31
0.0
  0
LINE
  5
1B0
330
E1
100
AcDbEntity
  8
0
  6
Continuous
 62
     0
370
    30
100
AcDbLine
 10
175.752058
 20
465.125855
 30
0.0
 11
175.517084
 21
466.485028
 31
0.0
  0
LINE
  5
1B1
330
E1
100
AcDbEntity
  8
0
  6
Continuous
 62
     0
370
    30
100
AcDbLine
 10
174.371917
 20
464.894452
 30
0.0
 11
175.752058
 21
465.125855
 31
0.0
  0
LINE
  5
1B2
330
E1
100
AcDbEntity
  8
0
  6
Continuous
 62
     0
370
    30
100
AcDbLine
 10
174.136944
 20
466.253625
 30
0.0
 11
174.371917
 21
464.894452
 31
0.0
  0
LINE
  5
1B3
330
E1
100
AcDbEntity
  8
0
  6
Continuous
 62
     0
370
    30
100
AcDbLine
 10
175.517084
 20
466.485028
 30
0.0
 11
174.136944
 21
466.253625
 31
0.0
  0
LINE
  5
1B4
330
E1
100
AcDbEntity
  8
0
  6
Continuous
 62
     0
370
    30
100
AcDbLine
 10
175.94922
 20
465.158913
 30
0.0
 11
177.329361
 21
465.390317
 31
0.0
  0
LINE
  5
1B5
330
E1
100
AcDbEntity
  8
0
  6
Continuous
 62
     0
370
    30
100
AcDbLine
 10
175.714247
 20
466.518086
 30
0.0
 11
175.94922
 21
465.158913
 31
0.0
  0
LINE
  5
1B6
330
E1
100
AcDbEntity
  8
0
  6
Continuous
 62
     0
370
    30
100
AcDbLine
 10
177.094388
 20
466.74949
 30
0.0
 11
175.714247
 21
466.518086
 31
0.0
  0
LINE
  5
1B7
330
E1
100
AcDbEntity
  8
0
  6
Continuous
 62
     0
370
    30
100
AcDbLine
 10
177.329361
 20
465.390317
 30
0.0
 11
177.094388
 21
466.74949
 31
0.0
  0
LINE
  5
1B8
330
E1
100
AcDbEntity
  8
0
  6
Continuous
 62
     0
370
    30
100
AcDbLine
 10
177.90001
 20
462.089468
 30
0.0
 11
176.51987
 21
461.858064
 31
0.0
  0
LINE
  5
1B9
330
E1
100
AcDbEntity
  8
0
  6
Continuous
 62
     0
370
    30
100
AcDbLine
 10
178.134983
 20
460.730295
 30
0.0
 11
177.90001
 21
462.089468
 31
0.0
  0
LINE
  5
1BA
330
E1
100
AcDbEntity
  8
0
  6
Continuous
 62
     0
370
    30
100
AcDbLine
 10
176.754843
 20
460.498891
 30
0.0
 11
178.134983
 21
460.730295
 31
0.0
  0
LINE
  5
1BB
330
E1
100
AcDbEntity
  8
0
  6
Continuous
 62
     0
370
    30
100
AcDbLine
 10
176.51987
 20
461.858064
 30
0.0
 11
176.754843
 21
460.498891
 31
0.0
  0
LINE
  5
1BC
330
E1
100
AcDbEntity
  8
0
  6
Continuous
 62
     0
370
    30
100
AcDbLine
 10
176.55768
 20
460.465834
 30
0.0
 11
176.322707
 21
461.825007
 31
0.0
  0
LINE
  5
1BD
330
E1
100
AcDbEntity
  8
0
  6
Continuous
 62
     0
370
    30
100
AcDbLine
 10
175.17754
 20
460.23443
 30
0.0
 11
176.55768
 21
460.465834
 31
0.0
  0
LINE
  5
1BE
330
E1
100
AcDbEntity
  8
0
  6
Continuous
 62
     0
370
    30
100
AcDbLine
 10
174.942566
 20
461.593603
 30
0.0
 11
175.17754
 21
460.23443
 31
0.0
  0
LINE
  5
1BF
330
E1
100
AcDbEntity
  8
0
  6
Continuous
 62
     0
370
    30
100
AcDbLine
 10
176.322707
 20
461.825007
 30
0.0
 11
174.942566
 21
461.593603
 31
0.0
  0
ELLIPSE
  5
1C0
330
E1
100
AcDbEntity
  8
0
  6
Continuous
 62
     0
370
    30
100
AcDbEllipse
 10
173.079938
 20
462.979567
 30
0.0
 11
5.899999999999867
 21
-1.257388713478198E-6
 31
0.0
210
0.0
220
0.0
230
1.0
 40
0.984808
 41
5.831272664059098
 42
5.858253991498101
  0
LINE
  5
1C1
330
E1
100
AcDbEntity
  8
0
  6
Continuous
 62
     0
370
    30
100
AcDbLine
 10
178.365714
 20
460.569185
 30
0.0
 11
178.387658
 21
460.442254
 31
0.0
  0
LINE
  5
1C2
330
E1
100
AcDbEntity
  8
0
  6
Continuous
 62
     0
370
    30
100
AcDbLine
 10
178.455234
 20
460.584194
 30
0.0
 11
178.365714
 21
460.569185
 31
0.0
  0
LINE
  5
1C3
330
E1
100
AcDbEntity
  8
0
  6
Continuous
 62
     0
370
    30
100
AcDbLine
 10
177.056952
 20
458.751383
 30
0.0
 11
177.066487
 21
458.696227
 31
0.0
  0
LINE
  5
1C4
330
E1
100
AcDbEntity
  8
0
  6
Continuous
 62
     0
370
    30
100
AcDbLine
 10
177.142062
 20
458.765654
 30
0.0
 11
177.056952
 21
458.751383
 31
0.0
  0
ELLIPSE
  5
1C5
330
E1
100
AcDbEntity
  8
0
  6
Continuous
 62
     0
370
    30
100
AcDbEllipse
 10
173.079938
 20
462.979567
 30
0.0
 11
5.899999999999867
 21
-1.257388713713959E-6
 31
0.0
210
0.0
220
0.0
230
1.0
 40
0.984808
 41
5.454284316033718
 42
5.471801769790495
  0
LINE
  5
1C6
330
E1
100
AcDbEntity
  8
0
  6
Continuous
 62
     0
370
    30
100
AcDbLine
 10
176.591248
 20
460.271666
 30
0.0
 11
175.211107
 21
460.040263
 31
0.0
  0
LINE
  5
1C7
330
E1
100
AcDbEntity
  8
0
  6
Continuous
 62
     0
370
    30
100
AcDbLine
 10
176.826221
 20
458.912493
 30
0.0
 11
176.591248
 21
460.271666
 31
0.0
  0
LINE
  5
1C8
330
E1
100
AcDbEntity
  8
0
  6
Continuous
 62
     0
370
    30
100
AcDbLine
 10
175.446081
 20
458.68109
 30
0.0
 11
176.826221
 21
458.912493
 31
0.0
  0
LINE
  5
1C9
330
E1
100
AcDbEntity
  8
0
  6
Continuous
 62
     0
370
    30
100
AcDbLine
 10
175.211107
 20
460.040263
 30
0.0
 11
175.446081
 21
458.68109
 31
0.0
  0
LINE
  5
1CA
330
E1
100
AcDbEntity
  8
0
  6
Continuous
 62
     0
370
    30
100
AcDbLine
 10
173.463845
 20
461.345671
 30
0.0
 11
173.698818
 21
459.986498
 31
0.0
  0
LINE
  5
1CB
330
E1
100
AcDbEntity
  8
0
  6
Continuous
 62
     0
370
    30
100
AcDbLine
 10
174.745404
 20
461.560546
 30
0.0
 11
173.463845
 21
461.345671
 31
0.0
  0
LINE
  5
1CC
330
E1
100
AcDbEntity
  8
0
  6
Continuous
 62
     0
370
    30
100
AcDbLine
 10
174.980377
 20
460.201373
 30
0.0
 11
174.745404
 21
461.560546
 31
0.0
  0
LINE
  5
1CD
330
E1
100
AcDbEntity
  8
0
  6
Continuous
 62
     0
370
    30
100
AcDbLine
 10
173.698818
 20
459.986498
 30
0.0
 11
174.980377
 21
460.201373
 31
0.0
  0
LINE
  5
1CE
330
E1
100
AcDbEntity
  8
0
  6
Continuous
 62
     0
370
    30
100
AcDbLine
 10
173.967359
 20
458.433158
 30
0.0
 11
175.248918
 21
458.648032
 31
0.0
  0
LINE
  5
1CF
330
E1
100
AcDbEntity
  8
0
  6
Continuous
 62
     0
370
    30
100
AcDbLine
 10
173.732385
 20
459.79233
 30
0.0
 11
173.967359
 21
458.433158
 31
0.0
  0
LINE
  5
1D0
330
E1
100
AcDbEntity
  8
0
  6
Continuous
 62
     0
370
    30
100
AcDbLine
 10
175.013944
 20
460.007205
 30
0.0
 11
173.732385
 21
459.79233
 31
0.0
  0
LINE
  5
1D1
330
E1
100
AcDbEntity
  8
0
  6
Continuous
 62
     0
370
    30
100
AcDbLine
 10
175.248918
 20
458.648032
 30
0.0
 11
175.013944
 21
460.007205
 31
0.0
  0
LINE
  5
1D2
330
E1
100
AcDbEntity
  8
0
  6
Continuous
 62
     0
370
    30
100
AcDbLine
 10
175.479648
 20
458.486922
 30
0.0
 11
175.610379
 21
457.730729
 31
0.0
  0
LINE
  5
1D3
330
E1
100
AcDbEntity
  8
0
  6
Continuous
 62
     0
370
    30
100
AcDbLine
 10
176.859789
 20
458.718326
 30
0.0
 11
175.479648
 21
458.486922
 31
0.0
  0
LINE
  5
1D4
330
E1
100
AcDbEntity
  8
0
  6
Continuous
 62
     0
370
    30
100
AcDbLine
 10
176.890059
 20
458.543231
 30
0.0
 11
176.859789
 21
458.718326
 31
0.0
  0
ELLIPSE
  5
1D5
330
E1
100
AcDbEntity
  8
0
  6
Continuous
 62
     0
370
    30
100
AcDbEllipse
 10
173.079938
 20
462.979567
 30
0.0
 11
5.899999999999867
 21
-1.257388713478198E-6
 31
0.0
210
0.0
220
0.0
230
1.0
 40
0.984808
 41
5.155650827088538
 42
5.414437709793156
  0
LINE
  5
1D6
330
E1
100
AcDbEntity
  8
0
  6
Continuous
 62
     0
370
    30
100
AcDbLine
 10
172.121515
 20
459.722037
 30
0.0
 11
173.501655
 21
459.95344
 31
0.0
  0
LINE
  5
1D7
330
E1
100
AcDbEntity
  8
0
  6
Continuous
 62
     0
370
    30
100
AcDbLine
 10
171.886541
 20
461.08121
 30
0.0
 11
172.121515
 21
459.722037
 31
0.0
  0
LINE
  5
1D8
330
E1
100
AcDbEntity
  8
0
  6
Continuous
 62
     0
370
    30
100
AcDbLine
 10
173.266682
 20
461.312613
 30
0.0
 11
171.886541
 21
461.08121
 31
0.0
  0
LINE
  5
1D9
330
E1
100
AcDbEntity
  8
0
  6
Continuous
 62
     0
370
    30
100
AcDbLine
 10
173.501655
 20
459.95344
 30
0.0
 11
173.266682
 21
461.312613
 31
0.0
  0
LINE
  5
1DA
330
E1
100
AcDbEntity
  8
0
  6
Continuous
 62
     0
370
    30
100
AcDbLine
 10
172.155082
 20
459.527869
 30
0.0
 11
172.390055
 21
458.168696
 31
0.0
  0
LINE
  5
1DB
330
E1
100
AcDbEntity
  8
0
  6
Continuous
 62
     0
370
    30
100
AcDbLine
 10
173.535223
 20
459.759273
 30
0.0
 11
172.155082
 21
459.527869
 31
0.0
  0
LINE
  5
1DC
330
E1
100
AcDbEntity
  8
0
  6
Continuous
 62
     0
370
    30
100
AcDbLine
 10
173.770196
 20
458.4001
 30
0.0
 11
173.535223
 21
459.759273
 31
0.0
  0
LINE
  5
1DD
330
E1
100
AcDbEntity
  8
0
  6
Continuous
 62
     0
370
    30
100
AcDbLine
 10
172.390055
 20
458.168696
 30
0.0
 11
173.770196
 21
458.4001
 31
0.0
  0
LINE
  5
1DE
330
E1
100
AcDbEntity
  8
0
  6
Continuous
 62
     0
370
    30
100
AcDbLine
 10
170.577779
 20
459.263408
 30
0.0
 11
170.812752
 21
457.904235
 31
0.0
  0
LINE
  5
1DF
330
E1
100
AcDbEntity
  8
0
  6
Continuous
 62
     0
370
    30
100
AcDbLine
 10
171.957919
 20
459.494812
 30
0.0
 11
170.577779
 21
459.263408
 31
0.0
  0
LINE
  5
1E0
330
E1
100
AcDbEntity
  8
0
  6
Continuous
 62
     0
370
    30
100
AcDbLine
 10
172.192892
 20
458.135639
 30
0.0
 11
171.957919
 21
459.494812
 31
0.0
  0
LINE
  5
1E1
330
E1
100
AcDbEntity
  8
0
  6
Continuous
 62
     0
370
    30
100
AcDbLine
 10
170.812752
 20
457.904235
 30
0.0
 11
172.192892
 21
458.135639
 31
0.0
  0
LINE
  5
1E2
330
E1
100
AcDbEntity
  8
0
  6
Continuous
 62
     0
370
    30
100
AcDbLine
 10
171.689378
 20
461.048152
 30
0.0
 11
170.309238
 21
460.816749
 31
0.0
  0
LINE
  5
1E3
330
E1
100
AcDbEntity
  8
0
  6
Continuous
 62
     0
370
    30
100
AcDbLine
 10
171.924352
 20
459.688979
 30
0.0
 11
171.689378
 21
461.048152
 31
0.0
  0
LINE
  5
1E4
330
E1
100
AcDbEntity
  8
0
  6
Continuous
 62
     0
370
    30
100
AcDbLine
 10
170.544211
 20
459.457576
 30
0.0
 11
171.924352
 21
459.688979
 31
0.0
  0
LINE
  5
1E5
330
E1
100
AcDbEntity
  8
0
  6
Continuous
 62
     0
370
    30
100
AcDbLine
 10
170.309238
 20
460.816749
 30
0.0
 11
170.544211
 21
459.457576
 31
0.0
  0
LINE
  5
1E6
330
E1
100
AcDbEntity
  8
0
  6
Continuous
 62
     0
370
    30
100
AcDbLine
 10
172.22646
 20
457.941471
 30
0.0
 11
170.84632
 21
457.710068
 31
0.0
  0
LINE
  5
1E7
330
E1
100
AcDbEntity
  8
0
  6
Continuous
 62
     0
370
    30
100
AcDbLine
 10
172.352301
 20
457.213558
 30
0.0
 11
172.22646
 21
457.941471
 31
0.0
  0
ELLIPSE
  5
1E8
330
E1
100
AcDbEntity
  8
0
  6
Continuous
 62
     0
370
    30
100
AcDbEllipse
 10
173.079938
 20
462.979567
 30
0.0
 11
5.899999999999867
 21
-1.257388713478198E-6
 31
0.0
210
0.0
220
0.0
230
1.0
 40
0.984808
 41
4.327812329522065
 42
4.588746091024911
  0
LINE
  5
1E9
330
E1
100
AcDbEntity
  8
0
  6
Continuous
 62
     0
370
    30
100
AcDbLine
 10
170.84632
 20
457.710068
 30
0.0
 11
170.866454
 21
457.593606
 31
0.0
  0
LINE
  5
1EA
330
E1
100
AcDbEntity
  8
0
  6
Continuous
 62
     0
370
    30
100
AcDbLine
 10
170.352859
 20
457.827127
 30
0.0
 11
170.615589
 21
457.871178
 31
0.0
  0
ELLIPSE
  5
1EB
330
E1
100
AcDbEntity
  8
0
  6
Continuous
 62
     0
370
    30
100
AcDbEllipse
 10
173.079938
 20
462.979567
 30
0.0
 11
5.899999999999867
 21
-1.257388714185481E-6
 31
0.0
210
0.0
220
0.0
230
1.0
 40
0.984808
 41
3.959358786336751
 42
4.231895642876965
  0
LINE
  5
1EC
330
E1
100
AcDbEntity
  8
0
  6
Continuous
 62
     0
370
    30
100
AcDbLine
 10
169.000475
 20
458.998947
 30
0.0
 11
169.045206
 21
458.740208
 31
0.0
  0
LINE
  5
1ED
330
E1
100
AcDbEntity
  8
0
  6
Continuous
 62
     0
370
    30
100
AcDbLine
 10
170.380616
 20
459.230351
 30
0.0
 11
169.000475
 21
458.998947
 31
0.0
  0
LINE
  5
1EE
330
E1
100
AcDbEntity
  8
0
  6
Continuous
 62
     0
370
    30
100
AcDbLine
 10
170.615589
 20
457.871178
 30
0.0
 11
170.380616
 21
459.230351
 31
0.0
  0
LINE
  5
1EF
330
E1
100
AcDbEntity
  8
0
  6
Continuous
 62
     0
370
    30
100
AcDbLine
 10
169.906583
 20
469.013459
 30
0.0
 11
169.906583
 21
470.043025
 31
0.0
  0
ELLIPSE
  5
1F0
330
E1
100
AcDbEntity
  8
0
  6
Continuous
 62
     0
370
    30
100
AcDbEllipse
 10
173.079939
 20
464.252046
 30
0.0
 11
-6.89999999999984
 21
1.470505444714057E-6
 31
0.0
210
0.0
220
0.0
230
-1.0
 40
0.984808
 41
0.1406173035079088
 42
0.7367722094458709
  0
LINE
  5
1F1
330
E1
100
AcDbEntity
  8
0
  6
Continuous
 62
     0
370
    30
100
AcDbLine
 10
166.248044
 20
463.931941
 30
0.0
 11
166.248044
 21
465.20442
 31
0.0
  0
LINE
  5
1F2
330
E1
100
AcDbEntity
  8
0
  6
Continuous
 62
     0
370
    30
100
AcDbLine
 10
179.192354
 20
466.132239
 30
0.0
 11
179.192355
 21
467.404718
 31
0.0
  0
ELLIPSE
  5
1F3
330
E1
100
AcDbEntity
  8
0
  6
Continuous
 62
     0
370
    30
100
AcDbEllipse
 10
173.079939
 20
464.252046
 30
0.0
 11
-6.89999999999984
 21
1.470505444714057E-6
 31
0.0
210
0.0
220
0.0
230
-1.0
 40
0.984808
 41
2.404820124393956
 42
2.659134851258293
  0
LINE
  5
1F4
330
E1
100
AcDbEntity
  8
0
  6
Continuous
 62
     0
370
    30
100
AcDbLine
 10
174.047004
 20
469.707669
 30
0.0
 11
174.047005
 21
470.652525
 31
0.0
  0
LINE
  5
1F5
330
E1
100
AcDbEntity
  8
0
  6
Continuous
 62
     0
370
    30
100
AcDbLine
 10
179.911833
 20
462.027192
 30
0.0
 11
179.911833
 21
463.299671
 31
0.0
  0
LINE
  5
1F6
330
E1
100
AcDbEntity
  8
0
  6
Continuous
 62
     0
370
    30
100
AcDbLine
 10
166.967523
 20
459.826894
 30
0.0
 11
166.967523
 21
460.400032
 31
0.0
  0
LINE
  5
1F7
330
E1
100
AcDbEntity
  8
0
  6
Continuous
 62
     0
370
    30
100
AcDbLine
 10
172.112872
 20
456.251464
 30
0.0
 11
172.112872
 21
456.500214
 31
0.0
  0
LINE
  5
1F8
330
E1
100
AcDbEntity
  8
0
  6
Continuous
 62
     0
370
    30
100
AcDbLine
 10
172.558923
 20
457.1919
 30
0.0
 11
172.558923
 21
457.452373
 31
0.0
  0
LINE
  5
1F9
330
E1
100
AcDbEntity
  8
0
  6
Continuous
 62
     0
370
    30
100
AcDbLine
 10
172.467385
 20
457.981866
 30
0.0
 11
172.558923
 21
457.452373
 31
0.0
  0
ELLIPSE
  5
1FA
330
E1
100
AcDbEntity
  8
0
  6
Continuous
 62
     0
370
    30
100
AcDbEllipse
 10
173.079939
 20
463.240039
 30
0.0
 11
5.899999999999867
 21
-1.257388713478198E-6
 31
0.0
210
0.0
220
0.0
230
1.0
 40
0.984808
 41
4.623966381232563
 42
4.856549790081521
  0
LINE
  5
1FB
330
E1
100
AcDbEntity
  8
0
  6
Continuous
 62
     0
370
    30
100
AcDbLine
 10
177.795065
 20
463.870034
 30
0.0
 11
177.795065
 21
464.130506
 31
0.0
  0
LINE
  5
1FC
330
E1
100
AcDbEntity
  8
0
  6
Continuous
 62
     0
370
    30
100
AcDbLine
 10
177.603853
 20
465.236544
 30
0.0
 11
177.795065
 21
464.130506
 31
0.0
  0
LINE
  5
1FD
330
E1
100
AcDbEntity
  8
0
  6
Continuous
 62
     0
370
    30
100
AcDbLine
 10
178.824817
 20
464.303161
 30
0.0
 11
177.795065
 21
464.130506
 31
0.0
  0
LINE
  5
1FE
330
E1
100
AcDbEntity
  8
0
  6
Continuous
 62
     0
370
    30
100
AcDbLine
 10
178.063606
 20
462.316693
 30
0.0
 11
178.063606
 21
462.577165
 31
0.0
  0
LINE
  5
1FF
330
E1
100
AcDbEntity
  8
0
  6
Continuous
 62
     0
370
    30
100
AcDbLine
 10
177.872394
 20
463.683204
 30
0.0
 11
178.063606
 21
462.577165
 31
0.0
  0
LINE
  5
200
330
E1
100
AcDbEntity
  8
0
  6
Continuous
 62
     0
370
    30
100
AcDbLine
 10
178.956889
 20
462.466467
 30
0.0
 11
178.956889
 21
462.726939
 31
0.0
  0
LINE
  5
201
330
E1
100
AcDbEntity
  8
0
  6
Continuous
 62
     0
370
    30
100
AcDbLine
 10
178.063606
 20
462.577165
 30
0.0
 11
178.956889
 21
462.726939
 31
0.0
  0
ELLIPSE
  5
202
330
E1
100
AcDbEntity
  8
0
  6
Continuous
 62
     0
370
    30
100
AcDbEllipse
 10
173.079939
 20
463.240039
 30
0.0
 11
5.899999999999867
 21
-1.257388713831840E-6
 31
0.0
210
0.0
220
0.0
230
1.0
 40
0.984808
 41
6.194762708027469
 42
6.260769234862417
  0
LINE
  5
203
330
E1
100
AcDbEntity
  8
0
  6
Continuous
 62
     0
370
    30
100
AcDbLine
 10
167.892744
 20
465.406477
 30
0.0
 11
167.892744
 21
465.666949
 31
0.0
  0
LINE
  5
204
330
E1
100
AcDbEntity
  8
0
  6
Continuous
 62
     0
370
    30
100
AcDbLine
 10
167.882082
 20
465.728625
 30
0.0
 11
167.892744
 21
465.666949
 31
0.0
  0
LINE
  5
205
330
E1
100
AcDbEntity
  8
0
  6
Continuous
 62
     0
370
    30
100
AcDbLine
 10
167.892744
 20
465.666949
 30
0.0
 11
169.229123
 21
465.891015
 31
0.0
  0
LINE
  5
206
330
E1
100
AcDbEntity
  8
0
  6
Continuous
 62
     0
370
    30
100
AcDbLine
 10
167.265123
 20
463.963352
 30
0.0
 11
167.920361
 21
464.073214
 31
0.0
  0
LINE
  5
207
330
E1
100
AcDbEntity
  8
0
  6
Continuous
 62
     0
370
    30
100
AcDbLine
 10
175.412139
 20
468.265594
 30
0.0
 11
175.412139
 21
468.31672
 31
0.0
  0
LINE
  5
208
330
E1
100
AcDbEntity
  8
0
  6
Continuous
 62
     0
370
    30
100
AcDbLine
 10
177.257983
 20
466.976715
 30
0.0
 11
177.257983
 21
467.082085
 31
0.0
  0
LINE
  5
209
330
E1
100
AcDbEntity
  8
0
  6
Continuous
 62
     0
370
    30
100
AcDbLine
 10
177.526524
 20
465.423374
 30
0.0
 11
177.526524
 21
465.683847
 31
0.0
  0
LINE
  5
20A
330
E1
100
AcDbEntity
  8
0
  6
Continuous
 62
     0
370
    30
100
AcDbLine
 10
177.335312
 20
466.789885
 30
0.0
 11
177.526524
 21
465.683847
 31
0.0
  0
LINE
  5
20B
330
E1
100
AcDbEntity
  8
0
  6
Continuous
 62
     0
370
    30
100
AcDbLine
 10
178.236581
 20
465.802899
 30
0.0
 11
177.526524
 21
465.683847
 31
0.0
  0
ELLIPSE
  5
20C
330
E1
100
AcDbEntity
  8
0
  6
Continuous
 62
     0
370
    30
100
AcDbEllipse
 10
173.079939
 20
463.240039
 30
0.0
 11
5.899999999999867
 21
-1.257388713478198E-6
 31
0.0
210
0.0
220
0.0
230
1.0
 40
0.984808
 41
5.898608656316966
 42
6.113050306767248
  0
LINE
  5
20D
330
E1
100
AcDbEntity
  8
0
  6
Continuous
 62
     0
370
    30
100
AcDbLine
 10
178.548986
 20
460.799709
 30
0.0
 11
178.548986
 21
461.060182
 31
0.0
  0
LINE
  5
20E
330
E1
100
AcDbEntity
  8
0
  6
Continuous
 62
     0
370
    30
100
AcDbLine
 10
178.332146
 20
460.763353
 30
0.0
 11
178.332146
 21
461.023825
 31
0.0
  0
LINE
  5
20F
330
E1
100
AcDbEntity
  8
0
  6
Continuous
 62
     0
370
    30
100
AcDbLine
 10
178.140935
 20
462.129863
 30
0.0
 11
178.332146
 21
461.023825
 31
0.0
  0
LINE
  5
210
330
E1
100
AcDbEntity
  8
0
  6
Continuous
 62
     0
370
    30
100
AcDbLine
 10
178.548986
 20
461.060182
 30
0.0
 11
178.332146
 21
461.023825
 31
0.0
  0
LINE
  5
211
330
E1
100
AcDbEntity
  8
0
  6
Continuous
 62
     0
370
    30
100
AcDbLine
 10
177.023384
 20
458.945551
 30
0.0
 11
177.023384
 21
459.206023
 31
0.0
  0
LINE
  5
212
330
E1
100
AcDbEntity
  8
0
  6
Continuous
 62
     0
370
    30
100
AcDbLine
 10
176.832173
 20
460.312061
 30
0.0
 11
177.023384
 21
459.206023
 31
0.0
  0
LINE
  5
213
330
E1
100
AcDbEntity
  8
0
  6
Continuous
 62
     0
370
    30
100
AcDbLine
 10
177.384696
 20
459.006131
 30
0.0
 11
177.384696
 21
459.266603
 31
0.0
  0
LINE
  5
214
330
E1
100
AcDbEntity
  8
0
  6
Continuous
 62
     0
370
    30
100
AcDbLine
 10
177.023384
 20
459.206023
 30
0.0
 11
177.384696
 21
459.266603
 31
0.0
  0
ELLIPSE
  5
215
330
E1
100
AcDbEntity
  8
0
  6
Continuous
 62
     0
370
    30
100
AcDbEllipse
 10
173.079939
 20
463.240039
 30
0.0
 11
5.899999999999867
 21
-1.257388714185483E-6
 31
0.0
210
0.0
220
0.0
230
1.0
 40
0.984808
 41
5.530155113131656
 42
5.763222671438021
  0
LINE
  5
216
330
E1
100
AcDbEntity
  8
0
  6
Continuous
 62
     0
370
    30
100
AcDbLine
 10
174.168622
 20
457.268975
 30
0.0
 11
174.168622
 21
457.529447
 31
0.0
  0
LINE
  5
217
330
E1
100
AcDbEntity
  8
0
  6
Continuous
 62
     0
370
    30
100
AcDbLine
 10
174.044688
 20
458.246327
 30
0.0
 11
174.168622
 21
457.529447
 31
0.0
  0
ELLIPSE
  5
218
330
E1
100
AcDbEntity
  8
0
  6
Continuous
 62
     0
370
    30
100
AcDbEllipse
 10
173.079939
 20
463.240039
 30
0.0
 11
5.899999999999867
 21
-1.257388713478198E-6
 31
0.0
210
0.0
220
0.0
230
1.0
 40
0.984808
 41
4.897975342159435
 42
5.1128607143009
  0
LINE
  5
219
330
E1
100
AcDbEntity
  8
0
  6
Continuous
 62
     0
370
    30
100
AcDbLine
 10
168.651486
 20
459.140229
 30
0.0
 11
168.651487
 21
459.400701
 31
0.0
  0
ELLIPSE
  5
21A
330
E1
100
AcDbEntity
  8
0
  6
Continuous
 62
     0
370
    30
100
AcDbEllipse
 10
173.079939
 20
463.240039
 30
0.0
 11
5.899999999999867
 21
-1.257388714185481E-6
 31
0.0
210
0.0
220
0.0
230
1.0
 40
0.984808
 41
3.649000449241381
 42
3.863442099691665
  0
LINE
  5
21B
330
E1
100
AcDbEntity
  8
0
  6
Continuous
 62
     0
370
    30
100
AcDbLine
 10
168.725983
 20
459.413192
 30
0.0
 11
168.651487
 21
459.400701
 31
0.0
  0
LINE
  5
21C
330
E1
100
AcDbEntity
  8
0
  6
Continuous
 62
     0
370
    30
100
AcDbLine
 10
167.706502
 20
460.580153
 30
0.0
 11
167.706502
 21
460.840625
 31
0.0
  0
ELLIPSE
  5
21D
330
E1
100
AcDbEntity
  8
0
  6
Continuous
 62
     0
370
    30
100
AcDbEllipse
 10
173.079939
 20
463.240039
 30
0.0
 11
5.899999999999867
 21
-1.257388713949720E-6
 31
0.0
210
0.0
220
0.0
230
1.0
 40
0.984808
 41
3.371409340477978
 42
3.567288047981156
  0
LINE
  5
21E
330
E1
100
AcDbEntity
  8
0
  6
Continuous
 62
     0
370
    30
100
AcDbLine
 10
168.457442
 20
460.966533
 30
0.0
 11
167.706502
 21
460.840625
 31
0.0
  0
LINE
  5
21F
330
E1
100
AcDbEntity
  8
0
  6
Continuous
 62
     0
370
    30
100
AcDbLine
 10
168.966908
 20
459.453587
 30
0.0
 11
170.303286
 21
459.677653
 31
0.0
  0
LINE
  5
220
330
E1
100
AcDbEntity
  8
0
  6
Continuous
 62
     0
370
    30
100
AcDbLine
 10
168.966908
 20
459.193115
 30
0.0
 11
168.966908
 21
459.453587
 31
0.0
  0
LINE
  5
221
330
E1
100
AcDbEntity
  8
0
  6
Continuous
 62
     0
370
    30
100
AcDbLine
 10
168.966908
 20
459.453587
 30
0.0
 11
168.775696
 21
460.559625
 31
0.0
  0
LINE
  5
222
330
E1
100
AcDbEntity
  8
0
  6
Continuous
 62
     0
370
    30
100
AcDbLine
 10
167.247684
 20
462.10159
 30
0.0
 11
167.247684
 21
462.362062
 31
0.0
  0
ELLIPSE
  5
223
330
E1
100
AcDbEntity
  8
0
  6
Continuous
 62
     0
370
    30
100
AcDbEllipse
 10
173.079939
 20
463.240039
 30
0.0
 11
5.899999999999867
 21
-1.257388713478198E-6
 31
0.0
210
0.0
220
0.0
230
1.0
 40
0.984808
 41
3.164009229354579
 42
3.293279087054286
  0
LINE
  5
224
330
E1
100
AcDbEntity
  8
0
  6
Continuous
 62
     0
370
    30
100
AcDbLine
 10
167.247684
 20
462.362062
 30
0.0
 11
168.188901
 21
462.519873
 31
0.0
  0
LINE
  5
225
330
E1
100
AcDbEntity
  8
0
  6
Continuous
 62
     0
370
    30
100
AcDbLine
 10
168.698367
 20
461.006928
 30
0.0
 11
170.034746
 21
461.230994
 31
0.0
  0
LINE
  5
226
330
E1
100
AcDbEntity
  8
0
  6
Continuous
 62
     0
370
    30
100
AcDbLine
 10
168.698367
 20
460.746455
 30
0.0
 11
168.698367
 21
461.006928
 31
0.0
  0
LINE
  5
227
330
E1
100
AcDbEntity
  8
0
  6
Continuous
 62
     0
370
    30
100
AcDbLine
 10
168.698367
 20
461.006928
 30
0.0
 11
168.507156
 21
462.112966
 31
0.0
  0
LINE
  5
228
330
E1
100
AcDbEntity
  8
0
  6
Continuous
 62
     0
370
    30
100
AcDbLine
 10
168.429826
 20
462.299796
 30
0.0
 11
168.429826
 21
462.560268
 31
0.0
  0
LINE
  5
229
330
E1
100
AcDbEntity
  8
0
  6
Continuous
 62
     0
370
    30
100
AcDbLine
 10
168.238615
 20
463.666306
 30
0.0
 11
168.429826
 21
462.560268
 31
0.0
  0
LINE
  5
22A
330
E1
100
AcDbEntity
  8
0
  6
Continuous
 62
     0
370
    30
100
AcDbLine
 10
168.429826
 20
462.560268
 30
0.0
 11
169.766205
 21
462.784334
 31
0.0
  0
LINE
  5
22B
330
E1
100
AcDbEntity
  8
0
  6
Continuous
 62
     0
370
    30
100
AcDbLine
 10
170.27567
 20
461.010916
 30
0.0
 11
170.27567
 21
461.271389
 31
0.0
  0
LINE
  5
22C
330
E1
100
AcDbEntity
  8
0
  6
Continuous
 62
     0
370
    30
100
AcDbLine
 10
170.084459
 20
462.377427
 30
0.0
 11
170.27567
 21
461.271389
 31
0.0
  0
LINE
  5
22D
330
E1
100
AcDbEntity
  8
0
  6
Continuous
 62
     0
370
    30
100
AcDbLine
 10
171.612049
 20
461.495455
 30
0.0
 11
170.27567
 21
461.271389
 31
0.0
  0
LINE
  5
22E
330
E1
100
AcDbEntity
  8
0
  6
Continuous
 62
     0
370
    30
100
AcDbLine
 10
170.007129
 20
462.564257
 30
0.0
 11
170.00713
 21
462.824729
 31
0.0
  0
LINE
  5
22F
330
E1
100
AcDbEntity
  8
0
  6
Continuous
 62
     0
370
    30
100
AcDbLine
 10
169.815918
 20
463.930767
 30
0.0
 11
170.00713
 21
462.824729
 31
0.0
  0
LINE
  5
230
330
E1
100
AcDbEntity
  8
0
  6
Continuous
 62
     0
370
    30
100
AcDbLine
 10
170.00713
 20
462.824729
 30
0.0
 11
171.343508
 21
463.048795
 31
0.0
  0
LINE
  5
231
330
E1
100
AcDbEntity
  8
0
  6
Continuous
 62
     0
370
    30
100
AcDbLine
 10
171.852974
 20
461.53585
 30
0.0
 11
173.189352
 21
461.759916
 31
0.0
  0
LINE
  5
232
330
E1
100
AcDbEntity
  8
0
  6
Continuous
 62
     0
370
    30
100
AcDbLine
 10
171.852974
 20
461.275378
 30
0.0
 11
171.852974
 21
461.53585
 31
0.0
  0
LINE
  5
233
330
E1
100
AcDbEntity
  8
0
  6
Continuous
 62
     0
370
    30
100
AcDbLine
 10
171.852974
 20
461.53585
 30
0.0
 11
171.661762
 21
462.641888
 31
0.0
  0
LINE
  5
234
330
E1
100
AcDbEntity
  8
0
  6
Continuous
 62
     0
370
    30
100
AcDbLine
 10
171.584433
 20
462.828718
 30
0.0
 11
171.584433
 21
463.08919
 31
0.0
  0
LINE
  5
235
330
E1
100
AcDbEntity
  8
0
  6
Continuous
 62
     0
370
    30
100
AcDbLine
 10
171.393221
 20
464.195228
 30
0.0
 11
171.584433
 21
463.08919
 31
0.0
  0
LINE
  5
236
330
E1
100
AcDbEntity
  8
0
  6
Continuous
 62
     0
370
    30
100
AcDbLine
 10
171.584433
 20
463.08919
 30
0.0
 11
172.920811
 21
463.313256
 31
0.0
  0
LINE
  5
237
330
E1
100
AcDbEntity
  8
0
  6
Continuous
 62
     0
370
    30
100
AcDbLine
 10
173.161736
 20
463.093179
 30
0.0
 11
173.161736
 21
463.353651
 31
0.0
  0
LINE
  5
238
330
E1
100
AcDbEntity
  8
0
  6
Continuous
 62
     0
370
    30
100
AcDbLine
 10
172.970525
 20
464.45969
 30
0.0
 11
173.161736
 21
463.353651
 31
0.0
  0
LINE
  5
239
330
E1
100
AcDbEntity
  8
0
  6
Continuous
 62
     0
370
    30
100
AcDbLine
 10
173.161736
 20
463.353651
 30
0.0
 11
174.399533
 21
463.561189
 31
0.0
  0
LINE
  5
23A
330
E1
100
AcDbEntity
  8
0
  6
Continuous
 62
     0
370
    30
100
AcDbLine
 10
173.430277
 20
461.539839
 30
0.0
 11
173.430277
 21
461.800311
 31
0.0
  0
LINE
  5
23B
330
E1
100
AcDbEntity
  8
0
  6
Continuous
 62
     0
370
    30
100
AcDbLine
 10
173.239066
 20
462.906349
 30
0.0
 11
173.430277
 21
461.800311
 31
0.0
  0
LINE
  5
23C
330
E1
100
AcDbEntity
  8
0
  6
Continuous
 62
     0
370
    30
100
AcDbLine
 10
173.430277
 20
461.800311
 30
0.0
 11
174.668074
 21
462.007848
 31
0.0
  0
LINE
  5
23D
330
E1
100
AcDbEntity
  8
0
  6
Continuous
 62
     0
370
    30
100
AcDbLine
 10
174.908999
 20
461.787771
 30
0.0
 11
174.908999
 21
462.048243
 31
0.0
  0
LINE
  5
23E
330
E1
100
AcDbEntity
  8
0
  6
Continuous
 62
     0
370
    30
100
AcDbLine
 10
174.717788
 20
463.154281
 30
0.0
 11
174.908999
 21
462.048243
 31
0.0
  0
LINE
  5
23F
330
E1
100
AcDbEntity
  8
0
  6
Continuous
 62
     0
370
    30
100
AcDbLine
 10
176.245377
 20
462.272309
 30
0.0
 11
174.908999
 21
462.048243
 31
0.0
  0
LINE
  5
240
330
E1
100
AcDbEntity
  8
0
  6
Continuous
 62
     0
370
    30
100
AcDbLine
 10
174.640458
 20
463.341111
 30
0.0
 11
174.640458
 21
463.601584
 31
0.0
  0
LINE
  5
241
330
E1
100
AcDbEntity
  8
0
  6
Continuous
 62
     0
370
    30
100
AcDbLine
 10
174.449247
 20
464.707622
 30
0.0
 11
174.640458
 21
463.601584
 31
0.0
  0
LINE
  5
242
330
E1
100
AcDbEntity
  8
0
  6
Continuous
 62
     0
370
    30
100
AcDbLine
 10
174.640458
 20
463.601584
 30
0.0
 11
175.976837
 21
463.82565
 31
0.0
  0
LINE
  5
243
330
E1
100
AcDbEntity
  8
0
  6
Continuous
 62
     0
370
    30
100
AcDbLine
 10
176.486302
 20
462.312704
 30
0.0
 11
177.822681
 21
462.53677
 31
0.0
  0
LINE
  5
244
330
E1
100
AcDbEntity
  8
0
  6
Continuous
 62
     0
370
    30
100
AcDbLine
 10
176.486302
 20
462.052232
 30
0.0
 11
176.486302
 21
462.312704
 31
0.0
  0
LINE
  5
245
330
E1
100
AcDbEntity
  8
0
  6
Continuous
 62
     0
370
    30
100
AcDbLine
 10
176.486302
 20
462.312704
 30
0.0
 11
176.295091
 21
463.418742
 31
0.0
  0
LINE
  5
246
330
E1
100
AcDbEntity
  8
0
  6
Continuous
 62
     0
370
    30
100
AcDbLine
 10
176.217761
 20
463.605573
 30
0.0
 11
176.217761
 21
463.866045
 31
0.0
  0
LINE
  5
247
330
E1
100
AcDbEntity
  8
0
  6
Continuous
 62
     0
370
    30
100
AcDbLine
 10
176.02655
 20
464.972083
 30
0.0
 11
176.217761
 21
463.866045
 31
0.0
  0
LINE
  5
248
330
E1
100
AcDbEntity
  8
0
  6
Continuous
 62
     0
370
    30
100
AcDbLine
 10
176.217761
 20
463.866045
 30
0.0
 11
177.55414
 21
464.090111
 31
0.0
  0
LINE
  5
249
330
E1
100
AcDbEntity
  8
0
  6
Continuous
 62
     0
370
    30
100
AcDbLine
 10
173.834835
 20
468.001133
 30
0.0
 11
173.834835
 21
468.261605
 31
0.0
  0
LINE
  5
24A
330
E1
100
AcDbEntity
  8
0
  6
Continuous
 62
     0
370
    30
100
AcDbLine
 10
173.749998
 20
468.75234
 30
0.0
 11
173.834835
 21
468.261605
 31
0.0
  0
LINE
  5
24B
330
E1
100
AcDbEntity
  8
0
  6
Continuous
 62
     0
370
    30
100
AcDbLine
 10
173.834835
 20
468.261605
 30
0.0
 11
175.032713
 21
468.46245
 31
0.0
  0
LINE
  5
24C
330
E1
100
AcDbEntity
  8
0
  6
Continuous
 62
     0
370
    30
100
AcDbLine
 10
170.77881
 20
467.48874
 30
0.0
 11
170.77881
 21
467.749212
 31
0.0
  0
LINE
  5
24D
330
E1
100
AcDbEntity
  8
0
  6
Continuous
 62
     0
370
    30
100
AcDbLine
 10
170.685344
 20
468.289856
 30
0.0
 11
170.77881
 21
467.749212
 31
0.0
  0
LINE
  5
24E
330
E1
100
AcDbEntity
  8
0
  6
Continuous
 62
     0
370
    30
100
AcDbLine
 10
170.77881
 20
467.749212
 30
0.0
 11
172.115189
 21
467.973278
 31
0.0
  0
LINE
  5
24F
330
E1
100
AcDbEntity
  8
0
  6
Continuous
 62
     0
370
    30
100
AcDbLine
 10
169.201507
 20
467.224279
 30
0.0
 11
169.201507
 21
467.358116
 31
0.0
  0
LINE
  5
250
330
E1
100
AcDbEntity
  8
0
  6
Continuous
 62
     0
370
    30
100
AcDbLine
 10
169.394827
 20
467.517164
 30
0.0
 11
170.537885
 21
467.708817
 31
0.0
  0
LINE
  5
251
330
E1
100
AcDbEntity
  8
0
  6
Continuous
 62
     0
370
    30
100
AcDbLine
 10
168.161285
 20
463.853136
 30
0.0
 11
168.161285
 21
464.113609
 31
0.0
  0
LINE
  5
252
330
E1
100
AcDbEntity
  8
0
  6
Continuous
 62
     0
370
    30
100
AcDbLine
 10
167.970074
 20
465.219647
 30
0.0
 11
168.161285
 21
464.113609
 31
0.0
  0
LINE
  5
253
330
E1
100
AcDbEntity
  8
0
  6
Continuous
 62
     0
370
    30
100
AcDbLine
 10
169.497664
 20
464.337675
 30
0.0
 11
168.161285
 21
464.113609
 31
0.0
  0
LINE
  5
254
330
E1
100
AcDbEntity
  8
0
  6
Continuous
 62
     0
370
    30
100
AcDbLine
 10
169.470048
 20
465.670938
 30
0.0
 11
169.470048
 21
465.93141
 31
0.0
  0
LINE
  5
255
330
E1
100
AcDbEntity
  8
0
  6
Continuous
 62
     0
370
    30
100
AcDbLine
 10
169.278836
 20
467.037448
 30
0.0
 11
169.470048
 21
465.93141
 31
0.0
  0
LINE
  5
256
330
E1
100
AcDbEntity
  8
0
  6
Continuous
 62
     0
370
    30
100
AcDbLine
 10
170.806426
 20
466.155476
 30
0.0
 11
169.470048
 21
465.93141
 31
0.0
  0
LINE
  5
257
330
E1
100
AcDbEntity
  8
0
  6
Continuous
 62
     0
370
    30
100
AcDbLine
 10
171.047351
 20
466.195871
 30
0.0
 11
172.38373
 21
466.419938
 31
0.0
  0
LINE
  5
258
330
E1
100
AcDbEntity
  8
0
  6
Continuous
 62
     0
370
    30
100
AcDbLine
 10
171.047351
 20
465.935399
 30
0.0
 11
171.047351
 21
466.195871
 31
0.0
  0
LINE
  5
259
330
E1
100
AcDbEntity
  8
0
  6
Continuous
 62
     0
370
    30
100
AcDbLine
 10
171.047351
 20
466.195871
 30
0.0
 11
170.85614
 21
467.30191
 31
0.0
  0
LINE
  5
25A
330
E1
100
AcDbEntity
  8
0
  6
Continuous
 62
     0
370
    30
100
AcDbLine
 10
172.624654
 20
466.19986
 30
0.0
 11
172.624654
 21
466.460333
 31
0.0
  0
LINE
  5
25B
330
E1
100
AcDbEntity
  8
0
  6
Continuous
 62
     0
370
    30
100
AcDbLine
 10
172.433443
 20
467.566371
 30
0.0
 11
172.624654
 21
466.460333
 31
0.0
  0
LINE
  5
25C
330
E1
100
AcDbEntity
  8
0
  6
Continuous
 62
     0
370
    30
100
AcDbLine
 10
173.862452
 20
466.66787
 30
0.0
 11
172.624654
 21
466.460333
 31
0.0
  0
LINE
  5
25D
330
E1
100
AcDbEntity
  8
0
  6
Continuous
 62
     0
370
    30
100
AcDbLine
 10
172.356114
 20
467.753201
 30
0.0
 11
172.356114
 21
468.013673
 31
0.0
  0
LINE
  5
25E
330
E1
100
AcDbEntity
  8
0
  6
Continuous
 62
     0
370
    30
100
AcDbLine
 10
172.232334
 20
468.72966
 30
0.0
 11
172.356114
 21
468.013673
 31
0.0
  0
LINE
  5
25F
330
E1
100
AcDbEntity
  8
0
  6
Continuous
 62
     0
370
    30
100
AcDbLine
 10
172.356114
 20
468.013673
 30
0.0
 11
173.593911
 21
468.22121
 31
0.0
  0
LINE
  5
260
330
E1
100
AcDbEntity
  8
0
  6
Continuous
 62
     0
370
    30
100
AcDbLine
 10
174.103376
 20
466.447793
 30
0.0
 11
174.103376
 21
466.708265
 31
0.0
  0
LINE
  5
261
330
E1
100
AcDbEntity
  8
0
  6
Continuous
 62
     0
370
    30
100
AcDbLine
 10
173.912165
 20
467.814303
 30
0.0
 11
174.103376
 21
466.708265
 31
0.0
  0
LINE
  5
262
330
E1
100
AcDbEntity
  8
0
  6
Continuous
 62
     0
370
    30
100
AcDbLine
 10
175.439755
 20
466.932331
 30
0.0
 11
174.103376
 21
466.708265
 31
0.0
  0
LINE
  5
263
330
E1
100
AcDbEntity
  8
0
  6
Continuous
 62
     0
370
    30
100
AcDbLine
 10
175.68068
 20
466.712254
 30
0.0
 11
175.68068
 21
466.972726
 31
0.0
  0
LINE
  5
264
330
E1
100
AcDbEntity
  8
0
  6
Continuous
 62
     0
370
    30
100
AcDbLine
 10
175.489468
 20
468.078764
 30
0.0
 11
175.68068
 21
466.972726
 31
0.0
  0
LINE
  5
265
330
E1
100
AcDbEntity
  8
0
  6
Continuous
 62
     0
370
    30
100
AcDbLine
 10
175.68068
 20
466.972726
 30
0.0
 11
177.017058
 21
467.196792
 31
0.0
  0
LINE
  5
266
330
E1
100
AcDbEntity
  8
0
  6
Continuous
 62
     0
370
    30
100
AcDbLine
 10
169.738589
 20
464.117597
 30
0.0
 11
169.738589
 21
464.37807
 31
0.0
  0
LINE
  5
267
330
E1
100
AcDbEntity
  8
0
  6
Continuous
 62
     0
370
    30
100
AcDbLine
 10
169.547377
 20
465.484108
 30
0.0
 11
169.738589
 21
464.37807
 31
0.0
  0
LINE
  5
268
330
E1
100
AcDbEntity
  8
0
  6
Continuous
 62
     0
370
    30
100
AcDbLine
 10
171.074967
 20
464.602136
 30
0.0
 11
169.738589
 21
464.37807
 31
0.0
  0
LINE
  5
269
330
E1
100
AcDbEntity
  8
0
  6
Continuous
 62
     0
370
    30
100
AcDbLine
 10
171.315892
 20
464.382059
 30
0.0
 11
171.315892
 21
464.642531
 31
0.0
  0
LINE
  5
26A
330
E1
100
AcDbEntity
  8
0
  6
Continuous
 62
     0
370
    30
100
AcDbLine
 10
171.124681
 20
465.748569
 30
0.0
 11
171.315892
 21
464.642531
 31
0.0
  0
LINE
  5
26B
330
E1
100
AcDbEntity
  8
0
  6
Continuous
 62
     0
370
    30
100
AcDbLine
 10
172.652271
 20
464.866597
 30
0.0
 11
171.315892
 21
464.642531
 31
0.0
  0
LINE
  5
26C
330
E1
100
AcDbEntity
  8
0
  6
Continuous
 62
     0
370
    30
100
AcDbLine
 10
172.893195
 20
464.64652
 30
0.0
 11
172.893195
 21
464.906992
 31
0.0
  0
LINE
  5
26D
330
E1
100
AcDbEntity
  8
0
  6
Continuous
 62
     0
370
    30
100
AcDbLine
 10
172.701984
 20
466.01303
 30
0.0
 11
172.893195
 21
464.906992
 31
0.0
  0
LINE
  5
26E
330
E1
100
AcDbEntity
  8
0
  6
Continuous
 62
     0
370
    30
100
AcDbLine
 10
174.130992
 20
465.114529
 30
0.0
 11
172.893195
 21
464.906992
 31
0.0
  0
LINE
  5
26F
330
E1
100
AcDbEntity
  8
0
  6
Continuous
 62
     0
370
    30
100
AcDbLine
 10
174.371917
 20
464.894452
 30
0.0
 11
174.371917
 21
465.154924
 31
0.0
  0
LINE
  5
270
330
E1
100
AcDbEntity
  8
0
  6
Continuous
 62
     0
370
    30
100
AcDbLine
 10
174.180706
 20
466.260962
 30
0.0
 11
174.371917
 21
465.154924
 31
0.0
  0
LINE
  5
271
330
E1
100
AcDbEntity
  8
0
  6
Continuous
 62
     0
370
    30
100
AcDbLine
 10
175.708296
 20
465.37899
 30
0.0
 11
174.371917
 21
465.154924
 31
0.0
  0
LINE
  5
272
330
E1
100
AcDbEntity
  8
0
  6
Continuous
 62
     0
370
    30
100
AcDbLine
 10
175.949221
 20
465.419385
 30
0.0
 11
177.285599
 21
465.643451
 31
0.0
  0
LINE
  5
273
330
E1
100
AcDbEntity
  8
0
  6
Continuous
 62
     0
370
    30
100
AcDbLine
 10
175.94922
 20
465.158913
 30
0.0
 11
175.949221
 21
465.419385
 31
0.0
  0
LINE
  5
274
330
E1
100
AcDbEntity
  8
0
  6
Continuous
 62
     0
370
    30
100
AcDbLine
 10
175.949221
 20
465.419385
 30
0.0
 11
175.758009
 21
466.525424
 31
0.0
  0
LINE
  5
275
330
E1
100
AcDbEntity
  8
0
  6
Continuous
 62
     0
370
    30
100
AcDbLine
 10
176.754843
 20
460.498891
 30
0.0
 11
176.754843
 21
460.759364
 31
0.0
  0
LINE
  5
276
330
E1
100
AcDbEntity
  8
0
  6
Continuous
 62
     0
370
    30
100
AcDbLine
 10
176.563632
 20
461.865402
 30
0.0
 11
176.754843
 21
460.759364
 31
0.0
  0
LINE
  5
277
330
E1
100
AcDbEntity
  8
0
  6
Continuous
 62
     0
370
    30
100
AcDbLine
 10
176.754843
 20
460.759364
 30
0.0
 11
178.091222
 21
460.98343
 31
0.0
  0
LINE
  5
278
330
E1
100
AcDbEntity
  8
0
  6
Continuous
 62
     0
370
    30
100
AcDbLine
 10
175.17754
 20
460.23443
 30
0.0
 11
175.17754
 21
460.494903
 31
0.0
  0
LINE
  5
279
330
E1
100
AcDbEntity
  8
0
  6
Continuous
 62
     0
370
    30
100
AcDbLine
 10
174.986328
 20
461.600941
 30
0.0
 11
175.17754
 21
460.494903
 31
0.0
  0
LINE
  5
27A
330
E1
100
AcDbEntity
  8
0
  6
Continuous
 62
     0
370
    30
100
AcDbLine
 10
176.513918
 20
460.718969
 30
0.0
 11
175.17754
 21
460.494903
 31
0.0
  0
LINE
  5
27B
330
E1
100
AcDbEntity
  8
0
  6
Continuous
 62
     0
370
    30
100
AcDbLine
 10
178.387658
 20
460.442254
 30
0.0
 11
178.387658
 21
460.572864
 31
0.0
  0
LINE
  5
27C
330
E1
100
AcDbEntity
  8
0
  6
Continuous
 62
     0
370
    30
100
AcDbLine
 10
177.066487
 20
458.696227
 30
0.0
 11
177.066487
 21
458.752982
 31
0.0
  0
LINE
  5
27D
330
E1
100
AcDbEntity
  8
0
  6
Continuous
 62
     0
370
    30
100
AcDbLine
 10
175.446081
 20
458.68109
 30
0.0
 11
175.446081
 21
458.941562
 31
0.0
  0
LINE
  5
27E
330
E1
100
AcDbEntity
  8
0
  6
Continuous
 62
     0
370
    30
100
AcDbLine
 10
175.254869
 20
460.0476
 30
0.0
 11
175.446081
 21
458.941562
 31
0.0
  0
LINE
  5
27F
330
E1
100
AcDbEntity
  8
0
  6
Continuous
 62
     0
370
    30
100
AcDbLine
 10
175.446081
 20
458.941562
 30
0.0
 11
176.782459
 21
459.165628
 31
0.0
  0
LINE
  5
280
330
E1
100
AcDbEntity
  8
0
  6
Continuous
 62
     0
370
    30
100
AcDbLine
 10
173.698818
 20
459.986498
 30
0.0
 11
173.698818
 21
460.24697
 31
0.0
  0
LINE
  5
281
330
E1
100
AcDbEntity
  8
0
  6
Continuous
 62
     0
370
    30
100
AcDbLine
 10
173.507606
 20
461.353008
 30
0.0
 11
173.698818
 21
460.24697
 31
0.0
  0
LINE
  5
282
330
E1
100
AcDbEntity
  8
0
  6
Continuous
 62
     0
370
    30
100
AcDbLine
 10
173.698818
 20
460.24697
 30
0.0
 11
174.936615
 21
460.454508
 31
0.0
  0
LINE
  5
283
330
E1
100
AcDbEntity
  8
0
  6
Continuous
 62
     0
370
    30
100
AcDbLine
 10
173.967359
 20
458.69363
 30
0.0
 11
175.205156
 21
458.901167
 31
0.0
  0
LINE
  5
284
330
E1
100
AcDbEntity
  8
0
  6
Continuous
 62
     0
370
    30
100
AcDbLine
 10
173.967359
 20
458.433158
 30
0.0
 11
173.967359
 21
458.69363
 31
0.0
  0
LINE
  5
285
330
E1
100
AcDbEntity
  8
0
  6
Continuous
 62
     0
370
    30
100
AcDbLine
 10
173.967359
 20
458.69363
 30
0.0
 11
173.776147
 21
459.799668
 31
0.0
  0
LINE
  5
286
330
E1
100
AcDbEntity
  8
0
  6
Continuous
 62
     0
370
    30
100
AcDbLine
 10
175.610379
 20
457.730729
 30
0.0
 11
175.610379
 21
457.991201
 31
0.0
  0
LINE
  5
287
330
E1
100
AcDbEntity
  8
0
  6
Continuous
 62
     0
370
    30
100
AcDbLine
 10
175.52341
 20
458.49426
 30
0.0
 11
175.610379
 21
457.991201
 31
0.0
  0
ELLIPSE
  5
288
330
E1
100
AcDbEntity
  8
0
  6
Continuous
 62
     0
370
    30
100
AcDbEllipse
 10
173.079939
 20
463.240039
 30
0.0
 11
5.899999999999867
 21
-1.257388713478198E-6
 31
0.0
210
0.0
220
0.0
230
1.0
 40
0.984808
 41
5.155650827088532
 42
5.387002223432686
  0
LINE
  5
289
330
E1
100
AcDbEntity
  8
0
  6
Continuous
 62
     0
370
    30
100
AcDbLine
 10
172.121515
 20
459.982509
 30
0.0
 11
173.457893
 21
460.206575
 31
0.0
  0
LINE
  5
28A
330
E1
100
AcDbEntity
  8
0
  6
Continuous
 62
     0
370
    30
100
AcDbLine
 10
172.121515
 20
459.722037
 30
0.0
 11
172.121515
 21
459.982509
 31
0.0
  0
LINE
  5
28B
330
E1
100
AcDbEntity
  8
0
  6
Continuous
 62
     0
370
    30
100
AcDbLine
 10
172.121515
 20
459.982509
 30
0.0
 11
171.930303
 21
461.088547
 31
0.0
  0
LINE
  5
28C
330
E1
100
AcDbEntity
  8
0
  6
Continuous
 62
     0
370
    30
100
AcDbLine
 10
172.390055
 20
458.168696
 30
0.0
 11
172.390055
 21
458.429169
 31
0.0
  0
LINE
  5
28D
330
E1
100
AcDbEntity
  8
0
  6
Continuous
 62
     0
370
    30
100
AcDbLine
 10
172.198844
 20
459.535207
 30
0.0
 11
172.390055
 21
458.429169
 31
0.0
  0
LINE
  5
28E
330
E1
100
AcDbEntity
  8
0
  6
Continuous
 62
     0
370
    30
100
AcDbLine
 10
172.390055
 20
458.429169
 30
0.0
 11
173.726434
 21
458.653235
 31
0.0
  0
LINE
  5
28F
330
E1
100
AcDbEntity
  8
0
  6
Continuous
 62
     0
370
    30
100
AcDbLine
 10
170.812752
 20
457.904235
 30
0.0
 11
170.812752
 21
458.164708
 31
0.0
  0
LINE
  5
290
330
E1
100
AcDbEntity
  8
0
  6
Continuous
 62
     0
370
    30
100
AcDbLine
 10
170.621541
 20
459.270746
 30
0.0
 11
170.812752
 21
458.164708
 31
0.0
  0
LINE
  5
291
330
E1
100
AcDbEntity
  8
0
  6
Continuous
 62
     0
370
    30
100
AcDbLine
 10
170.812752
 20
458.164708
 30
0.0
 11
172.149131
 21
458.388774
 31
0.0
  0
LINE
  5
292
330
E1
100
AcDbEntity
  8
0
  6
Continuous
 62
     0
370
    30
100
AcDbLine
 10
170.544211
 20
459.457576
 30
0.0
 11
170.544211
 21
459.718048
 31
0.0
  0
LINE
  5
293
330
E1
100
AcDbEntity
  8
0
  6
Continuous
 62
     0
370
    30
100
AcDbLine
 10
170.353
 20
460.824086
 30
0.0
 11
170.544211
 21
459.718048
 31
0.0
  0
LINE
  5
294
330
E1
100
AcDbEntity
  8
0
  6
Continuous
 62
     0
370
    30
100
AcDbLine
 10
170.544211
 20
459.718048
 30
0.0
 11
171.88059
 21
459.942114
 31
0.0
  0
LINE
  5
295
330
E1
100
AcDbEntity
  8
0
  6
Continuous
 62
     0
370
    30
100
AcDbLine
 10
170.866454
 20
457.593606
 30
0.0
 11
170.866454
 21
457.713443
 31
0.0
  0
ELLIPSE
  5
296
330
E1
100
AcDbEntity
  8
0
  6
Continuous
 62
     0
370
    30
100
AcDbEllipse
 10
173.079939
 20
463.240039
 30
0.0
 11
5.899999999999867
 21
-1.257388713478198E-6
 31
0.0
210
0.0
220
0.0
230
1.0
 40
0.984808
 41
4.375048532575939
 42
4.580879480241084
  0
LINE
  5
297
330
E1
100
AcDbEntity
  8
0
  6
Continuous
 62
     0
370
    30
100
AcDbLine
 10
170.352859
 20
458.087599
 30
0.0
 11
170.571827
 21
458.124313
 31
0.0
  0
LINE
  5
298
330
E1
100
AcDbEntity
  8
0
  6
Continuous
 62
     0
370
    30
100
AcDbLine
 10
170.352859
 20
457.827127
 30
0.0
 11
170.352859
 21
458.087599
 31
0.0
  0
LINE
  5
299
330
E1
100
AcDbEntity
  8
0
  6
Continuous
 62
     0
370
    30
100
AcDbLine
 10
169.045206
 20
458.740208
 30
0.0
 11
169.045206
 21
459.000681
 31
0.0
  0
ELLIPSE
  5
29A
330
E1
100
AcDbEntity
  8
0
  6
Continuous
 62
     0
370
    30
100
AcDbEllipse
 10
173.079939
 20
463.240039
 30
0.0
 11
5.899999999999867
 21
-1.257388714185481E-6
 31
0.0
210
0.0
220
0.0
230
1.0
 40
0.984808
 41
3.959358786336751
 42
4.231895642876961
  0
LINE
  5
29B
330
E1
100
AcDbEntity
  8
0
  6
Continuous
 62
     0
370
    30
100
AcDbLine
 10
169.950717
 20
468.758171
 30
0.0
 11
169.950717
 21
469.93508
 31
0.0
  0
LINE
  5
29C
330
E1
100
AcDbEntity
  8
0
  6
Continuous
 62
     0
370
    30
100
AcDbLine
 10
169.945005
 20
470.059884
 30
0.0
 11
169.950717
 21
469.93508
 31
0.0
  0
ARC
  5
29D
330
E1
100
AcDbEntity
  8
0
  6
Continuous
 62
     0
370
    30
100
AcDbCircle
 10
173.079808
 20
463.966665
 30
0.0
 40
6.738930481101705
100
AcDbArc
 50
81.748197
 51
117.666898
  0
LINE
  5
29E
330
E1
100
AcDbEntity
  8
0
  6
Continuous
 62
     0
370
    30
100
AcDbLine
 10
176.215109
 20
458.439026
 30
0.0
 11
176.209159
 21
458.377871
 31
0.0
  0
ARC
  5
29F
330
E1
100
AcDbEntity
  8
0
  6
Continuous
 62
     0
370
    30
100
AcDbCircle
 10
173.077845
 20
464.344345
 30
0.0
 40
6.736690913208075
100
AcDbArc
 50
261.385088
 51
263.163126
  0
ARC
  5
2A0
330
E1
100
AcDbEntity
  8
0
  6
Continuous
 62
     0
370
    30
100
AcDbCircle
 10
173.079961
 20
464.356443
 30
0.0
 40
6.748935310535233
100
AcDbArc
 50
265.310516
 51
276.967105
  0
ARC
  5
2A1
330
E1
100
AcDbEntity
  8
0
  6
Continuous
 62
     0
370
    30
100
AcDbCircle
 10
173.082888
 20
464.341316
 30
0.0
 40
6.733555891969088
100
AcDbArc
 50
279.037762
 51
289.767142
  0
ARC
  5
2A2
330
E1
100
AcDbEntity
  8
0
  6
Continuous
 62
     0
370
    30
100
AcDbCircle
 10
173.093515
 20
464.311253
 30
0.0
 40
6.701660596359845
100
AcDbArc
 50
291.896479
 51
297.704156
  0
LINE
  5
2A3
330
E1
100
AcDbEntity
  8
0
  6
Continuous
 62
     0
370
    30
100
AcDbLine
 10
172.0857
 20
457.681114
 30
0.0
 11
172.07469
 21
457.744798
 31
0.0
  0
LINE
  5
2A4
330
E1
100
AcDbEntity
  8
0
  6
Continuous
 62
     0
370
    30
100
AcDbLine
 10
172.068738
 20
457.683662
 30
0.0
 11
172.074687
 21
457.744816
 31
0.0
  0
ELLIPSE
  5
2A5
330
E1
100
AcDbEntity
  8
0
  6
Continuous
 62
     0
370
    30
100
AcDbEllipse
 10
173.079939
 20
464.156476
 30
0.0
 11
-6.649999999999846
 21
1.417226300332642E-6
 31
0.0
210
0.0
220
0.0
230
-1.0
 40
0.984808
 41
2.736739405604483
 42
3.141592401865937
  0
LINE
  5
2A6
330
E1
100
AcDbEntity
  8
0
  6
Continuous
 62
     0
370
    30
100
AcDbLine
 10
179.911833
 20
463.299671
 30
0.0
 11
179.729939
 21
463.269173
 31
0.0
  0
SPLINE
  5
2A7
330
E1
100
AcDbEntity
  8
0
  6
Continuous
 62
     0
370
    30
100
AcDbSpline
210
0.0
220
0.0
230
1.0
 70
    12
 71
     2
 72
     8
 73
     5
 74
     0
 42
0.000000001
 43
0.0
 40
0.459622969411552
 40
0.459622969411552
 40
0.459622969411552
 40
0.5
 40
0.5
 40
1.0
 40
1.0
 40
1.0
 10
182.0799218937697
 20
466.2316299819928
 30
0.0
 41
0.95651540747279
 10
182.0809532809336
 20
466.7499977738639
 30
0.0
 41
0.9763476830896405
 10
182.0206186113242
 20
467.2649499027952
 30
0.0
 41
1.0
 10
180.9889931217754
 20
476.0698003402417
 30
0.0
 41
0.707106781186548
 10
172.0483136817489
 20
475.0538476267614
 30
0.0
 41
1.0
  0
SPLINE
  5
2A8
330
E1
100
AcDbEntity
  8
0
  6
Continuous
 62
     0
370
    30
100
AcDbSpline
210
0.0
220
0.0
230
1.0
 70
    12
 71
     2
 72
     6
 73
     3
 74
     0
 42
0.000000001
 43
0.0
 40
0.0
 40
0.0
 40
0.0
 40
0.4609489880767723
 40
0.4609489880767723
 40
0.4609489880767723
 10
172.0483136817489
 20
475.0538476267614
 30
0.0
 41
1.0
 10
164.0642124025532
 20
474.146593383534
 30
0.0
 41
0.7299823343467813
 10
164.079956439578
 20
466.2316347650195
 30
0.0
 41
0.9578221476763762
  0
LINE
  5
2A9
330
E1
100
AcDbEntity
  8
0
  6
Continuous
 62
     0
370
    30
100
AcDbLine
 10
191.579985
 20
493.213084
 30
0.0
 11
173.079985
 21
493.213084
 31
0.0
  0
LINE
  5
2AA
330
E1
100
AcDbEntity
  8
0
  6
Continuous
 62
     0
370
    30
100
AcDbLine
 10
173.079985
 20
493.213084
 30
0.0
 11
154.579985
 21
493.213084
 31
0.0
  0
LINE
  5
2AB
330
E1
100
AcDbEntity
  8
0
  6
Continuous
 62
     0
370
    30
100
AcDbLine
 10
199.853845
 20
366.213084
 30
0.0
 11
185.40084
 21
366.213084
 31
0.0
  0
LINE
  5
2AC
330
E1
100
AcDbEntity
  8
0
  6
Continuous
 62
     0
370
    30
100
AcDbLine
 10
185.40084
 20
366.213084
 30
0.0
 11
146.306134
 21
366.213084
 31
0.0
  0
ARC
  5
2AD
330
E1
100
AcDbEntity
  8
0
  6
Continuous
 62
     0
370
    30
100
AcDbCircle
 10
173.079954
 20
468.463083
 30
0.0
 40
10.24998644381823
100
AcDbArc
 50
331.407855
 51
90.00004
  0
ARC
  5
2AE
330
E1
100
AcDbEntity
  8
0
  6
Continuous
 62
     0
370
    30
100
AcDbCircle
 10
173.079939
 20
468.463084
 30
0.0
 40
10.24998630192654
100
AcDbArc
 50
89.99996
 51
208.591987
  0
ARC
  5
2AF
330
E1
100
AcDbEntity
  8
0
  6
Continuous
 62
     0
370
    30
100
AcDbCircle
 10
173.10586
 20
464.382503
 30
0.0
 40
6.70765100596018
100
AcDbArc
 50
297.61565
 51
301.7964
  0
ARC
  5
2B0
330
E1
100
AcDbEntity
  8
0
  6
Continuous
 62
     0
370
    30
100
AcDbCircle
 10
173.079071
 20
464.446124
 30
0.0
 40
6.776175774818006
100
AcDbArc
 50
257.323849
 51
261.476076
  0
ARC
  5
2B1
330
E1
100
AcDbEntity
  8
0
  6
Continuous
 62
     0
370
    30
100
AcDbCircle
 10
173.057687
 20
464.388718
 30
0.0
 40
6.714814710834448
100
AcDbArc
 50
233.296637
 51
248.226217
  0
ELLIPSE
  5
2B2
330
E1
100
AcDbEntity
  8
0
  6
Continuous
 62
     0
370
    30
100
AcDbEllipse
 10
173.079939
 20
466.214268
 30
0.0
 11
8.999999999999725
 21
-2.231096498383161E-6
 31
0.0
210
0.0
220
0.0
230
1.0
 40
0.984808
 41
0.0000002517238542
 42
2.939644491362051
  0
ELLIPSE
  5
2B3
330
E1
100
AcDbEntity
  8
0
  6
Continuous
 62
     0
370
    30
100
AcDbEllipse
 10
173.079939
 20
466.214268
 30
0.0
 11
8.999999999999725
 21
-2.231096498383161E-6
 31
0.0
210
0.0
220
0.0
230
1.0
 40
0.984808
 41
2.939644491362051
 42
3.141592905313646
  0
ELLIPSE
  5
2B4
330
E1
100
AcDbEntity
  8
0
  6
Continuous
 62
     0
370
    30
100
AcDbEllipse
 10
173.079938
 20
462.993094
 30
0.0
 11
-8.999999999999725
 21
2.231096498383161E-6
 31
0.0
210
0.0
220
0.0
230
-1.0
 40
0.984808
 41
3.343540815817535
 42
6.485133469407328
  0
ELLIPSE
  5
2B5
330
E1
100
AcDbEntity
  8
0
  6
Continuous
 62
     0
370
    30
100
AcDbEllipse
 10
173.079938
 20
462.993094
 30
0.0
 11
-8.999999999999725
 21
2.231096498383161E-6
 31
0.0
210
0.0
220
0.0
230
-1.0
 40
0.984808
 41
0.2019481622277416
 42
3.343540815817533
  0
SPLINE
  5
2B6
330
E1
100
AcDbEntity
  8
0
  6
Continuous
 62
     0
370
    30
100
AcDbSpline
210
0.0
220
0.0
230
1.0
 70
    12
 71
     2
 72
     8
 73
     5
 74
     0
 42
0.000000001
 43
0.0
 40
0.0
 40
0.0
 40
0.0
 40
0.5
 40
0.5
 40
1.0
 40
1.0
 40
1.0
 10
164.9975979138138
 20
464.6227269990231
 30
0.0
 41
1.0
 10
163.3428251201945
 20
456.6631754827779
 30
0.0
 41
0.707106781186548
 10
171.4251655610258
 20
455.0335423457318
 30
0.0
 41
1.0
 10
179.5075060018571
 20
453.4039092086856
 30
0.0
 41
0.707106781186548
 10
181.1622787954764
 20
461.3634607249309
 30
0.0
 41
1.0
  0
SPLINE
  5
2B7
330
E1
100
AcDbEntity
  8
0
  6
Continuous
 62
     0
370
    30
100
AcDbSpline
210
0.0
220
0.0
230
1.0
 70
    12
 71
     2
 72
    10
 73
     7
 74
     0
 42
0.000000001
 43
0.0
 40
0.0
 40
0.0
 40
0.0
 40
0.333333333333333
 40
0.333333333333333
 40
0.666666666666667
 40
0.666666666666667
 40
1.0
 40
1.0
 40
1.0
 10
181.1622787954764
 20
461.3634607249309
 30
0.0
 41
1.0
 10
182.1176623133202
 20
465.9589099354637
 30
0.0
 41
0.866025403784439
 10
178.5541838518264
 20
469.0714511092532
 30
0.0
 41
1.0
 10
174.9907053903326
 20
472.1839922830427
 30
0.0
 41
0.866025403784439
 10
170.4718434109951
 20
470.7010842462994
 30
0.0
 41
1.0
 10
165.9529814316575
 20
469.218176209556
 30
0.0
 41
0.866025403784439
 10
164.9975979138138
 20
464.6227269990231
 30
0.0
 41
1.0
  0
ELLIPSE
  5
2B8
330
E1
100
AcDbEntity
  8
0
  6
Continuous
 62
     0
370
    30
100
AcDbEllipse
 10
173.079938
 20
463.079918
 30
0.0
 11
7.74999999999976
 21
-1.921221984718832E-6
 31
0.0
210
0.0
220
0.0
230
1.0
 40
0.984808
 41
6.081237144951845
 42
9.222829798541643
  0
ELLIPSE
  5
2B9
330
E1
100
AcDbEntity
  8
0
  6
Continuous
 62
     0
370
    30
100
AcDbEllipse
 10
173.079938
 20
463.079918
 30
0.0
 11
7.74999999999976
 21
-1.921221984718832E-6
 31
0.0
210
0.0
220
0.0
230
1.0
 40
0.984808
 41
2.939644491362055
 42
6.081237144951839
  0
ELLIPSE
  5
2BA
330
E1
100
AcDbEntity
  8
0
  6
Continuous
 62
     0
370
    30
100
AcDbEllipse
 10
173.079939
 20
464.252043
 30
0.0
 11
-7.74999999999976
 21
1.921221984718832E-6
 31
0.0
210
0.0
220
0.0
230
-1.0
 40
0.984808
 41
5.500582656127857
 42
6.206321837632048
  0
ELLIPSE
  5
2BB
330
E1
100
AcDbEntity
  8
0
  6
Continuous
 62
     0
370
    30
100
AcDbEllipse
 10
173.079939
 20
464.252043
 30
0.0
 11
-7.74999999999976
 21
1.921221984718832E-6
 31
0.0
210
0.0
220
0.0
230
-1.0
 40
0.984808
 41
3.343540815817538
 42
3.924194643063003
  0
ELLIPSE
  5
2BC
330
E1
100
AcDbEntity
  8
0
  6
Continuous
 62
     0
370
    30
100
AcDbEllipse
 10
173.079939
 20
464.252043
 30
0.0
 11
-7.74999999999976
 21
1.921221984718832E-6
 31
0.0
210
0.0
220
0.0
230
-1.0
 40
0.984808
 41
3.218455619689611
 42
3.343540815817534
  0
ELLIPSE
  5
2BD
330
E1
100
AcDbEntity
  8
0
  6
Continuous
 62
     0
370
    30
100
AcDbEllipse
 10
173.079939
 20
467.551359
 30
0.0
 11
8.999999999999725
 21
-2.231096498562979E-6
 31
0.0
210
0.0
220
0.0
230
1.0
 40
0.984808
 41
0.0000002517238524
 42
1.685674129033716
  0
ELLIPSE
  5
2BE
330
E1
100
AcDbEntity
  8
0
  6
Continuous
 62
     0
370
    30
100
AcDbEllipse
 10
173.079939
 20
467.551359
 30
0.0
 11
8.999999999999725
 21
-2.231096498562979E-6
 31
0.0
210
0.0
220
0.0
230
1.0
 40
0.984808
 41
1.685674129033716
 42
3.141592905313646
  0
LINE
  5
2BF
330
E1
100
AcDbEntity
  8
0
  6
Continuous
 62
     0
370
    30
100
AcDbLine
 10
164.079939
 20
466.248997
 30
0.0
 11
164.079939
 21
467.551359
 31
0.0
  0
LINE
  5
2C0
330
E1
100
AcDbEntity
  8
0
  6
Continuous
 62
     0
370
    30
100
AcDbLine
 10
182.079939
 20
466.248997
 30
0.0
 11
182.079939
 21
467.551359
 31
0.0
  0
LINE
  5
2C1
330
E1
100
AcDbEntity
  8
0
  6
Continuous
 62
     0
370
    30
100
AcDbLine
 10
182.079939
 20
466.214268
 30
0.0
 11
182.079938
 21
462.993094
 31
0.0
  0
LINE
  5
2C2
330
E1
100
AcDbEntity
  8
0
  6
Continuous
 62
     0
370
    30
100
AcDbLine
 10
164.079939
 20
466.214268
 30
0.0
 11
164.079938
 21
462.993094
 31
0.0
  0
ARC
  5
2C3
330
E1
100
AcDbEntity
  8
0
  6
Continuous
 62
     0
370
    30
100
AcDbCircle
 10
199.853667
 20
366.013056
 30
0.0
 40
0.2000282896707918
100
AcDbArc
 50
0.508019
 51
90.003173
  0
ARC
  5
2C4
330
E1
100
AcDbEntity
  8
0
  6
Continuous
 62
     0
370
    30
100
AcDbCircle
 10
146.306302
 20
366.013056
 30
0.0
 40
0.2000283483598605
100
AcDbArc
 50
89.994892
 51
179.491964
  0
LINE
  5
2C5
330
E1
100
AcDbEntity
  8
0
  6
Continuous
 62
     0
370
    30
100
AcDbLine
 10
191.579985
 20
366.213084
 30
0.0
 11
191.579985
 21
493.213084
 31
0.0
  0
LINE
  5
2C6
330
E1
100
AcDbEntity
  8
0
  6
Continuous
 62
     0
370
    30
100
AcDbLine
 10
154.579985
 20
366.213084
 30
0.0
 11
154.579985
 21
493.213084
 31
0.0
  0
ARC
  5
2C7
330
E1
100
AcDbEntity
  8
0
  6
Continuous
 62
     0
370
    30
100
AcDbCircle
 10
173.841994
 20
492.252328
 30
0.0
 40
17.54427104444452
100
AcDbArc
 50
168.789833
 51
176.860817
  0
ARC
  5
2C8
330
E1
100
AcDbEntity
  8
0
  6
Continuous
 62
     0
370
    30
100
AcDbCircle
 10
172.361616
 20
492.257821
 30
0.0
 40
17.50039732685634
100
AcDbArc
 50
3.12905
 51
11.220301
  0
LINE
  5
2C9
330
E1
100
AcDbEntity
  8
0
  6
Continuous
 62
     0
370
    30
100
AcDbLine
 10
154.579985
 20
495.663082
 30
0.0
 11
154.579985
 21
523.163082
 31
0.0
  0
LINE
  5
2CA
330
E1
100
AcDbEntity
  8
0
  6
Continuous
 62
     0
370
    30
100
AcDbLine
 10
191.579985
 20
495.663082
 30
0.0
 11
191.579985
 21
523.163082
 31
0.0
  0
LINE
  5
2CB
330
E1
100
AcDbEntity
  8
0
  6
Continuous
 62
     0
370
    30
100
AcDbLine
 10
179.729938
 20
462.979567
 30
0.0
 11
179.729939
 21
464.156476
 31
0.0
  0
LINE
  5
2CC
330
E1
100
AcDbEntity
  8
0
  6
Continuous
 62
     0
370
    30
100
AcDbLine
 10
166.429938
 20
462.979566
 30
0.0
 11
166.429938
 21
463.962439
 31
0.0
  0
LINE
  5
2CD
330
E1
100
AcDbEntity
  8
0
  6
Continuous
 62
     0
370
    30
100
AcDbLine
 10
146.079985
 20
363.013084
 30
0.0
 11
146.106181
 21
366.01483
 31
0.0
  0
LINE
  5
2CE
330
E1
100
AcDbEntity
  8
0
  6
Continuous
 62
     0
370
    30
100
AcDbLine
 10
200.079985
 20
363.013084
 30
0.0
 11
200.05379
 21
366.01483
 31
0.0
  0
ARC
  5
2CF
330
E1
100
AcDbEntity
  8
0
  6
Continuous
 62
     0
370
    30
100
AcDbCircle
 10
191.079971
 20
523.163079
 30
0.0
 40
0.5000032943098781
100
AcDbArc
 50
0.000377
 51
89.999589
  0
ARC
  5
2D0
330
E1
100
AcDbEntity
  8
0
  6
Continuous
 62
     0
370
    30
100
AcDbCircle
 10
155.079999
 20
523.16308
 30
0.0
 40
0.5000026229656584
100
AcDbArc
 50
90.011794
 51
179.999699
  0
ENDBLK
  5
2D2
330
E1
100
AcDbEntity
  8
0
100
AcDbBlockEnd
  0
BLOCK
  5
31E
330
2D4
100
AcDbEntity
  8
0
100
AcDbBlockBegin
  2
c
 70
     0
 10
7.022736
 20
344.743042
 30
0.0
  3
c
  1

  0
LINE
  5
2D5
330
2D4
100
AcDbEntity
  8
0
  6
Continuous
 62
     0
370
     0
100
AcDbLine
 10
166.600686
 20
206.120546
 30
0.0
 11
167.100686
 21
206.120546
 31
0.0
  0
LINE
  5
2D6
330
2D4
100
AcDbEntity
  8
0
  6
Continuous
 62
     0
370
     0
100
AcDbLine
 10
167.100686
 20
206.120546
 30
0.0
 11
167.100688
 21
249.602087
 31
0.0
  0
LINE
  5
2D7
330
2D4
100
AcDbEntity
  8
0
  6
Continuous
 62
     0
370
     0
100
AcDbLine
 10
167.100688
 20
249.602087
 30
0.0
 11
166.600688
 21
249.602087
 31
0.0
  0
LINE
  5
2D8
330
2D4
100
AcDbEntity
  8
0
  6
Continuous
 62
     0
370
     0
100
AcDbLine
 10
179.059295
 20
205.620546
 30
0.0
 11
179.059295
 21
206.120546
 31
0.0
  0
LINE
  5
2D9
330
2D4
100
AcDbEntity
  8
0
  6
Continuous
 62
     0
370
     0
100
AcDbLine
 10
179.059295
 20
206.120546
 30
0.0
 11
167.100686
 21
206.120546
 31
0.0
  0
LINE
  5
2DA
330
2D4
100
AcDbEntity
  8
0
  6
Continuous
 62
     0
370
     0
100
AcDbLine
 10
167.100686
 20
206.120546
 30
0.0
 11
167.100686
 21
205.620546
 31
0.0
  0
LINE
  5
2DB
330
2D4
100
AcDbEntity
  8
0
  6
Continuous
 62
     0
370
    30
100
AcDbLine
 10
167.100686
 20
205.620546
 30
0.0
 11
179.059295
 21
205.620546
 31
0.0
  0
LINE
  5
2DC
330
2D4
100
AcDbEntity
  8
0
  6
Continuous
 62
     0
370
     0
100
AcDbLine
 10
179.559297
 20
249.601957
 30
0.0
 11
179.059297
 21
249.601957
 31
0.0
  0
LINE
  5
2DD
330
2D4
100
AcDbEntity
  8
0
  6
Continuous
 62
     0
370
     0
100
AcDbLine
 10
179.059297
 20
249.601957
 30
0.0
 11
179.059295
 21
206.120546
 31
0.0
  0
LINE
  5
2DE
330
2D4
100
AcDbEntity
  8
0
  6
Continuous
 62
     0
370
     0
100
AcDbLine
 10
179.059295
 20
206.120546
 30
0.0
 11
179.559295
 21
206.120546
 31
0.0
  0
ARC
  5
2DF
330
2D4
100
AcDbEntity
  8
0
  6
Continuous
 62
     0
370
     0
100
AcDbCircle
 10
173.079993
 20
267.620546
 30
0.0
 40
17.99999999999999
100
AcDbArc
 50
89.999997
 51
247.384999
  0
ARC
  5
2E0
330
2D4
100
AcDbEntity
  8
0
  6
Continuous
 62
     0
370
     0
100
AcDbCircle
 10
165.574759
 20
249.594569
 30
0.0
 40
1.525971371781091
100
AcDbArc
 50
0.282403
 51
67.516367
  0
ARC
  5
2E1
330
2D4
100
AcDbEntity
  8
0
  6
Continuous
 62
     0
370
     0
100
AcDbCircle
 10
180.585241
 20
249.594421
 30
0.0
 40
1.526076689441792
100
AcDbArc
 50
112.484352
 51
179.717057
  0
ARC
  5
2E2
330
2D4
100
AcDbEntity
  8
0
  6
Continuous
 62
     0
370
     0
100
AcDbCircle
 10
173.079993
 20
267.620546
 30
0.0
 40
17.99999999999999
100
AcDbArc
 50
292.614796
 51
89.999997
  0
ARC
  5
2E3
330
2D4
100
AcDbEntity
  8
0
  6
Continuous
 62
     0
370
    30
100
AcDbCircle
 10
173.079993
 20
267.620546
 30
0.0
 40
18.5
100
AcDbArc
 50
89.999997
 51
247.384992
  0
LINE
  5
2E4
330
2D4
100
AcDbEntity
  8
0
  6
Continuous
 62
     0
370
     0
100
AcDbLine
 10
166.158327
 20
251.004574
 30
0.0
 11
165.966058
 21
250.543019
 31
0.0
  0
LINE
  5
2E5
330
2D4
100
AcDbEntity
  8
0
  6
Continuous
 62
     0
370
     0
100
AcDbLine
 10
173.079994
 20
286.120546
 30
0.0
 11
173.079994
 21
285.620546
 31
0.0
  0
LINE
  5
2E6
330
2D4
100
AcDbEntity
  8
0
  6
Continuous
 62
     0
370
     0
100
AcDbLine
 10
180.193867
 20
250.542993
 30
0.0
 11
180.001623
 21
251.004492
 31
0.0
  0
ARC
  5
2E7
330
2D4
100
AcDbEntity
  8
0
  6
Continuous
 62
     0
370
    30
100
AcDbCircle
 10
173.079993
 20
267.620546
 30
0.0
 40
18.5
100
AcDbArc
 50
292.614827
 51
89.999997
  0
SPLINE
  5
2E8
330
2D4
100
AcDbEntity
  8
0
  6
Continuous
 62
     0
370
     0
100
AcDbSpline
210
0.0
220
0.0
230
1.0
 70
    12
 71
     2
 72
     8
 73
     5
 74
     0
 42
0.000000001
 43
0.0
 40
0.500000000000002
 40
0.500000000000002
 40
0.500000000000002
 40
0.75
 40
0.75
 40
1.0
 40
1.0
 40
1.0
 10
175.0799953320646
 20
299.3639171142792
 30
0.0
 41
1.0
 10
175.0799953324255
 20
299.3639169743027
 30
0.0
 41
0.707106781186548
 10
173.0799953324255
 20
299.3639170338722
 30
0.0
 41
1.0
 10
171.0799953324255
 20
299.3639170934416
 30
0.0
 41
0.707106781186548
 10
171.0799953320646
 20
299.3639172334181
 30
0.0
 41
1.0
  0
LINE
  5
2E9
330
2D4
100
AcDbEntity
  8
0
  6
Continuous
 62
     0
370
    30
100
AcDbLine
 10
171.079995
 20
294.379225
 30
0.0
 11
171.079995
 21
299.363917
 31
0.0
  0
SPLINE
  5
2EA
330
2D4
100
AcDbEntity
  8
0
  6
Continuous
 62
     0
370
     0
100
AcDbSpline
210
0.0
220
0.0
230
1.0
 70
    12
 71
     2
 72
     8
 73
     5
 74
     0
 42
0.000000001
 43
0.0
 40
0.0
 40
0.0
 40
0.0
 40
0.25
 40
0.25
 40
0.5
 40
0.5
 40
0.5
 10
171.0799951830238
 20
294.3792246905762
 30
0.0
 41
1.0
 10
171.0799951291881
 20
292.5666090804755
 30
0.0
 41
0.707106781186548
 10
173.0799951291881
 20
292.566609020906
 30
0.0
 41
1.0
 10
175.0799951291881
 20
292.5666089613365
 30
0.0
 41
0.707106781186548
 10
175.0799951830238
 20
294.3792245714372
 30
0.0
 41
1.0
  0
SPLINE
  5
2EB
330
2D4
100
AcDbEntity
  8
0
  6
Continuous
 62
     0
370
    30
100
AcDbSpline
210
0.0
220
0.0
230
1.0
 70
    12
 71
     2
 72
    10
 73
     7
 74
     0
 42
0.000000001
 43
0.0
 40
0.0
 40
0.0
 40
0.0
 40
0.333333333333333
 40
0.333333333333333
 40
0.666666666666667
 40
0.666666666666667
 40
1.0
 40
1.0
 40
1.0
 10
174.5799956744476
 20
310.8591675476078
 30
0.0
 41
1.0
 10
174.5799956746039
 20
310.8591674869963
 30
0.0
 41
0.866025403784439
 10
173.829995674682
 20
310.859167479029
 30
0.0
 41
1.0
 10
173.0799956747602
 20
310.8591674710618
 30
0.0
 41
0.866025403784439
 10
172.329995674682
 20
310.8591675237061
 30
0.0
 41
1.0
 10
171.5799956746039
 20
310.8591675763504
 30
0.0
 41
0.866025403784439
 10
171.5799956744476
 20
310.859167636962
 30
0.0
 41
1.0
  0
ARC
  5
2EC
330
2D4
100
AcDbEntity
  8
0
  6
Continuous
 62
     0
370
    30
100
AcDbCircle
 10
173.079993
 20
267.620553
 30
0.0
 40
27.00000000000207
100
AcDbArc
 50
292.310659
 51
297.398893
  0
ARC
  5
2ED
330
2D4
100
AcDbEntity
  8
0
  6
Continuous
 62
     0
370
    30
100
AcDbCircle
 10
173.079993
 20
267.620553
 30
0.0
 40
26.99999999999997
100
AcDbArc
 50
117.398893
 51
247.689173
  0
ARC
  5
2EE
330
2D4
100
AcDbEntity
  8
0
  6
Continuous
 62
     0
370
    30
100
AcDbCircle
 10
173.079993
 20
267.620553
 30
0.0
 40
27.00000000000015
100
AcDbArc
 50
94.248018
 51
117.398893
  0
ARC
  5
2EF
330
2D4
100
AcDbEntity
  8
0
  6
Continuous
 62
     0
370
    30
100
AcDbCircle
 10
173.079993
 20
267.620553
 30
0.0
 40
26.99999999999997
100
AcDbArc
 50
297.398893
 51
85.751973
  0
ARC
  5
2F0
330
2D4
100
AcDbEntity
  8
0
  6
Continuous
 62
     0
370
     0
100
AcDbCircle
 10
173.079993
 20
267.620553
 30
0.0
 40
26.97380416550278
100
AcDbArc
 50
297.398893
 51
85.74784
  0
ARC
  5
2F1
330
2D4
100
AcDbEntity
  8
0
  6
Continuous
 62
     0
370
     0
100
AcDbCircle
 10
173.079993
 20
267.620553
 30
0.0
 40
26.97380416550274
100
AcDbArc
 50
94.252151
 51
117.398893
  0
ARC
  5
2F2
330
2D4
100
AcDbEntity
  8
0
  6
Continuous
 62
     0
370
     0
100
AcDbCircle
 10
173.079993
 20
267.620553
 30
0.0
 40
26.97380416550277
100
AcDbArc
 50
117.398893
 51
247.666338
  0
ARC
  5
2F3
330
2D4
100
AcDbEntity
  8
0
  6
Continuous
 62
     0
370
     0
100
AcDbCircle
 10
173.079993
 20
267.620553
 30
0.0
 40
26.97380416550261
100
AcDbArc
 50
292.333494
 51
297.398893
  0
SPLINE
  5
2F4
330
2D4
100
AcDbEntity
  8
0
  6
Continuous
 62
     0
370
    30
100
AcDbSpline
210
0.0
220
0.0
230
1.0
 70
    12
 71
     2
 72
     8
 73
     5
 74
     0
 42
0.000000001
 43
0.0
 40
0.4602858457849848
 40
0.4602858457849848
 40
0.4602858457849848
 40
0.5
 40
0.5
 40
1.0
 40
1.0
 40
1.0
 10
182.0799468006922
 20
180.3735102901481
 30
0.0
 41
0.957167616545257
 10
182.0799467936789
 20
180.2836441738112
 30
0.0
 41
0.9767359870790208
 10
182.0206262407187
 20
180.1943703831383
 30
0.0
 41
1.0
 10
180.9890007511699
 20
178.6418373501353
 30
0.0
 41
0.707106781186548
 10
172.0483213111434
 20
178.8209776598641
 30
0.0
 41
1.0
  0
SPLINE
  5
2F5
330
2D4
100
AcDbEntity
  8
0
  6
Continuous
 62
     0
370
    30
100
AcDbSpline
210
0.0
220
0.0
230
1.0
 70
    12
 71
     2
 72
     6
 73
     3
 74
     0
 42
0.000000001
 43
0.0
 40
0.0
 40
0.0
 40
0.0
 40
0.460285847796551
 40
0.460285847796551
 40
0.460285847796551
 10
172.0483213111434
 20
178.8209776598641
 30
0.0
 41
1.0
 10
164.0799466443114
 20
178.980636343013
 30
0.0
 41
0.7303707929291791
 10
164.0799468006923
 20
180.3735111048758
 30
0.0
 41
0.9571676185275766
  0
SPLINE
  5
2F6
330
2D4
100
AcDbEntity
  8
0
  6
Continuous
 62
     0
370
    30
100
AcDbSpline
210
0.0
220
0.0
230
1.0
 70
    12
 71
     2
 72
    10
 73
     7
 74
     0
 42
0.000000001
 43
0.0
 40
0.0
 40
0.0
 40
0.0
 40
0.333333333333333
 40
0.333333333333333
 40
0.666666666666667
 40
0.666666666666667
 40
1.0
 40
1.0
 40
1.0
 10
167.6897136407999
 20
187.6147641684927
 30
0.0
 41
1.0
 10
168.1711646747264
 20
187.0743617248837
 30
0.0
 41
0.8660254037844378
 10
171.1070069330633
 20
186.8765628105982
 30
0.0
 41
1.0
 10
174.0428491914001
 20
186.6787638963127
 30
0.0
 41
0.8660254037844378
 10
176.4972404158104
 20
187.0213674256362
 30
0.0
 41
1.0
 10
178.9516316402207
 20
187.3639709549597
 30
0.0
 41
0.8660254037844378
 10
178.4701806062941
 20
187.9043733985686
 30
0.0
 41
1.0
  0
SPLINE
  5
2F7
330
2D4
100
AcDbEntity
  8
0
  6
Continuous
 62
     0
370
    30
100
AcDbSpline
210
0.0
220
0.0
230
1.0
 70
    12
 71
     2
 72
     6
 73
     3
 74
     0
 42
0.000000001
 43
0.0
 40
0.9206179345158437
 40
0.9206179345158437
 40
0.9206179345158437
 40
1.0
 40
1.0
 40
1.0
 10
167.6434337955078
 20
187.836117184857
 30
0.0
 41
0.921763487112764
 10
167.5915320932311
 20
187.7249675837617
 30
0.0
 41
0.9534990626485703
 10
167.6897136407999
 20
187.6147641684927
 30
0.0
 41
1.0
  0
ARC
  5
2F8
330
2D4
100
AcDbEntity
  8
0
  6
Continuous
 62
     0
370
    30
100
AcDbCircle
 10
168.760558
 20
189.214379
 30
0.0
 40
0.1807863812526358
100
AcDbArc
 50
182.52884
 51
225.056939
  0
SPLINE
  5
2F9
330
2D4
100
AcDbEntity
  8
0
  6
Continuous
 62
     0
370
    30
100
AcDbSpline
210
0.0
220
0.0
230
1.0
 70
    12
 71
     2
 72
     8
 73
     5
 74
     0
 42
0.000000001
 43
0.0
 40
0.0
 40
0.0
 40
0.0
 40
0.25
 40
0.25
 40
0.4736526078786545
 40
0.4736526078786545
 40
0.4736526078786545
 10
168.6328503190902
 20
189.0864164958834
 30
0.0
 41
1.0
 10
169.3208397445138
 20
188.3141860083012
 30
0.0
 41
0.707106781186548
 10
173.7679366121911
 20
188.433653959369
 30
0.0
 41
1.0
 10
177.5799471574886
 20
188.5360607885536
 30
0.0
 41
0.7379746711295901
 10
177.5799471867675
 20
189.20588425025
 30
0.0
 41
0.9447705273162182
  0
LINE
  5
2FA
330
2D4
100
AcDbEntity
  8
0
  6
Continuous
 62
     0
370
    30
100
AcDbLine
 10
171.079995
 20
286.012125
 30
0.0
 11
171.079995
 21
294.379225
 31
0.0
  0
LINE
  5
2FB
330
2D4
100
AcDbEntity
  8
0
  6
Continuous
 62
     0
370
    30
100
AcDbLine
 10
171.079995
 20
299.363917
 30
0.0
 11
171.079996
 21
310.359168
 31
0.0
  0
LINE
  5
2FC
330
2D4
100
AcDbEntity
  8
0
  6
Continuous
 62
     0
370
    30
100
AcDbLine
 10
175.079996
 20
310.359168
 30
0.0
 11
171.079996
 21
310.359168
 31
0.0
  0
LINE
  5
2FD
330
2D4
100
AcDbEntity
  8
0
  6
Continuous
 62
     0
370
    30
100
AcDbLine
 10
171.079996
 20
310.359168
 30
0.0
 11
171.579996
 21
310.859168
 31
0.0
  0
ARC
  5
2FE
330
2D4
100
AcDbEntity
  8
0
  6
Continuous
 62
     0
370
     0
100
AcDbCircle
 10
173.079962
 20
267.620361
 30
0.0
 40
26.7736805649923
100
AcDbArc
 50
297.399141
 51
85.71593
  0
ARC
  5
2FF
330
2D4
100
AcDbEntity
  8
0
  6
Continuous
 62
     0
370
     0
100
AcDbCircle
 10
173.080113
 20
267.619547
 30
0.0
 40
26.77476014020473
100
AcDbArc
 50
94.284079
 51
117.398131
  0
ARC
  5
300
330
2D4
100
AcDbEntity
  8
0
  6
Continuous
 62
     0
370
     0
100
AcDbCircle
 10
173.079981
 20
267.620635
 30
0.0
 40
26.77373318812596
100
AcDbArc
 50
117.398952
 51
247.490362
  0
ARC
  5
301
330
2D4
100
AcDbEntity
  8
0
  6
Continuous
 62
     0
370
     0
100
AcDbCircle
 10
173.111713
 20
267.559715
 30
0.0
 40
26.70522555107566
100
AcDbArc
 50
292.49674
 51
297.39854
  0
SPLINE
  5
302
330
2D4
100
AcDbEntity
  8
0
  6
Continuous
 62
     0
370
    30
100
AcDbSpline
210
0.0
220
0.0
230
1.0
 70
     8
 71
     3
 72
    15
 73
    11
 74
     0
 42
0.000000001
 43
0.0
 40
0.0
 40
0.0
 40
0.0
 40
0.0
 40
0.035184711330872
 40
0.105554133992616
 40
0.192442570798403
 40
0.264634434147917
 40
0.328861411633565
 40
0.388161178351676
 40
0.444667997439859
 40
0.5000002558688443
 40
0.5000002558688443
 40
0.5000002558688443
 40
0.5000002558688443
 10
173.0799540817557
 20
191.122439890974
 30
0.0
 10
173.4595724998022
 20
191.1222529739675
 30
0.0
 10
174.5984334521836
 20
191.1332650493032
 30
0.0
 10
176.6557405620502
 20
191.216839770083
 30
0.0
 10
178.8767460266465
 20
191.4145178586251
 30
0.0
 10
180.6871029588334
 20
191.699154215638
 30
0.0
 10
181.933503387793
 20
191.9965479779455
 30
0.0
 10
182.7565388817784
 20
192.3042198855119
 30
0.0
 10
183.2272342123752
 20
192.616556807248
 30
0.0
 10
183.329954391232
 20
192.8261141427024
 30
0.0
 10
183.3299541607543
 20
192.9297928815307
 30
0.0
  0
SPLINE
  5
303
330
2D4
100
AcDbEntity
  8
0
  6
Continuous
 62
     0
370
    30
100
AcDbSpline
210
0.0
220
0.0
230
1.0
 70
     8
 71
     3
 72
    15
 73
    11
 74
     0
 42
0.000000001
 43
0.0
 40
1.499999744131158
 40
1.499999744131158
 40
1.499999744131158
 40
1.499999744131158
 40
1.555332002560139
 40
1.611838821648323
 40
1.671138588366432
 40
1.735365565852079
 40
1.807557429201596
 40
1.89444586600738
 40
1.964815288669123
 40
1.999999999999994
 40
1.999999999999994
 40
1.999999999999994
 40
1.999999999999994
 10
162.8299541607609
 20
192.9297937776141
 30
0.0
 10
162.8299539212193
 20
192.8261150387859
 30
0.0
 10
162.932674081756
 20
192.6165576943514
 30
0.0
 10
163.4033693850475
 20
192.3042207314658
 30
0.0
 10
164.2264048521353
 20
191.9965487519473
 30
0.0
 10
165.472805255096
 20
191.6991548806761
 30
0.0
 10
167.2831621623992
 20
191.4145183653968
 30
0.0
 10
169.5041676097139
 20
191.2168400826882
 30
0.0
 10
171.5614747122742
 20
191.1332651820529
 30
0.0
 10
172.7003356636928
 20
191.1222530071548
 30
0.0
 10
173.0799540817557
 20
191.122439890974
 30
0.0
  0
ELLIPSE
  5
304
330
2D4
100
AcDbEntity
  8
0
  6
Continuous
 62
     0
370
    30
100
AcDbEllipse
 10
173.079947
 20
180.176549
 30
0.0
 11
8.999999999999993
 21
-3.934025122612943E-7
 31
0.0
210
0.0
220
0.0
230
-1.0
 40
0.173648
 41
6.220129294468097
 42
9.222829546817774
  0
ELLIPSE
  5
305
330
2D4
100
AcDbEntity
  8
0
  6
Continuous
 62
     0
370
    30
100
AcDbEllipse
 10
173.079947
 20
180.176549
 30
0.0
 11
8.999999999999993
 21
-3.934025122612943E-7
 31
0.0
210
0.0
220
0.0
230
-1.0
 40
0.173648
 41
2.939644239638188
 42
3.204648683079543
  0
ELLIPSE
  5
306
330
2D4
100
AcDbEntity
  8
0
  6
Continuous
 62
     0
370
    30
100
AcDbEllipse
 10
173.079946
 20
161.908365
 30
0.0
 11
-8.999999999999993
 21
3.934025122612943E-7
 31
0.0
210
0.0
220
0.0
230
1.0
 40
0.173648
 41
0.0000000000000018
 42
0.2019484139516052
  0
ELLIPSE
  5
307
330
2D4
100
AcDbEntity
  8
0
  6
Continuous
 62
     0
370
    30
100
AcDbEllipse
 10
173.079946
 20
161.908365
 30
0.0
 11
-8.999999999999993
 21
3.934025122612943E-7
 31
0.0
210
0.0
220
0.0
230
1.0
 40
0.173648
 41
0.2019484139516052
 42
3.141592653589795
  0
ELLIPSE
  5
308
330
2D4
100
AcDbEntity
  8
0
  6
Continuous
 62
     0
370
    30
100
AcDbEllipse
 10
173.079947
 20
187.759569
 30
0.0
 11
8.999999999999993
 21
-3.934025122930011E-7
 31
0.0
210
0.0
220
0.0
230
-1.0
 40
0.173648
 41
5.254373966334422
 42
7.968859184489438
  0
ELLIPSE
  5
309
330
2D4
100
AcDbEntity
  8
0
  6
Continuous
 62
     0
370
    30
100
AcDbEllipse
 10
173.079947
 20
187.759569
 30
0.0
 11
8.999999999999993
 21
-3.934025122930011E-7
 31
0.0
210
0.0
220
0.0
230
-1.0
 40
0.173648
 41
1.685673877309852
 42
4.170403994703248
  0
LINE
  5
30A
330
2D4
100
AcDbEntity
  8
0
  6
Continuous
 62
     0
370
    30
100
AcDbLine
 10
168.579947
 20
191.305734
 30
0.0
 11
168.579947
 21
189.205885
 31
0.0
  0
LINE
  5
30B
330
2D4
100
AcDbEntity
  8
0
  6
Continuous
 62
     0
370
    30
100
AcDbLine
 10
177.579947
 20
191.305732
 30
0.0
 11
177.579947
 21
189.205884
 31
0.0
  0
LINE
  5
30C
330
2D4
100
AcDbEntity
  8
0
  6
Continuous
 62
     0
370
    30
100
AcDbLine
 10
164.079947
 20
180.373511
 30
0.0
 11
164.079947
 21
187.759569
 31
0.0
  0
LINE
  5
30D
330
2D4
100
AcDbEntity
  8
0
  6
Continuous
 62
     0
370
    30
100
AcDbLine
 10
182.079947
 20
180.37351
 30
0.0
 11
182.079947
 21
187.759568
 31
0.0
  0
LINE
  5
30E
330
2D4
100
AcDbEntity
  8
0
  6
Continuous
 62
     0
370
    30
100
AcDbLine
 10
182.079947
 20
180.176549
 30
0.0
 11
182.079946
 21
161.908365
 31
0.0
  0
LINE
  5
30F
330
2D4
100
AcDbEntity
  8
0
  6
Continuous
 62
     0
370
    30
100
AcDbLine
 10
164.079947
 20
180.17655
 30
0.0
 11
164.079946
 21
161.908366
 31
0.0
  0
LINE
  5
310
330
2D4
100
AcDbEntity
  8
0
  6
Continuous
 62
     0
370
    30
100
AcDbLine
 10
183.329954
 20
192.929793
 30
0.0
 11
183.329957
 21
252.219636
 31
0.0
  0
LINE
  5
311
330
2D4
100
AcDbEntity
  8
0
  6
Continuous
 62
     0
370
    30
100
AcDbLine
 10
162.829954
 20
192.929794
 30
0.0
 11
162.829957
 21
252.219684
 31
0.0
  0
LINE
  5
312
330
2D4
100
AcDbEntity
  8
0
  6
Continuous
 62
     0
370
    30
100
AcDbLine
 10
175.079996
 20
310.359168
 30
0.0
 11
174.579996
 21
310.859168
 31
0.0
  0
LINE
  5
313
330
2D4
100
AcDbEntity
  8
0
  6
Continuous
 62
     0
370
    30
100
AcDbLine
 10
175.079996
 20
310.359168
 30
0.0
 11
175.079995
 21
299.363917
 31
0.0
  0
LINE
  5
314
330
2D4
100
AcDbEntity
  8
0
  6
Continuous
 62
     0
370
    30
100
AcDbLine
 10
175.079995
 20
294.379225
 30
0.0
 11
175.079995
 21
286.012097
 31
0.0
  0
ARC
  5
315
330
2D4
100
AcDbEntity
  8
0
  6
Continuous
 62
     0
370
    30
100
AcDbCircle
 10
173.079902
 20
185.297513
 30
0.0
 40
6.000056334320311
100
AcDbArc
 50
25.030238
 51
41.409582
  0
ARC
  5
316
330
2D4
100
AcDbEntity
  8
0
  6
Continuous
 62
     0
370
    30
100
AcDbCircle
 10
173.079992
 20
185.297513
 30
0.0
 40
6.000056453711274
100
AcDbArc
 50
138.590413
 51
154.969756
  0
LINE
  5
317
330
2D4
100
AcDbEntity
  8
0
  6
Continuous
 62
     0
370
    30
100
AcDbLine
 10
175.079995
 20
299.363917
 30
0.0
 11
175.079995
 21
294.379225
 31
0.0
  0
ARC
  5
318
330
2D4
100
AcDbEntity
  8
0
  6
Continuous
 62
     0
370
    30
100
AcDbCircle
 10
167.100826
 20
206.120592
 30
0.0
 40
0.5000459961883486
100
AcDbArc
 50
180.005266
 51
269.983935
  0
ARC
  5
319
330
2D4
100
AcDbEntity
  8
0
  6
Continuous
 62
     0
370
    30
100
AcDbCircle
 10
179.059344
 20
206.120402
 30
0.0
 40
0.4998563951167472
100
AcDbArc
 50
269.994338
 51
0.016458
  0
ARC
  5
31A
330
2D4
100
AcDbEntity
  8
0
  6
Continuous
 62
     0
370
    30
100
AcDbCircle
 10
165.574289
 20
249.59414
 30
0.0
 40
1.026547576637611
100
AcDbArc
 50
0.443558
 51
67.549098
  0
ARC
  5
31B
330
2D4
100
AcDbEntity
  8
0
  6
Continuous
 62
     0
370
    30
100
AcDbCircle
 10
180.585495
 20
249.594134
 30
0.0
 40
1.026436335045271
100
AcDbArc
 50
112.487033
 51
179.563297
  0
LINE
  5
31C
330
2D4
100
AcDbEntity
  8
0
  6
Continuous
 62
     0
370
    30
100
AcDbLine
 10
179.559297
 20
249.601957
 30
0.0
 11
179.559295
 21
206.120546
 31
0.0
  0
LINE
  5
31D
330
2D4
100
AcDbEntity
  8
0
  6
Continuous
 62
     0
370
    30
100
AcDbLine
 10
166.600686
 20
206.120546
 30
0.0
 11
166.600688
 21
249.602087
 31
0.0
  0
ENDBLK
  5
31F
330
2D4
100
AcDbEntity
  8
0
100
AcDbBlockEnd
  0
BLOCK
  5
384
330
321
100
AcDbEntity
  8
0
100
AcDbBlockBegin
  2
d
 70
     0
 10
88.915565
 20
-0.159973
 30
0.0
  3
d
  1

  0
ARC
  5
322
330
321
100
AcDbEntity
  8
0
  6
Continuous
 62
     0
370
    30
100
AcDbCircle
 10
-49.706917
 20
523.163052
 30
0.0
 40
0.5
100
AcDbArc
 50
90.0
 51
180.0
  0
LINE
  5
323
330
321
100
AcDbEntity
  8
0
  6
Continuous
 62
     0
370
    30
100
AcDbLine
 10
-50.206917
 20
523.163052
 30
0.0
 11
-50.206917
 21
518.163397
 31
0.0
  0
LINE
  5
324
330
321
100
AcDbEntity
  8
0
  6
Continuous
 62
     0
370
     0
100
AcDbLine
 10
-49.706917
 20
517.663052
 30
0.0
 11
-49.706917
 21
523.07456
 31
0.0
  0
SPLINE
  5
325
330
321
100
AcDbEntity
  8
0
  6
Continuous
 62
     0
370
     0
100
AcDbSpline
210
0.0
220
0.0
230
1.0
 70
     8
 71
     3
 72
    11
 73
     7
 74
     0
 42
0.000000001
 43
0.0
 40
0.0
 40
0.0
 40
0.0
 40
0.0
 40
0.195090322016128
 40
0.390180644032259
 40
0.585270966048389
 40
0.7803612880645139
 40
0.7803612880645139
 40
0.7803612880645139
 40
0.7803612880645139
 10
-49.7069174622489
 20
523.0745601268802
 30
0.0
 10
-49.77194756958758
 20
523.0745601268802
 30
0.0
 10
-49.90343136868177
 20
523.07916511511
 30
0.0
 10
-50.06962390617224
 20
523.0988587442785
 30
0.0
 10
-50.18089804807823
 20
523.1282719926376
 30
0.0
 10
-50.2069174248229
 20
523.151542384554
 30
0.0
 10
-50.20691741922752
 20
523.1630516052247
 30
0.0
  0
LINE
  5
326
330
321
100
AcDbEntity
  8
0
  6
Continuous
 62
     0
370
     0
100
AcDbLine
 10
-6.225506
 20
523.07456
 30
0.0
 11
-6.225506
 21
523.663052
 31
0.0
  0
LINE
  5
327
330
321
100
AcDbEntity
  8
0
  6
Continuous
 62
     0
370
    30
100
AcDbLine
 10
-6.225506
 20
523.663052
 30
0.0
 11
-49.706917
 21
523.663052
 31
0.0
  0
LINE
  5
328
330
321
100
AcDbEntity
  8
0
  6
Continuous
 62
     0
370
     0
100
AcDbLine
 10
-49.706917
 20
523.663052
 30
0.0
 11
-49.706917
 21
523.07456
 31
0.0
  0
LINE
  5
329
330
321
100
AcDbEntity
  8
0
  6
Continuous
 62
     0
370
     0
100
AcDbLine
 10
-49.706917
 20
523.07456
 30
0.0
 11
-6.225506
 21
523.07456
 31
0.0
  0
SPLINE
  5
32A
330
321
100
AcDbEntity
  8
0
  6
Continuous
 62
     0
370
     0
100
AcDbSpline
210
0.0
220
0.0
230
1.0
 70
     8
 71
     3
 72
    13
 73
     9
 74
     0
 42
0.000000001
 43
0.0
 40
0.5
 40
0.5
 40
0.5
 40
0.5
 40
0.596626551308319
 40
0.6714818520274609
 40
0.735290512580552
 40
0.8549172077795291
 40
0.9516390692598431
 40
1.0
 40
1.0
 40
1.0
 40
1.0
 10
-7.707114512888339
 20
517.6630516052596
 30
0.0
 10
-7.707116097906949
 20
517.6630506216156
 30
0.0
 10
-7.640679951477779
 20
517.8100101093897
 30
0.0
 10
-7.412498973206752
 20
518.3435131085795
 30
0.0
 10
-7.082836243475938
 20
519.1891092928315
 30
0.0
 10
-6.670216422566853
 20
520.4357351993585
 30
0.0
 10
-6.351329498840386
 20
521.9168679010492
 30
0.0
 10
-6.251670714166991
 20
522.7820031018816
 30
0.0
 10
-6.22550614494557
 20
523.0745601268802
 30
0.0
  0
LINE
  5
32B
330
321
100
AcDbEntity
  8
0
  6
Continuous
 62
     0
370
    30
100
AcDbLine
 10
-6.225506
 20
523.663052
 30
0.0
 11
-4.822971
 21
523.663052
 31
0.0
  0
LINE
  5
32C
330
321
100
AcDbEntity
  8
0
  6
Continuous
 62
     0
370
    30
100
AcDbLine
 10
-4.822914
 20
523.663052
 30
0.0
 11
29.793083
 21
523.663052
 31
0.0
  0
SPLINE
  5
32D
330
321
100
AcDbEntity
  8
0
  6
Continuous
 62
     0
370
     0
100
AcDbSpline
210
0.0
220
0.0
230
1.0
 70
     8
 71
     3
 72
    15
 73
    11
 74
     0
 42
0.000000001
 43
0.0
 40
9.910789627008276
 40
9.910789627008276
 40
9.910789627008276
 40
9.910789627008276
 40
9.910864643839737
 40
11.12631452071983
 40
12.34647426686971
 40
14.80242169380894
 40
17.29483436352839
 40
18.55560707764101
 40
19.18826865186634
 40
19.82051213380063
 40
19.82051213380063
 40
19.82051213380063
 40
19.82051213380063
 10
-6.706886766793291
 20
516.6630855339231
 30
0.0
 10
-6.706886767875922
 20
516.6630855325226
 30
0.0
 10
-6.706903357669741
 20
516.6630654030569
 30
0.0
 10
-6.676011429590545
 20
516.7462518188415
 30
0.0
 10
-6.499811040537111
 20
517.2350937788651
 30
0.0
 10
-6.10231723195426
 20
518.4174025897216
 30
0.0
 10
-5.655723803004463
 20
520.1793786662436
 30
0.0
 10
-5.425400231773509
 20
521.621039630184
 30
0.0
 10
-5.330593242507973
 20
522.491847823324
 30
0.0
 10
-5.297483667344864
 20
522.9385666923494
 30
0.0
 10
-5.284523024358833
 20
523.1631311480029
 30
0.0
  0
SPLINE
  5
32E
330
321
100
AcDbEntity
  8
0
  6
Continuous
 62
     0
370
     0
100
AcDbSpline
210
0.0
220
0.0
230
1.0
 70
     8
 71
     3
 72
    12
 73
     8
 74
     0
 42
0.000000001
 43
0.0
 40
0.0
 40
0.0
 40
0.0
 40
0.0
 40
0.111191551848023
 40
0.33357465554407
 40
0.666964095999752
 40
0.888988031999917
 40
0.9999893265827129
 40
0.9999893265827129
 40
0.9999893265827129
 40
0.9999893265827129
 10
-5.284523024358833
 20
523.1631311480029
 30
0.0
 10
-5.301614886380321
 20
523.1598011237079
 30
0.0
 10
-5.360810085133309
 20
523.1495328798995
 30
0.0
 10
-5.524912001266841
 20
523.1276323420577
 30
0.0
 10
-5.785825178609826
 20
523.1019395000193
 30
0.0
 10
-6.047889762518452
 20
523.0833900512389
 30
0.0
 10
-6.181071229473588
 20
523.0764779132745
 30
0.0
 10
-6.225501518604602
 20
523.0744947613591
 30
0.0
  0
ARC
  5
32F
330
321
100
AcDbEntity
  8
0
  6
Continuous
 62
     0
370
    30
100
AcDbCircle
 10
29.793083
 20
523.163052
 30
0.0
 40
0.4999999999975113
100
AcDbArc
 50
360.0
 51
90.0
  0
SPLINE
  5
330
330
321
100
AcDbEntity
  8
0
  6
Continuous
 62
     0
370
     0
100
AcDbSpline
210
0.0
220
0.0
230
1.0
 70
     8
 71
     3
 72
    11
 73
     7
 74
     0
 42
0.000000001
 43
0.0
 40
0.000079532333787
 40
0.000079532333787
 40
0.000079532333787
 40
0.000079532333787
 40
0.195090322016119
 40
0.390180644032258
 40
0.5852709660483899
 40
0.780300225515837
 40
0.780300225515837
 40
0.780300225515837
 40
0.780300225515837
 10
-5.284469757530985
 20
523.163131137913
 30
0.0
 10
-5.284459969951271
 20
523.2281353136121
 30
0.0
 10
-5.260437022700998
 20
523.3595880977623
 30
0.0
 10
-5.157732587277479
 20
523.5257580609612
 30
0.0
 10
-5.004334430671918
 20
523.6370206077004
 30
0.0
 10
-4.88298227500519
 20
523.6630434600729
 30
0.0
 10
-4.822970648327441
 20
523.6630516014011
 30
0.0
  0
LINE
  5
331
330
321
100
AcDbEntity
  8
0
  6
Continuous
 62
     0
370
     0
100
AcDbLine
 10
30.293083
 20
523.163052
 30
0.0
 11
-5.284466
 21
523.163052
 31
0.0
  0
SPLINE
  5
332
330
321
100
AcDbEntity
  8
0
  6
Continuous
 62
     0
370
    30
100
AcDbSpline
210
0.0
220
0.0
230
1.0
 70
     8
 71
     3
 72
    18
 73
    14
 74
     0
 42
0.000000001
 43
0.0
 40
0.0
 40
0.0
 40
0.0
 40
0.0
 40
0.032422732940279
 40
0.097268198820837
 40
0.196551877534922
 40
0.300316863739064
 40
0.4122551435838019
 40
0.5392352104077529
 40
0.61307147723445
 40
0.6993935725184189
 40
0.811132511434834
 40
0.9370441704782779
 40
1.0
 40
1.0
 40
1.0
 40
1.0
 10
11.79308148617829
 20
495.6630516052247
 30
0.0
 10
12.1005794789189
 20
495.7512247499568
 30
0.0
 10
13.02307267824894
 20
496.0157469074989
 30
0.0
 10
14.88397178218912
 20
496.5493525534995
 30
0.0
 10
17.37298413980396
 20
497.263055164326
 30
0.0
 10
20.17046553641904
 20
498.0652539988994
 30
0.0
 10
22.98348247045313
 20
498.8717696499057
 30
0.0
 10
25.23562464418038
 20
499.5178279986141
 30
0.0
 10
26.98382444632336
 20
500.0185656434896
 30
0.0
 10
28.37454844872305
 20
500.417955541322
 30
0.0
 10
29.59620994771743
 20
500.7684043217615
 30
0.0
 10
30.19923746422508
 20
500.9413939124319
 30
0.0
 10
30.29308304919823
 20
500.9667710309028
 30
0.0
 10
30.2930831034996
 20
500.9678412417626
 30
0.0
  0
LINE
  5
333
330
321
100
AcDbEntity
  8
0
  6
Continuous
 62
     0
370
    30
100
AcDbLine
 10
-6.706917
 20
495.663052
 30
0.0
 11
11.793081
 21
495.663052
 31
0.0
  0
SPLINE
  5
334
330
321
100
AcDbEntity
  8
0
  6
Continuous
 62
     0
370
     0
100
AcDbSpline
210
0.0
220
0.0
230
1.0
 70
    12
 71
     2
 72
     6
 73
     3
 74
     0
 42
0.000000001
 43
0.0
 40
0.2499999999999995
 40
0.2499999999999995
 40
0.2499999999999995
 40
0.499999999999999
 40
0.499999999999999
 40
0.499999999999999
 10
43.53644968097615
 20
411.5630337555584
 30
0.0
 41
1.0
 10
43.5364495339839
 20
411.5630337551975
 30
0.0
 41
0.707106781186548
 10
43.53644948143022
 20
413.5630337551975
 30
0.0
 41
1.0
  0
LINE
  5
335
330
321
100
AcDbEntity
  8
0
  6
Continuous
 62
     0
370
     0
100
AcDbLine
 10
43.536449
 20
413.563034
 30
0.0
 11
43.53645
 21
415.563034
 31
0.0
  0
SPLINE
  5
336
330
321
100
AcDbEntity
  8
0
  6
Continuous
 62
     0
370
     0
100
AcDbSpline
210
0.0
220
0.0
230
1.0
 70
    12
 71
     2
 72
     6
 73
     3
 74
     0
 42
0.000000001
 43
0.0
 40
0.25
 40
0.25
 40
0.25
 40
0.5
 40
0.5
 40
0.5
 10
36.73914137361643
 20
411.2326707260041
 30
0.0
 41
1.0
 10
36.73914122662418
 20
411.2326707256432
 30
0.0
 41
0.707106781186548
 10
38.5517567997785
 20
410.387434200191
 30
0.0
 41
1.0
  0
LINE
  5
337
330
321
100
AcDbEntity
  8
0
  6
Continuous
 62
     0
370
     0
100
AcDbLine
 10
38.551757
 20
410.387434
 30
0.0
 11
40.364373
 21
409.542198
 31
0.0
  0
LINE
  5
338
330
321
100
AcDbEntity
  8
0
  6
Continuous
 62
     0
370
    30
100
AcDbLine
 10
55.0317
 20
413.563034
 30
0.0
 11
55.0317
 21
415.063034
 31
0.0
  0
SPLINE
  5
339
330
321
100
AcDbEntity
  8
0
  6
Continuous
 62
     0
370
    30
100
AcDbSpline
210
0.0
220
0.0
230
1.0
 70
    12
 71
     2
 72
     6
 73
     3
 74
     0
 42
0.000000001
 43
0.0
 40
0.5
 40
0.5
 40
0.5
 40
1.0
 40
1.0
 40
1.0
 10
55.03170008627404
 20
412.0630340576172
 30
0.0
 41
1.0
 10
55.03169997602986
 20
412.0630340573466
 30
0.0
 41
0.707106781186548
 10
55.03169993661459
 20
413.5630340573466
 30
0.0
 41
1.0
  0
SPLINE
  5
33A
330
321
100
AcDbEntity
  8
0
  6
Continuous
 62
     0
370
    30
100
AcDbSpline
210
0.0
220
0.0
230
1.0
 70
    28
 71
     2
 72
     6
 73
     3
 74
     0
 42
0.000000001
 43
0.0
 40
0.4217204813471979
 40
0.4217204813471979
 40
0.4217204813471979
 40
0.5
 40
0.5
 40
0.5
 10
-15.20691689122602
 20
363.013053894043
 30
0.0
 41
0.8740118964242607
 10
-15.20691733352881
 20
363.013053894043
 30
0.0
 41
0.9082898392584526
 10
-12.17817282659593
 20
363.013053894043
 30
0.0
 41
1.0
  0
LINE
  5
33B
330
321
100
AcDbEntity
  8
0
  6
Continuous
 62
     0
370
    30
100
AcDbLine
 10
-12.178173
 20
363.013054
 30
0.0
 11
38.793083
 21
363.013054
 31
0.0
  0
LINE
  5
33C
330
321
100
AcDbEntity
  8
0
  6
Continuous
 62
     0
370
     0
100
AcDbLine
 10
38.766887
 20
366.014799
 30
0.0
 11
-12.154916
 21
366.014799
 31
0.0
  0
LINE
  5
33D
330
321
100
AcDbEntity
  8
0
  6
Continuous
 62
     0
370
     0
100
AcDbLine
 10
-12.154916
 20
366.014799
 30
0.0
 11
-15.180721
 21
366.014799
 31
0.0
  0
SPLINE
  5
33E
330
321
100
AcDbEntity
  8
0
  6
Continuous
 62
     0
370
     0
100
AcDbSpline
210
0.0
220
0.0
230
1.0
 70
     8
 71
     3
 72
    20
 73
    16
 74
     0
 42
0.000000001
 43
0.0
 40
0.0
 40
0.0
 40
0.0
 40
0.0
 40
0.035879398632925
 40
0.107638195898775
 40
0.159543891307474
 40
0.235385271239302
 40
0.351445915566828
 40
0.451753473350586
 40
0.54824946783263
 40
0.648560621528403
 40
0.764621492511535
 40
0.8404990553439408
 40
0.892362686932521
 40
0.964120895644174
 40
1.0
 40
1.0
 40
1.0
 40
1.0
 10
-15.02008703248023
 20
458.2130393981932
 30
0.0
 10
-15.01865017499929
 20
458.2130393981932
 30
0.0
 10
-15.00707942365618
 20
458.2155661311506
 30
0.0
 10
-14.91607189436732
 20
458.230637006006
 30
0.0
 10
-14.72275856382028
 20
458.261109587496
 30
0.0
 10
-14.39279892003448
 20
458.3076623342436
 30
0.0
 10
-13.86786553772708
 20
458.363777434465
 30
0.0
 10
-13.22309034317789
 20
458.3978668804184
 30
0.0
 10
-12.5869588999643
 20
458.3979130600321
 30
0.0
 10
-11.94224570729216
 20
458.3637696836333
 30
0.0
 10
-11.41709384901547
 20
458.3076699472123
 30
0.0
 10
-11.08749301091824
 20
458.2610908558385
 30
0.0
 10
-10.89391223007036
 20
458.2306397334492
 30
0.0
 10
-10.802895817853
 20
458.2155671728019
 30
0.0
 10
-10.79141082200634
 20
458.213039655992
 30
0.0
 10
-10.79001622697639
 20
458.2130393982524
 30
0.0
  0
LINE
  5
33F
330
321
100
AcDbEntity
  8
0
  6
Continuous
 62
     0
370
    30
100
AcDbLine
 10
-92.841071
 20
456.430564
 30
0.0
 11
-92.809486
 21
456.251433
 31
0.0
  0
LINE
  5
340
330
321
100
AcDbEntity
  8
0
  6
Continuous
 62
     0
370
    30
100
AcDbLine
 10
-92.931894
 20
456.945644
 30
0.0
 11
-92.841071
 21
456.430564
 31
0.0
  0
LINE
  5
341
330
321
100
AcDbEntity
  8
0
  6
Continuous
 62
     0
370
    30
100
AcDbLine
 10
-93.827902
 20
462.027162
 30
0.0
 11
-92.931894
 21
456.945644
 31
0.0
  0
LINE
  5
342
330
321
100
AcDbEntity
  8
0
  6
Continuous
 62
     0
370
    30
100
AcDbLine
 10
-94.544058
 20
466.088679
 30
0.0
 11
-93.827903
 21
462.027162
 31
0.0
  0
LINE
  5
343
330
321
100
AcDbEntity
  8
0
  6
Continuous
 62
     0
370
    30
100
AcDbLine
 10
-94.551734
 20
466.132209
 30
0.0
 11
-94.544058
 21
466.088679
 31
0.0
  0
LINE
  5
344
330
321
100
AcDbEntity
  8
0
  6
Continuous
 62
     0
370
    30
100
AcDbLine
 10
-95.182178
 20
469.707639
 30
0.0
 11
-94.551733
 21
466.132209
 31
0.0
  0
LINE
  5
345
330
321
100
AcDbEntity
  8
0
  6
Continuous
 62
     0
370
    30
100
AcDbLine
 10
-94.551734
 20
466.132209
 30
0.0
 11
-94.475002
 21
466.145739
 31
0.0
  0
LINE
  5
346
330
321
100
AcDbEntity
  8
0
  6
Continuous
 62
     0
370
    30
100
AcDbLine
 10
-95.182178
 20
469.707639
 30
0.0
 11
-95.105446
 21
469.721169
 31
0.0
  0
LINE
  5
347
330
321
100
AcDbEntity
  8
0
  6
Continuous
 62
     0
370
    30
100
AcDbLine
 10
-92.931894
 20
456.945644
 30
0.0
 11
-92.855163
 21
456.959174
 31
0.0
  0
LINE
  5
348
330
321
100
AcDbEntity
  8
0
  6
Continuous
 62
     0
370
    30
100
AcDbLine
 10
-93.827903
 20
462.027161
 30
0.0
 11
-93.751172
 21
462.040691
 31
0.0
  0
LINE
  5
349
330
321
100
AcDbEntity
  8
0
  6
Continuous
 62
     0
370
    30
100
AcDbLine
 10
-92.809486
 20
456.251433
 30
0.0
 11
-92.732754
 21
456.264963
 31
0.0
  0
LINE
  5
34A
330
321
100
AcDbEntity
  8
0
  6
Continuous
 62
     0
370
    30
100
AcDbLine
 10
-94.544058
 20
466.088679
 30
0.0
 11
-94.467327
 21
466.102208
 31
0.0
  0
LINE
  5
34B
330
321
100
AcDbEntity
  8
0
  6
Continuous
 62
     0
370
    30
100
AcDbLine
 10
-73.901422
 20
457.444116
 30
0.0
 11
-77.016788
 21
475.112236
 31
0.0
  0
LINE
  5
34C
330
321
100
AcDbEntity
  8
0
  6
Continuous
 62
     0
370
    30
100
AcDbLine
 10
-73.891121
 20
457.385697
 30
0.0
 11
-73.901422
 21
457.444116
 31
0.0
  0
LINE
  5
34D
330
321
100
AcDbEntity
  8
0
  6
Continuous
 62
     0
370
    30
100
AcDbLine
 10
-66.502113
 20
467.128815
 30
0.0
 11
-65.840164
 21
463.374718
 31
0.0
  0
SPLINE
  5
34E
330
321
100
AcDbEntity
  8
0
  6
Continuous
 62
     0
370
    30
100
AcDbSpline
210
0.0
220
0.0
230
1.0
 70
    12
 71
     2
 72
     8
 73
     5
 74
     0
 42
0.000000001
 43
0.0
 40
0.2236526074199852
 40
0.2236526074199852
 40
0.2236526074199852
 40
0.25
 40
0.25
 40
0.4999999999999981
 40
0.4999999999999981
 40
0.4999999999999981
 10
-67.40299752692324
 20
472.2379873688417
 30
0.0
 41
0.9447705264680162
 10
-67.40299755733905
 20
472.2379873697775
 30
0.0
 41
0.9691321095195912
 10
-67.39381105364166
 20
472.1858879488288
 30
0.0
 41
1.0
 10
-67.27434332657873
 20
471.5083505954386
 30
0.0
 41
0.707106781186548
 10
-66.50211300035915
 20
467.1288151268966
 30
0.0
 41
1.0
  0
LINE
  5
34F
330
321
100
AcDbEntity
  8
0
  6
Continuous
 62
     0
370
    30
100
AcDbLine
 10
30.293083
 20
500.967841
 30
0.0
 11
30.293083
 21
523.163052
 31
0.0
  0
LINE
  5
350
330
321
100
AcDbEntity
  8
0
  6
Continuous
 62
     0
370
    30
100
AcDbLine
 10
30.293083
 20
493.213054
 30
0.0
 11
-6.706917
 21
493.213054
 31
0.0
  0
LINE
  5
351
330
321
100
AcDbEntity
  8
0
  6
Continuous
 62
     0
370
    30
100
AcDbLine
 10
-6.706917
 20
458.213039
 30
0.0
 11
-6.706917
 21
366.213054
 31
0.0
  0
LINE
  5
352
330
321
100
AcDbEntity
  8
0
  6
Continuous
 62
     0
370
    30
100
AcDbLine
 10
-6.706917
 20
493.213054
 30
0.0
 11
-6.706917
 21
478.713039
 31
0.0
  0
SPLINE
  5
353
330
321
100
AcDbEntity
  8
0
  6
Continuous
 62
     0
370
    30
100
AcDbSpline
210
0.0
220
0.0
230
1.0
 70
     8
 71
     3
 72
    24
 73
    20
 74
     0
 42
0.000000001
 43
0.0
 40
0.0
 40
0.0
 40
0.0
 40
0.0
 40
1.17813837681596
 40
3.0213123464494
 40
5.285698745559833
 40
6.721901363104391
 40
9.482910056472482
 40
11.32206845958712
 40
13.58166960843508
 40
15.79518622817519
 40
17.667192070468
 40
19.64285885562016
 40
21.50157285817816
 40
23.76087041435111
 40
26.58228737746443
 40
28.43033142110477
 40
30.96546459078667
 40
32.13891132968613
 40
32.92455129350198
 40
32.92455129350198
 40
32.92455129350198
 40
32.92455129350198
 10
-6.706916885134788
 20
458.2130393982552
 30
0.0
 10
-6.706916919442577
 20
458.2130407629186
 30
0.0
 10
-6.674747311418855
 20
458.2710138095711
 30
0.0
 10
-6.477538867945356
 20
458.6294062614893
 30
0.0
 10
-6.09903682086555
 20
459.3447836645556
 30
0.0
 10
-5.540905831899067
 20
460.4848440287682
 30
0.0
 10
-4.944745540490629
 20
461.8411178709429
 30
0.0
 10
-4.304419343365211
 20
463.6820047608255
 30
0.0
 10
-3.826409632150629
 20
465.5906850284873
 30
0.0
 10
-3.581987499577849
 20
467.6765266518337
 30
0.0
 10
-3.618463516535087
 20
469.7085050679599
 30
0.0
 10
-3.883043714915772
 20
471.5603680766599
 30
0.0
 10
-4.347553047349777
 20
473.3913781802191
 30
0.0
 10
-5.004291914354212
 20
475.2422558475165
 30
0.0
 10
-5.683327160775519
 20
476.7483498427594
 30
0.0
 10
-6.272542595671325
 20
477.9173465452784
 30
0.0
 10
-6.582720686760496
 20
478.4881234427157
 30
0.0
 10
-6.693013187590708
 20
478.6879792553554
 30
0.0
 10
-6.706916654988945
 20
478.7130389422105
 30
0.0
 10
-6.706916885126191
 20
478.7130393982617
 30
0.0
  0
SPLINE
  5
354
330
321
100
AcDbEntity
  8
0
  6
Continuous
 62
     0
370
    30
100
AcDbSpline
210
0.0
220
0.0
230
1.0
 70
     8
 71
     3
 72
    15
 73
    11
 74
     0
 42
0.000000001
 43
0.0
 40
11.0205803848399
 40
11.0205803848399
 40
11.0205803848399
 40
11.0205803848399
 40
12.12181874182447
 40
13.61207241283873
 40
14.65998847230724
 40
15.25225951935918
 40
15.85439610392372
 40
16.13719583948527
 40
16.37662433866342
 40
16.73045599595361
 40
16.73045599595361
 40
16.73045599595361
 40
16.73045599595361
 10
30.18541915375067
 20
392.8418535000586
 30
0.0
 10
30.18402058149
 20
392.4750053549459
 30
0.0
 10
30.1852233844655
 20
391.6102632850191
 30
0.0
 10
30.20284921291675
 20
390.4044343297343
 30
0.0
 10
30.23141183149572
 20
389.4038413008036
 30
0.0
 10
30.25636709231136
 20
388.7379387726838
 30
0.0
 10
30.27351822957313
 20
388.3473330152934
 30
0.0
 10
30.28455571166008
 20
388.1155347041834
 30
0.0
 10
30.2911218063489
 20
387.9826747886517
 30
0.0
 10
30.29308158400672
 20
387.9442562123116
 30
0.0
 10
30.29308260082482
 20
387.944256264748
 30
0.0
  0
SPLINE
  5
355
330
321
100
AcDbEntity
  8
0
  6
Continuous
 62
     0
370
    30
100
AcDbSpline
210
0.0
220
0.0
230
1.0
 70
     8
 71
     3
 72
    19
 73
    15
 74
     0
 42
0.000000001
 43
0.0
 40
5.70929811148571
 40
5.70929811148571
 40
5.70929811148571
 40
5.70929811148571
 40
5.83775458550861
 40
6.015246773538888
 40
6.304911513882202
 40
6.639273181267308
 40
7.023082485652952
 40
7.457901605552602
 40
8.28769589655824
 40
8.996801095157362
 40
9.71702794203448
 40
10.27483950722481
 40
10.83993318408173
 40
11.0205803848399
 40
11.0205803848399
 40
11.0205803848399
 40
11.0205803848399
 10
30.29307577252962
 20
397.4088951778585
 30
0.0
 10
30.29307577192885
 20
397.4088951781918
 30
0.0
 10
30.29273037508429
 20
397.4005731500813
 30
0.0
 10
30.29045438841518
 20
397.3457382775657
 30
0.0
 10
30.28487922642915
 20
397.2094715245777
 30
0.0
 10
30.27567663145864
 20
396.9765792020755
 30
0.0
 10
30.26407676005702
 20
396.6672007405625
 30
0.0
 10
30.24730465364028
 20
396.1865456677841
 30
0.0
 10
30.22851595326886
 20
395.5718121131938
 30
0.0
 10
30.21062498319105
 20
394.8446971503279
 30
0.0
 10
30.1984063396819
 20
394.1934376536198
 30
0.0
 10
30.19034659265571
 20
393.5837873970805
 30
0.0
 10
30.18680780533634
 20
393.1503862278385
 30
0.0
 10
30.18564857562138
 20
392.9020312899963
 30
0.0
 10
30.18541915375067
 20
392.8418535000586
 30
0.0
  0
LINE
  5
356
330
321
100
AcDbEntity
  8
0
  6
Continuous
 62
     0
370
    30
100
AcDbLine
 10
54.5317
 20
411.563034
 30
0.0
 11
54.5317
 21
413.563034
 31
0.0
  0
LINE
  5
357
330
321
100
AcDbEntity
  8
0
  6
Continuous
 62
     0
370
    30
100
AcDbLine
 10
54.5317
 20
413.563034
 30
0.0
 11
54.5317
 21
415.563034
 31
0.0
  0
LINE
  5
358
330
321
100
AcDbEntity
  8
0
  6
Continuous
 62
     0
370
    30
100
AcDbLine
 10
38.566715
 20
366.213054
 30
0.0
 11
-11.977379
 21
366.213054
 31
0.0
  0
LINE
  5
359
330
321
100
AcDbEntity
  8
0
  6
Continuous
 62
     0
370
    30
100
AcDbLine
 10
-11.977379
 20
366.213054
 30
0.0
 11
-14.98063
 21
366.213054
 31
0.0
  0
SPLINE
  5
35A
330
321
100
AcDbEntity
  8
0
  6
Continuous
 62
     0
370
    30
100
AcDbSpline
210
0.0
220
0.0
230
1.0
 70
     8
 71
     3
 72
    23
 73
    19
 74
     0
 42
0.000000001
 43
0.0
 40
0.0
 40
0.0
 40
0.0
 40
0.0
 40
0.035184711330872
 40
0.105554133992616
 40
0.192442570798403
 40
0.264634434147917
 40
0.328861411633565
 40
0.388161178351676
 40
0.444667997439859
 40
0.4999999999999981
 40
0.555332002560137
 40
0.611838821648321
 40
0.6711385883664329
 40
0.7353655658520821
 40
0.8075574292015968
 40
0.894445866007384
 40
0.9648152886691281
 40
1.0
 40
1.0
 40
1.0
 40
1.0
 10
-64.7050248066532
 20
478.7130393981932
 30
0.0
 10
-64.70521174025333
 20
478.7130393981932
 30
0.0
 10
-64.69419971746433
 20
478.6497715303914
 30
0.0
 10
-64.61062510697084
 20
478.1840214302114
 30
0.0
 10
-64.4129471652277
 20
477.0466588897447
 30
0.0
 10
-64.12831095715558
 20
475.4496462894579
 30
0.0
 10
-63.83091732346145
 20
473.7537183144212
 30
0.0
 10
-63.52324552812877
 20
472.0091437555843
 30
0.0
 10
-63.21090870423501
 20
470.2414672911194
 30
0.0
 10
-62.89767415491775
 20
468.4630393981933
 30
0.0
 10
-62.58443957875465
 20
466.6846115052673
 30
0.0
 10
-62.27210267256191
 20
464.9169350408023
 30
0.0
 10
-61.96443073332523
 20
463.1723604819654
 30
0.0
 10
-61.6670368817035
 20
461.4764325069286
 30
0.0
 10
-61.38240035709845
 20
459.8794199066418
 30
0.0
 10
-61.18472202702245
 20
458.7420573661751
 30
0.0
 10
-61.10114705681798
 20
458.276307265995
 30
0.0
 10
-61.09013483490423
 20
458.2130393981932
 30
0.0
 10
-61.0901348017168
 20
458.2130393981932
 30
0.0
  0
LINE
  5
35B
330
321
100
AcDbEntity
  8
0
  6
Continuous
 62
     0
370
    30
100
AcDbLine
 10
-64.705025
 20
478.713039
 30
0.0
 11
-6.706917
 21
478.713039
 31
0.0
  0
LINE
  5
35C
330
321
100
AcDbEntity
  8
0
  6
Continuous
 62
     0
370
    30
100
AcDbLine
 10
-75.337445
 20
464.436456
 30
0.0
 11
-77.21375
 21
475.077507
 31
0.0
  0
LINE
  5
35D
330
321
100
AcDbEntity
  8
0
  6
Continuous
 62
     0
370
    30
100
AcDbLine
 10
-74.088083
 20
457.350967
 30
0.0
 11
-75.337445
 21
464.436456
 31
0.0
  0
LINE
  5
35E
330
321
100
AcDbEntity
  8
0
  6
Continuous
 62
     0
370
    30
100
AcDbLine
 10
-93.605629
 20
461.215282
 30
0.0
 11
-92.356266
 21
454.129794
 31
0.0
  0
LINE
  5
35F
330
321
100
AcDbEntity
  8
0
  6
Continuous
 62
     0
370
    30
100
AcDbLine
 10
-95.481934
 20
471.856333
 30
0.0
 11
-93.605629
 21
461.215282
 31
0.0
  0
LINE
  5
360
330
321
100
AcDbEntity
  8
0
  6
Continuous
 62
     0
370
    30
100
AcDbLine
 10
-66.515364
 20
458.746478
 30
0.0
 11
-69.63073
 21
476.414598
 31
0.0
  0
LINE
  5
361
330
321
100
AcDbEntity
  8
0
  6
Continuous
 62
     0
370
    30
100
AcDbLine
 10
-66.505063
 20
458.688058
 30
0.0
 11
-66.515364
 21
458.746478
 31
0.0
  0
LINE
  5
362
330
321
100
AcDbEntity
  8
0
  6
Continuous
 62
     0
370
    30
100
AcDbLine
 10
-62.115976
 20
464.031392
 30
0.0
 11
-65.840164
 21
463.374718
 31
0.0
  0
LINE
  5
363
330
321
100
AcDbEntity
  8
0
  6
Continuous
 62
     0
370
    30
100
AcDbLine
 10
-63.679349
 20
472.894567
 30
0.0
 11
-67.402998
 21
472.237987
 31
0.0
  0
LINE
  5
364
330
321
100
AcDbEntity
  8
0
  6
Continuous
 62
     0
370
    30
100
AcDbLine
 10
-73.891121
 20
457.385697
 30
0.0
 11
-66.505063
 21
458.688058
 31
0.0
  0
LINE
  5
365
330
321
100
AcDbEntity
  8
0
  6
Continuous
 62
     0
370
    30
100
AcDbLine
 10
-77.016788
 20
475.112236
 30
0.0
 11
-69.63073
 21
476.414598
 31
0.0
  0
LINE
  5
366
330
321
100
AcDbEntity
  8
0
  6
Continuous
 62
     0
370
    30
100
AcDbLine
 10
-77.21375
 20
475.077507
 30
0.0
 11
-95.481934
 21
471.856333
 31
0.0
  0
LINE
  5
367
330
321
100
AcDbEntity
  8
0
  6
Continuous
 62
     0
370
    30
100
AcDbLine
 10
-74.088082
 20
457.350967
 30
0.0
 11
-92.356266
 21
454.129794
 31
0.0
  0
LINE
  5
368
330
321
100
AcDbEntity
  8
0
  6
Continuous
 62
     0
370
    30
100
AcDbLine
 10
-61.090135
 20
458.213039
 30
0.0
 11
-15.020087
 21
458.213039
 31
0.0
  0
LINE
  5
369
330
321
100
AcDbEntity
  8
0
  6
Continuous
 62
     0
370
    30
100
AcDbLine
 10
-10.790016
 20
458.213039
 30
0.0
 11
-6.706917
 21
458.213039
 31
0.0
  0
ARC
  5
36A
330
321
100
AcDbEntity
  8
0
  6
Continuous
 62
     0
370
    30
100
AcDbCircle
 10
38.566718
 20
366.013026
 30
0.0
 40
0.2000282819170533
100
AcDbArc
 50
0.508018
 51
90.009326
  0
ARC
  5
36B
330
321
100
AcDbEntity
  8
0
  6
Continuous
 62
     0
370
    30
100
AcDbCircle
 10
-14.980599
 20
366.013026
 30
0.0
 40
0.2000281894145367
100
AcDbArc
 50
90.000482
 51
179.49201
  0
LINE
  5
36C
330
321
100
AcDbEntity
  8
0
  6
Continuous
 62
     0
370
    30
100
AcDbLine
 10
54.5317
 20
415.563034
 30
0.0
 11
55.031673
 21
415.063061
 31
0.0
  0
LINE
  5
36D
330
321
100
AcDbEntity
  8
0
  6
Continuous
 62
     0
370
    30
100
AcDbLine
 10
54.5317
 20
411.563034
 30
0.0
 11
55.031674
 21
412.063008
 31
0.0
  0
LINE
  5
36E
330
321
100
AcDbEntity
  8
0
  6
Continuous
 62
     0
370
    30
100
AcDbLine
 10
54.5317
 20
411.563034
 30
0.0
 11
43.53645
 21
411.563034
 31
0.0
  0
LINE
  5
36F
330
321
100
AcDbEntity
  8
0
  6
Continuous
 62
     0
370
    30
100
AcDbLine
 10
54.5317
 20
415.563034
 30
0.0
 11
43.53645
 21
415.563034
 31
0.0
  0
LINE
  5
370
330
321
100
AcDbEntity
  8
0
  6
Continuous
 62
     0
370
    30
100
AcDbLine
 10
40.364373
 20
409.542198
 30
0.0
 11
30.293457
 21
387.945049
 31
0.0
  0
LINE
  5
371
330
321
100
AcDbEntity
  8
0
  6
Continuous
 62
     0
370
    30
100
AcDbLine
 10
36.739141
 20
411.232671
 30
0.0
 11
30.293021
 21
397.408921
 31
0.0
  0
LINE
  5
372
330
321
100
AcDbEntity
  8
0
  6
Continuous
 62
     0
370
    30
100
AcDbLine
 10
30.293083
 20
366.213054
 30
0.0
 11
30.293083
 21
387.94455
 31
0.0
  0
LINE
  5
373
330
321
100
AcDbEntity
  8
0
  6
Continuous
 62
     0
370
    30
100
AcDbLine
 10
30.293083
 20
397.407921
 30
0.0
 11
30.293083
 21
493.213054
 31
0.0
  0
ARC
  5
374
330
321
100
AcDbEntity
  8
0
  6
Continuous
 62
     0
370
    30
100
AcDbCircle
 10
11.075052
 20
492.257825
 30
0.0
 40
17.50005773845056
100
AcDbArc
 50
3.128998
 51
26.121375
  0
ARC
  5
375
330
321
100
AcDbEntity
  8
0
  6
Continuous
 62
     0
370
    30
100
AcDbCircle
 10
12.511453
 20
492.257791
 30
0.0
 40
17.50039732685592
100
AcDbArc
 50
168.779699
 51
176.87095
  0
LINE
  5
376
330
321
100
AcDbEntity
  8
0
  6
Continuous
 62
     0
370
    30
100
AcDbLine
 10
-6.706917
 20
495.663052
 30
0.0
 11
-6.706917
 21
516.663078
 31
0.0
  0
ARC
  5
377
330
321
100
AcDbEntity
  8
0
  6
Continuous
 62
     0
370
    30
100
AcDbCircle
 10
-70.530015
 20
467.116974
 30
0.0
 40
6.000251263784961
100
AcDbArc
 50
58.590732
 51
75.375332
  0
ARC
  5
378
330
321
100
AcDbEntity
  8
0
  6
Continuous
 62
     0
370
    30
100
AcDbCircle
 10
-70.530089
 20
467.117393
 30
0.0
 40
6.000251263779485
100
AcDbArc
 50
304.624668
 51
321.409268
  0
LINE
  5
379
330
321
100
AcDbEntity
  8
0
  6
Continuous
 62
     0
370
    30
100
AcDbLine
 10
-74.348555
 20
458.828179
 30
0.0
 11
-74.151593
 21
458.862909
 31
0.0
  0
LINE
  5
37A
330
321
100
AcDbEntity
  8
0
  6
Continuous
 62
     0
370
    30
100
AcDbLine
 10
-76.953277
 20
473.600295
 30
0.0
 11
-76.756316
 21
473.635025
 31
0.0
  0
LINE
  5
37B
330
321
100
AcDbEntity
  8
0
  6
Continuous
 62
     0
370
    30
100
AcDbLine
 10
-92.841071
 20
456.430564
 30
0.0
 11
-92.76434
 21
456.444094
 31
0.0
  0
LINE
  5
37C
330
321
100
AcDbEntity
  8
0
  6
Continuous
 62
     0
370
    30
100
AcDbLine
 10
-15.020087
 20
458.213039
 30
0.0
 11
-10.790016
 21
458.213039
 31
0.0
  0
LINE
  5
37D
330
321
100
AcDbEntity
  8
0
  6
Continuous
 62
     0
370
    30
100
AcDbLine
 10
-15.206917
 20
363.013054
 30
0.0
 11
-15.180721
 21
366.014799
 31
0.0
  0
LINE
  5
37E
330
321
100
AcDbEntity
  8
0
  6
Continuous
 62
     0
370
    30
100
AcDbLine
 10
38.793083
 20
363.013054
 30
0.0
 11
38.766887
 21
366.014799
 31
0.0
  0
ARC
  5
37F
330
321
100
AcDbEntity
  8
0
  6
Continuous
 62
     0
370
    30
100
AcDbCircle
 10
43.536505
 20
408.062948
 30
0.0
 40
3.50008604293369
100
AcDbArc
 50
90.000899
 51
154.999103
  0
ARC
  5
380
330
321
100
AcDbEntity
  8
0
  6
Continuous
 62
     0
370
    30
100
AcDbCircle
 10
43.536357
 20
408.06318
 30
0.0
 40
7.499853779216094
100
AcDbArc
 50
89.99929
 51
155.000712
  0
ARC
  5
381
330
321
100
AcDbEntity
  8
0
  6
Continuous
 62
     0
370
    30
100
AcDbCircle
 10
-7.706894
 20
516.663078
 30
0.0
 40
1.000006823229133
100
AcDbArc
 50
0.00046
 51
90.000966
  0
LINE
  5
382
330
321
100
AcDbEntity
  8
0
  6
Continuous
 62
     0
370
    30
100
AcDbLine
 10
-7.707268
 20
517.663052
 30
0.0
 11
-49.706917
 21
517.663052
 31
0.0
  0
ARC
  5
383
330
321
100
AcDbEntity
  8
0
  6
Continuous
 62
     0
370
    30
100
AcDbCircle
 10
-49.706914
 20
518.163054
 30
0.0
 40
0.5000027427126523
100
AcDbArc
 50
180.000971
 51
269.999686
  0
ENDBLK
  5
385
330
321
100
AcDbEntity
  8
0
100
AcDbBlockEnd
  0
ENDSEC
  0
SECTION
  2
ENTITIES
  0
INSERT
  5
E0
330
1F
100
AcDbEntity
  8
0
  6
Continuous
 62
     7
370
     0
100
AcDbBlockReference
  2
a
 10
236.744843
 20
114.574432
 30
0.0
  0
INSERT
  5
2D3
330
1F
100
AcDbEntity
  8
0
  6
Continuous
 62
     7
370
     0
100
AcDbBlockReference
  2
b
 10
241.798203
 20
-0.159973
 30
0.0
  0
INSERT
  5
320
330
1F
100
AcDbEntity
  8
0
  6
Continuous
 62
     7
370
     0
100
AcDbBlockReference
  2
c
 10
7.022736
 20
344.743042
 30
0.0
  0
INSERT
  5
386
330
1F
100
AcDbEntity
  8
0
  6
Continuous
 62
     7
370
     0
100
AcDbBlockReference
  2
d
 10
88.915565
 20
-0.159973
 30
0.0
  0
ENDSEC
  0
SECTION
  2
OBJECTS
  0
DICTIONARY
  5
C
330
0
100
AcDbDictionary
281
     1
  3
ACAD_GROUP
350
D
  3
ACAD_LAYOUT
350
1A
  3
ACAD_MATERIAL
350
43
  3
ACAD_MLEADERSTYLE
350
6B
  3
ACAD_MLINESTYLE
350
17
  3
ACAD_PLOTSETTINGS
350
19
  3
ACAD_PLOTSTYLENAME
350
E
  3
ACAD_SCALELIST
350
47
  3
ACAD_TABLESTYLE
350
69
  3
ACAD_VISUALSTYLE
350
2A
  3
AcDbVariableDictionary
350
387
  0
DICTIONARY
  5
392
330
8
100
AcDbDictionary
280
     1
281
     1
  3
ACAD_XREC_ROUNDTRIP
360
393
  0
DICTIONARY
  5
D
102
{ACAD_REACTORS
330
C
102
}
330
C
100
AcDbDictionary
281
     1
  0
DICTIONARY
  5
1A
102
{ACAD_REACTORS
330
C
102
}
330
C
100
AcDbDictionary
281
     1
  3
Layout1
350
1E
  3
Layout2
350
26
  3
Model
350
22
  0
DICTIONARY
  5
43
102
{ACAD_REACTORS
330
C
102
}
330
C
100
AcDbDictionary
281
     1
  3
ByBlock
350
45
  3
ByLayer
350
44
  3
Global
350
46
  0
DICTIONARY
  5
6B
102
{ACAD_REACTORS
330
C
102
}
330
C
100
AcDbDictionary
281
     1
  3
Standard
350
6C
  0
DICTIONARY
  5
17
102
{ACAD_REACTORS
330
C
102
}
330
C
100
AcDbDictionary
281
     1
  3
Standard
350
18
  0
DICTIONARY
  5
19
102
{ACAD_REACTORS
330
C
102
}
330
C
100
AcDbDictionary
281
     1
  0
ACDBDICTIONARYWDFLT
  5
E
102
{ACAD_REACTORS
330
C
102
}
330
C
100
AcDbDictionary
281
     1
  3
Normal
350
F
100
AcDbDictionaryWithDefault
340
F
  0
DICTIONARY
  5
47
102
{ACAD_REACTORS
330
C
102
}
330
C
100
AcDbDictionary
281
     1
  3
A0
350
48
  3
A1
350
49
  3
A2
350
4A
  3
A3
350
4B
  3
A4
350
4C
  3
A5
350
4D
  3
A6
350
4E
  3
A7
350
4F
  3
A8
350
50
  3
A9
350
51
  3
B0
350
52
  3
B1
350
53
  3
B2
350
54
  3
B3
350
55
  3
B4
350
56
  3
B5
350
57
  3
B6
350
58
  3
B7
350
59
  3
B8
350
5A
  3
B9
350
5B
  3
C0
350
5C
  3
C1
350
5D
  3
C2
350
5E
  3
C3
350
5F
  3
C4
350
60
  3
C5
350
61
  3
C6
350
62
  3
C7
350
63
  3
C8
350
64
  3
C9
350
65
  3
D0
350
66
  3
D1
350
67
  3
D2
350
68
  0
DICTIONARY
  5
69
102
{ACAD_REACTORS
330
C
102
}
330
C
100
AcDbDictionary
281
     1
  3
Standard
350
6A
  0
DICTIONARY
  5
2A
102
{ACAD_REACTORS
330
C
102
}
330
C
100
AcDbDictionary
281
     1
  3
2dWireframe
350
2F
  3
Basic
350
32
  3
Brighten
350
36
  3
ColorChange
350
3A
  3
Conceptual
350
34
  3
Dim
350
35
  3
EdgeColorOff
350
3D
  3
Facepattern
350
39
  3
Flat
350
2B
  3
FlatWithEdges
350
2C
  3
Gouraud
350
2D
  3
GouraudWithEdges
350
2E
  3
Hidden
350
31
  3
JitterOff
350
3B
  3
Linepattern
350
38
  3
OverhangOff
350
3C
  3
Realistic
350
33
  3
Shaded
350
42
  3
Shaded with edges
350
41
  3
Shades of Gray
350
3E
  3
Sketchy
350
3F
  3
Thicken
350
37
  3
Wireframe
350
30
  3
X-Ray
350
40
  0
DICTIONARY
  5
387
102
{ACAD_REACTORS
330
C
102
}
330
C
100
AcDbDictionary
281
     1
  3
CANNOSCALE
350
394
  3
CENTEREXE
350
38E
  3
CENTERLTYPEFILE
350
38F
  3
CMLEADERSTYLE
350
389
  3
CTABLESTYLE
350
388
  3
DIMASSOC
350
390
  3
HIDETEXT
350
391
  3
MSLTSCALE
350
395
  3
PSOLHEIGHT
350
38B
  3
PSOLWIDTH
350
38A
  0
XRECORD
  5
393
102
{ACAD_REACTORS
330
392
102
}
330
392
100
AcDbXrecord
280
     1
102
VTR_0.000_0.000_1.000_1.000_VISUALSTYLE
340
2F
102
VTR_0.000_0.000_1.000_1.000_GRIDDISPLAY
 70
     3
102
VTR_0.000_0.000_1.000_1.000_GRIDMAJOR
 70
     5
102
VTR_0.000_0.000_1.000_1.000_DEFAULTLIGHTING
280
     1
102
VTR_0.000_0.000_1.000_1.000_DEFAULTLIGHTINGTYPE
 70
     1
102
VTR_0.000_0.000_1.000_1.000_BRIGHTNESS
141
0.0
102
VTR_0.000_0.000_1.000_1.000_CONTRAST
142
0.0
  0
LAYOUT
  5
1E
102
{ACAD_REACTORS
330
1A
102
}
330
1A
100
AcDbPlotSettings
  1

  2
none_device
  4

  6

 40
0.0
 41
0.0
 42
0.0
 43
0.0
 44
0.0
 45
0.0
 46
0.0
 47
0.0
 48
0.0
 49
0.0
140
0.0
141
0.0
142
1.0
143
1.0
 70
   688
 72
     1
 73
     0
 74
     5
  7

 75
    16
147
1.0
148
0.0
149
0.0
100
AcDbLayout
  1
Layout1
 70
     1
 71
     1
 10
0.0
 20
0.0
 11
420.0
 21
297.0
 12
0.0
 22
0.0
 32
0.0
 14
1.000000E+20
 24
1.000000E+20
 34
1.000000E+20
 15
-1.000000E+20
 25
-1.000000E+20
 35
-1.000000E+20
146
0.0
 13
0.0
 23
0.0
 33
0.0
 16
1.0
 26
0.0
 36
0.0
 17
0.0
 27
1.0
 37
0.0
 76
     0
330
1B
  0
LAYOUT
  5
26
102
{ACAD_REACTORS
330
1A
102
}
330
1A
100
AcDbPlotSettings
  1

  2
none_device
  4

  6

 40
0.0
 41
0.0
 42
0.0
 43
0.0
 44
0.0
 45
0.0
 46
0.0
 47
0.0
 48
0.0
 49
0.0
140
0.0
141
0.0
142
1.0
143
1.0
 70
   688
 72
     1
 73
     0
 74
     5
  7

 75
    16
147
1.0
148
0.0
149
0.0
100
AcDbLayout
  1
Layout2
 70
     1
 71
     2
 10
0.0
 20
0.0
 11
0.0
 21
0.0
 12
0.0
 22
0.0
 32
0.0
 14
0.0
 24
0.0
 34
0.0
 15
0.0
 25
0.0
 35
0.0
146
0.0
 13
0.0
 23
0.0
 33
0.0
 16
1.0
 26
0.0
 36
0.0
 17
0.0
 27
1.0
 37
0.0
 76
     0
330
23
  0
LAYOUT
  5
22
102
{ACAD_REACTORS
330
1A
102
}
330
1A
100
AcDbPlotSettings
  1

  2
none_device
  4
Letter_(8.50_x_11.00_Inches)
  6

 40
6.35
 41
6.35
 42
6.350005
 43
6.350005
 44
215.9
 45
279.4
 46
0.0
 47
0.0
 48
0.0
 49
0.0
140
0.0
141
0.0
142
1.0
143
1.0
 70
  1712
 72
     1
 73
     0
 74
     0
  7

 75
     0
147
1.0
148
0.0
149
0.0
100
AcDbLayout
  1
Model
 70
     1
 71
     0
 10
-95.481934
 20
150.024521
 11
416.256378
 21
523.663086
 12
0.0
 22
0.0
 32
0.0
 14
-95.481934
 24
150.024521
 34
0.0
 15
416.256378
 25
523.663086
 35
0.0
146
0.0
 13
0.0
 23
0.0
 33
0.0
 16
1.0
 26
0.0
 36
0.0
 17
0.0
 27
1.0
 37
0.0
 76
     0
330
1F
331
29
  0
MATERIAL
  5
45
102
{ACAD_REACTORS
330
43
102
}
102
{ACAD_XDICTIONARY
360
3C8
102
}
330
43
100
AcDbMaterial
  1
ByBlock
  0
MATERIAL
  5
44
102
{ACAD_REACTORS
330
43
102
}
102
{ACAD_XDICTIONARY
360
3C6
102
}
330
43
100
AcDbMaterial
  1
ByLayer
  0
MATERIAL
  5
46
102
{ACAD_REACTORS
330
43
102
}
102
{ACAD_XDICTIONARY
360
3CA
102
}
330
43
100
AcDbMaterial
  1
Global
  0
MLEADERSTYLE
  5
6C
102
{ACAD_REACTORS
330
6B
102
}
102
{ACAD_XDICTIONARY
360
3CD
102
}
330
6B
100
AcDbMLeaderStyle
170
     2
171
     1
172
     0
 90
        2
 40
0.0
 41
0.0
173
     1
 91
-1056964608
340
14
 92
       -2
290
     1
 42
2.0
291
     1
 43
8.0
  3
Standard
341
0
 44
4.0
300

342
11
174
     1
178
     6
175
     1
176
     0
 93
-1056964608
 45
4.0
292
     0
297
     0
 46
4.0
343
0
 94
-1056964608
 47
1.0
 49
1.0
140
1.0
293
     1
141
0.0
294
     1
177
     0
142
1.0
295
     0
296
     0
143
3.75
1001
ACAD_MLEADERVER
1070
     2
  0
MLINESTYLE
  5
18
102
{ACAD_REACTORS
330
17
102
}
330
17
100
AcDbMlineStyle
  2
Standard
 70
     0
  3

 62
   256
 51
90.0
 52
90.0
 71
     2
 49
0.5
 62
   256
  6
BYLAYER
 49
-0.5
 62
   256
  6
BYLAYER
  0
ACDBPLACEHOLDER
  5
F
102
{ACAD_REACTORS
330
E
102
}
330
E
  0
SCALE
  5
48
102
{ACAD_REACTORS
330
47
102
}
330
47
100
AcDbScale
 70
     0
300
1:1
140
1.0
141
1.0
290
     1
  0
SCALE
  5
49
102
{ACAD_REACTORS
330
47
102
}
330
47
100
AcDbScale
 70
     0
300
1:2
140
1.0
141
2.0
290
     0
  0
SCALE
  5
4A
102
{ACAD_REACTORS
330
47
102
}
330
47
100
AcDbScale
 70
     0
300
1:4
140
1.0
141
4.0
290
     0
  0
SCALE
  5
4B
102
{ACAD_REACTORS
330
47
102
}
330
47
100
AcDbScale
 70
     0
300
1:5
140
1.0
141
5.0
290
     0
  0
SCALE
  5
4C
102
{ACAD_REACTORS
330
47
102
}
330
47
100
AcDbScale
 70
     0
300
1:8
140
1.0
141
8.0
290
     0
  0
SCALE
  5
4D
102
{ACAD_REACTORS
330
47
102
}
330
47
100
AcDbScale
 70
     0
300
1:10
140
1.0
141
10.0
290
     0
  0
SCALE
  5
4E
102
{ACAD_REACTORS
330
47
102
}
330
47
100
AcDbScale
 70
     0
300
1:16
140
1.0
141
16.0
290
     0
  0
SCALE
  5
4F
102
{ACAD_REACTORS
330
47
102
}
330
47
100
AcDbScale
 70
     0
300
1:20
140
1.0
141
20.0
290
     0
  0
SCALE
  5
50
102
{ACAD_REACTORS
330
47
102
}
330
47
100
AcDbScale
 70
     0
300
1:30
140
1.0
141
30.0
290
     0
  0
SCALE
  5
51
102
{ACAD_REACTORS
330
47
102
}
330
47
100
AcDbScale
 70
     0
300
1:40
140
1.0
141
40.0
290
     0
  0
SCALE
  5
52
102
{ACAD_REACTORS
330
47
102
}
330
47
100
AcDbScale
 70
     0
300
1:50
140
1.0
141
50.0
290
     0
  0
SCALE
  5
53
102
{ACAD_REACTORS
330
47
102
}
330
47
100
AcDbScale
 70
     0
300
1:100
140
1.0
141
100.0
290
     0
  0
SCALE
  5
54
102
{ACAD_REACTORS
330
47
102
}
330
47
100
AcDbScale
 70
     0
300
2:1
140
2.0
141
1.0
290
     0
  0
SCALE
  5
55
102
{ACAD_REACTORS
330
47
102
}
330
47
100
AcDbScale
 70
     0
300
4:1
140
4.0
141
1.0
290
     0
  0
SCALE
  5
56
102
{ACAD_REACTORS
330
47
102
}
330
47
100
AcDbScale
 70
     0
300
8:1
140
8.0
141
1.0
290
     0
  0
SCALE
  5
57
102
{ACAD_REACTORS
330
47
102
}
330
47
100
AcDbScale
 70
     0
300
10:1
140
10.0
141
1.0
290
     0
  0
SCALE
  5
58
102
{ACAD_REACTORS
330
47
102
}
330
47
100
AcDbScale
 70
     0
300
100:1
140
100.0
141
1.0
290
     0
  0
SCALE
  5
59
102
{ACAD_REACTORS
330
47
102
}
330
47
100
AcDbScale
 70
     0
300
1/128" = 1'-0"
140
0.007812
141
12.0
290
     0
  0
SCALE
  5
5A
102
{ACAD_REACTORS
330
47
102
}
330
47
100
AcDbScale
 70
     0
300
1/64" = 1'-0"
140
0.015625
141
12.0
290
     0
  0
SCALE
  5
5B
102
{ACAD_REACTORS
330
47
102
}
330
47
100
AcDbScale
 70
     0
300
1/32" = 1'-0"
140
0.03125
141
12.0
290
     0
  0
SCALE
  5
5C
102
{ACAD_REACTORS
330
47
102
}
330
47
100
AcDbScale
 70
     0
300
1/16" = 1'-0"
140
0.0625
141
12.0
290
     0
  0
SCALE
  5
5D
102
{ACAD_REACTORS
330
47
102
}
330
47
100
AcDbScale
 70
     0
300
3/32" = 1'-0"
140
0.09375
141
12.0
290
     0
  0
SCALE
  5
5E
102
{ACAD_REACTORS
330
47
102
}
330
47
100
AcDbScale
 70
     0
300
1/8" = 1'-0"
140
0.125
141
12.0
290
     0
  0
SCALE
  5
5F
102
{ACAD_REACTORS
330
47
102
}
330
47
100
AcDbScale
 70
     0
300
3/16" = 1'-0"
140
0.1875
141
12.0
290
     0
  0
SCALE
  5
60
102
{ACAD_REACTORS
330
47
102
}
330
47
100
AcDbScale
 70
     0
300
1/4" = 1'-0"
140
0.25
141
12.0
290
     0
  0
SCALE
  5
61
102
{ACAD_REACTORS
330
47
102
}
330
47
100
AcDbScale
 70
     0
300
3/8" = 1'-0"
140
0.375
141
12.0
290
     0
  0
SCALE
  5
62
102
{ACAD_REACTORS
330
47
102
}
330
47
100
AcDbScale
 70
     0
300
1/2" = 1'-0"
140
0.5
141
12.0
290
     0
  0
SCALE
  5
63
102
{ACAD_REACTORS
330
47
102
}
330
47
100
AcDbScale
 70
     0
300
3/4" = 1'-0"
140
0.75
141
12.0
290
     0
  0
SCALE
  5
64
102
{ACAD_REACTORS
330
47
102
}
330
47
100
AcDbScale
 70
     0
300
1" = 1'-0"
140
1.0
141
12.0
290
     0
  0
SCALE
  5
65
102
{ACAD_REACTORS
330
47
102
}
330
47
100
AcDbScale
 70
     0
300
1-1/2" = 1'-0"
140
1.5
141
12.0
290
     0
  0
SCALE
  5
66
102
{ACAD_REACTORS
330
47
102
}
330
47
100
AcDbScale
 70
     0
300
3" = 1'-0"
140
3.0
141
12.0
290
     0
  0
SCALE
  5
67
102
{ACAD_REACTORS
330
47
102
}
330
47
100
AcDbScale
 70
     0
300
6" = 1'-0"
140
6.0
141
12.0
290
     0
  0
SCALE
  5
68
102
{ACAD_REACTORS
330
47
102
}
330
47
100
AcDbScale
 70
     0
300
1'-0" = 1'-0"
140
12.0
141
12.0
290
     0
  0
TABLESTYLE
  5
6A
102
{ACAD_REACTORS
330
69
102
}
330
69
100
AcDbTableStyle
  3
Standard
 70
     0
 71
     0
 40
1.5
 41
1.5
280
     0
281
     0
  7
Standard
140
4.5
170
     2
 62
     0
 63
   257
283
     0
274
    -2
284
     1
 64
     0
275
    -2
285
     1
 65
     0
276
    -2
286
     1
 66
     0
277
    -2
287
     1
 67
     0
278
    -2
288
     1
 68
     0
279
    -2
289
     1
 69
     0
  7
Standard
140
6.0
170
     5
 62
     0
 63
   257
283
     0
274
    -2
284
     1
 64
     0
275
    -2
285
     1
 65
     0
276
    -2
286
     1
 66
     0
277
    -2
287
     1
 67
     0
278
    -2
288
     1
 68
     0
279
    -2
289
     1
 69
     0
  7
Standard
140
4.5
170
     5
 62
     0
 63
   257
283
     0
274
    -2
284
     1
 64
     0
275
    -2
285
     1
 65
     0
276
    -2
286
     1
 66
     0
277
    -2
287
     1
 67
     0
278
    -2
288
     1
 68
     0
279
    -2
289
     1
 69
     0
  0
VISUALSTYLE
  5
2F
102
{ACAD_REACTORS
330
2A
102
}
102
{ACAD_XDICTIONARY
360
39E
102
}
330
2A
100
AcDbVisualStyle
  2
2dWireframe
 70
     4
 71
     0
 72
     2
 73
     0
 90
        0
 40
0.6
 41
30.0
 62
     5
 63
     7
 74
     1
 91
        4
 64
     7
 65
   257
 75
     1
175
     1
 42
1.0
 92
        0
 66
   257
 43
1.0
 76
     1
 77
     6
 78
     2
 67
     7
 79
     5
170
     0
171
     0
290
     0
174
     0
 93
        1
 44
0.0
173
     0
291
     0
 45
0.0
1001
ACAD
1000
AcDbSavedByObjectVersion
1070
     0
  0
VISUALSTYLE
  5
32
102
{ACAD_REACTORS
330
2A
102
}
102
{ACAD_XDICTIONARY
360
3A4
102
}
330
2A
100
AcDbVisualStyle
  2
Basic
 70
     7
 71
     1
 72
     0
 73
     1
 90
        0
 40
0.6
 41
30.0
 62
     5
 63
     7
 74
     0
 91
        4
 64
     7
 65
   257
 75
     1
175
     1
 42
1.0
 92
        8
 66
     7
 43
1.0
 76
     1
 77
     6
 78
     2
 67
     7
 79
     5
170
     0
171
     0
290
     0
174
     0
 93
        1
 44
0.0
173
     0
291
     1
 45
0.0
1001
ACAD
1000
AcDbSavedByObjectVersion
1070
     0
  0
VISUALSTYLE
  5
36
102
{ACAD_REACTORS
330
2A
102
}
102
{ACAD_XDICTIONARY
360
3AC
102
}
330
2A
100
AcDbVisualStyle
  2
Brighten
 70
    12
 71
     2
 72
     2
 73
     0
 90
        0
 40
0.6
 41
30.0
 62
     5
 63
     7
 74
     1
 91
        4
 64
     7
 65
   257
 75
     1
175
     1
 42
1.0
 92
        8
 66
     7
 43
1.0
 76
     1
 77
     6
 78
     2
 67
     7
 79
     5
170
     0
171
     0
290
     0
174
     0
 93
        1
 44
50.0
173
     0
291
     1
 45
0.0
1001
ACAD
1000
AcDbSavedByObjectVersion
1070
     0
  0
VISUALSTYLE
  5
3A
102
{ACAD_REACTORS
330
2A
102
}
102
{ACAD_XDICTIONARY
360
3B4
102
}
330
2A
100
AcDbVisualStyle
  2
ColorChange
 70
    16
 71
     2
 72
     2
 73
     3
 90
        0
 40
0.6
 41
30.0
 62
     5
 63
     8
 74
     1
 91
        4
 64
     7
 65
   257
 75
     1
175
     1
 42
1.0
 92
        8
 66
     8
 43
1.0
 76
     1
 77
     6
 78
     2
 67
     7
 79
     5
170
     0
171
     0
290
     0
174
     0
 93
        1
 44
0.0
173
     0
291
     1
 45
0.0
1001
ACAD
1000
AcDbSavedByObjectVersion
1070
     0
  0
VISUALSTYLE
  5
34
102
{ACAD_REACTORS
330
2A
102
}
102
{ACAD_XDICTIONARY
360
3A8
102
}
330
2A
100
AcDbVisualStyle
  2
Conceptual
 70
     9
 71
     3
 72
     2
 73
     0
 90
        0
 40
0.6
 41
30.0
 62
     5
 63
     7
 74
     2
 91
        2
 64
     7
 65
   257
 75
     1
175
     1
 42
179.0
 92
        8
 66
     7
 43
1.0
 76
     1
 77
     6
 78
     2
 67
     7
 79
     3
170
     0
171
     0
290
     0
174
     0
 93
        1
 44
0.0
173
     0
291
     0
 45
0.0
1001
ACAD
1000
AcDbSavedByObjectVersion
1070
     0
  0
VISUALSTYLE
  5
35
102
{ACAD_REACTORS
330
2A
102
}
102
{ACAD_XDICTIONARY
360
3AA
102
}
330
2A
100
AcDbVisualStyle
  2
Dim
 70
    11
 71
     2
 72
     2
 73
     0
 90
        0
 40
0.6
 41
30.0
 62
     5
 63
     7
 74
     1
 91
        4
 64
     7
 65
   257
 75
     1
175
     1
 42
1.0
 92
        8
 66
     7
 43
1.0
 76
     1
 77
     6
 78
     2
 67
     7
 79
     5
170
     0
171
     0
290
     0
174
     0
 93
        1
 44
-50.0
173
     0
291
     1
 45
0.0
1001
ACAD
1000
AcDbSavedByObjectVersion
1070
     0
  0
VISUALSTYLE
  5
3D
102
{ACAD_REACTORS
330
2A
102
}
102
{ACAD_XDICTIONARY
360
3BA
102
}
330
2A
100
AcDbVisualStyle
  2
EdgeColorOff
 70
    22
 71
     2
 72
     2
 73
     0
 90
        0
 40
0.6
 41
30.0
 62
     5
 63
     7
 74
     1
 91
        4
 64
     7
 65
   257
 75
     1
175
     1
 42
1.0
 92
        8
 66
     7
 43
1.0
 76
     1
 77
     6
 78
     2
 67
     7
 79
     5
170
     0
171
     0
290
     0
174
     0
 93
        1
 44
0.0
173
     0
291
     1
 45
0.0
1001
ACAD
1000
AcDbSavedByObjectVersion
1070
     0
  0
VISUALSTYLE
  5
39
102
{ACAD_REACTORS
330
2A
102
}
102
{ACAD_XDICTIONARY
360
3B2
102
}
330
2A
100
AcDbVisualStyle
  2
Facepattern
 70
    15
 71
     2
 72
     2
 73
     0
 90
        0
 40
0.6
 41
30.0
 62
     5
 63
     7
 74
     1
 91
        4
 64
     7
 65
   257
 75
     1
175
     1
 42
1.0
 92
        8
 66
     7
 43
1.0
 76
     1
 77
     6
 78
     2
 67
     7
 79
     5
170
     0
171
     0
290
     0
174
     0
 93
        1
 44
0.0
173
     0
291
     1
 45
0.0
1001
ACAD
1000
AcDbSavedByObjectVersion
1070
     0
  0
VISUALSTYLE
  5
2B
102
{ACAD_REACTORS
330
2A
102
}
102
{ACAD_XDICTIONARY
360
396
102
}
330
2A
100
AcDbVisualStyle
  2
Flat
 70
     0
 71
     2
 72
     1
 73
     1
 90
        2
 40
0.6
 41
30.0
 62
     5
 63
     7
 74
     0
 91
        0
 64
     7
 65
   257
 75
     1
175
     1
 42
1.0
 92
        8
 66
     7
 43
1.0
 76
     1
 77
     6
 78
     2
 67
     7
 79
     5
170
     0
171
     0
290
     0
174
     0
 93
       13
 44
0.0
173
     0
291
     1
 45
0.0
1001
ACAD
1000
AcDbSavedByObjectVersion
1070
     0
  0
VISUALSTYLE
  5
2C
102
{ACAD_REACTORS
330
2A
102
}
102
{ACAD_XDICTIONARY
360
398
102
}
330
2A
100
AcDbVisualStyle
  2
FlatWithEdges
 70
     1
 71
     2
 72
     1
 73
     1
 90
        2
 40
0.6
 41
30.0
 62
     5
 63
     7
 74
     1
 91
        0
 64
     7
 65
   257
 75
     1
175
     1
 42
1.0
 92
        0
 66
   257
 43
1.0
 76
     1
 77
     6
 78
     2
 67
     7
 79
     5
170
     0
171
     0
290
     0
174
     0
 93
       13
 44
0.0
173
     0
291
     1
 45
0.0
1001
ACAD
1000
AcDbSavedByObjectVersion
1070
     0
  0
VISUALSTYLE
  5
2D
102
{ACAD_REACTORS
330
2A
102
}
102
{ACAD_XDICTIONARY
360
39A
102
}
330
2A
100
AcDbVisualStyle
  2
Gouraud
 70
     2
 71
     2
 72
     2
 73
     1
 90
        2
 40
0.6
 41
30.0
 62
     5
 63
     7
 74
     0
 91
        0
 64
     7
 65
   257
 75
     1
175
     1
 42
1.0
 92
        0
 66
     7
 43
1.0
 76
     1
 77
     6
 78
     2
 67
     7
 79
     5
170
     0
171
     0
290
     0
174
     0
 93
       13
 44
0.0
173
     0
291
     1
 45
0.0
1001
ACAD
1000
AcDbSavedByObjectVersion
1070
     0
  0
VISUALSTYLE
  5
2E
102
{ACAD_REACTORS
330
2A
102
}
102
{ACAD_XDICTIONARY
360
39C
102
}
330
2A
100
AcDbVisualStyle
  2
GouraudWithEdges
 70
     3
 71
     2
 72
     2
 73
     1
 90
        2
 40
0.6
 41
30.0
 62
     5
 63
     7
 74
     1
 91
        0
 64
     7
 65
   257
 75
     1
175
     1
 42
1.0
 92
        0
 66
   257
 43
1.0
 76
     1
 77
     6
 78
     2
 67
     7
 79
     5
170
     0
171
     0
290
     0
174
     0
 93
       13
 44
0.0
173
     0
291
     1
 45
0.0
1001
ACAD
1000
AcDbSavedByObjectVersion
1070
     0
  0
VISUALSTYLE
  5
31
102
{ACAD_REACTORS
330
2A
102
}
102
{ACAD_XDICTIONARY
360
3A2
102
}
330
2A
100
AcDbVisualStyle
  2
Hidden
 70
     6
 71
     1
 72
     2
 73
     2
 90
        0
 40
0.6
 41
30.0
 62
     5
 63
     7
 74
     2
 91
        2
 64
     7
 65
   257
 75
     2
175
     1
 42
40.0
 92
        0
 66
   257
 43
1.0
 76
     1
 77
     6
 78
     2
 67
     7
 79
     3
170
     0
171
     0
290
     0
174
     0
 93
        1
 44
0.0
173
     0
291
     0
 45
0.0
1001
ACAD
1000
AcDbSavedByObjectVersion
1070
     0
  0
VISUALSTYLE
  5
3B
102
{ACAD_REACTORS
330
2A
102
}
102
{ACAD_XDICTIONARY
360
3B6
102
}
330
2A
100
AcDbVisualStyle
  2
JitterOff
 70
    20
 71
     2
 72
     2
 73
     0
 90
        0
 40
0.6
 41
30.0
 62
     5
 63
     7
 74
     1
 91
        4
 64
     7
 65
   257
 75
     1
175
     1
 42
1.0
 92
       10
 66
     7
 43
1.0
 76
     1
 77
     6
 78
     2
 67
     7
 79
     5
170
     0
171
     0
290
     0
174
     0
 93
        1
 44
0.0
173
     0
291
     1
 45
0.0
1001
ACAD
1000
AcDbSavedByObjectVersion
1070
     0
  0
VISUALSTYLE
  5
38
102
{ACAD_REACTORS
330
2A
102
}
102
{ACAD_XDICTIONARY
360
3B0
102
}
330
2A
100
AcDbVisualStyle
  2
Linepattern
 70
    14
 71
     2
 72
     2
 73
     0
 90
        0
 40
0.6
 41
30.0
 62
     5
 63
     7
 74
     1
 91
        4
 64
     7
 65
   257
 75
     7
175
     7
 42
1.0
 92
        8
 66
     7
 43
1.0
 76
     1
 77
     6
 78
     2
 67
     7
 79
     5
170
     0
171
     0
290
     0
174
     0
 93
        1
 44
0.0
173
     0
291
     1
 45
0.0
1001
ACAD
1000
AcDbSavedByObjectVersion
1070
     0
  0
VISUALSTYLE
  5
3C
102
{ACAD_REACTORS
330
2A
102
}
102
{ACAD_XDICTIONARY
360
3B8
102
}
330
2A
100
AcDbVisualStyle
  2
OverhangOff
 70
    21
 71
     2
 72
     2
 73
     0
 90
        0
 40
0.6
 41
30.0
 62
     5
 63
     7
 74
     1
 91
        4
 64
     7
 65
   257
 75
     1
175
     1
 42
1.0
 92
        9
 66
     7
 43
1.0
 76
     1
 77
     6
 78
     2
 67
     7
 79
     5
170
     0
171
     0
290
     0
174
     0
 93
        1
 44
0.0
173
     0
291
     1
 45
0.0
1001
ACAD
1000
AcDbSavedByObjectVersion
1070
     0
  0
VISUALSTYLE
  5
33
102
{ACAD_REACTORS
330
2A
102
}
102
{ACAD_XDICTIONARY
360
3A6
102
}
330
2A
100
AcDbVisualStyle
  2
Realistic
 70
     8
 71
     2
 72
     3
 73
     0
 90
        2
 40
0.6
 41
30.0
 62
     5
 63
     7
 74
     0
 91
        0
 64
     7
 65
   257
 75
     1
175
     1
 42
1.0
 92
        8
 66
   257
 43
1.0
 76
     1
 77
     6
 78
     2
 67
     7
 79
     3
170
     0
171
     0
290
     0
174
     0
 93
       13
 44
0.0
173
     0
291
     0
 45
0.0
1001
ACAD
1000
AcDbSavedByObjectVersion
1070
     0
  0
VISUALSTYLE
  5
42
102
{ACAD_REACTORS
330
2A
102
}
102
{ACAD_XDICTIONARY
360
3C4
102
}
330
2A
100
AcDbVisualStyle
  2
Shaded
 70
    27
 71
     2
 72
     2
 73
     1
 90
        2
 40
0.6
 41
30.0
 62
     5
 63
     7
 74
     0
 91
        4
 64
     7
 65
   257
 75
     1
175
     1
 42
1.0
 92
        8
 66
   257
 43
1.0
 76
     1
 77
     6
 78
     2
 67
     8
 79
     3
170
     0
171
     0
290
     0
174
     0
 93
        5
 44
0.0
173
     0
291
     0
 45
0.0
1001
ACAD
1000
AcDbSavedByObjectVersion
1070
     0
  0
VISUALSTYLE
  5
41
102
{ACAD_REACTORS
330
2A
102
}
102
{ACAD_XDICTIONARY
360
3C2
102
}
330
2A
100
AcDbVisualStyle
  2
Shaded with edges
 70
    26
 71
     2
 72
     2
 73
     1
 90
        2
 40
0.6
 41
30.0
 62
     5
 63
     7
 74
     1
 91
       10
 64
     7
 65
   257
 75
     2
175
     1
 42
1.0
 92
        8
 66
   257
 43
1.0
 76
     1
 77
     6
 78
     2
 67
     7
 79
     3
170
     0
171
     0
290
     0
174
     0
 93
        5
 44
0.0
173
     0
291
     0
 45
0.0
1001
ACAD
1000
AcDbSavedByObjectVersion
1070
     0
  0
VISUALSTYLE
  5
3E
102
{ACAD_REACTORS
330
2A
102
}
102
{ACAD_XDICTIONARY
360
3BC
102
}
330
2A
100
AcDbVisualStyle
  2
Shades of Gray
 70
    23
 71
     2
 72
     2
 73
     3
 90
        0
 40
0.6
 41
30.0
 62
     5
 63
     7
 74
     2
 91
        2
 64
     7
 65
     7
 75
     1
175
     1
 42
40.0
 92
        8
 66
     7
 43
1.0
 76
     1
 77
     6
 78
     2
 67
     7
 79
     3
170
     0
171
     0
290
     0
174
     0
 93
        1
 44
0.0
173
     0
291
     0
 45
0.0
1001
ACAD
1000
AcDbSavedByObjectVersion
1070
     0
  0
VISUALSTYLE
  5
3F
102
{ACAD_REACTORS
330
2A
102
}
102
{ACAD_XDICTIONARY
360
3BE
102
}
330
2A
100
AcDbVisualStyle
  2
Sketchy
 70
    24
 71
     1
 72
     2
 73
     2
 90
        0
 40
0.6
 41
30.0
 62
     5
 63
     7
 74
     2
 91
        2
 64
     7
 65
     7
 75
     1
175
     1
 42
40.0
 92
       11
 66
     7
 43
1.0
 76
     1
 77
     6
 78
     2
 67
     7
 79
     6
170
     0
171
     0
290
     0
174
     0
 93
        1
 44
0.0
173
     0
291
     0
 45
0.0
1001
ACAD
1000
AcDbSavedByObjectVersion
1070
     0
  0
VISUALSTYLE
  5
37
102
{ACAD_REACTORS
330
2A
102
}
102
{ACAD_XDICTIONARY
360
3AE
102
}
330
2A
100
AcDbVisualStyle
  2
Thicken
 70
    13
 71
     2
 72
     2
 73
     0
 90
        0
 40
0.6
 41
30.0
 62
     5
 63
     7
 74
     1
 91
        4
 64
     7
 65
   257
 75
     1
175
     1
 42
1.0
 92
       12
 66
     7
 43
1.0
 76
     1
 77
     6
 78
     2
 67
     7
 79
     5
170
     0
171
     0
290
     0
174
     0
 93
        1
 44
0.0
173
     0
291
     1
 45
0.0
1001
ACAD
1000
AcDbSavedByObjectVersion
1070
     0
  0
VISUALSTYLE
  5
30
102
{ACAD_REACTORS
330
2A
102
}
102
{ACAD_XDICTIONARY
360
3A0
102
}
330
2A
100
AcDbVisualStyle
  2
Wireframe
 70
     5
 71
     0
 72
     2
 73
     0
 90
        0
 40
0.6
 41
30.0
 62
     5
 63
     7
 74
     1
 91
        4
 64
     7
 65
   257
 75
     1
175
     1
 42
1.0
 92
        0
 66
   257
 43
1.0
 76
     1
 77
     6
 78
     2
 67
     7
 79
     3
170
     0
171
     0
290
     0
174
     0
 93
        1
 44
0.0
173
     0
291
     0
 45
0.0
1001
ACAD
1000
AcDbSavedByObjectVersion
1070
     0
  0
VISUALSTYLE
  5
40
102
{ACAD_REACTORS
330
2A
102
}
102
{ACAD_XDICTIONARY
360
3C0
102
}
330
2A
100
AcDbVisualStyle
  2
X-Ray
 70
    25
 71
     2
 72
     2
 73
     1
 90
        1
 40
0.5
 41
30.0
 62
     5
 63
     7
 74
     1
 91
        0
 64
     7
 65
   257
 75
     1
175
     1
 42
1.0
 92
        8
 66
     7
 43
1.0
 76
     1
 77
     6
 78
     2
 67
     7
 79
     3
170
     0
171
     0
290
     0
174
     0
 93
       13
 44
0.0
173
     0
291
     0
 45
0.0
1001
ACAD
1000
AcDbSavedByObjectVersion
1070
     0
  0
DICTIONARYVAR
  5
394
102
{ACAD_REACTORS
330
387
102
}
330
387
100
DictionaryVariables
280
     0
  1
1:1
  0
DICTIONARYVAR
  5
38E
102
{ACAD_REACTORS
330
387
102
}
330
387
100
DictionaryVariables
280
     0
  1
3.500000
  0
DICTIONARYVAR
  5
38F
102
{ACAD_REACTORS
330
387
102
}
330
387
100
DictionaryVariables
280
     0
  1
acadiso.lin
  0
DICTIONARYVAR
  5
389
102
{ACAD_REACTORS
330
387
102
}
330
387
100
DictionaryVariables
280
     0
  1
Standard
  0
DICTIONARYVAR
  5
388
102
{ACAD_REACTORS
330
387
102
}
330
387
100
DictionaryVariables
280
     0
  1
Standard
  0
DICTIONARYVAR
  5
390
102
{ACAD_REACTORS
330
387
102
}
330
387
100
DictionaryVariables
280
     0
  1
2
  0
DICTIONARYVAR
  5
391
102
{ACAD_REACTORS
330
387
102
}
330
387
100
DictionaryVariables
280
     0
  1
1
  0
DICTIONARYVAR
  5
395
102
{ACAD_REACTORS
330
387
102
}
330
387
100
DictionaryVariables
280
     0
  1
1
  0
DICTIONARYVAR
  5
38B
102
{ACAD_REACTORS
330
387
102
}
330
387
100
DictionaryVariables
280
     0
  1
80.000000
  0
DICTIONARYVAR
  5
38A
102
{ACAD_REACTORS
330
387
102
}
330
387
100
DictionaryVariables
280
     0
  1
5.000000
  0
DICTIONARY
  5
3C8
330
45
100
AcDbDictionary
280
     1
281
     1
  3
ACAD_XREC_ROUNDTRIP
360
3C9
  0
DICTIONARY
  5
3C6
330
44
100
AcDbDictionary
280
     1
281
     1
  3
ACAD_XREC_ROUNDTRIP
360
3C7
  0
DICTIONARY
  5
3CA
330
46
100
AcDbDictionary
280
     1
281
     1
  3
ACAD_XREC_ROUNDTRIP
360
3CB
  0
DICTIONARY
  5
3CD
330
6C
100
AcDbDictionary
280
     1
281
     1
  3
ACAD_XREC_ROUNDTRIP
360
3CE
  0
DICTIONARY
  5
39E
330
2F
100
AcDbDictionary
280
     1
281
     1
  3
ACAD_XREC_ROUNDTRIP
360
39F
  0
DICTIONARY
  5
3A4
330
32
100
AcDbDictionary
280
     1
281
     1
  3
ACAD_XREC_ROUNDTRIP
360
3A5
  0
DICTIONARY
  5
3AC
330
36
100
AcDbDictionary
280
     1
281
     1
  3
ACAD_XREC_ROUNDTRIP
360
3AD
  0
DICTIONARY
  5
3B4
330
3A
100
AcDbDictionary
280
     1
281
     1
  3
ACAD_XREC_ROUNDTRIP
360
3B5
  0
DICTIONARY
  5
3A8
330
34
100
AcDbDictionary
280
     1
281
     1
  3
ACAD_XREC_ROUNDTRIP
360
3A9
  0
DICTIONARY
  5
3AA
330
35
100
AcDbDictionary
280
     1
281
     1
  3
ACAD_XREC_ROUNDTRIP
360
3AB
  0
DICTIONARY
  5
3BA
330
3D
100
AcDbDictionary
280
     1
281
     1
  3
ACAD_XREC_ROUNDTRIP
360
3BB
  0
DICTIONARY
  5
3B2
330
39
100
AcDbDictionary
280
     1
281
     1
  3
ACAD_XREC_ROUNDTRIP
360
3B3
  0
DICTIONARY
  5
396
330
2B
100
AcDbDictionary
280
     1
281
     1
  3
ACAD_XREC_ROUNDTRIP
360
397
  0
DICTIONARY
  5
398
330
2C
100
AcDbDictionary
280
     1
281
     1
  3
ACAD_XREC_ROUNDTRIP
360
399
  0
DICTIONARY
  5
39A
330
2D
100
AcDbDictionary
280
     1
281
     1
  3
ACAD_XREC_ROUNDTRIP
360
39B
  0
DICTIONARY
  5
39C
330
2E
100
AcDbDictionary
280
     1
281
     1
  3
ACAD_XREC_ROUNDTRIP
360
39D
  0
DICTIONARY
  5
3A2
330
31
100
AcDbDictionary
280
     1
281
     1
  3
ACAD_XREC_ROUNDTRIP
360
3A3
  0
DICTIONARY
  5
3B6
330
3B
100
AcDbDictionary
280
     1
281
     1
  3
ACAD_XREC_ROUNDTRIP
360
3B7
  0
DICTIONARY
  5
3B0
330
38
100
AcDbDictionary
280
     1
281
     1
  3
ACAD_XREC_ROUNDTRIP
360
3B1
  0
DICTIONARY
  5
3B8
330
3C
100
AcDbDictionary
280
     1
281
     1
  3
ACAD_XREC_ROUNDTRIP
360
3B9
  0
DICTIONARY
  5
3A6
330
33
100
AcDbDictionary
280
     1
281
     1
  3
ACAD_XREC_ROUNDTRIP
360
3A7
  0
DICTIONARY
  5
3C4
330
42
100
AcDbDictionary
280
     1
281
     1
  3
ACAD_XREC_ROUNDTRIP
360
3C5
  0
DICTIONARY
  5
3C2
330
41
100
AcDbDictionary
280
     1
281
     1
  3
ACAD_XREC_ROUNDTRIP
360
3C3
  0
DICTIONARY
  5
3BC
330
3E
100
AcDbDictionary
280
     1
281
     1
  3
ACAD_XREC_ROUNDTRIP
360
3BD
  0
DICTIONARY
  5
3BE
330
3F
100
AcDbDictionary
280
     1
281
     1
  3
ACAD_XREC_ROUNDTRIP
360
3BF
  0
DICTIONARY
  5
3AE
330
37
100
AcDbDictionary
280
     1
281
     1
  3
ACAD_XREC_ROUNDTRIP
360
3AF
  0
DICTIONARY
  5
3A0
330
30
100
AcDbDictionary
280
     1
281
     1
  3
ACAD_XREC_ROUNDTRIP
360
3A1
  0
DICTIONARY
  5
3C0
330
40
100
AcDbDictionary
280
     1
281
     1
  3
ACAD_XREC_ROUNDTRIP
360
3C1
  0
XRECORD
  5
3C9
102
{ACAD_REACTORS
330
3C8
102
}
330
3C8
100
AcDbXrecord
280
     1
102
MATERIAL
148
0.0
149
0.0
149
0.0
 93
        0
 94
      127
282
     0
 72
     1
 77
     1
171
     1
175
     1
179
     1
273
     0
  0
XRECORD
  5
3C7
102
{ACAD_REACTORS
330
3C6
102
}
330
3C6
100
AcDbXrecord
280
     1
102
MATERIAL
148
0.0
149
0.0
149
0.0
 93
        0
 94
      127
282
     0
 72
     1
 77
     1
171
     1
175
     1
179
     1
273
     0
  0
XRECORD
  5
3CB
102
{ACAD_REACTORS
330
3CA
102
}
330
3CA
100
AcDbXrecord
280
     1
102
MATERIAL
148
0.0
149
0.0
149
0.0
 93
        0
 94
      127
282
     0
 72
     1
 77
     1
171
     1
175
     1
179
     1
273
     0
  0
XRECORD
  5
3CE
102
{ACAD_REACTORS
330
3CD
102
}
330
3CD
100
AcDbXrecord
280
     1
102
ACAD_ROUNDTRIP_2010_MLEADER_STYLE
  0
XRECORD
  5
39F
102
{ACAD_REACTORS
330
39E
102
}
330
39E
100
AcDbXrecord
280
     1
102
RTVSPropertyOp0
 70
     1
102
RTVSPropertyOp1
 70
     1
102
RTVSPropertyOp2
 70
     1
102
RTVSPropertyOp3
 70
     1
102
RTVSPropertyOp4
 70
     1
102
RTVSPropertyOp5
 70
     1
102
RTVSPropertyOp6
 70
     1
102
RTVSPropertyOp7
 70
     1
102
RTVSPropertyOp8
 70
     1
102
RTVSPropertyOp9
 70
     1
102
RTVSPropertyOp10
 70
     1
102
RTVSPropertyOp11
 70
     1
102
RTVSPropertyOp12
 70
     1
102
RTVSPropertyOp13
 70
     1
102
RTVSPropertyOp14
 70
     1
102
RTVSPropertyOp15
 70
     1
102
RTVSPropertyOp16
 70
     1
102
RTVSPropertyOp17
 70
     1
102
RTVSPropertyOp18
 70
     1
102
RTVSPropertyOp19
 70
     1
102
RTVSPropertyOp20
 70
     1
102
RTVSPropertyOp21
 70
     1
102
RTVSPropertyOp22
 70
     1
102
RTVSPropertyOp23
 70
     1
102
RTVSPropertyOp24
 70
     1
102
RTVSPropertyOp25
 70
     1
102
RTVSPropertyOp26
 70
     1
102
RTVSPropertyOp27
 70
     1
102
RTVSPropertyOp28
 70
     1
102
RTVSPropertyOp29
 70
     1
102
RTVSPropertyOp30
 70
     1
102
RTVSPropertyOp31
 70
     1
102
RTVSPropertyOp32
 70
     1
102
RTVSPropertyOp33
 70
     1
102
RTVSPropertyOp34
 70
     1
102
RTVSPropertyOp35
 70
     1
102
RTVSPropertyOp36
 70
     1
102
RTVSPropertyOp37
 70
     1
102
RTVSPropertyOp38
 70
     1
102
RTVSPropertyOp39
 70
     1
102
RTVSPropertyOp40
 70
     1
102
RTVSPropertyOp41
 70
     1
102
RTVSPropertyOp42
 70
     1
102
RTVSPropertyOp43
 70
     1
102
RTVSPropertyOp44
 70
     1
102
RTVSPropertyOp45
 70
     1
102
RTVSPropertyOp46
 70
     1
102
RTVSPropertyOp47
 70
     1
102
RTVSPropertyOp48
 70
     1
102
RTVSPropertyOp49
 70
     1
102
RTVSPropertyOp50
 70
     1
102
RTVSPropertyOp51
 70
     0
102
RTVSPropertyOp52
 70
     0
102
RTVSPropertyOp53
 70
     1
102
RTVSPropertyOp54
 70
     1
102
RTVSPropertyOp55
 70
     1
102
RTVSPropertyOp56
 70
     1
102
RTVSPropertyOp57
 70
     1
102
RTVSPost2010Prop28
280
     1
102
RTVSPost2010PropOp28
 70
     1
102
RTVSPost2010Prop29
280
     1
102
RTVSPost2010PropOp29
 70
     1
102
RTVSPost2010Prop30
280
     0
102
RTVSPost2010PropOp30
 70
     1
102
RTVSPost2010Prop31
280
     0
102
RTVSPost2010PropOp31
 70
     1
102
RTVSPost2010Prop32
280
     0
102
RTVSPost2010PropOp32
 70
     1
102
RTVSPost2010Prop33
280
     0
102
RTVSPost2010PropOp33
 70
     1
102
RTVSPost2010Prop34
280
     0
102
RTVSPost2010PropOp34
 70
     1
102
RTVSPost2010Prop35
280
     0
102
RTVSPost2010PropOp35
 70
     1
102
RTVSPost2010Prop36
280
     0
102
RTVSPost2010PropOp36
 70
     1
102
RTVSPost2010Prop37
 90
       50
102
RTVSPost2010PropOp37
 70
     1
102
RTVSPost2010Prop38
140
0.0
102
RTVSPost2010PropOp38
 70
     1
102
RTVSPost2010Prop39
140
1.0
102
RTVSPost2010PropOp39
 70
     1
102
RTVSPost2010Prop40
 90
        0
102
RTVSPost2010PropOp40
 70
     1
102
RTVSPost2010Prop41ColorIndex
 90
       18
102
RTVSPost2010Prop41ColorRGB
 90
        0
102
RTVSPost2010PropOp41
 70
     1
102
RTVSPost2010Prop42
 90
       50
102
RTVSPost2010PropOp42
 70
     1
102
RTVSPost2010Prop43
 90
        3
102
RTVSPost2010PropOp43
 70
     1
102
RTVSPost2010Prop44ColorIndex
 90
        5
102
RTVSPost2010Prop44ColorRGB
 90
      255
102
RTVSPost2010PropOp44
 70
     1
102
RTVSPost2010Prop45
280
     0
102
RTVSPost2010PropOp45
 70
     1
102
RTVSPost2010Prop46
 90
       50
102
RTVSPost2010PropOp46
 70
     1
102
RTVSPost2010Prop47
 90
       50
102
RTVSPost2010PropOp47
 70
     1
102
RTVSPost2010Prop48
 90
       50
102
RTVSPost2010PropOp48
 70
     1
102
RTVSPost2010Prop49
280
     0
102
RTVSPost2010PropOp49
 70
     1
102
RTVSPost2010Prop50
 90
       50
102
RTVSPost2010PropOp50
 70
     1
102
RTVSPost2010Prop51ColorIndex
 90
      256
102
RTVSPost2010Prop51ColorRGB
 90
-16777216
102
RTVSPost2010PropOp51
 70
     0
102
RTVSPost2010Prop52
140
1.0
102
RTVSPost2010PropOp52
 70
     0
102
RTVSPost2010Prop53
 90
        2
102
RTVSPost2010PropOp53
 70
     1
102
RTVSPost2010Prop54
  1
strokes_ogs.tif
102
RTVSPost2010PropOp54
 70
     1
102
RTVSPost2010Prop55
280
     0
102
RTVSPost2010PropOp55
 70
     1
102
RTVSPost2010Prop56
140
1.0
102
RTVSPost2010PropOp56
 70
     1
102
RTVSPost2010Prop57
140
1.0
102
RTVSPost2010PropOp57
 70
     1
  0
XRECORD
  5
3A5
102
{ACAD_REACTORS
330
3A4
102
}
330
3A4
100
AcDbXrecord
280
     1
102
RTVSPropertyOp0
 70
     1
102
RTVSPropertyOp1
 70
     1
102
RTVSPropertyOp2
 70
     1
102
RTVSPropertyOp3
 70
     1
102
RTVSPropertyOp4
 70
     1
102
RTVSPropertyOp5
 70
     1
102
RTVSPropertyOp6
 70
     1
102
RTVSPropertyOp7
 70
     1
102
RTVSPropertyOp8
 70
     1
102
RTVSPropertyOp9
 70
     1
102
RTVSPropertyOp10
 70
     1
102
RTVSPropertyOp11
 70
     1
102
RTVSPropertyOp12
 70
     1
102
RTVSPropertyOp13
 70
     1
102
RTVSPropertyOp14
 70
     1
102
RTVSPropertyOp15
 70
     1
102
RTVSPropertyOp16
 70
     1
102
RTVSPropertyOp17
 70
     1
102
RTVSPropertyOp18
 70
     1
102
RTVSPropertyOp19
 70
     1
102
RTVSPropertyOp20
 70
     1
102
RTVSPropertyOp21
 70
     1
102
RTVSPropertyOp22
 70
     1
102
RTVSPropertyOp23
 70
     1
102
RTVSPropertyOp24
 70
     1
102
RTVSPropertyOp25
 70
     1
102
RTVSPropertyOp26
 70
     1
102
RTVSPropertyOp27
 70
     1
102
RTVSPropertyOp28
 70
     1
102
RTVSPropertyOp29
 70
     1
102
RTVSPropertyOp30
 70
     1
102
RTVSPropertyOp31
 70
     1
102
RTVSPropertyOp32
 70
     1
102
RTVSPropertyOp33
 70
     1
102
RTVSPropertyOp34
 70
     1
102
RTVSPropertyOp35
 70
     1
102
RTVSPropertyOp36
 70
     1
102
RTVSPropertyOp37
 70
     1
102
RTVSPropertyOp38
 70
     1
102
RTVSPropertyOp39
 70
     1
102
RTVSPropertyOp40
 70
     1
102
RTVSPropertyOp41
 70
     1
102
RTVSPropertyOp42
 70
     1
102
RTVSPropertyOp43
 70
     1
102
RTVSPropertyOp44
 70
     1
102
RTVSPropertyOp45
 70
     1
102
RTVSPropertyOp46
 70
     1
102
RTVSPropertyOp47
 70
     1
102
RTVSPropertyOp48
 70
     1
102
RTVSPropertyOp49
 70
     1
102
RTVSPropertyOp50
 70
     1
102
RTVSPropertyOp51
 70
     0
102
RTVSPropertyOp52
 70
     0
102
RTVSPropertyOp53
 70
     1
102
RTVSPropertyOp54
 70
     1
102
RTVSPropertyOp55
 70
     1
102
RTVSPropertyOp56
 70
     1
102
RTVSPropertyOp57
 70
     1
102
RTVSPost2010Prop28
280
     0
102
RTVSPost2010PropOp28
 70
     1
102
RTVSPost2010Prop29
280
     1
102
RTVSPost2010PropOp29
 70
     1
102
RTVSPost2010Prop30
280
     1
102
RTVSPost2010PropOp30
 70
     1
102
RTVSPost2010Prop31
280
     0
102
RTVSPost2010PropOp31
 70
     1
102
RTVSPost2010Prop32
280
     0
102
RTVSPost2010PropOp32
 70
     1
102
RTVSPost2010Prop33
280
     0
102
RTVSPost2010PropOp33
 70
     1
102
RTVSPost2010Prop34
280
     0
102
RTVSPost2010PropOp34
 70
     1
102
RTVSPost2010Prop35
280
     0
102
RTVSPost2010PropOp35
 70
     1
102
RTVSPost2010Prop36
280
     0
102
RTVSPost2010PropOp36
 70
     1
102
RTVSPost2010Prop37
 90
       50
102
RTVSPost2010PropOp37
 70
     1
102
RTVSPost2010Prop38
140
0.0
102
RTVSPost2010PropOp38
 70
     1
102
RTVSPost2010Prop39
140
1.0
102
RTVSPost2010PropOp39
 70
     1
102
RTVSPost2010Prop40
 90
        0
102
RTVSPost2010PropOp40
 70
     1
102
RTVSPost2010Prop41ColorIndex
 90
       18
102
RTVSPost2010Prop41ColorRGB
 90
        0
102
RTVSPost2010PropOp41
 70
     1
102
RTVSPost2010Prop42
 90
       50
102
RTVSPost2010PropOp42
 70
     1
102
RTVSPost2010Prop43
 90
        3
102
RTVSPost2010PropOp43
 70
     1
102
RTVSPost2010Prop44ColorIndex
 90
        5
102
RTVSPost2010Prop44ColorRGB
 90
      255
102
RTVSPost2010PropOp44
 70
     1
102
RTVSPost2010Prop45
280
     0
102
RTVSPost2010PropOp45
 70
     1
102
RTVSPost2010Prop46
 90
       50
102
RTVSPost2010PropOp46
 70
     1
102
RTVSPost2010Prop47
 90
       50
102
RTVSPost2010PropOp47
 70
     1
102
RTVSPost2010Prop48
 90
       50
102
RTVSPost2010PropOp48
 70
     1
102
RTVSPost2010Prop49
280
     0
102
RTVSPost2010PropOp49
 70
     1
102
RTVSPost2010Prop50
 90
       50
102
RTVSPost2010PropOp50
 70
     1
102
RTVSPost2010Prop51ColorIndex
 90
      256
102
RTVSPost2010Prop51ColorRGB
 90
-16777216
102
RTVSPost2010PropOp51
 70
     0
102
RTVSPost2010Prop52
140
1.0
102
RTVSPost2010PropOp52
 70
     0
102
RTVSPost2010Prop53
 90
        2
102
RTVSPost2010PropOp53
 70
     1
102
RTVSPost2010Prop54
  1
strokes_ogs.tif
102
RTVSPost2010PropOp54
 70
     1
102
RTVSPost2010Prop55
280
     0
102
RTVSPost2010PropOp55
 70
     1
102
RTVSPost2010Prop56
140
1.0
102
RTVSPost2010PropOp56
 70
     1
102
RTVSPost2010Prop57
140
1.0
102
RTVSPost2010PropOp57
 70
     1
  0
XRECORD
  5
3AD
102
{ACAD_REACTORS
330
3AC
102
}
330
3AC
100
AcDbXrecord
280
     1
102
RTVSPropertyOp0
 70
     1
102
RTVSPropertyOp1
 70
     1
102
RTVSPropertyOp2
 70
     1
102
RTVSPropertyOp3
 70
     1
102
RTVSPropertyOp4
 70
     1
102
RTVSPropertyOp5
 70
     1
102
RTVSPropertyOp6
 70
     1
102
RTVSPropertyOp7
 70
     1
102
RTVSPropertyOp8
 70
     1
102
RTVSPropertyOp9
 70
     1
102
RTVSPropertyOp10
 70
     1
102
RTVSPropertyOp11
 70
     1
102
RTVSPropertyOp12
 70
     1
102
RTVSPropertyOp13
 70
     1
102
RTVSPropertyOp14
 70
     1
102
RTVSPropertyOp15
 70
     1
102
RTVSPropertyOp16
 70
     1
102
RTVSPropertyOp17
 70
     1
102
RTVSPropertyOp18
 70
     1
102
RTVSPropertyOp19
 70
     1
102
RTVSPropertyOp20
 70
     1
102
RTVSPropertyOp21
 70
     1
102
RTVSPropertyOp22
 70
     1
102
RTVSPropertyOp23
 70
     1
102
RTVSPropertyOp24
 70
     1
102
RTVSPropertyOp25
 70
     1
102
RTVSPropertyOp26
 70
     1
102
RTVSPropertyOp27
 70
     1
102
RTVSPropertyOp28
 70
     1
102
RTVSPropertyOp29
 70
     1
102
RTVSPropertyOp30
 70
     1
102
RTVSPropertyOp31
 70
     1
102
RTVSPropertyOp32
 70
     1
102
RTVSPropertyOp33
 70
     1
102
RTVSPropertyOp34
 70
     1
102
RTVSPropertyOp35
 70
     1
102
RTVSPropertyOp36
 70
     1
102
RTVSPropertyOp37
 70
     1
102
RTVSPropertyOp38
 70
     1
102
RTVSPropertyOp39
 70
     1
102
RTVSPropertyOp40
 70
     1
102
RTVSPropertyOp41
 70
     1
102
RTVSPropertyOp42
 70
     1
102
RTVSPropertyOp43
 70
     1
102
RTVSPropertyOp44
 70
     1
102
RTVSPropertyOp45
 70
     1
102
RTVSPropertyOp46
 70
     1
102
RTVSPropertyOp47
 70
     1
102
RTVSPropertyOp48
 70
     1
102
RTVSPropertyOp49
 70
     1
102
RTVSPropertyOp50
 70
     1
102
RTVSPropertyOp51
 70
     0
102
RTVSPropertyOp52
 70
     0
102
RTVSPropertyOp53
 70
     1
102
RTVSPropertyOp54
 70
     1
102
RTVSPropertyOp55
 70
     1
102
RTVSPropertyOp56
 70
     1
102
RTVSPropertyOp57
 70
     1
102
RTVSPost2010Prop28
280
     0
102
RTVSPost2010PropOp28
 70
     1
102
RTVSPost2010Prop29
280
     1
102
RTVSPost2010PropOp29
 70
     1
102
RTVSPost2010Prop30
280
     1
102
RTVSPost2010PropOp30
 70
     1
102
RTVSPost2010Prop31
280
     0
102
RTVSPost2010PropOp31
 70
     1
102
RTVSPost2010Prop32
280
     0
102
RTVSPost2010PropOp32
 70
     1
102
RTVSPost2010Prop33
280
     0
102
RTVSPost2010PropOp33
 70
     1
102
RTVSPost2010Prop34
280
     0
102
RTVSPost2010PropOp34
 70
     1
102
RTVSPost2010Prop35
280
     0
102
RTVSPost2010PropOp35
 70
     1
102
RTVSPost2010Prop36
280
     0
102
RTVSPost2010PropOp36
 70
     1
102
RTVSPost2010Prop37
 90
       50
102
RTVSPost2010PropOp37
 70
     1
102
RTVSPost2010Prop38
140
0.0
102
RTVSPost2010PropOp38
 70
     1
102
RTVSPost2010Prop39
140
1.0
102
RTVSPost2010PropOp39
 70
     1
102
RTVSPost2010Prop40
 90
        0
102
RTVSPost2010PropOp40
 70
     1
102
RTVSPost2010Prop41ColorIndex
 90
       18
102
RTVSPost2010Prop41ColorRGB
 90
        0
102
RTVSPost2010PropOp41
 70
     1
102
RTVSPost2010Prop42
 90
       50
102
RTVSPost2010PropOp42
 70
     1
102
RTVSPost2010Prop43
 90
        3
102
RTVSPost2010PropOp43
 70
     1
102
RTVSPost2010Prop44ColorIndex
 90
        5
102
RTVSPost2010Prop44ColorRGB
 90
      255
102
RTVSPost2010PropOp44
 70
     1
102
RTVSPost2010Prop45
280
     0
102
RTVSPost2010PropOp45
 70
     1
102
RTVSPost2010Prop46
 90
       50
102
RTVSPost2010PropOp46
 70
     1
102
RTVSPost2010Prop47
 90
       50
102
RTVSPost2010PropOp47
 70
     1
102
RTVSPost2010Prop48
 90
       50
102
RTVSPost2010PropOp48
 70
     1
102
RTVSPost2010Prop49
280
     0
102
RTVSPost2010PropOp49
 70
     1
102
RTVSPost2010Prop50
 90
       50
102
RTVSPost2010PropOp50
 70
     1
102
RTVSPost2010Prop51ColorIndex
 90
      256
102
RTVSPost2010Prop51ColorRGB
 90
-16777216
102
RTVSPost2010PropOp51
 70
     0
102
RTVSPost2010Prop52
140
1.0
102
RTVSPost2010PropOp52
 70
     0
102
RTVSPost2010Prop53
 90
        2
102
RTVSPost2010PropOp53
 70
     1
102
RTVSPost2010Prop54
  1
strokes_ogs.tif
102
RTVSPost2010PropOp54
 70
     1
102
RTVSPost2010Prop55
280
     0
102
RTVSPost2010PropOp55
 70
     1
102
RTVSPost2010Prop56
140
1.0
102
RTVSPost2010PropOp56
 70
     1
102
RTVSPost2010Prop57
140
1.0
102
RTVSPost2010PropOp57
 70
     1
  0
XRECORD
  5
3B5
102
{ACAD_REACTORS
330
3B4
102
}
330
3B4
100
AcDbXrecord
280
     1
102
RTVSPropertyOp0
 70
     1
102
RTVSPropertyOp1
 70
     1
102
RTVSPropertyOp2
 70
     1
102
RTVSPropertyOp3
 70
     1
102
RTVSPropertyOp4
 70
     1
102
RTVSPropertyOp5
 70
     1
102
RTVSPropertyOp6
 70
     1
102
RTVSPropertyOp7
 70
     1
102
RTVSPropertyOp8
 70
     1
102
RTVSPropertyOp9
 70
     1
102
RTVSPropertyOp10
 70
     1
102
RTVSPropertyOp11
 70
     1
102
RTVSPropertyOp12
 70
     1
102
RTVSPropertyOp13
 70
     1
102
RTVSPropertyOp14
 70
     1
102
RTVSPropertyOp15
 70
     1
102
RTVSPropertyOp16
 70
     1
102
RTVSPropertyOp17
 70
     1
102
RTVSPropertyOp18
 70
     1
102
RTVSPropertyOp19
 70
     1
102
RTVSPropertyOp20
 70
     1
102
RTVSPropertyOp21
 70
     1
102
RTVSPropertyOp22
 70
     1
102
RTVSPropertyOp23
 70
     1
102
RTVSPropertyOp24
 70
     1
102
RTVSPropertyOp25
 70
     1
102
RTVSPropertyOp26
 70
     1
102
RTVSPropertyOp27
 70
     1
102
RTVSPropertyOp28
 70
     1
102
RTVSPropertyOp29
 70
     1
102
RTVSPropertyOp30
 70
     1
102
RTVSPropertyOp31
 70
     1
102
RTVSPropertyOp32
 70
     1
102
RTVSPropertyOp33
 70
     1
102
RTVSPropertyOp34
 70
     1
102
RTVSPropertyOp35
 70
     1
102
RTVSPropertyOp36
 70
     1
102
RTVSPropertyOp37
 70
     1
102
RTVSPropertyOp38
 70
     1
102
RTVSPropertyOp39
 70
     1
102
RTVSPropertyOp40
 70
     1
102
RTVSPropertyOp41
 70
     1
102
RTVSPropertyOp42
 70
     1
102
RTVSPropertyOp43
 70
     1
102
RTVSPropertyOp44
 70
     1
102
RTVSPropertyOp45
 70
     1
102
RTVSPropertyOp46
 70
     1
102
RTVSPropertyOp47
 70
     1
102
RTVSPropertyOp48
 70
     1
102
RTVSPropertyOp49
 70
     1
102
RTVSPropertyOp50
 70
     1
102
RTVSPropertyOp51
 70
     0
102
RTVSPropertyOp52
 70
     0
102
RTVSPropertyOp53
 70
     1
102
RTVSPropertyOp54
 70
     1
102
RTVSPropertyOp55
 70
     1
102
RTVSPropertyOp56
 70
     1
102
RTVSPropertyOp57
 70
     1
102
RTVSPost2010Prop28
280
     0
102
RTVSPost2010PropOp28
 70
     1
102
RTVSPost2010Prop29
280
     1
102
RTVSPost2010PropOp29
 70
     1
102
RTVSPost2010Prop30
280
     1
102
RTVSPost2010PropOp30
 70
     1
102
RTVSPost2010Prop31
280
     0
102
RTVSPost2010PropOp31
 70
     1
102
RTVSPost2010Prop32
280
     0
102
RTVSPost2010PropOp32
 70
     1
102
RTVSPost2010Prop33
280
     0
102
RTVSPost2010PropOp33
 70
     1
102
RTVSPost2010Prop34
280
     0
102
RTVSPost2010PropOp34
 70
     1
102
RTVSPost2010Prop35
280
     0
102
RTVSPost2010PropOp35
 70
     1
102
RTVSPost2010Prop36
280
     0
102
RTVSPost2010PropOp36
 70
     1
102
RTVSPost2010Prop37
 90
       50
102
RTVSPost2010PropOp37
 70
     1
102
RTVSPost2010Prop38
140
0.0
102
RTVSPost2010PropOp38
 70
     1
102
RTVSPost2010Prop39
140
1.0
102
RTVSPost2010PropOp39
 70
     1
102
RTVSPost2010Prop40
 90
        0
102
RTVSPost2010PropOp40
 70
     1
102
RTVSPost2010Prop41ColorIndex
 90
       18
102
RTVSPost2010Prop41ColorRGB
 90
        0
102
RTVSPost2010PropOp41
 70
     1
102
RTVSPost2010Prop42
 90
       50
102
RTVSPost2010PropOp42
 70
     1
102
RTVSPost2010Prop43
 90
        3
102
RTVSPost2010PropOp43
 70
     1
102
RTVSPost2010Prop44ColorIndex
 90
        5
102
RTVSPost2010Prop44ColorRGB
 90
      255
102
RTVSPost2010PropOp44
 70
     1
102
RTVSPost2010Prop45
280
     0
102
RTVSPost2010PropOp45
 70
     1
102
RTVSPost2010Prop46
 90
       50
102
RTVSPost2010PropOp46
 70
     1
102
RTVSPost2010Prop47
 90
       50
102
RTVSPost2010PropOp47
 70
     1
102
RTVSPost2010Prop48
 90
       50
102
RTVSPost2010PropOp48
 70
     1
102
RTVSPost2010Prop49
280
     0
102
RTVSPost2010PropOp49
 70
     1
102
RTVSPost2010Prop50
 90
       50
102
RTVSPost2010PropOp50
 70
     1
102
RTVSPost2010Prop51ColorIndex
 90
      256
102
RTVSPost2010Prop51ColorRGB
 90
-16777216
102
RTVSPost2010PropOp51
 70
     0
102
RTVSPost2010Prop52
140
1.0
102
RTVSPost2010PropOp52
 70
     0
102
RTVSPost2010Prop53
 90
        2
102
RTVSPost2010PropOp53
 70
     1
102
RTVSPost2010Prop54
  1
strokes_ogs.tif
102
RTVSPost2010PropOp54
 70
     1
102
RTVSPost2010Prop55
280
     0
102
RTVSPost2010PropOp55
 70
     1
102
RTVSPost2010Prop56
140
1.0
102
RTVSPost2010PropOp56
 70
     1
102
RTVSPost2010Prop57
140
1.0
102
RTVSPost2010PropOp57
 70
     1
  0
XRECORD
  5
3A9
102
{ACAD_REACTORS
330
3A8
102
}
330
3A8
100
AcDbXrecord
280
     1
102
RTVSPropertyOp0
 70
     1
102
RTVSPropertyOp1
 70
     1
102
RTVSPropertyOp2
 70
     1
102
RTVSPropertyOp3
 70
     1
102
RTVSPropertyOp4
 70
     1
102
RTVSPropertyOp5
 70
     1
102
RTVSPropertyOp6
 70
     1
102
RTVSPropertyOp7
 70
     1
102
RTVSPropertyOp8
 70
     1
102
RTVSPropertyOp9
 70
     1
102
RTVSPropertyOp10
 70
     1
102
RTVSPropertyOp11
 70
     1
102
RTVSPropertyOp12
 70
     1
102
RTVSPropertyOp13
 70
     1
102
RTVSPropertyOp14
 70
     1
102
RTVSPropertyOp15
 70
     1
102
RTVSPropertyOp16
 70
     1
102
RTVSPropertyOp17
 70
     1
102
RTVSPropertyOp18
 70
     1
102
RTVSPropertyOp19
 70
     1
102
RTVSPropertyOp20
 70
     1
102
RTVSPropertyOp21
 70
     1
102
RTVSPropertyOp22
 70
     1
102
RTVSPropertyOp23
 70
     1
102
RTVSPropertyOp24
 70
     1
102
RTVSPropertyOp25
 70
     1
102
RTVSPropertyOp26
 70
     1
102
RTVSPropertyOp27
 70
     1
102
RTVSPropertyOp28
 70
     1
102
RTVSPropertyOp29
 70
     1
102
RTVSPropertyOp30
 70
     1
102
RTVSPropertyOp31
 70
     1
102
RTVSPropertyOp32
 70
     1
102
RTVSPropertyOp33
 70
     1
102
RTVSPropertyOp34
 70
     1
102
RTVSPropertyOp35
 70
     1
102
RTVSPropertyOp36
 70
     1
102
RTVSPropertyOp37
 70
     1
102
RTVSPropertyOp38
 70
     1
102
RTVSPropertyOp39
 70
     1
102
RTVSPropertyOp40
 70
     1
102
RTVSPropertyOp41
 70
     1
102
RTVSPropertyOp42
 70
     1
102
RTVSPropertyOp43
 70
     1
102
RTVSPropertyOp44
 70
     1
102
RTVSPropertyOp45
 70
     1
102
RTVSPropertyOp46
 70
     1
102
RTVSPropertyOp47
 70
     1
102
RTVSPropertyOp48
 70
     1
102
RTVSPropertyOp49
 70
     1
102
RTVSPropertyOp50
 70
     1
102
RTVSPropertyOp51
 70
     0
102
RTVSPropertyOp52
 70
     0
102
RTVSPropertyOp53
 70
     1
102
RTVSPropertyOp54
 70
     1
102
RTVSPropertyOp55
 70
     1
102
RTVSPropertyOp56
 70
     1
102
RTVSPropertyOp57
 70
     1
102
RTVSPost2010Prop28
280
     0
102
RTVSPost2010PropOp28
 70
     1
102
RTVSPost2010Prop29
280
     1
102
RTVSPost2010PropOp29
 70
     1
102
RTVSPost2010Prop30
280
     1
102
RTVSPost2010PropOp30
 70
     1
102
RTVSPost2010Prop31
280
     0
102
RTVSPost2010PropOp31
 70
     1
102
RTVSPost2010Prop32
280
     0
102
RTVSPost2010PropOp32
 70
     1
102
RTVSPost2010Prop33
280
     0
102
RTVSPost2010PropOp33
 70
     1
102
RTVSPost2010Prop34
280
     0
102
RTVSPost2010PropOp34
 70
     1
102
RTVSPost2010Prop35
280
     0
102
RTVSPost2010PropOp35
 70
     1
102
RTVSPost2010Prop36
280
     0
102
RTVSPost2010PropOp36
 70
     1
102
RTVSPost2010Prop37
 90
       50
102
RTVSPost2010PropOp37
 70
     1
102
RTVSPost2010Prop38
140
0.0
102
RTVSPost2010PropOp38
 70
     1
102
RTVSPost2010Prop39
140
1.0
102
RTVSPost2010PropOp39
 70
     1
102
RTVSPost2010Prop40
 90
        0
102
RTVSPost2010PropOp40
 70
     1
102
RTVSPost2010Prop41ColorIndex
 90
       18
102
RTVSPost2010Prop41ColorRGB
 90
        0
102
RTVSPost2010PropOp41
 70
     1
102
RTVSPost2010Prop42
 90
       50
102
RTVSPost2010PropOp42
 70
     1
102
RTVSPost2010Prop43
 90
        3
102
RTVSPost2010PropOp43
 70
     1
102
RTVSPost2010Prop44ColorIndex
 90
        5
102
RTVSPost2010Prop44ColorRGB
 90
      255
102
RTVSPost2010PropOp44
 70
     1
102
RTVSPost2010Prop45
280
     0
102
RTVSPost2010PropOp45
 70
     1
102
RTVSPost2010Prop46
 90
       50
102
RTVSPost2010PropOp46
 70
     1
102
RTVSPost2010Prop47
 90
       50
102
RTVSPost2010PropOp47
 70
     1
102
RTVSPost2010Prop48
 90
       50
102
RTVSPost2010PropOp48
 70
     1
102
RTVSPost2010Prop49
280
     0
102
RTVSPost2010PropOp49
 70
     1
102
RTVSPost2010Prop50
 90
       50
102
RTVSPost2010PropOp50
 70
     1
102
RTVSPost2010Prop51ColorIndex
 90
      256
102
RTVSPost2010Prop51ColorRGB
 90
-16777216
102
RTVSPost2010PropOp51
 70
     0
102
RTVSPost2010Prop52
140
1.0
102
RTVSPost2010PropOp52
 70
     0
102
RTVSPost2010Prop53
 90
        2
102
RTVSPost2010PropOp53
 70
     1
102
RTVSPost2010Prop54
  1
strokes_ogs.tif
102
RTVSPost2010PropOp54
 70
     1
102
RTVSPost2010Prop55
280
     0
102
RTVSPost2010PropOp55
 70
     1
102
RTVSPost2010Prop56
140
1.0
102
RTVSPost2010PropOp56
 70
     1
102
RTVSPost2010Prop57
140
1.0
102
RTVSPost2010PropOp57
 70
     1
  0
XRECORD
  5
3AB
102
{ACAD_REACTORS
330
3AA
102
}
330
3AA
100
AcDbXrecord
280
     1
102
RTVSPropertyOp0
 70
     1
102
RTVSPropertyOp1
 70
     1
102
RTVSPropertyOp2
 70
     1
102
RTVSPropertyOp3
 70
     1
102
RTVSPropertyOp4
 70
     1
102
RTVSPropertyOp5
 70
     1
102
RTVSPropertyOp6
 70
     1
102
RTVSPropertyOp7
 70
     1
102
RTVSPropertyOp8
 70
     1
102
RTVSPropertyOp9
 70
     1
102
RTVSPropertyOp10
 70
     1
102
RTVSPropertyOp11
 70
     1
102
RTVSPropertyOp12
 70
     1
102
RTVSPropertyOp13
 70
     1
102
RTVSPropertyOp14
 70
     1
102
RTVSPropertyOp15
 70
     1
102
RTVSPropertyOp16
 70
     1
102
RTVSPropertyOp17
 70
     1
102
RTVSPropertyOp18
 70
     1
102
RTVSPropertyOp19
 70
     1
102
RTVSPropertyOp20
 70
     1
102
RTVSPropertyOp21
 70
     1
102
RTVSPropertyOp22
 70
     1
102
RTVSPropertyOp23
 70
     1
102
RTVSPropertyOp24
 70
     1
102
RTVSPropertyOp25
 70
     1
102
RTVSPropertyOp26
 70
     1
102
RTVSPropertyOp27
 70
     1
102
RTVSPropertyOp28
 70
     1
102
RTVSPropertyOp29
 70
     1
102
RTVSPropertyOp30
 70
     1
102
RTVSPropertyOp31
 70
     1
102
RTVSPropertyOp32
 70
     1
102
RTVSPropertyOp33
 70
     1
102
RTVSPropertyOp34
 70
     1
102
RTVSPropertyOp35
 70
     1
102
RTVSPropertyOp36
 70
     1
102
RTVSPropertyOp37
 70
     1
102
RTVSPropertyOp38
 70
     1
102
RTVSPropertyOp39
 70
     1
102
RTVSPropertyOp40
 70
     1
102
RTVSPropertyOp41
 70
     1
102
RTVSPropertyOp42
 70
     1
102
RTVSPropertyOp43
 70
     1
102
RTVSPropertyOp44
 70
     1
102
RTVSPropertyOp45
 70
     1
102
RTVSPropertyOp46
 70
     1
102
RTVSPropertyOp47
 70
     1
102
RTVSPropertyOp48
 70
     1
102
RTVSPropertyOp49
 70
     1
102
RTVSPropertyOp50
 70
     1
102
RTVSPropertyOp51
 70
     0
102
RTVSPropertyOp52
 70
     0
102
RTVSPropertyOp53
 70
     1
102
RTVSPropertyOp54
 70
     1
102
RTVSPropertyOp55
 70
     1
102
RTVSPropertyOp56
 70
     1
102
RTVSPropertyOp57
 70
     1
102
RTVSPost2010Prop28
280
     0
102
RTVSPost2010PropOp28
 70
     1
102
RTVSPost2010Prop29
280
     1
102
RTVSPost2010PropOp29
 70
     1
102
RTVSPost2010Prop30
280
     1
102
RTVSPost2010PropOp30
 70
     1
102
RTVSPost2010Prop31
280
     0
102
RTVSPost2010PropOp31
 70
     1
102
RTVSPost2010Prop32
280
     0
102
RTVSPost2010PropOp32
 70
     1
102
RTVSPost2010Prop33
280
     0
102
RTVSPost2010PropOp33
 70
     1
102
RTVSPost2010Prop34
280
     0
102
RTVSPost2010PropOp34
 70
     1
102
RTVSPost2010Prop35
280
     0
102
RTVSPost2010PropOp35
 70
     1
102
RTVSPost2010Prop36
280
     0
102
RTVSPost2010PropOp36
 70
     1
102
RTVSPost2010Prop37
 90
       50
102
RTVSPost2010PropOp37
 70
     1
102
RTVSPost2010Prop38
140
0.0
102
RTVSPost2010PropOp38
 70
     1
102
RTVSPost2010Prop39
140
1.0
102
RTVSPost2010PropOp39
 70
     1
102
RTVSPost2010Prop40
 90
        0
102
RTVSPost2010PropOp40
 70
     1
102
RTVSPost2010Prop41ColorIndex
 90
       18
102
RTVSPost2010Prop41ColorRGB
 90
        0
102
RTVSPost2010PropOp41
 70
     1
102
RTVSPost2010Prop42
 90
       50
102
RTVSPost2010PropOp42
 70
     1
102
RTVSPost2010Prop43
 90
        3
102
RTVSPost2010PropOp43
 70
     1
102
RTVSPost2010Prop44ColorIndex
 90
        5
102
RTVSPost2010Prop44ColorRGB
 90
      255
102
RTVSPost2010PropOp44
 70
     1
102
RTVSPost2010Prop45
280
     0
102
RTVSPost2010PropOp45
 70
     1
102
RTVSPost2010Prop46
 90
       50
102
RTVSPost2010PropOp46
 70
     1
102
RTVSPost2010Prop47
 90
       50
102
RTVSPost2010PropOp47
 70
     1
102
RTVSPost2010Prop48
 90
       50
102
RTVSPost2010PropOp48
 70
     1
102
RTVSPost2010Prop49
280
     0
102
RTVSPost2010PropOp49
 70
     1
102
RTVSPost2010Prop50
 90
       50
102
RTVSPost2010PropOp50
 70
     1
102
RTVSPost2010Prop51ColorIndex
 90
      256
102
RTVSPost2010Prop51ColorRGB
 90
-16777216
102
RTVSPost2010PropOp51
 70
     0
102
RTVSPost2010Prop52
140
1.0
102
RTVSPost2010PropOp52
 70
     0
102
RTVSPost2010Prop53
 90
        2
102
RTVSPost2010PropOp53
 70
     1
102
RTVSPost2010Prop54
  1
strokes_ogs.tif
102
RTVSPost2010PropOp54
 70
     1
102
RTVSPost2010Prop55
280
     0
102
RTVSPost2010PropOp55
 70
     1
102
RTVSPost2010Prop56
140
1.0
102
RTVSPost2010PropOp56
 70
     1
102
RTVSPost2010Prop57
140
1.0
102
RTVSPost2010PropOp57
 70
     1
  0
XRECORD
  5
3BB
102
{ACAD_REACTORS
330
3BA
102
}
330
3BA
100
AcDbXrecord
280
     1
102
RTVSPropertyOp0
 70
     0
102
RTVSPropertyOp1
 70
     0
102
RTVSPropertyOp2
 70
     0
102
RTVSPropertyOp3
 70
     0
102
RTVSPropertyOp4
 70
     0
102
RTVSPropertyOp5
 70
     0
102
RTVSPropertyOp6
 70
     0
102
RTVSPropertyOp7
 70
     0
102
RTVSPropertyOp8
 70
     0
102
RTVSPropertyOp9
 70
     0
102
RTVSPropertyOp10
 70
     0
102
RTVSPropertyOp11
 70
     0
102
RTVSPropertyOp12
 70
     0
102
RTVSPropertyOp13
 70
     0
102
RTVSPropertyOp14
 70
     2
102
RTVSPropertyOp15
 70
     0
102
RTVSPropertyOp16
 70
     0
102
RTVSPropertyOp17
 70
     0
102
RTVSPropertyOp18
 70
     0
102
RTVSPropertyOp19
 70
     0
102
RTVSPropertyOp20
 70
     0
102
RTVSPropertyOp21
 70
     0
102
RTVSPropertyOp22
 70
     0
102
RTVSPropertyOp23
 70
     0
102
RTVSPropertyOp24
 70
     0
102
RTVSPropertyOp25
 70
     0
102
RTVSPropertyOp26
 70
     0
102
RTVSPropertyOp27
 70
     0
102
RTVSPropertyOp28
 70
     0
102
RTVSPropertyOp29
 70
     0
102
RTVSPropertyOp30
 70
     0
102
RTVSPropertyOp31
 70
     0
102
RTVSPropertyOp32
 70
     0
102
RTVSPropertyOp33
 70
     0
102
RTVSPropertyOp34
 70
     0
102
RTVSPropertyOp35
 70
     0
102
RTVSPropertyOp36
 70
     0
102
RTVSPropertyOp37
 70
     0
102
RTVSPropertyOp38
 70
     0
102
RTVSPropertyOp39
 70
     0
102
RTVSPropertyOp40
 70
     0
102
RTVSPropertyOp41
 70
     0
102
RTVSPropertyOp42
 70
     0
102
RTVSPropertyOp43
 70
     0
102
RTVSPropertyOp44
 70
     0
102
RTVSPropertyOp45
 70
     0
102
RTVSPropertyOp46
 70
     0
102
RTVSPropertyOp47
 70
     0
102
RTVSPropertyOp48
 70
     0
102
RTVSPropertyOp49
 70
     0
102
RTVSPropertyOp50
 70
     0
102
RTVSPropertyOp51
 70
     0
102
RTVSPropertyOp52
 70
     0
102
RTVSPropertyOp53
 70
     0
102
RTVSPropertyOp54
 70
     0
102
RTVSPropertyOp55
 70
     0
102
RTVSPropertyOp56
 70
     0
102
RTVSPropertyOp57
 70
     0
102
RTVSPost2010Prop28
280
     0
102
RTVSPost2010PropOp28
 70
     0
102
RTVSPost2010Prop29
280
     1
102
RTVSPost2010PropOp29
 70
     0
102
RTVSPost2010Prop30
280
     1
102
RTVSPost2010PropOp30
 70
     0
102
RTVSPost2010Prop31
280
     0
102
RTVSPost2010PropOp31
 70
     0
102
RTVSPost2010Prop32
280
     0
102
RTVSPost2010PropOp32
 70
     0
102
RTVSPost2010Prop33
280
     0
102
RTVSPost2010PropOp33
 70
     0
102
RTVSPost2010Prop34
280
     0
102
RTVSPost2010PropOp34
 70
     0
102
RTVSPost2010Prop35
280
     0
102
RTVSPost2010PropOp35
 70
     0
102
RTVSPost2010Prop36
280
     0
102
RTVSPost2010PropOp36
 70
     0
102
RTVSPost2010Prop37
 90
       50
102
RTVSPost2010PropOp37
 70
     0
102
RTVSPost2010Prop38
140
0.0
102
RTVSPost2010PropOp38
 70
     0
102
RTVSPost2010Prop39
140
1.0
102
RTVSPost2010PropOp39
 70
     0
102
RTVSPost2010Prop40
 90
        0
102
RTVSPost2010PropOp40
 70
     0
102
RTVSPost2010Prop41ColorIndex
 90
       18
102
RTVSPost2010Prop41ColorRGB
 90
        0
102
RTVSPost2010PropOp41
 70
     0
102
RTVSPost2010Prop42
 90
       50
102
RTVSPost2010PropOp42
 70
     0
102
RTVSPost2010Prop43
 90
        3
102
RTVSPost2010PropOp43
 70
     0
102
RTVSPost2010Prop44ColorIndex
 90
        5
102
RTVSPost2010Prop44ColorRGB
 90
      255
102
RTVSPost2010PropOp44
 70
     0
102
RTVSPost2010Prop45
280
     0
102
RTVSPost2010PropOp45
 70
     0
102
RTVSPost2010Prop46
 90
       50
102
RTVSPost2010PropOp46
 70
     0
102
RTVSPost2010Prop47
 90
       50
102
RTVSPost2010PropOp47
 70
     0
102
RTVSPost2010Prop48
 90
       50
102
RTVSPost2010PropOp48
 70
     0
102
RTVSPost2010Prop49
280
     0
102
RTVSPost2010PropOp49
 70
     0
102
RTVSPost2010Prop50
 90
       50
102
RTVSPost2010PropOp50
 70
     0
102
RTVSPost2010Prop51ColorIndex
 90
      256
102
RTVSPost2010Prop51ColorRGB
 90
-16777216
102
RTVSPost2010PropOp51
 70
     0
102
RTVSPost2010Prop52
140
1.0
102
RTVSPost2010PropOp52
 70
     0
102
RTVSPost2010Prop53
 90
        2
102
RTVSPost2010PropOp53
 70
     0
102
RTVSPost2010Prop54
  1
strokes_ogs.tif
102
RTVSPost2010PropOp54
 70
     0
102
RTVSPost2010Prop55
280
     0
102
RTVSPost2010PropOp55
 70
     0
102
RTVSPost2010Prop56
140
1.0
102
RTVSPost2010PropOp56
 70
     0
102
RTVSPost2010Prop57
140
1.0
102
RTVSPost2010PropOp57
 70
     0
  0
XRECORD
  5
3B3
102
{ACAD_REACTORS
330
3B2
102
}
330
3B2
100
AcDbXrecord
280
     1
102
RTVSPropertyOp0
 70
     1
102
RTVSPropertyOp1
 70
     1
102
RTVSPropertyOp2
 70
     1
102
RTVSPropertyOp3
 70
     1
102
RTVSPropertyOp4
 70
     1
102
RTVSPropertyOp5
 70
     1
102
RTVSPropertyOp6
 70
     1
102
RTVSPropertyOp7
 70
     1
102
RTVSPropertyOp8
 70
     1
102
RTVSPropertyOp9
 70
     1
102
RTVSPropertyOp10
 70
     1
102
RTVSPropertyOp11
 70
     1
102
RTVSPropertyOp12
 70
     1
102
RTVSPropertyOp13
 70
     1
102
RTVSPropertyOp14
 70
     1
102
RTVSPropertyOp15
 70
     1
102
RTVSPropertyOp16
 70
     1
102
RTVSPropertyOp17
 70
     1
102
RTVSPropertyOp18
 70
     1
102
RTVSPropertyOp19
 70
     1
102
RTVSPropertyOp20
 70
     1
102
RTVSPropertyOp21
 70
     1
102
RTVSPropertyOp22
 70
     1
102
RTVSPropertyOp23
 70
     1
102
RTVSPropertyOp24
 70
     1
102
RTVSPropertyOp25
 70
     1
102
RTVSPropertyOp26
 70
     1
102
RTVSPropertyOp27
 70
     1
102
RTVSPropertyOp28
 70
     1
102
RTVSPropertyOp29
 70
     1
102
RTVSPropertyOp30
 70
     1
102
RTVSPropertyOp31
 70
     1
102
RTVSPropertyOp32
 70
     1
102
RTVSPropertyOp33
 70
     1
102
RTVSPropertyOp34
 70
     1
102
RTVSPropertyOp35
 70
     1
102
RTVSPropertyOp36
 70
     1
102
RTVSPropertyOp37
 70
     1
102
RTVSPropertyOp38
 70
     1
102
RTVSPropertyOp39
 70
     1
102
RTVSPropertyOp40
 70
     1
102
RTVSPropertyOp41
 70
     1
102
RTVSPropertyOp42
 70
     1
102
RTVSPropertyOp43
 70
     1
102
RTVSPropertyOp44
 70
     1
102
RTVSPropertyOp45
 70
     1
102
RTVSPropertyOp46
 70
     1
102
RTVSPropertyOp47
 70
     1
102
RTVSPropertyOp48
 70
     1
102
RTVSPropertyOp49
 70
     1
102
RTVSPropertyOp50
 70
     1
102
RTVSPropertyOp51
 70
     0
102
RTVSPropertyOp52
 70
     0
102
RTVSPropertyOp53
 70
     1
102
RTVSPropertyOp54
 70
     1
102
RTVSPropertyOp55
 70
     1
102
RTVSPropertyOp56
 70
     1
102
RTVSPropertyOp57
 70
     1
102
RTVSPost2010Prop28
280
     0
102
RTVSPost2010PropOp28
 70
     1
102
RTVSPost2010Prop29
280
     1
102
RTVSPost2010PropOp29
 70
     1
102
RTVSPost2010Prop30
280
     1
102
RTVSPost2010PropOp30
 70
     1
102
RTVSPost2010Prop31
280
     0
102
RTVSPost2010PropOp31
 70
     1
102
RTVSPost2010Prop32
280
     0
102
RTVSPost2010PropOp32
 70
     1
102
RTVSPost2010Prop33
280
     0
102
RTVSPost2010PropOp33
 70
     1
102
RTVSPost2010Prop34
280
     0
102
RTVSPost2010PropOp34
 70
     1
102
RTVSPost2010Prop35
280
     0
102
RTVSPost2010PropOp35
 70
     1
102
RTVSPost2010Prop36
280
     0
102
RTVSPost2010PropOp36
 70
     1
102
RTVSPost2010Prop37
 90
       50
102
RTVSPost2010PropOp37
 70
     1
102
RTVSPost2010Prop38
140
0.0
102
RTVSPost2010PropOp38
 70
     1
102
RTVSPost2010Prop39
140
1.0
102
RTVSPost2010PropOp39
 70
     1
102
RTVSPost2010Prop40
 90
        0
102
RTVSPost2010PropOp40
 70
     1
102
RTVSPost2010Prop41ColorIndex
 90
       18
102
RTVSPost2010Prop41ColorRGB
 90
        0
102
RTVSPost2010PropOp41
 70
     1
102
RTVSPost2010Prop42
 90
       50
102
RTVSPost2010PropOp42
 70
     1
102
RTVSPost2010Prop43
 90
        3
102
RTVSPost2010PropOp43
 70
     1
102
RTVSPost2010Prop44ColorIndex
 90
        5
102
RTVSPost2010Prop44ColorRGB
 90
      255
102
RTVSPost2010PropOp44
 70
     1
102
RTVSPost2010Prop45
280
     0
102
RTVSPost2010PropOp45
 70
     1
102
RTVSPost2010Prop46
 90
       50
102
RTVSPost2010PropOp46
 70
     1
102
RTVSPost2010Prop47
 90
       50
102
RTVSPost2010PropOp47
 70
     1
102
RTVSPost2010Prop48
 90
       50
102
RTVSPost2010PropOp48
 70
     1
102
RTVSPost2010Prop49
280
     0
102
RTVSPost2010PropOp49
 70
     1
102
RTVSPost2010Prop50
 90
       50
102
RTVSPost2010PropOp50
 70
     1
102
RTVSPost2010Prop51ColorIndex
 90
      256
102
RTVSPost2010Prop51ColorRGB
 90
-16777216
102
RTVSPost2010PropOp51
 70
     0
102
RTVSPost2010Prop52
140
1.0
102
RTVSPost2010PropOp52
 70
     0
102
RTVSPost2010Prop53
 90
        2
102
RTVSPost2010PropOp53
 70
     1
102
RTVSPost2010Prop54
  1
strokes_ogs.tif
102
RTVSPost2010PropOp54
 70
     1
102
RTVSPost2010Prop55
280
     0
102
RTVSPost2010PropOp55
 70
     1
102
RTVSPost2010Prop56
140
1.0
102
RTVSPost2010PropOp56
 70
     1
102
RTVSPost2010Prop57
140
1.0
102
RTVSPost2010PropOp57
 70
     1
  0
XRECORD
  5
397
102
{ACAD_REACTORS
330
396
102
}
330
396
100
AcDbXrecord
280
     1
102
RTVSPropertyOp0
 70
     1
102
RTVSPropertyOp1
 70
     1
102
RTVSPropertyOp2
 70
     1
102
RTVSPropertyOp3
 70
     1
102
RTVSPropertyOp4
 70
     1
102
RTVSPropertyOp5
 70
     1
102
RTVSPropertyOp6
 70
     1
102
RTVSPropertyOp7
 70
     1
102
RTVSPropertyOp8
 70
     1
102
RTVSPropertyOp9
 70
     1
102
RTVSPropertyOp10
 70
     1
102
RTVSPropertyOp11
 70
     1
102
RTVSPropertyOp12
 70
     1
102
RTVSPropertyOp13
 70
     1
102
RTVSPropertyOp14
 70
     1
102
RTVSPropertyOp15
 70
     1
102
RTVSPropertyOp16
 70
     1
102
RTVSPropertyOp17
 70
     1
102
RTVSPropertyOp18
 70
     1
102
RTVSPropertyOp19
 70
     1
102
RTVSPropertyOp20
 70
     1
102
RTVSPropertyOp21
 70
     1
102
RTVSPropertyOp22
 70
     1
102
RTVSPropertyOp23
 70
     1
102
RTVSPropertyOp24
 70
     1
102
RTVSPropertyOp25
 70
     1
102
RTVSPropertyOp26
 70
     1
102
RTVSPropertyOp27
 70
     1
102
RTVSPropertyOp28
 70
     1
102
RTVSPropertyOp29
 70
     1
102
RTVSPropertyOp30
 70
     1
102
RTVSPropertyOp31
 70
     1
102
RTVSPropertyOp32
 70
     1
102
RTVSPropertyOp33
 70
     1
102
RTVSPropertyOp34
 70
     1
102
RTVSPropertyOp35
 70
     1
102
RTVSPropertyOp36
 70
     1
102
RTVSPropertyOp37
 70
     1
102
RTVSPropertyOp38
 70
     1
102
RTVSPropertyOp39
 70
     1
102
RTVSPropertyOp40
 70
     1
102
RTVSPropertyOp41
 70
     1
102
RTVSPropertyOp42
 70
     1
102
RTVSPropertyOp43
 70
     1
102
RTVSPropertyOp44
 70
     1
102
RTVSPropertyOp45
 70
     1
102
RTVSPropertyOp46
 70
     1
102
RTVSPropertyOp47
 70
     1
102
RTVSPropertyOp48
 70
     1
102
RTVSPropertyOp49
 70
     1
102
RTVSPropertyOp50
 70
     1
102
RTVSPropertyOp51
 70
     0
102
RTVSPropertyOp52
 70
     0
102
RTVSPropertyOp53
 70
     1
102
RTVSPropertyOp54
 70
     1
102
RTVSPropertyOp55
 70
     1
102
RTVSPropertyOp56
 70
     1
102
RTVSPropertyOp57
 70
     1
102
RTVSPost2010Prop28
280
     0
102
RTVSPost2010PropOp28
 70
     1
102
RTVSPost2010Prop29
280
     1
102
RTVSPost2010PropOp29
 70
     1
102
RTVSPost2010Prop30
280
     1
102
RTVSPost2010PropOp30
 70
     1
102
RTVSPost2010Prop31
280
     0
102
RTVSPost2010PropOp31
 70
     1
102
RTVSPost2010Prop32
280
     0
102
RTVSPost2010PropOp32
 70
     1
102
RTVSPost2010Prop33
280
     0
102
RTVSPost2010PropOp33
 70
     1
102
RTVSPost2010Prop34
280
     0
102
RTVSPost2010PropOp34
 70
     1
102
RTVSPost2010Prop35
280
     0
102
RTVSPost2010PropOp35
 70
     1
102
RTVSPost2010Prop36
280
     0
102
RTVSPost2010PropOp36
 70
     1
102
RTVSPost2010Prop37
 90
       50
102
RTVSPost2010PropOp37
 70
     1
102
RTVSPost2010Prop38
140
0.0
102
RTVSPost2010PropOp38
 70
     1
102
RTVSPost2010Prop39
140
1.0
102
RTVSPost2010PropOp39
 70
     1
102
RTVSPost2010Prop40
 90
        0
102
RTVSPost2010PropOp40
 70
     1
102
RTVSPost2010Prop41ColorIndex
 90
       18
102
RTVSPost2010Prop41ColorRGB
 90
        0
102
RTVSPost2010PropOp41
 70
     1
102
RTVSPost2010Prop42
 90
       50
102
RTVSPost2010PropOp42
 70
     1
102
RTVSPost2010Prop43
 90
        3
102
RTVSPost2010PropOp43
 70
     1
102
RTVSPost2010Prop44ColorIndex
 90
        5
102
RTVSPost2010Prop44ColorRGB
 90
      255
102
RTVSPost2010PropOp44
 70
     1
102
RTVSPost2010Prop45
280
     0
102
RTVSPost2010PropOp45
 70
     1
102
RTVSPost2010Prop46
 90
       50
102
RTVSPost2010PropOp46
 70
     1
102
RTVSPost2010Prop47
 90
       50
102
RTVSPost2010PropOp47
 70
     1
102
RTVSPost2010Prop48
 90
       50
102
RTVSPost2010PropOp48
 70
     1
102
RTVSPost2010Prop49
280
     0
102
RTVSPost2010PropOp49
 70
     1
102
RTVSPost2010Prop50
 90
       50
102
RTVSPost2010PropOp50
 70
     1
102
RTVSPost2010Prop51ColorIndex
 90
      256
102
RTVSPost2010Prop51ColorRGB
 90
-16777216
102
RTVSPost2010PropOp51
 70
     0
102
RTVSPost2010Prop52
140
1.0
102
RTVSPost2010PropOp52
 70
     0
102
RTVSPost2010Prop53
 90
        2
102
RTVSPost2010PropOp53
 70
     1
102
RTVSPost2010Prop54
  1
strokes_ogs.tif
102
RTVSPost2010PropOp54
 70
     1
102
RTVSPost2010Prop55
280
     0
102
RTVSPost2010PropOp55
 70
     1
102
RTVSPost2010Prop56
140
1.0
102
RTVSPost2010PropOp56
 70
     1
102
RTVSPost2010Prop57
140
1.0
102
RTVSPost2010PropOp57
 70
     1
  0
XRECORD
  5
399
102
{ACAD_REACTORS
330
398
102
}
330
398
100
AcDbXrecord
280
     1
102
RTVSPropertyOp0
 70
     1
102
RTVSPropertyOp1
 70
     1
102
RTVSPropertyOp2
 70
     1
102
RTVSPropertyOp3
 70
     1
102
RTVSPropertyOp4
 70
     1
102
RTVSPropertyOp5
 70
     1
102
RTVSPropertyOp6
 70
     1
102
RTVSPropertyOp7
 70
     1
102
RTVSPropertyOp8
 70
     1
102
RTVSPropertyOp9
 70
     1
102
RTVSPropertyOp10
 70
     1
102
RTVSPropertyOp11
 70
     1
102
RTVSPropertyOp12
 70
     1
102
RTVSPropertyOp13
 70
     1
102
RTVSPropertyOp14
 70
     1
102
RTVSPropertyOp15
 70
     1
102
RTVSPropertyOp16
 70
     1
102
RTVSPropertyOp17
 70
     1
102
RTVSPropertyOp18
 70
     1
102
RTVSPropertyOp19
 70
     1
102
RTVSPropertyOp20
 70
     1
102
RTVSPropertyOp21
 70
     1
102
RTVSPropertyOp22
 70
     1
102
RTVSPropertyOp23
 70
     1
102
RTVSPropertyOp24
 70
     1
102
RTVSPropertyOp25
 70
     1
102
RTVSPropertyOp26
 70
     1
102
RTVSPropertyOp27
 70
     1
102
RTVSPropertyOp28
 70
     1
102
RTVSPropertyOp29
 70
     1
102
RTVSPropertyOp30
 70
     1
102
RTVSPropertyOp31
 70
     1
102
RTVSPropertyOp32
 70
     1
102
RTVSPropertyOp33
 70
     1
102
RTVSPropertyOp34
 70
     1
102
RTVSPropertyOp35
 70
     1
102
RTVSPropertyOp36
 70
     1
102
RTVSPropertyOp37
 70
     1
102
RTVSPropertyOp38
 70
     1
102
RTVSPropertyOp39
 70
     1
102
RTVSPropertyOp40
 70
     1
102
RTVSPropertyOp41
 70
     1
102
RTVSPropertyOp42
 70
     1
102
RTVSPropertyOp43
 70
     1
102
RTVSPropertyOp44
 70
     1
102
RTVSPropertyOp45
 70
     1
102
RTVSPropertyOp46
 70
     1
102
RTVSPropertyOp47
 70
     1
102
RTVSPropertyOp48
 70
     1
102
RTVSPropertyOp49
 70
     1
102
RTVSPropertyOp50
 70
     1
102
RTVSPropertyOp51
 70
     0
102
RTVSPropertyOp52
 70
     0
102
RTVSPropertyOp53
 70
     1
102
RTVSPropertyOp54
 70
     1
102
RTVSPropertyOp55
 70
     1
102
RTVSPropertyOp56
 70
     1
102
RTVSPropertyOp57
 70
     1
102
RTVSPost2010Prop28
280
     0
102
RTVSPost2010PropOp28
 70
     1
102
RTVSPost2010Prop29
280
     1
102
RTVSPost2010PropOp29
 70
     1
102
RTVSPost2010Prop30
280
     1
102
RTVSPost2010PropOp30
 70
     1
102
RTVSPost2010Prop31
280
     0
102
RTVSPost2010PropOp31
 70
     1
102
RTVSPost2010Prop32
280
     0
102
RTVSPost2010PropOp32
 70
     1
102
RTVSPost2010Prop33
280
     0
102
RTVSPost2010PropOp33
 70
     1
102
RTVSPost2010Prop34
280
     0
102
RTVSPost2010PropOp34
 70
     1
102
RTVSPost2010Prop35
280
     0
102
RTVSPost2010PropOp35
 70
     1
102
RTVSPost2010Prop36
280
     0
102
RTVSPost2010PropOp36
 70
     1
102
RTVSPost2010Prop37
 90
       50
102
RTVSPost2010PropOp37
 70
     1
102
RTVSPost2010Prop38
140
0.0
102
RTVSPost2010PropOp38
 70
     1
102
RTVSPost2010Prop39
140
1.0
102
RTVSPost2010PropOp39
 70
     1
102
RTVSPost2010Prop40
 90
        0
102
RTVSPost2010PropOp40
 70
     1
102
RTVSPost2010Prop41ColorIndex
 90
       18
102
RTVSPost2010Prop41ColorRGB
 90
        0
102
RTVSPost2010PropOp41
 70
     1
102
RTVSPost2010Prop42
 90
       50
102
RTVSPost2010PropOp42
 70
     1
102
RTVSPost2010Prop43
 90
        3
102
RTVSPost2010PropOp43
 70
     1
102
RTVSPost2010Prop44ColorIndex
 90
        5
102
RTVSPost2010Prop44ColorRGB
 90
      255
102
RTVSPost2010PropOp44
 70
     1
102
RTVSPost2010Prop45
280
     0
102
RTVSPost2010PropOp45
 70
     1
102
RTVSPost2010Prop46
 90
       50
102
RTVSPost2010PropOp46
 70
     1
102
RTVSPost2010Prop47
 90
       50
102
RTVSPost2010PropOp47
 70
     1
102
RTVSPost2010Prop48
 90
       50
102
RTVSPost2010PropOp48
 70
     1
102
RTVSPost2010Prop49
280
     0
102
RTVSPost2010PropOp49
 70
     1
102
RTVSPost2010Prop50
 90
       50
102
RTVSPost2010PropOp50
 70
     1
102
RTVSPost2010Prop51ColorIndex
 90
      256
102
RTVSPost2010Prop51ColorRGB
 90
-16777216
102
RTVSPost2010PropOp51
 70
     0
102
RTVSPost2010Prop52
140
1.0
102
RTVSPost2010PropOp52
 70
     0
102
RTVSPost2010Prop53
 90
        2
102
RTVSPost2010PropOp53
 70
     1
102
RTVSPost2010Prop54
  1
strokes_ogs.tif
102
RTVSPost2010PropOp54
 70
     1
102
RTVSPost2010Prop55
280
     0
102
RTVSPost2010PropOp55
 70
     1
102
RTVSPost2010Prop56
140
1.0
102
RTVSPost2010PropOp56
 70
     1
102
RTVSPost2010Prop57
140
1.0
102
RTVSPost2010PropOp57
 70
     1
  0
XRECORD
  5
39B
102
{ACAD_REACTORS
330
39A
102
}
330
39A
100
AcDbXrecord
280
     1
102
RTVSPropertyOp0
 70
     1
102
RTVSPropertyOp1
 70
     1
102
RTVSPropertyOp2
 70
     1
102
RTVSPropertyOp3
 70
     1
102
RTVSPropertyOp4
 70
     1
102
RTVSPropertyOp5
 70
     1
102
RTVSPropertyOp6
 70
     1
102
RTVSPropertyOp7
 70
     1
102
RTVSPropertyOp8
 70
     1
102
RTVSPropertyOp9
 70
     1
102
RTVSPropertyOp10
 70
     1
102
RTVSPropertyOp11
 70
     1
102
RTVSPropertyOp12
 70
     1
102
RTVSPropertyOp13
 70
     1
102
RTVSPropertyOp14
 70
     1
102
RTVSPropertyOp15
 70
     1
102
RTVSPropertyOp16
 70
     1
102
RTVSPropertyOp17
 70
     1
102
RTVSPropertyOp18
 70
     1
102
RTVSPropertyOp19
 70
     1
102
RTVSPropertyOp20
 70
     1
102
RTVSPropertyOp21
 70
     1
102
RTVSPropertyOp22
 70
     1
102
RTVSPropertyOp23
 70
     1
102
RTVSPropertyOp24
 70
     1
102
RTVSPropertyOp25
 70
     1
102
RTVSPropertyOp26
 70
     1
102
RTVSPropertyOp27
 70
     1
102
RTVSPropertyOp28
 70
     1
102
RTVSPropertyOp29
 70
     1
102
RTVSPropertyOp30
 70
     1
102
RTVSPropertyOp31
 70
     1
102
RTVSPropertyOp32
 70
     1
102
RTVSPropertyOp33
 70
     1
102
RTVSPropertyOp34
 70
     1
102
RTVSPropertyOp35
 70
     1
102
RTVSPropertyOp36
 70
     1
102
RTVSPropertyOp37
 70
     1
102
RTVSPropertyOp38
 70
     1
102
RTVSPropertyOp39
 70
     1
102
RTVSPropertyOp40
 70
     1
102
RTVSPropertyOp41
 70
     1
102
RTVSPropertyOp42
 70
     1
102
RTVSPropertyOp43
 70
     1
102
RTVSPropertyOp44
 70
     1
102
RTVSPropertyOp45
 70
     1
102
RTVSPropertyOp46
 70
     1
102
RTVSPropertyOp47
 70
     1
102
RTVSPropertyOp48
 70
     1
102
RTVSPropertyOp49
 70
     1
102
RTVSPropertyOp50
 70
     1
102
RTVSPropertyOp51
 70
     0
102
RTVSPropertyOp52
 70
     0
102
RTVSPropertyOp53
 70
     1
102
RTVSPropertyOp54
 70
     1
102
RTVSPropertyOp55
 70
     1
102
RTVSPropertyOp56
 70
     1
102
RTVSPropertyOp57
 70
     1
102
RTVSPost2010Prop28
280
     0
102
RTVSPost2010PropOp28
 70
     1
102
RTVSPost2010Prop29
280
     1
102
RTVSPost2010PropOp29
 70
     1
102
RTVSPost2010Prop30
280
     1
102
RTVSPost2010PropOp30
 70
     1
102
RTVSPost2010Prop31
280
     0
102
RTVSPost2010PropOp31
 70
     1
102
RTVSPost2010Prop32
280
     0
102
RTVSPost2010PropOp32
 70
     1
102
RTVSPost2010Prop33
280
     0
102
RTVSPost2010PropOp33
 70
     1
102
RTVSPost2010Prop34
280
     0
102
RTVSPost2010PropOp34
 70
     1
102
RTVSPost2010Prop35
280
     0
102
RTVSPost2010PropOp35
 70
     1
102
RTVSPost2010Prop36
280
     0
102
RTVSPost2010PropOp36
 70
     1
102
RTVSPost2010Prop37
 90
       50
102
RTVSPost2010PropOp37
 70
     1
102
RTVSPost2010Prop38
140
0.0
102
RTVSPost2010PropOp38
 70
     1
102
RTVSPost2010Prop39
140
1.0
102
RTVSPost2010PropOp39
 70
     1
102
RTVSPost2010Prop40
 90
        0
102
RTVSPost2010PropOp40
 70
     1
102
RTVSPost2010Prop41ColorIndex
 90
       18
102
RTVSPost2010Prop41ColorRGB
 90
        0
102
RTVSPost2010PropOp41
 70
     1
102
RTVSPost2010Prop42
 90
       50
102
RTVSPost2010PropOp42
 70
     1
102
RTVSPost2010Prop43
 90
        3
102
RTVSPost2010PropOp43
 70
     1
102
RTVSPost2010Prop44ColorIndex
 90
        5
102
RTVSPost2010Prop44ColorRGB
 90
      255
102
RTVSPost2010PropOp44
 70
     1
102
RTVSPost2010Prop45
280
     0
102
RTVSPost2010PropOp45
 70
     1
102
RTVSPost2010Prop46
 90
       50
102
RTVSPost2010PropOp46
 70
     1
102
RTVSPost2010Prop47
 90
       50
102
RTVSPost2010PropOp47
 70
     1
102
RTVSPost2010Prop48
 90
       50
102
RTVSPost2010PropOp48
 70
     1
102
RTVSPost2010Prop49
280
     0
102
RTVSPost2010PropOp49
 70
     1
102
RTVSPost2010Prop50
 90
       50
102
RTVSPost2010PropOp50
 70
     1
102
RTVSPost2010Prop51ColorIndex
 90
      256
102
RTVSPost2010Prop51ColorRGB
 90
-16777216
102
RTVSPost2010PropOp51
 70
     0
102
RTVSPost2010Prop52
140
1.0
102
RTVSPost2010PropOp52
 70
     0
102
RTVSPost2010Prop53
 90
        2
102
RTVSPost2010PropOp53
 70
     1
102
RTVSPost2010Prop54
  1
strokes_ogs.tif
102
RTVSPost2010PropOp54
 70
     1
102
RTVSPost2010Prop55
280
     0
102
RTVSPost2010PropOp55
 70
     1
102
RTVSPost2010Prop56
140
1.0
102
RTVSPost2010PropOp56
 70
     1
102
RTVSPost2010Prop57
140
1.0
102
RTVSPost2010PropOp57
 70
     1
  0
XRECORD
  5
39D
102
{ACAD_REACTORS
330
39C
102
}
330
39C
100
AcDbXrecord
280
     1
102
RTVSPropertyOp0
 70
     1
102
RTVSPropertyOp1
 70
     1
102
RTVSPropertyOp2
 70
     1
102
RTVSPropertyOp3
 70
     1
102
RTVSPropertyOp4
 70
     1
102
RTVSPropertyOp5
 70
     1
102
RTVSPropertyOp6
 70
     1
102
RTVSPropertyOp7
 70
     1
102
RTVSPropertyOp8
 70
     1
102
RTVSPropertyOp9
 70
     1
102
RTVSPropertyOp10
 70
     1
102
RTVSPropertyOp11
 70
     1
102
RTVSPropertyOp12
 70
     1
102
RTVSPropertyOp13
 70
     1
102
RTVSPropertyOp14
 70
     1
102
RTVSPropertyOp15
 70
     1
102
RTVSPropertyOp16
 70
     1
102
RTVSPropertyOp17
 70
     1
102
RTVSPropertyOp18
 70
     1
102
RTVSPropertyOp19
 70
     1
102
RTVSPropertyOp20
 70
     1
102
RTVSPropertyOp21
 70
     1
102
RTVSPropertyOp22
 70
     1
102
RTVSPropertyOp23
 70
     1
102
RTVSPropertyOp24
 70
     1
102
RTVSPropertyOp25
 70
     1
102
RTVSPropertyOp26
 70
     1
102
RTVSPropertyOp27
 70
     1
102
RTVSPropertyOp28
 70
     1
102
RTVSPropertyOp29
 70
     1
102
RTVSPropertyOp30
 70
     1
102
RTVSPropertyOp31
 70
     1
102
RTVSPropertyOp32
 70
     1
102
RTVSPropertyOp33
 70
     1
102
RTVSPropertyOp34
 70
     1
102
RTVSPropertyOp35
 70
     1
102
RTVSPropertyOp36
 70
     1
102
RTVSPropertyOp37
 70
     1
102
RTVSPropertyOp38
 70
     1
102
RTVSPropertyOp39
 70
     1
102
RTVSPropertyOp40
 70
     1
102
RTVSPropertyOp41
 70
     1
102
RTVSPropertyOp42
 70
     1
102
RTVSPropertyOp43
 70
     1
102
RTVSPropertyOp44
 70
     1
102
RTVSPropertyOp45
 70
     1
102
RTVSPropertyOp46
 70
     1
102
RTVSPropertyOp47
 70
     1
102
RTVSPropertyOp48
 70
     1
102
RTVSPropertyOp49
 70
     1
102
RTVSPropertyOp50
 70
     1
102
RTVSPropertyOp51
 70
     0
102
RTVSPropertyOp52
 70
     0
102
RTVSPropertyOp53
 70
     1
102
RTVSPropertyOp54
 70
     1
102
RTVSPropertyOp55
 70
     1
102
RTVSPropertyOp56
 70
     1
102
RTVSPropertyOp57
 70
     1
102
RTVSPost2010Prop28
280
     0
102
RTVSPost2010PropOp28
 70
     1
102
RTVSPost2010Prop29
280
     1
102
RTVSPost2010PropOp29
 70
     1
102
RTVSPost2010Prop30
280
     1
102
RTVSPost2010PropOp30
 70
     1
102
RTVSPost2010Prop31
280
     0
102
RTVSPost2010PropOp31
 70
     1
102
RTVSPost2010Prop32
280
     0
102
RTVSPost2010PropOp32
 70
     1
102
RTVSPost2010Prop33
280
     0
102
RTVSPost2010PropOp33
 70
     1
102
RTVSPost2010Prop34
280
     0
102
RTVSPost2010PropOp34
 70
     1
102
RTVSPost2010Prop35
280
     0
102
RTVSPost2010PropOp35
 70
     1
102
RTVSPost2010Prop36
280
     0
102
RTVSPost2010PropOp36
 70
     1
102
RTVSPost2010Prop37
 90
       50
102
RTVSPost2010PropOp37
 70
     1
102
RTVSPost2010Prop38
140
0.0
102
RTVSPost2010PropOp38
 70
     1
102
RTVSPost2010Prop39
140
1.0
102
RTVSPost2010PropOp39
 70
     1
102
RTVSPost2010Prop40
 90
        0
102
RTVSPost2010PropOp40
 70
     1
102
RTVSPost2010Prop41ColorIndex
 90
       18
102
RTVSPost2010Prop41ColorRGB
 90
        0
102
RTVSPost2010PropOp41
 70
     1
102
RTVSPost2010Prop42
 90
       50
102
RTVSPost2010PropOp42
 70
     1
102
RTVSPost2010Prop43
 90
        3
102
RTVSPost2010PropOp43
 70
     1
102
RTVSPost2010Prop44ColorIndex
 90
        5
102
RTVSPost2010Prop44ColorRGB
 90
      255
102
RTVSPost2010PropOp44
 70
     1
102
RTVSPost2010Prop45
280
     0
102
RTVSPost2010PropOp45
 70
     1
102
RTVSPost2010Prop46
 90
       50
102
RTVSPost2010PropOp46
 70
     1
102
RTVSPost2010Prop47
 90
       50
102
RTVSPost2010PropOp47
 70
     1
102
RTVSPost2010Prop48
 90
       50
102
RTVSPost2010PropOp48
 70
     1
102
RTVSPost2010Prop49
280
     0
102
RTVSPost2010PropOp49
 70
     1
102
RTVSPost2010Prop50
 90
       50
102
RTVSPost2010PropOp50
 70
     1
102
RTVSPost2010Prop51ColorIndex
 90
      256
102
RTVSPost2010Prop51ColorRGB
 90
-16777216
102
RTVSPost2010PropOp51
 70
     0
102
RTVSPost2010Prop52
140
1.0
102
RTVSPost2010PropOp52
 70
     0
102
RTVSPost2010Prop53
 90
        2
102
RTVSPost2010PropOp53
 70
     1
102
RTVSPost2010Prop54
  1
strokes_ogs.tif
102
RTVSPost2010PropOp54
 70
     1
102
RTVSPost2010Prop55
280
     0
102
RTVSPost2010PropOp55
 70
     1
102
RTVSPost2010Prop56
140
1.0
102
RTVSPost2010PropOp56
 70
     1
102
RTVSPost2010Prop57
140
1.0
102
RTVSPost2010PropOp57
 70
     1
  0
XRECORD
  5
3A3
102
{ACAD_REACTORS
330
3A2
102
}
330
3A2
100
AcDbXrecord
280
     1
102
RTVSPropertyOp0
 70
     1
102
RTVSPropertyOp1
 70
     1
102
RTVSPropertyOp2
 70
     1
102
RTVSPropertyOp3
 70
     1
102
RTVSPropertyOp4
 70
     1
102
RTVSPropertyOp5
 70
     1
102
RTVSPropertyOp6
 70
     1
102
RTVSPropertyOp7
 70
     1
102
RTVSPropertyOp8
 70
     1
102
RTVSPropertyOp9
 70
     1
102
RTVSPropertyOp10
 70
     1
102
RTVSPropertyOp11
 70
     1
102
RTVSPropertyOp12
 70
     1
102
RTVSPropertyOp13
 70
     1
102
RTVSPropertyOp14
 70
     1
102
RTVSPropertyOp15
 70
     1
102
RTVSPropertyOp16
 70
     1
102
RTVSPropertyOp17
 70
     1
102
RTVSPropertyOp18
 70
     1
102
RTVSPropertyOp19
 70
     1
102
RTVSPropertyOp20
 70
     1
102
RTVSPropertyOp21
 70
     1
102
RTVSPropertyOp22
 70
     1
102
RTVSPropertyOp23
 70
     1
102
RTVSPropertyOp24
 70
     1
102
RTVSPropertyOp25
 70
     1
102
RTVSPropertyOp26
 70
     1
102
RTVSPropertyOp27
 70
     1
102
RTVSPropertyOp28
 70
     1
102
RTVSPropertyOp29
 70
     1
102
RTVSPropertyOp30
 70
     1
102
RTVSPropertyOp31
 70
     1
102
RTVSPropertyOp32
 70
     1
102
RTVSPropertyOp33
 70
     1
102
RTVSPropertyOp34
 70
     1
102
RTVSPropertyOp35
 70
     1
102
RTVSPropertyOp36
 70
     1
102
RTVSPropertyOp37
 70
     1
102
RTVSPropertyOp38
 70
     1
102
RTVSPropertyOp39
 70
     1
102
RTVSPropertyOp40
 70
     1
102
RTVSPropertyOp41
 70
     1
102
RTVSPropertyOp42
 70
     1
102
RTVSPropertyOp43
 70
     1
102
RTVSPropertyOp44
 70
     1
102
RTVSPropertyOp45
 70
     1
102
RTVSPropertyOp46
 70
     1
102
RTVSPropertyOp47
 70
     1
102
RTVSPropertyOp48
 70
     1
102
RTVSPropertyOp49
 70
     1
102
RTVSPropertyOp50
 70
     1
102
RTVSPropertyOp51
 70
     0
102
RTVSPropertyOp52
 70
     0
102
RTVSPropertyOp53
 70
     1
102
RTVSPropertyOp54
 70
     1
102
RTVSPropertyOp55
 70
     1
102
RTVSPropertyOp56
 70
     1
102
RTVSPropertyOp57
 70
     1
102
RTVSPost2010Prop28
280
     0
102
RTVSPost2010PropOp28
 70
     1
102
RTVSPost2010Prop29
280
     1
102
RTVSPost2010PropOp29
 70
     1
102
RTVSPost2010Prop30
280
     1
102
RTVSPost2010PropOp30
 70
     1
102
RTVSPost2010Prop31
280
     0
102
RTVSPost2010PropOp31
 70
     1
102
RTVSPost2010Prop32
280
     0
102
RTVSPost2010PropOp32
 70
     1
102
RTVSPost2010Prop33
280
     0
102
RTVSPost2010PropOp33
 70
     1
102
RTVSPost2010Prop34
280
     0
102
RTVSPost2010PropOp34
 70
     1
102
RTVSPost2010Prop35
280
     0
102
RTVSPost2010PropOp35
 70
     1
102
RTVSPost2010Prop36
280
     0
102
RTVSPost2010PropOp36
 70
     1
102
RTVSPost2010Prop37
 90
       50
102
RTVSPost2010PropOp37
 70
     1
102
RTVSPost2010Prop38
140
0.0
102
RTVSPost2010PropOp38
 70
     1
102
RTVSPost2010Prop39
140
1.0
102
RTVSPost2010PropOp39
 70
     1
102
RTVSPost2010Prop40
 90
        0
102
RTVSPost2010PropOp40
 70
     1
102
RTVSPost2010Prop41ColorIndex
 90
       18
102
RTVSPost2010Prop41ColorRGB
 90
        0
102
RTVSPost2010PropOp41
 70
     1
102
RTVSPost2010Prop42
 90
       50
102
RTVSPost2010PropOp42
 70
     1
102
RTVSPost2010Prop43
 90
        3
102
RTVSPost2010PropOp43
 70
     1
102
RTVSPost2010Prop44ColorIndex
 90
        5
102
RTVSPost2010Prop44ColorRGB
 90
      255
102
RTVSPost2010PropOp44
 70
     1
102
RTVSPost2010Prop45
280
     0
102
RTVSPost2010PropOp45
 70
     1
102
RTVSPost2010Prop46
 90
       50
102
RTVSPost2010PropOp46
 70
     1
102
RTVSPost2010Prop47
 90
       50
102
RTVSPost2010PropOp47
 70
     1
102
RTVSPost2010Prop48
 90
       50
102
RTVSPost2010PropOp48
 70
     1
102
RTVSPost2010Prop49
280
     0
102
RTVSPost2010PropOp49
 70
     1
102
RTVSPost2010Prop50
 90
       50
102
RTVSPost2010PropOp50
 70
     1
102
RTVSPost2010Prop51ColorIndex
 90
      256
102
RTVSPost2010Prop51ColorRGB
 90
-16777216
102
RTVSPost2010PropOp51
 70
     0
102
RTVSPost2010Prop52
140
1.0
102
RTVSPost2010PropOp52
 70
     0
102
RTVSPost2010Prop53
 90
        2
102
RTVSPost2010PropOp53
 70
     1
102
RTVSPost2010Prop54
  1
strokes_ogs.tif
102
RTVSPost2010PropOp54
 70
     1
102
RTVSPost2010Prop55
280
     0
102
RTVSPost2010PropOp55
 70
     1
102
RTVSPost2010Prop56
140
1.0
102
RTVSPost2010PropOp56
 70
     1
102
RTVSPost2010Prop57
140
1.0
102
RTVSPost2010PropOp57
 70
     1
  0
XRECORD
  5
3B7
102
{ACAD_REACTORS
330
3B6
102
}
330
3B6
100
AcDbXrecord
280
     1
102
RTVSPropertyOp0
 70
     0
102
RTVSPropertyOp1
 70
     0
102
RTVSPropertyOp2
 70
     0
102
RTVSPropertyOp3
 70
     0
102
RTVSPropertyOp4
 70
     0
102
RTVSPropertyOp5
 70
     0
102
RTVSPropertyOp6
 70
     0
102
RTVSPropertyOp7
 70
     0
102
RTVSPropertyOp8
 70
     0
102
RTVSPropertyOp9
 70
     0
102
RTVSPropertyOp10
 70
     0
102
RTVSPropertyOp11
 70
     0
102
RTVSPropertyOp12
 70
     0
102
RTVSPropertyOp13
 70
     0
102
RTVSPropertyOp14
 70
     2
102
RTVSPropertyOp15
 70
     0
102
RTVSPropertyOp16
 70
     0
102
RTVSPropertyOp17
 70
     0
102
RTVSPropertyOp18
 70
     0
102
RTVSPropertyOp19
 70
     0
102
RTVSPropertyOp20
 70
     0
102
RTVSPropertyOp21
 70
     0
102
RTVSPropertyOp22
 70
     0
102
RTVSPropertyOp23
 70
     0
102
RTVSPropertyOp24
 70
     0
102
RTVSPropertyOp25
 70
     0
102
RTVSPropertyOp26
 70
     0
102
RTVSPropertyOp27
 70
     0
102
RTVSPropertyOp28
 70
     0
102
RTVSPropertyOp29
 70
     0
102
RTVSPropertyOp30
 70
     0
102
RTVSPropertyOp31
 70
     0
102
RTVSPropertyOp32
 70
     0
102
RTVSPropertyOp33
 70
     0
102
RTVSPropertyOp34
 70
     0
102
RTVSPropertyOp35
 70
     0
102
RTVSPropertyOp36
 70
     0
102
RTVSPropertyOp37
 70
     0
102
RTVSPropertyOp38
 70
     0
102
RTVSPropertyOp39
 70
     0
102
RTVSPropertyOp40
 70
     0
102
RTVSPropertyOp41
 70
     0
102
RTVSPropertyOp42
 70
     0
102
RTVSPropertyOp43
 70
     0
102
RTVSPropertyOp44
 70
     0
102
RTVSPropertyOp45
 70
     0
102
RTVSPropertyOp46
 70
     0
102
RTVSPropertyOp47
 70
     0
102
RTVSPropertyOp48
 70
     0
102
RTVSPropertyOp49
 70
     0
102
RTVSPropertyOp50
 70
     0
102
RTVSPropertyOp51
 70
     0
102
RTVSPropertyOp52
 70
     0
102
RTVSPropertyOp53
 70
     0
102
RTVSPropertyOp54
 70
     0
102
RTVSPropertyOp55
 70
     0
102
RTVSPropertyOp56
 70
     0
102
RTVSPropertyOp57
 70
     0
102
RTVSPost2010Prop28
280
     0
102
RTVSPost2010PropOp28
 70
     0
102
RTVSPost2010Prop29
280
     1
102
RTVSPost2010PropOp29
 70
     0
102
RTVSPost2010Prop30
280
     1
102
RTVSPost2010PropOp30
 70
     0
102
RTVSPost2010Prop31
280
     0
102
RTVSPost2010PropOp31
 70
     0
102
RTVSPost2010Prop32
280
     0
102
RTVSPost2010PropOp32
 70
     0
102
RTVSPost2010Prop33
280
     0
102
RTVSPost2010PropOp33
 70
     0
102
RTVSPost2010Prop34
280
     0
102
RTVSPost2010PropOp34
 70
     0
102
RTVSPost2010Prop35
280
     0
102
RTVSPost2010PropOp35
 70
     0
102
RTVSPost2010Prop36
280
     0
102
RTVSPost2010PropOp36
 70
     0
102
RTVSPost2010Prop37
 90
       50
102
RTVSPost2010PropOp37
 70
     0
102
RTVSPost2010Prop38
140
0.0
102
RTVSPost2010PropOp38
 70
     0
102
RTVSPost2010Prop39
140
1.0
102
RTVSPost2010PropOp39
 70
     0
102
RTVSPost2010Prop40
 90
        0
102
RTVSPost2010PropOp40
 70
     0
102
RTVSPost2010Prop41ColorIndex
 90
       18
102
RTVSPost2010Prop41ColorRGB
 90
        0
102
RTVSPost2010PropOp41
 70
     0
102
RTVSPost2010Prop42
 90
       50
102
RTVSPost2010PropOp42
 70
     0
102
RTVSPost2010Prop43
 90
        3
102
RTVSPost2010PropOp43
 70
     0
102
RTVSPost2010Prop44ColorIndex
 90
        5
102
RTVSPost2010Prop44ColorRGB
 90
      255
102
RTVSPost2010PropOp44
 70
     0
102
RTVSPost2010Prop45
280
     0
102
RTVSPost2010PropOp45
 70
     0
102
RTVSPost2010Prop46
 90
       50
102
RTVSPost2010PropOp46
 70
     0
102
RTVSPost2010Prop47
 90
       50
102
RTVSPost2010PropOp47
 70
     0
102
RTVSPost2010Prop48
 90
       50
102
RTVSPost2010PropOp48
 70
     0
102
RTVSPost2010Prop49
280
     0
102
RTVSPost2010PropOp49
 70
     0
102
RTVSPost2010Prop50
 90
       50
102
RTVSPost2010PropOp50
 70
     0
102
RTVSPost2010Prop51ColorIndex
 90
      256
102
RTVSPost2010Prop51ColorRGB
 90
-16777216
102
RTVSPost2010PropOp51
 70
     0
102
RTVSPost2010Prop52
140
1.0
102
RTVSPost2010PropOp52
 70
     0
102
RTVSPost2010Prop53
 90
        2
102
RTVSPost2010PropOp53
 70
     0
102
RTVSPost2010Prop54
  1
strokes_ogs.tif
102
RTVSPost2010PropOp54
 70
     0
102
RTVSPost2010Prop55
280
     0
102
RTVSPost2010PropOp55
 70
     0
102
RTVSPost2010Prop56
140
1.0
102
RTVSPost2010PropOp56
 70
     0
102
RTVSPost2010Prop57
140
1.0
102
RTVSPost2010PropOp57
 70
     0
  0
XRECORD
  5
3B1
102
{ACAD_REACTORS
330
3B0
102
}
330
3B0
100
AcDbXrecord
280
     1
102
RTVSPropertyOp0
 70
     1
102
RTVSPropertyOp1
 70
     1
102
RTVSPropertyOp2
 70
     1
102
RTVSPropertyOp3
 70
     1
102
RTVSPropertyOp4
 70
     1
102
RTVSPropertyOp5
 70
     1
102
RTVSPropertyOp6
 70
     1
102
RTVSPropertyOp7
 70
     1
102
RTVSPropertyOp8
 70
     1
102
RTVSPropertyOp9
 70
     1
102
RTVSPropertyOp10
 70
     1
102
RTVSPropertyOp11
 70
     1
102
RTVSPropertyOp12
 70
     1
102
RTVSPropertyOp13
 70
     1
102
RTVSPropertyOp14
 70
     1
102
RTVSPropertyOp15
 70
     1
102
RTVSPropertyOp16
 70
     1
102
RTVSPropertyOp17
 70
     1
102
RTVSPropertyOp18
 70
     1
102
RTVSPropertyOp19
 70
     1
102
RTVSPropertyOp20
 70
     1
102
RTVSPropertyOp21
 70
     1
102
RTVSPropertyOp22
 70
     1
102
RTVSPropertyOp23
 70
     1
102
RTVSPropertyOp24
 70
     1
102
RTVSPropertyOp25
 70
     1
102
RTVSPropertyOp26
 70
     1
102
RTVSPropertyOp27
 70
     1
102
RTVSPropertyOp28
 70
     1
102
RTVSPropertyOp29
 70
     1
102
RTVSPropertyOp30
 70
     1
102
RTVSPropertyOp31
 70
     1
102
RTVSPropertyOp32
 70
     1
102
RTVSPropertyOp33
 70
     1
102
RTVSPropertyOp34
 70
     1
102
RTVSPropertyOp35
 70
     1
102
RTVSPropertyOp36
 70
     1
102
RTVSPropertyOp37
 70
     1
102
RTVSPropertyOp38
 70
     1
102
RTVSPropertyOp39
 70
     1
102
RTVSPropertyOp40
 70
     1
102
RTVSPropertyOp41
 70
     1
102
RTVSPropertyOp42
 70
     1
102
RTVSPropertyOp43
 70
     1
102
RTVSPropertyOp44
 70
     1
102
RTVSPropertyOp45
 70
     1
102
RTVSPropertyOp46
 70
     1
102
RTVSPropertyOp47
 70
     1
102
RTVSPropertyOp48
 70
     1
102
RTVSPropertyOp49
 70
     1
102
RTVSPropertyOp50
 70
     1
102
RTVSPropertyOp51
 70
     0
102
RTVSPropertyOp52
 70
     0
102
RTVSPropertyOp53
 70
     1
102
RTVSPropertyOp54
 70
     1
102
RTVSPropertyOp55
 70
     1
102
RTVSPropertyOp56
 70
     1
102
RTVSPropertyOp57
 70
     1
102
RTVSPost2010Prop28
280
     0
102
RTVSPost2010PropOp28
 70
     1
102
RTVSPost2010Prop29
280
     1
102
RTVSPost2010PropOp29
 70
     1
102
RTVSPost2010Prop30
280
     1
102
RTVSPost2010PropOp30
 70
     1
102
RTVSPost2010Prop31
280
     0
102
RTVSPost2010PropOp31
 70
     1
102
RTVSPost2010Prop32
280
     0
102
RTVSPost2010PropOp32
 70
     1
102
RTVSPost2010Prop33
280
     0
102
RTVSPost2010PropOp33
 70
     1
102
RTVSPost2010Prop34
280
     0
102
RTVSPost2010PropOp34
 70
     1
102
RTVSPost2010Prop35
280
     0
102
RTVSPost2010PropOp35
 70
     1
102
RTVSPost2010Prop36
280
     0
102
RTVSPost2010PropOp36
 70
     1
102
RTVSPost2010Prop37
 90
       50
102
RTVSPost2010PropOp37
 70
     1
102
RTVSPost2010Prop38
140
0.0
102
RTVSPost2010PropOp38
 70
     1
102
RTVSPost2010Prop39
140
1.0
102
RTVSPost2010PropOp39
 70
     1
102
RTVSPost2010Prop40
 90
        0
102
RTVSPost2010PropOp40
 70
     1
102
RTVSPost2010Prop41ColorIndex
 90
       18
102
RTVSPost2010Prop41ColorRGB
 90
        0
102
RTVSPost2010PropOp41
 70
     1
102
RTVSPost2010Prop42
 90
       50
102
RTVSPost2010PropOp42
 70
     1
102
RTVSPost2010Prop43
 90
        3
102
RTVSPost2010PropOp43
 70
     1
102
RTVSPost2010Prop44ColorIndex
 90
        5
102
RTVSPost2010Prop44ColorRGB
 90
      255
102
RTVSPost2010PropOp44
 70
     1
102
RTVSPost2010Prop45
280
     0
102
RTVSPost2010PropOp45
 70
     1
102
RTVSPost2010Prop46
 90
       50
102
RTVSPost2010PropOp46
 70
     1
102
RTVSPost2010Prop47
 90
       50
102
RTVSPost2010PropOp47
 70
     1
102
RTVSPost2010Prop48
 90
       50
102
RTVSPost2010PropOp48
 70
     1
102
RTVSPost2010Prop49
280
     0
102
RTVSPost2010PropOp49
 70
     1
102
RTVSPost2010Prop50
 90
       50
102
RTVSPost2010PropOp50
 70
     1
102
RTVSPost2010Prop51ColorIndex
 90
      256
102
RTVSPost2010Prop51ColorRGB
 90
-16777216
102
RTVSPost2010PropOp51
 70
     0
102
RTVSPost2010Prop52
140
1.0
102
RTVSPost2010PropOp52
 70
     0
102
RTVSPost2010Prop53
 90
        2
102
RTVSPost2010PropOp53
 70
     1
102
RTVSPost2010Prop54
  1
strokes_ogs.tif
102
RTVSPost2010PropOp54
 70
     1
102
RTVSPost2010Prop55
280
     0
102
RTVSPost2010PropOp55
 70
     1
102
RTVSPost2010Prop56
140
1.0
102
RTVSPost2010PropOp56
 70
     1
102
RTVSPost2010Prop57
140
1.0
102
RTVSPost2010PropOp57
 70
     1
  0
XRECORD
  5
3B9
102
{ACAD_REACTORS
330
3B8
102
}
330
3B8
100
AcDbXrecord
280
     1
102
RTVSPropertyOp0
 70
     0
102
RTVSPropertyOp1
 70
     0
102
RTVSPropertyOp2
 70
     0
102
RTVSPropertyOp3
 70
     0
102
RTVSPropertyOp4
 70
     0
102
RTVSPropertyOp5
 70
     0
102
RTVSPropertyOp6
 70
     0
102
RTVSPropertyOp7
 70
     0
102
RTVSPropertyOp8
 70
     0
102
RTVSPropertyOp9
 70
     0
102
RTVSPropertyOp10
 70
     0
102
RTVSPropertyOp11
 70
     0
102
RTVSPropertyOp12
 70
     0
102
RTVSPropertyOp13
 70
     0
102
RTVSPropertyOp14
 70
     2
102
RTVSPropertyOp15
 70
     0
102
RTVSPropertyOp16
 70
     0
102
RTVSPropertyOp17
 70
     0
102
RTVSPropertyOp18
 70
     0
102
RTVSPropertyOp19
 70
     0
102
RTVSPropertyOp20
 70
     0
102
RTVSPropertyOp21
 70
     0
102
RTVSPropertyOp22
 70
     0
102
RTVSPropertyOp23
 70
     0
102
RTVSPropertyOp24
 70
     0
102
RTVSPropertyOp25
 70
     0
102
RTVSPropertyOp26
 70
     0
102
RTVSPropertyOp27
 70
     0
102
RTVSPropertyOp28
 70
     0
102
RTVSPropertyOp29
 70
     0
102
RTVSPropertyOp30
 70
     0
102
RTVSPropertyOp31
 70
     0
102
RTVSPropertyOp32
 70
     0
102
RTVSPropertyOp33
 70
     0
102
RTVSPropertyOp34
 70
     0
102
RTVSPropertyOp35
 70
     0
102
RTVSPropertyOp36
 70
     0
102
RTVSPropertyOp37
 70
     0
102
RTVSPropertyOp38
 70
     0
102
RTVSPropertyOp39
 70
     0
102
RTVSPropertyOp40
 70
     0
102
RTVSPropertyOp41
 70
     0
102
RTVSPropertyOp42
 70
     0
102
RTVSPropertyOp43
 70
     0
102
RTVSPropertyOp44
 70
     0
102
RTVSPropertyOp45
 70
     0
102
RTVSPropertyOp46
 70
     0
102
RTVSPropertyOp47
 70
     0
102
RTVSPropertyOp48
 70
     0
102
RTVSPropertyOp49
 70
     0
102
RTVSPropertyOp50
 70
     0
102
RTVSPropertyOp51
 70
     0
102
RTVSPropertyOp52
 70
     0
102
RTVSPropertyOp53
 70
     0
102
RTVSPropertyOp54
 70
     0
102
RTVSPropertyOp55
 70
     0
102
RTVSPropertyOp56
 70
     0
102
RTVSPropertyOp57
 70
     0
102
RTVSPost2010Prop28
280
     0
102
RTVSPost2010PropOp28
 70
     0
102
RTVSPost2010Prop29
280
     1
102
RTVSPost2010PropOp29
 70
     0
102
RTVSPost2010Prop30
280
     1
102
RTVSPost2010PropOp30
 70
     0
102
RTVSPost2010Prop31
280
     0
102
RTVSPost2010PropOp31
 70
     0
102
RTVSPost2010Prop32
280
     0
102
RTVSPost2010PropOp32
 70
     0
102
RTVSPost2010Prop33
280
     0
102
RTVSPost2010PropOp33
 70
     0
102
RTVSPost2010Prop34
280
     0
102
RTVSPost2010PropOp34
 70
     0
102
RTVSPost2010Prop35
280
     0
102
RTVSPost2010PropOp35
 70
     0
102
RTVSPost2010Prop36
280
     0
102
RTVSPost2010PropOp36
 70
     0
102
RTVSPost2010Prop37
 90
       50
102
RTVSPost2010PropOp37
 70
     0
102
RTVSPost2010Prop38
140
0.0
102
RTVSPost2010PropOp38
 70
     0
102
RTVSPost2010Prop39
140
1.0
102
RTVSPost2010PropOp39
 70
     0
102
RTVSPost2010Prop40
 90
        0
102
RTVSPost2010PropOp40
 70
     0
102
RTVSPost2010Prop41ColorIndex
 90
       18
102
RTVSPost2010Prop41ColorRGB
 90
        0
102
RTVSPost2010PropOp41
 70
     0
102
RTVSPost2010Prop42
 90
       50
102
RTVSPost2010PropOp42
 70
     0
102
RTVSPost2010Prop43
 90
        3
102
RTVSPost2010PropOp43
 70
     0
102
RTVSPost2010Prop44ColorIndex
 90
        5
102
RTVSPost2010Prop44ColorRGB
 90
      255
102
RTVSPost2010PropOp44
 70
     0
102
RTVSPost2010Prop45
280
     0
102
RTVSPost2010PropOp45
 70
     0
102
RTVSPost2010Prop46
 90
       50
102
RTVSPost2010PropOp46
 70
     0
102
RTVSPost2010Prop47
 90
       50
102
RTVSPost2010PropOp47
 70
     0
102
RTVSPost2010Prop48
 90
       50
102
RTVSPost2010PropOp48
 70
     0
102
RTVSPost2010Prop49
280
     0
102
RTVSPost2010PropOp49
 70
     0
102
RTVSPost2010Prop50
 90
       50
102
RTVSPost2010PropOp50
 70
     0
102
RTVSPost2010Prop51ColorIndex
 90
      256
102
RTVSPost2010Prop51ColorRGB
 90
-16777216
102
RTVSPost2010PropOp51
 70
     0
102
RTVSPost2010Prop52
140
1.0
102
RTVSPost2010PropOp52
 70
     0
102
RTVSPost2010Prop53
 90
        2
102
RTVSPost2010PropOp53
 70
     0
102
RTVSPost2010Prop54
  1
strokes_ogs.tif
102
RTVSPost2010PropOp54
 70
     0
102
RTVSPost2010Prop55
280
     0
102
RTVSPost2010PropOp55
 70
     0
102
RTVSPost2010Prop56
140
1.0
102
RTVSPost2010PropOp56
 70
     0
102
RTVSPost2010Prop57
140
1.0
102
RTVSPost2010PropOp57
 70
     0
  0
XRECORD
  5
3A7
102
{ACAD_REACTORS
330
3A6
102
}
330
3A6
100
AcDbXrecord
280
     1
102
RTVSPropertyOp0
 70
     1
102
RTVSPropertyOp1
 70
     1
102
RTVSPropertyOp2
 70
     1
102
RTVSPropertyOp3
 70
     1
102
RTVSPropertyOp4
 70
     1
102
RTVSPropertyOp5
 70
     1
102
RTVSPropertyOp6
 70
     1
102
RTVSPropertyOp7
 70
     1
102
RTVSPropertyOp8
 70
     1
102
RTVSPropertyOp9
 70
     1
102
RTVSPropertyOp10
 70
     1
102
RTVSPropertyOp11
 70
     1
102
RTVSPropertyOp12
 70
     1
102
RTVSPropertyOp13
 70
     1
102
RTVSPropertyOp14
 70
     1
102
RTVSPropertyOp15
 70
     1
102
RTVSPropertyOp16
 70
     1
102
RTVSPropertyOp17
 70
     1
102
RTVSPropertyOp18
 70
     1
102
RTVSPropertyOp19
 70
     1
102
RTVSPropertyOp20
 70
     1
102
RTVSPropertyOp21
 70
     1
102
RTVSPropertyOp22
 70
     1
102
RTVSPropertyOp23
 70
     1
102
RTVSPropertyOp24
 70
     1
102
RTVSPropertyOp25
 70
     1
102
RTVSPropertyOp26
 70
     1
102
RTVSPropertyOp27
 70
     1
102
RTVSPropertyOp28
 70
     1
102
RTVSPropertyOp29
 70
     1
102
RTVSPropertyOp30
 70
     1
102
RTVSPropertyOp31
 70
     1
102
RTVSPropertyOp32
 70
     1
102
RTVSPropertyOp33
 70
     1
102
RTVSPropertyOp34
 70
     1
102
RTVSPropertyOp35
 70
     1
102
RTVSPropertyOp36
 70
     1
102
RTVSPropertyOp37
 70
     1
102
RTVSPropertyOp38
 70
     1
102
RTVSPropertyOp39
 70
     1
102
RTVSPropertyOp40
 70
     1
102
RTVSPropertyOp41
 70
     1
102
RTVSPropertyOp42
 70
     1
102
RTVSPropertyOp43
 70
     1
102
RTVSPropertyOp44
 70
     1
102
RTVSPropertyOp45
 70
     1
102
RTVSPropertyOp46
 70
     1
102
RTVSPropertyOp47
 70
     1
102
RTVSPropertyOp48
 70
     1
102
RTVSPropertyOp49
 70
     1
102
RTVSPropertyOp50
 70
     1
102
RTVSPropertyOp51
 70
     0
102
RTVSPropertyOp52
 70
     0
102
RTVSPropertyOp53
 70
     1
102
RTVSPropertyOp54
 70
     1
102
RTVSPropertyOp55
 70
     1
102
RTVSPropertyOp56
 70
     1
102
RTVSPropertyOp57
 70
     1
102
RTVSPost2010Prop28
280
     0
102
RTVSPost2010PropOp28
 70
     1
102
RTVSPost2010Prop29
280
     1
102
RTVSPost2010PropOp29
 70
     1
102
RTVSPost2010Prop30
280
     1
102
RTVSPost2010PropOp30
 70
     1
102
RTVSPost2010Prop31
280
     0
102
RTVSPost2010PropOp31
 70
     1
102
RTVSPost2010Prop32
280
     0
102
RTVSPost2010PropOp32
 70
     1
102
RTVSPost2010Prop33
280
     0
102
RTVSPost2010PropOp33
 70
     1
102
RTVSPost2010Prop34
280
     0
102
RTVSPost2010PropOp34
 70
     1
102
RTVSPost2010Prop35
280
     0
102
RTVSPost2010PropOp35
 70
     1
102
RTVSPost2010Prop36
280
     0
102
RTVSPost2010PropOp36
 70
     1
102
RTVSPost2010Prop37
 90
       50
102
RTVSPost2010PropOp37
 70
     1
102
RTVSPost2010Prop38
140
0.0
102
RTVSPost2010PropOp38
 70
     1
102
RTVSPost2010Prop39
140
1.0
102
RTVSPost2010PropOp39
 70
     1
102
RTVSPost2010Prop40
 90
        0
102
RTVSPost2010PropOp40
 70
     1
102
RTVSPost2010Prop41ColorIndex
 90
       18
102
RTVSPost2010Prop41ColorRGB
 90
        0
102
RTVSPost2010PropOp41
 70
     1
102
RTVSPost2010Prop42
 90
       50
102
RTVSPost2010PropOp42
 70
     1
102
RTVSPost2010Prop43
 90
        3
102
RTVSPost2010PropOp43
 70
     1
102
RTVSPost2010Prop44ColorIndex
 90
        5
102
RTVSPost2010Prop44ColorRGB
 90
      255
102
RTVSPost2010PropOp44
 70
     1
102
RTVSPost2010Prop45
280
     0
102
RTVSPost2010PropOp45
 70
     1
102
RTVSPost2010Prop46
 90
       50
102
RTVSPost2010PropOp46
 70
     1
102
RTVSPost2010Prop47
 90
       50
102
RTVSPost2010PropOp47
 70
     1
102
RTVSPost2010Prop48
 90
       50
102
RTVSPost2010PropOp48
 70
     1
102
RTVSPost2010Prop49
280
     0
102
RTVSPost2010PropOp49
 70
     1
102
RTVSPost2010Prop50
 90
       50
102
RTVSPost2010PropOp50
 70
     1
102
RTVSPost2010Prop51ColorIndex
 90
      256
102
RTVSPost2010Prop51ColorRGB
 90
-16777216
102
RTVSPost2010PropOp51
 70
     0
102
RTVSPost2010Prop52
140
1.0
102
RTVSPost2010PropOp52
 70
     0
102
RTVSPost2010Prop53
 90
        2
102
RTVSPost2010PropOp53
 70
     1
102
RTVSPost2010Prop54
  1
strokes_ogs.tif
102
RTVSPost2010PropOp54
 70
     1
102
RTVSPost2010Prop55
280
     0
102
RTVSPost2010PropOp55
 70
     1
102
RTVSPost2010Prop56
140
1.0
102
RTVSPost2010PropOp56
 70
     1
102
RTVSPost2010Prop57
140
1.0
102
RTVSPost2010PropOp57
 70
     1
  0
XRECORD
  5
3C5
102
{ACAD_REACTORS
330
3C4
102
}
330
3C4
100
AcDbXrecord
280
     1
102
RTVSPropertyOp0
 70
     1
102
RTVSPropertyOp1
 70
     1
102
RTVSPropertyOp2
 70
     1
102
RTVSPropertyOp3
 70
     1
102
RTVSPropertyOp4
 70
     1
102
RTVSPropertyOp5
 70
     1
102
RTVSPropertyOp6
 70
     1
102
RTVSPropertyOp7
 70
     1
102
RTVSPropertyOp8
 70
     1
102
RTVSPropertyOp9
 70
     1
102
RTVSPropertyOp10
 70
     1
102
RTVSPropertyOp11
 70
     1
102
RTVSPropertyOp12
 70
     1
102
RTVSPropertyOp13
 70
     1
102
RTVSPropertyOp14
 70
     1
102
RTVSPropertyOp15
 70
     1
102
RTVSPropertyOp16
 70
     1
102
RTVSPropertyOp17
 70
     1
102
RTVSPropertyOp18
 70
     1
102
RTVSPropertyOp19
 70
     1
102
RTVSPropertyOp20
 70
     1
102
RTVSPropertyOp21
 70
     1
102
RTVSPropertyOp22
 70
     1
102
RTVSPropertyOp23
 70
     1
102
RTVSPropertyOp24
 70
     1
102
RTVSPropertyOp25
 70
     1
102
RTVSPropertyOp26
 70
     1
102
RTVSPropertyOp27
 70
     1
102
RTVSPropertyOp28
 70
     1
102
RTVSPropertyOp29
 70
     1
102
RTVSPropertyOp30
 70
     1
102
RTVSPropertyOp31
 70
     1
102
RTVSPropertyOp32
 70
     1
102
RTVSPropertyOp33
 70
     1
102
RTVSPropertyOp34
 70
     1
102
RTVSPropertyOp35
 70
     1
102
RTVSPropertyOp36
 70
     1
102
RTVSPropertyOp37
 70
     1
102
RTVSPropertyOp38
 70
     1
102
RTVSPropertyOp39
 70
     1
102
RTVSPropertyOp40
 70
     1
102
RTVSPropertyOp41
 70
     1
102
RTVSPropertyOp42
 70
     1
102
RTVSPropertyOp43
 70
     1
102
RTVSPropertyOp44
 70
     1
102
RTVSPropertyOp45
 70
     1
102
RTVSPropertyOp46
 70
     1
102
RTVSPropertyOp47
 70
     1
102
RTVSPropertyOp48
 70
     1
102
RTVSPropertyOp49
 70
     1
102
RTVSPropertyOp50
 70
     1
102
RTVSPropertyOp51
 70
     0
102
RTVSPropertyOp52
 70
     0
102
RTVSPropertyOp53
 70
     1
102
RTVSPropertyOp54
 70
     1
102
RTVSPropertyOp55
 70
     1
102
RTVSPropertyOp56
 70
     1
102
RTVSPropertyOp57
 70
     1
102
RTVSPost2010Prop28
280
     0
102
RTVSPost2010PropOp28
 70
     1
102
RTVSPost2010Prop29
280
     1
102
RTVSPost2010PropOp29
 70
     1
102
RTVSPost2010Prop30
280
     1
102
RTVSPost2010PropOp30
 70
     1
102
RTVSPost2010Prop31
280
     0
102
RTVSPost2010PropOp31
 70
     1
102
RTVSPost2010Prop32
280
     0
102
RTVSPost2010PropOp32
 70
     1
102
RTVSPost2010Prop33
280
     0
102
RTVSPost2010PropOp33
 70
     1
102
RTVSPost2010Prop34
280
     0
102
RTVSPost2010PropOp34
 70
     1
102
RTVSPost2010Prop35
280
     0
102
RTVSPost2010PropOp35
 70
     1
102
RTVSPost2010Prop36
280
     0
102
RTVSPost2010PropOp36
 70
     1
102
RTVSPost2010Prop37
 90
       50
102
RTVSPost2010PropOp37
 70
     1
102
RTVSPost2010Prop38
140
0.0
102
RTVSPost2010PropOp38
 70
     1
102
RTVSPost2010Prop39
140
1.0
102
RTVSPost2010PropOp39
 70
     1
102
RTVSPost2010Prop40
 90
        0
102
RTVSPost2010PropOp40
 70
     1
102
RTVSPost2010Prop41ColorIndex
 90
       18
102
RTVSPost2010Prop41ColorRGB
 90
        0
102
RTVSPost2010PropOp41
 70
     1
102
RTVSPost2010Prop42
 90
       50
102
RTVSPost2010PropOp42
 70
     1
102
RTVSPost2010Prop43
 90
        3
102
RTVSPost2010PropOp43
 70
     1
102
RTVSPost2010Prop44ColorIndex
 90
        5
102
RTVSPost2010Prop44ColorRGB
 90
      255
102
RTVSPost2010PropOp44
 70
     1
102
RTVSPost2010Prop45
280
     0
102
RTVSPost2010PropOp45
 70
     1
102
RTVSPost2010Prop46
 90
       50
102
RTVSPost2010PropOp46
 70
     1
102
RTVSPost2010Prop47
 90
       50
102
RTVSPost2010PropOp47
 70
     1
102
RTVSPost2010Prop48
 90
       50
102
RTVSPost2010PropOp48
 70
     1
102
RTVSPost2010Prop49
280
     0
102
RTVSPost2010PropOp49
 70
     1
102
RTVSPost2010Prop50
 90
       50
102
RTVSPost2010PropOp50
 70
     1
102
RTVSPost2010Prop51ColorIndex
 90
      256
102
RTVSPost2010Prop51ColorRGB
 90
-16777216
102
RTVSPost2010PropOp51
 70
     0
102
RTVSPost2010Prop52
140
1.0
102
RTVSPost2010PropOp52
 70
     0
102
RTVSPost2010Prop53
 90
        2
102
RTVSPost2010PropOp53
 70
     1
102
RTVSPost2010Prop54
  1
strokes_ogs.tif
102
RTVSPost2010PropOp54
 70
     1
102
RTVSPost2010Prop55
280
     0
102
RTVSPost2010PropOp55
 70
     1
102
RTVSPost2010Prop56
140
1.0
102
RTVSPost2010PropOp56
 70
     1
102
RTVSPost2010Prop57
140
1.0
102
RTVSPost2010PropOp57
 70
     1
  0
XRECORD
  5
3C3
102
{ACAD_REACTORS
330
3C2
102
}
330
3C2
100
AcDbXrecord
280
     1
102
RTVSPropertyOp0
 70
     1
102
RTVSPropertyOp1
 70
     1
102
RTVSPropertyOp2
 70
     1
102
RTVSPropertyOp3
 70
     1
102
RTVSPropertyOp4
 70
     1
102
RTVSPropertyOp5
 70
     1
102
RTVSPropertyOp6
 70
     1
102
RTVSPropertyOp7
 70
     1
102
RTVSPropertyOp8
 70
     1
102
RTVSPropertyOp9
 70
     1
102
RTVSPropertyOp10
 70
     1
102
RTVSPropertyOp11
 70
     1
102
RTVSPropertyOp12
 70
     1
102
RTVSPropertyOp13
 70
     1
102
RTVSPropertyOp14
 70
     1
102
RTVSPropertyOp15
 70
     1
102
RTVSPropertyOp16
 70
     1
102
RTVSPropertyOp17
 70
     1
102
RTVSPropertyOp18
 70
     1
102
RTVSPropertyOp19
 70
     1
102
RTVSPropertyOp20
 70
     1
102
RTVSPropertyOp21
 70
     1
102
RTVSPropertyOp22
 70
     1
102
RTVSPropertyOp23
 70
     1
102
RTVSPropertyOp24
 70
     1
102
RTVSPropertyOp25
 70
     1
102
RTVSPropertyOp26
 70
     1
102
RTVSPropertyOp27
 70
     1
102
RTVSPropertyOp28
 70
     1
102
RTVSPropertyOp29
 70
     1
102
RTVSPropertyOp30
 70
     1
102
RTVSPropertyOp31
 70
     1
102
RTVSPropertyOp32
 70
     1
102
RTVSPropertyOp33
 70
     1
102
RTVSPropertyOp34
 70
     1
102
RTVSPropertyOp35
 70
     1
102
RTVSPropertyOp36
 70
     1
102
RTVSPropertyOp37
 70
     1
102
RTVSPropertyOp38
 70
     1
102
RTVSPropertyOp39
 70
     1
102
RTVSPropertyOp40
 70
     1
102
RTVSPropertyOp41
 70
     1
102
RTVSPropertyOp42
 70
     1
102
RTVSPropertyOp43
 70
     1
102
RTVSPropertyOp44
 70
     1
102
RTVSPropertyOp45
 70
     1
102
RTVSPropertyOp46
 70
     1
102
RTVSPropertyOp47
 70
     1
102
RTVSPropertyOp48
 70
     1
102
RTVSPropertyOp49
 70
     1
102
RTVSPropertyOp50
 70
     1
102
RTVSPropertyOp51
 70
     0
102
RTVSPropertyOp52
 70
     0
102
RTVSPropertyOp53
 70
     1
102
RTVSPropertyOp54
 70
     1
102
RTVSPropertyOp55
 70
     1
102
RTVSPropertyOp56
 70
     1
102
RTVSPropertyOp57
 70
     1
102
RTVSPost2010Prop28
280
     0
102
RTVSPost2010PropOp28
 70
     1
102
RTVSPost2010Prop29
280
     1
102
RTVSPost2010PropOp29
 70
     1
102
RTVSPost2010Prop30
280
     1
102
RTVSPost2010PropOp30
 70
     1
102
RTVSPost2010Prop31
280
     0
102
RTVSPost2010PropOp31
 70
     1
102
RTVSPost2010Prop32
280
     0
102
RTVSPost2010PropOp32
 70
     1
102
RTVSPost2010Prop33
280
     0
102
RTVSPost2010PropOp33
 70
     1
102
RTVSPost2010Prop34
280
     0
102
RTVSPost2010PropOp34
 70
     1
102
RTVSPost2010Prop35
280
     0
102
RTVSPost2010PropOp35
 70
     1
102
RTVSPost2010Prop36
280
     0
102
RTVSPost2010PropOp36
 70
     1
102
RTVSPost2010Prop37
 90
       50
102
RTVSPost2010PropOp37
 70
     1
102
RTVSPost2010Prop38
140
0.0
102
RTVSPost2010PropOp38
 70
     1
102
RTVSPost2010Prop39
140
1.0
102
RTVSPost2010PropOp39
 70
     1
102
RTVSPost2010Prop40
 90
        0
102
RTVSPost2010PropOp40
 70
     1
102
RTVSPost2010Prop41ColorIndex
 90
       18
102
RTVSPost2010Prop41ColorRGB
 90
        0
102
RTVSPost2010PropOp41
 70
     1
102
RTVSPost2010Prop42
 90
       50
102
RTVSPost2010PropOp42
 70
     1
102
RTVSPost2010Prop43
 90
        3
102
RTVSPost2010PropOp43
 70
     1
102
RTVSPost2010Prop44ColorIndex
 90
        5
102
RTVSPost2010Prop44ColorRGB
 90
      255
102
RTVSPost2010PropOp44
 70
     1
102
RTVSPost2010Prop45
280
     0
102
RTVSPost2010PropOp45
 70
     1
102
RTVSPost2010Prop46
 90
       50
102
RTVSPost2010PropOp46
 70
     1
102
RTVSPost2010Prop47
 90
       50
102
RTVSPost2010PropOp47
 70
     1
102
RTVSPost2010Prop48
 90
       50
102
RTVSPost2010PropOp48
 70
     1
102
RTVSPost2010Prop49
280
     0
102
RTVSPost2010PropOp49
 70
     1
102
RTVSPost2010Prop50
 90
       50
102
RTVSPost2010PropOp50
 70
     1
102
RTVSPost2010Prop51ColorIndex
 90
      256
102
RTVSPost2010Prop51ColorRGB
 90
-16777216
102
RTVSPost2010PropOp51
 70
     0
102
RTVSPost2010Prop52
140
1.0
102
RTVSPost2010PropOp52
 70
     0
102
RTVSPost2010Prop53
 90
        2
102
RTVSPost2010PropOp53
 70
     1
102
RTVSPost2010Prop54
  1
strokes_ogs.tif
102
RTVSPost2010PropOp54
 70
     1
102
RTVSPost2010Prop55
280
     0
102
RTVSPost2010PropOp55
 70
     1
102
RTVSPost2010Prop56
140
1.0
102
RTVSPost2010PropOp56
 70
     1
102
RTVSPost2010Prop57
140
1.0
102
RTVSPost2010PropOp57
 70
     1
  0
XRECORD
  5
3BD
102
{ACAD_REACTORS
330
3BC
102
}
330
3BC
100
AcDbXrecord
280
     1
102
RTVSPropertyOp0
 70
     1
102
RTVSPropertyOp1
 70
     1
102
RTVSPropertyOp2
 70
     1
102
RTVSPropertyOp3
 70
     1
102
RTVSPropertyOp4
 70
     1
102
RTVSPropertyOp5
 70
     1
102
RTVSPropertyOp6
 70
     1
102
RTVSPropertyOp7
 70
     1
102
RTVSPropertyOp8
 70
     1
102
RTVSPropertyOp9
 70
     1
102
RTVSPropertyOp10
 70
     1
102
RTVSPropertyOp11
 70
     1
102
RTVSPropertyOp12
 70
     1
102
RTVSPropertyOp13
 70
     1
102
RTVSPropertyOp14
 70
     1
102
RTVSPropertyOp15
 70
     1
102
RTVSPropertyOp16
 70
     1
102
RTVSPropertyOp17
 70
     1
102
RTVSPropertyOp18
 70
     1
102
RTVSPropertyOp19
 70
     1
102
RTVSPropertyOp20
 70
     1
102
RTVSPropertyOp21
 70
     1
102
RTVSPropertyOp22
 70
     1
102
RTVSPropertyOp23
 70
     1
102
RTVSPropertyOp24
 70
     1
102
RTVSPropertyOp25
 70
     1
102
RTVSPropertyOp26
 70
     1
102
RTVSPropertyOp27
 70
     1
102
RTVSPropertyOp28
 70
     1
102
RTVSPropertyOp29
 70
     1
102
RTVSPropertyOp30
 70
     1
102
RTVSPropertyOp31
 70
     1
102
RTVSPropertyOp32
 70
     1
102
RTVSPropertyOp33
 70
     1
102
RTVSPropertyOp34
 70
     1
102
RTVSPropertyOp35
 70
     1
102
RTVSPropertyOp36
 70
     1
102
RTVSPropertyOp37
 70
     1
102
RTVSPropertyOp38
 70
     1
102
RTVSPropertyOp39
 70
     1
102
RTVSPropertyOp40
 70
     1
102
RTVSPropertyOp41
 70
     1
102
RTVSPropertyOp42
 70
     1
102
RTVSPropertyOp43
 70
     1
102
RTVSPropertyOp44
 70
     1
102
RTVSPropertyOp45
 70
     1
102
RTVSPropertyOp46
 70
     1
102
RTVSPropertyOp47
 70
     1
102
RTVSPropertyOp48
 70
     1
102
RTVSPropertyOp49
 70
     1
102
RTVSPropertyOp50
 70
     1
102
RTVSPropertyOp51
 70
     0
102
RTVSPropertyOp52
 70
     0
102
RTVSPropertyOp53
 70
     1
102
RTVSPropertyOp54
 70
     1
102
RTVSPropertyOp55
 70
     1
102
RTVSPropertyOp56
 70
     1
102
RTVSPropertyOp57
 70
     1
102
RTVSPost2010Prop28
280
     0
102
RTVSPost2010PropOp28
 70
     1
102
RTVSPost2010Prop29
280
     1
102
RTVSPost2010PropOp29
 70
     1
102
RTVSPost2010Prop30
280
     1
102
RTVSPost2010PropOp30
 70
     1
102
RTVSPost2010Prop31
280
     0
102
RTVSPost2010PropOp31
 70
     1
102
RTVSPost2010Prop32
280
     0
102
RTVSPost2010PropOp32
 70
     1
102
RTVSPost2010Prop33
280
     0
102
RTVSPost2010PropOp33
 70
     1
102
RTVSPost2010Prop34
280
     0
102
RTVSPost2010PropOp34
 70
     1
102
RTVSPost2010Prop35
280
     0
102
RTVSPost2010PropOp35
 70
     1
102
RTVSPost2010Prop36
280
     0
102
RTVSPost2010PropOp36
 70
     1
102
RTVSPost2010Prop37
 90
       50
102
RTVSPost2010PropOp37
 70
     1
102
RTVSPost2010Prop38
140
0.0
102
RTVSPost2010PropOp38
 70
     1
102
RTVSPost2010Prop39
140
1.0
102
RTVSPost2010PropOp39
 70
     1
102
RTVSPost2010Prop40
 90
        0
102
RTVSPost2010PropOp40
 70
     1
102
RTVSPost2010Prop41ColorIndex
 90
       18
102
RTVSPost2010Prop41ColorRGB
 90
        0
102
RTVSPost2010PropOp41
 70
     1
102
RTVSPost2010Prop42
 90
       50
102
RTVSPost2010PropOp42
 70
     1
102
RTVSPost2010Prop43
 90
        3
102
RTVSPost2010PropOp43
 70
     1
102
RTVSPost2010Prop44ColorIndex
 90
        5
102
RTVSPost2010Prop44ColorRGB
 90
      255
102
RTVSPost2010PropOp44
 70
     1
102
RTVSPost2010Prop45
280
     0
102
RTVSPost2010PropOp45
 70
     1
102
RTVSPost2010Prop46
 90
       50
102
RTVSPost2010PropOp46
 70
     1
102
RTVSPost2010Prop47
 90
       50
102
RTVSPost2010PropOp47
 70
     1
102
RTVSPost2010Prop48
 90
       50
102
RTVSPost2010PropOp48
 70
     1
102
RTVSPost2010Prop49
280
     0
102
RTVSPost2010PropOp49
 70
     1
102
RTVSPost2010Prop50
 90
       50
102
RTVSPost2010PropOp50
 70
     1
102
RTVSPost2010Prop51ColorIndex
 90
      256
102
RTVSPost2010Prop51ColorRGB
 90
-16777216
102
RTVSPost2010PropOp51
 70
     0
102
RTVSPost2010Prop52
140
1.0
102
RTVSPost2010PropOp52
 70
     0
102
RTVSPost2010Prop53
 90
        2
102
RTVSPost2010PropOp53
 70
     1
102
RTVSPost2010Prop54
  1
strokes_ogs.tif
102
RTVSPost2010PropOp54
 70
     1
102
RTVSPost2010Prop55
280
     0
102
RTVSPost2010PropOp55
 70
     1
102
RTVSPost2010Prop56
140
1.0
102
RTVSPost2010PropOp56
 70
     1
102
RTVSPost2010Prop57
140
1.0
102
RTVSPost2010PropOp57
 70
     1
  0
XRECORD
  5
3BF
102
{ACAD_REACTORS
330
3BE
102
}
330
3BE
100
AcDbXrecord
280
     1
102
RTVSPropertyOp0
 70
     1
102
RTVSPropertyOp1
 70
     1
102
RTVSPropertyOp2
 70
     1
102
RTVSPropertyOp3
 70
     1
102
RTVSPropertyOp4
 70
     1
102
RTVSPropertyOp5
 70
     1
102
RTVSPropertyOp6
 70
     1
102
RTVSPropertyOp7
 70
     1
102
RTVSPropertyOp8
 70
     1
102
RTVSPropertyOp9
 70
     1
102
RTVSPropertyOp10
 70
     1
102
RTVSPropertyOp11
 70
     1
102
RTVSPropertyOp12
 70
     1
102
RTVSPropertyOp13
 70
     1
102
RTVSPropertyOp14
 70
     1
102
RTVSPropertyOp15
 70
     1
102
RTVSPropertyOp16
 70
     1
102
RTVSPropertyOp17
 70
     1
102
RTVSPropertyOp18
 70
     1
102
RTVSPropertyOp19
 70
     1
102
RTVSPropertyOp20
 70
     1
102
RTVSPropertyOp21
 70
     1
102
RTVSPropertyOp22
 70
     1
102
RTVSPropertyOp23
 70
     1
102
RTVSPropertyOp24
 70
     1
102
RTVSPropertyOp25
 70
     1
102
RTVSPropertyOp26
 70
     1
102
RTVSPropertyOp27
 70
     1
102
RTVSPropertyOp28
 70
     1
102
RTVSPropertyOp29
 70
     1
102
RTVSPropertyOp30
 70
     1
102
RTVSPropertyOp31
 70
     1
102
RTVSPropertyOp32
 70
     1
102
RTVSPropertyOp33
 70
     1
102
RTVSPropertyOp34
 70
     1
102
RTVSPropertyOp35
 70
     1
102
RTVSPropertyOp36
 70
     1
102
RTVSPropertyOp37
 70
     1
102
RTVSPropertyOp38
 70
     1
102
RTVSPropertyOp39
 70
     1
102
RTVSPropertyOp40
 70
     1
102
RTVSPropertyOp41
 70
     1
102
RTVSPropertyOp42
 70
     1
102
RTVSPropertyOp43
 70
     1
102
RTVSPropertyOp44
 70
     1
102
RTVSPropertyOp45
 70
     1
102
RTVSPropertyOp46
 70
     1
102
RTVSPropertyOp47
 70
     1
102
RTVSPropertyOp48
 70
     1
102
RTVSPropertyOp49
 70
     1
102
RTVSPropertyOp50
 70
     1
102
RTVSPropertyOp51
 70
     0
102
RTVSPropertyOp52
 70
     0
102
RTVSPropertyOp53
 70
     1
102
RTVSPropertyOp54
 70
     1
102
RTVSPropertyOp55
 70
     1
102
RTVSPropertyOp56
 70
     1
102
RTVSPropertyOp57
 70
     1
102
RTVSPost2010Prop28
280
     0
102
RTVSPost2010PropOp28
 70
     1
102
RTVSPost2010Prop29
280
     1
102
RTVSPost2010PropOp29
 70
     1
102
RTVSPost2010Prop30
280
     1
102
RTVSPost2010PropOp30
 70
     1
102
RTVSPost2010Prop31
280
     0
102
RTVSPost2010PropOp31
 70
     1
102
RTVSPost2010Prop32
280
     0
102
RTVSPost2010PropOp32
 70
     1
102
RTVSPost2010Prop33
280
     0
102
RTVSPost2010PropOp33
 70
     1
102
RTVSPost2010Prop34
280
     0
102
RTVSPost2010PropOp34
 70
     1
102
RTVSPost2010Prop35
280
     0
102
RTVSPost2010PropOp35
 70
     1
102
RTVSPost2010Prop36
280
     0
102
RTVSPost2010PropOp36
 70
     1
102
RTVSPost2010Prop37
 90
       50
102
RTVSPost2010PropOp37
 70
     1
102
RTVSPost2010Prop38
140
0.0
102
RTVSPost2010PropOp38
 70
     1
102
RTVSPost2010Prop39
140
1.0
102
RTVSPost2010PropOp39
 70
     1
102
RTVSPost2010Prop40
 90
        0
102
RTVSPost2010PropOp40
 70
     1
102
RTVSPost2010Prop41ColorIndex
 90
       18
102
RTVSPost2010Prop41ColorRGB
 90
        0
102
RTVSPost2010PropOp41
 70
     1
102
RTVSPost2010Prop42
 90
       50
102
RTVSPost2010PropOp42
 70
     1
102
RTVSPost2010Prop43
 90
        3
102
RTVSPost2010PropOp43
 70
     1
102
RTVSPost2010Prop44ColorIndex
 90
        5
102
RTVSPost2010Prop44ColorRGB
 90
      255
102
RTVSPost2010PropOp44
 70
     1
102
RTVSPost2010Prop45
280
     0
102
RTVSPost2010PropOp45
 70
     1
102
RTVSPost2010Prop46
 90
       50
102
RTVSPost2010PropOp46
 70
     1
102
RTVSPost2010Prop47
 90
       50
102
RTVSPost2010PropOp47
 70
     1
102
RTVSPost2010Prop48
 90
       50
102
RTVSPost2010PropOp48
 70
     1
102
RTVSPost2010Prop49
280
     0
102
RTVSPost2010PropOp49
 70
     1
102
RTVSPost2010Prop50
 90
       50
102
RTVSPost2010PropOp50
 70
     1
102
RTVSPost2010Prop51ColorIndex
 90
      256
102
RTVSPost2010Prop51ColorRGB
 90
-16777216
102
RTVSPost2010PropOp51
 70
     0
102
RTVSPost2010Prop52
140
1.0
102
RTVSPost2010PropOp52
 70
     0
102
RTVSPost2010Prop53
 90
        2
102
RTVSPost2010PropOp53
 70
     1
102
RTVSPost2010Prop54
  1
strokes_ogs.tif
102
RTVSPost2010PropOp54
 70
     1
102
RTVSPost2010Prop55
280
     0
102
RTVSPost2010PropOp55
 70
     1
102
RTVSPost2010Prop56
140
1.0
102
RTVSPost2010PropOp56
 70
     1
102
RTVSPost2010Prop57
140
1.0
102
RTVSPost2010PropOp57
 70
     1
  0
XRECORD
  5
3AF
102
{ACAD_REACTORS
330
3AE
102
}
330
3AE
100
AcDbXrecord
280
     1
102
RTVSPropertyOp0
 70
     1
102
RTVSPropertyOp1
 70
     1
102
RTVSPropertyOp2
 70
     1
102
RTVSPropertyOp3
 70
     1
102
RTVSPropertyOp4
 70
     1
102
RTVSPropertyOp5
 70
     1
102
RTVSPropertyOp6
 70
     1
102
RTVSPropertyOp7
 70
     1
102
RTVSPropertyOp8
 70
     1
102
RTVSPropertyOp9
 70
     1
102
RTVSPropertyOp10
 70
     1
102
RTVSPropertyOp11
 70
     1
102
RTVSPropertyOp12
 70
     1
102
RTVSPropertyOp13
 70
     1
102
RTVSPropertyOp14
 70
     1
102
RTVSPropertyOp15
 70
     1
102
RTVSPropertyOp16
 70
     1
102
RTVSPropertyOp17
 70
     1
102
RTVSPropertyOp18
 70
     1
102
RTVSPropertyOp19
 70
     1
102
RTVSPropertyOp20
 70
     1
102
RTVSPropertyOp21
 70
     1
102
RTVSPropertyOp22
 70
     1
102
RTVSPropertyOp23
 70
     1
102
RTVSPropertyOp24
 70
     1
102
RTVSPropertyOp25
 70
     1
102
RTVSPropertyOp26
 70
     1
102
RTVSPropertyOp27
 70
     1
102
RTVSPropertyOp28
 70
     1
102
RTVSPropertyOp29
 70
     1
102
RTVSPropertyOp30
 70
     1
102
RTVSPropertyOp31
 70
     1
102
RTVSPropertyOp32
 70
     1
102
RTVSPropertyOp33
 70
     1
102
RTVSPropertyOp34
 70
     1
102
RTVSPropertyOp35
 70
     1
102
RTVSPropertyOp36
 70
     1
102
RTVSPropertyOp37
 70
     1
102
RTVSPropertyOp38
 70
     1
102
RTVSPropertyOp39
 70
     1
102
RTVSPropertyOp40
 70
     1
102
RTVSPropertyOp41
 70
     1
102
RTVSPropertyOp42
 70
     1
102
RTVSPropertyOp43
 70
     1
102
RTVSPropertyOp44
 70
     1
102
RTVSPropertyOp45
 70
     1
102
RTVSPropertyOp46
 70
     1
102
RTVSPropertyOp47
 70
     1
102
RTVSPropertyOp48
 70
     1
102
RTVSPropertyOp49
 70
     1
102
RTVSPropertyOp50
 70
     1
102
RTVSPropertyOp51
 70
     0
102
RTVSPropertyOp52
 70
     0
102
RTVSPropertyOp53
 70
     1
102
RTVSPropertyOp54
 70
     1
102
RTVSPropertyOp55
 70
     1
102
RTVSPropertyOp56
 70
     1
102
RTVSPropertyOp57
 70
     1
102
RTVSPost2010Prop28
280
     0
102
RTVSPost2010PropOp28
 70
     1
102
RTVSPost2010Prop29
280
     1
102
RTVSPost2010PropOp29
 70
     1
102
RTVSPost2010Prop30
280
     1
102
RTVSPost2010PropOp30
 70
     1
102
RTVSPost2010Prop31
280
     0
102
RTVSPost2010PropOp31
 70
     1
102
RTVSPost2010Prop32
280
     0
102
RTVSPost2010PropOp32
 70
     1
102
RTVSPost2010Prop33
280
     0
102
RTVSPost2010PropOp33
 70
     1
102
RTVSPost2010Prop34
280
     0
102
RTVSPost2010PropOp34
 70
     1
102
RTVSPost2010Prop35
280
     0
102
RTVSPost2010PropOp35
 70
     1
102
RTVSPost2010Prop36
280
     0
102
RTVSPost2010PropOp36
 70
     1
102
RTVSPost2010Prop37
 90
       50
102
RTVSPost2010PropOp37
 70
     1
102
RTVSPost2010Prop38
140
0.0
102
RTVSPost2010PropOp38
 70
     1
102
RTVSPost2010Prop39
140
1.0
102
RTVSPost2010PropOp39
 70
     1
102
RTVSPost2010Prop40
 90
        0
102
RTVSPost2010PropOp40
 70
     1
102
RTVSPost2010Prop41ColorIndex
 90
       18
102
RTVSPost2010Prop41ColorRGB
 90
        0
102
RTVSPost2010PropOp41
 70
     1
102
RTVSPost2010Prop42
 90
       50
102
RTVSPost2010PropOp42
 70
     1
102
RTVSPost2010Prop43
 90
        3
102
RTVSPost2010PropOp43
 70
     1
102
RTVSPost2010Prop44ColorIndex
 90
        5
102
RTVSPost2010Prop44ColorRGB
 90
      255
102
RTVSPost2010PropOp44
 70
     1
102
RTVSPost2010Prop45
280
     0
102
RTVSPost2010PropOp45
 70
     1
102
RTVSPost2010Prop46
 90
       50
102
RTVSPost2010PropOp46
 70
     1
102
RTVSPost2010Prop47
 90
       50
102
RTVSPost2010PropOp47
 70
     1
102
RTVSPost2010Prop48
 90
       50
102
RTVSPost2010PropOp48
 70
     1
102
RTVSPost2010Prop49
280
     0
102
RTVSPost2010PropOp49
 70
     1
102
RTVSPost2010Prop50
 90
       50
102
RTVSPost2010PropOp50
 70
     1
102
RTVSPost2010Prop51ColorIndex
 90
      256
102
RTVSPost2010Prop51ColorRGB
 90
-16777216
102
RTVSPost2010PropOp51
 70
     0
102
RTVSPost2010Prop52
140
1.0
102
RTVSPost2010PropOp52
 70
     0
102
RTVSPost2010Prop53
 90
        2
102
RTVSPost2010PropOp53
 70
     1
102
RTVSPost2010Prop54
  1
strokes_ogs.tif
102
RTVSPost2010PropOp54
 70
     1
102
RTVSPost2010Prop55
280
     0
102
RTVSPost2010PropOp55
 70
     1
102
RTVSPost2010Prop56
140
1.0
102
RTVSPost2010PropOp56
 70
     1
102
RTVSPost2010Prop57
140
1.0
102
RTVSPost2010PropOp57
 70
     1
  0
XRECORD
  5
3A1
102
{ACAD_REACTORS
330
3A0
102
}
330
3A0
100
AcDbXrecord
280
     1
102
RTVSPropertyOp0
 70
     1
102
RTVSPropertyOp1
 70
     1
102
RTVSPropertyOp2
 70
     1
102
RTVSPropertyOp3
 70
     1
102
RTVSPropertyOp4
 70
     1
102
RTVSPropertyOp5
 70
     1
102
RTVSPropertyOp6
 70
     1
102
RTVSPropertyOp7
 70
     1
102
RTVSPropertyOp8
 70
     1
102
RTVSPropertyOp9
 70
     1
102
RTVSPropertyOp10
 70
     1
102
RTVSPropertyOp11
 70
     1
102
RTVSPropertyOp12
 70
     1
102
RTVSPropertyOp13
 70
     1
102
RTVSPropertyOp14
 70
     1
102
RTVSPropertyOp15
 70
     1
102
RTVSPropertyOp16
 70
     1
102
RTVSPropertyOp17
 70
     1
102
RTVSPropertyOp18
 70
     1
102
RTVSPropertyOp19
 70
     1
102
RTVSPropertyOp20
 70
     1
102
RTVSPropertyOp21
 70
     1
102
RTVSPropertyOp22
 70
     1
102
RTVSPropertyOp23
 70
     1
102
RTVSPropertyOp24
 70
     1
102
RTVSPropertyOp25
 70
     1
102
RTVSPropertyOp26
 70
     1
102
RTVSPropertyOp27
 70
     1
102
RTVSPropertyOp28
 70
     1
102
RTVSPropertyOp29
 70
     1
102
RTVSPropertyOp30
 70
     1
102
RTVSPropertyOp31
 70
     1
102
RTVSPropertyOp32
 70
     1
102
RTVSPropertyOp33
 70
     1
102
RTVSPropertyOp34
 70
     1
102
RTVSPropertyOp35
 70
     1
102
RTVSPropertyOp36
 70
     1
102
RTVSPropertyOp37
 70
     1
102
RTVSPropertyOp38
 70
     1
102
RTVSPropertyOp39
 70
     1
102
RTVSPropertyOp40
 70
     1
102
RTVSPropertyOp41
 70
     1
102
RTVSPropertyOp42
 70
     1
102
RTVSPropertyOp43
 70
     1
102
RTVSPropertyOp44
 70
     1
102
RTVSPropertyOp45
 70
     1
102
RTVSPropertyOp46
 70
     1
102
RTVSPropertyOp47
 70
     1
102
RTVSPropertyOp48
 70
     1
102
RTVSPropertyOp49
 70
     1
102
RTVSPropertyOp50
 70
     1
102
RTVSPropertyOp51
 70
     0
102
RTVSPropertyOp52
 70
     0
102
RTVSPropertyOp53
 70
     1
102
RTVSPropertyOp54
 70
     1
102
RTVSPropertyOp55
 70
     1
102
RTVSPropertyOp56
 70
     1
102
RTVSPropertyOp57
 70
     1
102
RTVSPost2010Prop28
280
     0
102
RTVSPost2010PropOp28
 70
     1
102
RTVSPost2010Prop29
280
     1
102
RTVSPost2010PropOp29
 70
     1
102
RTVSPost2010Prop30
280
     1
102
RTVSPost2010PropOp30
 70
     1
102
RTVSPost2010Prop31
280
     0
102
RTVSPost2010PropOp31
 70
     1
102
RTVSPost2010Prop32
280
     0
102
RTVSPost2010PropOp32
 70
     1
102
RTVSPost2010Prop33
280
     0
102
RTVSPost2010PropOp33
 70
     1
102
RTVSPost2010Prop34
280
     0
102
RTVSPost2010PropOp34
 70
     1
102
RTVSPost2010Prop35
280
     0
102
RTVSPost2010PropOp35
 70
     1
102
RTVSPost2010Prop36
280
     0
102
RTVSPost2010PropOp36
 70
     1
102
RTVSPost2010Prop37
 90
       50
102
RTVSPost2010PropOp37
 70
     1
102
RTVSPost2010Prop38
140
0.0
102
RTVSPost2010PropOp38
 70
     1
102
RTVSPost2010Prop39
140
1.0
102
RTVSPost2010PropOp39
 70
     1
102
RTVSPost2010Prop40
 90
        0
102
RTVSPost2010PropOp40
 70
     1
102
RTVSPost2010Prop41ColorIndex
 90
       18
102
RTVSPost2010Prop41ColorRGB
 90
        0
102
RTVSPost2010PropOp41
 70
     1
102
RTVSPost2010Prop42
 90
       50
102
RTVSPost2010PropOp42
 70
     1
102
RTVSPost2010Prop43
 90
        3
102
RTVSPost2010PropOp43
 70
     1
102
RTVSPost2010Prop44ColorIndex
 90
        5
102
RTVSPost2010Prop44ColorRGB
 90
      255
102
RTVSPost2010PropOp44
 70
     1
102
RTVSPost2010Prop45
280
     0
102
RTVSPost2010PropOp45
 70
     1
102
RTVSPost2010Prop46
 90
       50
102
RTVSPost2010PropOp46
 70
     1
102
RTVSPost2010Prop47
 90
       50
102
RTVSPost2010PropOp47
 70
     1
102
RTVSPost2010Prop48
 90
       50
102
RTVSPost2010PropOp48
 70
     1
102
RTVSPost2010Prop49
280
     0
102
RTVSPost2010PropOp49
 70
     1
102
RTVSPost2010Prop50
 90
       50
102
RTVSPost2010PropOp50
 70
     1
102
RTVSPost2010Prop51ColorIndex
 90
      256
102
RTVSPost2010Prop51ColorRGB
 90
-16777216
102
RTVSPost2010PropOp51
 70
     0
102
RTVSPost2010Prop52
140
1.0
102
RTVSPost2010PropOp52
 70
     0
102
RTVSPost2010Prop53
 90
        2
102
RTVSPost2010PropOp53
 70
     1
102
RTVSPost2010Prop54
  1
strokes_ogs.tif
102
RTVSPost2010PropOp54
 70
     1
102
RTVSPost2010Prop55
280
     0
102
RTVSPost2010PropOp55
 70
     1
102
RTVSPost2010Prop56
140
1.0
102
RTVSPost2010PropOp56
 70
     1
102
RTVSPost2010Prop57
140
1.0
102
RTVSPost2010PropOp57
 70
     1
  0
XRECORD
  5
3C1
102
{ACAD_REACTORS
330
3C0
102
}
330
3C0
100
AcDbXrecord
280
     1
102
RTVSPropertyOp0
 70
     1
102
RTVSPropertyOp1
 70
     1
102
RTVSPropertyOp2
 70
     1
102
RTVSPropertyOp3
 70
     1
102
RTVSPropertyOp4
 70
     1
102
RTVSPropertyOp5
 70
     1
102
RTVSPropertyOp6
 70
     1
102
RTVSPropertyOp7
 70
     1
102
RTVSPropertyOp8
 70
     1
102
RTVSPropertyOp9
 70
     1
102
RTVSPropertyOp10
 70
     1
102
RTVSPropertyOp11
 70
     1
102
RTVSPropertyOp12
 70
     1
102
RTVSPropertyOp13
 70
     1
102
RTVSPropertyOp14
 70
     1
102
RTVSPropertyOp15
 70
     1
102
RTVSPropertyOp16
 70
     1
102
RTVSPropertyOp17
 70
     1
102
RTVSPropertyOp18
 70
     1
102
RTVSPropertyOp19
 70
     1
102
RTVSPropertyOp20
 70
     1
102
RTVSPropertyOp21
 70
     1
102
RTVSPropertyOp22
 70
     1
102
RTVSPropertyOp23
 70
     1
102
RTVSPropertyOp24
 70
     1
102
RTVSPropertyOp25
 70
     1
102
RTVSPropertyOp26
 70
     1
102
RTVSPropertyOp27
 70
     1
102
RTVSPropertyOp28
 70
     1
102
RTVSPropertyOp29
 70
     1
102
RTVSPropertyOp30
 70
     1
102
RTVSPropertyOp31
 70
     1
102
RTVSPropertyOp32
 70
     1
102
RTVSPropertyOp33
 70
     1
102
RTVSPropertyOp34
 70
     1
102
RTVSPropertyOp35
 70
     1
102
RTVSPropertyOp36
 70
     1
102
RTVSPropertyOp37
 70
     1
102
RTVSPropertyOp38
 70
     1
102
RTVSPropertyOp39
 70
     1
102
RTVSPropertyOp40
 70
     1
102
RTVSPropertyOp41
 70
     1
102
RTVSPropertyOp42
 70
     1
102
RTVSPropertyOp43
 70
     1
102
RTVSPropertyOp44
 70
     1
102
RTVSPropertyOp45
 70
     1
102
RTVSPropertyOp46
 70
     1
102
RTVSPropertyOp47
 70
     1
102
RTVSPropertyOp48
 70
     1
102
RTVSPropertyOp49
 70
     1
102
RTVSPropertyOp50
 70
     1
102
RTVSPropertyOp51
 70
     0
102
RTVSPropertyOp52
 70
     0
102
RTVSPropertyOp53
 70
     1
102
RTVSPropertyOp54
 70
     1
102
RTVSPropertyOp55
 70
     1
102
RTVSPropertyOp56
 70
     1
102
RTVSPropertyOp57
 70
     1
102
RTVSPost2010Prop28
280
     0
102
RTVSPost2010PropOp28
 70
     1
102
RTVSPost2010Prop29
280
     1
102
RTVSPost2010PropOp29
 70
     1
102
RTVSPost2010Prop30
280
     1
102
RTVSPost2010PropOp30
 70
     1
102
RTVSPost2010Prop31
280
     0
102
RTVSPost2010PropOp31
 70
     1
102
RTVSPost2010Prop32
280
     0
102
RTVSPost2010PropOp32
 70
     1
102
RTVSPost2010Prop33
280
     0
102
RTVSPost2010PropOp33
 70
     1
102
RTVSPost2010Prop34
280
     0
102
RTVSPost2010PropOp34
 70
     1
102
RTVSPost2010Prop35
280
     0
102
RTVSPost2010PropOp35
 70
     1
102
RTVSPost2010Prop36
280
     0
102
RTVSPost2010PropOp36
 70
     1
102
RTVSPost2010Prop37
 90
       50
102
RTVSPost2010PropOp37
 70
     1
102
RTVSPost2010Prop38
140
0.0
102
RTVSPost2010PropOp38
 70
     1
102
RTVSPost2010Prop39
140
1.0
102
RTVSPost2010PropOp39
 70
     1
102
RTVSPost2010Prop40
 90
        0
102
RTVSPost2010PropOp40
 70
     1
102
RTVSPost2010Prop41ColorIndex
 90
       18
102
RTVSPost2010Prop41ColorRGB
 90
        0
102
RTVSPost2010PropOp41
 70
     1
102
RTVSPost2010Prop42
 90
       50
102
RTVSPost2010PropOp42
 70
     1
102
RTVSPost2010Prop43
 90
        3
102
RTVSPost2010PropOp43
 70
     1
102
RTVSPost2010Prop44ColorIndex
 90
        5
102
RTVSPost2010Prop44ColorRGB
 90
      255
102
RTVSPost2010PropOp44
 70
     1
102
RTVSPost2010Prop45
280
     0
102
RTVSPost2010PropOp45
 70
     1
102
RTVSPost2010Prop46
 90
       50
102
RTVSPost2010PropOp46
 70
     1
102
RTVSPost2010Prop47
 90
       50
102
RTVSPost2010PropOp47
 70
     1
102
RTVSPost2010Prop48
 90
       50
102
RTVSPost2010PropOp48
 70
     1
102
RTVSPost2010Prop49
280
     0
102
RTVSPost2010PropOp49
 70
     1
102
RTVSPost2010Prop50
 90
       50
102
RTVSPost2010PropOp50
 70
     1
102
RTVSPost2010Prop51ColorIndex
 90
      256
102
RTVSPost2010Prop51ColorRGB
 90
-16777216
102
RTVSPost2010PropOp51
 70
     0
102
RTVSPost2010Prop52
140
1.0
102
RTVSPost2010PropOp52
 70
     0
102
RTVSPost2010Prop53
 90
        2
102
RTVSPost2010PropOp53
 70
     1
102
RTVSPost2010Prop54
  1
strokes_ogs.tif
102
RTVSPost2010PropOp54
 70
     1
102
RTVSPost2010Prop55
280
     0
102
RTVSPost2010PropOp55
 70
     1
102
RTVSPost2010Prop56
140
1.0
102
RTVSPost2010PropOp56
 70
     1
102
RTVSPost2010Prop57
140
1.0
102
RTVSPost2010PropOp57
 70
     1
  0
ENDSEC
  0
EOF
