  0
SECTION
  2
HEADER
  9
$ACADVER
  1
AC1024
  9
$ACADMAINTVER
 70
     6
  9
$DWGCODEPAGE
  3
ANSI_1252
  9
$INSBASE
 10
0.0
 20
0.0
 30
0.0
  9
$EXTMIN
 10
1.000000E+20
 20
1.000000E+20
 30
1.000000E+20
  9
$EXTMAX
 10
-1.000000E+20
 20
-1.000000E+20
 30
-1.000000E+20
  9
$LIMMIN
 10
0.0
 20
0.0
  9
$LIMMAX
 10
420.0
 20
297.0
  9
$ORTHOMODE
 70
     0
  9
$REGENMODE
 70
     1
  9
$FILLMODE
 70
     1
  9
$QTEXTMODE
 70
     0
  9
$MIRRTEXT
 70
     1
  9
$LTSCALE
 40
1.0
  9
$ATTMODE
 70
     1
  9
$TEXTSIZE
 40
2.5
  9
$TRACEWID
 40
1.0
  9
$TEXTSTYLE
  7
Standard
  9
$CLAYER
  8
0
  9
$CELTYPE
  6
ByLayer
  9
$CECOLOR
 62
   256
  9
$CELTSCALE
 40
1.0
  9
$DISPSILH
 70
     0
  9
$DIMSCALE
 40
1.0
  9
$DIMASZ
 40
2.5
  9
$DIMEXO
 40
0.625
  9
$DIMDLI
 40
3.75
  9
$DIMRND
 40
0.0
  9
$DIMDLE
 40
0.0
  9
$DIMEXE
 40
1.25
  9
$DIMTP
 40
0.0
  9
$DIMTM
 40
0.0
  9
$DIMTXT
 40
2.5
  9
$DIMCEN
 40
2.5
  9
$DIMTSZ
 40
0.0
  9
$DIMTOL
 70
     0
  9
$DIMLIM
 70
     0
  9
$DIMTIH
 70
     0
  9
$DIMTOH
 70
     0
  9
$DIMSE1
 70
     0
  9
$DIMSE2
 70
     0
  9
$DIMTAD
 70
     1
  9
$DIMZIN
 70
     8
  9
$DIMBLK
  1

  9
$DIMASO
 70
     1
  9
$DIMSHO
 70
     1
  9
$DIMPOST
  1

  9
$DIMAPOST
  1

  9
$DIMALT
 70
     0
  9
$DIMALTD
 70
     3
  9
$DIMALTF
 40
0.03937
  9
$DIMLFAC
 40
1.0
  9
$DIMTOFL
 70
     1
  9
$DIMTVP
 40
0.0
  9
$DIMTIX
 70
     0
  9
$DIMSOXD
 70
     0
  9
$DIMSAH
 70
     0
  9
$DIMBLK1
  1

  9
$DIMBLK2
  1

  9
$DIMSTYLE
  2
ISO-25
  9
$DIMCLRD
 70
     0
  9
$DIMCLRE
 70
     0
  9
$DIMCLRT
 70
     0
  9
$DIMTFAC
 40
1.0
  9
$DIMGAP
 40
0.625
  9
$DIMJUST
 70
     0
  9
$DIMSD1
 70
     0
  9
$DIMSD2
 70
     0
  9
$DIMTOLJ
 70
     0
  9
$DIMTZIN
 70
     8
  9
$DIMALTZ
 70
     0
  9
$DIMALTTZ
 70
     0
  9
$DIMUPT
 70
     0
  9
$DIMDEC
 70
     2
  9
$DIMTDEC
 70
     2
  9
$DIMALTU
 70
     2
  9
$DIMALTTD
 70
     3
  9
$DIMTXSTY
  7
Standard
  9
$DIMAUNIT
 70
     0
  9
$DIMADEC
 70
     0
  9
$DIMALTRND
 40
0.0
  9
$DIMAZIN
 70
     0
  9
$DIMDSEP
 70
    44
  9
$DIMATFIT
 70
     3
  9
$DIMFRAC
 70
     0
  9
$DIMLDRBLK
  1

  9
$DIMLUNIT
 70
     2
  9
$DIMLWD
 70
    -2
  9
$DIMLWE
 70
    -2
  9
$DIMTMOVE
 70
     0
  9
$DIMFXL
 40
1.0
  9
$DIMFXLON
 70
     0
  9
$DIMJOGANG
 40
0.785398
  9
$DIMTFILL
 70
     0
  9
$DIMTFILLCLR
 70
     0
  9
$DIMARCSYM
 70
     0
  9
$DIMLTYPE
  6

  9
$DIMLTEX1
  6

  9
$DIMLTEX2
  6

  9
$DIMTXTDIRECTION
 70
     0
  9
$LUNITS
 70
     2
  9
$LUPREC
 70
     4
  9
$SKETCHINC
 40
1.0
  9
$FILLETRAD
 40
10.0
  9
$AUNITS
 70
     0
  9
$AUPREC
 70
     0
  9
$MENU
  1
.
  9
$ELEVATION
 40
0.0
  9
$PELEVATION
 40
0.0
  9
$THICKNESS
 40
0.0
  9
$LIMCHECK
 70
     0
  9
$CHAMFERA
 40
0.0
  9
$CHAMFERB
 40
0.0
  9
$CHAMFERC
 40
0.0
  9
$CHAMFERD
 40
0.0
  9
$SKPOLY
 70
     0
  9
$TDCREATE
 40
2458614.588946447
  9
$TDUCREATE
 40
2458614.505613113
  9
$TDUPDATE
 40
2458614.588947072
  9
$TDUUPDATE
 40
2458614.505613738
  9
$TDINDWG
 40
0.0000000116
  9
$TDUSRTIMER
 40
0.0000000116
  9
$USRTIMER
 70
     1
  9
$ANGBASE
 50
0.0
  9
$ANGDIR
 70
     0
  9
$PDMODE
 70
     0
  9
$PDSIZE
 40
0.0
  9
$PLINEWID
 40
0.0
  9
$SPLFRAME
 70
     0
  9
$SPLINETYPE
 70
     6
  9
$SPLINESEGS
 70
     8
  9
$HANDSEED
  5
1FB
  9
$SURFTAB1
 70
     6
  9
$SURFTAB2
 70
     6
  9
$SURFTYPE
 70
     6
  9
$SURFU
 70
     6
  9
$SURFV
 70
     6
  9
$UCSBASE
  2

  9
$UCSNAME
  2

  9
$UCSORG
 10
0.0
 20
0.0
 30
0.0
  9
$UCSXDIR
 10
1.0
 20
0.0
 30
0.0
  9
$UCSYDIR
 10
0.0
 20
1.0
 30
0.0
  9
$UCSORTHOREF
  2

  9
$UCSORTHOVIEW
 70
     0
  9
$UCSORGTOP
 10
0.0
 20
0.0
 30
0.0
  9
$UCSORGBOTTOM
 10
0.0
 20
0.0
 30
0.0
  9
$UCSORGLEFT
 10
0.0
 20
0.0
 30
0.0
  9
$UCSORGRIGHT
 10
0.0
 20
0.0
 30
0.0
  9
$UCSORGFRONT
 10
0.0
 20
0.0
 30
0.0
  9
$UCSORGBACK
 10
0.0
 20
0.0
 30
0.0
  9
$PUCSBASE
  2

  9
$PUCSNAME
  2

  9
$PUCSORG
 10
0.0
 20
0.0
 30
0.0
  9
$PUCSXDIR
 10
1.0
 20
0.0
 30
0.0
  9
$PUCSYDIR
 10
0.0
 20
1.0
 30
0.0
  9
$PUCSORTHOREF
  2

  9
$PUCSORTHOVIEW
 70
     0
  9
$PUCSORGTOP
 10
0.0
 20
0.0
 30
0.0
  9
$PUCSORGBOTTOM
 10
0.0
 20
0.0
 30
0.0
  9
$PUCSORGLEFT
 10
0.0
 20
0.0
 30
0.0
  9
$PUCSORGRIGHT
 10
0.0
 20
0.0
 30
0.0
  9
$PUCSORGFRONT
 10
0.0
 20
0.0
 30
0.0
  9
$PUCSORGBACK
 10
0.0
 20
0.0
 30
0.0
  9
$USERI1
 70
     0
  9
$USERI2
 70
     0
  9
$USERI3
 70
     0
  9
$USERI4
 70
     0
  9
$USERI5
 70
     0
  9
$USERR1
 40
0.0
  9
$USERR2
 40
0.0
  9
$USERR3
 40
0.0
  9
$USERR4
 40
0.0
  9
$USERR5
 40
0.0
  9
$WORLDVIEW
 70
     1
  9
$SHADEDGE
 70
     3
  9
$SHADEDIF
 70
    70
  9
$TILEMODE
 70
     1
  9
$MAXACTVP
 70
    64
  9
$PINSBASE
 10
0.0
 20
0.0
 30
0.0
  9
$PLIMCHECK
 70
     0
  9
$PEXTMIN
 10
1.000000E+20
 20
1.000000E+20
 30
1.000000E+20
  9
$PEXTMAX
 10
-1.000000E+20
 20
-1.000000E+20
 30
-1.000000E+20
  9
$PLIMMIN
 10
0.0
 20
0.0
  9
$PLIMMAX
 10
420.0
 20
297.0
  9
$UNITMODE
 70
     0
  9
$VISRETAIN
 70
     1
  9
$PLINEGEN
 70
     0
  9
$PSLTSCALE
 70
     1
  9
$TREEDEPTH
 70
  3020
  9
$CMLSTYLE
  2
Standard
  9
$CMLJUST
 70
     0
  9
$CMLSCALE
 40
20.0
  9
$PROXYGRAPHICS
 70
     1
  9
$MEASUREMENT
 70
     1
  9
$CELWEIGHT
370
    -1
  9
$ENDCAPS
280
     0
  9
$JOINSTYLE
280
     0
  9
$LWDISPLAY
290
     0
  9
$INSUNITS
 70
     4
  9
$HYPERLINKBASE
  1

  9
$STYLESHEET
  1

  9
$XEDIT
290
     1
  9
$CEPSNTYPE
380
     0
  9
$PSTYLEMODE
290
     1
  9
$FINGERPRINTGUID
  2
{A726310C-DDC0-4E6A-BF0A-882EC64F2951}
  9
$VERSIONGUID
  2
{FAEB1C32-E019-11D5-929B-00C0DF256EC4}
  9
$EXTNAMES
290
     1
  9
$PSVPSCALE
 40
0.0
  9
$OLESTARTUP
290
     0
  9
$SORTENTS
280
   127
  9
$INDEXCTL
280
     0
  9
$HIDETEXT
280
     1
  9
$XCLIPFRAME
280
     2
  9
$HALOGAP
280
     0
  9
$OBSCOLOR
 70
   257
  9
$OBSLTYPE
280
     0
  9
$INTERSECTIONDISPLAY
280
     0
  9
$INTERSECTIONCOLOR
 70
   257
  9
$DIMASSOC
280
     2
  9
$PROJECTNAME
  1

  9
$CAMERADISPLAY
290
     0
  9
$LENSLENGTH
 40
50.0
  9
$CAMERAHEIGHT
 40
0.0
  9
$STEPSPERSEC
 40
2.0
  9
$STEPSIZE
 40
6.0
  9
$3DDWFPREC
 40
2.0
  9
$PSOLWIDTH
 40
5.0
  9
$PSOLHEIGHT
 40
80.0
  9
$LOFTANG1
 40
1.570796
  9
$LOFTANG2
 40
1.570796
  9
$LOFTMAG1
 40
0.0
  9
$LOFTMAG2
 40
0.0
  9
$LOFTPARAM
 70
     7
  9
$LOFTNORMALS
280
     1
  9
$LATITUDE
 40
37.795
  9
$LONGITUDE
 40
-122.394
  9
$NORTHDIRECTION
 40
0.0
  9
$TIMEZONE
 70
 -8000
  9
$LIGHTGLYPHDISPLAY
280
     1
  9
$TILEMODELIGHTSYNCH
280
     1
  9
$CMATERIAL
347
44
  9
$SOLIDHIST
280
     0
  9
$SHOWHIST
280
     1
  9
$DWFFRAME
280
     2
  9
$DGNFRAME
280
     2
  9
$REALWORLDSCALE
290
     1
  9
$INTERFERECOLOR
 62
   256
  9
$CSHADOW
280
     0
  9
$SHADOWPLANELOCATION
 40
0.0
  0
ENDSEC
  0
SECTION
  2
CLASSES
  0
CLASS
  1
ACDBDICTIONARYWDFLT
  2
AcDbDictionaryWithDefault
  3
ObjectDBX Classes
 90
        0
 91
        4
280
     0
281
     0
  0
CLASS
  1
VISUALSTYLE
  2
AcDbVisualStyle
  3
ObjectDBX Classes
 90
     4095
 91
        4
280
     0
281
     0
  0
CLASS
  1
MATERIAL
  2
AcDbMaterial
  3
ObjectDBX Classes
 90
     1153
 91
        4
280
     0
281
     0
  0
CLASS
  1
SCALE
  2
AcDbScale
  3
ObjectDBX Classes
 90
     1153
 91
        4
280
     0
281
     0
  0
CLASS
  1
TABLESTYLE
  2
AcDbTableStyle
  3
ObjectDBX Classes
 90
     4095
 91
        4
280
     0
281
     0
  0
CLASS
  1
MLEADERSTYLE
  2
AcDbMLeaderStyle
  3
ACDB_MLEADERSTYLE_CLASS
 90
     4095
 91
        4
280
     0
281
     0
  0
CLASS
  1
SUN
  2
AcDbSun
  3
SCENEOE
 90
     1153
 91
        4
280
     0
281
     0
  0
CLASS
  1
DICTIONARYVAR
  2
AcDbDictionaryVar
  3
ObjectDBX Classes
 90
        0
 91
        4
280
     0
281
     0
  0
CLASS
  1
CELLSTYLEMAP
  2
AcDbCellStyleMap
  3
ObjectDBX Classes
 90
     1152
 91
        4
280
     0
281
     0
  0
ENDSEC
  0
SECTION
  2
TABLES
  0
TABLE
  2
VPORT
  5
8
330
0
100
AcDbSymbolTable
 70
     1
  0
VPORT
  5
29
330
8
100
AcDbSymbolTableRecord
100
AcDbViewportTableRecord
  2
*Active
 70
     0
 10
0.0
 20
0.0
 11
1.0
 21
1.0
 12
344.186916
 22
148.5
 13
0.0
 23
0.0
 14
10.0
 24
10.0
 15
10.0
 25
10.0
 16
0.0
 26
0.0
 36
1.0
 17
0.0
 27
0.0
 37
0.0
 40
297.0
 41
1.972973
 42
50.0
 43
0.0
 44
0.0
 50
0.0
 51
0.0
 71
     0
 72
   100
 73
     1
 74
     3
 75
     0
 76
     0
 77
     0
 78
     0
281
     0
 65
     1
110
0.0
120
0.0
130
0.0
111
1.0
121
0.0
131
0.0
112
0.0
122
1.0
132
0.0
 79
     0
146
0.0
348
2F
 60
     3
 61
     5
292
     1
282
     1
141
0.0
142
0.0
 63
   250
361
6D
  0
ENDTAB
  0
TABLE
  2
LTYPE
  5
5
330
0
100
AcDbSymbolTable
 70
     1
  0
LTYPE
  5
14
330
5
100
AcDbSymbolTableRecord
100
AcDbLinetypeTableRecord
  2
ByBlock
 70
     0
  3

 72
    65
 73
     0
 40
0.0
  0
LTYPE
  5
15
330
5
100
AcDbSymbolTableRecord
100
AcDbLinetypeTableRecord
  2
ByLayer
 70
     0
  3

 72
    65
 73
     0
 40
0.0
  0
LTYPE
  5
16
330
5
100
AcDbSymbolTableRecord
100
AcDbLinetypeTableRecord
  2
Continuous
 70
     0
  3
Solid line
 72
    65
 73
     0
 40
0.0
  0
ENDTAB
  0
TABLE
  2
LAYER
  5
2
330
0
100
AcDbSymbolTable
 70
     1
  0
LAYER
  5
10
330
2
100
AcDbSymbolTableRecord
100
AcDbLayerTableRecord
  2
0
 70
     0
 62
   106
  6
Continuous
370
     0
390
F
347
46
  0
ENDTAB
  0
TABLE
  2
STYLE
  5
3
330
0
100
AcDbSymbolTable
 70
     4
  0
STYLE
  5
11
330
3
100
AcDbSymbolTableRecord
100
AcDbTextStyleTableRecord
  2
Standard
 70
     0
 40
0.0
 41
1.0
 50
0.0
 71
     0
 42
2.5
  3
txt
  4

  0
STYLE
  5
6E
330
3
100
AcDbSymbolTableRecord
100
AcDbTextStyleTableRecord
  2
Default
 70
     0
 40
0.0
 41
1.0
 50
0.0
 71
     0
 42
2.5
  3

  4

1001
ACAD
1000
txt
1071
        0
  0
STYLE
  5
6F
330
3
100
AcDbSymbolTableRecord
100
AcDbTextStyleTableRecord
  2
ISO
 70
     0
 40
0.0
 41
1.0
 50
0.0
 71
     0
 42
2.5
  3

  4

1001
ACAD
1000
txt
1071
        0
  0
STYLE
  5
70
330
3
100
AcDbSymbolTableRecord
100
AcDbTextStyleTableRecord
  2
zucchetti
 70
     0
 40
0.0
 41
1.0
 50
0.0
 71
     0
 42
2.5
  3

  4

1001
ACAD
1000
Arial
1071
        0
  0
ENDTAB
  0
TABLE
  2
VIEW
  5
6
330
0
100
AcDbSymbolTable
 70
     0
  0
ENDTAB
  0
TABLE
  2
UCS
  5
7
330
0
100
AcDbSymbolTable
 70
     0
  0
ENDTAB
  0
TABLE
  2
APPID
  5
9
330
0
100
AcDbSymbolTable
 70
     1
  0
APPID
  5
12
330
9
100
AcDbSymbolTableRecord
100
AcDbRegAppTableRecord
  2
ACAD
 70
     0
  0
ENDTAB
  0
TABLE
  2
DIMSTYLE
  5
A
330
0
100
AcDbSymbolTable
 70
     4
100
AcDbDimStyleTable
  0
DIMSTYLE
105
27
330
A
100
AcDbSymbolTableRecord
100
AcDbDimStyleTableRecord
  2
ISO-25
 70
     0
 41
2.5
 42
0.625
 43
3.75
 44
1.25
 73
     0
 74
     0
 77
     1
 78
     8
140
2.5
141
2.5
143
0.03937
147
0.625
171
     3
172
     1
178
     0
271
     2
272
     2
274
     3
278
    44
283
     0
284
     8
340
11
  0
DIMSTYLE
105
71
330
A
100
AcDbSymbolTableRecord
100
AcDbDimStyleTableRecord
  2
Default
 70
     0
  3
<>
 41
4.375
 42
1.05
 44
2.1
 49
10.01
 73
     0
 74
     0
 77
     1
 78
     8
140
3.5
146
0.4
147
1.75
172
     1
271
     2
178
     3
271
     2
272
     3
284
     8
340
6E
341
72
342
72
  0
DIMSTYLE
105
79
330
A
100
AcDbSymbolTableRecord
100
AcDbDimStyleTableRecord
  2
ISO
 70
     0
  3
<>
 41
4.375
 42
1.05
 44
2.1
 49
10.01
 73
     0
 74
     0
 77
     1
 78
     8
140
3.5
146
0.4
147
1.75
172
     1
271
     2
178
     3
271
     2
272
     3
284
     8
340
6F
341
72
342
72
  0
DIMSTYLE
105
7A
330
A
100
AcDbSymbolTableRecord
100
AcDbDimStyleTableRecord
  2
zucchetti
 70
     0
  3
<>
 41
3.0
 42
0.9
 44
1.8
 49
8.58
 73
     0
 74
     0
 77
     1
 78
     8
140
3.0
146
0.6
147
1.5
172
     1
176
     3
177
     3
271
     2
178
     3
271
     2
272
     2
284
     8
340
70
  0
ENDTAB
  0
TABLE
  2
BLOCK_RECORD
  5
1
330
0
100
AcDbSymbolTable
 70
     6
  0
BLOCK_RECORD
  5
1F
330
1
100
AcDbSymbolTableRecord
100
AcDbBlockTableRecord
  2
*Model_Space
340
22
 70
     0
280
     1
281
     0
  0
BLOCK_RECORD
  5
1B
330
1
100
AcDbSymbolTableRecord
100
AcDbBlockTableRecord
  2
*Paper_Space
340
1E
 70
     0
280
     1
281
     0
  0
BLOCK_RECORD
  5
23
330
1
100
AcDbSymbolTableRecord
100
AcDbBlockTableRecord
  2
*Paper_Space0
340
26
 70
     0
280
     1
281
     0
  0
BLOCK_RECORD
  5
72
330
1
100
AcDbSymbolTableRecord
100
AcDbBlockTableRecord
  2
_CLOSED
340
0
 70
     0
280
     1
281
     0
  0
BLOCK_RECORD
  5
7B
330
1
100
AcDbSymbolTableRecord
100
AcDbBlockTableRecord
  2
a
340
0
102
{BLKREFS
331
AC
102
}
 70
     0
280
     1
281
     0
  0
BLOCK_RECORD
  5
AD
330
1
100
AcDbSymbolTableRecord
100
AcDbBlockTableRecord
  2
b
340
0
102
{BLKREFS
331
10B
102
}
 70
     0
280
     1
281
     0
  0
BLOCK_RECORD
  5
10C
330
1
100
AcDbSymbolTableRecord
100
AcDbBlockTableRecord
  2
c
340
0
102
{BLKREFS
331
166
102
}
 70
     0
280
     1
281
     0
  0
BLOCK_RECORD
  5
167
330
1
100
AcDbSymbolTableRecord
100
AcDbBlockTableRecord
  2
d
340
0
102
{BLKREFS
331
1C1
102
}
 70
     0
280
     1
281
     0
  0
ENDTAB
  0
ENDSEC
  0
SECTION
  2
BLOCKS
  0
BLOCK
  5
20
330
1F
100
AcDbEntity
  8
0
100
AcDbBlockBegin
  2
*Model_Space
 70
     0
 10
0.0
 20
0.0
 30
0.0
  3
*Model_Space
  1

  0
ENDBLK
  5
21
330
1F
100
AcDbEntity
  8
0
100
AcDbBlockEnd
  0
BLOCK
  5
1C
330
1B
100
AcDbEntity
 67
     1
  8
0
100
AcDbBlockBegin
  2
*Paper_Space
 70
     0
 10
0.0
 20
0.0
 30
0.0
  3
*Paper_Space
  1

  0
ENDBLK
  5
1D
330
1B
100
AcDbEntity
 67
     1
  8
0
100
AcDbBlockEnd
  0
BLOCK
  5
24
330
23
100
AcDbEntity
  8
0
100
AcDbBlockBegin
  2
*Paper_Space0
 70
     0
 10
0.0
 20
0.0
 30
0.0
  3
*Paper_Space0
  1

  0
ENDBLK
  5
25
330
23
100
AcDbEntity
  8
0
100
AcDbBlockEnd
  0
BLOCK
  5
73
330
72
100
AcDbEntity
  8
0
100
AcDbBlockBegin
  2
_CLOSED
 70
     0
 10
0.0
 20
0.0
 30
0.0
  3
_CLOSED
  1

  0
LINE
  5
75
330
72
100
AcDbEntity
  8
0
  6
ByBlock
 62
     0
370
    -2
100
AcDbLine
 10
-1.0
 20
0.166667
 30
0.0
 11
0.0
 21
0.0
 31
0.0
  0
LINE
  5
76
330
72
100
AcDbEntity
  8
0
  6
ByBlock
 62
     0
370
    -2
100
AcDbLine
 10
0.0
 20
0.0
 30
0.0
 11
-1.0
 21
-0.166667
 31
0.0
  0
LINE
  5
77
330
72
100
AcDbEntity
  8
0
  6
ByBlock
 62
     0
370
    -2
100
AcDbLine
 10
-1.0
 20
0.166667
 30
0.0
 11
-1.0
 21
-0.166667
 31
0.0
  0
LINE
  5
78
330
72
100
AcDbEntity
  8
0
  6
ByBlock
 62
     0
370
    -2
100
AcDbLine
 10
0.0
 20
0.0
 30
0.0
 11
-1.0
 21
0.0
 31
0.0
  0
ENDBLK
  5
74
330
72
100
AcDbEntity
  8
0
100
AcDbBlockEnd
  0
BLOCK
  5
AA
330
7B
100
AcDbEntity
  8
0
100
AcDbBlockBegin
  2
a
 70
     0
 10
237.985809
 20
406.731262
 30
0.0
  3
a
  1

  0
LWPOLYLINE
  5
7C
330
7B
100
AcDbEntity
  8
0
  6
Continuous
 62
     0
370
     0
100
AcDbPolyline
 90
       24
 70
     0
 43
0.0
 10
300.031555
 20
487.40152
 10
300.038208
 20
487.403473
 10
300.047546
 20
487.400848
 10
300.061615
 20
487.390015
 10
300.08432
 20
487.364075
 10
300.122528
 20
487.310852
 10
300.187744
 20
487.20932
 10
300.290039
 20
487.03949
 10
300.419708
 20
486.815948
 10
300.559967
 20
486.568909
 10
300.703094
 20
486.313446
 10
300.846771
 20
486.054749
 10
300.990234
 20
485.794464
 10
301.134308
 20
485.533844
 10
301.280182
 20
485.273926
 10
301.429077
 20
485.015564
 10
301.582123
 20
484.759613
 10
301.740143
 20
484.506653
 10
301.903351
 20
484.25705
 10
302.071869
 20
484.011108
 10
302.245575
 20
483.76886
 10
302.424133
 20
483.530212
 10
302.60791
 20
483.295624
 10
302.802582
 20
483.064209
  0
LWPOLYLINE
  5
7D
330
7B
100
AcDbEntity
  8
0
  6
Continuous
 62
     0
370
     0
100
AcDbPolyline
 90
       15
 70
     0
 43
0.0
 10
302.802582
 20
483.064209
 10
303.913757
 20
483.385529
 10
305.035583
 20
483.668945
 10
306.166443
 20
483.91626
 10
307.306366
 20
484.121185
 10
308.454865
 20
484.27771
 10
309.610504
 20
484.379059
 10
310.770599
 20
484.415985
 10
311.930786
 20
484.381134
 10
313.086609
 20
484.281555
 10
314.235321
 20
484.126556
 10
315.375549
 20
483.923004
 10
316.506653
 20
483.676819
 10
317.628662
 20
483.394073
 10
318.772736
 20
483.064362
  0
LWPOLYLINE
  5
7E
330
7B
100
AcDbEntity
  8
0
  6
Continuous
 62
     0
370
     0
100
AcDbPolyline
 90
       24
 70
     0
 43
0.0
 10
318.772736
 20
483.064362
 10
318.963867
 20
483.292633
 10
319.147766
 20
483.527222
 10
319.326843
 20
483.765656
 10
319.500885
 20
484.007782
 10
319.669586
 20
484.253693
 10
319.832886
 20
484.503235
 10
319.990936
 20
484.756104
 10
320.144012
 20
485.012024
 10
320.292969
 20
485.270325
 10
320.438873
 20
485.530243
 10
320.582916
 20
485.790833
 10
320.726379
 20
486.051117
 10
320.870026
 20
486.309845
 10
321.013184
 20
486.565338
 10
321.153473
 20
486.812561
 10
321.283417
 20
487.036682
 10
321.38623
 20
487.207489
 10
321.451965
 20
487.309937
 10
321.490448
 20
487.363708
 10
321.513367
 20
487.389954
 10
321.527527
 20
487.40094
 10
321.536896
 20
487.403656
 10
321.543671
 20
487.401703
  0
LWPOLYLINE
  5
7F
330
7B
100
AcDbEntity
  8
0
  6
Continuous
 62
     0
370
     0
100
AcDbPolyline
 90
       16
 70
     0
 43
0.0
 10
332.706177
 20
463.932465
 10
332.748352
 20
465.109131
 10
332.75885
 20
466.286774
 10
332.737793
 20
467.464294
 10
332.683655
 20
468.640625
 10
332.593475
 20
469.814758
 10
332.463501
 20
470.98526
 10
332.288361
 20
472.149841
 10
332.062653
 20
473.305817
 10
331.781464
 20
474.449524
 10
331.440521
 20
475.576965
 10
331.036896
 20
476.683502
 10
330.568726
 20
477.764404
 10
330.036804
 20
478.815338
 10
329.443054
 20
479.832581
 10
328.748627
 20
480.874054
  0
LWPOLYLINE
  5
80
330
7B
100
AcDbEntity
  8
0
  6
Continuous
 62
     0
370
     0
100
AcDbPolyline
 90
       26
 70
     0
 43
0.0
 10
321.552765
 20
487.393951
 10
322.54245
 20
486.802429
 10
323.499664
 20
486.156403
 10
324.422363
 20
485.459534
 10
325.307404
 20
484.715912
 10
326.151794
 20
483.929291
 10
326.953827
 20
483.101288
 10
327.712189
 20
482.232819
 10
328.423676
 20
481.325104
 10
329.084045
 20
480.379517
 10
329.687317
 20
479.396698
 10
330.227173
 20
478.377533
 10
330.69928
 20
477.325287
 10
331.101624
 20
476.244537
 10
331.438019
 20
475.141357
 10
331.714386
 20
474.021881
 10
331.938965
 20
472.890778
 10
332.120117
 20
471.752136
 10
332.265625
 20
470.608337
 10
332.382751
 20
469.461365
 10
332.476562
 20
468.312286
 10
332.551361
 20
467.161835
 10
332.610474
 20
466.010468
 10
332.655609
 20
464.858521
 10
332.688324
 20
463.706116
 10
332.709961
 20
462.52832
  0
LWPOLYLINE
  5
81
330
7B
100
AcDbEntity
  8
0
  6
Continuous
 62
     0
370
     0
100
AcDbPolyline
 90
       27
 70
     0
 43
0.0
 10
318.772736
 20
483.064362
 10
319.437042
 20
482.155396
 10
320.065094
 20
481.220612
 10
320.66272
 20
480.266327
 10
321.230316
 20
479.293945
 10
321.769104
 20
478.305298
 10
322.279572
 20
477.30188
 10
322.752808
 20
476.280334
 10
323.170624
 20
475.235077
 10
323.517853
 20
474.164062
 10
323.794128
 20
473.072632
 10
324.008423
 20
471.967194
 10
324.172028
 20
470.85318
 10
324.295471
 20
469.733917
 10
324.388062
 20
468.611786
 10
324.457336
 20
467.487915
 10
324.510132
 20
466.36319
 10
324.550018
 20
465.237976
 10
324.579559
 20
464.112457
 10
324.600983
 20
462.986755
 10
324.61554
 20
461.860962
 10
324.624298
 20
460.735107
 10
324.628296
 20
459.609222
 10
324.628235
 20
458.483368
 10
324.624817
 20
457.357574
 10
324.618774
 20
456.231873
 10
324.610992
 20
455.080383
  0
LWPOLYLINE
  5
82
330
7B
100
AcDbEntity
  8
0
  6
Continuous
 62
     0
370
     0
100
AcDbPolyline
 90
       31
 70
     0
 43
0.0
 10
324.610992
 20
455.080383
 10
324.913086
 20
455.080109
 10
325.215179
 20
455.079865
 10
325.517273
 20
455.07959
 10
325.819336
 20
455.079346
 10
326.121429
 20
455.079102
 10
326.423492
 20
455.078857
 10
326.725555
 20
455.078613
 10
327.027588
 20
455.0784
 10
327.329651
 20
455.078186
 10
327.631683
 20
455.077972
 10
327.933716
 20
455.077759
 10
328.235748
 20
455.077576
 10
328.53775
 20
455.077393
 10
328.839752
 20
455.077179
 10
329.141663
 20
455.076996
 10
329.443512
 20
455.076813
 10
329.745239
 20
455.076599
 10
330.046844
 20
455.076355
 10
330.348297
 20
455.076111
 10
330.649567
 20
455.075806
 10
330.9505
 20
455.075409
 10
331.250885
 20
455.074799
 10
331.549866
 20
455.073578
 10
331.845703
 20
455.070892
 10
332.132568
 20
455.065002
 10
332.388428
 20
455.051971
 10
332.575623
 20
455.02951
 10
332.683838
 20
454.993042
 10
332.735229
 20
454.932098
 10
332.749237
 20
454.843567
  0
LWPOLYLINE
  5
83
330
7B
100
AcDbEntity
  8
0
  6
Continuous
 62
     0
370
     0
100
AcDbPolyline
 90
        8
 70
     0
 43
0.0
 10
300.128021
 20
414.59967
 10
303.15979
 20
414.546539
 10
306.193817
 20
414.521912
 10
309.229218
 20
414.512695
 10
312.265137
 20
414.512604
 10
315.300568
 20
414.521576
 10
318.334625
 20
414.545746
 10
321.448486
 20
414.599854
  0
LWPOLYLINE
  5
84
330
7B
100
AcDbEntity
  8
0
  6
Continuous
 62
     0
370
     0
100
AcDbPolyline
 90
       78
 70
     0
 43
0.0
 10
321.448486
 20
414.599854
 10
321.897186
 20
414.90567
 10
322.299927
 20
415.266571
 10
322.648041
 20
415.677368
 10
322.929504
 20
416.13382
 10
323.14679
 20
416.622253
 10
323.314697
 20
417.128632
 10
323.446564
 20
417.644928
 10
323.552368
 20
418.16684
 10
323.639465
 20
418.691925
 10
323.712402
 20
419.219025
 10
323.774475
 20
419.747375
 10
323.827454
 20
420.276733
 10
323.872894
 20
420.806793
 10
323.912354
 20
421.337341
 10
323.947327
 20
421.868134
 10
323.978668
 20
422.399078
 10
324.006805
 20
422.930145
 10
324.032196
 20
423.461365
 10
324.055267
 20
423.992645
 10
324.076477
 20
424.523987
 10
324.096191
 20
425.05542
 10
324.114685
 20
425.586853
 10
324.13205
 20
426.118378
 10
324.148438
 20
426.649902
 10
324.164001
 20
427.181458
 10
324.178894
 20
427.713043
 10
324.193207
 20
428.244629
 10
324.207123
 20
428.776245
 10
324.220703
 20
429.307861
 10
324.233978
 20
429.839478
 10
324.246918
 20
430.371124
 10
324.259583
 20
430.902802
 10
324.271942
 20
431.434509
 10
324.283997
 20
431.966248
 10
324.295807
 20
432.498047
 10
324.307343
 20
433.029877
 10
324.318634
 20
433.561737
 10
324.329681
 20
434.093689
 10
324.340485
 20
434.625671
 10
324.351074
 20
435.157715
 10
324.36142
 20
435.68985
 10
324.371552
 20
436.222046
 10
324.38147
 20
436.754333
 10
324.391174
 20
437.286682
 10
324.400696
 20
437.819122
 10
324.410004
 20
438.351654
 10
324.419128
 20
438.884277
 10
324.42807
 20
439.417023
 10
324.436829
 20
439.94989
 10
324.445435
 20
440.48288
 10
324.453827
 20
441.016052
 10
324.462067
 20
441.549377
 10
324.470123
 20
442.082916
 10
324.478027
 20
442.616638
 10
324.485779
 20
443.150574
 10
324.493347
 20
443.684753
 10
324.500763
 20
444.219208
 10
324.508026
 20
444.754028
 10
324.515167
 20
445.289215
 10
324.522125
 20
445.82489
 10
324.528961
 20
446.361206
 10
324.535583
 20
446.898346
 10
324.542053
 20
447.436401
 10
324.54834
 20
447.975494
 10
324.554413
 20
448.515747
 10
324.560272
 20
449.05722
 10
324.565887
 20
449.600037
 10
324.571259
 20
450.144257
 10
324.576416
 20
450.689728
 10
324.581299
 20
451.236328
 10
324.585999
 20
451.783844
 10
324.590515
 20
452.332092
 10
324.594849
 20
452.88089
 10
324.59903
 20
453.430084
 10
324.603088
 20
453.979523
 10
324.607086
 20
454.529083
 10
324.610992
 20
455.080383
  0
LWPOLYLINE
  5
85
330
7B
100
AcDbEntity
  8
0
  6
Continuous
 62
     0
370
     0
100
AcDbPolyline
 90
       27
 70
     0
 43
0.0
 10
302.802582
 20
483.064209
 10
302.138947
 20
482.154724
 10
301.510345
 20
481.220367
 10
300.912537
 20
480.266205
 10
300.345093
 20
479.293732
 10
299.806274
 20
478.305115
 10
299.295837
 20
477.301666
 10
298.822601
 20
476.28009
 10
298.404816
 20
475.234863
 10
298.057617
 20
474.163849
 10
297.781342
 20
473.072388
 10
297.567078
 20
471.966949
 10
297.403473
 20
470.852936
 10
297.28006
 20
469.733673
 10
297.1875
 20
468.611542
 10
297.118225
 20
467.487671
 10
297.06546
 20
466.362946
 10
297.025604
 20
465.237732
 10
296.996063
 20
464.112183
 10
296.97467
 20
462.986511
 10
296.960144
 20
461.860687
 10
296.951385
 20
460.734833
 10
296.947418
 20
459.608948
 10
296.94751
 20
458.483093
 10
296.950958
 20
457.3573
 10
296.957001
 20
456.231598
 10
296.964783
 20
455.08017
  0
LWPOLYLINE
  5
86
330
7B
100
AcDbEntity
  8
0
  6
Continuous
 62
     0
370
     0
100
AcDbPolyline
 90
       78
 70
     0
 43
0.0
 10
296.964783
 20
455.08017
 10
296.968719
 20
454.530518
 10
296.972717
 20
453.980988
 10
296.976776
 20
453.431549
 10
296.980988
 20
452.882385
 10
296.985321
 20
452.333618
 10
296.989838
 20
451.78537
 10
296.994537
 20
451.237854
 10
296.999451
 20
450.691284
 10
297.004608
 20
450.145813
 10
297.009979
 20
449.601624
 10
297.015625
 20
449.058807
 10
297.021484
 20
448.517334
 10
297.027557
 20
447.977081
 10
297.033844
 20
447.437988
 10
297.040314
 20
446.899933
 10
297.046967
 20
446.362823
 10
297.053802
 20
445.826508
 10
297.060791
 20
445.290833
 10
297.067932
 20
444.755676
 10
297.075195
 20
444.220886
 10
297.082642
 20
443.686401
 10
297.09021
 20
443.152252
 10
297.097961
 20
442.618317
 10
297.105865
 20
442.084625
 10
297.113922
 20
441.551117
 10
297.122192
 20
441.017792
 10
297.130585
 20
440.484619
 10
297.139191
 20
439.95163
 10
297.147949
 20
439.418793
 10
297.156921
 20
438.886047
 10
297.166046
 20
438.353455
 10
297.175385
 20
437.820923
 10
297.184906
 20
437.288483
 10
297.194611
 20
436.756165
 10
297.204559
 20
436.223907
 10
297.214691
 20
435.691711
 10
297.225037
 20
435.159607
 10
297.235626
 20
434.627563
 10
297.24646
 20
434.095581
 10
297.257507
 20
433.56366
 10
297.268799
 20
433.031799
 10
297.280334
 20
432.499969
 10
297.292145
 20
431.968201
 10
297.30423
 20
431.436462
 10
297.316589
 20
430.904785
 10
297.329254
 20
430.373108
 10
297.342194
 20
429.841492
 10
297.355469
 20
429.309875
 10
297.36908
 20
428.778259
 10
297.382996
 20
428.246674
 10
297.397339
 20
427.715088
 10
297.412201
 20
427.183502
 10
297.427795
 20
426.651978
 10
297.444183
 20
426.120453
 10
297.461548
 20
425.588959
 10
297.480042
 20
425.057526
 10
297.499756
 20
424.526123
 10
297.520966
 20
423.994781
 10
297.544037
 20
423.463501
 10
297.569427
 20
422.932312
 10
297.597565
 20
422.401245
 10
297.628906
 20
421.870331
 10
297.663849
 20
421.339539
 10
297.703308
 20
420.80899
 10
297.748718
 20
420.278931
 10
297.801666
 20
419.749634
 10
297.863708
 20
419.221252
 10
297.936584
 20
418.694183
 10
298.023621
 20
418.169067
 10
298.129333
 20
417.647186
 10
298.261078
 20
417.130859
 10
298.428772
 20
416.62442
 10
298.645782
 20
416.135895
 10
298.92691
 20
415.67926
 10
299.274628
 20
415.268158
 10
299.676849
 20
414.906708
 10
300.128021
 20
414.59967
  0
LWPOLYLINE
  5
87
330
7B
100
AcDbEntity
  8
0
  6
Continuous
 62
     0
370
     0
100
AcDbPolyline
 90
       20
 70
     0
 43
0.0
 10
321.448486
 20
414.599854
 10
321.732147
 20
414.449768
 10
322.007629
 20
414.284851
 10
322.27655
 20
414.109589
 10
322.538208
 20
413.92395
 10
322.791229
 20
413.726532
 10
323.033966
 20
413.516541
 10
323.264648
 20
413.293549
 10
323.483154
 20
413.058472
 10
323.692078
 20
412.81427
 10
323.894501
 20
412.564758
 10
324.093658
 20
412.314178
 10
324.29071
 20
412.06076
 10
324.4758
 20
411.812012
 10
324.627289
 20
411.590973
 10
324.728821
 20
411.419495
 10
324.786987
 20
411.296478
 10
324.81601
 20
411.208466
 10
324.821564
 20
411.149994
 10
324.803345
 20
411.12262
  0
LWPOLYLINE
  5
88
330
7B
100
AcDbEntity
  8
0
  6
Continuous
 62
     0
370
     0
100
AcDbPolyline
 90
       20
 70
     0
 43
0.0
 10
300.128021
 20
414.59967
 10
299.844513
 20
414.449219
 10
299.569061
 20
414.28418
 10
299.300049
 20
414.109009
 10
299.038208
 20
413.923553
 10
298.785095
 20
413.726227
 10
298.542358
 20
413.516144
 10
298.311676
 20
413.293091
 10
298.09314
 20
413.057983
 10
297.884216
 20
412.813721
 10
297.681793
 20
412.564178
 10
297.482605
 20
412.313599
 10
297.285553
 20
412.06012
 10
297.100464
 20
411.811371
 10
296.949066
 20
411.590393
 10
296.847595
 20
411.418976
 10
296.78949
 20
411.296021
 10
296.760529
 20
411.208069
 10
296.755005
 20
411.149628
 10
296.773285
 20
411.122345
  0
LWPOLYLINE
  5
89
330
7B
100
AcDbEntity
  8
0
  6
Continuous
 62
     0
370
     0
100
AcDbPolyline
 90
       26
 70
     0
 43
0.0
 10
288.866089
 20
462.555786
 10
288.88736
 20
463.707275
 10
288.920013
 20
464.85849
 10
288.965088
 20
466.009277
 10
289.024109
 20
467.159454
 10
289.098755
 20
468.308777
 10
289.192413
 20
469.456696
 10
289.309265
 20
470.602509
 10
289.454437
 20
471.745178
 10
289.635162
 20
472.882721
 10
289.859161
 20
474.012726
 10
290.134735
 20
475.131226
 10
290.470184
 20
476.233429
 10
290.871399
 20
477.313385
 10
291.342194
 20
478.364929
 10
291.880676
 20
479.383484
 10
292.482544
 20
480.365814
 10
293.141449
 20
481.311005
 10
293.85144
 20
482.218384
 10
294.608276
 20
483.08667
 10
295.408752
 20
483.914551
 10
296.251495
 20
484.701141
 10
297.134857
 20
485.444916
 10
298.055908
 20
486.14209
 10
299.011414
 20
486.788605
 10
300.022461
 20
487.393768
  0
LWPOLYLINE
  5
8A
330
7B
100
AcDbEntity
  8
0
  6
Continuous
 62
     0
370
     0
100
AcDbPolyline
 90
       16
 70
     0
 43
0.0
 10
292.711456
 20
480.709991
 10
292.073273
 20
479.737
 10
291.492065
 20
478.729034
 10
290.971405
 20
477.688416
 10
290.513062
 20
476.618896
 10
290.117676
 20
475.524567
 10
289.783356
 20
474.410095
 10
289.507233
 20
473.279846
 10
289.285126
 20
472.137756
 10
289.112305
 20
470.987305
 10
288.983612
 20
469.831055
 10
288.893799
 20
468.671265
 10
288.839233
 20
467.509247
 10
288.817047
 20
466.346069
 10
288.825684
 20
465.182709
 10
288.869446
 20
463.932861
  0
LWPOLYLINE
  5
8B
330
7B
100
AcDbEntity
  8
0
  6
Continuous
 62
     0
370
     0
100
AcDbPolyline
 90
       31
 70
     0
 43
0.0
 10
288.826569
 20
454.843109
 10
288.840363
 20
454.931213
 10
288.891449
 20
454.99234
 10
288.999207
 20
455.028931
 10
289.185822
 20
455.051453
 10
289.441406
 20
455.064575
 10
289.728149
 20
455.070496
 10
290.023956
 20
455.073181
 10
290.322968
 20
455.074432
 10
290.623352
 20
455.075043
 10
290.924286
 20
455.075439
 10
291.225555
 20
455.075745
 10
291.527008
 20
455.076019
 10
291.828644
 20
455.076263
 10
292.130371
 20
455.076477
 10
292.43222
 20
455.076691
 10
292.734161
 20
455.076874
 10
293.036163
 20
455.077057
 10
293.338165
 20
455.077271
 10
293.640228
 20
455.077454
 10
293.942261
 20
455.077667
 10
294.244324
 20
455.077881
 10
294.546387
 20
455.078094
 10
294.84845
 20
455.078339
 10
295.150513
 20
455.078583
 10
295.452576
 20
455.078827
 10
295.754669
 20
455.079071
 10
296.056763
 20
455.079346
 10
296.358856
 20
455.07959
 10
296.66095
 20
455.079865
 10
296.964783
 20
455.08017
  0
LWPOLYLINE
  5
8C
330
7B
100
AcDbEntity
  8
0
  6
Continuous
 62
     0
370
    30
100
AcDbPolyline
 90
        4
 70
     0
 43
0.0
 10
288.859283
 20
464.005005
 10
288.682404
 20
465.238159
 10
288.57486
 20
466.479126
 10
288.537903
 20
467.799469
  0
LWPOLYLINE
  5
8D
330
7B
100
AcDbEntity
  8
0
  6
Continuous
 62
     0
370
    30
100
AcDbPolyline
 90
        4
 70
     0
 43
0.0
 10
333.037659
 20
467.799866
 10
333.005066
 20
466.555817
 10
332.901794
 20
465.314392
 10
332.716309
 20
464.005096
  0
LWPOLYLINE
  5
8E
330
7B
100
AcDbEntity
  8
0
  6
Continuous
 62
     0
370
    30
100
AcDbPolyline
 90
       12
 70
     0
 43
0.0
 10
292.975403
 20
481.084381
 10
292.227173
 20
480.009735
 10
291.547028
 20
478.896454
 10
290.936737
 20
477.748383
 10
290.396667
 20
476.570007
 10
289.92627
 20
475.365906
 10
289.524475
 20
474.140808
 10
289.190186
 20
472.897766
 10
288.922729
 20
471.638916
 10
288.723267
 20
470.368225
 10
288.593933
 20
469.090668
 10
288.537842
 20
467.799469
  0
LWPOLYLINE
  5
8F
330
7B
100
AcDbEntity
  8
0
  6
Continuous
 62
     0
370
    30
100
AcDbPolyline
 90
       12
 70
     0
 43
0.0
 10
333.03775
 20
467.799866
 10
332.982452
 20
469.079285
 10
332.853912
 20
470.355865
 10
332.655304
 20
471.625641
 10
332.388794
 20
472.883667
 10
332.055542
 20
474.125916
 10
331.654907
 20
475.35025
 10
331.185791
 20
476.55368
 10
330.647125
 20
477.731537
 10
330.038391
 20
478.879211
 10
329.359863
 20
479.992188
 10
328.606201
 20
481.076263
  0
ARC
  5
90
330
7B
100
AcDbEntity
  8
0
  6
Continuous
 62
     0
370
     0
100
AcDbCircle
 10
310.787787
 20
515.752476
 30
0.0
 40
10.64999998807905
100
AcDbArc
 50
202.44828
 51
22.44828
  0
ARC
  5
91
330
7B
100
AcDbEntity
  8
0
  6
Continuous
 62
     0
370
     0
100
AcDbCircle
 10
310.787787
 20
515.752476
 30
0.0
 40
10.64999998807905
100
AcDbArc
 50
22.44828
 51
202.44828
  0
ARC
  5
92
330
7B
100
AcDbEntity
  8
0
  6
Continuous
 62
     0
370
    30
100
AcDbCircle
 10
310.787787
 20
515.752476
 30
0.0
 40
10.94999999999999
100
AcDbArc
 50
202.44828
 51
22.44828
  0
ARC
  5
93
330
7B
100
AcDbEntity
  8
0
  6
Continuous
 62
     0
370
    30
100
AcDbCircle
 10
310.787787
 20
515.752476
 30
0.0
 40
10.94999999999998
100
AcDbArc
 50
22.44828
 51
202.44828
  0
ARC
  5
94
330
7B
100
AcDbEntity
  8
0
  6
Continuous
 62
     0
370
    30
100
AcDbCircle
 10
310.787787
 20
515.752477
 30
0.0
 40
10.99999999999998
100
AcDbArc
 50
90.0
 51
270.0
  0
ARC
  5
95
330
7B
100
AcDbEntity
  8
0
  6
Continuous
 62
     0
370
    30
100
AcDbCircle
 10
310.787787
 20
515.752477
 30
0.0
 40
10.99999999999998
100
AcDbArc
 50
270.0
 51
90.0
  0
ARC
  5
96
330
7B
100
AcDbEntity
  8
0
  6
Continuous
 62
     0
370
    30
100
AcDbCircle
 10
310.787787
 20
482.752376
 30
0.0
 40
69.49989970932006
100
AcDbArc
 50
286.247524
 51
90.0
  0
ARC
  5
97
330
7B
100
AcDbEntity
  8
0
  6
Continuous
 62
     0
370
    30
100
AcDbCircle
 10
310.787787
 20
482.752376
 30
0.0
 40
69.49989970932006
100
AcDbArc
 50
90.0
 51
253.753161
  0
ARC
  5
98
330
7B
100
AcDbEntity
  8
0
  6
Continuous
 62
     0
370
    30
100
AcDbCircle
 10
310.787787
 20
482.752376
 30
0.0
 40
69.99989970932006
100
AcDbArc
 50
285.937954
 51
90.0
  0
ARC
  5
99
330
7B
100
AcDbEntity
  8
0
  6
Continuous
 62
     0
370
    30
100
AcDbCircle
 10
310.787787
 20
482.752376
 30
0.0
 40
69.99989970932006
100
AcDbArc
 50
90.0
 51
254.062694
  0
LWPOLYLINE
  5
9A
330
7B
100
AcDbEntity
  8
0
  6
Continuous
 62
     0
370
    30
100
AcDbPolyline
 90
        6
 70
     0
 43
0.0
 10
332.704803
 20
463.898956
 10
332.707031
 20
463.925293
 10
332.709564
 20
463.95047
 10
332.712097
 20
463.97226
 10
332.714325
 20
463.988892
 10
332.716858
 20
464.005005
  0
LWPOLYLINE
  5
9B
330
7B
100
AcDbEntity
  8
0
  6
Continuous
 62
     0
370
    30
100
AcDbPolyline
 90
        6
 70
     0
 43
0.0
 10
288.858734
 20
464.004913
 10
288.861145
 20
463.989563
 10
288.863312
 20
463.973724
 10
288.865814
 20
463.952637
 10
288.868317
 20
463.927948
 10
288.87085
 20
463.898468
  0
LWPOLYLINE
  5
9C
330
7B
100
AcDbEntity
  8
0
  6
Continuous
 62
     0
370
    30
100
AcDbPolyline
 90
       70
 70
     0
 43
0.0
 10
296.772949
 20
411.122314
 10
296.115997
 20
411.334686
 10
295.470795
 20
411.579193
 10
294.842499
 20
411.86322
 10
294.239044
 20
412.194397
 10
293.669983
 20
412.579681
 10
293.147491
 20
413.02298
 10
292.68219
 20
413.522705
 10
292.277863
 20
414.070099
 10
291.93399
 20
414.654572
 10
291.642365
 20
415.264618
 10
291.39267
 20
415.891296
 10
291.175018
 20
416.528931
 10
290.982483
 20
417.173889
 10
290.811432
 20
417.824463
 10
290.658722
 20
418.479248
 10
290.521484
 20
419.137146
 10
290.397583
 20
419.797485
 10
290.2854
 20
420.459778
 10
290.183502
 20
421.123627
 10
290.090393
 20
421.788544
 10
290.005035
 20
422.454376
 10
289.926727
 20
423.120941
 10
289.854584
 20
423.788086
 10
289.787933
 20
424.455688
 10
289.726135
 20
425.123627
 10
289.668762
 20
425.791901
 10
289.615448
 20
426.460419
 10
289.565735
 20
427.12915
 10
289.519226
 20
427.798004
 10
289.475586
 20
428.46701
 10
289.434601
 20
429.136108
 10
289.396057
 20
429.805328
 10
289.359772
 20
430.47467
 10
289.325531
 20
431.144135
 10
289.293182
 20
431.813721
 10
289.262573
 20
432.483459
 10
289.233582
 20
433.15332
 10
289.206055
 20
433.823334
 10
289.179932
 20
434.49353
 10
289.155182
 20
435.163879
 10
289.131744
 20
435.834442
 10
289.109528
 20
436.505188
 10
289.08844
 20
437.176117
 10
289.068481
 20
437.84729
 10
289.04953
 20
438.518707
 10
289.031616
 20
439.190369
 10
289.014618
 20
439.862335
 10
288.998566
 20
440.534576
 10
288.983368
 20
441.207184
 10
288.968964
 20
441.880157
 10
288.955322
 20
442.553558
 10
288.942291
 20
443.227539
 10
288.92984
 20
443.902161
 10
288.917877
 20
444.577515
 10
288.906433
 20
445.253693
 10
288.895538
 20
445.930878
 10
288.885254
 20
446.609131
 10
288.875641
 20
447.288605
 10
288.866791
 20
447.969421
 10
288.858704
 20
448.651672
 10
288.851501
 20
449.335449
 10
288.845276
 20
450.020691
 10
288.840088
 20
450.707245
 10
288.835968
 20
451.394897
 10
288.832764
 20
452.083435
 10
288.830383
 20
452.772675
 10
288.828674
 20
453.462433
 10
288.827454
 20
454.152435
 10
288.826599
 20
454.843109
  0
LWPOLYLINE
  5
9D
330
7B
100
AcDbEntity
  8
0
  6
Continuous
 62
     0
370
    30
100
AcDbPolyline
 90
       12
 70
     0
 43
0.0
 10
288.82663
 20
454.852173
 10
288.825989
 20
455.564514
 10
288.825775
 20
456.276703
 10
288.826233
 20
456.988556
 10
288.827515
 20
457.699829
 10
288.829742
 20
458.409973
 10
288.832977
 20
459.118378
 10
288.83728
 20
459.824463
 10
288.842804
 20
460.526031
 10
288.849548
 20
461.220642
 10
288.857483
 20
461.897095
 10
288.866241
 20
462.555786
  0
LWPOLYLINE
  5
9E
330
7B
100
AcDbEntity
  8
0
  6
Continuous
 62
     0
370
    30
100
AcDbPolyline
 90
       16
 70
     0
 43
0.0
 10
300.031555
 20
487.40152
 10
299.524048
 20
487.107758
 10
299.024902
 20
486.799591
 10
298.534515
 20
486.47757
 10
298.053101
 20
486.142151
 10
297.581055
 20
485.793915
 10
297.1185
 20
485.433319
 10
296.665619
 20
485.06076
 10
296.222595
 20
484.676575
 10
295.789795
 20
484.281006
 10
295.367493
 20
483.87442
 10
294.955963
 20
483.457092
 10
294.555573
 20
483.029358
 10
294.166809
 20
482.591583
 10
293.79071
 20
482.144714
 10
293.432251
 20
481.695068
  0
LWPOLYLINE
  5
9F
330
7B
100
AcDbEntity
  8
0
  6
Continuous
 62
     0
370
    30
100
AcDbPolyline
 90
       13
 70
     0
 43
0.0
 10
288.867798
 20
462.675446
 10
288.870789
 20
462.929626
 10
288.872711
 20
463.12442
 10
288.873688
 20
463.260193
 10
288.873993
 20
463.33609
 10
288.874054
 20
463.407562
 10
288.873871
 20
463.491486
 10
288.873413
 20
463.592285
 10
288.87265
 20
463.709564
 10
288.871796
 20
463.813599
 10
288.871063
 20
463.881958
 10
288.870544
 20
463.91983
 10
288.870331
 20
463.932892
  0
LWPOLYLINE
  5
A0
330
7B
100
AcDbEntity
  8
0
  6
Continuous
 62
     0
370
    30
100
AcDbPolyline
 90
        2
 70
     0
 43
0.0
 10
292.075104
 20
479.727325
 10
292.082825
 20
479.740021
  0
LWPOLYLINE
  5
A1
330
7B
100
AcDbEntity
  8
0
  6
Continuous
 62
     0
370
    30
100
AcDbPolyline
 90
       23
 70
     0
 43
0.0
 10
293.429657
 20
481.69162
 10
293.378571
 20
481.625488
 10
293.326691
 20
481.557739
 10
293.274963
 20
481.489685
 10
293.223083
 20
481.420898
 10
293.172333
 20
481.353027
 10
293.118622
 20
481.280609
 10
293.065125
 20
481.207855
 10
293.00827
 20
481.129822
 10
292.951019
 20
481.050476
 10
292.888275
 20
480.962677
 10
292.827423
 20
480.876617
 10
292.761932
 20
480.782928
 10
292.694244
 20
480.684967
 10
292.622406
 20
480.579651
 10
292.546631
 20
480.467072
 10
292.468872
 20
480.349792
 10
292.386719
 20
480.22403
 10
292.301178
 20
480.090851
 10
292.216736
 20
479.957062
 10
292.141327
 20
479.835602
 10
292.091553
 20
479.754395
 10
292.075104
 20
479.727325
  0
LWPOLYLINE
  5
A2
330
7B
100
AcDbEntity
  8
0
  6
Continuous
 62
     0
370
    30
100
AcDbPolyline
 90
       22
 70
     0
 43
0.0
 10
324.803436
 20
411.122314
 10
323.503113
 20
410.77948
 10
322.185913
 20
410.505096
 10
320.858826
 20
410.281219
 10
319.525085
 20
410.098175
 10
318.186829
 20
409.94931
 10
316.845612
 20
409.82959
 10
315.502167
 20
409.736511
 10
314.157135
 20
409.668213
 10
312.811066
 20
409.623291
 10
311.464417
 20
409.60083
 10
310.117523
 20
409.600464
 10
308.770813
 20
409.622437
 10
307.424774
 20
409.66748
 10
306.079773
 20
409.736206
 10
304.736359
 20
409.829376
 10
303.395081
 20
409.9487
 10
302.056885
 20
410.097595
 10
300.723206
 20
410.280579
 10
299.395905
 20
410.503845
 10
298.078674
 20
410.778046
 10
296.773132
 20
411.12207
  0
LWPOLYLINE
  5
A3
330
7B
100
AcDbEntity
  8
0
  6
Continuous
 62
     0
370
    30
100
AcDbPolyline
 90
       71
 70
     0
 43
0.0
 10
332.749146
 20
454.843567
 10
332.748322
 20
454.163391
 10
332.747192
 20
453.483337
 10
332.745544
 20
452.803558
 10
332.743225
 20
452.124237
 10
332.740143
 20
451.445557
 10
332.736145
 20
450.767731
 10
332.731171
 20
450.090942
 10
332.725159
 20
449.415436
 10
332.718201
 20
448.741333
 10
332.710327
 20
448.068665
 10
332.70166
 20
447.3974
 10
332.692291
 20
446.727448
 10
332.682281
 20
446.058716
 10
332.671692
 20
445.391144
 10
332.660583
 20
444.724579
 10
332.648956
 20
444.058868
 10
332.63681
 20
443.39389
 10
332.624146
 20
442.729492
 10
332.61087
 20
442.065643
 10
332.596893
 20
441.402252
 10
332.582153
 20
440.739227
 10
332.56662
 20
440.076569
 10
332.550201
 20
439.414215
 10
332.532867
 20
438.752136
 10
332.514557
 20
438.090302
 10
332.49527
 20
437.428741
 10
332.474945
 20
436.767365
 10
332.453491
 20
436.106232
 10
332.430908
 20
435.445251
 10
332.407104
 20
434.784485
 10
332.381989
 20
434.123871
 10
332.355499
 20
433.46344
 10
332.327606
 20
432.803162
 10
332.298218
 20
432.143036
 10
332.267242
 20
431.483002
 10
332.234497
 20
430.823151
 10
332.199829
 20
430.163391
 10
332.163086
 20
429.503754
 10
332.124084
 20
428.844208
 10
332.082611
 20
428.184814
 10
332.038483
 20
427.525543
 10
331.991425
 20
426.866364
 10
331.941162
 20
426.207367
 10
331.887238
 20
425.548584
 10
331.829224
 20
424.890076
 10
331.766724
 20
424.231873
 10
331.699249
 20
423.574097
 10
331.626312
 20
422.916748
 10
331.547119
 20
422.26004
 10
331.460938
 20
421.604095
 10
331.367004
 20
420.949036
 10
331.26416
 20
420.295166
 10
331.151001
 20
419.642914
 10
331.026031
 20
418.992645
 10
330.887665
 20
418.344879
 10
330.733826
 20
417.700256
 10
330.561737
 20
417.059906
 10
330.368164
 20
416.425415
 10
330.149139
 20
415.798553
 10
329.897949
 20
415.182678
 10
329.604553
 20
414.583984
 10
329.259277
 20
414.011353
 10
328.855286
 20
413.475586
 10
328.391296
 20
412.98761
 10
327.872742
 20
412.554657
 10
327.309875
 20
412.177948
 10
326.71402
 20
411.853577
 10
326.094299
 20
411.574738
 10
325.458252
 20
411.333984
 10
324.803711
 20
411.122589
  0
LWPOLYLINE
  5
A4
330
7B
100
AcDbEntity
  8
0
  6
Continuous
 62
     0
370
    30
100
AcDbPolyline
 90
       18
 70
     0
 43
0.0
 10
332.749146
 20
454.853638
 10
332.749634
 20
455.316559
 10
332.749939
 20
455.779419
 10
332.75
 20
456.242188
 10
332.749786
 20
456.704865
 10
332.749268
 20
457.167328
 10
332.748383
 20
457.629517
 10
332.747101
 20
458.091248
 10
332.745422
 20
458.552368
 10
332.743317
 20
459.012787
 10
332.740723
 20
459.47229
 10
332.737671
 20
459.930359
 10
332.7341
 20
460.386353
 10
332.730042
 20
460.839874
 10
332.725403
 20
461.289185
 10
332.720276
 20
461.730652
 10
332.714874
 20
462.153931
 10
332.709808
 20
462.52832
  0
LWPOLYLINE
  5
A5
330
7B
100
AcDbEntity
  8
0
  6
Continuous
 62
     0
370
    30
100
AcDbPolyline
 90
       13
 70
     0
 43
0.0
 10
328.148132
 20
481.688843
 10
327.708954
 20
482.236847
 10
327.235352
 20
482.789703
 10
326.743011
 20
483.327606
 10
326.233185
 20
483.849579
 10
325.706604
 20
484.35495
 10
325.163849
 20
484.843048
 10
324.605469
 20
485.313416
 10
324.032013
 20
485.76535
 10
323.443756
 20
486.198181
 10
322.841187
 20
486.611023
 10
322.224823
 20
487.002869
 10
321.543671
 20
487.401703
  0
LWPOLYLINE
  5
A6
330
7B
100
AcDbEntity
  8
0
  6
Continuous
 62
     0
370
    30
100
AcDbPolyline
 90
       13
 70
     0
 43
0.0
 10
332.705292
 20
463.932495
 10
332.705109
 20
463.920837
 10
332.70462
 20
463.88446
 10
332.703888
 20
463.817688
 10
332.703033
 20
463.715424
 10
332.70224
 20
463.597626
 10
332.701782
 20
463.496246
 10
332.701599
 20
463.411194
 10
332.70163
 20
463.339478
 10
332.701935
 20
463.26535
 10
332.702881
 20
463.133179
 10
332.704742
 20
462.941498
 10
332.707855
 20
462.676117
  0
LWPOLYLINE
  5
A7
330
7B
100
AcDbEntity
  8
0
  6
Continuous
 62
     0
370
    30
100
AcDbPolyline
 90
       31
 70
     0
 43
0.0
 10
329.53894
 20
479.663727
 10
329.531586
 20
479.675964
 10
329.504913
 20
479.720062
 10
329.463837
 20
479.787476
 10
329.409912
 20
479.875092
 10
329.351501
 20
479.968903
 10
329.292023
 20
480.063202
 10
329.232513
 20
480.156494
 10
329.1763
 20
480.24353
 10
329.119476
 20
480.330566
 10
329.065521
 20
480.412323
 10
329.011688
 20
480.493042
 10
328.960785
 20
480.568634
 10
328.909973
 20
480.643341
 10
328.862152
 20
480.713104
 10
328.815552
 20
480.780396
 10
328.767487
 20
480.849274
 10
328.720886
 20
480.915527
 10
328.677155
 20
480.977203
 10
328.633057
 20
481.03891
 10
328.588318
 20
481.101044
 10
328.546173
 20
481.15918
 10
328.505737
 20
481.214539
 10
328.464264
 20
481.270935
 10
328.423065
 20
481.32663
 10
328.383331
 20
481.379944
 10
328.343292
 20
481.43338
 10
328.302948
 20
481.486847
 10
328.263306
 20
481.539032
 10
328.222015
 20
481.593109
 10
328.188782
 20
481.636322
  0
LWPOLYLINE
  5
A8
330
7B
100
AcDbEntity
  8
0
  6
Continuous
 62
     0
370
    30
100
AcDbPolyline
 90
       17
 70
     0
 43
0.0
 10
328.902374
 20
480.651337
 10
328.947906
 20
480.584778
 10
328.994781
 20
480.515686
 10
329.044556
 20
480.441589
 10
329.095367
 20
480.365295
 10
329.145386
 20
480.289368
 10
329.193817
 20
480.215179
 10
329.240082
 20
480.143585
 10
329.285583
 20
480.072479
 10
329.330414
 20
480.001831
 10
329.371033
 20
479.937164
 10
329.412079
 20
479.871246
 10
329.447479
 20
479.813995
 10
329.481934
 20
479.757721
 10
329.510376
 20
479.711029
 10
329.530518
 20
479.677704
 10
329.53894
 20
479.663727
  0
LWPOLYLINE
  5
A9
330
7B
100
AcDbEntity
  8
0
  6
Continuous
 62
     0
370
    30
100
AcDbPolyline
 90
       19
 70
     0
 43
0.0
 10
300.031525
 20
487.401581
 10
301.135132
 20
487.975464
 10
302.271545
 20
488.481934
 10
303.436005
 20
488.920532
 10
304.623901
 20
489.291351
 10
305.830902
 20
489.594269
 10
307.052856
 20
489.829651
 10
308.285828
 20
489.997864
 10
309.526123
 20
490.09906
 10
310.770142
 20
490.133392
 10
312.014191
 20
490.100952
 10
313.254639
 20
490.001648
 10
314.487885
 20
489.835358
 10
315.710205
 20
489.601868
 10
316.917694
 20
489.300873
 10
318.106201
 20
488.932098
 10
319.271362
 20
488.495331
 10
320.4086
 20
487.990723
 10
321.543701
 20
487.401764
  0
ENDBLK
  5
AB
330
7B
100
AcDbEntity
  8
0
100
AcDbBlockEnd
  0
BLOCK
  5
109
330
AD
100
AcDbEntity
  8
0
100
AcDbBlockBegin
  2
b
 70
     0
 10
0.0
 20
332.904816
 30
0.0
  3
b
  1

  0
LINE
  5
AE
330
AD
100
AcDbEntity
  8
0
  6
Continuous
 62
     0
370
     0
100
AcDbLine
 10
299.97679
 20
259.45584
 30
0.0
 11
300.022459
 21
256.453161
 31
0.0
  0
LWPOLYLINE
  5
AF
330
AD
100
AcDbEntity
  8
0
  6
Continuous
 62
     0
370
     0
100
AcDbPolyline
 90
       26
 70
     0
 43
0.0
 10
300.022461
 20
256.453156
 10
300.027313
 20
256.157043
 10
300.032837
 20
255.860916
 10
300.039825
 20
255.564789
 10
300.049805
 20
255.268768
 10
300.065033
 20
254.973175
 10
300.089661
 20
254.679367
 10
300.131256
 20
254.391998
 10
300.201538
 20
254.126511
 10
300.308258
 20
253.915665
 10
300.439331
 20
253.776932
 10
300.578979
 20
253.690216
 10
300.721008
 20
253.633514
 10
300.863403
 20
253.593765
 10
301.005646
 20
253.563721
 10
301.14859
 20
253.539627
 10
301.293427
 20
253.518799
 10
301.441315
 20
253.499725
 10
301.593414
 20
253.481369
 10
301.750397
 20
253.462906
 10
301.912506
 20
253.443939
 10
302.079834
 20
253.424088
 10
302.252228
 20
253.403229
 10
302.429382
 20
253.381348
 10
302.611694
 20
253.3582
 10
302.802582
 20
253.332886
  0
LWPOLYLINE
  5
B0
330
AD
100
AcDbEntity
  8
0
  6
Continuous
 62
     0
370
     0
100
AcDbPolyline
 90
       10
 70
     0
 43
0.0
 10
302.802582
 20
253.332886
 10
304.536255
 20
253.182785
 10
306.293457
 20
253.043884
 10
308.072357
 20
252.932816
 10
309.86969
 20
252.867203
 10
311.675232
 20
252.866608
 10
313.472809
 20
252.931274
 10
315.252075
 20
253.041748
 10
317.009613
 20
253.180283
 10
318.772736
 20
253.332886
  0
LWPOLYLINE
  5
B1
330
AD
100
AcDbEntity
  8
0
  6
Continuous
 62
     0
370
     0
100
AcDbPolyline
 90
       26
 70
     0
 43
0.0
 10
318.772736
 20
253.332886
 10
318.96225
 20
253.358047
 10
319.144623
 20
253.381256
 10
319.322205
 20
253.403214
 10
319.494873
 20
253.424057
 10
319.662354
 20
253.443878
 10
319.824463
 20
253.462845
 10
319.981415
 20
253.481308
 10
320.133484
 20
253.49968
 10
320.281403
 20
253.518738
 10
320.426239
 20
253.539551
 10
320.569153
 20
253.563644
 10
320.711365
 20
253.593658
 10
320.85376
 20
253.633347
 10
320.995789
 20
253.689987
 10
321.135437
 20
253.77655
 10
321.266541
 20
253.915024
 10
321.373352
 20
254.125595
 10
321.443787
 20
254.390915
 10
321.485443
 20
254.678223
 10
321.510132
 20
254.972
 10
321.52536
 20
255.267563
 10
321.53537
 20
255.563553
 10
321.542358
 20
255.85965
 10
321.547882
 20
256.155762
 10
321.552765
 20
256.453156
  0
LINE
  5
B2
330
AD
100
AcDbEntity
  8
0
  6
Continuous
 62
     0
370
     0
100
AcDbLine
 10
321.55277
 20
256.453161
 30
0.0
 11
321.598437
 21
259.45562
 31
0.0
  0
LWPOLYLINE
  5
B3
330
AD
100
AcDbEntity
  8
0
  6
Continuous
 62
     0
370
     0
100
AcDbPolyline
 90
       21
 70
     0
 43
0.0
 10
332.759216
 20
266.130951
 10
332.743622
 20
266.13089
 10
332.690826
 20
266.130859
 10
332.597321
 20
266.130859
 10
332.458679
 20
266.130859
 10
332.268402
 20
266.130859
 10
332.019928
 20
266.130859
 10
331.707458
 20
266.130859
 10
331.325989
 20
266.130859
 10
330.872345
 20
266.130859
 10
330.345276
 20
266.130859
 10
329.746399
 20
266.130859
 10
329.079102
 20
266.130859
 10
328.348541
 20
266.130859
 10
327.559479
 20
266.130859
 10
326.716278
 20
266.130859
 10
325.82135
 20
266.130859
 10
324.876465
 20
266.130859
 10
323.885193
 20
266.130859
 10
322.852081
 20
266.130859
 10
321.737793
 20
266.130859
  0
LWPOLYLINE
  5
B4
330
AD
100
AcDbEntity
  8
0
  6
Continuous
 62
     0
370
     0
100
AcDbPolyline
 90
       26
 70
     0
 43
0.0
 10
321.552765
 20
256.453156
 10
322.599182
 20
256.453003
 10
323.609131
 20
256.45282
 10
324.580048
 20
256.452545
 10
325.508148
 20
256.452148
 10
326.390106
 20
256.451569
 10
327.224335
 20
256.450775
 10
328.008575
 20
256.449677
 10
328.738495
 20
256.448273
 10
329.408295
 20
256.446411
 10
330.010254
 20
256.444153
 10
330.538116
 20
256.441559
 10
330.988068
 20
256.438904
 10
331.362457
 20
256.436401
 10
331.667816
 20
256.434204
 10
331.913391
 20
256.432434
 10
332.109222
 20
256.431213
 10
332.264526
 20
256.430511
 10
332.387939
 20
256.43042
 10
332.485504
 20
256.430756
 10
332.562225
 20
256.431335
 10
332.621765
 20
256.431946
 10
332.666077
 20
256.432434
 10
332.696838
 20
256.432678
 10
332.715027
 20
256.432434
 10
332.721161
 20
256.431427
  0
LWPOLYLINE
  5
B5
330
AD
100
AcDbEntity
  8
0
  6
Continuous
 62
     0
370
     0
100
AcDbPolyline
 90
       26
 70
     0
 43
0.0
 10
318.772736
 20
253.332886
 10
319.463043
 20
253.359406
 10
320.114563
 20
253.375046
 10
320.733215
 20
253.380234
 10
321.319366
 20
253.375565
 10
321.874817
 20
253.36261
 10
322.398346
 20
253.342987
 10
322.877747
 20
253.318161
 10
323.290894
 20
253.291077
 10
323.626373
 20
253.264847
 10
323.887634
 20
253.241562
 10
324.086853
 20
253.222
 10
324.236359
 20
253.206299
 10
324.347534
 20
253.194183
 10
324.429688
 20
253.184799
 10
324.491058
 20
253.177032
 10
324.537262
 20
253.170029
 10
324.571289
 20
253.163147
 10
324.595886
 20
253.155792
 10
324.612732
 20
253.147446
 10
324.623016
 20
253.137604
 10
324.62796
 20
253.125717
 10
324.628418
 20
253.110992
 10
324.625122
 20
253.092575
 10
324.618958
 20
253.069504
 10
324.610992
 20
253.038879
  0
LWPOLYLINE
  5
B6
330
AD
100
AcDbEntity
  8
0
  6
Continuous
 62
     0
370
     0
100
AcDbPolyline
 90
       36
 70
     0
 43
0.0
 10
324.610992
 20
253.038879
 10
324.869171
 20
253.055496
 10
325.12738
 20
253.072144
 10
325.385559
 20
253.088806
 10
325.643738
 20
253.105515
 10
325.901886
 20
253.122269
 10
326.160065
 20
253.139084
 10
326.418243
 20
253.15596
 10
326.676392
 20
253.172913
 10
326.93454
 20
253.189957
 10
327.192688
 20
253.207108
 10
327.450836
 20
253.224365
 10
327.708984
 20
253.241745
 10
327.967102
 20
253.259262
 10
328.22525
 20
253.276932
 10
328.483368
 20
253.294785
 10
328.741455
 20
253.312988
 10
328.999542
 20
253.331665
 10
329.257538
 20
253.350967
 10
329.515472
 20
253.371033
 10
329.773346
 20
253.392044
 10
330.031128
 20
253.414108
 10
330.288788
 20
253.437378
 10
330.546326
 20
253.462097
 10
330.80365
 20
253.488922
 10
331.060669
 20
253.518753
 10
331.317169
 20
253.553009
 10
331.572449
 20
253.595139
 10
331.825317
 20
253.65004
 10
332.072235
 20
253.728455
 10
332.302338
 20
253.846863
 10
332.491577
 20
254.022858
 10
332.621307
 20
254.245605
 10
332.698181
 20
254.490372
 10
332.736938
 20
254.740479
 10
332.749176
 20
254.991669
  0
LWPOLYLINE
  5
B7
330
AD
100
AcDbEntity
  8
0
  6
Continuous
 62
     0
370
     0
100
AcDbPolyline
 90
        8
 70
     0
 43
0.0
 10
300.128021
 20
243.752258
 10
303.108612
 20
243.605835
 10
306.09137
 20
243.50238
 10
309.07547
 20
243.444946
 10
312.06015
 20
243.440903
 10
315.044403
 20
243.490784
 10
318.027405
 20
243.587921
 10
321.448486
 20
243.752258
  0
LWPOLYLINE
  5
B8
330
AD
100
AcDbEntity
  8
0
  6
Continuous
 62
     0
370
     0
100
AcDbPolyline
 90
       70
 70
     0
 43
0.0
 10
321.448486
 20
243.752258
 10
321.946198
 20
243.849274
 10
322.386017
 20
243.962845
 10
322.753571
 20
244.091217
 10
323.037292
 20
244.231613
 10
323.249084
 20
244.379211
 10
323.409454
 20
244.530457
 10
323.533936
 20
244.683685
 10
323.633575
 20
244.838043
 10
323.71524
 20
244.993073
 10
323.783417
 20
245.148529
 10
323.840576
 20
245.304291
 10
323.888885
 20
245.460266
 10
323.930511
 20
245.616379
 10
323.967194
 20
245.772537
 10
323.999695
 20
245.928741
 10
324.028595
 20
246.084991
 10
324.054565
 20
246.241272
 10
324.078186
 20
246.397583
 10
324.100006
 20
246.553909
 10
324.12027
 20
246.710251
 10
324.139252
 20
246.866608
 10
324.157043
 20
247.022964
 10
324.17395
 20
247.179321
 10
324.190094
 20
247.335693
 10
324.205688
 20
247.49205
 10
324.220856
 20
247.648392
 10
324.235626
 20
247.804703
 10
324.250031
 20
247.960922
 10
324.264038
 20
248.117065
 10
324.277679
 20
248.273071
 10
324.290985
 20
248.428925
 10
324.303955
 20
248.58461
 10
324.31662
 20
248.740082
 10
324.328979
 20
248.89534
 10
324.341034
 20
249.050323
 10
324.352814
 20
249.205032
 10
324.364319
 20
249.359436
 10
324.375549
 20
249.513504
 10
324.386505
 20
249.667221
 10
324.397217
 20
249.820557
 10
324.407684
 20
249.97348
 10
324.417908
 20
250.125946
 10
324.427887
 20
250.277908
 10
324.437653
 20
250.429276
 10
324.447205
 20
250.579941
 10
324.456543
 20
250.729843
 10
324.465637
 20
250.878891
 10
324.474548
 20
251.026993
 10
324.483246
 20
251.174072
 10
324.49176
 20
251.319992
 10
324.500061
 20
251.464478
 10
324.508179
 20
251.607224
 10
324.516113
 20
251.74791
 10
324.523865
 20
251.885864
 10
324.531433
 20
252.020294
 10
324.538757
 20
252.150345
 10
324.545868
 20
252.27478
 10
324.552704
 20
252.392197
 10
324.559296
 20
252.501221
 10
324.565582
 20
252.600464
 10
324.571594
 20
252.688736
 10
324.577301
 20
252.765503
 10
324.582703
 20
252.830566
 10
324.58786
 20
252.884735
 10
324.592804
 20
252.929138
 10
324.597534
 20
252.965225
 10
324.602112
 20
252.994522
 10
324.606598
 20
253.018585
 10
324.610992
 20
253.038879
  0
LWPOLYLINE
  5
B9
330
AD
100
AcDbEntity
  8
0
  6
Continuous
 62
     0
370
     0
100
AcDbPolyline
 90
       26
 70
     0
 43
0.0
 10
302.802582
 20
253.332886
 10
302.112946
 20
253.359314
 10
301.460846
 20
253.375046
 10
300.842072
 20
253.380234
 10
300.256012
 20
253.375565
 10
299.700562
 20
253.36261
 10
299.177063
 20
253.342987
 10
298.697662
 20
253.318161
 10
298.284546
 20
253.291077
 10
297.949097
 20
253.264847
 10
297.687866
 20
253.241562
 10
297.488647
 20
253.222
 10
297.339172
 20
253.206299
 10
297.228027
 20
253.194183
 10
297.145874
 20
253.184799
 10
297.084534
 20
253.177032
 10
297.038361
 20
253.170029
 10
297.004333
 20
253.163147
 10
296.979767
 20
253.155792
 10
296.962952
 20
253.147446
 10
296.952667
 20
253.137604
 10
296.947723
 20
253.125717
 10
296.947327
 20
253.110992
 10
296.950623
 20
253.092575
 10
296.956818
 20
253.069504
 10
296.964783
 20
253.038879
  0
LWPOLYLINE
  5
BA
330
AD
100
AcDbEntity
  8
0
  6
Continuous
 62
     0
370
     0
100
AcDbPolyline
 90
       70
 70
     0
 43
0.0
 10
296.964783
 20
253.038879
 10
296.969177
 20
253.018845
 10
296.973633
 20
252.994843
 10
296.978241
 20
252.965622
 10
296.982971
 20
252.929626
 10
296.987915
 20
252.88533
 10
296.993073
 20
252.831299
 10
296.998505
 20
252.766373
 10
297.004211
 20
252.689758
 10
297.010223
 20
252.601624
 10
297.016541
 20
252.502518
 10
297.023132
 20
252.3936
 10
297.029968
 20
252.276276
 10
297.037079
 20
252.151932
 10
297.044434
 20
252.021942
 10
297.052002
 20
251.887558
 10
297.059753
 20
251.749649
 10
297.067688
 20
251.609009
 10
297.075806
 20
251.466293
 10
297.084137
 20
251.321823
 10
297.092651
 20
251.175919
 10
297.101349
 20
251.028854
 10
297.11026
 20
250.880768
 10
297.119385
 20
250.731735
 10
297.128723
 20
250.581848
 10
297.138275
 20
250.431198
 10
297.148041
 20
250.279846
 10
297.158051
 20
250.127899
 10
297.168274
 20
249.975433
 10
297.178772
 20
249.82251
 10
297.189484
 20
249.669189
 10
297.200439
 20
249.515488
 10
297.21167
 20
249.361435
 10
297.223175
 20
249.207031
 10
297.234955
 20
249.052338
 10
297.247009
 20
248.897354
 10
297.259369
 20
248.742111
 10
297.272064
 20
248.586639
 10
297.285034
 20
248.430969
 10
297.29834
 20
248.275116
 10
297.312012
 20
248.11911
 10
297.326019
 20
247.962982
 10
297.340424
 20
247.806763
 10
297.355194
 20
247.650467
 10
297.370361
 20
247.494125
 10
297.385986
 20
247.337769
 10
297.40213
 20
247.181396
 10
297.419006
 20
247.02504
 10
297.436829
 20
246.868683
 10
297.45578
 20
246.712341
 10
297.476044
 20
246.556
 10
297.497833
 20
246.399673
 10
297.521454
 20
246.243378
 10
297.547363
 20
246.087097
 10
297.576263
 20
245.930847
 10
297.608734
 20
245.774643
 10
297.645355
 20
245.618484
 10
297.68689
 20
245.462387
 10
297.735107
 20
245.306412
 10
297.792145
 20
245.15065
 10
297.860168
 20
244.995193
 10
297.94162
 20
244.840149
 10
298.040985
 20
244.685776
 10
298.1651
 20
244.532547
 10
298.32486
 20
244.381256
 10
298.535828
 20
244.233597
 10
298.818451
 20
244.093079
 10
299.184814
 20
243.964508
 10
299.623444
 20
243.850677
 10
300.128021
 20
243.752258
  0
LWPOLYLINE
  5
BB
330
AD
100
AcDbEntity
  8
0
  6
Continuous
 62
     0
370
     0
100
AcDbPolyline
 90
        7
 70
     0
 43
0.0
 10
321.448486
 20
243.752258
 10
321.931122
 20
243.727707
 10
322.392517
 20
243.699905
 10
322.830597
 20
243.670853
 10
323.237396
 20
243.642761
 10
323.609192
 20
243.621384
 10
324.038239
 20
243.626373
  0
LWPOLYLINE
  5
BC
330
AD
100
AcDbEntity
  8
0
  6
Continuous
 62
     0
370
     0
100
AcDbPolyline
 90
        7
 70
     0
 43
0.0
 10
300.128021
 20
243.752258
 10
299.646057
 20
243.727646
 10
299.184906
 20
243.699921
 10
298.747009
 20
243.670929
 10
298.340485
 20
243.642853
 10
297.968903
 20
243.621445
 10
297.539032
 20
243.626312
  0
LWPOLYLINE
  5
BD
330
AD
100
AcDbEntity
  8
0
  6
Continuous
 62
     0
370
     0
100
AcDbPolyline
 90
       26
 70
     0
 43
0.0
 10
288.854553
 20
256.431427
 10
288.860535
 20
256.432434
 10
288.878601
 20
256.432678
 10
288.909241
 20
256.432434
 10
288.953369
 20
256.431946
 10
289.012726
 20
256.431335
 10
289.089264
 20
256.430756
 10
289.186584
 20
256.43042
 10
289.309692
 20
256.430511
 10
289.46463
 20
256.431183
 10
289.659973
 20
256.432434
 10
289.904999
 20
256.434174
 10
290.209686
 20
256.436371
 10
290.583344
 20
256.438873
 10
291.03244
 20
256.441528
 10
291.559479
 20
256.444122
 10
292.160645
 20
256.446381
 10
292.829712
 20
256.448242
 10
293.55896
 20
256.449677
 10
294.34259
 20
256.450745
 10
295.176178
 20
256.451569
 10
296.057587
 20
256.452148
 10
296.985107
 20
256.452545
 10
297.955475
 20
256.45282
 10
298.964905
 20
256.453003
 10
300.022461
 20
256.453156
  0
LINE
  5
BE
330
AD
100
AcDbEntity
  8
0
  6
Continuous
 62
     0
370
     0
100
AcDbLine
 10
299.837787
 20
266.130865
 30
0.0
 11
288.816398
 21
266.130948
 31
0.0
  0
LWPOLYLINE
  5
BF
330
AD
100
AcDbEntity
  8
0
  6
Continuous
 62
     0
370
     0
100
AcDbPolyline
 90
       36
 70
     0
 43
0.0
 10
288.82663
 20
254.989197
 10
288.838745
 20
254.741638
 10
288.87735
 20
254.491608
 10
288.953979
 20
254.246872
 10
289.083313
 20
254.023987
 10
289.272217
 20
253.847717
 10
289.502045
 20
253.729034
 10
289.74884
 20
253.650452
 10
290.001617
 20
253.595474
 10
290.256836
 20
253.553284
 10
290.513245
 20
253.518982
 10
290.770172
 20
253.489136
 10
291.027435
 20
253.462296
 10
291.284882
 20
253.437576
 10
291.54245
 20
253.414291
 10
291.80014
 20
253.392227
 10
292.057922
 20
253.371231
 10
292.315796
 20
253.351151
 10
292.57373
 20
253.331848
 10
292.831726
 20
253.313171
 10
293.089752
 20
253.294983
 10
293.347778
 20
253.277115
 10
293.605835
 20
253.25946
 10
293.863892
 20
253.241943
 10
294.121948
 20
253.224564
 10
294.380035
 20
253.207306
 10
294.638092
 20
253.19017
 10
294.896179
 20
253.173126
 10
295.154236
 20
253.156174
 10
295.412323
 20
253.139297
 10
295.670441
 20
253.122498
 10
295.928528
 20
253.105743
 10
296.186615
 20
253.08905
 10
296.444733
 20
253.072372
 10
296.70282
 20
253.05574
 10
296.964783
 20
253.038879
  0
LINE
  5
C0
330
AD
100
AcDbEntity
  8
0
  6
Continuous
 62
     0
370
    30
100
AcDbLine
 10
288.537911
 20
277.3898
 30
0.0
 11
289.387803
 21
277.3898
 31
0.0
  0
LINE
  5
C1
330
AD
100
AcDbEntity
  8
0
  6
Continuous
 62
     0
370
    30
100
AcDbLine
 10
332.18777
 20
277.3898
 30
0.0
 11
333.037662
 21
277.3898
 31
0.0
  0
LWPOLYLINE
  5
C2
330
AD
100
AcDbEntity
  8
0
  6
Continuous
 62
     0
370
    30
100
AcDbPolyline
 90
       21
 70
     0
 43
0.0
 10
301.887787
 20
269.552795
 10
300.685974
 20
269.770874
 10
299.526917
 20
270.01593
 10
298.413788
 20
270.286804
 10
297.349396
 20
270.58197
 10
296.336029
 20
270.899475
 10
295.376007
 20
271.237488
 10
294.47171
 20
271.594635
 10
293.625427
 20
271.969635
 10
292.839691
 20
272.361206
 10
292.117035
 20
272.768097
 10
291.460205
 20
273.189056
 10
290.870636
 20
273.62262
 10
290.34848
 20
274.067139
 10
289.893219
 20
274.520935
 10
289.503784
 20
274.982361
 10
289.179169
 20
275.450409
 10
288.918732
 20
275.924347
 10
288.723694
 20
276.402618
 10
288.596069
 20
276.88327
 10
288.537842
 20
277.389801
  0
LWPOLYLINE
  5
C3
330
AD
100
AcDbEntity
  8
0
  6
Continuous
 62
     0
370
    30
100
AcDbPolyline
 90
       21
 70
     0
 43
0.0
 10
333.03775
 20
277.389801
 10
332.984192
 20
276.908051
 10
332.860077
 20
276.427307
 10
332.668457
 20
275.948914
 10
332.411346
 20
275.474762
 10
332.090027
 20
275.006409
 10
331.703949
 20
274.544617
 10
331.252106
 20
274.090363
 10
330.733429
 20
273.645294
 10
330.147308
 20
273.211182
 10
329.493927
 20
272.789551
 10
328.774628
 20
272.381927
 10
327.992065
 20
271.989532
 10
327.148865
 20
271.613678
 10
326.247467
 20
271.255554
 10
325.290283
 20
270.916534
 10
324.279633
 20
270.598022
 10
323.217773
 20
270.301727
 10
322.107147
 20
270.029449
 10
320.950409
 20
269.782806
 10
319.687775
 20
269.552643
  0
LWPOLYLINE
  5
C4
330
AD
100
AcDbEntity
  8
0
  6
Continuous
 62
     0
370
     0
100
AcDbPolyline
 90
        6
 70
     0
 43
0.0
 10
330.552002
 20
274.963959
 10
331.03125
 20
275.43277
 10
331.434906
 20
275.910645
 10
331.762268
 20
276.395966
 10
332.012695
 20
276.887115
 10
332.187775
 20
277.389801
  0
LWPOLYLINE
  5
C5
330
AD
100
AcDbEntity
  8
0
  6
Continuous
 62
     0
370
     0
100
AcDbPolyline
 90
       14
 70
     0
 43
0.0
 10
319.687775
 20
270.212189
 10
320.871552
 20
270.44577
 10
322.009399
 20
270.70697
 10
323.097321
 20
270.994232
 10
324.131409
 20
271.306061
 10
325.107819
 20
271.6409
 10
326.023407
 20
271.997101
 10
326.875549
 20
272.372986
 10
327.661621
 20
272.766907
 10
328.3797
 20
273.177185
 10
329.027954
 20
273.602142
 10
329.604736
 20
274.0401
 10
330.108765
 20
274.489471
 10
330.552002
 20
274.963959
  0
LWPOLYLINE
  5
C6
330
AD
100
AcDbEntity
  8
0
  6
Continuous
 62
     0
370
     0
100
AcDbPolyline
 90
       14
 70
     0
 43
0.0
 10
291.023468
 20
274.963959
 10
291.451294
 20
274.504517
 10
291.952942
 20
274.054779
 10
292.527283
 20
273.616394
 10
293.173157
 20
273.190948
 10
293.88913
 20
272.780121
 10
294.673126
 20
272.38562
 10
295.52301
 20
272.009064
 10
296.436676
 20
271.652222
 10
297.411407
 20
271.316681
 10
298.443634
 20
271.004028
 10
299.529724
 20
270.715881
 10
300.666046
 20
270.453796
 10
301.887787
 20
270.212097
  0
LWPOLYLINE
  5
C7
330
AD
100
AcDbEntity
  8
0
  6
Continuous
 62
     0
370
     0
100
AcDbPolyline
 90
        6
 70
     0
 43
0.0
 10
289.387787
 20
277.389801
 10
289.559753
 20
276.894318
 10
289.809052
 20
276.403107
 10
290.135254
 20
275.917694
 10
290.537781
 20
275.439728
 10
291.023468
 20
274.963959
  0
LINE
  5
C8
330
AD
100
AcDbEntity
  8
0
  6
Continuous
 62
     0
370
    30
100
AcDbLine
 10
332.18777
 20
277.3898
 30
0.0
 11
330.652672
 21
277.3898
 31
0.0
  0
LWPOLYLINE
  5
C9
330
AD
100
AcDbEntity
  8
0
  6
Continuous
 62
     0
370
    30
100
AcDbPolyline
 90
       18
 70
     0
 43
0.0
 10
301.887787
 20
271.545868
 10
300.826752
 20
271.750488
 10
299.802094
 20
271.977661
 10
298.817657
 20
272.226624
 10
297.877106
 20
272.496521
 10
296.983765
 20
272.786285
 10
296.140839
 20
273.094818
 10
295.351501
 20
273.421051
 10
294.618652
 20
273.763824
 10
293.944855
 20
274.121796
 10
293.332581
 20
274.493683
 10
292.78421
 20
274.878174
 10
292.301605
 20
275.273834
 10
291.886414
 20
275.679169
 10
291.540283
 20
276.092773
 10
291.264557
 20
276.513123
 10
291.060089
 20
276.93869
 10
290.922913
 20
277.389801
  0
LWPOLYLINE
  5
CA
330
AD
100
AcDbEntity
  8
0
  6
Continuous
 62
     0
370
    30
100
AcDbPolyline
 90
       18
 70
     0
 43
0.0
 10
330.652679
 20
277.389801
 10
330.523956
 20
276.96051
 10
330.323151
 20
276.534698
 10
330.050964
 20
276.114044
 10
329.708435
 20
275.700073
 10
329.296722
 20
275.294281
 10
328.817474
 20
274.898102
 10
328.2724
 20
274.513
 10
327.663361
 20
274.140442
 10
326.992615
 20
273.781708
 10
326.262726
 20
273.438171
 10
325.476166
 20
273.111053
 10
324.635895
 20
272.801575
 10
323.745087
 20
272.510834
 10
322.806824
 20
272.239929
 10
321.824524
 20
271.989868
 10
320.80188
 20
271.761505
 10
319.687775
 20
271.545837
  0
LINE
  5
CB
330
AD
100
AcDbEntity
  8
0
  6
Continuous
 62
     0
370
    30
100
AcDbLine
 10
290.922901
 20
277.3898
 30
0.0
 11
289.387803
 21
277.3898
 31
0.0
  0
LINE
  5
CC
330
AD
100
AcDbEntity
  8
0
  6
Continuous
 62
     0
370
    30
100
AcDbLine
 10
321.694689
 20
280.1898
 30
0.0
 11
332.987787
 21
280.1898
 31
0.0
  0
LINE
  5
CD
330
AD
100
AcDbEntity
  8
0
  6
Continuous
 62
     0
370
    30
100
AcDbLine
 10
288.587787
 20
280.1898
 30
0.0
 11
299.880884
 21
280.1898
 31
0.0
  0
LINE
  5
CE
330
AD
100
AcDbEntity
  8
0
  6
Continuous
 62
     0
370
    30
100
AcDbLine
 10
320.630779
 20
259.408951
 30
0.0
 11
321.437787
 21
259.408951
 31
0.0
  0
LWPOLYLINE
  5
CF
330
AD
100
AcDbEntity
  8
0
  6
Continuous
 62
     0
370
    30
100
AcDbPolyline
 90
       34
 70
     0
 43
0.0
 10
300.137817
 20
259.408936
 10
300.1745
 20
259.408936
 10
300.288147
 20
259.408936
 10
300.477631
 20
259.408936
 10
300.740112
 20
259.408936
 10
301.07132
 20
259.408936
 10
301.465607
 20
259.408936
 10
301.916412
 20
259.408936
 10
302.416473
 20
259.408936
 10
302.973236
 20
259.408936
 10
303.59198
 20
259.408936
 10
304.269226
 20
259.408936
 10
304.999939
 20
259.408936
 10
305.77771
 20
259.408936
 10
306.59494
 20
259.408936
 10
307.443024
 20
259.408936
 10
308.312622
 20
259.408936
 10
309.194122
 20
259.408936
 10
310.077881
 20
259.408936
 10
310.95459
 20
259.408936
 10
311.815582
 20
259.408936
 10
312.658569
 20
259.408936
 10
313.502502
 20
259.408936
 10
314.342102
 20
259.408936
 10
315.168121
 20
259.408936
 10
315.971191
 20
259.408936
 10
316.742004
 20
259.408936
 10
317.47171
 20
259.408936
 10
318.152313
 20
259.408936
 10
318.776855
 20
259.408936
 10
319.339722
 20
259.408936
 10
319.836792
 20
259.408936
 10
320.265503
 20
259.408936
 10
320.630768
 20
259.408936
  0
LINE
  5
D0
330
AD
100
AcDbEntity
  8
0
  6
Continuous
 62
     0
370
     0
100
AcDbLine
 10
320.908046
 20
259.708951
 30
0.0
 11
321.737782
 21
259.708951
 31
0.0
  0
LINE
  5
D1
330
AD
100
AcDbEntity
  8
0
  6
Continuous
 62
     0
370
     0
100
AcDbLine
 10
299.837791
 20
259.708951
 30
0.0
 11
320.908046
 21
259.708951
 31
0.0
  0
LINE
  5
D2
330
AD
100
AcDbEntity
  8
0
  6
Continuous
 62
     0
370
     0
100
AcDbLine
 10
319.013386
 20
279.108951
 30
0.0
 11
301.88779
 21
279.108951
 31
0.0
  0
LWPOLYLINE
  5
D3
330
AD
100
AcDbEntity
  8
0
  6
Continuous
 62
     0
370
     0
100
AcDbPolyline
 90
        6
 70
     0
 43
0.0
 10
319.687775
 20
279.108948
 10
319.663666
 20
279.108948
 10
319.590363
 20
279.108948
 10
319.468201
 20
279.108948
 10
319.297882
 20
279.108948
 10
319.013397
 20
279.108948
  0
LINE
  5
D4
330
AD
100
AcDbEntity
  8
0
  6
Continuous
 62
     0
370
     0
100
AcDbLine
 10
321.737787
 20
266.811557
 30
0.0
 11
320.908046
 21
266.811557
 31
0.0
  0
LINE
  5
D5
330
AD
100
AcDbEntity
  8
0
  6
Continuous
 62
     0
370
     0
100
AcDbLine
 10
320.908046
 20
266.811557
 30
0.0
 11
299.837787
 21
266.811557
 31
0.0
  0
LWPOLYLINE
  5
D6
330
AD
100
AcDbEntity
  8
0
  6
Continuous
 62
     0
370
     0
100
AcDbPolyline
 90
        6
 70
     0
 43
0.0
 10
321.44046
 20
267.111542
 10
321.410095
 20
267.111542
 10
321.317505
 20
267.111542
 10
321.162964
 20
267.111542
 10
320.947876
 20
267.111542
 10
320.633209
 20
267.111542
  0
LINE
  5
D7
330
AD
100
AcDbEntity
  8
0
  6
Continuous
 62
     0
370
     0
100
AcDbLine
 10
320.633198
 20
267.111546
 30
0.0
 11
300.135129
 21
267.111545
 31
0.0
  0
LINE
  5
D8
330
AD
100
AcDbEntity
  8
0
  6
Continuous
 62
     0
370
     0
100
AcDbLine
 10
319.929545
 20
267.11819
 30
0.0
 11
320.67906
 21
267.11819
 31
0.0
  0
LWPOLYLINE
  5
D9
330
AD
100
AcDbEntity
  8
0
  6
Continuous
 62
     0
370
     0
100
AcDbPolyline
 90
       33
 70
     0
 43
0.0
 10
300.896515
 20
267.118195
 10
300.934235
 20
267.118195
 10
301.049164
 20
267.118195
 10
301.242645
 20
267.118195
 10
301.51416
 20
267.118195
 10
301.861298
 20
267.118195
 10
302.279755
 20
267.118195
 10
302.763611
 20
267.118195
 10
303.305511
 20
267.118195
 10
303.897034
 20
267.118195
 10
304.529083
 20
267.118195
 10
305.192261
 20
267.118195
 10
305.877319
 20
267.118195
 10
306.575317
 20
267.118195
 10
307.281311
 20
267.118195
 10
308.022278
 20
267.118195
 10
308.802368
 20
267.118195
 10
309.615967
 20
267.118195
 10
310.456085
 20
267.118195
 10
311.314453
 20
267.118195
 10
312.181732
 20
267.118195
 10
313.04776
 20
267.118195
 10
313.901978
 20
267.118195
 10
314.733826
 20
267.118195
 10
315.533081
 20
267.118195
 10
316.290375
 20
267.118195
 10
316.997528
 20
267.118195
 10
317.647827
 20
267.118195
 10
318.236145
 20
267.118195
 10
318.759125
 20
267.118195
 10
319.215118
 20
267.118195
 10
319.604034
 20
267.118195
 10
319.929535
 20
267.118195
  0
LINE
  5
DA
330
AD
100
AcDbEntity
  8
0
  6
Continuous
 62
     0
370
     0
100
AcDbLine
 10
301.887787
 20
268.118152
 30
0.0
 11
319.013386
 21
268.118152
 31
0.0
  0
LINE
  5
DB
330
AD
100
AcDbEntity
  8
0
  6
Continuous
 62
     0
370
     0
100
AcDbLine
 10
319.013386
 20
268.118152
 30
0.0
 11
319.687787
 21
268.118152
 31
0.0
  0
LINE
  5
DC
330
AD
100
AcDbEntity
  8
0
  6
Continuous
 62
     0
370
    30
100
AcDbLine
 10
310.787787
 20
279.282894
 30
0.0
 11
300.787787
 21
279.282895
 31
0.0
  0
LINE
  5
DD
330
AD
100
AcDbEntity
  8
0
  6
Continuous
 62
     0
370
    30
100
AcDbLine
 10
320.787787
 20
279.282895
 30
0.0
 11
310.787787
 21
279.282894
 31
0.0
  0
LINE
  5
DE
330
AD
100
AcDbEntity
  8
0
  6
Continuous
 62
     0
370
    30
100
AcDbLine
 10
310.787787
 20
280.282894
 30
0.0
 11
299.787787
 21
280.282895
 31
0.0
  0
LWPOLYLINE
  5
DF
330
AD
100
AcDbEntity
  8
0
  6
Continuous
 62
     0
370
    30
100
AcDbPolyline
 90
       20
 70
     0
 43
0.0
 10
321.787781
 20
280.282898
 10
321.750305
 20
280.282898
 10
321.638275
 20
280.282898
 10
321.452362
 20
280.282898
 10
321.193878
 20
280.282898
 10
320.864563
 20
280.282898
 10
320.466614
 20
280.282898
 10
320.002869
 20
280.282898
 10
319.476318
 20
280.282898
 10
318.890686
 20
280.282898
 10
318.249908
 20
280.282898
 10
317.558289
 20
280.282898
 10
316.820618
 20
280.282898
 10
316.04184
 20
280.282898
 10
315.227356
 20
280.282898
 10
314.382751
 20
280.282898
 10
313.513611
 20
280.282898
 10
312.62558
 20
280.282898
 10
311.724915
 20
280.282898
 10
310.787781
 20
280.282898
  0
LINE
  5
E0
330
AD
100
AcDbEntity
  8
0
  6
Continuous
 62
     0
370
    30
100
AcDbLine
 10
380.287686
 20
290.382896
 30
0.0
 11
310.787787
 21
290.382893
 31
0.0
  0
LINE
  5
E1
330
AD
100
AcDbEntity
  8
0
  6
Continuous
 62
     0
370
    30
100
AcDbLine
 10
310.787787
 20
290.382893
 30
0.0
 11
241.287887
 21
290.382896
 31
0.0
  0
LINE
  5
E2
330
AD
100
AcDbEntity
  8
0
  6
Continuous
 62
     0
370
    30
100
AcDbLine
 10
380.787686
 20
290.882896
 30
0.0
 11
310.787787
 21
290.882893
 31
0.0
  0
LINE
  5
E3
330
AD
100
AcDbEntity
  8
0
  6
Continuous
 62
     0
370
    30
100
AcDbLine
 10
310.787787
 20
290.882893
 30
0.0
 11
240.787887
 21
290.882896
 31
0.0
  0
LINE
  5
E4
330
AD
100
AcDbEntity
  8
0
  6
Continuous
 62
     0
370
    30
100
AcDbLine
 10
380.787686
 20
300.882885
 30
0.0
 11
310.787787
 21
300.882885
 31
0.0
  0
LINE
  5
E5
330
AD
100
AcDbEntity
  8
0
  6
Continuous
 62
     0
370
    30
100
AcDbLine
 10
310.787787
 20
300.882885
 30
0.0
 11
240.787887
 21
300.882885
 31
0.0
  0
LINE
  5
E6
330
AD
100
AcDbEntity
  8
0
  6
Continuous
 62
     0
370
    30
100
AcDbLine
 10
299.787787
 20
290.382895
 30
0.0
 11
299.787787
 21
280.282895
 31
0.0
  0
LINE
  5
E7
330
AD
100
AcDbEntity
  8
0
  6
Continuous
 62
     0
370
    30
100
AcDbLine
 10
321.787787
 20
290.382895
 30
0.0
 11
321.787787
 21
280.282895
 31
0.0
  0
LINE
  5
E8
330
AD
100
AcDbEntity
  8
0
  6
Continuous
 62
     0
370
    30
100
AcDbLine
 10
240.787887
 20
290.882896
 30
0.0
 11
240.787887
 21
300.882885
 31
0.0
  0
LINE
  5
E9
330
AD
100
AcDbEntity
  8
0
  6
Continuous
 62
     0
370
    30
100
AcDbLine
 10
380.787686
 20
290.882896
 30
0.0
 11
380.787686
 21
300.882885
 31
0.0
  0
LINE
  5
EA
330
AD
100
AcDbEntity
  8
0
  6
Continuous
 62
     0
370
    30
100
AcDbLine
 10
241.287887
 20
290.382896
 30
0.0
 11
240.787887
 21
290.882896
 31
0.0
  0
LINE
  5
EB
330
AD
100
AcDbEntity
  8
0
  6
Continuous
 62
     0
370
    30
100
AcDbLine
 10
380.287686
 20
290.382896
 30
0.0
 11
380.787686
 21
290.882896
 31
0.0
  0
LINE
  5
EC
330
AD
100
AcDbEntity
  8
0
  6
Continuous
 62
     0
370
    30
100
AcDbLine
 10
300.787787
 20
279.282895
 30
0.0
 11
299.787787
 21
280.282895
 31
0.0
  0
LINE
  5
ED
330
AD
100
AcDbEntity
  8
0
  6
Continuous
 62
     0
370
    30
100
AcDbLine
 10
321.787787
 20
280.282895
 30
0.0
 11
320.787787
 21
279.282895
 31
0.0
  0
ARC
  5
EE
330
AD
100
AcDbEntity
  8
0
  6
Continuous
 62
     0
370
    30
100
AcDbCircle
 10
320.687812
 20
268.118177
 30
0.0
 40
1.000024867385279
100
AcDbArc
 50
180.001412
 51
269.498588
  0
ARC
  5
EF
330
AD
100
AcDbEntity
  8
0
  6
Continuous
 62
     0
370
    30
100
AcDbCircle
 10
300.887761
 20
268.118177
 30
0.0
 40
1.000024887257706
100
AcDbArc
 50
270.501411
 51
359.998586
  0
LINE
  5
F0
330
AD
100
AcDbEntity
  8
0
  6
Continuous
 62
     0
370
    30
100
AcDbLine
 10
301.887787
 20
268.118152
 30
0.0
 11
301.887787
 21
279.108951
 31
0.0
  0
LINE
  5
F1
330
AD
100
AcDbEntity
  8
0
  6
Continuous
 62
     0
370
    30
100
AcDbLine
 10
319.687787
 20
268.118152
 30
0.0
 11
319.687787
 21
279.108951
 31
0.0
  0
LINE
  5
F2
330
AD
100
AcDbEntity
  8
0
  6
Continuous
 62
     0
370
    30
100
AcDbLine
 10
321.440451
 20
267.111545
 30
0.0
 11
320.67906
 21
267.11819
 31
0.0
  0
LINE
  5
F3
330
AD
100
AcDbEntity
  8
0
  6
Continuous
 62
     0
370
    30
100
AcDbLine
 10
300.135132
 20
267.111546
 30
0.0
 11
300.896513
 21
267.11819
 31
0.0
  0
ARC
  5
F4
330
AD
100
AcDbEntity
  8
0
  6
Continuous
 62
     0
370
    30
100
AcDbCircle
 10
321.437772
 20
266.811542
 30
0.0
 40
0.3000150600350293
100
AcDbArc
 50
0.002848
 51
89.479621
  0
ARC
  5
F5
330
AD
100
AcDbEntity
  8
0
  6
Continuous
 62
     0
370
    30
100
AcDbCircle
 10
300.137801
 20
266.811542
 30
0.0
 40
0.3000150565412951
100
AcDbArc
 50
90.515491
 51
179.997152
  0
LINE
  5
F6
330
AD
100
AcDbEntity
  8
0
  6
Continuous
 62
     0
370
    30
100
AcDbLine
 10
299.837787
 20
259.708951
 30
0.0
 11
299.837787
 21
266.811557
 31
0.0
  0
LINE
  5
F7
330
AD
100
AcDbEntity
  8
0
  6
Continuous
 62
     0
370
    30
100
AcDbLine
 10
321.737787
 20
259.708951
 30
0.0
 11
321.737787
 21
266.811557
 31
0.0
  0
ARC
  5
F8
330
AD
100
AcDbEntity
  8
0
  6
Continuous
 62
     0
370
    30
100
AcDbCircle
 10
319.387529
 20
279.108852
 30
0.0
 40
0.3002572752992183
100
AcDbArc
 50
0.018765
 51
35.425548
  0
ARC
  5
F9
330
AD
100
AcDbEntity
  8
0
  6
Continuous
 62
     0
370
    30
100
AcDbCircle
 10
302.188041
 20
279.108853
 30
0.0
 40
0.3002549535763259
100
AcDbArc
 50
144.571334
 51
179.981375
  0
ARC
  5
FA
330
AD
100
AcDbEntity
  8
0
  6
Continuous
 62
     0
370
    30
100
AcDbCircle
 10
321.437771
 20
259.708966
 30
0.0
 40
0.3000152333683679
100
AcDbArc
 50
270.006607
 51
359.997095
  0
ARC
  5
FB
330
AD
100
AcDbEntity
  8
0
  6
Continuous
 62
     0
370
    30
100
AcDbCircle
 10
300.137801
 20
259.708966
 30
0.0
 40
0.3000150326805647
100
AcDbArc
 50
180.002867
 51
269.99674
  0
LINE
  5
FC
330
AD
100
AcDbEntity
  8
0
  6
Continuous
 62
     0
370
    30
100
AcDbLine
 10
332.987787
 20
290.382897
 30
0.0
 11
332.987787
 21
280.1898
 31
0.0
  0
LINE
  5
FD
330
AD
100
AcDbEntity
  8
0
  6
Continuous
 62
     0
370
    30
100
AcDbLine
 10
288.587787
 20
290.382897
 30
0.0
 11
288.587787
 21
280.1898
 31
0.0
  0
ARC
  5
FE
330
AD
100
AcDbEntity
  8
0
  6
Continuous
 62
     0
370
    30
100
AcDbCircle
 10
310.980307
 20
281.574599
 30
0.0
 40
20.48937043720029
100
AcDbArc
 50
183.875358
 51
191.785155
  0
ARC
  5
FF
330
AD
100
AcDbEntity
  8
0
  6
Continuous
 62
     0
370
    30
100
AcDbCircle
 10
310.595267
 20
281.574599
 30
0.0
 40
20.48937043730861
100
AcDbArc
 50
348.214845
 51
356.124642
  0
LWPOLYLINE
  5
100
330
AD
100
AcDbEntity
  8
0
  6
Continuous
 62
     0
370
    30
100
AcDbPolyline
 90
        5
 70
     0
 43
0.0
 10
332.759125
 20
266.130981
 10
332.808044
 20
268.629211
 10
332.867676
 20
271.156372
 10
332.934387
 20
273.703186
 10
333.036499
 20
277.358368
  0
LWPOLYLINE
  5
101
330
AD
100
AcDbEntity
  8
0
  6
Continuous
 62
     0
370
    30
100
AcDbPolyline
 90
        5
 70
     0
 43
0.0
 10
288.539093
 20
277.358215
 10
288.611237
 20
274.798035
 10
288.679993
 20
272.245605
 10
288.743103
 20
269.708588
 10
288.816467
 20
266.130981
  0
LWPOLYLINE
  5
102
330
AD
100
AcDbEntity
  8
0
  6
Continuous
 62
     0
370
    30
100
AcDbPolyline
 90
       63
 70
     0
 43
0.0
 10
297.539673
 20
243.626434
 10
296.801666
 20
243.700287
 10
296.074707
 20
243.784836
 10
295.3638
 20
243.88353
 10
294.676544
 20
244.000397
 10
294.025482
 20
244.139267
 10
293.430481
 20
244.301727
 10
292.9021
 20
244.488251
 10
292.448212
 20
244.694199
 10
292.06842
 20
244.911545
 10
291.751587
 20
245.133011
 10
291.480652
 20
245.356766
 10
291.240814
 20
245.585953
 10
291.030487
 20
245.816406
 10
290.845276
 20
246.046265
 10
290.678802
 20
246.278458
 10
290.528442
 20
246.513184
 10
290.392578
 20
246.748413
 10
290.269135
 20
246.984406
 10
290.156067
 20
247.222061
 10
290.052765
 20
247.459747
 10
289.958984
 20
247.695129
 10
289.873566
 20
247.928177
 10
289.794891
 20
248.160629
 10
289.722565
 20
248.391785
 10
289.656158
 20
248.620941
 10
289.595123
 20
248.847488
 10
289.53891
 20
249.071014
 10
289.486908
 20
249.292023
 10
289.43866
 20
249.511093
 10
289.39386
 20
249.727921
 10
289.352264
 20
249.942032
 10
289.313568
 20
250.153412
 10
289.277313
 20
250.362839
 10
289.243256
 20
250.57077
 10
289.211273
 20
250.777115
 10
289.181213
 20
250.981827
 10
289.153015
 20
251.18486
 10
289.126556
 20
251.386185
 10
289.101685
 20
251.58577
 10
289.078339
 20
251.783554
 10
289.056366
 20
251.979507
 10
289.035736
 20
252.173508
 10
289.016388
 20
252.365463
 10
288.99826
 20
252.555084
 10
288.981262
 20
252.741791
 10
288.965302
 20
252.924988
 10
288.950317
 20
253.10408
 10
288.936157
 20
253.278625
 10
288.922791
 20
253.44838
 10
288.910065
 20
253.612946
 10
288.89801
 20
253.771332
 10
288.886719
 20
253.92215
 10
288.876251
 20
254.064072
 10
288.86673
 20
254.195877
 10
288.858185
 20
254.31694
 10
288.850769
 20
254.426758
 10
288.844482
 20
254.525543
 10
288.839264
 20
254.615631
 10
288.835022
 20
254.699631
 10
288.831696
 20
254.779785
 10
288.829285
 20
254.855591
 10
288.827667
 20
254.925293
  0
LWPOLYLINE
  5
103
330
AD
100
AcDbEntity
  8
0
  6
Continuous
 62
     0
370
    30
100
AcDbPolyline
 90
       10
 70
     0
 43
0.0
 10
288.827118
 20
254.958038
 10
288.826172
 20
255.02742
 10
288.825775
 20
255.118469
 10
288.826508
 20
255.225891
 10
288.828552
 20
255.350754
 10
288.831757
 20
255.491043
 10
288.83606
 20
255.656113
 10
288.841431
 20
255.85878
 10
288.847687
 20
256.110535
 10
288.854523
 20
256.431396
  0
LWPOLYLINE
  5
104
330
AD
100
AcDbEntity
  8
0
  6
Continuous
 62
     0
370
    30
100
AcDbPolyline
 90
       16
 70
     0
 43
0.0
 10
288.854523
 20
256.431396
 10
288.861328
 20
256.846344
 10
288.867004
 20
257.324402
 10
288.871185
 20
257.853546
 10
288.873505
 20
258.433624
 10
288.874054
 20
259.062469
 10
288.873199
 20
259.723785
 10
288.871368
 20
260.402802
 10
288.868835
 20
261.092468
 10
288.865448
 20
261.790161
 10
288.860931
 20
262.494141
 10
288.855072
 20
263.202911
 10
288.847748
 20
263.915802
 10
288.838959
 20
264.63269
 10
288.828735
 20
265.353546
 10
288.816254
 20
266.130951
  0
LWPOLYLINE
  5
105
330
AD
100
AcDbEntity
  8
0
  6
Continuous
 62
     0
370
    30
100
AcDbPolyline
 90
       12
 70
     0
 43
0.0
 10
324.037476
 20
243.626511
 10
321.654877
 20
243.439789
 10
319.249512
 20
243.302521
 10
316.83551
 20
243.202362
 10
314.41803
 20
243.135193
 10
311.999146
 20
243.100632
 10
309.579895
 20
243.100464
 10
307.161041
 20
243.135132
 10
304.743561
 20
243.202408
 10
302.329529
 20
243.302444
 10
299.924133
 20
243.439575
 10
297.539062
 20
243.626511
  0
LWPOLYLINE
  5
106
330
AD
100
AcDbEntity
  8
0
  6
Continuous
 62
     0
370
    30
100
AcDbPolyline
 90
       62
 70
     0
 43
0.0
 10
332.748047
 20
254.922699
 10
332.746399
 20
254.851349
 10
332.743927
 20
254.774078
 10
332.740479
 20
254.691956
 10
332.736053
 20
254.605789
 10
332.730652
 20
254.51358
 10
332.724152
 20
254.412079
 10
332.716461
 20
254.298782
 10
332.707611
 20
254.173935
 10
332.697784
 20
254.038055
 10
332.686981
 20
253.891953
 10
332.675354
 20
253.737076
 10
332.662994
 20
253.574844
 10
332.649902
 20
253.406448
 10
332.636108
 20
253.23262
 10
332.621552
 20
253.05397
 10
332.606079
 20
252.87085
 10
332.589569
 20
252.683701
 10
332.57196
 20
252.493103
 10
332.553162
 20
252.299652
 10
332.533081
 20
252.103928
 10
332.511658
 20
251.906189
 10
332.4888
 20
251.706482
 10
332.464478
 20
251.504883
 10
332.438599
 20
251.301498
 10
332.41098
 20
251.096359
 10
332.381561
 20
250.889435
 10
332.350159
 20
250.680725
 10
332.316711
 20
250.470352
 10
332.281097
 20
250.258606
 10
332.243073
 20
250.045074
 10
332.202271
 20
249.828842
 10
332.158325
 20
249.609833
 10
332.110992
 20
249.388489
 10
332.059967
 20
249.165054
 10
332.00473
 20
248.939163
 10
331.944672
 20
248.710266
 10
331.879303
 20
248.478256
 10
331.808136
 20
248.244034
 10
331.730713
 20
248.008636
 10
331.646362
 20
247.772186
 10
331.554077
 20
247.533966
 10
331.452301
 20
247.293213
 10
331.34024
 20
247.051407
 10
331.21759
 20
246.810959
 10
331.083344
 20
246.572113
 10
330.93457
 20
246.333939
 10
330.769287
 20
246.097183
 10
330.585663
 20
245.863312
 10
330.377502
 20
245.629608
 10
330.139648
 20
245.396255
 10
329.869873
 20
245.167984
 10
329.556702
 20
244.942978
 10
329.180328
 20
244.721237
 10
328.728668
 20
244.51033
 10
328.199524
 20
244.318512
 10
327.6008
 20
244.151367
 10
326.943207
 20
244.008652
 10
326.246948
 20
243.888809
 10
325.525696
 20
243.787888
 10
324.787689
 20
243.701599
 10
324.038239
 20
243.626572
  0
LWPOLYLINE
  5
107
330
AD
100
AcDbEntity
  8
0
  6
Continuous
 62
     0
370
    30
100
AcDbPolyline
 90
       10
 70
     0
 43
0.0
 10
332.748596
 20
254.954102
 10
332.749634
 20
255.029633
 10
332.75
 20
255.118988
 10
332.749237
 20
255.227402
 10
332.747192
 20
255.351074
 10
332.743988
 20
255.49086
 10
332.739685
 20
255.655121
 10
332.734344
 20
255.857132
 10
332.728088
 20
256.10849
 10
332.721161
 20
256.431396
  0
LWPOLYLINE
  5
108
330
AD
100
AcDbEntity
  8
0
  6
Continuous
 62
     0
370
    30
100
AcDbPolyline
 90
       16
 70
     0
 43
0.0
 10
332.759338
 20
266.130951
 10
332.74762
 20
265.403625
 10
332.737274
 20
264.679932
 10
332.728363
 20
263.960022
 10
332.720947
 20
263.243958
 10
332.714996
 20
262.532135
 10
332.710388
 20
261.825134
 10
332.70694
 20
261.12442
 10
332.704376
 20
260.43161
 10
332.702515
 20
259.749298
 10
332.70163
 20
259.084808
 10
332.702087
 20
258.452087
 10
332.704407
 20
257.868591
 10
332.708557
 20
257.336456
 10
332.714264
 20
256.855469
 10
332.721161
 20
256.431396
  0
ENDBLK
  5
10A
330
AD
100
AcDbEntity
  8
0
100
AcDbBlockEnd
  0
BLOCK
  5
164
330
10C
100
AcDbEntity
  8
0
100
AcDbBlockBegin
  2
c
 70
     0
 10
371.125702
 20
0.0
 30
0.0
  3
c
  1

  0
LWPOLYLINE
  5
10D
330
10C
100
AcDbEntity
  8
0
  6
Continuous
 62
     0
370
     0
100
AcDbPolyline
 90
        7
 70
     0
 43
0.0
 10
497.032898
 20
445.527771
 10
497.058838
 20
445.529572
 10
497.136139
 20
445.53479
 10
497.262878
 20
445.542816
 10
497.436218
 20
445.552643
 10
497.652344
 20
445.563171
 10
497.971771
 20
445.575226
  0
LWPOLYLINE
  5
10E
330
10C
100
AcDbEntity
  8
0
  6
Continuous
 62
     0
370
     0
100
AcDbPolyline
 90
       13
 70
     0
 43
0.0
 10
497.971771
 20
445.575226
 10
497.974335
 20
445.651367
 10
497.980682
 20
445.756927
 10
497.992401
 20
445.890686
 10
498.0112
 20
446.051483
 10
498.038757
 20
446.238373
 10
498.077118
 20
446.450409
 10
498.129089
 20
446.687225
 10
498.197998
 20
446.948517
 10
498.28714
 20
447.234009
 10
498.39743
 20
447.543213
 10
498.541077
 20
447.883026
 10
498.751068
 20
448.286194
  0
LWPOLYLINE
  5
10F
330
10C
100
AcDbEntity
  8
0
  6
Continuous
 62
     0
370
     0
100
AcDbPolyline
 90
        7
 70
     0
 43
0.0
 10
498.751068
 20
448.286194
 10
496.831726
 20
448.321899
 10
494.899384
 20
448.357483
 10
492.959869
 20
448.390045
 10
491.016083
 20
448.420471
 10
489.069977
 20
448.449493
 10
486.7435
 20
448.483307
  0
LINE
  5
110
330
10C
100
AcDbEntity
  8
0
  6
Continuous
 62
     0
370
    30
100
AcDbLine
 10
486.743501
 20
448.483314
 30
0.0
 11
486.743501
 21
445.502906
 31
0.0
  0
LINE
  5
111
330
10C
100
AcDbEntity
  8
0
  6
Continuous
 62
     0
370
     0
100
AcDbLine
 10
498.002435
 20
490.079338
 30
0.0
 11
498.002436
 21
487.244306
 31
0.0
  0
LWPOLYLINE
  5
112
330
10C
100
AcDbEntity
  8
0
  6
Continuous
 62
     0
370
     0
100
AcDbPolyline
 90
        3
 70
     0
 43
0.0
 10
498.002441
 20
487.244293
 10
499.500031
 20
487.270813
 10
507.680145
 20
487.393768
  0
LWPOLYLINE
  5
113
330
10C
100
AcDbEntity
  8
0
  6
Continuous
 62
     0
370
     0
100
AcDbPolyline
 90
       29
 70
     0
 43
0.0
 10
507.680145
 20
487.393768
 10
507.944275
 20
487.39798
 10
508.208435
 20
487.40152
 10
508.472595
 20
487.403412
 10
508.736694
 20
487.402039
 10
509.000641
 20
487.395081
 10
509.263885
 20
487.378601
 10
509.525024
 20
487.346191
 10
509.779388
 20
487.286316
 10
510.013641
 20
487.1828
 10
510.203552
 20
487.024902
 10
510.335052
 20
486.826477
 10
510.421448
 20
486.609161
 10
510.479401
 20
486.384247
 10
510.520813
 20
486.156219
 10
510.551849
 20
485.926514
 10
510.576599
 20
485.696106
 10
510.59726
 20
485.465759
 10
510.615631
 20
485.236145
 10
510.632599
 20
485.007843
 10
510.649017
 20
484.781403
 10
510.665436
 20
484.557343
 10
510.682159
 20
484.335815
 10
510.699493
 20
484.117096
 10
510.71759
 20
483.901306
 10
510.736542
 20
483.688385
 10
510.756287
 20
483.47821
 10
510.77713
 20
483.271545
 10
510.800415
 20
483.064209
  0
LWPOLYLINE
  5
114
330
10C
100
AcDbEntity
  8
0
  6
Continuous
 62
     0
370
     0
100
AcDbPolyline
 90
        8
 70
     0
 43
0.0
 10
510.800415
 20
483.064209
 10
510.897125
 20
483.386017
 10
510.992432
 20
483.66983
 10
511.080597
 20
483.917358
 10
511.157715
 20
484.122345
 10
511.219391
 20
484.278778
 10
511.260498
 20
484.379761
 10
511.275574
 20
484.416016
  0
LWPOLYLINE
  5
115
330
10C
100
AcDbEntity
  8
0
  6
Continuous
 62
     0
370
     0
100
AcDbPolyline
 90
        6
 70
     0
 43
0.0
 10
520.381042
 20
414.59967
 10
520.484436
 20
414.559998
 10
520.567688
 20
414.536469
 10
520.63208
 20
414.522217
 10
520.675781
 20
414.514771
 10
520.697388
 20
414.511627
  0
LWPOLYLINE
  5
116
330
10C
100
AcDbEntity
  8
0
  6
Continuous
 62
     0
370
     0
100
AcDbPolyline
 90
       16
 70
     0
 43
0.0
 10
510.800415
 20
483.064209
 10
510.76239
 20
481.47168
 10
510.753571
 20
479.81488
 10
510.77063
 20
478.106201
 10
510.806366
 20
476.349609
 10
510.851074
 20
474.524353
 10
510.891632
 20
472.63269
 10
510.922089
 20
470.705322
 10
510.942413
 20
468.762878
 10
510.956207
 20
466.814697
 10
510.967773
 20
464.864563
 10
510.980072
 20
462.913635
 10
510.995575
 20
460.962402
 10
511.016846
 20
459.011078
 10
511.047546
 20
457.059875
 10
511.094421
 20
455.08017
  0
LWPOLYLINE
  5
117
330
10C
100
AcDbEntity
  8
0
  6
Continuous
 62
     0
370
     0
100
AcDbPolyline
 90
       63
 70
     0
 43
0.0
 10
511.094421
 20
455.08017
 10
511.116943
 20
454.397552
 10
511.144562
 20
453.715088
 10
511.179047
 20
453.032928
 10
511.222595
 20
452.351288
 10
511.277252
 20
451.670471
 10
511.344788
 20
450.990875
 10
511.426605
 20
450.312805
 10
511.522797
 20
449.636658
 10
511.632629
 20
448.962585
 10
511.754578
 20
448.290588
 10
511.886719
 20
447.620422
 10
512.027161
 20
446.951904
 10
512.174011
 20
446.284851
 10
512.325745
 20
445.619019
 10
512.481262
 20
444.954071
 10
512.639587
 20
444.289795
 10
512.800171
 20
443.626007
 10
512.962524
 20
442.962677
 10
513.126343
 20
442.299713
 10
513.291382
 20
441.637054
 10
513.457581
 20
440.97467
 10
513.624817
 20
440.312592
 10
513.792908
 20
439.650696
 10
513.961792
 20
438.989044
 10
514.131409
 20
438.327545
 10
514.301575
 20
437.666229
 10
514.472229
 20
437.005005
 10
514.643311
 20
436.343933
 10
514.81488
 20
435.682983
 10
514.986877
 20
435.022156
 10
515.15918
 20
434.36142
 10
515.331848
 20
433.700775
 10
515.504822
 20
433.040222
 10
515.67804
 20
432.37973
 10
515.851501
 20
431.71933
 10
516.025146
 20
431.05899
 10
516.198975
 20
430.398682
 10
516.372864
 20
429.738403
 10
516.546875
 20
429.078186
 10
516.720886
 20
428.417969
 10
516.894897
 20
427.757751
 10
517.06897
 20
427.097595
 10
517.242981
 20
426.437439
 10
517.417053
 20
425.777344
 10
517.591064
 20
425.11731
 10
517.765015
 20
424.457336
 10
517.939026
 20
423.797455
 10
518.112915
 20
423.137695
 10
518.286804
 20
422.478119
 10
518.460632
 20
421.818726
 10
518.63446
 20
421.159576
 10
518.808044
 20
420.500916
 10
518.981445
 20
419.843231
 10
519.15448
 20
419.186981
 10
519.326965
 20
418.532745
 10
519.498474
 20
417.88208
 10
519.668335
 20
417.238251
 10
519.834961
 20
416.608063
 10
519.995056
 20
416.006653
 10
520.142212
 20
415.460632
 10
520.271606
 20
414.989319
 10
520.381042
 20
414.59967
  0
LWPOLYLINE
  5
118
330
10C
100
AcDbEntity
  8
0
  6
Continuous
 62
     0
370
     0
100
AcDbPolyline
 90
       24
 70
     0
 43
0.0
 10
520.381042
 20
414.59967
 10
520.392578
 20
414.472626
 10
520.405396
 20
414.334473
 10
520.418945
 20
414.188324
 10
520.432861
 20
414.035156
 10
520.447144
 20
413.874084
 10
520.461609
 20
413.704163
 10
520.475891
 20
413.524963
 10
520.489502
 20
413.336334
 10
520.50177
 20
413.138641
 10
520.511169
 20
412.933533
 10
520.516113
 20
412.723083
 10
520.51355
 20
412.510071
 10
520.498962
 20
412.296661
 10
520.462585
 20
412.080841
 10
520.39032
 20
411.866974
 10
520.264404
 20
411.669281
 10
520.075623
 20
411.502258
 10
519.843811
 20
411.374695
 10
519.591248
 20
411.27832
 10
519.328491
 20
411.206116
 10
519.059265
 20
411.155212
 10
518.786316
 20
411.126373
 10
518.504517
 20
411.125092
  0
LWPOLYLINE
  5
119
330
10C
100
AcDbEntity
  8
0
  6
Continuous
 62
     0
370
     0
100
AcDbPolyline
 90
       10
 70
     0
 43
0.0
 10
518.504517
 20
411.125092
 10
518.217468
 20
411.170898
 10
517.959778
 20
411.276978
 10
517.746826
 20
411.432556
 10
517.567993
 20
411.612457
 10
517.412781
 20
411.807861
 10
517.280151
 20
412.020752
 10
517.166931
 20
412.249237
 10
517.066895
 20
412.487762
 10
516.972351
 20
412.744385
  0
LWPOLYLINE
  5
11A
330
10C
100
AcDbEntity
  8
0
  6
Continuous
 62
     0
370
    30
100
AcDbPolyline
 90
        7
 70
     0
 43
0.0
 10
516.972351
 20
412.744385
 10
516.827881
 20
413.185944
 10
516.698547
 20
413.616821
 10
516.583618
 20
414.019958
 10
516.482605
 20
414.386658
 10
516.39325
 20
414.719116
 10
516.313293
 20
415.021667
  0
LWPOLYLINE
  5
11B
330
10C
100
AcDbEntity
  8
0
  6
Continuous
 62
     0
370
     0
100
AcDbPolyline
 90
       69
 70
     0
 43
0.0
 10
516.313293
 20
415.021667
 10
516.23877
 20
415.303497
 10
516.152161
 20
415.631195
 10
516.052124
 20
416.010193
 10
515.938293
 20
416.44162
 10
515.813965
 20
416.913208
 10
515.683777
 20
417.406982
 10
515.550476
 20
417.912537
 10
515.415588
 20
418.424164
 10
515.279663
 20
418.939178
 10
515.143005
 20
419.456085
 10
515.005615
 20
419.974213
 10
514.867554
 20
420.493042
 10
514.728882
 20
421.01236
 10
514.589661
 20
421.531921
 10
514.44989
 20
422.051636
 10
514.30957
 20
422.571381
 10
514.168762
 20
423.091156
 10
514.027466
 20
423.610901
 10
513.885742
 20
424.130585
 10
513.74353
 20
424.650208
 10
513.600891
 20
425.169739
 10
513.457825
 20
425.689178
 10
513.314331
 20
426.208527
 10
513.170471
 20
426.727753
 10
513.026245
 20
427.246918
 10
512.881592
 20
427.765961
 10
512.736511
 20
428.284912
 10
512.591064
 20
428.803741
 10
512.445129
 20
429.322418
 10
512.298706
 20
429.841003
 10
512.151794
 20
430.359436
 10
512.004272
 20
430.877686
 10
511.856201
 20
431.395782
 10
511.707428
 20
431.913666
 10
511.557953
 20
432.431335
 10
511.407684
 20
432.948761
 10
511.256622
 20
433.465942
 10
511.104706
 20
433.982849
 10
510.951843
 20
434.499481
 10
510.798004
 20
435.015778
 10
510.643127
 20
435.531738
 10
510.487091
 20
436.047302
 10
510.329712
 20
436.562408
 10
510.170898
 20
437.077026
 10
510.010529
 20
437.591125
 10
509.848419
 20
438.104584
 10
509.684235
 20
438.617279
 10
509.517731
 20
439.12915
 10
509.348633
 20
439.640015
 10
509.176544
 20
440.14975
 10
509.000641
 20
440.657898
 10
508.820007
 20
441.163971
 10
508.633728
 20
441.667572
 10
508.440613
 20
442.167938
 10
508.238922
 20
442.66394
 10
508.026764
 20
443.154297
 10
507.801605
 20
443.637054
 10
507.559204
 20
444.108521
 10
507.294556
 20
444.563934
 10
506.999725
 20
444.993896
 10
506.66568
 20
445.384827
 10
506.284515
 20
445.718353
 10
505.859375
 20
445.991364
 10
505.398132
 20
446.214844
 10
504.905304
 20
446.39566
 10
504.389648
 20
446.542847
 10
503.863892
 20
446.66925
 10
503.338013
 20
446.789032
  0
LWPOLYLINE
  5
11C
330
10C
100
AcDbEntity
  8
0
  6
Continuous
 62
     0
370
     0
100
AcDbPolyline
 90
        6
 70
     0
 43
0.0
 10
503.338013
 20
446.789032
 10
502.363403
 20
447.030579
 10
501.441315
 20
447.296143
 10
500.547882
 20
447.588562
 10
499.66803
 20
447.910858
 10
498.751068
 20
448.286194
  0
LWPOLYLINE
  5
11D
330
10C
100
AcDbEntity
  8
0
  6
Continuous
 62
     0
370
     0
100
AcDbPolyline
 90
       14
 70
     0
 43
0.0
 10
497.971771
 20
445.575226
 10
498.33075
 20
445.583771
 10
498.726837
 20
445.587128
 10
499.146484
 20
445.583679
 10
499.577789
 20
445.572601
 10
500.008698
 20
445.553802
 10
500.426025
 20
445.528015
 10
500.817169
 20
445.496796
 10
501.170288
 20
445.462463
 10
501.474945
 20
445.427887
 10
501.722015
 20
445.396271
 10
501.90448
 20
445.370636
 10
502.016907
 20
445.353821
 10
502.05658
 20
445.347687
  0
LWPOLYLINE
  5
11E
330
10C
100
AcDbEntity
  8
0
  6
Continuous
 62
     0
370
     0
100
AcDbPolyline
 90
       12
 70
     0
 43
0.0
 10
507.726685
 20
454.055176
 10
507.451904
 20
454.376495
 10
507.140503
 20
454.661957
 10
506.796356
 20
454.906799
 10
506.428894
 20
455.114716
 10
506.040588
 20
455.281311
 10
505.637573
 20
455.407867
 10
505.225159
 20
455.499054
 10
504.807434
 20
455.560791
 10
504.387024
 20
455.598663
 10
503.965607
 20
455.61908
 10
503.538086
 20
455.628723
  0
LWPOLYLINE
  5
11F
330
10C
100
AcDbEntity
  8
0
  6
Continuous
 62
     0
370
     0
100
AcDbPolyline
 90
        9
 70
     0
 43
0.0
 10
503.538086
 20
455.628723
 10
503.526489
 20
454.837372
 10
503.512573
 20
454.056091
 10
503.496613
 20
453.2901
 10
503.479401
 20
452.546265
 10
503.462646
 20
451.834503
 10
503.449677
 20
451.166687
 10
503.446381
 20
450.553101
 10
503.467407
 20
449.90744
  0
LWPOLYLINE
  5
120
330
10C
100
AcDbEntity
  8
0
  6
Continuous
 62
     0
370
     0
100
AcDbPolyline
 90
        6
 70
     0
 43
0.0
 10
503.467407
 20
449.90744
 10
503.50351
 20
449.519623
 10
503.563782
 20
449.145172
 10
503.656342
 20
448.783752
 10
503.792816
 20
448.434814
 10
503.997375
 20
448.070496
  0
ARC
  5
121
330
10C
100
AcDbEntity
  8
0
  6
Continuous
 62
     0
370
     0
100
AcDbCircle
 10
503.063422
 20
443.331444
 30
0.0
 40
4.830205919688701
100
AcDbArc
 50
52.368414
 51
78.851407
  0
LWPOLYLINE
  5
122
330
10C
100
AcDbEntity
  8
0
  6
Continuous
 62
     0
370
     0
100
AcDbPolyline
 90
       13
 70
     0
 43
0.0
 10
506.012665
 20
447.156738
 10
506.024902
 20
447.527802
 10
506.053619
 20
447.963165
 10
506.111786
 20
448.44397
 10
506.21051
 20
448.952789
 10
506.358337
 20
449.474304
 10
506.550201
 20
450.017944
 10
506.764282
 20
450.60675
 10
506.981476
 20
451.240875
 10
507.189758
 20
451.911133
 10
507.384003
 20
452.605621
 10
507.560181
 20
453.318787
 10
507.726685
 20
454.055176
  0
LWPOLYLINE
  5
123
330
10C
100
AcDbEntity
  8
0
  6
Continuous
 62
     0
370
     0
100
AcDbPolyline
 90
       28
 70
     0
 43
0.0
 10
507.726685
 20
454.055176
 10
507.716736
 20
455.434509
 10
507.711273
 20
456.815094
 10
507.707184
 20
458.196381
 10
507.703918
 20
459.578003
 10
507.701752
 20
460.959778
 10
507.700775
 20
462.341522
 10
507.700684
 20
463.723083
 10
507.70108
 20
465.104279
 10
507.701721
 20
466.484833
 10
507.702393
 20
467.864319
 10
507.70285
 20
469.242126
 10
507.702789
 20
470.617126
 10
507.701965
 20
471.987518
 10
507.700439
 20
473.349823
 10
507.698273
 20
474.699127
 10
507.695618
 20
476.02774
 10
507.692657
 20
477.325989
 10
507.689667
 20
478.583374
 10
507.687042
 20
479.792145
 10
507.684937
 20
480.947998
 10
507.68338
 20
482.049896
 10
507.682251
 20
483.095886
 10
507.681458
 20
484.08371
 10
507.680908
 20
485.01181
 10
507.680542
 20
485.87619
 10
507.680298
 20
486.669891
 10
507.680145
 20
487.393768
  0
LWPOLYLINE
  5
124
330
10C
100
AcDbEntity
  8
0
  6
Continuous
 62
     0
370
     0
100
AcDbPolyline
 90
       27
 70
     0
 43
0.0
 10
498.002441
 20
487.244293
 10
498.002441
 20
486.531342
 10
498.002441
 20
485.743866
 10
498.002441
 20
484.887299
 10
498.002441
 20
483.967682
 10
498.002441
 20
482.989166
 10
498.002441
 20
481.953613
 10
498.002441
 20
480.863678
 10
498.002441
 20
479.722443
 10
498.002441
 20
478.532898
 10
498.002441
 20
477.299103
 10
498.002441
 20
476.027374
 10
498.002441
 20
474.724792
 10
498.002441
 20
473.398773
 10
498.002441
 20
472.055817
 10
498.002441
 20
470.701508
 10
498.002441
 20
469.339966
 10
498.002441
 20
467.974457
 10
498.002411
 20
466.60672
 10
498.002258
 20
465.238434
 10
498.001984
 20
463.871307
 10
498.001465
 20
462.506775
 10
498.000671
 20
461.145203
 10
497.999542
 20
459.787354
 10
497.997894
 20
458.438477
 10
497.995605
 20
457.105377
 10
497.992432
 20
455.75827
  0
LWPOLYLINE
  5
125
330
10C
100
AcDbEntity
  8
0
  6
Continuous
 62
     0
370
     0
100
AcDbPolyline
 90
        4
 70
     0
 43
0.0
 10
497.992432
 20
455.75827
 10
499.751862
 20
455.678406
 10
501.510254
 20
455.641052
 10
503.538086
 20
455.628723
  0
LWPOLYLINE
  5
126
330
10C
100
AcDbEntity
  8
0
  6
Continuous
 62
     0
370
     0
100
AcDbPolyline
 90
       37
 70
     0
 43
0.0
 10
507.726685
 20
454.055176
 10
507.958099
 20
454.229492
 10
508.201935
 20
454.389435
 10
508.455414
 20
454.537476
 10
508.717529
 20
454.674042
 10
508.988831
 20
454.794403
 10
509.269714
 20
454.8927
 10
509.556519
 20
454.965576
 10
509.840454
 20
455.012909
 10
510.100677
 20
455.040588
 10
510.300873
 20
455.058655
 10
510.427399
 20
455.067719
 10
510.507263
 20
455.071899
 10
510.562439
 20
455.073792
 10
510.604767
 20
455.074707
 10
510.640015
 20
455.075195
 10
510.671082
 20
455.075562
 10
510.699341
 20
455.075836
 10
510.725769
 20
455.07608
 10
510.750671
 20
455.076324
 10
510.774231
 20
455.076538
 10
510.796692
 20
455.076721
 10
510.818268
 20
455.076904
 10
510.839203
 20
455.077118
 10
510.85968
 20
455.077301
 10
510.879944
 20
455.077484
 10
510.899994
 20
455.077698
 10
510.919891
 20
455.077911
 10
510.939606
 20
455.078125
 10
510.959229
 20
455.078369
 10
510.978699
 20
455.078583
 10
510.998077
 20
455.078827
 10
511.017365
 20
455.079071
 10
511.036591
 20
455.079346
 10
511.055756
 20
455.07959
 10
511.07489
 20
455.079865
 10
511.094421
 20
455.08017
  0
LWPOLYLINE
  5
127
330
10C
100
AcDbEntity
  8
0
  6
Continuous
 62
     0
370
     0
100
AcDbPolyline
 90
       59
 70
     0
 43
0.0
 10
507.726685
 20
454.055176
 10
507.894928
 20
453.260315
 10
508.058441
 20
452.464417
 10
508.219421
 20
451.66803
 10
508.379913
 20
450.87149
 10
508.541718
 20
450.075256
 10
508.706329
 20
449.279633
 10
508.875244
 20
448.484894
 10
509.049316
 20
447.691254
 10
509.228241
 20
446.898682
 10
509.411469
 20
446.107056
 10
509.598419
 20
445.316345
 10
509.788635
 20
444.526428
 10
509.981628
 20
443.737213
 10
510.176971
 20
442.948578
 10
510.374176
 20
442.160431
 10
510.572815
 20
441.37265
 10
510.772675
 20
440.585205
 10
510.973602
 20
439.798096
 10
511.175476
 20
439.01123
 10
511.378174
 20
438.224609
 10
511.581512
 20
437.438202
 10
511.785431
 20
436.652008
 10
511.989838
 20
435.865967
 10
512.194641
 20
435.080078
 10
512.399902
 20
434.294373
 10
512.605469
 20
433.50885
 10
512.811401
 20
432.72345
 10
513.017517
 20
431.938232
 10
513.223938
 20
431.153168
 10
513.43042
 20
430.368286
 10
513.637085
 20
429.583557
 10
513.843811
 20
428.799011
 10
514.050537
 20
428.014679
 10
514.257263
 20
427.23053
 10
514.463928
 20
426.446655
 10
514.670471
 20
425.663147
 10
514.876953
 20
424.880066
 10
515.083252
 20
424.097504
 10
515.289368
 20
423.315613
 10
515.4953
 20
422.534454
 10
515.700989
 20
421.754395
 10
515.90625
 20
420.975616
 10
516.111145
 20
420.198456
 10
516.315491
 20
419.423279
 10
516.519043
 20
418.651215
 10
516.721436
 20
417.883575
 10
516.922302
 20
417.121735
 10
517.121094
 20
416.367645
 10
517.316895
 20
415.624786
 10
517.507935
 20
414.900299
 10
517.69104
 20
414.205872
 10
517.861877
 20
413.558075
 10
518.015686
 20
412.975067
 10
518.149231
 20
412.468964
 10
518.262329
 20
412.040741
 10
518.357117
 20
411.682068
 10
518.436584
 20
411.381744
 10
518.504517
 20
411.125092
  0
LWPOLYLINE
  5
128
330
10C
100
AcDbEntity
  8
0
  6
Continuous
 62
     0
370
     0
100
AcDbPolyline
 90
       59
 70
     0
 43
0.0
 10
506.012665
 20
447.156738
 10
506.459564
 20
446.756714
 10
506.855377
 20
446.284332
 10
507.204163
 20
445.754517
 10
507.515961
 20
445.186371
 10
507.800232
 20
444.59552
 10
508.063965
 20
443.989044
 10
508.31192
 20
443.371521
 10
508.547516
 20
442.74649
 10
508.773163
 20
442.115875
 10
508.990784
 20
441.481171
 10
509.202026
 20
440.843353
 10
509.408203
 20
440.203247
 10
509.610596
 20
439.561523
 10
509.809631
 20
438.918427
 10
510.005676
 20
438.274109
 10
510.199127
 20
437.628815
 10
510.390289
 20
436.982635
 10
510.579559
 20
436.335785
 10
510.767242
 20
435.688416
 10
510.953522
 20
435.040588
 10
511.138458
 20
434.392365
 10
511.322235
 20
433.743744
 10
511.504852
 20
433.094818
 10
511.686493
 20
432.445587
 10
511.867188
 20
431.796112
 10
512.047058
 20
431.146393
 10
512.226196
 20
430.49649
 10
512.404663
 20
429.846436
 10
512.58252
 20
429.196228
 10
512.759888
 20
428.545959
 10
512.936768
 20
427.895599
 10
513.113342
 20
427.245209
 10
513.28949
 20
426.594818
 10
513.465393
 20
425.944458
 10
513.640869
 20
425.29422
 10
513.815979
 20
424.644104
 10
513.990662
 20
423.994202
 10
514.164978
 20
423.344543
 10
514.338806
 20
422.695282
 10
514.512085
 20
422.046539
 10
514.684875
 20
421.398499
 10
514.857056
 20
420.751343
 10
515.028564
 20
420.105316
 10
515.199219
 20
419.461212
 10
515.368835
 20
418.820038
 10
515.53717
 20
418.1828
 10
515.703857
 20
417.55072
 10
515.868591
 20
416.926117
 10
516.030151
 20
416.313202
 10
516.186646
 20
415.719543
 10
516.334961
 20
415.157074
 10
516.471313
 20
414.640289
 10
516.592102
 20
414.182373
 10
516.695862
 20
413.789429
 10
516.783508
 20
413.457825
 10
516.857117
 20
413.179443
 10
516.919128
 20
412.945099
 10
516.972351
 20
412.744385
  0
LWPOLYLINE
  5
129
330
10C
100
AcDbEntity
  8
0
  6
Continuous
 62
     0
370
     0
100
AcDbPolyline
 90
        7
 70
     0
 43
0.0
 10
503.997375
 20
448.070496
 10
503.77417
 20
447.821503
 10
503.61673
 20
447.588531
 10
503.509338
 20
447.371613
 10
503.434113
 20
447.168884
 10
503.379608
 20
446.977936
 10
503.338013
 20
446.789032
  0
LWPOLYLINE
  5
12A
330
10C
100
AcDbEntity
  8
0
  6
Continuous
 62
     0
370
     0
100
AcDbPolyline
 90
       12
 70
     0
 43
0.0
 10
497.992432
 20
455.75827
 10
497.990051
 20
454.880829
 10
497.989807
 20
454.0271
 10
497.995117
 20
453.204224
 10
498.009949
 20
452.419037
 10
498.038483
 20
451.677429
 10
498.085327
 20
450.984222
 10
498.155853
 20
450.342773
 10
498.254547
 20
449.753571
 10
498.382812
 20
449.2146
 10
498.544159
 20
448.728912
 10
498.751068
 20
448.286194
  0
LWPOLYLINE
  5
12B
330
10C
100
AcDbEntity
  8
0
  6
Continuous
 62
     0
370
     0
100
AcDbPolyline
 90
        9
 70
     0
 43
0.0
 10
498.751068
 20
448.286194
 10
499.270966
 20
448.481445
 10
499.801941
 20
448.678589
 10
500.347198
 20
448.883636
 10
500.908783
 20
449.095123
 10
501.490112
 20
449.309662
 10
502.096771
 20
449.523193
 10
502.734985
 20
449.725494
 10
503.467407
 20
449.90744
  0
LINE
  5
12C
330
10C
100
AcDbEntity
  8
0
  6
Continuous
 62
     0
370
    30
100
AcDbLine
 10
486.743501
 20
448.483314
 30
0.0
 11
486.743502
 21
467.799478
 31
0.0
  0
LINE
  5
12D
330
10C
100
AcDbEntity
  8
0
  6
Continuous
 62
     0
370
    30
100
AcDbLine
 10
495.289009
 20
490.061687
 30
0.0
 11
486.743504
 21
467.799478
 31
0.0
  0
LINE
  5
12E
330
10C
100
AcDbEntity
  8
0
  6
Continuous
 62
     0
370
    30
100
AcDbLine
 10
483.943502
 20
445.552477
 30
0.0
 11
473.750404
 21
445.552477
 31
0.0
  0
LINE
  5
12F
330
10C
100
AcDbEntity
  8
0
  6
Continuous
 62
     0
370
    30
100
AcDbLine
 10
483.943502
 20
445.552477
 30
0.0
 11
483.943502
 21
489.952477
 31
0.0
  0
LINE
  5
130
330
10C
100
AcDbEntity
  8
0
  6
Continuous
 62
     0
370
    30
100
AcDbLine
 10
504.724349
 20
505.102476
 30
0.0
 11
504.724349
 21
511.68578
 31
0.0
  0
LINE
  5
131
330
10C
100
AcDbEntity
  8
0
  6
Continuous
 62
     0
370
    30
100
AcDbLine
 10
504.724349
 20
511.68578
 30
0.0
 11
504.724349
 21
526.402476
 31
0.0
  0
LINE
  5
132
330
10C
100
AcDbEntity
  8
0
  6
Continuous
 62
     0
370
     0
100
AcDbLine
 10
504.424349
 20
504.80248
 30
0.0
 11
504.424349
 21
511.571226
 31
0.0
  0
LINE
  5
133
330
10C
100
AcDbEntity
  8
0
  6
Continuous
 62
     0
370
     0
100
AcDbLine
 10
504.424349
 20
511.571226
 30
0.0
 11
504.424349
 21
526.702471
 31
0.0
  0
LWPOLYLINE
  5
134
330
10C
100
AcDbEntity
  8
0
  6
Continuous
 62
     0
370
     0
100
AcDbPolyline
 90
       22
 70
     0
 43
0.0
 10
485.024353
 20
524.652466
 10
485.024353
 20
524.61438
 10
485.024353
 20
524.499023
 10
485.024353
 20
524.307373
 10
485.024353
 20
524.041138
 10
485.024353
 20
523.702515
 10
485.024353
 20
523.294617
 10
485.024353
 20
522.820923
 10
485.024353
 20
522.285583
 10
485.024353
 20
521.693237
 10
485.024353
 20
521.049072
 10
485.024353
 20
520.358704
 10
485.024353
 20
519.628174
 10
485.024353
 20
518.863892
 10
485.024353
 20
518.072388
 10
485.024353
 20
517.260681
 10
485.024353
 20
516.435791
 10
485.024353
 20
515.60498
 10
485.024353
 20
514.775574
 10
485.024353
 20
513.954407
 10
485.024353
 20
513.148682
 10
485.024353
 20
512.354004
  0
LINE
  5
135
330
10C
100
AcDbEntity
  8
0
  6
Continuous
 62
     0
370
     0
100
AcDbLine
 10
485.024349
 20
512.354017
 30
0.0
 11
485.024349
 21
506.852479
 31
0.0
  0
LINE
  5
136
330
10C
100
AcDbEntity
  8
0
  6
Continuous
 62
     0
370
     0
100
AcDbLine
 10
497.321742
 20
511.571226
 30
0.0
 11
497.321742
 21
504.802476
 31
0.0
  0
LINE
  5
137
330
10C
100
AcDbEntity
  8
0
  6
Continuous
 62
     0
370
     0
100
AcDbLine
 10
497.321742
 20
526.702476
 30
0.0
 11
497.321742
 21
511.571226
 31
0.0
  0
LINE
  5
138
330
10C
100
AcDbEntity
  8
0
  6
Continuous
 62
     0
370
     0
100
AcDbLine
 10
497.021754
 20
511.684781
 30
0.0
 11
497.021753
 21
505.09992
 31
0.0
  0
LWPOLYLINE
  5
139
330
10C
100
AcDbEntity
  8
0
  6
Continuous
 62
     0
370
     0
100
AcDbPolyline
 90
       24
 70
     0
 43
0.0
 10
497.021759
 20
526.405029
 10
497.021759
 20
526.367126
 10
497.021759
 20
526.252075
 10
497.021759
 20
526.060547
 10
497.021759
 20
525.794128
 10
497.021759
 20
525.454712
 10
497.021759
 20
525.044678
 10
497.021759
 20
524.567139
 10
497.021759
 20
524.025391
 10
497.021759
 20
523.423584
 10
497.021759
 20
522.765991
 10
497.021759
 20
522.057312
 10
497.021759
 20
521.302795
 10
497.021759
 20
520.507996
 10
497.021759
 20
519.678589
 10
497.021759
 20
518.820557
 10
497.021759
 20
517.940186
 10
497.021759
 20
517.044006
 10
497.021759
 20
516.13855
 10
497.021759
 20
515.230408
 10
497.021759
 20
514.325745
 10
497.021759
 20
513.430603
 10
497.021759
 20
512.552673
 10
497.021759
 20
511.684784
  0
LINE
  5
13A
330
10C
100
AcDbEntity
  8
0
  6
Continuous
 62
     0
370
     0
100
AcDbLine
 10
497.015109
 20
505.861202
 30
0.0
 11
497.01511
 21
511.9755
 31
0.0
  0
LINE
  5
13B
330
10C
100
AcDbEntity
  8
0
  6
Continuous
 62
     0
370
     0
100
AcDbLine
 10
497.01511
 20
511.9755
 30
0.0
 11
497.015109
 21
525.643749
 31
0.0
  0
LINE
  5
13C
330
10C
100
AcDbEntity
  8
0
  6
Continuous
 62
     0
370
     0
100
AcDbLine
 10
496.015147
 20
512.354017
 30
0.0
 11
496.015147
 21
524.652476
 31
0.0
  0
LINE
  5
13D
330
10C
100
AcDbEntity
  8
0
  6
Continuous
 62
     0
370
     0
100
AcDbLine
 10
496.015147
 20
506.852476
 30
0.0
 11
496.015147
 21
512.354017
 31
0.0
  0
LINE
  5
13E
330
10C
100
AcDbEntity
  8
0
  6
Continuous
 62
     0
370
    30
100
AcDbLine
 10
484.850404
 20
525.752477
 30
0.0
 11
484.850404
 21
505.752477
 31
0.0
  0
LINE
  5
13F
330
10C
100
AcDbEntity
  8
0
  6
Continuous
 62
     0
370
    30
100
AcDbLine
 10
484.850404
 20
525.752477
 30
0.0
 11
483.850404
 21
526.752477
 31
0.0
  0
LINE
  5
140
330
10C
100
AcDbEntity
  8
0
  6
Continuous
 62
     0
370
    30
100
AcDbLine
 10
483.850404
 20
526.752477
 30
0.0
 11
483.850404
 21
504.752477
 31
0.0
  0
LINE
  5
141
330
10C
100
AcDbEntity
  8
0
  6
Continuous
 62
     0
370
    30
100
AcDbLine
 10
473.750404
 20
552.252276
 30
0.0
 11
473.750404
 21
413.252477
 31
0.0
  0
LINE
  5
142
330
10C
100
AcDbEntity
  8
0
  6
Continuous
 62
     0
370
    30
100
AcDbLine
 10
473.750404
 20
413.252477
 30
0.0
 11
473.250404
 21
412.752477
 31
0.0
  0
LINE
  5
143
330
10C
100
AcDbEntity
  8
0
  6
Continuous
 62
     0
370
    30
100
AcDbLine
 10
473.250404
 20
552.752276
 30
0.0
 11
473.250404
 21
412.752477
 31
0.0
  0
LINE
  5
144
330
10C
100
AcDbEntity
  8
0
  6
Continuous
 62
     0
370
    30
100
AcDbLine
 10
473.250404
 20
412.752477
 30
0.0
 11
463.250415
 21
412.752477
 31
0.0
  0
LINE
  5
145
330
10C
100
AcDbEntity
  8
0
  6
Continuous
 62
     0
370
    30
100
AcDbLine
 10
463.250415
 20
552.752276
 30
0.0
 11
463.250415
 21
412.752477
 31
0.0
  0
LINE
  5
146
330
10C
100
AcDbEntity
  8
0
  6
Continuous
 62
     0
370
    30
100
AcDbLine
 10
473.750404
 20
526.752477
 30
0.0
 11
483.850404
 21
526.752477
 31
0.0
  0
LINE
  5
147
330
10C
100
AcDbEntity
  8
0
  6
Continuous
 62
     0
370
    30
100
AcDbLine
 10
473.750404
 20
504.752477
 30
0.0
 11
483.850404
 21
504.752477
 31
0.0
  0
LINE
  5
148
330
10C
100
AcDbEntity
  8
0
  6
Continuous
 62
     0
370
    30
100
AcDbLine
 10
473.250404
 20
552.752276
 30
0.0
 11
463.250415
 21
552.752276
 31
0.0
  0
LINE
  5
149
330
10C
100
AcDbEntity
  8
0
  6
Continuous
 62
     0
370
    30
100
AcDbLine
 10
473.750404
 20
552.252276
 30
0.0
 11
473.250404
 21
552.752276
 31
0.0
  0
LINE
  5
14A
330
10C
100
AcDbEntity
  8
0
  6
Continuous
 62
     0
370
    30
100
AcDbLine
 10
483.850404
 20
504.752477
 30
0.0
 11
484.850404
 21
505.752477
 31
0.0
  0
ARC
  5
14B
330
10C
100
AcDbEntity
  8
0
  6
Continuous
 62
     0
370
    30
100
AcDbCircle
 10
496.015123
 20
505.852451
 30
0.0
 40
1.000024867145616
100
AcDbArc
 50
0.501412
 51
89.998588
  0
ARC
  5
14C
330
10C
100
AcDbEntity
  8
0
  6
Continuous
 62
     0
370
    30
100
AcDbCircle
 10
496.015123
 20
525.6525
 30
0.0
 40
1.00002486738788
100
AcDbArc
 50
270.001412
 51
359.498588
  0
LINE
  5
14D
330
10C
100
AcDbEntity
  8
0
  6
Continuous
 62
     0
370
    30
100
AcDbLine
 10
496.015147
 20
524.652476
 30
0.0
 11
485.024349
 21
524.652476
 31
0.0
  0
LINE
  5
14E
330
10C
100
AcDbEntity
  8
0
  6
Continuous
 62
     0
370
    30
100
AcDbLine
 10
496.015147
 20
506.852476
 30
0.0
 11
485.024349
 21
506.852476
 31
0.0
  0
LINE
  5
14F
330
10C
100
AcDbEntity
  8
0
  6
Continuous
 62
     0
370
    30
100
AcDbLine
 10
497.021753
 20
505.099917
 30
0.0
 11
497.015109
 21
505.861202
 31
0.0
  0
LINE
  5
150
330
10C
100
AcDbEntity
  8
0
  6
Continuous
 62
     0
370
    30
100
AcDbLine
 10
497.021753
 20
526.405034
 30
0.0
 11
497.015109
 21
525.643749
 31
0.0
  0
ARC
  5
151
330
10C
100
AcDbEntity
  8
0
  6
Continuous
 62
     0
370
    30
100
AcDbCircle
 10
497.321757
 20
505.102491
 30
0.0
 40
0.3000150267595586
100
AcDbArc
 50
180.503404
 51
269.997158
  0
ARC
  5
152
330
10C
100
AcDbEntity
  8
0
  6
Continuous
 62
     0
370
    30
100
AcDbCircle
 10
497.321757
 20
526.40246
 30
0.0
 40
0.3000150274107592
100
AcDbArc
 50
90.002843
 51
179.496303
  0
LINE
  5
153
330
10C
100
AcDbEntity
  8
0
  6
Continuous
 62
     0
370
    30
100
AcDbLine
 10
504.424349
 20
526.702476
 30
0.0
 11
497.321742
 21
526.702476
 31
0.0
  0
LINE
  5
154
330
10C
100
AcDbEntity
  8
0
  6
Continuous
 62
     0
370
    30
100
AcDbLine
 10
504.424349
 20
504.802476
 30
0.0
 11
497.321742
 21
504.802476
 31
0.0
  0
ARC
  5
155
330
10C
100
AcDbEntity
  8
0
  6
Continuous
 62
     0
370
    30
100
AcDbCircle
 10
485.024444
 20
507.152724
 30
0.0
 40
0.3002488628758495
100
AcDbArc
 50
234.563094
 51
269.981743
  0
ARC
  5
156
330
10C
100
AcDbEntity
  8
0
  6
Continuous
 62
     0
370
    30
100
AcDbCircle
 10
485.024444
 20
524.352229
 30
0.0
 40
0.3002463588386415
100
AcDbArc
 50
90.018105
 51
125.4403
  0
ARC
  5
157
330
10C
100
AcDbEntity
  8
0
  6
Continuous
 62
     0
370
    30
100
AcDbCircle
 10
504.424333
 20
505.102491
 30
0.0
 40
0.3000152344316255
100
AcDbArc
 50
270.002905
 51
359.992837
  0
ARC
  5
158
330
10C
100
AcDbEntity
  8
0
  6
Continuous
 62
     0
370
    30
100
AcDbCircle
 10
504.424333
 20
526.40246
 30
0.0
 40
0.300015234874176
100
AcDbArc
 50
0.007335
 51
89.997095
  0
LINE
  5
159
330
10C
100
AcDbEntity
  8
0
  6
Continuous
 62
     0
370
    30
100
AcDbLine
 10
473.750404
 20
489.952477
 30
0.0
 11
483.943502
 21
489.952477
 31
0.0
  0
ARC
  5
15A
330
10C
100
AcDbEntity
  8
0
  6
Continuous
 62
     0
370
    30
100
AcDbCircle
 10
482.558702
 20
467.944997
 30
0.0
 40
20.48937043725648
100
AcDbArc
 50
273.875358
 51
281.785155
  0
ARC
  5
15B
330
10C
100
AcDbEntity
  8
0
  6
Continuous
 62
     0
370
    30
100
AcDbCircle
 10
482.557237
 20
467.54936
 30
0.0
 40
20.50004212653052
100
AcDbArc
 50
58.265694
 51
86.122559
  0
LWPOLYLINE
  5
15C
330
10C
100
AcDbEntity
  8
0
  6
Continuous
 62
     0
370
    30
100
AcDbPolyline
 90
        4
 70
     0
 43
0.0
 10
502.05658
 20
445.347687
 10
500.430725
 20
445.452454
 10
498.802246
 20
445.504578
 10
497.032867
 20
445.52774
  0
LINE
  5
15D
330
10C
100
AcDbEntity
  8
0
  6
Continuous
 62
     0
370
    30
100
AcDbLine
 10
498.002435
 20
490.079488
 30
0.0
 11
495.288026
 21
490.061681
 31
0.0
  0
LWPOLYLINE
  5
15E
330
10C
100
AcDbEntity
  8
0
  6
Continuous
 62
     0
370
    30
100
AcDbPolyline
 90
       31
 70
     0
 43
0.0
 10
514.464783
 20
421.996338
 10
514.483032
 20
421.928436
 10
514.529541
 20
421.755463
 10
514.593567
 20
421.51709
 10
514.665344
 20
421.248993
 10
514.741638
 20
420.963837
 10
514.820007
 20
420.670135
 10
514.899231
 20
420.372955
 10
514.978638
 20
420.07431
 10
515.057861
 20
419.77597
 10
515.136597
 20
419.47876
 10
515.214661
 20
419.183807
 10
515.292297
 20
418.890106
 10
515.369568
 20
418.59729
 10
515.446411
 20
418.306091
 10
515.522949
 20
418.015778
 10
515.599609
 20
417.725006
 10
515.675842
 20
417.43576
 10
515.751221
 20
417.149933
 10
515.825195
 20
416.869232
 10
515.897339
 20
416.595673
 10
515.967041
 20
416.331421
 10
516.033691
 20
416.078888
 10
516.096252
 20
415.841583
 10
516.153076
 20
415.626495
 10
516.204895
 20
415.430237
 10
516.252197
 20
415.25119
 10
516.294128
 20
415.09256
 10
516.329224
 20
414.960175
 10
516.362305
 20
414.835358
 10
516.38855
 20
414.736633
  0
LWPOLYLINE
  5
15F
330
10C
100
AcDbEntity
  8
0
  6
Continuous
 62
     0
370
    30
100
AcDbPolyline
 90
       62
 70
     0
 43
0.0
 10
514.46698
 20
421.987915
 10
514.343933
 20
422.438477
 10
514.220276
 20
422.888885
 10
514.096008
 20
423.339111
 10
513.971191
 20
423.789215
 10
513.845825
 20
424.239136
 10
513.71991
 20
424.688934
 10
513.593445
 20
425.13855
 10
513.466492
 20
425.588043
 10
513.33905
 20
426.037384
 10
513.21106
 20
426.486603
 10
513.082642
 20
426.935699
 10
512.953674
 20
427.384644
 10
512.824219
 20
427.833435
 10
512.694275
 20
428.282074
 10
512.563782
 20
428.73056
 10
512.432739
 20
429.178894
 10
512.301208
 20
429.627106
 10
512.169128
 20
430.075134
 10
512.036499
 20
430.52298
 10
511.903351
 20
430.970703
 10
511.769592
 20
431.418213
 10
511.635193
 20
431.86557
 10
511.500122
 20
432.312714
 10
511.364319
 20
432.759613
 10
511.227753
 20
433.206299
 10
511.090302
 20
433.65271
 10
510.951965
 20
434.098846
 10
510.812653
 20
434.544678
 10
510.672272
 20
434.990204
 10
510.530792
 20
435.435333
 10
510.388092
 20
435.880096
 10
510.244141
 20
436.324432
 10
510.098846
 20
436.768341
 10
509.952087
 20
437.211792
 10
509.80368
 20
437.654694
 10
509.653473
 20
438.096954
 10
509.501221
 20
438.538544
 10
509.346588
 20
438.979309
 10
509.188934
 20
439.419006
 10
509.027679
 20
439.857361
 10
508.862244
 20
440.294159
 10
508.691772
 20
440.729034
 10
508.515167
 20
441.161438
 10
508.331055
 20
441.590729
 10
508.137909
 20
442.016022
 10
507.933075
 20
442.435791
 10
507.713226
 20
442.8479
 10
507.47403
 20
443.249084
 10
507.208252
 20
443.632965
 10
506.906891
 20
443.989746
 10
506.559174
 20
444.300659
 10
506.164398
 20
444.549408
 10
505.73877
 20
444.741272
 10
505.296295
 20
444.890015
 10
504.843628
 20
445.004639
 10
504.384552
 20
445.091644
 10
503.922272
 20
445.158173
 10
503.458435
 20
445.213501
 10
502.993896
 20
445.261261
 10
502.529114
 20
445.309784
 10
502.05658
 20
445.347687
  0
LWPOLYLINE
  5
160
330
10C
100
AcDbEntity
  8
0
  6
Continuous
 62
     0
370
    30
100
AcDbPolyline
 90
       40
 70
     0
 43
0.0
 10
516.541138
 20
414.172791
 10
516.618896
 20
413.881531
 10
516.697205
 20
413.590515
 10
516.776184
 20
413.299774
 10
516.856201
 20
413.009338
 10
516.937378
 20
412.719269
 10
517.019897
 20
412.429443
 10
517.103882
 20
412.139923
 10
517.190247
 20
411.850983
 10
517.280396
 20
411.563232
 10
517.375977
 20
411.277252
 10
517.479309
 20
410.993988
 10
517.59436
 20
410.715271
 10
517.729309
 20
410.445679
 10
517.895752
 20
410.194702
 10
518.09668
 20
409.969849
 10
518.329468
 20
409.779205
 10
518.603088
 20
409.654663
 10
518.899475
 20
409.602478
 10
519.200623
 20
409.60437
 10
519.500122
 20
409.642426
 10
519.793884
 20
409.709839
 10
520.078552
 20
409.808167
 10
520.348816
 20
409.941437
 10
520.59082
 20
410.120514
 10
520.78241
 20
410.352325
 10
520.911438
 20
410.624268
 10
520.986328
 20
410.916107
 10
521.023743
 20
411.21521
 10
521.037109
 20
411.516327
 10
521.033752
 20
411.817871
 10
521.019104
 20
412.119171
 10
520.996643
 20
412.419861
 10
520.967529
 20
412.719971
 10
520.933167
 20
413.019562
 10
520.894226
 20
413.318573
 10
520.851074
 20
413.617035
 10
520.803955
 20
413.914886
 10
520.753113
 20
414.212128
 10
520.698242
 20
414.511658
  0
LWPOLYLINE
  5
161
330
10C
100
AcDbEntity
  8
0
  6
Continuous
 62
     0
370
    30
100
AcDbPolyline
 90
       44
 70
     0
 43
0.0
 10
520.698242
 20
414.511658
 10
520.340881
 20
416.123138
 10
519.928772
 20
417.721741
 10
519.50769
 20
419.317993
 10
519.086975
 20
420.914337
 10
518.666077
 20
422.510651
 10
518.245239
 20
424.106934
 10
517.824402
 20
425.703278
 10
517.403442
 20
427.299561
 10
516.982605
 20
428.895844
 10
516.562195
 20
430.492279
 10
516.1427
 20
432.088959
 10
515.724609
 20
433.685974
 10
515.308594
 20
435.283569
 10
514.895447
 20
436.881897
 10
514.486206
 20
438.481232
 10
514.081909
 20
440.081787
 10
513.683594
 20
441.683868
 10
513.293518
 20
443.287964
 10
512.916016
 20
444.895081
 10
512.560059
 20
446.50708
 10
512.242126
 20
448.127014
 10
511.985565
 20
449.75766
 10
511.810577
 20
451.399048
 10
511.709747
 20
453.046722
 10
511.656067
 20
454.696686
 10
511.623535
 20
456.347198
 10
511.602081
 20
457.997925
 10
511.586395
 20
459.648712
 10
511.574982
 20
461.29953
 10
511.566559
 20
462.950348
 10
511.560181
 20
464.601196
 10
511.554688
 20
466.252045
 10
511.548798
 20
467.902893
 10
511.541138
 20
469.553741
 10
511.529846
 20
471.204559
 10
511.513153
 20
472.855316
 10
511.490204
 20
474.506012
 10
511.462006
 20
476.156616
 10
511.433319
 20
477.80722
 10
511.405273
 20
479.457855
 10
511.37384
 20
481.108398
 10
511.333618
 20
482.758789
 10
511.275574
 20
484.416016
  0
LWPOLYLINE
  5
162
330
10C
100
AcDbEntity
  8
0
  6
Continuous
 62
     0
370
    30
100
AcDbPolyline
 90
       65
 70
     0
 43
0.0
 10
498.002441
 20
490.079498
 10
498.282257
 20
490.081238
 10
498.562073
 20
490.082947
 10
498.841919
 20
490.084656
 10
499.121735
 20
490.086334
 10
499.40155
 20
490.087982
 10
499.681366
 20
490.08963
 10
499.961212
 20
490.091248
 10
500.241028
 20
490.092834
 10
500.520844
 20
490.094391
 10
500.80069
 20
490.095917
 10
501.080505
 20
490.097412
 10
501.360321
 20
490.098877
 10
501.640167
 20
490.100311
 10
501.919983
 20
490.101715
 10
502.199799
 20
490.103088
 10
502.479614
 20
490.104462
 10
502.75946
 20
490.105774
 10
503.039276
 20
490.107117
 10
503.319092
 20
490.108429
 10
503.598938
 20
490.109772
 10
503.878754
 20
490.111115
 10
504.1586
 20
490.112488
 10
504.438416
 20
490.113861
 10
504.718231
 20
490.115295
 10
504.998047
 20
490.11676
 10
505.277893
 20
490.118225
 10
505.557709
 20
490.11969
 10
505.837524
 20
490.121155
 10
506.117371
 20
490.122589
 10
506.397186
 20
490.124054
 10
506.677032
 20
490.125519
 10
506.956848
 20
490.127075
 10
507.236664
 20
490.128723
 10
507.516479
 20
490.130463
 10
507.796295
 20
490.13205
 10
508.076141
 20
490.133179
 10
508.355988
 20
490.133362
 10
508.635803
 20
490.131012
 10
508.915527
 20
490.124237
 10
509.195007
 20
490.110535
 10
509.473572
 20
490.084076
 10
509.749115
 20
490.035736
 10
510.016632
 20
489.953827
 10
510.261322
 20
489.819916
 10
510.461609
 20
489.625702
 10
510.609772
 20
489.388885
 10
510.718323
 20
489.131104
 10
510.801392
 20
488.863922
 10
510.867462
 20
488.592041
 10
510.922638
 20
488.317688
 10
510.970215
 20
488.041962
 10
511.011749
 20
487.765228
 10
511.048218
 20
487.487762
 10
511.080597
 20
487.209808
 10
511.109528
 20
486.931488
 10
511.13559
 20
486.652863
 10
511.15921
 20
486.374054
 10
511.180756
 20
486.095062
 10
511.200378
 20
485.815918
 10
511.218262
 20
485.536652
 10
511.234528
 20
485.257294
 10
511.24939
 20
484.977844
 10
511.26297
 20
484.698334
 10
511.275574
 20
484.416016
  0
LWPOLYLINE
  5
163
330
10C
100
AcDbEntity
  8
0
  6
Continuous
 62
     0
370
    30
100
AcDbPolyline
 90
        4
 70
     0
 43
0.0
 10
497.032867
 20
445.52774
 10
494.016754
 20
445.538757
 10
491.00061
 20
445.5289
 10
486.7435
 20
445.502472
  0
ENDBLK
  5
165
330
10C
100
AcDbEntity
  8
0
100
AcDbBlockEnd
  0
BLOCK
  5
1BF
330
167
100
AcDbEntity
  8
0
100
AcDbBlockBegin
  2
d
 70
     0
 10
180.066772
 20
0.0
 30
0.0
  3
d
  1

  0
LWPOLYLINE
  5
168
330
167
100
AcDbEntity
  8
0
  6
Continuous
 62
     0
370
     0
100
AcDbPolyline
 90
        7
 70
     0
 43
0.0
 10
124.551758
 20
448.483521
 10
122.604874
 20
448.455261
 10
120.658676
 20
448.426422
 10
118.714516
 20
448.396332
 10
116.774178
 20
448.364288
 10
114.840439
 20
448.329132
 10
112.544189
 20
448.286407
  0
LWPOLYLINE
  5
169
330
167
100
AcDbEntity
  8
0
  6
Continuous
 62
     0
370
     0
100
AcDbPolyline
 90
       13
 70
     0
 43
0.0
 10
112.544189
 20
448.286407
 10
112.738792
 20
447.916534
 10
112.886292
 20
447.573761
 10
112.998726
 20
447.262085
 10
113.089844
 20
446.974365
 10
113.1605
 20
446.710785
 10
113.213913
 20
446.471649
 10
113.253395
 20
446.257294
 10
113.281876
 20
446.068024
 10
113.301407
 20
445.904694
 10
113.313736
 20
445.768341
 10
113.320518
 20
445.660095
 10
113.323494
 20
445.575256
  0
LWPOLYLINE
  5
16A
330
167
100
AcDbEntity
  8
0
  6
Continuous
 62
     0
370
     0
100
AcDbPolyline
 90
        7
 70
     0
 43
0.0
 10
113.323494
 20
445.575256
 10
113.58519
 20
445.565674
 10
113.81089
 20
445.555176
 10
113.99485
 20
445.545074
 10
114.133072
 20
445.53653
 10
114.222466
 20
445.530548
 10
114.262367
 20
445.527771
  0
LINE
  5
16B
330
167
100
AcDbEntity
  8
0
  6
Continuous
 62
     0
370
    30
100
AcDbLine
 10
124.551757
 20
445.502906
 30
0.0
 11
124.551756
 21
448.483509
 31
0.0
  0
LINE
  5
16C
330
167
100
AcDbEntity
  8
0
  6
Continuous
 62
     0
370
     0
100
AcDbLine
 10
113.292822
 20
487.244498
 30
0.0
 11
113.292822
 21
490.079338
 31
0.0
  0
LWPOLYLINE
  5
16D
330
167
100
AcDbEntity
  8
0
  6
Continuous
 62
     0
370
     0
100
AcDbPolyline
 90
        8
 70
     0
 43
0.0
 10
100.019669
 20
484.416016
 10
100.034676
 20
484.380005
 10
100.075691
 20
484.279236
 10
100.137299
 20
484.123016
 10
100.214401
 20
483.918213
 10
100.302513
 20
483.670776
 10
100.397781
 20
483.386719
 10
100.494835
 20
483.064362
  0
LWPOLYLINE
  5
16E
330
167
100
AcDbEntity
  8
0
  6
Continuous
 62
     0
370
     0
100
AcDbPolyline
 90
       29
 70
     0
 43
0.0
 10
100.494835
 20
483.064362
 10
100.51741
 20
483.265808
 10
100.538315
 20
483.472565
 10
100.558189
 20
483.682434
 10
100.577148
 20
483.895203
 10
100.595261
 20
484.110901
 10
100.612587
 20
484.329529
 10
100.629341
 20
484.550964
 10
100.645767
 20
484.774933
 10
100.662163
 20
485.001282
 10
100.679123
 20
485.229523
 10
100.697418
 20
485.459106
 10
100.717987
 20
485.689423
 10
100.742599
 20
485.91983
 10
100.773392
 20
486.149536
 10
100.8144
 20
486.377625
 10
100.871712
 20
486.602631
 10
100.957031
 20
486.820282
 10
101.086891
 20
487.019562
 10
101.275093
 20
487.178986
 10
101.508316
 20
487.284088
 10
101.76236
 20
487.345032
 10
102.023346
 20
487.378052
 10
102.286522
 20
487.394928
 10
102.550438
 20
487.4021
 10
102.814522
 20
487.403595
 10
103.078659
 20
487.401794
 10
103.342789
 20
487.398285
 10
103.61512
 20
487.393951
  0
LWPOLYLINE
  5
16F
330
167
100
AcDbEntity
  8
0
  6
Continuous
 62
     0
370
     0
100
AcDbPolyline
 90
        3
 70
     0
 43
0.0
 10
103.61512
 20
487.393951
 10
105.112732
 20
487.37027
 10
113.292824
 20
487.244507
  0
LWPOLYLINE
  5
170
330
167
100
AcDbEntity
  8
0
  6
Continuous
 62
     0
370
     0
100
AcDbPolyline
 90
       27
 70
     0
 43
0.0
 10
113.302834
 20
455.758636
 10
113.299721
 20
457.065979
 10
113.297432
 20
458.398499
 10
113.295769
 20
459.747009
 10
113.294601
 20
461.104675
 10
113.2938
 20
462.466156
 10
113.293289
 20
463.830597
 10
113.292999
 20
465.197662
 10
113.292862
 20
466.565948
 10
113.292816
 20
467.933716
 10
113.292824
 20
469.299347
 10
113.292824
 20
470.661011
 10
113.292824
 20
472.015594
 10
113.292824
 20
473.358978
 10
113.292824
 20
474.685608
 10
113.292824
 20
475.988983
 10
113.292824
 20
477.261749
 10
113.292824
 20
478.496735
 10
113.292824
 20
479.687683
 10
113.292824
 20
480.830414
 10
113.292824
 20
481.921936
 10
113.292824
 20
482.959137
 10
113.292824
 20
483.939362
 10
113.292824
 20
484.860779
 10
113.292824
 20
485.71933
 10
113.292824
 20
486.508942
 10
113.292824
 20
487.244507
  0
LWPOLYLINE
  5
171
330
167
100
AcDbEntity
  8
0
  6
Continuous
 62
     0
370
     0
100
AcDbPolyline
 90
       28
 70
     0
 43
0.0
 10
103.61512
 20
487.393951
 10
103.614952
 20
486.678375
 10
103.614723
 20
485.885468
 10
103.614365
 20
485.021881
 10
103.613815
 20
484.094452
 10
103.613014
 20
483.107269
 10
103.611885
 20
482.06192
 10
103.610329
 20
480.960632
 10
103.608246
 20
479.805359
 10
103.605621
 20
478.597198
 10
103.602646
 20
477.340332
 10
103.599678
 20
476.04245
 10
103.597
 20
474.714142
 10
103.594841
 20
473.365021
 10
103.593307
 20
472.002808
 10
103.592484
 20
470.632507
 10
103.592407
 20
469.257538
 10
103.59285
 20
467.879761
 10
103.593521
 20
466.500275
 10
103.59417
 20
465.119751
 10
103.594582
 20
463.738556
 10
103.59449
 20
462.356995
 10
103.593521
 20
460.97525
 10
103.591385
 20
459.593475
 10
103.588142
 20
458.211853
 10
103.583984
 20
456.830566
 10
103.578522
 20
455.449951
 10
103.568565
 20
454.055573
  0
LWPOLYLINE
  5
172
330
167
100
AcDbEntity
  8
0
  6
Continuous
 62
     0
370
     0
100
AcDbPolyline
 90
       12
 70
     0
 43
0.0
 10
103.568565
 20
454.055573
 10
103.843369
 20
454.377197
 10
104.155006
 20
454.66275
 10
104.499481
 20
454.907532
 10
104.867203
 20
455.115509
 10
105.25576
 20
455.282104
 10
105.659073
 20
455.4086
 10
106.071739
 20
455.499725
 10
106.489723
 20
455.561371
 10
106.910385
 20
455.599182
 10
107.332062
 20
455.619537
 10
107.757179
 20
455.629089
  0
LWPOLYLINE
  5
173
330
167
100
AcDbEntity
  8
0
  6
Continuous
 62
     0
370
     0
100
AcDbPolyline
 90
        4
 70
     0
 43
0.0
 10
107.757179
 20
455.629089
 10
109.515625
 20
455.639191
 10
111.273819
 20
455.670105
 10
113.302834
 20
455.758636
  0
LWPOLYLINE
  5
174
330
167
100
AcDbEntity
  8
0
  6
Continuous
 62
     0
370
     0
100
AcDbPolyline
 90
       16
 70
     0
 43
0.0
 10
100.494835
 20
483.064362
 10
100.532921
 20
481.472046
 10
100.541672
 20
479.815033
 10
100.52462
 20
478.106354
 10
100.488907
 20
476.349792
 10
100.444183
 20
474.524536
 10
100.403633
 20
472.632904
 10
100.373169
 20
470.705505
 10
100.352829
 20
468.763062
 10
100.33905
 20
466.81485
 10
100.327484
 20
464.864746
 10
100.315186
 20
462.913818
 10
100.299683
 20
460.962555
 10
100.278397
 20
459.01123
 10
100.247711
 20
457.060028
 10
100.200829
 20
455.080383
  0
LWPOLYLINE
  5
175
330
167
100
AcDbEntity
  8
0
  6
Continuous
 62
     0
370
     0
100
AcDbPolyline
 90
       37
 70
     0
 43
0.0
 10
100.200829
 20
455.080383
 10
100.219925
 20
455.080139
 10
100.239059
 20
455.079865
 10
100.258224
 20
455.07962
 10
100.277451
 20
455.079346
 10
100.296745
 20
455.079102
 10
100.316116
 20
455.078888
 10
100.335594
 20
455.078644
 10
100.355186
 20
455.07843
 10
100.374924
 20
455.078217
 10
100.394806
 20
455.078003
 10
100.414864
 20
455.077789
 10
100.435112
 20
455.077606
 10
100.455597
 20
455.077423
 10
100.476509
 20
455.07724
 10
100.498077
 20
455.077057
 10
100.520515
 20
455.076874
 10
100.544044
 20
455.07666
 10
100.568893
 20
455.076447
 10
100.595291
 20
455.076202
 10
100.623512
 20
455.075928
 10
100.654503
 20
455.075562
 10
100.689636
 20
455.075073
 10
100.73172
 20
455.074188
 10
100.786537
 20
455.072327
 10
100.865639
 20
455.068207
 10
100.99073
 20
455.059326
 10
101.189224
 20
455.041473
 10
101.448463
 20
455.014099
 10
101.732162
 20
454.967316
 10
102.019028
 20
454.89502
 10
102.30011
 20
454.797302
 10
102.571655
 20
454.677429
 10
102.833931
 20
454.541107
 10
103.087517
 20
454.393097
 10
103.331612
 20
454.233521
 10
103.568565
 20
454.055573
  0
LWPOLYLINE
  5
176
330
167
100
AcDbEntity
  8
0
  6
Continuous
 62
     0
370
     0
100
AcDbPolyline
 90
        6
 70
     0
 43
0.0
 10
90.597893
 20
414.511627
 10
90.610275
 20
414.513458
 10
90.646858
 20
414.519287
 10
90.705124
 20
414.531189
 10
90.782677
 20
414.551544
 10
90.914215
 20
414.599854
  0
LWPOLYLINE
  5
177
330
167
100
AcDbEntity
  8
0
  6
Continuous
 62
     0
370
     0
100
AcDbPolyline
 90
       63
 70
     0
 43
0.0
 10
90.914215
 20
414.599854
 10
91.0233
 20
414.988342
 10
91.152557
 20
415.459076
 10
91.299683
 20
416.004883
 10
91.459709
 20
416.606201
 10
91.626358
 20
417.236298
 10
91.796204
 20
417.880157
 10
91.967743
 20
418.530823
 10
92.140221
 20
419.185059
 10
92.31324
 20
419.841339
 10
92.486626
 20
420.499054
 10
92.660271
 20
421.157715
 10
92.834053
 20
421.816895
 10
93.007896
 20
422.476318
 10
93.181793
 20
423.135925
 10
93.355728
 20
423.795715
 10
93.529701
 20
424.455597
 10
93.703705
 20
425.115601
 10
93.877724
 20
425.775665
 10
94.051758
 20
426.43576
 10
94.2258
 20
427.095947
 10
94.399849
 20
427.756134
 10
94.573891
 20
428.416351
 10
94.747925
 20
429.076599
 10
94.921913
 20
429.736847
 10
95.095833
 20
430.397125
 10
95.26963
 20
431.057465
 10
95.443283
 20
431.717834
 10
95.616745
 20
432.378265
 10
95.789978
 20
433.038757
 10
95.962952
 20
433.699341
 10
96.135628
 20
434.360016
 10
96.307976
 20
435.020752
 10
96.47995
 20
435.681641
 10
96.65152
 20
436.34259
 10
96.822655
 20
437.003693
 10
96.993317
 20
437.664917
 10
97.163467
 20
438.326294
 10
97.333061
 20
438.987793
 10
97.501976
 20
439.649475
 10
97.670105
 20
440.311371
 10
97.837326
 20
440.97348
 10
98.003525
 20
441.635864
 10
98.168587
 20
442.298553
 10
98.332397
 20
442.961548
 10
98.494766
 20
443.624908
 10
98.655327
 20
444.288696
 10
98.81366
 20
444.953033
 10
98.969215
 20
445.617981
 10
99.120979
 20
446.283844
 10
99.267822
 20
446.950928
 10
99.408279
 20
447.619446
 10
99.540451
 20
448.289612
 10
99.66243
 20
448.961639
 10
99.772301
 20
449.635712
 10
99.868507
 20
450.31192
 10
99.95034
 20
450.98999
 10
100.017914
 20
451.669617
 10
100.072601
 20
452.350433
 10
100.116142
 20
453.032104
 10
100.15065
 20
453.714294
 10
100.178268
 20
454.39679
 10
100.200829
 20
455.080383
  0
LWPOLYLINE
  5
178
330
167
100
AcDbEntity
  8
0
  6
Continuous
 62
     0
370
     0
100
AcDbPolyline
 90
       59
 70
     0
 43
0.0
 10
92.79071
 20
411.125336
 10
92.857666
 20
411.378174
 10
92.936928
 20
411.677795
 10
93.031494
 20
412.035583
 10
93.14431
 20
412.462769
 10
93.27758
 20
412.967743
 10
93.431114
 20
413.549774
 10
93.601746
 20
414.196777
 10
93.784706
 20
414.890686
 10
93.975632
 20
415.614868
 10
94.171417
 20
416.357544
 10
94.370186
 20
417.111481
 10
94.571007
 20
417.87323
 10
94.773361
 20
418.640808
 10
94.976891
 20
419.412811
 10
95.181244
 20
420.187958
 10
95.386124
 20
420.965118
 10
95.591423
 20
421.743866
 10
95.797073
 20
422.523926
 10
96.003006
 20
423.305054
 10
96.209145
 20
424.086975
 10
96.415451
 20
424.869507
 10
96.621895
 20
425.652588
 10
96.828461
 20
426.436096
 10
97.03511
 20
427.219971
 10
97.241821
 20
428.004089
 10
97.448563
 20
428.788452
 10
97.655281
 20
429.572968
 10
97.861931
 20
430.357697
 10
98.068466
 20
431.142578
 10
98.274834
 20
431.927643
 10
98.480995
 20
432.71286
 10
98.68689
 20
433.49826
 10
98.892487
 20
434.283783
 10
99.097725
 20
435.069489
 10
99.302574
 20
435.855347
 10
99.506981
 20
436.641388
 10
99.710892
 20
437.427612
 10
99.914261
 20
438.21402
 10
100.116959
 20
439.00061
 10
100.318848
 20
439.787476
 10
100.519791
 20
440.574615
 10
100.719666
 20
441.36203
 10
100.91832
 20
442.149811
 10
101.115547
 20
442.937958
 10
101.310905
 20
443.726562
 10
101.503944
 20
444.515808
 10
101.694206
 20
445.305695
 10
101.881218
 20
446.096405
 10
102.064484
 20
446.888
 10
102.243469
 20
447.680542
 10
102.417625
 20
448.474182
 10
102.586586
 20
449.26889
 10
102.751259
 20
450.064545
 10
102.913101
 20
450.860748
 10
103.073616
 20
451.657257
 10
103.234612
 20
452.453674
 10
103.398079
 20
453.249573
 10
103.568565
 20
454.055573
  0
LWPOLYLINE
  5
179
330
167
100
AcDbEntity
  8
0
  6
Continuous
 62
     0
370
     0
100
AcDbPolyline
 90
       24
 70
     0
 43
0.0
 10
90.914215
 20
414.599854
 10
90.902718
 20
414.473114
 10
90.889923
 20
414.335083
 10
90.876396
 20
414.188873
 10
90.862427
 20
414.035583
 10
90.848137
 20
413.874359
 10
90.833664
 20
413.704346
 10
90.819374
 20
413.525146
 10
90.805748
 20
413.336578
 10
90.79351
 20
413.138885
 10
90.784065
 20
412.933777
 10
90.779137
 20
412.723328
 10
90.781693
 20
412.510315
 10
90.796295
 20
412.296906
 10
90.832672
 20
412.081085
 10
90.904915
 20
411.867249
 10
91.030853
 20
411.669525
 10
91.219597
 20
411.502502
 10
91.451424
 20
411.374939
 10
91.704018
 20
411.278564
 10
91.966766
 20
411.20636
 10
92.235985
 20
411.155457
 10
92.508926
 20
411.126617
 10
92.79071
 20
411.125336
  0
LWPOLYLINE
  5
17A
330
167
100
AcDbEntity
  8
0
  6
Continuous
 62
     0
370
    30
100
AcDbPolyline
 90
        7
 70
     0
 43
0.0
 10
94.981995
 20
415.021851
 10
94.906212
 20
414.734985
 10
94.817436
 20
414.404449
 10
94.717049
 20
414.039429
 10
94.602753
 20
413.637787
 10
94.47403
 20
413.207642
 10
94.322906
 20
412.744629
  0
LWPOLYLINE
  5
17B
330
167
100
AcDbEntity
  8
0
  6
Continuous
 62
     0
370
     0
100
AcDbPolyline
 90
       10
 70
     0
 43
0.0
 10
94.322906
 20
412.744629
 10
94.232628
 20
412.498993
 10
94.133118
 20
412.260101
 10
94.020638
 20
412.031067
 10
93.888969
 20
411.817352
 10
93.734795
 20
411.621216
 10
93.557121
 20
411.440613
 10
93.346146
 20
411.283356
 10
93.09034
 20
411.174622
 10
92.79071
 20
411.125336
  0
LWPOLYLINE
  5
17C
330
167
100
AcDbEntity
  8
0
  6
Continuous
 62
     0
370
     0
100
AcDbPolyline
 90
       59
 70
     0
 43
0.0
 10
94.322906
 20
412.744629
 10
94.375641
 20
412.943573
 10
94.437592
 20
413.177612
 10
94.511108
 20
413.455597
 10
94.598602
 20
413.786743
 10
94.702209
 20
414.179169
 10
94.822906
 20
414.636566
 10
94.959099
 20
415.152924
 10
95.107338
 20
415.715088
 10
95.263802
 20
416.308533
 10
95.425362
 20
416.921326
 10
95.590019
 20
417.545898
 10
95.756744
 20
418.177917
 10
95.925034
 20
418.815125
 10
96.094627
 20
419.456268
 10
96.265282
 20
420.100342
 10
96.43679
 20
420.746368
 10
96.608963
 20
421.393494
 10
96.781731
 20
422.041534
 10
96.955048
 20
422.690277
 10
97.128876
 20
423.339569
 10
97.303154
 20
423.989227
 10
97.477859
 20
424.63913
 10
97.652962
 20
425.289215
 10
97.828445
 20
425.939453
 10
98.004303
 20
426.589813
 10
98.180496
 20
427.240204
 10
98.357025
 20
427.890594
 10
98.53392
 20
428.540955
 10
98.711266
 20
429.191254
 10
98.88913
 20
429.841431
 10
99.067596
 20
430.491516
 10
99.246727
 20
431.141418
 10
99.426598
 20
431.791107
 10
99.607292
 20
432.440613
 10
99.78891
 20
433.089844
 10
99.971535
 20
433.73877
 10
100.155281
 20
434.38736
 10
100.340233
 20
435.035614
 10
100.526489
 20
435.683441
 10
100.714157
 20
436.330811
 10
100.903404
 20
436.977661
 10
101.094559
 20
437.62384
 10
101.287979
 20
438.269165
 10
101.484016
 20
438.913483
 10
101.683029
 20
439.55658
 10
101.885368
 20
440.198334
 10
102.091537
 20
440.83847
 10
102.302711
 20
441.476288
 10
102.520287
 20
442.111023
 10
102.745857
 20
442.741669
 10
102.981377
 20
443.36676
 10
103.229195
 20
443.984375
 10
103.492783
 20
444.590942
 10
103.776871
 20
445.181915
 10
104.088402
 20
445.750305
 10
104.436836
 20
446.280518
 10
104.832253
 20
446.753448
 10
105.2826
 20
447.157043
  0
LWPOLYLINE
  5
17D
330
167
100
AcDbEntity
  8
0
  6
Continuous
 62
     0
370
     0
100
AcDbPolyline
 90
       13
 70
     0
 43
0.0
 10
105.2826
 20
447.157043
 10
105.270355
 20
447.528107
 10
105.241646
 20
447.96347
 10
105.183479
 20
448.444305
 10
105.084755
 20
448.953125
 10
104.936913
 20
449.47464
 10
104.745064
 20
450.01828
 10
104.530991
 20
450.607117
 10
104.313782
 20
451.241241
 10
104.105484
 20
451.911499
 10
103.911301
 20
452.606018
 10
103.735123
 20
453.319183
 10
103.568565
 20
454.055573
  0
LWPOLYLINE
  5
17E
330
167
100
AcDbEntity
  8
0
  6
Continuous
 62
     0
370
     0
100
AcDbPolyline
 90
       69
 70
     0
 43
0.0
 10
94.981995
 20
415.021851
 10
95.056389
 20
415.303223
 10
95.143028
 20
415.631256
 10
95.243111
 20
416.010376
 10
95.356918
 20
416.441772
 10
95.481285
 20
416.913361
 10
95.611473
 20
417.407135
 10
95.744743
 20
417.912689
 10
95.879631
 20
418.424316
 10
96.015556
 20
418.939331
 10
96.152245
 20
419.456238
 10
96.289642
 20
419.974396
 10
96.427704
 20
420.493225
 10
96.566368
 20
421.012543
 10
96.705605
 20
421.532104
 10
96.845383
 20
422.051788
 10
96.985672
 20
422.571564
 10
97.126472
 20
423.091339
 10
97.267754
 20
423.611053
 10
97.4095
 20
424.130768
 10
97.551697
 20
424.65036
 10
97.694344
 20
425.169922
 10
97.83741
 20
425.689362
 10
97.980888
 20
426.20871
 10
98.124763
 20
426.727966
 10
98.26902
 20
427.247101
 10
98.413666
 20
427.766144
 10
98.558716
 20
428.285095
 10
98.704201
 20
428.803925
 10
98.850128
 20
429.322632
 10
98.996536
 20
429.841187
 10
99.143456
 20
430.359619
 10
99.290947
 20
430.877899
 10
99.439049
 20
431.395966
 10
99.587814
 20
431.913879
 10
99.737297
 20
432.431549
 10
99.88755
 20
432.948975
 10
100.03862
 20
433.466156
 10
100.190552
 20
433.983063
 10
100.343407
 20
434.499664
 10
100.497231
 20
435.015961
 10
100.652107
 20
435.531921
 10
100.808174
 20
436.047485
 10
100.965538
 20
436.562622
 10
101.124344
 20
437.07724
 10
101.284706
 20
437.591339
 10
101.446838
 20
438.104797
 10
101.611015
 20
438.617493
 10
101.777519
 20
439.129364
 10
101.946625
 20
439.640228
 10
102.118713
 20
440.149933
 10
102.294609
 20
440.658081
 10
102.475235
 20
441.164185
 10
102.661522
 20
441.667786
 10
102.854637
 20
442.168152
 10
103.056343
 20
442.664154
 10
103.268501
 20
443.15451
 10
103.49366
 20
443.637268
 10
103.736053
 20
444.108734
 10
104.000694
 20
444.564148
 10
104.295517
 20
444.99411
 10
104.629585
 20
445.38501
 10
105.010735
 20
445.718536
 10
105.435883
 20
445.991577
 10
105.897125
 20
446.215057
 10
106.389938
 20
446.395844
 10
106.905624
 20
446.54306
 10
107.431366
 20
446.669464
 10
107.957253
 20
446.789215
  0
LWPOLYLINE
  5
17F
330
167
100
AcDbEntity
  8
0
  6
Continuous
 62
     0
370
     0
100
AcDbPolyline
 90
        7
 70
     0
 43
0.0
 10
107.957253
 20
446.789215
 10
107.917343
 20
446.971313
 10
107.863091
 20
447.163055
 10
107.788109
 20
447.366638
 10
107.680939
 20
447.584564
 10
107.523529
 20
447.818695
 10
107.297897
 20
448.07077
  0
ARC
  5
180
330
167
100
AcDbEntity
  8
0
  6
Continuous
 62
     0
370
     0
100
AcDbCircle
 10
108.231101
 20
443.333264
 30
0.0
 40
4.828550534924734
100
AcDbArc
 50
101.14358
 51
127.635724
  0
LWPOLYLINE
  5
181
330
167
100
AcDbEntity
  8
0
  6
Continuous
 62
     0
370
     0
100
AcDbPolyline
 90
        6
 70
     0
 43
0.0
 10
112.544189
 20
448.286407
 10
111.674019
 20
447.92926
 10
110.794449
 20
447.605103
 10
109.902092
 20
447.311249
 10
108.982048
 20
447.044312
 10
107.957253
 20
446.789215
  0
LWPOLYLINE
  5
182
330
167
100
AcDbEntity
  8
0
  6
Continuous
 62
     0
370
     0
100
AcDbPolyline
 90
       14
 70
     0
 43
0.0
 10
109.238678
 20
445.347687
 10
109.275887
 20
445.353424
 10
109.385963
 20
445.369934
 10
109.566216
 20
445.395325
 10
109.811279
 20
445.426819
 10
110.114189
 20
445.461365
 10
110.465881
 20
445.495728
 10
110.855972
 20
445.5271
 10
111.272644
 20
445.553101
 10
111.7033
 20
445.572144
 10
112.134804
 20
445.583466
 10
112.555008
 20
445.587158
 10
112.952072
 20
445.584015
 10
113.323494
 20
445.575256
  0
LWPOLYLINE
  5
183
330
167
100
AcDbEntity
  8
0
  6
Continuous
 62
     0
370
     0
100
AcDbPolyline
 90
        6
 70
     0
 43
0.0
 10
107.297897
 20
448.07077
 10
107.48513
 20
448.398499
 10
107.623291
 20
448.738647
 10
107.71991
 20
449.09024
 10
107.783485
 20
449.454376
 10
107.827858
 20
449.907776
  0
LWPOLYLINE
  5
184
330
167
100
AcDbEntity
  8
0
  6
Continuous
 62
     0
370
     0
100
AcDbPolyline
 90
        9
 70
     0
 43
0.0
 10
107.827858
 20
449.907776
 10
107.847923
 20
450.460968
 10
107.846954
 20
451.065552
 10
107.835045
 20
451.725281
 10
107.818611
 20
452.430908
 10
107.801331
 20
453.17038
 10
107.785118
 20
453.93335
 10
107.770836
 20
454.712585
 10
107.757179
 20
455.629089
  0
LWPOLYLINE
  5
185
330
167
100
AcDbEntity
  8
0
  6
Continuous
 62
     0
370
     0
100
AcDbPolyline
 90
       12
 70
     0
 43
0.0
 10
112.544189
 20
448.286407
 10
112.747871
 20
448.721588
 10
112.909935
 20
449.206146
 10
113.038757
 20
449.744141
 10
113.137932
 20
450.332245
 10
113.208878
 20
450.972595
 10
113.256104
 20
451.664642
 10
113.284904
 20
452.405182
 10
113.299965
 20
453.189362
 10
113.305397
 20
454.011292
 10
113.305237
 20
454.864227
 10
113.302834
 20
455.758636
  0
LWPOLYLINE
  5
186
330
167
100
AcDbEntity
  8
0
  6
Continuous
 62
     0
370
     0
100
AcDbPolyline
 90
        9
 70
     0
 43
0.0
 10
107.827858
 20
449.907776
 10
108.506607
 20
449.741272
 10
109.147705
 20
449.540619
 10
109.756691
 20
449.327515
 10
110.339882
 20
449.112823
 10
110.902885
 20
448.90097
 10
111.449356
 20
448.69519
 10
111.981377
 20
448.497559
 10
112.544189
 20
448.286407
  0
LINE
  5
187
330
167
100
AcDbEntity
  8
0
  6
Continuous
 62
     0
370
    30
100
AcDbLine
 10
124.551756
 20
467.799868
 30
0.0
 11
124.551756
 21
448.483509
 31
0.0
  0
LINE
  5
188
330
167
100
AcDbEntity
  8
0
  6
Continuous
 62
     0
370
    30
100
AcDbLine
 10
124.551754
 20
467.799868
 30
0.0
 11
116.006248
 21
490.061687
 31
0.0
  0
LINE
  5
189
330
167
100
AcDbEntity
  8
0
  6
Continuous
 62
     0
370
    30
100
AcDbLine
 10
127.351756
 20
489.952477
 30
0.0
 11
127.351756
 21
445.552477
 31
0.0
  0
LINE
  5
18A
330
167
100
AcDbEntity
  8
0
  6
Continuous
 62
     0
370
    30
100
AcDbLine
 10
127.351756
 20
445.552477
 30
0.0
 11
137.544853
 21
445.552477
 31
0.0
  0
LINE
  5
18B
330
167
100
AcDbEntity
  8
0
  6
Continuous
 62
     0
370
    30
100
AcDbLine
 10
106.570909
 20
519.819171
 30
0.0
 11
106.570909
 21
505.102476
 31
0.0
  0
LWPOLYLINE
  5
18C
330
167
100
AcDbEntity
  8
0
  6
Continuous
 62
     0
370
    30
100
AcDbPolyline
 90
       15
 70
     0
 43
0.0
 10
106.570908
 20
526.402466
 10
106.570908
 20
526.366455
 10
106.570908
 20
526.260864
 10
106.570908
 20
526.083923
 10
106.570908
 20
525.832703
 10
106.570908
 20
525.50647
 10
106.570908
 20
525.10614
 10
106.570908
 20
524.634155
 10
106.570908
 20
524.094849
 10
106.570908
 20
523.493896
 10
106.570908
 20
522.83844
 10
106.570908
 20
522.136658
 10
106.570908
 20
521.397522
 10
106.570908
 20
520.63031
 10
106.570908
 20
519.819153
  0
LINE
  5
18D
330
167
100
AcDbEntity
  8
0
  6
Continuous
 62
     0
370
     0
100
AcDbLine
 10
106.870909
 20
519.933725
 30
0.0
 11
106.870909
 21
504.80248
 31
0.0
  0
LINE
  5
18E
330
167
100
AcDbEntity
  8
0
  6
Continuous
 62
     0
370
     0
100
AcDbLine
 10
106.870909
 20
526.702471
 30
0.0
 11
106.870909
 21
519.933725
 31
0.0
  0
LINE
  5
18F
330
167
100
AcDbEntity
  8
0
  6
Continuous
 62
     0
370
     0
100
AcDbLine
 10
126.270909
 20
519.150934
 30
0.0
 11
126.270909
 21
524.652472
 31
0.0
  0
LWPOLYLINE
  5
190
330
167
100
AcDbEntity
  8
0
  6
Continuous
 62
     0
370
     0
100
AcDbPolyline
 90
       22
 70
     0
 43
0.0
 10
126.270912
 20
506.852478
 10
126.270912
 20
506.890564
 10
126.270912
 20
507.00592
 10
126.270912
 20
507.197601
 10
126.270912
 20
507.463837
 10
126.270912
 20
507.802429
 10
126.270912
 20
508.210327
 10
126.270912
 20
508.684052
 10
126.270912
 20
509.219391
 10
126.270912
 20
509.811707
 10
126.270912
 20
510.455872
 10
126.270912
 20
511.14621
 10
126.270912
 20
511.87677
 10
126.270912
 20
512.641113
 10
126.270912
 20
513.432556
 10
126.270912
 20
514.244263
 10
126.270912
 20
515.069153
 10
126.270912
 20
515.899963
 10
126.270912
 20
516.729492
 10
126.270912
 20
517.550537
 10
126.270912
 20
518.355835
 10
126.270912
 20
519.15094
  0
LINE
  5
191
330
167
100
AcDbEntity
  8
0
  6
Continuous
 62
     0
370
     0
100
AcDbLine
 10
113.973516
 20
504.802476
 30
0.0
 11
113.973516
 21
519.933725
 31
0.0
  0
LINE
  5
192
330
167
100
AcDbEntity
  8
0
  6
Continuous
 62
     0
370
     0
100
AcDbLine
 10
113.973516
 20
519.933725
 30
0.0
 11
113.973516
 21
526.702476
 31
0.0
  0
LWPOLYLINE
  5
193
330
167
100
AcDbEntity
  8
0
  6
Continuous
 62
     0
370
     0
100
AcDbPolyline
 90
       24
 70
     0
 43
0.0
 10
114.273506
 20
505.099915
 10
114.273506
 20
505.137848
 10
114.273506
 20
505.252899
 10
114.273506
 20
505.444397
 10
114.273506
 20
505.710815
 10
114.273506
 20
506.050232
 10
114.273506
 20
506.460297
 10
114.273506
 20
506.937836
 10
114.273506
 20
507.479523
 10
114.273506
 20
508.08139
 10
114.273506
 20
508.738983
 10
114.273506
 20
509.447662
 10
114.273506
 20
510.202148
 10
114.273506
 20
510.996948
 10
114.273506
 20
511.826385
 10
114.273506
 20
512.684387
 10
114.273506
 20
513.564758
 10
114.273506
 20
514.460999
 10
114.273506
 20
515.366394
 10
114.273506
 20
516.274536
 10
114.273506
 20
517.17926
 10
114.273506
 20
518.074341
 10
114.273506
 20
518.952332
 10
114.273506
 20
519.82019
  0
LINE
  5
194
330
167
100
AcDbEntity
  8
0
  6
Continuous
 62
     0
370
     0
100
AcDbLine
 10
114.273504
 20
519.82017
 30
0.0
 11
114.273504
 21
526.405032
 31
0.0
  0
LINE
  5
195
330
167
100
AcDbEntity
  8
0
  6
Continuous
 62
     0
370
     0
100
AcDbLine
 10
114.280148
 20
519.529451
 30
0.0
 11
114.280148
 21
505.861202
 31
0.0
  0
LINE
  5
196
330
167
100
AcDbEntity
  8
0
  6
Continuous
 62
     0
370
     0
100
AcDbLine
 10
114.280148
 20
525.643749
 30
0.0
 11
114.280148
 21
519.529451
 31
0.0
  0
LINE
  5
197
330
167
100
AcDbEntity
  8
0
  6
Continuous
 62
     0
370
     0
100
AcDbLine
 10
115.28011
 20
524.652476
 30
0.0
 11
115.28011
 21
519.150934
 31
0.0
  0
LINE
  5
198
330
167
100
AcDbEntity
  8
0
  6
Continuous
 62
     0
370
     0
100
AcDbLine
 10
115.28011
 20
519.150934
 30
0.0
 11
115.28011
 21
506.852476
 31
0.0
  0
LINE
  5
199
330
167
100
AcDbEntity
  8
0
  6
Continuous
 62
     0
370
    30
100
AcDbLine
 10
126.444853
 20
505.752477
 30
0.0
 11
126.444853
 21
525.752477
 31
0.0
  0
LINE
  5
19A
330
167
100
AcDbEntity
  8
0
  6
Continuous
 62
     0
370
    30
100
AcDbLine
 10
126.444853
 20
525.752477
 30
0.0
 11
127.444853
 21
526.752477
 31
0.0
  0
LINE
  5
19B
330
167
100
AcDbEntity
  8
0
  6
Continuous
 62
     0
370
    30
100
AcDbLine
 10
127.444853
 20
504.752477
 30
0.0
 11
127.444853
 21
526.752477
 31
0.0
  0
LINE
  5
19C
330
167
100
AcDbEntity
  8
0
  6
Continuous
 62
     0
370
    30
100
AcDbLine
 10
137.544853
 20
413.252477
 30
0.0
 11
137.544853
 21
552.252276
 31
0.0
  0
LINE
  5
19D
330
167
100
AcDbEntity
  8
0
  6
Continuous
 62
     0
370
    30
100
AcDbLine
 10
137.544853
 20
413.252477
 30
0.0
 11
138.044853
 21
412.752477
 31
0.0
  0
LINE
  5
19E
330
167
100
AcDbEntity
  8
0
  6
Continuous
 62
     0
370
    30
100
AcDbLine
 10
138.044853
 20
412.752477
 30
0.0
 11
138.044853
 21
552.752276
 31
0.0
  0
LINE
  5
19F
330
167
100
AcDbEntity
  8
0
  6
Continuous
 62
     0
370
    30
100
AcDbLine
 10
138.044853
 20
412.752477
 30
0.0
 11
148.044842
 21
412.752477
 31
0.0
  0
LINE
  5
1A0
330
167
100
AcDbEntity
  8
0
  6
Continuous
 62
     0
370
    30
100
AcDbLine
 10
148.044842
 20
412.752477
 30
0.0
 11
148.044842
 21
552.752276
 31
0.0
  0
LINE
  5
1A1
330
167
100
AcDbEntity
  8
0
  6
Continuous
 62
     0
370
    30
100
AcDbLine
 10
137.544853
 20
526.752477
 30
0.0
 11
127.444853
 21
526.752477
 31
0.0
  0
LINE
  5
1A2
330
167
100
AcDbEntity
  8
0
  6
Continuous
 62
     0
370
    30
100
AcDbLine
 10
137.544853
 20
504.752477
 30
0.0
 11
127.444853
 21
504.752477
 31
0.0
  0
LINE
  5
1A3
330
167
100
AcDbEntity
  8
0
  6
Continuous
 62
     0
370
    30
100
AcDbLine
 10
138.044853
 20
552.752276
 30
0.0
 11
148.044842
 21
552.752276
 31
0.0
  0
LINE
  5
1A4
330
167
100
AcDbEntity
  8
0
  6
Continuous
 62
     0
370
    30
100
AcDbLine
 10
137.544853
 20
552.252276
 30
0.0
 11
138.044853
 21
552.752276
 31
0.0
  0
LINE
  5
1A5
330
167
100
AcDbEntity
  8
0
  6
Continuous
 62
     0
370
    30
100
AcDbLine
 10
127.444853
 20
504.752477
 30
0.0
 11
126.444853
 21
505.752477
 31
0.0
  0
ARC
  5
1A6
330
167
100
AcDbEntity
  8
0
  6
Continuous
 62
     0
370
    30
100
AcDbCircle
 10
115.280135
 20
505.852451
 30
0.0
 40
1.000024867142106
100
AcDbArc
 50
90.001412
 51
179.498588
  0
ARC
  5
1A7
330
167
100
AcDbEntity
  8
0
  6
Continuous
 62
     0
370
    30
100
AcDbCircle
 10
115.280135
 20
525.6525
 30
0.0
 40
1.000024867388917
100
AcDbArc
 50
180.501412
 51
269.998588
  0
LINE
  5
1A8
330
167
100
AcDbEntity
  8
0
  6
Continuous
 62
     0
370
    30
100
AcDbLine
 10
115.28011
 20
524.652476
 30
0.0
 11
126.270909
 21
524.652476
 31
0.0
  0
LINE
  5
1A9
330
167
100
AcDbEntity
  8
0
  6
Continuous
 62
     0
370
    30
100
AcDbLine
 10
115.28011
 20
506.852476
 30
0.0
 11
126.270909
 21
506.852476
 31
0.0
  0
LINE
  5
1AA
330
167
100
AcDbEntity
  8
0
  6
Continuous
 62
     0
370
    30
100
AcDbLine
 10
114.273505
 20
505.099917
 30
0.0
 11
114.280148
 21
505.861202
 31
0.0
  0
LINE
  5
1AB
330
167
100
AcDbEntity
  8
0
  6
Continuous
 62
     0
370
    30
100
AcDbLine
 10
114.273505
 20
526.405034
 30
0.0
 11
114.280148
 21
525.643749
 31
0.0
  0
ARC
  5
1AC
330
167
100
AcDbEntity
  8
0
  6
Continuous
 62
     0
370
    30
100
AcDbCircle
 10
113.973501
 20
505.102491
 30
0.0
 40
0.3000150267315052
100
AcDbArc
 50
270.002842
 51
359.496596
  0
ARC
  5
1AD
330
167
100
AcDbEntity
  8
0
  6
Continuous
 62
     0
370
    30
100
AcDbCircle
 10
113.973501
 20
526.40246
 30
0.0
 40
0.3000150273950978
100
AcDbArc
 50
0.503697
 51
89.997157
  0
LINE
  5
1AE
330
167
100
AcDbEntity
  8
0
  6
Continuous
 62
     0
370
    30
100
AcDbLine
 10
106.870909
 20
526.702476
 30
0.0
 11
113.973516
 21
526.702476
 31
0.0
  0
LINE
  5
1AF
330
167
100
AcDbEntity
  8
0
  6
Continuous
 62
     0
370
    30
100
AcDbLine
 10
106.870909
 20
504.802476
 30
0.0
 11
113.973516
 21
504.802476
 31
0.0
  0
ARC
  5
1B0
330
167
100
AcDbEntity
  8
0
  6
Continuous
 62
     0
370
    30
100
AcDbCircle
 10
126.270813
 20
507.152724
 30
0.0
 40
0.300248862754747
100
AcDbArc
 50
270.018257
 51
305.436906
  0
ARC
  5
1B1
330
167
100
AcDbEntity
  8
0
  6
Continuous
 62
     0
370
    30
100
AcDbCircle
 10
126.270814
 20
524.352229
 30
0.0
 40
0.3002463587161538
100
AcDbArc
 50
54.5597
 51
89.981895
  0
ARC
  5
1B2
330
167
100
AcDbEntity
  8
0
  6
Continuous
 62
     0
370
    30
100
AcDbCircle
 10
106.870924
 20
505.102491
 30
0.0
 40
0.300015234440302
100
AcDbArc
 50
180.007163
 51
269.997095
  0
ARC
  5
1B3
330
167
100
AcDbEntity
  8
0
  6
Continuous
 62
     0
370
    30
100
AcDbCircle
 10
106.870924
 20
526.40246
 30
0.0
 40
0.3000152348566985
100
AcDbArc
 50
90.002905
 51
179.992665
  0
LINE
  5
1B4
330
167
100
AcDbEntity
  8
0
  6
Continuous
 62
     0
370
    30
100
AcDbLine
 10
137.544853
 20
489.952477
 30
0.0
 11
127.351756
 21
489.952477
 31
0.0
  0
ARC
  5
1B5
330
167
100
AcDbEntity
  8
0
  6
Continuous
 62
     0
370
    30
100
AcDbCircle
 10
128.736555
 20
467.944997
 30
0.0
 40
20.48937043725645
100
AcDbArc
 50
258.214845
 51
266.124642
  0
ARC
  5
1B6
330
167
100
AcDbEntity
  8
0
  6
Continuous
 62
     0
370
    30
100
AcDbCircle
 10
128.73802
 20
467.54936
 30
0.0
 40
20.50004212652605
100
AcDbArc
 50
93.877441
 51
121.734306
  0
LWPOLYLINE
  5
1B7
330
167
100
AcDbEntity
  8
0
  6
Continuous
 62
     0
370
    30
100
AcDbPolyline
 90
        4
 70
     0
 43
0.0
 10
109.238678
 20
445.347687
 10
110.864548
 20
445.452454
 10
112.493004
 20
445.504578
 10
114.26239
 20
445.52774
  0
LINE
  5
1B8
330
167
100
AcDbEntity
  8
0
  6
Continuous
 62
     0
370
    30
100
AcDbLine
 10
113.292822
 20
490.079488
 30
0.0
 11
116.007232
 21
490.061681
 31
0.0
  0
LWPOLYLINE
  5
1B9
330
167
100
AcDbEntity
  8
0
  6
Continuous
 62
     0
370
    30
100
AcDbPolyline
 90
       62
 70
     0
 43
0.0
 10
96.821732
 20
421.963989
 10
96.944893
 20
422.414978
 10
97.068642
 20
422.865784
 10
97.19297
 20
423.316467
 10
97.317871
 20
423.766968
 10
97.443329
 20
424.217316
 10
97.569336
 20
424.667511
 10
97.695877
 20
425.117554
 10
97.822937
 20
425.567444
 10
97.950493
 20
426.017212
 10
98.078545
 20
426.466827
 10
98.207092
 20
426.916351
 10
98.336136
 20
427.365692
 10
98.465691
 20
427.814911
 10
98.595757
 20
428.263947
 10
98.726341
 20
428.71286
 10
98.857445
 20
429.161621
 10
98.98909
 20
429.610229
 10
99.121262
 20
430.058655
 10
99.253983
 20
430.506958
 10
99.38726
 20
430.955048
 10
99.521111
 20
431.403015
 10
99.655602
 20
431.850769
 10
99.790771
 20
432.298309
 10
99.926674
 20
432.745636
 10
100.063354
 20
433.192719
 10
100.200882
 20
433.639557
 10
100.339317
 20
434.086121
 10
100.478737
 20
434.532349
 10
100.619209
 20
434.978271
 10
100.760803
 20
435.423828
 10
100.903595
 20
435.869019
 10
101.047653
 20
436.313782
 10
101.193047
 20
436.758087
 10
101.339905
 20
437.201935
 10
101.488396
 20
437.645264
 10
101.63871
 20
438.087952
 10
101.791039
 20
438.529968
 10
101.945778
 20
438.97113
 10
102.103508
 20
439.411224
 10
102.264832
 20
439.850037
 10
102.430367
 20
440.287262
 10
102.600899
 20
440.722565
 10
102.777557
 20
441.155396
 10
102.961723
 20
441.585114
 10
103.154922
 20
442.010864
 10
103.359802
 20
442.431061
 10
103.579643
 20
442.843658
 10
103.818832
 20
443.245331
 10
104.084572
 20
443.629761
 10
104.38588
 20
443.987152
 10
104.733559
 20
444.298767
 10
105.128441
 20
444.548126
 10
105.554329
 20
444.740448
 10
105.997154
 20
444.889465
 10
106.450188
 20
445.004333
 10
106.909668
 20
445.091492
 10
107.372383
 20
445.158081
 10
107.836624
 20
445.21347
 10
108.301605
 20
445.261261
 10
108.766785
 20
445.309845
 10
109.238678
 20
445.347687
  0
LWPOLYLINE
  5
1BA
330
167
100
AcDbEntity
  8
0
  6
Continuous
 62
     0
370
    30
100
AcDbPolyline
 90
       46
 70
     0
 43
0.0
 10
96.825378
 20
421.97757
 10
96.81868
 20
421.952667
 10
96.796509
 20
421.87027
 10
96.763039
 20
421.745789
 10
96.721466
 20
421.590973
 10
96.675224
 20
421.418549
 10
96.627327
 20
421.239716
 10
96.576714
 20
421.050507
 10
96.525314
 20
420.858093
 10
96.473343
 20
420.663361
 10
96.420647
 20
420.465607
 10
96.368042
 20
420.267975
 10
96.315269
 20
420.069519
 10
96.262733
 20
419.871643
 10
96.210426
 20
419.674469
 10
96.158165
 20
419.477203
 10
96.106216
 20
419.280914
 10
96.054581
 20
419.085663
 10
96.003021
 20
418.890533
 10
95.951706
 20
418.696198
 10
95.900673
 20
418.502808
 10
95.849808
 20
418.309967
 10
95.798988
 20
418.117218
 10
95.748146
 20
417.924347
 10
95.697357
 20
417.731689
 10
95.646706
 20
417.53949
 10
95.596291
 20
417.348267
 10
95.546303
 20
417.158661
 10
95.496902
 20
416.971313
 10
95.448242
 20
416.786774
 10
95.400475
 20
416.605652
 10
95.353951
 20
416.42923
 10
95.308632
 20
416.257446
 10
95.264694
 20
416.090851
 10
95.222763
 20
415.931946
 10
95.183098
 20
415.781647
 10
95.145645
 20
415.639771
 10
95.110214
 20
415.505585
 10
95.077118
 20
415.38028
 10
95.045647
 20
415.2612
 10
95.017067
 20
415.153107
 10
94.991646
 20
415.057007
 10
94.968025
 20
414.967804
 10
94.94738
 20
414.889923
 10
94.92527
 20
414.806641
 10
94.899101
 20
414.708344
  0
LWPOLYLINE
  5
1BB
330
167
100
AcDbEntity
  8
0
  6
Continuous
 62
     0
370
    30
100
AcDbPolyline
 90
       40
 70
     0
 43
0.0
 10
94.755661
 20
414.178589
 10
94.677856
 20
413.887146
 10
94.599548
 20
413.595978
 10
94.520508
 20
413.305084
 10
94.440491
 20
413.014526
 10
94.359291
 20
412.724274
 10
94.276772
 20
412.434296
 10
94.192734
 20
412.144623
 10
94.106369
 20
411.85553
 10
94.016281
 20
411.567596
 10
93.920761
 20
411.281433
 10
93.817474
 20
410.997986
 10
93.70256
 20
410.719055
 10
93.567879
 20
410.449158
 10
93.401817
 20
410.197693
 10
93.201202
 20
409.972412
 10
92.968719
 20
409.781067
 10
92.695381
 20
409.65564
 10
92.398964
 20
409.602692
 10
92.097656
 20
409.604126
 10
91.797974
 20
409.641907
 10
91.503983
 20
409.709106
 10
91.219055
 20
409.80719
 10
90.948509
 20
409.940186
 10
90.706116
 20
410.118988
 10
90.513939
 20
410.350555
 10
90.384476
 20
410.622437
 10
90.309258
 20
410.914337
 10
90.271614
 20
411.213562
 10
90.258148
 20
411.514862
 10
90.261459
 20
411.816559
 10
90.276054
 20
412.118011
 10
90.298546
 20
412.418854
 10
90.327606
 20
412.719147
 10
90.362015
 20
413.01886
 10
90.400948
 20
413.318024
 10
90.444122
 20
413.616638
 10
90.49128
 20
413.914673
 10
90.54216
 20
414.212036
 10
90.597038
 20
414.511658
  0
LWPOLYLINE
  5
1BC
330
167
100
AcDbEntity
  8
0
  6
Continuous
 62
     0
370
    30
100
AcDbPolyline
 90
       44
 70
     0
 43
0.0
 10
90.597038
 20
414.511658
 10
90.954384
 20
416.123138
 10
91.366478
 20
417.721741
 10
91.787582
 20
419.317993
 10
92.208305
 20
420.914337
 10
92.629158
 20
422.510651
 10
93.050003
 20
424.106934
 10
93.470833
 20
425.703278
 10
93.891792
 20
427.299561
 10
94.312645
 20
428.895844
 10
94.73304
 20
430.492279
 10
95.152557
 20
432.088959
 10
95.570625
 20
433.685974
 10
95.986656
 20
435.283569
 10
96.399796
 20
436.881897
 10
96.809029
 20
438.481232
 10
97.213371
 20
440.081787
 10
97.611679
 20
441.683868
 10
98.001755
 20
443.287964
 10
98.379234
 20
444.895081
 10
98.735214
 20
446.50708
 10
99.053101
 20
448.127014
 10
99.3097
 20
449.75766
 10
99.484665
 20
451.399048
 10
99.585526
 20
453.046722
 10
99.639198
 20
454.696686
 10
99.671722
 20
456.347198
 10
99.693169
 20
457.997925
 10
99.708862
 20
459.648712
 10
99.720284
 20
461.29953
 10
99.728691
 20
462.950348
 10
99.735085
 20
464.601196
 10
99.74057
 20
466.252045
 10
99.74646
 20
467.902893
 10
99.754128
 20
469.553741
 10
99.765419
 20
471.204559
 10
99.782104
 20
472.855316
 10
99.805061
 20
474.506012
 10
99.833244
 20
476.156616
 10
99.861954
 20
477.80722
 10
99.889977
 20
479.457855
 10
99.921425
 20
481.108398
 10
99.961639
 20
482.758789
 10
100.019669
 20
484.416016
  0
LWPOLYLINE
  5
1BD
330
167
100
AcDbEntity
  8
0
  6
Continuous
 62
     0
370
    30
100
AcDbPolyline
 90
       65
 70
     0
 43
0.0
 10
113.292824
 20
490.079498
 10
113.013
 20
490.081238
 10
112.733177
 20
490.082947
 10
112.453354
 20
490.084656
 10
112.173531
 20
490.086334
 10
111.8937
 20
490.087982
 10
111.613876
 20
490.08963
 10
111.334053
 20
490.091248
 10
111.05423
 20
490.092834
 10
110.774406
 20
490.094391
 10
110.494583
 20
490.095917
 10
110.214752
 20
490.097412
 10
109.934929
 20
490.098877
 10
109.655106
 20
490.100311
 10
109.375282
 20
490.101715
 10
109.095451
 20
490.103088
 10
108.815628
 20
490.104462
 10
108.535805
 20
490.105774
 10
108.255974
 20
490.107117
 10
107.976151
 20
490.108429
 10
107.696327
 20
490.109772
 10
107.416496
 20
490.111115
 10
107.136673
 20
490.112488
 10
106.85685
 20
490.113861
 10
106.577019
 20
490.115295
 10
106.297195
 20
490.11676
 10
106.017372
 20
490.118225
 10
105.737549
 20
490.11969
 10
105.457718
 20
490.121155
 10
105.177895
 20
490.122589
 10
104.898064
 20
490.124054
 10
104.61824
 20
490.125519
 10
104.338417
 20
490.127075
 10
104.058594
 20
490.128723
 10
103.778778
 20
490.130463
 10
103.498962
 20
490.13205
 10
103.219124
 20
490.133179
 10
102.93927
 20
490.133362
 10
102.659439
 20
490.131012
 10
102.379723
 20
490.124237
 10
102.100243
 20
490.110535
 10
101.821678
 20
490.084076
 10
101.546143
 20
490.035736
 10
101.278625
 20
489.953827
 10
101.033951
 20
489.819916
 10
100.833664
 20
489.625702
 10
100.685493
 20
489.388885
 10
100.57692
 20
489.131104
 10
100.493881
 20
488.863922
 10
100.42778
 20
488.592041
 10
100.372627
 20
488.317688
 10
100.325043
 20
488.041962
 10
100.283508
 20
487.765228
 10
100.247032
 20
487.487762
 10
100.214661
 20
487.209808
 10
100.185715
 20
486.931488
 10
100.159676
 20
486.652863
 10
100.13604
 20
486.374054
 10
100.114494
 20
486.095062
 10
100.094872
 20
485.815918
 10
100.077003
 20
485.536652
 10
100.060722
 20
485.257294
 10
100.045876
 20
484.977844
 10
100.032288
 20
484.698334
 10
100.019669
 20
484.416016
  0
LWPOLYLINE
  5
1BE
330
167
100
AcDbEntity
  8
0
  6
Continuous
 62
     0
370
    30
100
AcDbPolyline
 90
        4
 70
     0
 43
0.0
 10
114.262383
 20
445.52774
 10
117.278488
 20
445.538757
 10
120.29464
 20
445.5289
 10
124.551758
 20
445.502472
  0
ENDBLK
  5
1C0
330
167
100
AcDbEntity
  8
0
100
AcDbBlockEnd
  0
ENDSEC
  0
SECTION
  2
ENTITIES
  0
INSERT
  5
AC
330
1F
100
AcDbEntity
  8
0
  6
Continuous
 62
     7
420
 16250871
370
     0
100
AcDbBlockReference
  2
a
 10
237.985809
 20
406.731262
 30
0.0
  0
INSERT
  5
10B
330
1F
100
AcDbEntity
  8
0
  6
Continuous
 62
     7
420
 16250871
370
     0
100
AcDbBlockReference
  2
b
 10
0.0
 20
332.904816
 30
0.0
  0
INSERT
  5
166
330
1F
100
AcDbEntity
  8
0
  6
Continuous
 62
     7
420
 16250871
370
     0
100
AcDbBlockReference
  2
c
 10
371.125702
 20
0.0
 30
0.0
  0
INSERT
  5
1C1
330
1F
100
AcDbEntity
  8
0
  6
Continuous
 62
     7
420
 16250871
370
     0
100
AcDbBlockReference
  2
d
 10
180.066772
 20
0.0
 30
0.0
  0
ENDSEC
  0
SECTION
  2
OBJECTS
  0
DICTIONARY
  5
C
330
0
100
AcDbDictionary
281
     1
  3
ACAD_DETAILVIEWSTYLE
350
1F9
  3
ACAD_GROUP
350
D
  3
ACAD_LAYOUT
350
1A
  3
ACAD_MATERIAL
350
43
  3
ACAD_MLEADERSTYLE
350
6B
  3
ACAD_MLINESTYLE
350
17
  3
ACAD_PLOTSETTINGS
350
19
  3
ACAD_PLOTSTYLENAME
350
E
  3
ACAD_SCALELIST
350
47
  3
ACAD_SECTIONVIEWSTYLE
350
1FA
  3
ACAD_TABLESTYLE
350
69
  3
ACAD_VISUALSTYLE
350
2A
  3
ACDB_RECOMPOSE_DATA
350
1F6
  3
AcDbVariableDictionary
350
1C2
  0
SUN
  5
6D
330
29
100
AcDbSun
 90
        1
290
     0
 63
     7
421
 16777215
 40
1.0
291
     1
 91
  2455826
 92
 54000000
292
     0
 70
     2
 71
   256
280
     1
  0
DICTIONARY
  5
1F9
102
{ACAD_REACTORS
330
C
102
}
330
C
100
AcDbDictionary
281
     1
  0
DICTIONARY
  5
D
102
{ACAD_REACTORS
330
C
102
}
330
C
100
AcDbDictionary
281
     1
  0
DICTIONARY
  5
1A
102
{ACAD_REACTORS
330
C
102
}
330
C
100
AcDbDictionary
281
     1
  3
Layout1
350
1E
  3
Layout2
350
26
  3
Model
350
22
  0
DICTIONARY
  5
43
102
{ACAD_REACTORS
330
C
102
}
330
C
100
AcDbDictionary
281
     1
  3
ByBlock
350
45
  3
ByLayer
350
44
  3
Global
350
46
  0
DICTIONARY
  5
6B
102
{ACAD_REACTORS
330
C
102
}
330
C
100
AcDbDictionary
281
     1
  3
Standard
350
6C
  0
DICTIONARY
  5
17
102
{ACAD_REACTORS
330
C
102
}
330
C
100
AcDbDictionary
281
     1
  3
Standard
350
18
  0
DICTIONARY
  5
19
102
{ACAD_REACTORS
330
C
102
}
330
C
100
AcDbDictionary
281
     1
  0
ACDBDICTIONARYWDFLT
  5
E
102
{ACAD_REACTORS
330
C
102
}
330
C
100
AcDbDictionary
281
     1
  3
Normal
350
F
100
AcDbDictionaryWithDefault
340
F
  0
DICTIONARY
  5
47
102
{ACAD_REACTORS
330
C
102
}
330
C
100
AcDbDictionary
281
     1
  3
A0
350
48
  3
A1
350
49
  3
A2
350
4A
  3
A3
350
4B
  3
A4
350
4C
  3
A5
350
4D
  3
A6
350
4E
  3
A7
350
4F
  3
A8
350
50
  3
A9
350
51
  3
B0
350
52
  3
B1
350
53
  3
B2
350
54
  3
B3
350
55
  3
B4
350
56
  3
B5
350
57
  3
B6
350
58
  3
B7
350
59
  3
B8
350
5A
  3
B9
350
5B
  3
C0
350
5C
  3
C1
350
5D
  3
C2
350
5E
  3
C3
350
5F
  3
C4
350
60
  3
C5
350
61
  3
C6
350
62
  3
C7
350
63
  3
C8
350
64
  3
C9
350
65
  3
D0
350
66
  3
D1
350
67
  3
D2
350
68
  0
DICTIONARY
  5
1FA
102
{ACAD_REACTORS
330
C
102
}
330
C
100
AcDbDictionary
281
     1
  0
DICTIONARY
  5
69
102
{ACAD_REACTORS
330
C
102
}
330
C
100
AcDbDictionary
281
     1
  3
Standard
350
6A
  0
DICTIONARY
  5
2A
102
{ACAD_REACTORS
330
C
102
}
330
C
100
AcDbDictionary
281
     1
  3
2dWireframe
350
2F
  3
Basic
350
32
  3
Brighten
350
36
  3
ColorChange
350
3A
  3
Conceptual
350
34
  3
Dim
350
35
  3
EdgeColorOff
350
3D
  3
Facepattern
350
39
  3
Flat
350
2B
  3
FlatWithEdges
350
2C
  3
Gouraud
350
2D
  3
GouraudWithEdges
350
2E
  3
Hidden
350
31
  3
JitterOff
350
3B
  3
Linepattern
350
38
  3
OverhangOff
350
3C
  3
Realistic
350
33
  3
Shaded
350
42
  3
Shaded with edges
350
41
  3
Shades of Gray
350
3E
  3
Sketchy
350
3F
  3
Thicken
350
37
  3
Wireframe
350
30
  3
X-Ray
350
40
  0
XRECORD
  5
1F6
102
{ACAD_REACTORS
330
C
102
}
330
C
100
AcDbXrecord
280
     1
 90
        1
330
6A
  0
DICTIONARY
  5
1C2
102
{ACAD_REACTORS
330
C
102
}
330
C
100
AcDbDictionary
281
     1
  3
CANNOSCALE
350
1C3
  3
CMLEADERSTYLE
350
1F8
  3
CTABLESTYLE
350
1F7
  0
LAYOUT
  5
1E
102
{ACAD_REACTORS
330
1A
102
}
330
1A
100
AcDbPlotSettings
  1

  2
none_device
  4

  6

 40
0.0
 41
0.0
 42
0.0
 43
0.0
 44
0.0
 45
0.0
 46
0.0
 47
0.0
 48
0.0
 49
0.0
140
0.0
141
0.0
142
1.0
143
1.0
 70
   688
 72
     1
 73
     0
 74
     5
  7

 75
    16
 76
     0
 77
     2
 78
   300
147
1.0
148
0.0
149
0.0
100
AcDbLayout
  1
Layout1
 70
     1
 71
     1
 10
0.0
 20
0.0
 11
420.0
 21
297.0
 12
0.0
 22
0.0
 32
0.0
 14
1.000000E+20
 24
1.000000E+20
 34
1.000000E+20
 15
-1.000000E+20
 25
-1.000000E+20
 35
-1.000000E+20
146
0.0
 13
0.0
 23
0.0
 33
0.0
 16
1.0
 26
0.0
 36
0.0
 17
0.0
 27
1.0
 37
0.0
 76
     0
330
1B
  0
LAYOUT
  5
26
102
{ACAD_REACTORS
330
1A
102
}
330
1A
100
AcDbPlotSettings
  1

  2
none_device
  4

  6

 40
0.0
 41
0.0
 42
0.0
 43
0.0
 44
0.0
 45
0.0
 46
0.0
 47
0.0
 48
0.0
 49
0.0
140
0.0
141
0.0
142
1.0
143
1.0
 70
   688
 72
     1
 73
     0
 74
     5
  7

 75
    16
 76
     0
 77
     2
 78
   300
147
1.0
148
0.0
149
0.0
100
AcDbLayout
  1
Layout2
 70
     1
 71
     2
 10
0.0
 20
0.0
 11
0.0
 21
0.0
 12
0.0
 22
0.0
 32
0.0
 14
0.0
 24
0.0
 34
0.0
 15
0.0
 25
0.0
 35
0.0
146
0.0
 13
0.0
 23
0.0
 33
0.0
 16
1.0
 26
0.0
 36
0.0
 17
0.0
 27
1.0
 37
0.0
 76
     0
330
23
  0
LAYOUT
  5
22
102
{ACAD_REACTORS
330
1A
102
}
330
1A
100
AcDbPlotSettings
  1

  2
none_device
  4
Letter_(8.50_x_11.00_Inches)
  6

 40
6.35
 41
6.35
 42
6.350005
 43
6.350005
 44
215.9
 45
279.4
 46
0.0
 47
0.0
 48
0.0
 49
0.0
140
0.0
141
0.0
142
1.0
143
1.0
 70
  1712
 72
     1
 73
     0
 74
     0
  7

 75
     0
 76
     0
 77
     2
 78
   300
147
1.0
148
0.0
149
0.0
100
AcDbLayout
  1
Model
 70
     1
 71
     0
 10
0.0
 20
0.0
 11
420.0
 21
297.0
 12
0.0
 22
0.0
 32
0.0
 14
1.000000E+20
 24
1.000000E+20
 34
1.000000E+20
 15
-1.000000E+20
 25
-1.000000E+20
 35
-1.000000E+20
146
0.0
 13
0.0
 23
0.0
 33
0.0
 16
1.0
 26
0.0
 36
0.0
 17
0.0
 27
1.0
 37
0.0
 76
     0
330
1F
331
29
  0
MATERIAL
  5
45
102
{ACAD_REACTORS
330
43
102
}
330
43
100
AcDbMaterial
  1
ByBlock
 72
     1
 94
      127
  0
MATERIAL
  5
44
102
{ACAD_REACTORS
330
43
102
}
330
43
100
AcDbMaterial
  1
ByLayer
 72
     1
 94
      127
  0
MATERIAL
  5
46
102
{ACAD_REACTORS
330
43
102
}
330
43
100
AcDbMaterial
  1
Global
 72
     1
 94
      127
  0
MLEADERSTYLE
  5
6C
102
{ACAD_REACTORS
330
6B
102
}
330
6B
100
AcDbMLeaderStyle
179
     2
170
     2
171
     1
172
     0
 90
        2
 40
0.0
 41
0.0
173
     1
 91
-1056964608
340
14
 92
       -2
290
     1
 42
2.0
291
     1
 43
8.0
  3
Standard
341
0
 44
4.0
300

342
11
174
     1
178
     6
175
     1
176
     0
 93
-1056964608
 45
4.0
292
     0
297
     0
 46
4.0
343
0
 94
-1056964608
 47
1.0
 49
1.0
140
1.0
293
     1
141
0.0
294
     1
177
     0
142
1.0
295
     0
296
     0
143
3.75
271
     0
272
     9
273
     9
  0
MLINESTYLE
  5
18
102
{ACAD_REACTORS
330
17
102
}
330
17
100
AcDbMlineStyle
  2
Standard
 70
     0
  3

 62
   256
 51
90.0
 52
90.0
 71
     2
 49
0.5
 62
   256
  6
BYLAYER
 49
-0.5
 62
   256
  6
BYLAYER
  0
ACDBPLACEHOLDER
  5
F
102
{ACAD_REACTORS
330
E
102
}
330
E
  0
SCALE
  5
48
102
{ACAD_REACTORS
330
47
102
}
330
47
100
AcDbScale
 70
     0
300
1:1
140
1.0
141
1.0
290
     1
  0
SCALE
  5
49
102
{ACAD_REACTORS
330
47
102
}
330
47
100
AcDbScale
 70
     0
300
1:2
140
1.0
141
2.0
290
     0
  0
SCALE
  5
4A
102
{ACAD_REACTORS
330
47
102
}
330
47
100
AcDbScale
 70
     0
300
1:4
140
1.0
141
4.0
290
     0
  0
SCALE
  5
4B
102
{ACAD_REACTORS
330
47
102
}
330
47
100
AcDbScale
 70
     0
300
1:5
140
1.0
141
5.0
290
     0
  0
SCALE
  5
4C
102
{ACAD_REACTORS
330
47
102
}
330
47
100
AcDbScale
 70
     0
300
1:8
140
1.0
141
8.0
290
     0
  0
SCALE
  5
4D
102
{ACAD_REACTORS
330
47
102
}
330
47
100
AcDbScale
 70
     0
300
1:10
140
1.0
141
10.0
290
     0
  0
SCALE
  5
4E
102
{ACAD_REACTORS
330
47
102
}
330
47
100
AcDbScale
 70
     0
300
1:16
140
1.0
141
16.0
290
     0
  0
SCALE
  5
4F
102
{ACAD_REACTORS
330
47
102
}
330
47
100
AcDbScale
 70
     0
300
1:20
140
1.0
141
20.0
290
     0
  0
SCALE
  5
50
102
{ACAD_REACTORS
330
47
102
}
330
47
100
AcDbScale
 70
     0
300
1:30
140
1.0
141
30.0
290
     0
  0
SCALE
  5
51
102
{ACAD_REACTORS
330
47
102
}
330
47
100
AcDbScale
 70
     0
300
1:40
140
1.0
141
40.0
290
     0
  0
SCALE
  5
52
102
{ACAD_REACTORS
330
47
102
}
330
47
100
AcDbScale
 70
     0
300
1:50
140
1.0
141
50.0
290
     0
  0
SCALE
  5
53
102
{ACAD_REACTORS
330
47
102
}
330
47
100
AcDbScale
 70
     0
300
1:100
140
1.0
141
100.0
290
     0
  0
SCALE
  5
54
102
{ACAD_REACTORS
330
47
102
}
330
47
100
AcDbScale
 70
     0
300
2:1
140
2.0
141
1.0
290
     0
  0
SCALE
  5
55
102
{ACAD_REACTORS
330
47
102
}
330
47
100
AcDbScale
 70
     0
300
4:1
140
4.0
141
1.0
290
     0
  0
SCALE
  5
56
102
{ACAD_REACTORS
330
47
102
}
330
47
100
AcDbScale
 70
     0
300
8:1
140
8.0
141
1.0
290
     0
  0
SCALE
  5
57
102
{ACAD_REACTORS
330
47
102
}
330
47
100
AcDbScale
 70
     0
300
10:1
140
10.0
141
1.0
290
     0
  0
SCALE
  5
58
102
{ACAD_REACTORS
330
47
102
}
330
47
100
AcDbScale
 70
     0
300
100:1
140
100.0
141
1.0
290
     0
  0
SCALE
  5
59
102
{ACAD_REACTORS
330
47
102
}
330
47
100
AcDbScale
 70
     0
300
1/128" = 1'-0"
140
0.007812
141
12.0
290
     0
  0
SCALE
  5
5A
102
{ACAD_REACTORS
330
47
102
}
330
47
100
AcDbScale
 70
     0
300
1/64" = 1'-0"
140
0.015625
141
12.0
290
     0
  0
SCALE
  5
5B
102
{ACAD_REACTORS
330
47
102
}
330
47
100
AcDbScale
 70
     0
300
1/32" = 1'-0"
140
0.03125
141
12.0
290
     0
  0
SCALE
  5
5C
102
{ACAD_REACTORS
330
47
102
}
330
47
100
AcDbScale
 70
     0
300
1/16" = 1'-0"
140
0.0625
141
12.0
290
     0
  0
SCALE
  5
5D
102
{ACAD_REACTORS
330
47
102
}
330
47
100
AcDbScale
 70
     0
300
3/32" = 1'-0"
140
0.09375
141
12.0
290
     0
  0
SCALE
  5
5E
102
{ACAD_REACTORS
330
47
102
}
330
47
100
AcDbScale
 70
     0
300
1/8" = 1'-0"
140
0.125
141
12.0
290
     0
  0
SCALE
  5
5F
102
{ACAD_REACTORS
330
47
102
}
330
47
100
AcDbScale
 70
     0
300
3/16" = 1'-0"
140
0.1875
141
12.0
290
     0
  0
SCALE
  5
60
102
{ACAD_REACTORS
330
47
102
}
330
47
100
AcDbScale
 70
     0
300
1/4" = 1'-0"
140
0.25
141
12.0
290
     0
  0
SCALE
  5
61
102
{ACAD_REACTORS
330
47
102
}
330
47
100
AcDbScale
 70
     0
300
3/8" = 1'-0"
140
0.375
141
12.0
290
     0
  0
SCALE
  5
62
102
{ACAD_REACTORS
330
47
102
}
330
47
100
AcDbScale
 70
     0
300
1/2" = 1'-0"
140
0.5
141
12.0
290
     0
  0
SCALE
  5
63
102
{ACAD_REACTORS
330
47
102
}
330
47
100
AcDbScale
 70
     0
300
3/4" = 1'-0"
140
0.75
141
12.0
290
     0
  0
SCALE
  5
64
102
{ACAD_REACTORS
330
47
102
}
330
47
100
AcDbScale
 70
     0
300
1" = 1'-0"
140
1.0
141
12.0
290
     0
  0
SCALE
  5
65
102
{ACAD_REACTORS
330
47
102
}
330
47
100
AcDbScale
 70
     0
300
1-1/2" = 1'-0"
140
1.5
141
12.0
290
     0
  0
SCALE
  5
66
102
{ACAD_REACTORS
330
47
102
}
330
47
100
AcDbScale
 70
     0
300
3" = 1'-0"
140
3.0
141
12.0
290
     0
  0
SCALE
  5
67
102
{ACAD_REACTORS
330
47
102
}
330
47
100
AcDbScale
 70
     0
300
6" = 1'-0"
140
6.0
141
12.0
290
     0
  0
SCALE
  5
68
102
{ACAD_REACTORS
330
47
102
}
330
47
100
AcDbScale
 70
     0
300
1'-0" = 1'-0"
140
12.0
141
12.0
290
     0
  0
TABLESTYLE
  5
6A
102
{ACAD_REACTORS
330
69
102
}
102
{ACAD_XDICTIONARY
360
1F4
102
}
330
69
100
AcDbTableStyle
  3
Standard
 70
     0
 71
     0
 40
0.06
 41
0.06
280
     0
281
     0
  7
Standard
140
4.5
170
     2
 62
     0
 63
   257
283
     0
 90
        4
 91
        0
  1

274
    -2
284
     1
 64
     0
275
    -2
285
     1
 65
     0
276
    -2
286
     1
 66
     0
277
    -2
287
     1
 67
     0
278
    -2
288
     1
 68
     0
279
    -2
289
     1
 69
     0
  7
Standard
140
6.0
170
     5
 62
     0
 63
   257
283
     0
 90
        4
 91
        0
  1

274
    -2
284
     1
 64
     0
275
    -2
285
     1
 65
     0
276
    -2
286
     1
 66
     0
277
    -2
287
     1
 67
     0
278
    -2
288
     1
 68
     0
279
    -2
289
     1
 69
     0
  7
Standard
140
4.5
170
     5
 62
     0
 63
   257
283
     0
 90
        4
 91
        0
  1

274
    -2
284
     1
 64
     0
275
    -2
285
     1
 65
     0
276
    -2
286
     1
 66
     0
277
    -2
287
     1
 67
     0
278
    -2
288
     1
 68
     0
279
    -2
289
     1
 69
     0
  0
VISUALSTYLE
  5
2F
102
{ACAD_REACTORS
330
2A
102
}
102
{ACAD_XDICTIONARY
360
1CC
102
}
330
2A
100
AcDbVisualStyle
  2
2dWireframe
 70
     4
177
     2
291
     0
 71
     0
176
     1
 72
     2
176
     1
 73
     0
176
     1
 90
        0
176
     1
 40
0.6
176
     1
 41
30.0
176
     1
 62
     5
 63
     7
421
 16777215
176
     1
 74
     1
176
     1
 91
        4
176
     1
 64
     7
176
     1
 65
   257
176
     1
 75
     1
176
     1
175
     1
176
     1
 42
1.0
176
     1
 92
        0
176
     1
 66
   257
176
     1
 43
1.0
176
     1
 76
     1
176
     1
 77
     6
176
     1
 78
     2
176
     1
 67
     7
176
     1
 79
     5
176
     1
170
     0
176
     1
171
     0
176
     1
290
     0
176
     1
 93
        1
176
     1
 44
0.0
176
     1
173
     0
176
     1
  0
VISUALSTYLE
  5
32
102
{ACAD_REACTORS
330
2A
102
}
102
{ACAD_XDICTIONARY
360
1D2
102
}
330
2A
100
AcDbVisualStyle
  2
Basic
 70
     7
177
     2
291
     1
 71
     1
176
     1
 72
     0
176
     1
 73
     1
176
     1
 90
        0
176
     1
 40
0.6
176
     1
 41
30.0
176
     1
 62
     5
 63
     7
421
 16777215
176
     1
 74
     0
176
     1
 91
        4
176
     1
 64
     7
176
     1
 65
   257
176
     1
 75
     1
176
     1
175
     1
176
     1
 42
1.0
176
     1
 92
        8
176
     1
 66
     7
176
     1
 43
1.0
176
     1
 76
     1
176
     1
 77
     6
176
     1
 78
     2
176
     1
 67
     7
176
     1
 79
     5
176
     1
170
     0
176
     1
171
     0
176
     1
290
     0
176
     1
 93
        1
176
     1
 44
0.0
176
     1
173
     0
176
     1
  0
VISUALSTYLE
  5
36
102
{ACAD_REACTORS
330
2A
102
}
102
{ACAD_XDICTIONARY
360
1DA
102
}
330
2A
100
AcDbVisualStyle
  2
Brighten
 70
    12
177
     2
291
     1
 71
     2
176
     1
 72
     2
176
     1
 73
     0
176
     1
 90
        0
176
     1
 40
0.6
176
     1
 41
30.0
176
     1
 62
     5
 63
     7
421
 16777215
176
     1
 74
     1
176
     1
 91
        4
176
     1
 64
     7
176
     1
 65
   257
176
     1
 75
     1
176
     1
175
     1
176
     1
 42
1.0
176
     1
 92
        8
176
     1
 66
     7
176
     1
 43
1.0
176
     1
 76
     1
176
     1
 77
     6
176
     1
 78
     2
176
     1
 67
     7
176
     1
 79
     5
176
     1
170
     0
176
     1
171
     0
176
     1
290
     0
176
     1
 93
        1
176
     1
 44
50.0
176
     1
173
     0
176
     1
  0
VISUALSTYLE
  5
3A
102
{ACAD_REACTORS
330
2A
102
}
102
{ACAD_XDICTIONARY
360
1E2
102
}
330
2A
100
AcDbVisualStyle
  2
ColorChange
 70
    16
177
     2
291
     1
 71
     2
176
     1
 72
     2
176
     1
 73
     3
176
     1
 90
        0
176
     1
 40
0.6
176
     1
 41
30.0
176
     1
 62
     5
 63
     8
421
  8421504
176
     1
 74
     1
176
     1
 91
        4
176
     1
 64
     7
176
     1
 65
   257
176
     1
 75
     1
176
     1
175
     1
176
     1
 42
1.0
176
     1
 92
        8
176
     1
 66
     8
424
  8421504
176
     1
 43
1.0
176
     1
 76
     1
176
     1
 77
     6
176
     1
 78
     2
176
     1
 67
     7
176
     1
 79
     5
176
     1
170
     0
176
     1
171
     0
176
     1
290
     0
176
     1
 93
        1
176
     1
 44
0.0
176
     1
173
     0
176
     1
  0
VISUALSTYLE
  5
34
102
{ACAD_REACTORS
330
2A
102
}
102
{ACAD_XDICTIONARY
360
1D6
102
}
330
2A
100
AcDbVisualStyle
  2
Conceptual
 70
     9
177
     2
291
     0
 71
     3
176
     1
 72
     2
176
     1
 73
     0
176
     1
 90
        0
176
     1
 40
0.6
176
     1
 41
30.0
176
     1
 62
     5
 63
     7
421
 16777215
176
     1
 74
     2
176
     1
 91
        2
176
     1
 64
     7
176
     1
 65
   257
176
     1
 75
     1
176
     1
175
     1
176
     1
 42
179.0
176
     1
 92
        8
176
     1
 66
     7
176
     1
 43
1.0
176
     1
 76
     1
176
     1
 77
     6
176
     1
 78
     2
176
     1
 67
     7
176
     1
 79
     3
176
     1
170
     0
176
     1
171
     0
176
     1
290
     0
176
     1
 93
        1
176
     1
 44
0.0
176
     1
173
     0
176
     1
  0
VISUALSTYLE
  5
35
102
{ACAD_REACTORS
330
2A
102
}
102
{ACAD_XDICTIONARY
360
1D8
102
}
330
2A
100
AcDbVisualStyle
  2
Dim
 70
    11
177
     2
291
     1
 71
     2
176
     1
 72
     2
176
     1
 73
     0
176
     1
 90
        0
176
     1
 40
0.6
176
     1
 41
30.0
176
     1
 62
     5
 63
     7
421
 16777215
176
     1
 74
     1
176
     1
 91
        4
176
     1
 64
     7
176
     1
 65
   257
176
     1
 75
     1
176
     1
175
     1
176
     1
 42
1.0
176
     1
 92
        8
176
     1
 66
     7
176
     1
 43
1.0
176
     1
 76
     1
176
     1
 77
     6
176
     1
 78
     2
176
     1
 67
     7
176
     1
 79
     5
176
     1
170
     0
176
     1
171
     0
176
     1
290
     0
176
     1
 93
        1
176
     1
 44
-50.0
176
     1
173
     0
176
     1
  0
VISUALSTYLE
  5
3D
102
{ACAD_REACTORS
330
2A
102
}
102
{ACAD_XDICTIONARY
360
1E8
102
}
330
2A
100
AcDbVisualStyle
  2
EdgeColorOff
 70
    22
177
     2
291
     1
 71
     2
176
     0
 72
     2
176
     0
 73
     0
176
     0
 90
        0
176
     0
 40
0.6
176
     0
 41
30.0
176
     0
 62
     5
 63
     7
421
 16777215
176
     0
 74
     1
176
     0
 91
        4
176
     0
 64
     7
176
     0
 65
   257
176
     0
 75
     1
176
     0
175
     1
176
     0
 42
1.0
176
     0
 92
        8
176
     2
 66
     7
176
     0
 43
1.0
176
     0
 76
     1
176
     0
 77
     6
176
     0
 78
     2
176
     0
 67
     7
176
     0
 79
     5
176
     0
170
     0
176
     0
171
     0
176
     0
290
     0
176
     0
 93
        1
176
     0
 44
0.0
176
     0
173
     0
176
     0
  0
VISUALSTYLE
  5
39
102
{ACAD_REACTORS
330
2A
102
}
102
{ACAD_XDICTIONARY
360
1E0
102
}
330
2A
100
AcDbVisualStyle
  2
Facepattern
 70
    15
177
     2
291
     1
 71
     2
176
     1
 72
     2
176
     1
 73
     0
176
     1
 90
        0
176
     1
 40
0.6
176
     1
 41
30.0
176
     1
 62
     5
 63
     7
421
 16777215
176
     1
 74
     1
176
     1
 91
        4
176
     1
 64
     7
176
     1
 65
   257
176
     1
 75
     1
176
     1
175
     1
176
     1
 42
1.0
176
     1
 92
        8
176
     1
 66
     7
176
     1
 43
1.0
176
     1
 76
     1
176
     1
 77
     6
176
     1
 78
     2
176
     1
 67
     7
176
     1
 79
     5
176
     1
170
     0
176
     1
171
     0
176
     1
290
     0
176
     1
 93
        1
176
     1
 44
0.0
176
     1
173
     0
176
     1
  0
VISUALSTYLE
  5
2B
102
{ACAD_REACTORS
330
2A
102
}
102
{ACAD_XDICTIONARY
360
1C4
102
}
330
2A
100
AcDbVisualStyle
  2
Flat
 70
     0
177
     2
291
     1
 71
     2
176
     1
 72
     1
176
     1
 73
     1
176
     1
 90
        2
176
     1
 40
0.6
176
     1
 41
30.0
176
     1
 62
     5
 63
     7
421
 16777215
176
     1
 74
     0
176
     1
 91
        0
176
     1
 64
     7
176
     1
 65
   257
176
     1
 75
     1
176
     1
175
     1
176
     1
 42
1.0
176
     1
 92
        8
176
     1
 66
     7
176
     1
 43
1.0
176
     1
 76
     1
176
     1
 77
     6
176
     1
 78
     2
176
     1
 67
     7
176
     1
 79
     5
176
     1
170
     0
176
     1
171
     0
176
     1
290
     0
176
     1
 93
       13
176
     1
 44
0.0
176
     1
173
     0
176
     1
  0
VISUALSTYLE
  5
2C
102
{ACAD_REACTORS
330
2A
102
}
102
{ACAD_XDICTIONARY
360
1C6
102
}
330
2A
100
AcDbVisualStyle
  2
FlatWithEdges
 70
     1
177
     2
291
     1
 71
     2
176
     1
 72
     1
176
     1
 73
     1
176
     1
 90
        2
176
     1
 40
0.6
176
     1
 41
30.0
176
     1
 62
     5
 63
     7
421
 16777215
176
     1
 74
     1
176
     1
 91
        0
176
     1
 64
     7
176
     1
 65
   257
176
     1
 75
     1
176
     1
175
     1
176
     1
 42
1.0
176
     1
 92
        0
176
     1
 66
   257
176
     1
 43
1.0
176
     1
 76
     1
176
     1
 77
     6
176
     1
 78
     2
176
     1
 67
     7
176
     1
 79
     5
176
     1
170
     0
176
     1
171
     0
176
     1
290
     0
176
     1
 93
       13
176
     1
 44
0.0
176
     1
173
     0
176
     1
  0
VISUALSTYLE
  5
2D
102
{ACAD_REACTORS
330
2A
102
}
102
{ACAD_XDICTIONARY
360
1C8
102
}
330
2A
100
AcDbVisualStyle
  2
Gouraud
 70
     2
177
     2
291
     1
 71
     2
176
     1
 72
     2
176
     1
 73
     1
176
     1
 90
        2
176
     1
 40
0.6
176
     1
 41
30.0
176
     1
 62
     5
 63
     7
421
 16777215
176
     1
 74
     0
176
     1
 91
        0
176
     1
 64
     7
176
     1
 65
   257
176
     1
 75
     1
176
     1
175
     1
176
     1
 42
1.0
176
     1
 92
        0
176
     1
 66
     7
176
     1
 43
1.0
176
     1
 76
     1
176
     1
 77
     6
176
     1
 78
     2
176
     1
 67
     7
176
     1
 79
     5
176
     1
170
     0
176
     1
171
     0
176
     1
290
     0
176
     1
 93
       13
176
     1
 44
0.0
176
     1
173
     0
176
     1
  0
VISUALSTYLE
  5
2E
102
{ACAD_REACTORS
330
2A
102
}
102
{ACAD_XDICTIONARY
360
1CA
102
}
330
2A
100
AcDbVisualStyle
  2
GouraudWithEdges
 70
     3
177
     2
291
     1
 71
     2
176
     1
 72
     2
176
     1
 73
     1
176
     1
 90
        2
176
     1
 40
0.6
176
     1
 41
30.0
176
     1
 62
     5
 63
     7
421
 16777215
176
     1
 74
     1
176
     1
 91
        0
176
     1
 64
     7
176
     1
 65
   257
176
     1
 75
     1
176
     1
175
     1
176
     1
 42
1.0
176
     1
 92
        0
176
     1
 66
   257
176
     1
 43
1.0
176
     1
 76
     1
176
     1
 77
     6
176
     1
 78
     2
176
     1
 67
     7
176
     1
 79
     5
176
     1
170
     0
176
     1
171
     0
176
     1
290
     0
176
     1
 93
       13
176
     1
 44
0.0
176
     1
173
     0
176
     1
  0
VISUALSTYLE
  5
31
102
{ACAD_REACTORS
330
2A
102
}
102
{ACAD_XDICTIONARY
360
1D0
102
}
330
2A
100
AcDbVisualStyle
  2
Hidden
 70
     6
177
     2
291
     0
 71
     1
176
     1
 72
     2
176
     1
 73
     2
176
     1
 90
        0
176
     1
 40
0.6
176
     1
 41
30.0
176
     1
 62
     5
 63
     7
421
 16777215
176
     1
 74
     2
176
     1
 91
        2
176
     1
 64
     7
176
     1
 65
   257
176
     1
 75
     2
176
     1
175
     1
176
     1
 42
40.0
176
     1
 92
        0
176
     1
 66
   257
176
     1
 43
1.0
176
     1
 76
     1
176
     1
 77
     6
176
     1
 78
     2
176
     1
 67
     7
176
     1
 79
     3
176
     1
170
     0
176
     1
171
     0
176
     1
290
     0
176
     1
 93
        1
176
     1
 44
0.0
176
     1
173
     0
176
     1
  0
VISUALSTYLE
  5
3B
102
{ACAD_REACTORS
330
2A
102
}
102
{ACAD_XDICTIONARY
360
1E4
102
}
330
2A
100
AcDbVisualStyle
  2
JitterOff
 70
    20
177
     2
291
     1
 71
     2
176
     0
 72
     2
176
     0
 73
     0
176
     0
 90
        0
176
     0
 40
0.6
176
     0
 41
30.0
176
     0
 62
     5
 63
     7
421
 16777215
176
     0
 74
     1
176
     0
 91
        4
176
     0
 64
     7
176
     0
 65
   257
176
     0
 75
     1
176
     0
175
     1
176
     0
 42
1.0
176
     0
 92
       10
176
     2
 66
     7
176
     0
 43
1.0
176
     0
 76
     1
176
     0
 77
     6
176
     0
 78
     2
176
     0
 67
     7
176
     0
 79
     5
176
     0
170
     0
176
     0
171
     0
176
     0
290
     0
176
     0
 93
        1
176
     0
 44
0.0
176
     0
173
     0
176
     0
  0
VISUALSTYLE
  5
38
102
{ACAD_REACTORS
330
2A
102
}
102
{ACAD_XDICTIONARY
360
1DE
102
}
330
2A
100
AcDbVisualStyle
  2
Linepattern
 70
    14
177
     2
291
     1
 71
     2
176
     1
 72
     2
176
     1
 73
     0
176
     1
 90
        0
176
     1
 40
0.6
176
     1
 41
30.0
176
     1
 62
     5
 63
     7
421
 16777215
176
     1
 74
     1
176
     1
 91
        4
176
     1
 64
     7
176
     1
 65
   257
176
     1
 75
     7
176
     1
175
     7
176
     1
 42
1.0
176
     1
 92
        8
176
     1
 66
     7
176
     1
 43
1.0
176
     1
 76
     1
176
     1
 77
     6
176
     1
 78
     2
176
     1
 67
     7
176
     1
 79
     5
176
     1
170
     0
176
     1
171
     0
176
     1
290
     0
176
     1
 93
        1
176
     1
 44
0.0
176
     1
173
     0
176
     1
  0
VISUALSTYLE
  5
3C
102
{ACAD_REACTORS
330
2A
102
}
102
{ACAD_XDICTIONARY
360
1E6
102
}
330
2A
100
AcDbVisualStyle
  2
OverhangOff
 70
    21
177
     2
291
     1
 71
     2
176
     0
 72
     2
176
     0
 73
     0
176
     0
 90
        0
176
     0
 40
0.6
176
     0
 41
30.0
176
     0
 62
     5
 63
     7
421
 16777215
176
     0
 74
     1
176
     0
 91
        4
176
     0
 64
     7
176
     0
 65
   257
176
     0
 75
     1
176
     0
175
     1
176
     0
 42
1.0
176
     0
 92
        9
176
     2
 66
     7
176
     0
 43
1.0
176
     0
 76
     1
176
     0
 77
     6
176
     0
 78
     2
176
     0
 67
     7
176
     0
 79
     5
176
     0
170
     0
176
     0
171
     0
176
     0
290
     0
176
     0
 93
        1
176
     0
 44
0.0
176
     0
173
     0
176
     0
  0
VISUALSTYLE
  5
33
102
{ACAD_REACTORS
330
2A
102
}
102
{ACAD_XDICTIONARY
360
1D4
102
}
330
2A
100
AcDbVisualStyle
  2
Realistic
 70
     8
177
     2
291
     0
 71
     2
176
     1
 72
     3
176
     1
 73
     0
176
     1
 90
        2
176
     1
 40
0.6
176
     1
 41
30.0
176
     1
 62
     5
 63
     7
421
 16777215
176
     1
 74
     0
176
     1
 91
        0
176
     1
 64
     7
176
     1
 65
   257
176
     1
 75
     1
176
     1
175
     1
176
     1
 42
1.0
176
     1
 92
        8
176
     1
 66
   257
176
     1
 43
1.0
176
     1
 76
     1
176
     1
 77
     6
176
     1
 78
     2
176
     1
 67
     7
176
     1
 79
     3
176
     1
170
     0
176
     1
171
     0
176
     1
290
     0
176
     1
 93
       13
176
     1
 44
0.0
176
     1
173
     0
176
     1
  0
VISUALSTYLE
  5
42
102
{ACAD_REACTORS
330
2A
102
}
102
{ACAD_XDICTIONARY
360
1F2
102
}
330
2A
100
AcDbVisualStyle
  2
Shaded
 70
    27
177
     2
291
     0
 71
     2
176
     1
 72
     2
176
     1
 73
     1
176
     1
 90
        2
176
     1
 40
0.6
176
     1
 41
30.0
176
     1
 62
     5
 63
     7
421
 16777215
176
     1
 74
     0
176
     1
 91
        4
176
     1
 64
     7
176
     1
 65
   257
176
     1
 75
     1
176
     1
175
     1
176
     1
 42
1.0
176
     1
 92
        8
176
     1
 66
   257
176
     1
 43
1.0
176
     1
 76
     1
176
     1
 77
     6
176
     1
 78
     2
176
     1
 67
     8
425
  7895160
176
     1
 79
     3
176
     1
170
     0
176
     1
171
     0
176
     1
290
     0
176
     1
 93
        5
176
     1
 44
0.0
176
     1
173
     0
176
     1
  0
VISUALSTYLE
  5
41
102
{ACAD_REACTORS
330
2A
102
}
102
{ACAD_XDICTIONARY
360
1F0
102
}
330
2A
100
AcDbVisualStyle
  2
Shaded with edges
 70
    26
177
     2
291
     0
 71
     2
176
     1
 72
     2
176
     1
 73
     1
176
     1
 90
        2
176
     1
 40
0.6
176
     1
 41
30.0
176
     1
 62
     5
 63
     7
421
 16777215
176
     1
 74
     1
176
     1
 91
       10
176
     1
 64
     7
176
     1
 65
   257
176
     1
 75
     2
176
     1
175
     1
176
     1
 42
1.0
176
     1
 92
        8
176
     1
 66
   257
176
     1
 43
1.0
176
     1
 76
     1
176
     1
 77
     6
176
     1
 78
     2
176
     1
 67
     7
176
     1
 79
     3
176
     1
170
     0
176
     1
171
     0
176
     1
290
     0
176
     1
 93
        5
176
     1
 44
0.0
176
     1
173
     0
176
     1
  0
VISUALSTYLE
  5
3E
102
{ACAD_REACTORS
330
2A
102
}
102
{ACAD_XDICTIONARY
360
1EA
102
}
330
2A
100
AcDbVisualStyle
  2
Shades of Gray
 70
    23
177
     2
291
     0
 71
     2
176
     1
 72
     2
176
     1
 73
     3
176
     1
 90
        0
176
     1
 40
0.6
176
     1
 41
30.0
176
     1
 62
     5
 63
     7
421
 16777215
176
     1
 74
     2
176
     1
 91
        2
176
     1
 64
     7
176
     1
 65
     7
176
     1
 75
     1
176
     1
175
     1
176
     1
 42
40.0
176
     1
 92
        8
176
     1
 66
     7
176
     1
 43
1.0
176
     1
 76
     1
176
     1
 77
     6
176
     1
 78
     2
176
     1
 67
     7
176
     1
 79
     3
176
     1
170
     0
176
     1
171
     0
176
     1
290
     0
176
     1
 93
        1
176
     1
 44
0.0
176
     1
173
     0
176
     1
  0
VISUALSTYLE
  5
3F
102
{ACAD_REACTORS
330
2A
102
}
102
{ACAD_XDICTIONARY
360
1EC
102
}
330
2A
100
AcDbVisualStyle
  2
Sketchy
 70
    24
177
     2
291
     0
 71
     1
176
     1
 72
     2
176
     1
 73
     2
176
     1
 90
        0
176
     1
 40
0.6
176
     1
 41
30.0
176
     1
 62
     5
 63
     7
421
 16777215
176
     1
 74
     2
176
     1
 91
        2
176
     1
 64
     7
176
     1
 65
     7
176
     1
 75
     1
176
     1
175
     1
176
     1
 42
40.0
176
     1
 92
       11
176
     1
 66
     7
176
     1
 43
1.0
176
     1
 76
     1
176
     1
 77
     6
176
     1
 78
     2
176
     1
 67
     7
176
     1
 79
     6
176
     1
170
     0
176
     1
171
     0
176
     1
290
     0
176
     1
 93
        1
176
     1
 44
0.0
176
     1
173
     0
176
     1
  0
VISUALSTYLE
  5
37
102
{ACAD_REACTORS
330
2A
102
}
102
{ACAD_XDICTIONARY
360
1DC
102
}
330
2A
100
AcDbVisualStyle
  2
Thicken
 70
    13
177
     2
291
     1
 71
     2
176
     1
 72
     2
176
     1
 73
     0
176
     1
 90
        0
176
     1
 40
0.6
176
     1
 41
30.0
176
     1
 62
     5
 63
     7
421
 16777215
176
     1
 74
     1
176
     1
 91
        4
176
     1
 64
     7
176
     1
 65
   257
176
     1
 75
     1
176
     1
175
     1
176
     1
 42
1.0
176
     1
 92
       12
176
     1
 66
     7
176
     1
 43
1.0
176
     1
 76
     1
176
     1
 77
     6
176
     1
 78
     2
176
     1
 67
     7
176
     1
 79
     5
176
     1
170
     0
176
     1
171
     0
176
     1
290
     0
176
     1
 93
        1
176
     1
 44
0.0
176
     1
173
     0
176
     1
  0
VISUALSTYLE
  5
30
102
{ACAD_REACTORS
330
2A
102
}
102
{ACAD_XDICTIONARY
360
1CE
102
}
330
2A
100
AcDbVisualStyle
  2
Wireframe
 70
     5
177
     2
291
     0
 71
     0
176
     1
 72
     2
176
     1
 73
     0
176
     1
 90
        0
176
     1
 40
0.6
176
     1
 41
30.0
176
     1
 62
     5
 63
     7
421
 16777215
176
     1
 74
     1
176
     1
 91
        4
176
     1
 64
     7
176
     1
 65
   257
176
     1
 75
     1
176
     1
175
     1
176
     1
 42
1.0
176
     1
 92
        0
176
     1
 66
   257
176
     1
 43
1.0
176
     1
 76
     1
176
     1
 77
     6
176
     1
 78
     2
176
     1
 67
     7
176
     1
 79
     3
176
     1
170
     0
176
     1
171
     0
176
     1
290
     0
176
     1
 93
        1
176
     1
 44
0.0
176
     1
173
     0
176
     1
  0
VISUALSTYLE
  5
40
102
{ACAD_REACTORS
330
2A
102
}
102
{ACAD_XDICTIONARY
360
1EE
102
}
330
2A
100
AcDbVisualStyle
  2
X-Ray
 70
    25
177
     2
291
     0
 71
     2
176
     1
 72
     2
176
     1
 73
     1
176
     1
 90
        1
176
     1
 40
0.5
176
     1
 41
30.0
176
     1
 62
     5
 63
     7
421
 16777215
176
     1
 74
     1
176
     1
 91
        0
176
     1
 64
     7
176
     1
 65
   257
176
     1
 75
     1
176
     1
175
     1
176
     1
 42
1.0
176
     1
 92
        8
176
     1
 66
     7
176
     1
 43
1.0
176
     1
 76
     1
176
     1
 77
     6
176
     1
 78
     2
176
     1
 67
     7
176
     1
 79
     3
176
     1
170
     0
176
     1
171
     0
176
     1
290
     0
176
     1
 93
       13
176
     1
 44
0.0
176
     1
173
     0
176
     1
  0
DICTIONARYVAR
  5
1C3
102
{ACAD_REACTORS
330
1C2
102
}
330
1C2
100
DictionaryVariables
280
     0
  1
1:1
  0
DICTIONARYVAR
  5
1F8
102
{ACAD_REACTORS
330
1C2
102
}
330
1C2
100
DictionaryVariables
280
     0
  1
Standard
  0
DICTIONARYVAR
  5
1F7
102
{ACAD_REACTORS
330
1C2
102
}
330
1C2
100
DictionaryVariables
280
     0
  1
Standard
  0
DICTIONARY
  5
1F4
330
6A
100
AcDbDictionary
280
     1
281
     1
  3
ACAD_ROUNDTRIP_2008_TABLESTYLE_CELLSTYLEMAP
360
1F5
  0
DICTIONARY
  5
1CC
330
2F
100
AcDbDictionary
280
     1
281
     1
  3
ACAD_XREC_ROUNDTRIP
360
1CD
  0
DICTIONARY
  5
1D2
330
32
100
AcDbDictionary
280
     1
281
     1
  3
ACAD_XREC_ROUNDTRIP
360
1D3
  0
DICTIONARY
  5
1DA
330
36
100
AcDbDictionary
280
     1
281
     1
  3
ACAD_XREC_ROUNDTRIP
360
1DB
  0
DICTIONARY
  5
1E2
330
3A
100
AcDbDictionary
280
     1
281
     1
  3
ACAD_XREC_ROUNDTRIP
360
1E3
  0
DICTIONARY
  5
1D6
330
34
100
AcDbDictionary
280
     1
281
     1
  3
ACAD_XREC_ROUNDTRIP
360
1D7
  0
DICTIONARY
  5
1D8
330
35
100
AcDbDictionary
280
     1
281
     1
  3
ACAD_XREC_ROUNDTRIP
360
1D9
  0
DICTIONARY
  5
1E8
330
3D
100
AcDbDictionary
280
     1
281
     1
  3
ACAD_XREC_ROUNDTRIP
360
1E9
  0
DICTIONARY
  5
1E0
330
39
100
AcDbDictionary
280
     1
281
     1
  3
ACAD_XREC_ROUNDTRIP
360
1E1
  0
DICTIONARY
  5
1C4
330
2B
100
AcDbDictionary
280
     1
281
     1
  3
ACAD_XREC_ROUNDTRIP
360
1C5
  0
DICTIONARY
  5
1C6
330
2C
100
AcDbDictionary
280
     1
281
     1
  3
ACAD_XREC_ROUNDTRIP
360
1C7
  0
DICTIONARY
  5
1C8
330
2D
100
AcDbDictionary
280
     1
281
     1
  3
ACAD_XREC_ROUNDTRIP
360
1C9
  0
DICTIONARY
  5
1CA
330
2E
100
AcDbDictionary
280
     1
281
     1
  3
ACAD_XREC_ROUNDTRIP
360
1CB
  0
DICTIONARY
  5
1D0
330
31
100
AcDbDictionary
280
     1
281
     1
  3
ACAD_XREC_ROUNDTRIP
360
1D1
  0
DICTIONARY
  5
1E4
330
3B
100
AcDbDictionary
280
     1
281
     1
  3
ACAD_XREC_ROUNDTRIP
360
1E5
  0
DICTIONARY
  5
1DE
330
38
100
AcDbDictionary
280
     1
281
     1
  3
ACAD_XREC_ROUNDTRIP
360
1DF
  0
DICTIONARY
  5
1E6
330
3C
100
AcDbDictionary
280
     1
281
     1
  3
ACAD_XREC_ROUNDTRIP
360
1E7
  0
DICTIONARY
  5
1D4
330
33
100
AcDbDictionary
280
     1
281
     1
  3
ACAD_XREC_ROUNDTRIP
360
1D5
  0
DICTIONARY
  5
1F2
330
42
100
AcDbDictionary
280
     1
281
     1
  3
ACAD_XREC_ROUNDTRIP
360
1F3
  0
DICTIONARY
  5
1F0
330
41
100
AcDbDictionary
280
     1
281
     1
  3
ACAD_XREC_ROUNDTRIP
360
1F1
  0
DICTIONARY
  5
1EA
330
3E
100
AcDbDictionary
280
     1
281
     1
  3
ACAD_XREC_ROUNDTRIP
360
1EB
  0
DICTIONARY
  5
1EC
330
3F
100
AcDbDictionary
280
     1
281
     1
  3
ACAD_XREC_ROUNDTRIP
360
1ED
  0
DICTIONARY
  5
1DC
330
37
100
AcDbDictionary
280
     1
281
     1
  3
ACAD_XREC_ROUNDTRIP
360
1DD
  0
DICTIONARY
  5
1CE
330
30
100
AcDbDictionary
280
     1
281
     1
  3
ACAD_XREC_ROUNDTRIP
360
1CF
  0
DICTIONARY
  5
1EE
330
40
100
AcDbDictionary
280
     1
281
     1
  3
ACAD_XREC_ROUNDTRIP
360
1EF
  0
CELLSTYLEMAP
  5
1F5
102
{ACAD_REACTORS
330
1F4
102
}
330
1F4
100
AcDbCellStyleMap
 90
        3
300
CELLSTYLE
  1
TABLEFORMAT_BEGIN
 90
        5
170
     1
 91
        0
 92
    32768
 62
   257
 93
        1
300
CONTENTFORMAT
  1
CONTENTFORMAT_BEGIN
 90
        0
 91
        0
 92
        4
 93
        0
300

 40
0.0
140
1.0
 94
        5
 62
     0
340
11
144
6.0
309
CONTENTFORMAT_END
171
     1
301
MARGIN
  1
CELLMARGIN_BEGIN
 40
1.5
 40
1.5
 40
1.5
 40
1.5
 40
1.5
 40
1.5
309
CELLMARGIN_END
 94
        6
 95
        1
302
GRIDFORMAT
  1
GRIDFORMAT_BEGIN
 90
        0
 91
        1
 62
     0
 92
       -2
340
14
 93
        0
 40
0.045
309
GRIDFORMAT_END
 95
        2
302
GRIDFORMAT
  1
GRIDFORMAT_BEGIN
 90
        0
 91
        1
 62
     0
 92
       -2
340
14
 93
        0
 40
0.045
309
GRIDFORMAT_END
 95
        4
302
GRIDFORMAT
  1
GRIDFORMAT_BEGIN
 90
        0
 91
        1
 62
     0
 92
       -2
340
14
 93
        0
 40
0.045
309
GRIDFORMAT_END
 95
        8
302
GRIDFORMAT
  1
GRIDFORMAT_BEGIN
 90
        0
 91
        1
 62
     0
 92
       -2
340
14
 93
        0
 40
0.045
309
GRIDFORMAT_END
 95
       16
302
GRIDFORMAT
  1
GRIDFORMAT_BEGIN
 90
        0
 91
        1
 62
     0
 92
       -2
340
14
 93
        0
 40
0.045
309
GRIDFORMAT_END
 95
       32
302
GRIDFORMAT
  1
GRIDFORMAT_BEGIN
 90
        0
 91
        1
 62
     0
 92
       -2
340
14
 93
        0
 40
0.045
309
GRIDFORMAT_END
309
TABLEFORMAT_END
  1
CELLSTYLE_BEGIN
 90
        1
 91
        1
300
_TITLE
309
CELLSTYLE_END
300
CELLSTYLE
  1
TABLEFORMAT_BEGIN
 90
        5
170
     1
 91
        0
 92
        0
 62
   257
 93
        1
300
CONTENTFORMAT
  1
CONTENTFORMAT_BEGIN
 90
        0
 91
        0
 92
        4
 93
        0
300

 40
0.0
140
1.0
 94
        5
 62
     0
340
11
144
4.5
309
CONTENTFORMAT_END
171
     1
301
MARGIN
  1
CELLMARGIN_BEGIN
 40
1.5
 40
1.5
 40
1.5
 40
1.5
 40
1.5
 40
1.5
309
CELLMARGIN_END
 94
        6
 95
        1
302
GRIDFORMAT
  1
GRIDFORMAT_BEGIN
 90
        0
 91
        1
 62
     0
 92
       -2
340
14
 93
        0
 40
0.045
309
GRIDFORMAT_END
 95
        2
302
GRIDFORMAT
  1
GRIDFORMAT_BEGIN
 90
        0
 91
        1
 62
     0
 92
       -2
340
14
 93
        0
 40
0.045
309
GRIDFORMAT_END
 95
        4
302
GRIDFORMAT
  1
GRIDFORMAT_BEGIN
 90
        0
 91
        1
 62
     0
 92
       -2
340
14
 93
        0
 40
0.045
309
GRIDFORMAT_END
 95
        8
302
GRIDFORMAT
  1
GRIDFORMAT_BEGIN
 90
        0
 91
        1
 62
     0
 92
       -2
340
14
 93
        0
 40
0.045
309
GRIDFORMAT_END
 95
       16
302
GRIDFORMAT
  1
GRIDFORMAT_BEGIN
 90
        0
 91
        1
 62
     0
 92
       -2
340
14
 93
        0
 40
0.045
309
GRIDFORMAT_END
 95
       32
302
GRIDFORMAT
  1
GRIDFORMAT_BEGIN
 90
        0
 91
        1
 62
     0
 92
       -2
340
14
 93
        0
 40
0.045
309
GRIDFORMAT_END
309
TABLEFORMAT_END
  1
CELLSTYLE_BEGIN
 90
        2
 91
        1
300
_HEADER
309
CELLSTYLE_END
300
CELLSTYLE
  1
TABLEFORMAT_BEGIN
 90
        5
170
     1
 91
        0
 92
        0
 62
   257
 93
        1
300
CONTENTFORMAT
  1
CONTENTFORMAT_BEGIN
 90
        0
 91
        0
 92
        4
 93
        0
300

 40
0.0
140
1.0
 94
        2
 62
     0
340
11
144
4.5
309
CONTENTFORMAT_END
171
     1
301
MARGIN
  1
CELLMARGIN_BEGIN
 40
1.5
 40
1.5
 40
1.5
 40
1.5
 40
1.5
 40
1.5
309
CELLMARGIN_END
 94
        6
 95
        1
302
GRIDFORMAT
  1
GRIDFORMAT_BEGIN
 90
        0
 91
        1
 62
     0
 92
       -2
340
14
 93
        0
 40
0.045
309
GRIDFORMAT_END
 95
        2
302
GRIDFORMAT
  1
GRIDFORMAT_BEGIN
 90
        0
 91
        1
 62
     0
 92
       -2
340
14
 93
        0
 40
0.045
309
GRIDFORMAT_END
 95
        4
302
GRIDFORMAT
  1
GRIDFORMAT_BEGIN
 90
        0
 91
        1
 62
     0
 92
       -2
340
14
 93
        0
 40
0.045
309
GRIDFORMAT_END
 95
        8
302
GRIDFORMAT
  1
GRIDFORMAT_BEGIN
 90
        0
 91
        1
 62
     0
 92
       -2
340
14
 93
        0
 40
0.045
309
GRIDFORMAT_END
 95
       16
302
GRIDFORMAT
  1
GRIDFORMAT_BEGIN
 90
        0
 91
        1
 62
     0
 92
       -2
340
14
 93
        0
 40
0.045
309
GRIDFORMAT_END
 95
       32
302
GRIDFORMAT
  1
GRIDFORMAT_BEGIN
 90
        0
 91
        1
 62
     0
 92
       -2
340
14
 93
        0
 40
0.045
309
GRIDFORMAT_END
309
TABLEFORMAT_END
  1
CELLSTYLE_BEGIN
 90
        3
 91
        2
300
_DATA
309
CELLSTYLE_END
  0
XRECORD
  5
1CD
102
{ACAD_REACTORS
330
1CC
102
}
330
1CC
100
AcDbXrecord
280
     1
102
RTVSPost2010Prop28
280
     1
102
RTVSPost2010PropOp28
 70
     1
102
RTVSPost2010Prop29
280
     1
102
RTVSPost2010PropOp29
 70
     1
102
RTVSPost2010Prop30
280
     0
102
RTVSPost2010PropOp30
 70
     1
102
RTVSPost2010Prop31
280
     0
102
RTVSPost2010PropOp31
 70
     1
102
RTVSPost2010Prop32
280
     0
102
RTVSPost2010PropOp32
 70
     1
102
RTVSPost2010Prop33
280
     0
102
RTVSPost2010PropOp33
 70
     1
102
RTVSPost2010Prop34
280
     0
102
RTVSPost2010PropOp34
 70
     1
102
RTVSPost2010Prop35
280
     0
102
RTVSPost2010PropOp35
 70
     1
102
RTVSPost2010Prop36
280
     0
102
RTVSPost2010PropOp36
 70
     1
102
RTVSPost2010Prop37
 90
       50
102
RTVSPost2010PropOp37
 70
     1
102
RTVSPost2010Prop38
140
0.0
102
RTVSPost2010PropOp38
 70
     1
102
RTVSPost2010Prop39
140
1.0
102
RTVSPost2010PropOp39
 70
     1
102
RTVSPost2010Prop40
 90
        0
102
RTVSPost2010PropOp40
 70
     1
102
RTVSPost2010Prop41ColorIndex
 90
       18
102
RTVSPost2010Prop41ColorRGB
 90
        0
102
RTVSPost2010PropOp41
 70
     1
102
RTVSPost2010Prop42
 90
       50
102
RTVSPost2010PropOp42
 70
     1
102
RTVSPost2010Prop43
 90
        3
102
RTVSPost2010PropOp43
 70
     1
102
RTVSPost2010Prop44ColorIndex
 90
        5
102
RTVSPost2010Prop44ColorRGB
 90
      255
102
RTVSPost2010PropOp44
 70
     1
102
RTVSPost2010Prop45
280
     0
102
RTVSPost2010PropOp45
 70
     1
102
RTVSPost2010Prop46
 90
       50
102
RTVSPost2010PropOp46
 70
     1
102
RTVSPost2010Prop47
 90
       50
102
RTVSPost2010PropOp47
 70
     1
102
RTVSPost2010Prop48
 90
       50
102
RTVSPost2010PropOp48
 70
     1
102
RTVSPost2010Prop49
280
     0
102
RTVSPost2010PropOp49
 70
     1
102
RTVSPost2010Prop50
 90
       50
102
RTVSPost2010PropOp50
 70
     1
102
RTVSPost2010Prop51ColorIndex
 90
      256
102
RTVSPost2010Prop51ColorRGB
 90
-16777216
102
RTVSPost2010PropOp51
 70
     0
102
RTVSPost2010Prop52
140
1.0
102
RTVSPost2010PropOp52
 70
     0
102
RTVSPost2010Prop53
 90
        2
102
RTVSPost2010PropOp53
 70
     1
102
RTVSPost2010Prop54
  1
strokes_ogs.tif
102
RTVSPost2010PropOp54
 70
     1
102
RTVSPost2010Prop55
280
     0
102
RTVSPost2010PropOp55
 70
     1
102
RTVSPost2010Prop56
140
1.0
102
RTVSPost2010PropOp56
 70
     1
102
RTVSPost2010Prop57
140
1.0
102
RTVSPost2010PropOp57
 70
     1
  0
XRECORD
  5
1D3
102
{ACAD_REACTORS
330
1D2
102
}
330
1D2
100
AcDbXrecord
280
     1
102
RTVSPost2010Prop28
280
     0
102
RTVSPost2010PropOp28
 70
     1
102
RTVSPost2010Prop29
280
     1
102
RTVSPost2010PropOp29
 70
     1
102
RTVSPost2010Prop30
280
     1
102
RTVSPost2010PropOp30
 70
     1
102
RTVSPost2010Prop31
280
     0
102
RTVSPost2010PropOp31
 70
     1
102
RTVSPost2010Prop32
280
     0
102
RTVSPost2010PropOp32
 70
     1
102
RTVSPost2010Prop33
280
     0
102
RTVSPost2010PropOp33
 70
     1
102
RTVSPost2010Prop34
280
     0
102
RTVSPost2010PropOp34
 70
     1
102
RTVSPost2010Prop35
280
     0
102
RTVSPost2010PropOp35
 70
     1
102
RTVSPost2010Prop36
280
     0
102
RTVSPost2010PropOp36
 70
     1
102
RTVSPost2010Prop37
 90
       50
102
RTVSPost2010PropOp37
 70
     1
102
RTVSPost2010Prop38
140
0.0
102
RTVSPost2010PropOp38
 70
     1
102
RTVSPost2010Prop39
140
1.0
102
RTVSPost2010PropOp39
 70
     1
102
RTVSPost2010Prop40
 90
        0
102
RTVSPost2010PropOp40
 70
     1
102
RTVSPost2010Prop41ColorIndex
 90
       18
102
RTVSPost2010Prop41ColorRGB
 90
        0
102
RTVSPost2010PropOp41
 70
     1
102
RTVSPost2010Prop42
 90
       50
102
RTVSPost2010PropOp42
 70
     1
102
RTVSPost2010Prop43
 90
        3
102
RTVSPost2010PropOp43
 70
     1
102
RTVSPost2010Prop44ColorIndex
 90
        5
102
RTVSPost2010Prop44ColorRGB
 90
      255
102
RTVSPost2010PropOp44
 70
     1
102
RTVSPost2010Prop45
280
     0
102
RTVSPost2010PropOp45
 70
     1
102
RTVSPost2010Prop46
 90
       50
102
RTVSPost2010PropOp46
 70
     1
102
RTVSPost2010Prop47
 90
       50
102
RTVSPost2010PropOp47
 70
     1
102
RTVSPost2010Prop48
 90
       50
102
RTVSPost2010PropOp48
 70
     1
102
RTVSPost2010Prop49
280
     0
102
RTVSPost2010PropOp49
 70
     1
102
RTVSPost2010Prop50
 90
       50
102
RTVSPost2010PropOp50
 70
     1
102
RTVSPost2010Prop51ColorIndex
 90
      256
102
RTVSPost2010Prop51ColorRGB
 90
-16777216
102
RTVSPost2010PropOp51
 70
     0
102
RTVSPost2010Prop52
140
1.0
102
RTVSPost2010PropOp52
 70
     0
102
RTVSPost2010Prop53
 90
        2
102
RTVSPost2010PropOp53
 70
     1
102
RTVSPost2010Prop54
  1
strokes_ogs.tif
102
RTVSPost2010PropOp54
 70
     1
102
RTVSPost2010Prop55
280
     0
102
RTVSPost2010PropOp55
 70
     1
102
RTVSPost2010Prop56
140
1.0
102
RTVSPost2010PropOp56
 70
     1
102
RTVSPost2010Prop57
140
1.0
102
RTVSPost2010PropOp57
 70
     1
  0
XRECORD
  5
1DB
102
{ACAD_REACTORS
330
1DA
102
}
330
1DA
100
AcDbXrecord
280
     1
102
RTVSPost2010Prop28
280
     0
102
RTVSPost2010PropOp28
 70
     1
102
RTVSPost2010Prop29
280
     1
102
RTVSPost2010PropOp29
 70
     1
102
RTVSPost2010Prop30
280
     1
102
RTVSPost2010PropOp30
 70
     1
102
RTVSPost2010Prop31
280
     0
102
RTVSPost2010PropOp31
 70
     1
102
RTVSPost2010Prop32
280
     0
102
RTVSPost2010PropOp32
 70
     1
102
RTVSPost2010Prop33
280
     0
102
RTVSPost2010PropOp33
 70
     1
102
RTVSPost2010Prop34
280
     0
102
RTVSPost2010PropOp34
 70
     1
102
RTVSPost2010Prop35
280
     0
102
RTVSPost2010PropOp35
 70
     1
102
RTVSPost2010Prop36
280
     0
102
RTVSPost2010PropOp36
 70
     1
102
RTVSPost2010Prop37
 90
       50
102
RTVSPost2010PropOp37
 70
     1
102
RTVSPost2010Prop38
140
0.0
102
RTVSPost2010PropOp38
 70
     1
102
RTVSPost2010Prop39
140
1.0
102
RTVSPost2010PropOp39
 70
     1
102
RTVSPost2010Prop40
 90
        0
102
RTVSPost2010PropOp40
 70
     1
102
RTVSPost2010Prop41ColorIndex
 90
       18
102
RTVSPost2010Prop41ColorRGB
 90
        0
102
RTVSPost2010PropOp41
 70
     1
102
RTVSPost2010Prop42
 90
       50
102
RTVSPost2010PropOp42
 70
     1
102
RTVSPost2010Prop43
 90
        3
102
RTVSPost2010PropOp43
 70
     1
102
RTVSPost2010Prop44ColorIndex
 90
        5
102
RTVSPost2010Prop44ColorRGB
 90
      255
102
RTVSPost2010PropOp44
 70
     1
102
RTVSPost2010Prop45
280
     0
102
RTVSPost2010PropOp45
 70
     1
102
RTVSPost2010Prop46
 90
       50
102
RTVSPost2010PropOp46
 70
     1
102
RTVSPost2010Prop47
 90
       50
102
RTVSPost2010PropOp47
 70
     1
102
RTVSPost2010Prop48
 90
       50
102
RTVSPost2010PropOp48
 70
     1
102
RTVSPost2010Prop49
280
     0
102
RTVSPost2010PropOp49
 70
     1
102
RTVSPost2010Prop50
 90
       50
102
RTVSPost2010PropOp50
 70
     1
102
RTVSPost2010Prop51ColorIndex
 90
      256
102
RTVSPost2010Prop51ColorRGB
 90
-16777216
102
RTVSPost2010PropOp51
 70
     0
102
RTVSPost2010Prop52
140
1.0
102
RTVSPost2010PropOp52
 70
     0
102
RTVSPost2010Prop53
 90
        2
102
RTVSPost2010PropOp53
 70
     1
102
RTVSPost2010Prop54
  1
strokes_ogs.tif
102
RTVSPost2010PropOp54
 70
     1
102
RTVSPost2010Prop55
280
     0
102
RTVSPost2010PropOp55
 70
     1
102
RTVSPost2010Prop56
140
1.0
102
RTVSPost2010PropOp56
 70
     1
102
RTVSPost2010Prop57
140
1.0
102
RTVSPost2010PropOp57
 70
     1
  0
XRECORD
  5
1E3
102
{ACAD_REACTORS
330
1E2
102
}
330
1E2
100
AcDbXrecord
280
     1
102
RTVSPost2010Prop28
280
     0
102
RTVSPost2010PropOp28
 70
     1
102
RTVSPost2010Prop29
280
     1
102
RTVSPost2010PropOp29
 70
     1
102
RTVSPost2010Prop30
280
     1
102
RTVSPost2010PropOp30
 70
     1
102
RTVSPost2010Prop31
280
     0
102
RTVSPost2010PropOp31
 70
     1
102
RTVSPost2010Prop32
280
     0
102
RTVSPost2010PropOp32
 70
     1
102
RTVSPost2010Prop33
280
     0
102
RTVSPost2010PropOp33
 70
     1
102
RTVSPost2010Prop34
280
     0
102
RTVSPost2010PropOp34
 70
     1
102
RTVSPost2010Prop35
280
     0
102
RTVSPost2010PropOp35
 70
     1
102
RTVSPost2010Prop36
280
     0
102
RTVSPost2010PropOp36
 70
     1
102
RTVSPost2010Prop37
 90
       50
102
RTVSPost2010PropOp37
 70
     1
102
RTVSPost2010Prop38
140
0.0
102
RTVSPost2010PropOp38
 70
     1
102
RTVSPost2010Prop39
140
1.0
102
RTVSPost2010PropOp39
 70
     1
102
RTVSPost2010Prop40
 90
        0
102
RTVSPost2010PropOp40
 70
     1
102
RTVSPost2010Prop41ColorIndex
 90
       18
102
RTVSPost2010Prop41ColorRGB
 90
        0
102
RTVSPost2010PropOp41
 70
     1
102
RTVSPost2010Prop42
 90
       50
102
RTVSPost2010PropOp42
 70
     1
102
RTVSPost2010Prop43
 90
        3
102
RTVSPost2010PropOp43
 70
     1
102
RTVSPost2010Prop44ColorIndex
 90
        5
102
RTVSPost2010Prop44ColorRGB
 90
      255
102
RTVSPost2010PropOp44
 70
     1
102
RTVSPost2010Prop45
280
     0
102
RTVSPost2010PropOp45
 70
     1
102
RTVSPost2010Prop46
 90
       50
102
RTVSPost2010PropOp46
 70
     1
102
RTVSPost2010Prop47
 90
       50
102
RTVSPost2010PropOp47
 70
     1
102
RTVSPost2010Prop48
 90
       50
102
RTVSPost2010PropOp48
 70
     1
102
RTVSPost2010Prop49
280
     0
102
RTVSPost2010PropOp49
 70
     1
102
RTVSPost2010Prop50
 90
       50
102
RTVSPost2010PropOp50
 70
     1
102
RTVSPost2010Prop51ColorIndex
 90
      256
102
RTVSPost2010Prop51ColorRGB
 90
-16777216
102
RTVSPost2010PropOp51
 70
     0
102
RTVSPost2010Prop52
140
1.0
102
RTVSPost2010PropOp52
 70
     0
102
RTVSPost2010Prop53
 90
        2
102
RTVSPost2010PropOp53
 70
     1
102
RTVSPost2010Prop54
  1
strokes_ogs.tif
102
RTVSPost2010PropOp54
 70
     1
102
RTVSPost2010Prop55
280
     0
102
RTVSPost2010PropOp55
 70
     1
102
RTVSPost2010Prop56
140
1.0
102
RTVSPost2010PropOp56
 70
     1
102
RTVSPost2010Prop57
140
1.0
102
RTVSPost2010PropOp57
 70
     1
  0
XRECORD
  5
1D7
102
{ACAD_REACTORS
330
1D6
102
}
330
1D6
100
AcDbXrecord
280
     1
102
RTVSPost2010Prop28
280
     0
102
RTVSPost2010PropOp28
 70
     1
102
RTVSPost2010Prop29
280
     1
102
RTVSPost2010PropOp29
 70
     1
102
RTVSPost2010Prop30
280
     1
102
RTVSPost2010PropOp30
 70
     1
102
RTVSPost2010Prop31
280
     0
102
RTVSPost2010PropOp31
 70
     1
102
RTVSPost2010Prop32
280
     0
102
RTVSPost2010PropOp32
 70
     1
102
RTVSPost2010Prop33
280
     0
102
RTVSPost2010PropOp33
 70
     1
102
RTVSPost2010Prop34
280
     0
102
RTVSPost2010PropOp34
 70
     1
102
RTVSPost2010Prop35
280
     0
102
RTVSPost2010PropOp35
 70
     1
102
RTVSPost2010Prop36
280
     0
102
RTVSPost2010PropOp36
 70
     1
102
RTVSPost2010Prop37
 90
       50
102
RTVSPost2010PropOp37
 70
     1
102
RTVSPost2010Prop38
140
0.0
102
RTVSPost2010PropOp38
 70
     1
102
RTVSPost2010Prop39
140
1.0
102
RTVSPost2010PropOp39
 70
     1
102
RTVSPost2010Prop40
 90
        0
102
RTVSPost2010PropOp40
 70
     1
102
RTVSPost2010Prop41ColorIndex
 90
       18
102
RTVSPost2010Prop41ColorRGB
 90
        0
102
RTVSPost2010PropOp41
 70
     1
102
RTVSPost2010Prop42
 90
       50
102
RTVSPost2010PropOp42
 70
     1
102
RTVSPost2010Prop43
 90
        3
102
RTVSPost2010PropOp43
 70
     1
102
RTVSPost2010Prop44ColorIndex
 90
        5
102
RTVSPost2010Prop44ColorRGB
 90
      255
102
RTVSPost2010PropOp44
 70
     1
102
RTVSPost2010Prop45
280
     0
102
RTVSPost2010PropOp45
 70
     1
102
RTVSPost2010Prop46
 90
       50
102
RTVSPost2010PropOp46
 70
     1
102
RTVSPost2010Prop47
 90
       50
102
RTVSPost2010PropOp47
 70
     1
102
RTVSPost2010Prop48
 90
       50
102
RTVSPost2010PropOp48
 70
     1
102
RTVSPost2010Prop49
280
     0
102
RTVSPost2010PropOp49
 70
     1
102
RTVSPost2010Prop50
 90
       50
102
RTVSPost2010PropOp50
 70
     1
102
RTVSPost2010Prop51ColorIndex
 90
      256
102
RTVSPost2010Prop51ColorRGB
 90
-16777216
102
RTVSPost2010PropOp51
 70
     0
102
RTVSPost2010Prop52
140
1.0
102
RTVSPost2010PropOp52
 70
     0
102
RTVSPost2010Prop53
 90
        2
102
RTVSPost2010PropOp53
 70
     1
102
RTVSPost2010Prop54
  1
strokes_ogs.tif
102
RTVSPost2010PropOp54
 70
     1
102
RTVSPost2010Prop55
280
     0
102
RTVSPost2010PropOp55
 70
     1
102
RTVSPost2010Prop56
140
1.0
102
RTVSPost2010PropOp56
 70
     1
102
RTVSPost2010Prop57
140
1.0
102
RTVSPost2010PropOp57
 70
     1
  0
XRECORD
  5
1D9
102
{ACAD_REACTORS
330
1D8
102
}
330
1D8
100
AcDbXrecord
280
     1
102
RTVSPost2010Prop28
280
     0
102
RTVSPost2010PropOp28
 70
     1
102
RTVSPost2010Prop29
280
     1
102
RTVSPost2010PropOp29
 70
     1
102
RTVSPost2010Prop30
280
     1
102
RTVSPost2010PropOp30
 70
     1
102
RTVSPost2010Prop31
280
     0
102
RTVSPost2010PropOp31
 70
     1
102
RTVSPost2010Prop32
280
     0
102
RTVSPost2010PropOp32
 70
     1
102
RTVSPost2010Prop33
280
     0
102
RTVSPost2010PropOp33
 70
     1
102
RTVSPost2010Prop34
280
     0
102
RTVSPost2010PropOp34
 70
     1
102
RTVSPost2010Prop35
280
     0
102
RTVSPost2010PropOp35
 70
     1
102
RTVSPost2010Prop36
280
     0
102
RTVSPost2010PropOp36
 70
     1
102
RTVSPost2010Prop37
 90
       50
102
RTVSPost2010PropOp37
 70
     1
102
RTVSPost2010Prop38
140
0.0
102
RTVSPost2010PropOp38
 70
     1
102
RTVSPost2010Prop39
140
1.0
102
RTVSPost2010PropOp39
 70
     1
102
RTVSPost2010Prop40
 90
        0
102
RTVSPost2010PropOp40
 70
     1
102
RTVSPost2010Prop41ColorIndex
 90
       18
102
RTVSPost2010Prop41ColorRGB
 90
        0
102
RTVSPost2010PropOp41
 70
     1
102
RTVSPost2010Prop42
 90
       50
102
RTVSPost2010PropOp42
 70
     1
102
RTVSPost2010Prop43
 90
        3
102
RTVSPost2010PropOp43
 70
     1
102
RTVSPost2010Prop44ColorIndex
 90
        5
102
RTVSPost2010Prop44ColorRGB
 90
      255
102
RTVSPost2010PropOp44
 70
     1
102
RTVSPost2010Prop45
280
     0
102
RTVSPost2010PropOp45
 70
     1
102
RTVSPost2010Prop46
 90
       50
102
RTVSPost2010PropOp46
 70
     1
102
RTVSPost2010Prop47
 90
       50
102
RTVSPost2010PropOp47
 70
     1
102
RTVSPost2010Prop48
 90
       50
102
RTVSPost2010PropOp48
 70
     1
102
RTVSPost2010Prop49
280
     0
102
RTVSPost2010PropOp49
 70
     1
102
RTVSPost2010Prop50
 90
       50
102
RTVSPost2010PropOp50
 70
     1
102
RTVSPost2010Prop51ColorIndex
 90
      256
102
RTVSPost2010Prop51ColorRGB
 90
-16777216
102
RTVSPost2010PropOp51
 70
     0
102
RTVSPost2010Prop52
140
1.0
102
RTVSPost2010PropOp52
 70
     0
102
RTVSPost2010Prop53
 90
        2
102
RTVSPost2010PropOp53
 70
     1
102
RTVSPost2010Prop54
  1
strokes_ogs.tif
102
RTVSPost2010PropOp54
 70
     1
102
RTVSPost2010Prop55
280
     0
102
RTVSPost2010PropOp55
 70
     1
102
RTVSPost2010Prop56
140
1.0
102
RTVSPost2010PropOp56
 70
     1
102
RTVSPost2010Prop57
140
1.0
102
RTVSPost2010PropOp57
 70
     1
  0
XRECORD
  5
1E9
102
{ACAD_REACTORS
330
1E8
102
}
330
1E8
100
AcDbXrecord
280
     1
102
RTVSPost2010Prop28
280
     0
102
RTVSPost2010PropOp28
 70
     0
102
RTVSPost2010Prop29
280
     1
102
RTVSPost2010PropOp29
 70
     0
102
RTVSPost2010Prop30
280
     1
102
RTVSPost2010PropOp30
 70
     0
102
RTVSPost2010Prop31
280
     0
102
RTVSPost2010PropOp31
 70
     0
102
RTVSPost2010Prop32
280
     0
102
RTVSPost2010PropOp32
 70
     0
102
RTVSPost2010Prop33
280
     0
102
RTVSPost2010PropOp33
 70
     0
102
RTVSPost2010Prop34
280
     0
102
RTVSPost2010PropOp34
 70
     0
102
RTVSPost2010Prop35
280
     0
102
RTVSPost2010PropOp35
 70
     0
102
RTVSPost2010Prop36
280
     0
102
RTVSPost2010PropOp36
 70
     0
102
RTVSPost2010Prop37
 90
       50
102
RTVSPost2010PropOp37
 70
     0
102
RTVSPost2010Prop38
140
0.0
102
RTVSPost2010PropOp38
 70
     0
102
RTVSPost2010Prop39
140
1.0
102
RTVSPost2010PropOp39
 70
     0
102
RTVSPost2010Prop40
 90
        0
102
RTVSPost2010PropOp40
 70
     0
102
RTVSPost2010Prop41ColorIndex
 90
       18
102
RTVSPost2010Prop41ColorRGB
 90
        0
102
RTVSPost2010PropOp41
 70
     0
102
RTVSPost2010Prop42
 90
       50
102
RTVSPost2010PropOp42
 70
     0
102
RTVSPost2010Prop43
 90
        3
102
RTVSPost2010PropOp43
 70
     0
102
RTVSPost2010Prop44ColorIndex
 90
        5
102
RTVSPost2010Prop44ColorRGB
 90
      255
102
RTVSPost2010PropOp44
 70
     0
102
RTVSPost2010Prop45
280
     0
102
RTVSPost2010PropOp45
 70
     0
102
RTVSPost2010Prop46
 90
       50
102
RTVSPost2010PropOp46
 70
     0
102
RTVSPost2010Prop47
 90
       50
102
RTVSPost2010PropOp47
 70
     0
102
RTVSPost2010Prop48
 90
       50
102
RTVSPost2010PropOp48
 70
     0
102
RTVSPost2010Prop49
280
     0
102
RTVSPost2010PropOp49
 70
     0
102
RTVSPost2010Prop50
 90
       50
102
RTVSPost2010PropOp50
 70
     0
102
RTVSPost2010Prop51ColorIndex
 90
      256
102
RTVSPost2010Prop51ColorRGB
 90
-16777216
102
RTVSPost2010PropOp51
 70
     0
102
RTVSPost2010Prop52
140
1.0
102
RTVSPost2010PropOp52
 70
     0
102
RTVSPost2010Prop53
 90
        2
102
RTVSPost2010PropOp53
 70
     0
102
RTVSPost2010Prop54
  1
strokes_ogs.tif
102
RTVSPost2010PropOp54
 70
     0
102
RTVSPost2010Prop55
280
     0
102
RTVSPost2010PropOp55
 70
     0
102
RTVSPost2010Prop56
140
1.0
102
RTVSPost2010PropOp56
 70
     0
102
RTVSPost2010Prop57
140
1.0
102
RTVSPost2010PropOp57
 70
     0
  0
XRECORD
  5
1E1
102
{ACAD_REACTORS
330
1E0
102
}
330
1E0
100
AcDbXrecord
280
     1
102
RTVSPost2010Prop28
280
     0
102
RTVSPost2010PropOp28
 70
     1
102
RTVSPost2010Prop29
280
     1
102
RTVSPost2010PropOp29
 70
     1
102
RTVSPost2010Prop30
280
     1
102
RTVSPost2010PropOp30
 70
     1
102
RTVSPost2010Prop31
280
     0
102
RTVSPost2010PropOp31
 70
     1
102
RTVSPost2010Prop32
280
     0
102
RTVSPost2010PropOp32
 70
     1
102
RTVSPost2010Prop33
280
     0
102
RTVSPost2010PropOp33
 70
     1
102
RTVSPost2010Prop34
280
     0
102
RTVSPost2010PropOp34
 70
     1
102
RTVSPost2010Prop35
280
     0
102
RTVSPost2010PropOp35
 70
     1
102
RTVSPost2010Prop36
280
     0
102
RTVSPost2010PropOp36
 70
     1
102
RTVSPost2010Prop37
 90
       50
102
RTVSPost2010PropOp37
 70
     1
102
RTVSPost2010Prop38
140
0.0
102
RTVSPost2010PropOp38
 70
     1
102
RTVSPost2010Prop39
140
1.0
102
RTVSPost2010PropOp39
 70
     1
102
RTVSPost2010Prop40
 90
        0
102
RTVSPost2010PropOp40
 70
     1
102
RTVSPost2010Prop41ColorIndex
 90
       18
102
RTVSPost2010Prop41ColorRGB
 90
        0
102
RTVSPost2010PropOp41
 70
     1
102
RTVSPost2010Prop42
 90
       50
102
RTVSPost2010PropOp42
 70
     1
102
RTVSPost2010Prop43
 90
        3
102
RTVSPost2010PropOp43
 70
     1
102
RTVSPost2010Prop44ColorIndex
 90
        5
102
RTVSPost2010Prop44ColorRGB
 90
      255
102
RTVSPost2010PropOp44
 70
     1
102
RTVSPost2010Prop45
280
     0
102
RTVSPost2010PropOp45
 70
     1
102
RTVSPost2010Prop46
 90
       50
102
RTVSPost2010PropOp46
 70
     1
102
RTVSPost2010Prop47
 90
       50
102
RTVSPost2010PropOp47
 70
     1
102
RTVSPost2010Prop48
 90
       50
102
RTVSPost2010PropOp48
 70
     1
102
RTVSPost2010Prop49
280
     0
102
RTVSPost2010PropOp49
 70
     1
102
RTVSPost2010Prop50
 90
       50
102
RTVSPost2010PropOp50
 70
     1
102
RTVSPost2010Prop51ColorIndex
 90
      256
102
RTVSPost2010Prop51ColorRGB
 90
-16777216
102
RTVSPost2010PropOp51
 70
     0
102
RTVSPost2010Prop52
140
1.0
102
RTVSPost2010PropOp52
 70
     0
102
RTVSPost2010Prop53
 90
        2
102
RTVSPost2010PropOp53
 70
     1
102
RTVSPost2010Prop54
  1
strokes_ogs.tif
102
RTVSPost2010PropOp54
 70
     1
102
RTVSPost2010Prop55
280
     0
102
RTVSPost2010PropOp55
 70
     1
102
RTVSPost2010Prop56
140
1.0
102
RTVSPost2010PropOp56
 70
     1
102
RTVSPost2010Prop57
140
1.0
102
RTVSPost2010PropOp57
 70
     1
  0
XRECORD
  5
1C5
102
{ACAD_REACTORS
330
1C4
102
}
330
1C4
100
AcDbXrecord
280
     1
102
RTVSPost2010Prop28
280
     0
102
RTVSPost2010PropOp28
 70
     1
102
RTVSPost2010Prop29
280
     1
102
RTVSPost2010PropOp29
 70
     1
102
RTVSPost2010Prop30
280
     1
102
RTVSPost2010PropOp30
 70
     1
102
RTVSPost2010Prop31
280
     0
102
RTVSPost2010PropOp31
 70
     1
102
RTVSPost2010Prop32
280
     0
102
RTVSPost2010PropOp32
 70
     1
102
RTVSPost2010Prop33
280
     0
102
RTVSPost2010PropOp33
 70
     1
102
RTVSPost2010Prop34
280
     0
102
RTVSPost2010PropOp34
 70
     1
102
RTVSPost2010Prop35
280
     0
102
RTVSPost2010PropOp35
 70
     1
102
RTVSPost2010Prop36
280
     0
102
RTVSPost2010PropOp36
 70
     1
102
RTVSPost2010Prop37
 90
       50
102
RTVSPost2010PropOp37
 70
     1
102
RTVSPost2010Prop38
140
0.0
102
RTVSPost2010PropOp38
 70
     1
102
RTVSPost2010Prop39
140
1.0
102
RTVSPost2010PropOp39
 70
     1
102
RTVSPost2010Prop40
 90
        0
102
RTVSPost2010PropOp40
 70
     1
102
RTVSPost2010Prop41ColorIndex
 90
       18
102
RTVSPost2010Prop41ColorRGB
 90
        0
102
RTVSPost2010PropOp41
 70
     1
102
RTVSPost2010Prop42
 90
       50
102
RTVSPost2010PropOp42
 70
     1
102
RTVSPost2010Prop43
 90
        3
102
RTVSPost2010PropOp43
 70
     1
102
RTVSPost2010Prop44ColorIndex
 90
        5
102
RTVSPost2010Prop44ColorRGB
 90
      255
102
RTVSPost2010PropOp44
 70
     1
102
RTVSPost2010Prop45
280
     0
102
RTVSPost2010PropOp45
 70
     1
102
RTVSPost2010Prop46
 90
       50
102
RTVSPost2010PropOp46
 70
     1
102
RTVSPost2010Prop47
 90
       50
102
RTVSPost2010PropOp47
 70
     1
102
RTVSPost2010Prop48
 90
       50
102
RTVSPost2010PropOp48
 70
     1
102
RTVSPost2010Prop49
280
     0
102
RTVSPost2010PropOp49
 70
     1
102
RTVSPost2010Prop50
 90
       50
102
RTVSPost2010PropOp50
 70
     1
102
RTVSPost2010Prop51ColorIndex
 90
      256
102
RTVSPost2010Prop51ColorRGB
 90
-16777216
102
RTVSPost2010PropOp51
 70
     0
102
RTVSPost2010Prop52
140
1.0
102
RTVSPost2010PropOp52
 70
     0
102
RTVSPost2010Prop53
 90
        2
102
RTVSPost2010PropOp53
 70
     1
102
RTVSPost2010Prop54
  1
strokes_ogs.tif
102
RTVSPost2010PropOp54
 70
     1
102
RTVSPost2010Prop55
280
     0
102
RTVSPost2010PropOp55
 70
     1
102
RTVSPost2010Prop56
140
1.0
102
RTVSPost2010PropOp56
 70
     1
102
RTVSPost2010Prop57
140
1.0
102
RTVSPost2010PropOp57
 70
     1
  0
XRECORD
  5
1C7
102
{ACAD_REACTORS
330
1C6
102
}
330
1C6
100
AcDbXrecord
280
     1
102
RTVSPost2010Prop28
280
     0
102
RTVSPost2010PropOp28
 70
     1
102
RTVSPost2010Prop29
280
     1
102
RTVSPost2010PropOp29
 70
     1
102
RTVSPost2010Prop30
280
     1
102
RTVSPost2010PropOp30
 70
     1
102
RTVSPost2010Prop31
280
     0
102
RTVSPost2010PropOp31
 70
     1
102
RTVSPost2010Prop32
280
     0
102
RTVSPost2010PropOp32
 70
     1
102
RTVSPost2010Prop33
280
     0
102
RTVSPost2010PropOp33
 70
     1
102
RTVSPost2010Prop34
280
     0
102
RTVSPost2010PropOp34
 70
     1
102
RTVSPost2010Prop35
280
     0
102
RTVSPost2010PropOp35
 70
     1
102
RTVSPost2010Prop36
280
     0
102
RTVSPost2010PropOp36
 70
     1
102
RTVSPost2010Prop37
 90
       50
102
RTVSPost2010PropOp37
 70
     1
102
RTVSPost2010Prop38
140
0.0
102
RTVSPost2010PropOp38
 70
     1
102
RTVSPost2010Prop39
140
1.0
102
RTVSPost2010PropOp39
 70
     1
102
RTVSPost2010Prop40
 90
        0
102
RTVSPost2010PropOp40
 70
     1
102
RTVSPost2010Prop41ColorIndex
 90
       18
102
RTVSPost2010Prop41ColorRGB
 90
        0
102
RTVSPost2010PropOp41
 70
     1
102
RTVSPost2010Prop42
 90
       50
102
RTVSPost2010PropOp42
 70
     1
102
RTVSPost2010Prop43
 90
        3
102
RTVSPost2010PropOp43
 70
     1
102
RTVSPost2010Prop44ColorIndex
 90
        5
102
RTVSPost2010Prop44ColorRGB
 90
      255
102
RTVSPost2010PropOp44
 70
     1
102
RTVSPost2010Prop45
280
     0
102
RTVSPost2010PropOp45
 70
     1
102
RTVSPost2010Prop46
 90
       50
102
RTVSPost2010PropOp46
 70
     1
102
RTVSPost2010Prop47
 90
       50
102
RTVSPost2010PropOp47
 70
     1
102
RTVSPost2010Prop48
 90
       50
102
RTVSPost2010PropOp48
 70
     1
102
RTVSPost2010Prop49
280
     0
102
RTVSPost2010PropOp49
 70
     1
102
RTVSPost2010Prop50
 90
       50
102
RTVSPost2010PropOp50
 70
     1
102
RTVSPost2010Prop51ColorIndex
 90
      256
102
RTVSPost2010Prop51ColorRGB
 90
-16777216
102
RTVSPost2010PropOp51
 70
     0
102
RTVSPost2010Prop52
140
1.0
102
RTVSPost2010PropOp52
 70
     0
102
RTVSPost2010Prop53
 90
        2
102
RTVSPost2010PropOp53
 70
     1
102
RTVSPost2010Prop54
  1
strokes_ogs.tif
102
RTVSPost2010PropOp54
 70
     1
102
RTVSPost2010Prop55
280
     0
102
RTVSPost2010PropOp55
 70
     1
102
RTVSPost2010Prop56
140
1.0
102
RTVSPost2010PropOp56
 70
     1
102
RTVSPost2010Prop57
140
1.0
102
RTVSPost2010PropOp57
 70
     1
  0
XRECORD
  5
1C9
102
{ACAD_REACTORS
330
1C8
102
}
330
1C8
100
AcDbXrecord
280
     1
102
RTVSPost2010Prop28
280
     0
102
RTVSPost2010PropOp28
 70
     1
102
RTVSPost2010Prop29
280
     1
102
RTVSPost2010PropOp29
 70
     1
102
RTVSPost2010Prop30
280
     1
102
RTVSPost2010PropOp30
 70
     1
102
RTVSPost2010Prop31
280
     0
102
RTVSPost2010PropOp31
 70
     1
102
RTVSPost2010Prop32
280
     0
102
RTVSPost2010PropOp32
 70
     1
102
RTVSPost2010Prop33
280
     0
102
RTVSPost2010PropOp33
 70
     1
102
RTVSPost2010Prop34
280
     0
102
RTVSPost2010PropOp34
 70
     1
102
RTVSPost2010Prop35
280
     0
102
RTVSPost2010PropOp35
 70
     1
102
RTVSPost2010Prop36
280
     0
102
RTVSPost2010PropOp36
 70
     1
102
RTVSPost2010Prop37
 90
       50
102
RTVSPost2010PropOp37
 70
     1
102
RTVSPost2010Prop38
140
0.0
102
RTVSPost2010PropOp38
 70
     1
102
RTVSPost2010Prop39
140
1.0
102
RTVSPost2010PropOp39
 70
     1
102
RTVSPost2010Prop40
 90
        0
102
RTVSPost2010PropOp40
 70
     1
102
RTVSPost2010Prop41ColorIndex
 90
       18
102
RTVSPost2010Prop41ColorRGB
 90
        0
102
RTVSPost2010PropOp41
 70
     1
102
RTVSPost2010Prop42
 90
       50
102
RTVSPost2010PropOp42
 70
     1
102
RTVSPost2010Prop43
 90
        3
102
RTVSPost2010PropOp43
 70
     1
102
RTVSPost2010Prop44ColorIndex
 90
        5
102
RTVSPost2010Prop44ColorRGB
 90
      255
102
RTVSPost2010PropOp44
 70
     1
102
RTVSPost2010Prop45
280
     0
102
RTVSPost2010PropOp45
 70
     1
102
RTVSPost2010Prop46
 90
       50
102
RTVSPost2010PropOp46
 70
     1
102
RTVSPost2010Prop47
 90
       50
102
RTVSPost2010PropOp47
 70
     1
102
RTVSPost2010Prop48
 90
       50
102
RTVSPost2010PropOp48
 70
     1
102
RTVSPost2010Prop49
280
     0
102
RTVSPost2010PropOp49
 70
     1
102
RTVSPost2010Prop50
 90
       50
102
RTVSPost2010PropOp50
 70
     1
102
RTVSPost2010Prop51ColorIndex
 90
      256
102
RTVSPost2010Prop51ColorRGB
 90
-16777216
102
RTVSPost2010PropOp51
 70
     0
102
RTVSPost2010Prop52
140
1.0
102
RTVSPost2010PropOp52
 70
     0
102
RTVSPost2010Prop53
 90
        2
102
RTVSPost2010PropOp53
 70
     1
102
RTVSPost2010Prop54
  1
strokes_ogs.tif
102
RTVSPost2010PropOp54
 70
     1
102
RTVSPost2010Prop55
280
     0
102
RTVSPost2010PropOp55
 70
     1
102
RTVSPost2010Prop56
140
1.0
102
RTVSPost2010PropOp56
 70
     1
102
RTVSPost2010Prop57
140
1.0
102
RTVSPost2010PropOp57
 70
     1
  0
XRECORD
  5
1CB
102
{ACAD_REACTORS
330
1CA
102
}
330
1CA
100
AcDbXrecord
280
     1
102
RTVSPost2010Prop28
280
     0
102
RTVSPost2010PropOp28
 70
     1
102
RTVSPost2010Prop29
280
     1
102
RTVSPost2010PropOp29
 70
     1
102
RTVSPost2010Prop30
280
     1
102
RTVSPost2010PropOp30
 70
     1
102
RTVSPost2010Prop31
280
     0
102
RTVSPost2010PropOp31
 70
     1
102
RTVSPost2010Prop32
280
     0
102
RTVSPost2010PropOp32
 70
     1
102
RTVSPost2010Prop33
280
     0
102
RTVSPost2010PropOp33
 70
     1
102
RTVSPost2010Prop34
280
     0
102
RTVSPost2010PropOp34
 70
     1
102
RTVSPost2010Prop35
280
     0
102
RTVSPost2010PropOp35
 70
     1
102
RTVSPost2010Prop36
280
     0
102
RTVSPost2010PropOp36
 70
     1
102
RTVSPost2010Prop37
 90
       50
102
RTVSPost2010PropOp37
 70
     1
102
RTVSPost2010Prop38
140
0.0
102
RTVSPost2010PropOp38
 70
     1
102
RTVSPost2010Prop39
140
1.0
102
RTVSPost2010PropOp39
 70
     1
102
RTVSPost2010Prop40
 90
        0
102
RTVSPost2010PropOp40
 70
     1
102
RTVSPost2010Prop41ColorIndex
 90
       18
102
RTVSPost2010Prop41ColorRGB
 90
        0
102
RTVSPost2010PropOp41
 70
     1
102
RTVSPost2010Prop42
 90
       50
102
RTVSPost2010PropOp42
 70
     1
102
RTVSPost2010Prop43
 90
        3
102
RTVSPost2010PropOp43
 70
     1
102
RTVSPost2010Prop44ColorIndex
 90
        5
102
RTVSPost2010Prop44ColorRGB
 90
      255
102
RTVSPost2010PropOp44
 70
     1
102
RTVSPost2010Prop45
280
     0
102
RTVSPost2010PropOp45
 70
     1
102
RTVSPost2010Prop46
 90
       50
102
RTVSPost2010PropOp46
 70
     1
102
RTVSPost2010Prop47
 90
       50
102
RTVSPost2010PropOp47
 70
     1
102
RTVSPost2010Prop48
 90
       50
102
RTVSPost2010PropOp48
 70
     1
102
RTVSPost2010Prop49
280
     0
102
RTVSPost2010PropOp49
 70
     1
102
RTVSPost2010Prop50
 90
       50
102
RTVSPost2010PropOp50
 70
     1
102
RTVSPost2010Prop51ColorIndex
 90
      256
102
RTVSPost2010Prop51ColorRGB
 90
-16777216
102
RTVSPost2010PropOp51
 70
     0
102
RTVSPost2010Prop52
140
1.0
102
RTVSPost2010PropOp52
 70
     0
102
RTVSPost2010Prop53
 90
        2
102
RTVSPost2010PropOp53
 70
     1
102
RTVSPost2010Prop54
  1
strokes_ogs.tif
102
RTVSPost2010PropOp54
 70
     1
102
RTVSPost2010Prop55
280
     0
102
RTVSPost2010PropOp55
 70
     1
102
RTVSPost2010Prop56
140
1.0
102
RTVSPost2010PropOp56
 70
     1
102
RTVSPost2010Prop57
140
1.0
102
RTVSPost2010PropOp57
 70
     1
  0
XRECORD
  5
1D1
102
{ACAD_REACTORS
330
1D0
102
}
330
1D0
100
AcDbXrecord
280
     1
102
RTVSPost2010Prop28
280
     0
102
RTVSPost2010PropOp28
 70
     1
102
RTVSPost2010Prop29
280
     1
102
RTVSPost2010PropOp29
 70
     1
102
RTVSPost2010Prop30
280
     1
102
RTVSPost2010PropOp30
 70
     1
102
RTVSPost2010Prop31
280
     0
102
RTVSPost2010PropOp31
 70
     1
102
RTVSPost2010Prop32
280
     0
102
RTVSPost2010PropOp32
 70
     1
102
RTVSPost2010Prop33
280
     0
102
RTVSPost2010PropOp33
 70
     1
102
RTVSPost2010Prop34
280
     0
102
RTVSPost2010PropOp34
 70
     1
102
RTVSPost2010Prop35
280
     0
102
RTVSPost2010PropOp35
 70
     1
102
RTVSPost2010Prop36
280
     0
102
RTVSPost2010PropOp36
 70
     1
102
RTVSPost2010Prop37
 90
       50
102
RTVSPost2010PropOp37
 70
     1
102
RTVSPost2010Prop38
140
0.0
102
RTVSPost2010PropOp38
 70
     1
102
RTVSPost2010Prop39
140
1.0
102
RTVSPost2010PropOp39
 70
     1
102
RTVSPost2010Prop40
 90
        0
102
RTVSPost2010PropOp40
 70
     1
102
RTVSPost2010Prop41ColorIndex
 90
       18
102
RTVSPost2010Prop41ColorRGB
 90
        0
102
RTVSPost2010PropOp41
 70
     1
102
RTVSPost2010Prop42
 90
       50
102
RTVSPost2010PropOp42
 70
     1
102
RTVSPost2010Prop43
 90
        3
102
RTVSPost2010PropOp43
 70
     1
102
RTVSPost2010Prop44ColorIndex
 90
        5
102
RTVSPost2010Prop44ColorRGB
 90
      255
102
RTVSPost2010PropOp44
 70
     1
102
RTVSPost2010Prop45
280
     0
102
RTVSPost2010PropOp45
 70
     1
102
RTVSPost2010Prop46
 90
       50
102
RTVSPost2010PropOp46
 70
     1
102
RTVSPost2010Prop47
 90
       50
102
RTVSPost2010PropOp47
 70
     1
102
RTVSPost2010Prop48
 90
       50
102
RTVSPost2010PropOp48
 70
     1
102
RTVSPost2010Prop49
280
     0
102
RTVSPost2010PropOp49
 70
     1
102
RTVSPost2010Prop50
 90
       50
102
RTVSPost2010PropOp50
 70
     1
102
RTVSPost2010Prop51ColorIndex
 90
      256
102
RTVSPost2010Prop51ColorRGB
 90
-16777216
102
RTVSPost2010PropOp51
 70
     0
102
RTVSPost2010Prop52
140
1.0
102
RTVSPost2010PropOp52
 70
     0
102
RTVSPost2010Prop53
 90
        2
102
RTVSPost2010PropOp53
 70
     1
102
RTVSPost2010Prop54
  1
strokes_ogs.tif
102
RTVSPost2010PropOp54
 70
     1
102
RTVSPost2010Prop55
280
     0
102
RTVSPost2010PropOp55
 70
     1
102
RTVSPost2010Prop56
140
1.0
102
RTVSPost2010PropOp56
 70
     1
102
RTVSPost2010Prop57
140
1.0
102
RTVSPost2010PropOp57
 70
     1
  0
XRECORD
  5
1E5
102
{ACAD_REACTORS
330
1E4
102
}
330
1E4
100
AcDbXrecord
280
     1
102
RTVSPost2010Prop28
280
     0
102
RTVSPost2010PropOp28
 70
     0
102
RTVSPost2010Prop29
280
     1
102
RTVSPost2010PropOp29
 70
     0
102
RTVSPost2010Prop30
280
     1
102
RTVSPost2010PropOp30
 70
     0
102
RTVSPost2010Prop31
280
     0
102
RTVSPost2010PropOp31
 70
     0
102
RTVSPost2010Prop32
280
     0
102
RTVSPost2010PropOp32
 70
     0
102
RTVSPost2010Prop33
280
     0
102
RTVSPost2010PropOp33
 70
     0
102
RTVSPost2010Prop34
280
     0
102
RTVSPost2010PropOp34
 70
     0
102
RTVSPost2010Prop35
280
     0
102
RTVSPost2010PropOp35
 70
     0
102
RTVSPost2010Prop36
280
     0
102
RTVSPost2010PropOp36
 70
     0
102
RTVSPost2010Prop37
 90
       50
102
RTVSPost2010PropOp37
 70
     0
102
RTVSPost2010Prop38
140
0.0
102
RTVSPost2010PropOp38
 70
     0
102
RTVSPost2010Prop39
140
1.0
102
RTVSPost2010PropOp39
 70
     0
102
RTVSPost2010Prop40
 90
        0
102
RTVSPost2010PropOp40
 70
     0
102
RTVSPost2010Prop41ColorIndex
 90
       18
102
RTVSPost2010Prop41ColorRGB
 90
        0
102
RTVSPost2010PropOp41
 70
     0
102
RTVSPost2010Prop42
 90
       50
102
RTVSPost2010PropOp42
 70
     0
102
RTVSPost2010Prop43
 90
        3
102
RTVSPost2010PropOp43
 70
     0
102
RTVSPost2010Prop44ColorIndex
 90
        5
102
RTVSPost2010Prop44ColorRGB
 90
      255
102
RTVSPost2010PropOp44
 70
     0
102
RTVSPost2010Prop45
280
     0
102
RTVSPost2010PropOp45
 70
     0
102
RTVSPost2010Prop46
 90
       50
102
RTVSPost2010PropOp46
 70
     0
102
RTVSPost2010Prop47
 90
       50
102
RTVSPost2010PropOp47
 70
     0
102
RTVSPost2010Prop48
 90
       50
102
RTVSPost2010PropOp48
 70
     0
102
RTVSPost2010Prop49
280
     0
102
RTVSPost2010PropOp49
 70
     0
102
RTVSPost2010Prop50
 90
       50
102
RTVSPost2010PropOp50
 70
     0
102
RTVSPost2010Prop51ColorIndex
 90
      256
102
RTVSPost2010Prop51ColorRGB
 90
-16777216
102
RTVSPost2010PropOp51
 70
     0
102
RTVSPost2010Prop52
140
1.0
102
RTVSPost2010PropOp52
 70
     0
102
RTVSPost2010Prop53
 90
        2
102
RTVSPost2010PropOp53
 70
     0
102
RTVSPost2010Prop54
  1
strokes_ogs.tif
102
RTVSPost2010PropOp54
 70
     0
102
RTVSPost2010Prop55
280
     0
102
RTVSPost2010PropOp55
 70
     0
102
RTVSPost2010Prop56
140
1.0
102
RTVSPost2010PropOp56
 70
     0
102
RTVSPost2010Prop57
140
1.0
102
RTVSPost2010PropOp57
 70
     0
  0
XRECORD
  5
1DF
102
{ACAD_REACTORS
330
1DE
102
}
330
1DE
100
AcDbXrecord
280
     1
102
RTVSPost2010Prop28
280
     0
102
RTVSPost2010PropOp28
 70
     1
102
RTVSPost2010Prop29
280
     1
102
RTVSPost2010PropOp29
 70
     1
102
RTVSPost2010Prop30
280
     1
102
RTVSPost2010PropOp30
 70
     1
102
RTVSPost2010Prop31
280
     0
102
RTVSPost2010PropOp31
 70
     1
102
RTVSPost2010Prop32
280
     0
102
RTVSPost2010PropOp32
 70
     1
102
RTVSPost2010Prop33
280
     0
102
RTVSPost2010PropOp33
 70
     1
102
RTVSPost2010Prop34
280
     0
102
RTVSPost2010PropOp34
 70
     1
102
RTVSPost2010Prop35
280
     0
102
RTVSPost2010PropOp35
 70
     1
102
RTVSPost2010Prop36
280
     0
102
RTVSPost2010PropOp36
 70
     1
102
RTVSPost2010Prop37
 90
       50
102
RTVSPost2010PropOp37
 70
     1
102
RTVSPost2010Prop38
140
0.0
102
RTVSPost2010PropOp38
 70
     1
102
RTVSPost2010Prop39
140
1.0
102
RTVSPost2010PropOp39
 70
     1
102
RTVSPost2010Prop40
 90
        0
102
RTVSPost2010PropOp40
 70
     1
102
RTVSPost2010Prop41ColorIndex
 90
       18
102
RTVSPost2010Prop41ColorRGB
 90
        0
102
RTVSPost2010PropOp41
 70
     1
102
RTVSPost2010Prop42
 90
       50
102
RTVSPost2010PropOp42
 70
     1
102
RTVSPost2010Prop43
 90
        3
102
RTVSPost2010PropOp43
 70
     1
102
RTVSPost2010Prop44ColorIndex
 90
        5
102
RTVSPost2010Prop44ColorRGB
 90
      255
102
RTVSPost2010PropOp44
 70
     1
102
RTVSPost2010Prop45
280
     0
102
RTVSPost2010PropOp45
 70
     1
102
RTVSPost2010Prop46
 90
       50
102
RTVSPost2010PropOp46
 70
     1
102
RTVSPost2010Prop47
 90
       50
102
RTVSPost2010PropOp47
 70
     1
102
RTVSPost2010Prop48
 90
       50
102
RTVSPost2010PropOp48
 70
     1
102
RTVSPost2010Prop49
280
     0
102
RTVSPost2010PropOp49
 70
     1
102
RTVSPost2010Prop50
 90
       50
102
RTVSPost2010PropOp50
 70
     1
102
RTVSPost2010Prop51ColorIndex
 90
      256
102
RTVSPost2010Prop51ColorRGB
 90
-16777216
102
RTVSPost2010PropOp51
 70
     0
102
RTVSPost2010Prop52
140
1.0
102
RTVSPost2010PropOp52
 70
     0
102
RTVSPost2010Prop53
 90
        2
102
RTVSPost2010PropOp53
 70
     1
102
RTVSPost2010Prop54
  1
strokes_ogs.tif
102
RTVSPost2010PropOp54
 70
     1
102
RTVSPost2010Prop55
280
     0
102
RTVSPost2010PropOp55
 70
     1
102
RTVSPost2010Prop56
140
1.0
102
RTVSPost2010PropOp56
 70
     1
102
RTVSPost2010Prop57
140
1.0
102
RTVSPost2010PropOp57
 70
     1
  0
XRECORD
  5
1E7
102
{ACAD_REACTORS
330
1E6
102
}
330
1E6
100
AcDbXrecord
280
     1
102
RTVSPost2010Prop28
280
     0
102
RTVSPost2010PropOp28
 70
     0
102
RTVSPost2010Prop29
280
     1
102
RTVSPost2010PropOp29
 70
     0
102
RTVSPost2010Prop30
280
     1
102
RTVSPost2010PropOp30
 70
     0
102
RTVSPost2010Prop31
280
     0
102
RTVSPost2010PropOp31
 70
     0
102
RTVSPost2010Prop32
280
     0
102
RTVSPost2010PropOp32
 70
     0
102
RTVSPost2010Prop33
280
     0
102
RTVSPost2010PropOp33
 70
     0
102
RTVSPost2010Prop34
280
     0
102
RTVSPost2010PropOp34
 70
     0
102
RTVSPost2010Prop35
280
     0
102
RTVSPost2010PropOp35
 70
     0
102
RTVSPost2010Prop36
280
     0
102
RTVSPost2010PropOp36
 70
     0
102
RTVSPost2010Prop37
 90
       50
102
RTVSPost2010PropOp37
 70
     0
102
RTVSPost2010Prop38
140
0.0
102
RTVSPost2010PropOp38
 70
     0
102
RTVSPost2010Prop39
140
1.0
102
RTVSPost2010PropOp39
 70
     0
102
RTVSPost2010Prop40
 90
        0
102
RTVSPost2010PropOp40
 70
     0
102
RTVSPost2010Prop41ColorIndex
 90
       18
102
RTVSPost2010Prop41ColorRGB
 90
        0
102
RTVSPost2010PropOp41
 70
     0
102
RTVSPost2010Prop42
 90
       50
102
RTVSPost2010PropOp42
 70
     0
102
RTVSPost2010Prop43
 90
        3
102
RTVSPost2010PropOp43
 70
     0
102
RTVSPost2010Prop44ColorIndex
 90
        5
102
RTVSPost2010Prop44ColorRGB
 90
      255
102
RTVSPost2010PropOp44
 70
     0
102
RTVSPost2010Prop45
280
     0
102
RTVSPost2010PropOp45
 70
     0
102
RTVSPost2010Prop46
 90
       50
102
RTVSPost2010PropOp46
 70
     0
102
RTVSPost2010Prop47
 90
       50
102
RTVSPost2010PropOp47
 70
     0
102
RTVSPost2010Prop48
 90
       50
102
RTVSPost2010PropOp48
 70
     0
102
RTVSPost2010Prop49
280
     0
102
RTVSPost2010PropOp49
 70
     0
102
RTVSPost2010Prop50
 90
       50
102
RTVSPost2010PropOp50
 70
     0
102
RTVSPost2010Prop51ColorIndex
 90
      256
102
RTVSPost2010Prop51ColorRGB
 90
-16777216
102
RTVSPost2010PropOp51
 70
     0
102
RTVSPost2010Prop52
140
1.0
102
RTVSPost2010PropOp52
 70
     0
102
RTVSPost2010Prop53
 90
        2
102
RTVSPost2010PropOp53
 70
     0
102
RTVSPost2010Prop54
  1
strokes_ogs.tif
102
RTVSPost2010PropOp54
 70
     0
102
RTVSPost2010Prop55
280
     0
102
RTVSPost2010PropOp55
 70
     0
102
RTVSPost2010Prop56
140
1.0
102
RTVSPost2010PropOp56
 70
     0
102
RTVSPost2010Prop57
140
1.0
102
RTVSPost2010PropOp57
 70
     0
  0
XRECORD
  5
1D5
102
{ACAD_REACTORS
330
1D4
102
}
330
1D4
100
AcDbXrecord
280
     1
102
RTVSPost2010Prop28
280
     0
102
RTVSPost2010PropOp28
 70
     1
102
RTVSPost2010Prop29
280
     1
102
RTVSPost2010PropOp29
 70
     1
102
RTVSPost2010Prop30
280
     1
102
RTVSPost2010PropOp30
 70
     1
102
RTVSPost2010Prop31
280
     0
102
RTVSPost2010PropOp31
 70
     1
102
RTVSPost2010Prop32
280
     0
102
RTVSPost2010PropOp32
 70
     1
102
RTVSPost2010Prop33
280
     0
102
RTVSPost2010PropOp33
 70
     1
102
RTVSPost2010Prop34
280
     0
102
RTVSPost2010PropOp34
 70
     1
102
RTVSPost2010Prop35
280
     0
102
RTVSPost2010PropOp35
 70
     1
102
RTVSPost2010Prop36
280
     0
102
RTVSPost2010PropOp36
 70
     1
102
RTVSPost2010Prop37
 90
       50
102
RTVSPost2010PropOp37
 70
     1
102
RTVSPost2010Prop38
140
0.0
102
RTVSPost2010PropOp38
 70
     1
102
RTVSPost2010Prop39
140
1.0
102
RTVSPost2010PropOp39
 70
     1
102
RTVSPost2010Prop40
 90
        0
102
RTVSPost2010PropOp40
 70
     1
102
RTVSPost2010Prop41ColorIndex
 90
       18
102
RTVSPost2010Prop41ColorRGB
 90
        0
102
RTVSPost2010PropOp41
 70
     1
102
RTVSPost2010Prop42
 90
       50
102
RTVSPost2010PropOp42
 70
     1
102
RTVSPost2010Prop43
 90
        3
102
RTVSPost2010PropOp43
 70
     1
102
RTVSPost2010Prop44ColorIndex
 90
        5
102
RTVSPost2010Prop44ColorRGB
 90
      255
102
RTVSPost2010PropOp44
 70
     1
102
RTVSPost2010Prop45
280
     0
102
RTVSPost2010PropOp45
 70
     1
102
RTVSPost2010Prop46
 90
       50
102
RTVSPost2010PropOp46
 70
     1
102
RTVSPost2010Prop47
 90
       50
102
RTVSPost2010PropOp47
 70
     1
102
RTVSPost2010Prop48
 90
       50
102
RTVSPost2010PropOp48
 70
     1
102
RTVSPost2010Prop49
280
     0
102
RTVSPost2010PropOp49
 70
     1
102
RTVSPost2010Prop50
 90
       50
102
RTVSPost2010PropOp50
 70
     1
102
RTVSPost2010Prop51ColorIndex
 90
      256
102
RTVSPost2010Prop51ColorRGB
 90
-16777216
102
RTVSPost2010PropOp51
 70
     0
102
RTVSPost2010Prop52
140
1.0
102
RTVSPost2010PropOp52
 70
     0
102
RTVSPost2010Prop53
 90
        2
102
RTVSPost2010PropOp53
 70
     1
102
RTVSPost2010Prop54
  1
strokes_ogs.tif
102
RTVSPost2010PropOp54
 70
     1
102
RTVSPost2010Prop55
280
     0
102
RTVSPost2010PropOp55
 70
     1
102
RTVSPost2010Prop56
140
1.0
102
RTVSPost2010PropOp56
 70
     1
102
RTVSPost2010Prop57
140
1.0
102
RTVSPost2010PropOp57
 70
     1
  0
XRECORD
  5
1F3
102
{ACAD_REACTORS
330
1F2
102
}
330
1F2
100
AcDbXrecord
280
     1
102
RTVSPost2010Prop28
280
     0
102
RTVSPost2010PropOp28
 70
     1
102
RTVSPost2010Prop29
280
     1
102
RTVSPost2010PropOp29
 70
     1
102
RTVSPost2010Prop30
280
     1
102
RTVSPost2010PropOp30
 70
     1
102
RTVSPost2010Prop31
280
     0
102
RTVSPost2010PropOp31
 70
     1
102
RTVSPost2010Prop32
280
     0
102
RTVSPost2010PropOp32
 70
     1
102
RTVSPost2010Prop33
280
     0
102
RTVSPost2010PropOp33
 70
     1
102
RTVSPost2010Prop34
280
     0
102
RTVSPost2010PropOp34
 70
     1
102
RTVSPost2010Prop35
280
     0
102
RTVSPost2010PropOp35
 70
     1
102
RTVSPost2010Prop36
280
     0
102
RTVSPost2010PropOp36
 70
     1
102
RTVSPost2010Prop37
 90
       50
102
RTVSPost2010PropOp37
 70
     1
102
RTVSPost2010Prop38
140
0.0
102
RTVSPost2010PropOp38
 70
     1
102
RTVSPost2010Prop39
140
1.0
102
RTVSPost2010PropOp39
 70
     1
102
RTVSPost2010Prop40
 90
        0
102
RTVSPost2010PropOp40
 70
     1
102
RTVSPost2010Prop41ColorIndex
 90
       18
102
RTVSPost2010Prop41ColorRGB
 90
        0
102
RTVSPost2010PropOp41
 70
     1
102
RTVSPost2010Prop42
 90
       50
102
RTVSPost2010PropOp42
 70
     1
102
RTVSPost2010Prop43
 90
        3
102
RTVSPost2010PropOp43
 70
     1
102
RTVSPost2010Prop44ColorIndex
 90
        5
102
RTVSPost2010Prop44ColorRGB
 90
      255
102
RTVSPost2010PropOp44
 70
     1
102
RTVSPost2010Prop45
280
     0
102
RTVSPost2010PropOp45
 70
     1
102
RTVSPost2010Prop46
 90
       50
102
RTVSPost2010PropOp46
 70
     1
102
RTVSPost2010Prop47
 90
       50
102
RTVSPost2010PropOp47
 70
     1
102
RTVSPost2010Prop48
 90
       50
102
RTVSPost2010PropOp48
 70
     1
102
RTVSPost2010Prop49
280
     0
102
RTVSPost2010PropOp49
 70
     1
102
RTVSPost2010Prop50
 90
       50
102
RTVSPost2010PropOp50
 70
     1
102
RTVSPost2010Prop51ColorIndex
 90
      256
102
RTVSPost2010Prop51ColorRGB
 90
-16777216
102
RTVSPost2010PropOp51
 70
     0
102
RTVSPost2010Prop52
140
1.0
102
RTVSPost2010PropOp52
 70
     0
102
RTVSPost2010Prop53
 90
        2
102
RTVSPost2010PropOp53
 70
     1
102
RTVSPost2010Prop54
  1
strokes_ogs.tif
102
RTVSPost2010PropOp54
 70
     1
102
RTVSPost2010Prop55
280
     0
102
RTVSPost2010PropOp55
 70
     1
102
RTVSPost2010Prop56
140
1.0
102
RTVSPost2010PropOp56
 70
     1
102
RTVSPost2010Prop57
140
1.0
102
RTVSPost2010PropOp57
 70
     1
  0
XRECORD
  5
1F1
102
{ACAD_REACTORS
330
1F0
102
}
330
1F0
100
AcDbXrecord
280
     1
102
RTVSPost2010Prop28
280
     0
102
RTVSPost2010PropOp28
 70
     1
102
RTVSPost2010Prop29
280
     1
102
RTVSPost2010PropOp29
 70
     1
102
RTVSPost2010Prop30
280
     1
102
RTVSPost2010PropOp30
 70
     1
102
RTVSPost2010Prop31
280
     0
102
RTVSPost2010PropOp31
 70
     1
102
RTVSPost2010Prop32
280
     0
102
RTVSPost2010PropOp32
 70
     1
102
RTVSPost2010Prop33
280
     0
102
RTVSPost2010PropOp33
 70
     1
102
RTVSPost2010Prop34
280
     0
102
RTVSPost2010PropOp34
 70
     1
102
RTVSPost2010Prop35
280
     0
102
RTVSPost2010PropOp35
 70
     1
102
RTVSPost2010Prop36
280
     0
102
RTVSPost2010PropOp36
 70
     1
102
RTVSPost2010Prop37
 90
       50
102
RTVSPost2010PropOp37
 70
     1
102
RTVSPost2010Prop38
140
0.0
102
RTVSPost2010PropOp38
 70
     1
102
RTVSPost2010Prop39
140
1.0
102
RTVSPost2010PropOp39
 70
     1
102
RTVSPost2010Prop40
 90
        0
102
RTVSPost2010PropOp40
 70
     1
102
RTVSPost2010Prop41ColorIndex
 90
       18
102
RTVSPost2010Prop41ColorRGB
 90
        0
102
RTVSPost2010PropOp41
 70
     1
102
RTVSPost2010Prop42
 90
       50
102
RTVSPost2010PropOp42
 70
     1
102
RTVSPost2010Prop43
 90
        3
102
RTVSPost2010PropOp43
 70
     1
102
RTVSPost2010Prop44ColorIndex
 90
        5
102
RTVSPost2010Prop44ColorRGB
 90
      255
102
RTVSPost2010PropOp44
 70
     1
102
RTVSPost2010Prop45
280
     0
102
RTVSPost2010PropOp45
 70
     1
102
RTVSPost2010Prop46
 90
       50
102
RTVSPost2010PropOp46
 70
     1
102
RTVSPost2010Prop47
 90
       50
102
RTVSPost2010PropOp47
 70
     1
102
RTVSPost2010Prop48
 90
       50
102
RTVSPost2010PropOp48
 70
     1
102
RTVSPost2010Prop49
280
     0
102
RTVSPost2010PropOp49
 70
     1
102
RTVSPost2010Prop50
 90
       50
102
RTVSPost2010PropOp50
 70
     1
102
RTVSPost2010Prop51ColorIndex
 90
      256
102
RTVSPost2010Prop51ColorRGB
 90
-16777216
102
RTVSPost2010PropOp51
 70
     0
102
RTVSPost2010Prop52
140
1.0
102
RTVSPost2010PropOp52
 70
     0
102
RTVSPost2010Prop53
 90
        2
102
RTVSPost2010PropOp53
 70
     1
102
RTVSPost2010Prop54
  1
strokes_ogs.tif
102
RTVSPost2010PropOp54
 70
     1
102
RTVSPost2010Prop55
280
     0
102
RTVSPost2010PropOp55
 70
     1
102
RTVSPost2010Prop56
140
1.0
102
RTVSPost2010PropOp56
 70
     1
102
RTVSPost2010Prop57
140
1.0
102
RTVSPost2010PropOp57
 70
     1
  0
XRECORD
  5
1EB
102
{ACAD_REACTORS
330
1EA
102
}
330
1EA
100
AcDbXrecord
280
     1
102
RTVSPost2010Prop28
280
     0
102
RTVSPost2010PropOp28
 70
     1
102
RTVSPost2010Prop29
280
     1
102
RTVSPost2010PropOp29
 70
     1
102
RTVSPost2010Prop30
280
     1
102
RTVSPost2010PropOp30
 70
     1
102
RTVSPost2010Prop31
280
     0
102
RTVSPost2010PropOp31
 70
     1
102
RTVSPost2010Prop32
280
     0
102
RTVSPost2010PropOp32
 70
     1
102
RTVSPost2010Prop33
280
     0
102
RTVSPost2010PropOp33
 70
     1
102
RTVSPost2010Prop34
280
     0
102
RTVSPost2010PropOp34
 70
     1
102
RTVSPost2010Prop35
280
     0
102
RTVSPost2010PropOp35
 70
     1
102
RTVSPost2010Prop36
280
     0
102
RTVSPost2010PropOp36
 70
     1
102
RTVSPost2010Prop37
 90
       50
102
RTVSPost2010PropOp37
 70
     1
102
RTVSPost2010Prop38
140
0.0
102
RTVSPost2010PropOp38
 70
     1
102
RTVSPost2010Prop39
140
1.0
102
RTVSPost2010PropOp39
 70
     1
102
RTVSPost2010Prop40
 90
        0
102
RTVSPost2010PropOp40
 70
     1
102
RTVSPost2010Prop41ColorIndex
 90
       18
102
RTVSPost2010Prop41ColorRGB
 90
        0
102
RTVSPost2010PropOp41
 70
     1
102
RTVSPost2010Prop42
 90
       50
102
RTVSPost2010PropOp42
 70
     1
102
RTVSPost2010Prop43
 90
        3
102
RTVSPost2010PropOp43
 70
     1
102
RTVSPost2010Prop44ColorIndex
 90
        5
102
RTVSPost2010Prop44ColorRGB
 90
      255
102
RTVSPost2010PropOp44
 70
     1
102
RTVSPost2010Prop45
280
     0
102
RTVSPost2010PropOp45
 70
     1
102
RTVSPost2010Prop46
 90
       50
102
RTVSPost2010PropOp46
 70
     1
102
RTVSPost2010Prop47
 90
       50
102
RTVSPost2010PropOp47
 70
     1
102
RTVSPost2010Prop48
 90
       50
102
RTVSPost2010PropOp48
 70
     1
102
RTVSPost2010Prop49
280
     0
102
RTVSPost2010PropOp49
 70
     1
102
RTVSPost2010Prop50
 90
       50
102
RTVSPost2010PropOp50
 70
     1
102
RTVSPost2010Prop51ColorIndex
 90
      256
102
RTVSPost2010Prop51ColorRGB
 90
-16777216
102
RTVSPost2010PropOp51
 70
     0
102
RTVSPost2010Prop52
140
1.0
102
RTVSPost2010PropOp52
 70
     0
102
RTVSPost2010Prop53
 90
        2
102
RTVSPost2010PropOp53
 70
     1
102
RTVSPost2010Prop54
  1
strokes_ogs.tif
102
RTVSPost2010PropOp54
 70
     1
102
RTVSPost2010Prop55
280
     0
102
RTVSPost2010PropOp55
 70
     1
102
RTVSPost2010Prop56
140
1.0
102
RTVSPost2010PropOp56
 70
     1
102
RTVSPost2010Prop57
140
1.0
102
RTVSPost2010PropOp57
 70
     1
  0
XRECORD
  5
1ED
102
{ACAD_REACTORS
330
1EC
102
}
330
1EC
100
AcDbXrecord
280
     1
102
RTVSPost2010Prop28
280
     0
102
RTVSPost2010PropOp28
 70
     1
102
RTVSPost2010Prop29
280
     1
102
RTVSPost2010PropOp29
 70
     1
102
RTVSPost2010Prop30
280
     1
102
RTVSPost2010PropOp30
 70
     1
102
RTVSPost2010Prop31
280
     0
102
RTVSPost2010PropOp31
 70
     1
102
RTVSPost2010Prop32
280
     0
102
RTVSPost2010PropOp32
 70
     1
102
RTVSPost2010Prop33
280
     0
102
RTVSPost2010PropOp33
 70
     1
102
RTVSPost2010Prop34
280
     0
102
RTVSPost2010PropOp34
 70
     1
102
RTVSPost2010Prop35
280
     0
102
RTVSPost2010PropOp35
 70
     1
102
RTVSPost2010Prop36
280
     0
102
RTVSPost2010PropOp36
 70
     1
102
RTVSPost2010Prop37
 90
       50
102
RTVSPost2010PropOp37
 70
     1
102
RTVSPost2010Prop38
140
0.0
102
RTVSPost2010PropOp38
 70
     1
102
RTVSPost2010Prop39
140
1.0
102
RTVSPost2010PropOp39
 70
     1
102
RTVSPost2010Prop40
 90
        0
102
RTVSPost2010PropOp40
 70
     1
102
RTVSPost2010Prop41ColorIndex
 90
       18
102
RTVSPost2010Prop41ColorRGB
 90
        0
102
RTVSPost2010PropOp41
 70
     1
102
RTVSPost2010Prop42
 90
       50
102
RTVSPost2010PropOp42
 70
     1
102
RTVSPost2010Prop43
 90
        3
102
RTVSPost2010PropOp43
 70
     1
102
RTVSPost2010Prop44ColorIndex
 90
        5
102
RTVSPost2010Prop44ColorRGB
 90
      255
102
RTVSPost2010PropOp44
 70
     1
102
RTVSPost2010Prop45
280
     0
102
RTVSPost2010PropOp45
 70
     1
102
RTVSPost2010Prop46
 90
       50
102
RTVSPost2010PropOp46
 70
     1
102
RTVSPost2010Prop47
 90
       50
102
RTVSPost2010PropOp47
 70
     1
102
RTVSPost2010Prop48
 90
       50
102
RTVSPost2010PropOp48
 70
     1
102
RTVSPost2010Prop49
280
     0
102
RTVSPost2010PropOp49
 70
     1
102
RTVSPost2010Prop50
 90
       50
102
RTVSPost2010PropOp50
 70
     1
102
RTVSPost2010Prop51ColorIndex
 90
      256
102
RTVSPost2010Prop51ColorRGB
 90
-16777216
102
RTVSPost2010PropOp51
 70
     0
102
RTVSPost2010Prop52
140
1.0
102
RTVSPost2010PropOp52
 70
     0
102
RTVSPost2010Prop53
 90
        2
102
RTVSPost2010PropOp53
 70
     1
102
RTVSPost2010Prop54
  1
strokes_ogs.tif
102
RTVSPost2010PropOp54
 70
     1
102
RTVSPost2010Prop55
280
     0
102
RTVSPost2010PropOp55
 70
     1
102
RTVSPost2010Prop56
140
1.0
102
RTVSPost2010PropOp56
 70
     1
102
RTVSPost2010Prop57
140
1.0
102
RTVSPost2010PropOp57
 70
     1
  0
XRECORD
  5
1DD
102
{ACAD_REACTORS
330
1DC
102
}
330
1DC
100
AcDbXrecord
280
     1
102
RTVSPost2010Prop28
280
     0
102
RTVSPost2010PropOp28
 70
     1
102
RTVSPost2010Prop29
280
     1
102
RTVSPost2010PropOp29
 70
     1
102
RTVSPost2010Prop30
280
     1
102
RTVSPost2010PropOp30
 70
     1
102
RTVSPost2010Prop31
280
     0
102
RTVSPost2010PropOp31
 70
     1
102
RTVSPost2010Prop32
280
     0
102
RTVSPost2010PropOp32
 70
     1
102
RTVSPost2010Prop33
280
     0
102
RTVSPost2010PropOp33
 70
     1
102
RTVSPost2010Prop34
280
     0
102
RTVSPost2010PropOp34
 70
     1
102
RTVSPost2010Prop35
280
     0
102
RTVSPost2010PropOp35
 70
     1
102
RTVSPost2010Prop36
280
     0
102
RTVSPost2010PropOp36
 70
     1
102
RTVSPost2010Prop37
 90
       50
102
RTVSPost2010PropOp37
 70
     1
102
RTVSPost2010Prop38
140
0.0
102
RTVSPost2010PropOp38
 70
     1
102
RTVSPost2010Prop39
140
1.0
102
RTVSPost2010PropOp39
 70
     1
102
RTVSPost2010Prop40
 90
        0
102
RTVSPost2010PropOp40
 70
     1
102
RTVSPost2010Prop41ColorIndex
 90
       18
102
RTVSPost2010Prop41ColorRGB
 90
        0
102
RTVSPost2010PropOp41
 70
     1
102
RTVSPost2010Prop42
 90
       50
102
RTVSPost2010PropOp42
 70
     1
102
RTVSPost2010Prop43
 90
        3
102
RTVSPost2010PropOp43
 70
     1
102
RTVSPost2010Prop44ColorIndex
 90
        5
102
RTVSPost2010Prop44ColorRGB
 90
      255
102
RTVSPost2010PropOp44
 70
     1
102
RTVSPost2010Prop45
280
     0
102
RTVSPost2010PropOp45
 70
     1
102
RTVSPost2010Prop46
 90
       50
102
RTVSPost2010PropOp46
 70
     1
102
RTVSPost2010Prop47
 90
       50
102
RTVSPost2010PropOp47
 70
     1
102
RTVSPost2010Prop48
 90
       50
102
RTVSPost2010PropOp48
 70
     1
102
RTVSPost2010Prop49
280
     0
102
RTVSPost2010PropOp49
 70
     1
102
RTVSPost2010Prop50
 90
       50
102
RTVSPost2010PropOp50
 70
     1
102
RTVSPost2010Prop51ColorIndex
 90
      256
102
RTVSPost2010Prop51ColorRGB
 90
-16777216
102
RTVSPost2010PropOp51
 70
     0
102
RTVSPost2010Prop52
140
1.0
102
RTVSPost2010PropOp52
 70
     0
102
RTVSPost2010Prop53
 90
        2
102
RTVSPost2010PropOp53
 70
     1
102
RTVSPost2010Prop54
  1
strokes_ogs.tif
102
RTVSPost2010PropOp54
 70
     1
102
RTVSPost2010Prop55
280
     0
102
RTVSPost2010PropOp55
 70
     1
102
RTVSPost2010Prop56
140
1.0
102
RTVSPost2010PropOp56
 70
     1
102
RTVSPost2010Prop57
140
1.0
102
RTVSPost2010PropOp57
 70
     1
  0
XRECORD
  5
1CF
102
{ACAD_REACTORS
330
1CE
102
}
330
1CE
100
AcDbXrecord
280
     1
102
RTVSPost2010Prop28
280
     0
102
RTVSPost2010PropOp28
 70
     1
102
RTVSPost2010Prop29
280
     1
102
RTVSPost2010PropOp29
 70
     1
102
RTVSPost2010Prop30
280
     1
102
RTVSPost2010PropOp30
 70
     1
102
RTVSPost2010Prop31
280
     0
102
RTVSPost2010PropOp31
 70
     1
102
RTVSPost2010Prop32
280
     0
102
RTVSPost2010PropOp32
 70
     1
102
RTVSPost2010Prop33
280
     0
102
RTVSPost2010PropOp33
 70
     1
102
RTVSPost2010Prop34
280
     0
102
RTVSPost2010PropOp34
 70
     1
102
RTVSPost2010Prop35
280
     0
102
RTVSPost2010PropOp35
 70
     1
102
RTVSPost2010Prop36
280
     0
102
RTVSPost2010PropOp36
 70
     1
102
RTVSPost2010Prop37
 90
       50
102
RTVSPost2010PropOp37
 70
     1
102
RTVSPost2010Prop38
140
0.0
102
RTVSPost2010PropOp38
 70
     1
102
RTVSPost2010Prop39
140
1.0
102
RTVSPost2010PropOp39
 70
     1
102
RTVSPost2010Prop40
 90
        0
102
RTVSPost2010PropOp40
 70
     1
102
RTVSPost2010Prop41ColorIndex
 90
       18
102
RTVSPost2010Prop41ColorRGB
 90
        0
102
RTVSPost2010PropOp41
 70
     1
102
RTVSPost2010Prop42
 90
       50
102
RTVSPost2010PropOp42
 70
     1
102
RTVSPost2010Prop43
 90
        3
102
RTVSPost2010PropOp43
 70
     1
102
RTVSPost2010Prop44ColorIndex
 90
        5
102
RTVSPost2010Prop44ColorRGB
 90
      255
102
RTVSPost2010PropOp44
 70
     1
102
RTVSPost2010Prop45
280
     0
102
RTVSPost2010PropOp45
 70
     1
102
RTVSPost2010Prop46
 90
       50
102
RTVSPost2010PropOp46
 70
     1
102
RTVSPost2010Prop47
 90
       50
102
RTVSPost2010PropOp47
 70
     1
102
RTVSPost2010Prop48
 90
       50
102
RTVSPost2010PropOp48
 70
     1
102
RTVSPost2010Prop49
280
     0
102
RTVSPost2010PropOp49
 70
     1
102
RTVSPost2010Prop50
 90
       50
102
RTVSPost2010PropOp50
 70
     1
102
RTVSPost2010Prop51ColorIndex
 90
      256
102
RTVSPost2010Prop51ColorRGB
 90
-16777216
102
RTVSPost2010PropOp51
 70
     0
102
RTVSPost2010Prop52
140
1.0
102
RTVSPost2010PropOp52
 70
     0
102
RTVSPost2010Prop53
 90
        2
102
RTVSPost2010PropOp53
 70
     1
102
RTVSPost2010Prop54
  1
strokes_ogs.tif
102
RTVSPost2010PropOp54
 70
     1
102
RTVSPost2010Prop55
280
     0
102
RTVSPost2010PropOp55
 70
     1
102
RTVSPost2010Prop56
140
1.0
102
RTVSPost2010PropOp56
 70
     1
102
RTVSPost2010Prop57
140
1.0
102
RTVSPost2010PropOp57
 70
     1
  0
XRECORD
  5
1EF
102
{ACAD_REACTORS
330
1EE
102
}
330
1EE
100
AcDbXrecord
280
     1
102
RTVSPost2010Prop28
280
     0
102
RTVSPost2010PropOp28
 70
     1
102
RTVSPost2010Prop29
280
     1
102
RTVSPost2010PropOp29
 70
     1
102
RTVSPost2010Prop30
280
     1
102
RTVSPost2010PropOp30
 70
     1
102
RTVSPost2010Prop31
280
     0
102
RTVSPost2010PropOp31
 70
     1
102
RTVSPost2010Prop32
280
     0
102
RTVSPost2010PropOp32
 70
     1
102
RTVSPost2010Prop33
280
     0
102
RTVSPost2010PropOp33
 70
     1
102
RTVSPost2010Prop34
280
     0
102
RTVSPost2010PropOp34
 70
     1
102
RTVSPost2010Prop35
280
     0
102
RTVSPost2010PropOp35
 70
     1
102
RTVSPost2010Prop36
280
     0
102
RTVSPost2010PropOp36
 70
     1
102
RTVSPost2010Prop37
 90
       50
102
RTVSPost2010PropOp37
 70
     1
102
RTVSPost2010Prop38
140
0.0
102
RTVSPost2010PropOp38
 70
     1
102
RTVSPost2010Prop39
140
1.0
102
RTVSPost2010PropOp39
 70
     1
102
RTVSPost2010Prop40
 90
        0
102
RTVSPost2010PropOp40
 70
     1
102
RTVSPost2010Prop41ColorIndex
 90
       18
102
RTVSPost2010Prop41ColorRGB
 90
        0
102
RTVSPost2010PropOp41
 70
     1
102
RTVSPost2010Prop42
 90
       50
102
RTVSPost2010PropOp42
 70
     1
102
RTVSPost2010Prop43
 90
        3
102
RTVSPost2010PropOp43
 70
     1
102
RTVSPost2010Prop44ColorIndex
 90
        5
102
RTVSPost2010Prop44ColorRGB
 90
      255
102
RTVSPost2010PropOp44
 70
     1
102
RTVSPost2010Prop45
280
     0
102
RTVSPost2010PropOp45
 70
     1
102
RTVSPost2010Prop46
 90
       50
102
RTVSPost2010PropOp46
 70
     1
102
RTVSPost2010Prop47
 90
       50
102
RTVSPost2010PropOp47
 70
     1
102
RTVSPost2010Prop48
 90
       50
102
RTVSPost2010PropOp48
 70
     1
102
RTVSPost2010Prop49
280
     0
102
RTVSPost2010PropOp49
 70
     1
102
RTVSPost2010Prop50
 90
       50
102
RTVSPost2010PropOp50
 70
     1
102
RTVSPost2010Prop51ColorIndex
 90
      256
102
RTVSPost2010Prop51ColorRGB
 90
-16777216
102
RTVSPost2010PropOp51
 70
     0
102
RTVSPost2010Prop52
140
1.0
102
RTVSPost2010PropOp52
 70
     0
102
RTVSPost2010Prop53
 90
        2
102
RTVSPost2010PropOp53
 70
     1
102
RTVSPost2010Prop54
  1
strokes_ogs.tif
102
RTVSPost2010PropOp54
 70
     1
102
RTVSPost2010Prop55
280
     0
102
RTVSPost2010PropOp55
 70
     1
102
RTVSPost2010Prop56
140
1.0
102
RTVSPost2010PropOp56
 70
     1
102
RTVSPost2010Prop57
140
1.0
102
RTVSPost2010PropOp57
 70
     1
  0
ENDSEC
  0
EOF
