  0
SECTION
  2
HEADER
  9
$ACADVER
  1
AC1024
  9
$ACADMAINTVER
 70
     6
  9
$DWGCODEPAGE
  3
ANSI_1252
  9
$INSBASE
 10
0.0
 20
0.0
 30
0.0
  9
$EXTMIN
 10
1.000000E+20
 20
1.000000E+20
 30
1.000000E+20
  9
$EXTMAX
 10
-1.000000E+20
 20
-1.000000E+20
 30
-1.000000E+20
  9
$LIMMIN
 10
0.0
 20
0.0
  9
$LIMMAX
 10
420.0
 20
297.0
  9
$ORTHOMODE
 70
     0
  9
$REGENMODE
 70
     1
  9
$FILLMODE
 70
     1
  9
$QTEXTMODE
 70
     0
  9
$MIRRTEXT
 70
     1
  9
$LTSCALE
 40
1.0
  9
$ATTMODE
 70
     1
  9
$TEXTSIZE
 40
2.5
  9
$TRACEWID
 40
1.0
  9
$TEXTSTYLE
  7
Standard
  9
$CLAYER
  8
0
  9
$CELTYPE
  6
ByLayer
  9
$CECOLOR
 62
   256
  9
$CELTSCALE
 40
1.0
  9
$DISPSILH
 70
     0
  9
$DIMSCALE
 40
1.0
  9
$DIMASZ
 40
2.5
  9
$DIMEXO
 40
0.625
  9
$DIMDLI
 40
3.75
  9
$DIMRND
 40
0.0
  9
$DIMDLE
 40
0.0
  9
$DIMEXE
 40
1.25
  9
$DIMTP
 40
0.0
  9
$DIMTM
 40
0.0
  9
$DIMTXT
 40
2.5
  9
$DIMCEN
 40
2.5
  9
$DIMTSZ
 40
0.0
  9
$DIMTOL
 70
     0
  9
$DIMLIM
 70
     0
  9
$DIMTIH
 70
     0
  9
$DIMTOH
 70
     0
  9
$DIMSE1
 70
     0
  9
$DIMSE2
 70
     0
  9
$DIMTAD
 70
     1
  9
$DIMZIN
 70
     8
  9
$DIMBLK
  1

  9
$DIMASO
 70
     1
  9
$DIMSHO
 70
     1
  9
$DIMPOST
  1

  9
$DIMAPOST
  1

  9
$DIMALT
 70
     0
  9
$DIMALTD
 70
     3
  9
$DIMALTF
 40
0.03937
  9
$DIMLFAC
 40
1.0
  9
$DIMTOFL
 70
     1
  9
$DIMTVP
 40
0.0
  9
$DIMTIX
 70
     0
  9
$DIMSOXD
 70
     0
  9
$DIMSAH
 70
     0
  9
$DIMBLK1
  1

  9
$DIMBLK2
  1

  9
$DIMSTYLE
  2
ISO-25
  9
$DIMCLRD
 70
     0
  9
$DIMCLRE
 70
     0
  9
$DIMCLRT
 70
     0
  9
$DIMTFAC
 40
1.0
  9
$DIMGAP
 40
0.625
  9
$DIMJUST
 70
     0
  9
$DIMSD1
 70
     0
  9
$DIMSD2
 70
     0
  9
$DIMTOLJ
 70
     0
  9
$DIMTZIN
 70
     8
  9
$DIMALTZ
 70
     0
  9
$DIMALTTZ
 70
     0
  9
$DIMUPT
 70
     0
  9
$DIMDEC
 70
     2
  9
$DIMTDEC
 70
     2
  9
$DIMALTU
 70
     2
  9
$DIMALTTD
 70
     3
  9
$DIMTXSTY
  7
Standard
  9
$DIMAUNIT
 70
     0
  9
$DIMADEC
 70
     0
  9
$DIMALTRND
 40
0.0
  9
$DIMAZIN
 70
     0
  9
$DIMDSEP
 70
    44
  9
$DIMATFIT
 70
     3
  9
$DIMFRAC
 70
     0
  9
$DIMLDRBLK
  1

  9
$DIMLUNIT
 70
     2
  9
$DIMLWD
 70
    -2
  9
$DIMLWE
 70
    -2
  9
$DIMTMOVE
 70
     0
  9
$DIMFXL
 40
1.0
  9
$DIMFXLON
 70
     0
  9
$DIMJOGANG
 40
0.785398
  9
$DIMTFILL
 70
     0
  9
$DIMTFILLCLR
 70
     0
  9
$DIMARCSYM
 70
     0
  9
$DIMLTYPE
  6

  9
$DIMLTEX1
  6

  9
$DIMLTEX2
  6

  9
$DIMTXTDIRECTION
 70
     0
  9
$LUNITS
 70
     2
  9
$LUPREC
 70
     4
  9
$SKETCHINC
 40
1.0
  9
$FILLETRAD
 40
10.0
  9
$AUNITS
 70
     0
  9
$AUPREC
 70
     0
  9
$MENU
  1
.
  9
$ELEVATION
 40
0.0
  9
$PELEVATION
 40
0.0
  9
$THICKNESS
 40
0.0
  9
$LIMCHECK
 70
     0
  9
$CHAMFERA
 40
0.0
  9
$CHAMFERB
 40
0.0
  9
$CHAMFERC
 40
0.0
  9
$CHAMFERD
 40
0.0
  9
$SKPOLY
 70
     0
  9
$TDCREATE
 40
2458614.605564584
  9
$TDUCREATE
 40
2458614.52223125
  9
$TDUPDATE
 40
2458614.605565185
  9
$TDUUPDATE
 40
2458614.522231852
  9
$TDINDWG
 40
0.0000000116
  9
$TDUSRTIMER
 40
0.0000000116
  9
$USRTIMER
 70
     1
  9
$ANGBASE
 50
0.0
  9
$ANGDIR
 70
     0
  9
$PDMODE
 70
     0
  9
$PDSIZE
 40
0.0
  9
$PLINEWID
 40
0.0
  9
$SPLFRAME
 70
     0
  9
$SPLINETYPE
 70
     6
  9
$SPLINESEGS
 70
     8
  9
$HANDSEED
  5
204
  9
$SURFTAB1
 70
     6
  9
$SURFTAB2
 70
     6
  9
$SURFTYPE
 70
     6
  9
$SURFU
 70
     6
  9
$SURFV
 70
     6
  9
$UCSBASE
  2

  9
$UCSNAME
  2

  9
$UCSORG
 10
0.0
 20
0.0
 30
0.0
  9
$UCSXDIR
 10
1.0
 20
0.0
 30
0.0
  9
$UCSYDIR
 10
0.0
 20
1.0
 30
0.0
  9
$UCSORTHOREF
  2

  9
$UCSORTHOVIEW
 70
     0
  9
$UCSORGTOP
 10
0.0
 20
0.0
 30
0.0
  9
$UCSORGBOTTOM
 10
0.0
 20
0.0
 30
0.0
  9
$UCSORGLEFT
 10
0.0
 20
0.0
 30
0.0
  9
$UCSORGRIGHT
 10
0.0
 20
0.0
 30
0.0
  9
$UCSORGFRONT
 10
0.0
 20
0.0
 30
0.0
  9
$UCSORGBACK
 10
0.0
 20
0.0
 30
0.0
  9
$PUCSBASE
  2

  9
$PUCSNAME
  2

  9
$PUCSORG
 10
0.0
 20
0.0
 30
0.0
  9
$PUCSXDIR
 10
1.0
 20
0.0
 30
0.0
  9
$PUCSYDIR
 10
0.0
 20
1.0
 30
0.0
  9
$PUCSORTHOREF
  2

  9
$PUCSORTHOVIEW
 70
     0
  9
$PUCSORGTOP
 10
0.0
 20
0.0
 30
0.0
  9
$PUCSORGBOTTOM
 10
0.0
 20
0.0
 30
0.0
  9
$PUCSORGLEFT
 10
0.0
 20
0.0
 30
0.0
  9
$PUCSORGRIGHT
 10
0.0
 20
0.0
 30
0.0
  9
$PUCSORGFRONT
 10
0.0
 20
0.0
 30
0.0
  9
$PUCSORGBACK
 10
0.0
 20
0.0
 30
0.0
  9
$USERI1
 70
     0
  9
$USERI2
 70
     0
  9
$USERI3
 70
     0
  9
$USERI4
 70
     0
  9
$USERI5
 70
     0
  9
$USERR1
 40
0.0
  9
$USERR2
 40
0.0
  9
$USERR3
 40
0.0
  9
$USERR4
 40
0.0
  9
$USERR5
 40
0.0
  9
$WORLDVIEW
 70
     1
  9
$SHADEDGE
 70
     3
  9
$SHADEDIF
 70
    70
  9
$TILEMODE
 70
     1
  9
$MAXACTVP
 70
    64
  9
$PINSBASE
 10
0.0
 20
0.0
 30
0.0
  9
$PLIMCHECK
 70
     0
  9
$PEXTMIN
 10
1.000000E+20
 20
1.000000E+20
 30
1.000000E+20
  9
$PEXTMAX
 10
-1.000000E+20
 20
-1.000000E+20
 30
-1.000000E+20
  9
$PLIMMIN
 10
0.0
 20
0.0
  9
$PLIMMAX
 10
420.0
 20
297.0
  9
$UNITMODE
 70
     0
  9
$VISRETAIN
 70
     1
  9
$PLINEGEN
 70
     0
  9
$PSLTSCALE
 70
     1
  9
$TREEDEPTH
 70
  3020
  9
$CMLSTYLE
  2
Standard
  9
$CMLJUST
 70
     0
  9
$CMLSCALE
 40
20.0
  9
$PROXYGRAPHICS
 70
     1
  9
$MEASUREMENT
 70
     1
  9
$CELWEIGHT
370
    -1
  9
$ENDCAPS
280
     0
  9
$JOINSTYLE
280
     0
  9
$LWDISPLAY
290
     0
  9
$INSUNITS
 70
     4
  9
$HYPERLINKBASE
  1

  9
$STYLESHEET
  1

  9
$XEDIT
290
     1
  9
$CEPSNTYPE
380
     0
  9
$PSTYLEMODE
290
     1
  9
$FINGERPRINTGUID
  2
{11377C3D-8FAD-4B9D-96B9-8996DEC3A25E}
  9
$VERSIONGUID
  2
{FAEB1C32-E019-11D5-929B-00C0DF256EC4}
  9
$EXTNAMES
290
     1
  9
$PSVPSCALE
 40
0.0
  9
$OLESTARTUP
290
     0
  9
$SORTENTS
280
   127
  9
$INDEXCTL
280
     0
  9
$HIDETEXT
280
     1
  9
$XCLIPFRAME
280
     2
  9
$HALOGAP
280
     0
  9
$OBSCOLOR
 70
   257
  9
$OBSLTYPE
280
     0
  9
$INTERSECTIONDISPLAY
280
     0
  9
$INTERSECTIONCOLOR
 70
   257
  9
$DIMASSOC
280
     2
  9
$PROJECTNAME
  1

  9
$CAMERADISPLAY
290
     0
  9
$LENSLENGTH
 40
50.0
  9
$CAMERAHEIGHT
 40
0.0
  9
$STEPSPERSEC
 40
2.0
  9
$STEPSIZE
 40
6.0
  9
$3DDWFPREC
 40
2.0
  9
$PSOLWIDTH
 40
5.0
  9
$PSOLHEIGHT
 40
80.0
  9
$LOFTANG1
 40
1.570796
  9
$LOFTANG2
 40
1.570796
  9
$LOFTMAG1
 40
0.0
  9
$LOFTMAG2
 40
0.0
  9
$LOFTPARAM
 70
     7
  9
$LOFTNORMALS
280
     1
  9
$LATITUDE
 40
37.795
  9
$LONGITUDE
 40
-122.394
  9
$NORTHDIRECTION
 40
0.0
  9
$TIMEZONE
 70
 -8000
  9
$LIGHTGLYPHDISPLAY
280
     1
  9
$TILEMODELIGHTSYNCH
280
     1
  9
$CMATERIAL
347
44
  9
$SOLIDHIST
280
     0
  9
$SHOWHIST
280
     1
  9
$DWFFRAME
280
     2
  9
$DGNFRAME
280
     2
  9
$REALWORLDSCALE
290
     1
  9
$INTERFERECOLOR
 62
   256
  9
$CSHADOW
280
     0
  9
$SHADOWPLANELOCATION
 40
0.0
  0
ENDSEC
  0
SECTION
  2
CLASSES
  0
CLASS
  1
ACDBDICTIONARYWDFLT
  2
AcDbDictionaryWithDefault
  3
ObjectDBX Classes
 90
        0
 91
        4
280
     0
281
     0
  0
CLASS
  1
VISUALSTYLE
  2
AcDbVisualStyle
  3
ObjectDBX Classes
 90
     4095
 91
        4
280
     0
281
     0
  0
CLASS
  1
MATERIAL
  2
AcDbMaterial
  3
ObjectDBX Classes
 90
     1153
 91
        4
280
     0
281
     0
  0
CLASS
  1
SCALE
  2
AcDbScale
  3
ObjectDBX Classes
 90
     1153
 91
        4
280
     0
281
     0
  0
CLASS
  1
TABLESTYLE
  2
AcDbTableStyle
  3
ObjectDBX Classes
 90
     4095
 91
        4
280
     0
281
     0
  0
CLASS
  1
MLEADERSTYLE
  2
AcDbMLeaderStyle
  3
ACDB_MLEADERSTYLE_CLASS
 90
     4095
 91
        4
280
     0
281
     0
  0
CLASS
  1
SUN
  2
AcDbSun
  3
SCENEOE
 90
     1153
 91
        4
280
     0
281
     0
  0
CLASS
  1
DICTIONARYVAR
  2
AcDbDictionaryVar
  3
ObjectDBX Classes
 90
        0
 91
        4
280
     0
281
     0
  0
CLASS
  1
CELLSTYLEMAP
  2
AcDbCellStyleMap
  3
ObjectDBX Classes
 90
     1152
 91
        4
280
     0
281
     0
  0
ENDSEC
  0
SECTION
  2
TABLES
  0
TABLE
  2
VPORT
  5
8
330
0
100
AcDbSymbolTable
 70
     1
  0
VPORT
  5
29
330
8
100
AcDbSymbolTableRecord
100
AcDbViewportTableRecord
  2
*Active
 70
     0
 10
0.0
 20
0.0
 11
1.0
 21
1.0
 12
344.186916
 22
148.5
 13
0.0
 23
0.0
 14
10.0
 24
10.0
 15
10.0
 25
10.0
 16
0.0
 26
0.0
 36
1.0
 17
0.0
 27
0.0
 37
0.0
 40
297.0
 41
1.972973
 42
50.0
 43
0.0
 44
0.0
 50
0.0
 51
0.0
 71
     0
 72
   100
 73
     1
 74
     3
 75
     0
 76
     0
 77
     0
 78
     0
281
     0
 65
     1
110
0.0
120
0.0
130
0.0
111
1.0
121
0.0
131
0.0
112
0.0
122
1.0
132
0.0
 79
     0
146
0.0
348
2F
 60
     3
 61
     5
292
     1
282
     1
141
0.0
142
0.0
 63
   250
361
6D
  0
ENDTAB
  0
TABLE
  2
LTYPE
  5
5
330
0
100
AcDbSymbolTable
 70
     1
  0
LTYPE
  5
14
330
5
100
AcDbSymbolTableRecord
100
AcDbLinetypeTableRecord
  2
ByBlock
 70
     0
  3

 72
    65
 73
     0
 40
0.0
  0
LTYPE
  5
15
330
5
100
AcDbSymbolTableRecord
100
AcDbLinetypeTableRecord
  2
ByLayer
 70
     0
  3

 72
    65
 73
     0
 40
0.0
  0
LTYPE
  5
16
330
5
100
AcDbSymbolTableRecord
100
AcDbLinetypeTableRecord
  2
Continuous
 70
     0
  3
Solid line
 72
    65
 73
     0
 40
0.0
  0
ENDTAB
  0
TABLE
  2
LAYER
  5
2
330
0
100
AcDbSymbolTable
 70
     1
  0
LAYER
  5
10
330
2
100
AcDbSymbolTableRecord
100
AcDbLayerTableRecord
  2
0
 70
     0
 62
   106
  6
Continuous
370
     0
390
F
347
46
  0
ENDTAB
  0
TABLE
  2
STYLE
  5
3
330
0
100
AcDbSymbolTable
 70
     4
  0
STYLE
  5
11
330
3
100
AcDbSymbolTableRecord
100
AcDbTextStyleTableRecord
  2
Standard
 70
     0
 40
0.0
 41
1.0
 50
0.0
 71
     0
 42
2.5
  3
txt
  4

  0
STYLE
  5
6E
330
3
100
AcDbSymbolTableRecord
100
AcDbTextStyleTableRecord
  2
Default
 70
     0
 40
0.0
 41
1.0
 50
0.0
 71
     0
 42
2.5
  3

  4

1001
ACAD
1000
txt
1071
        0
  0
STYLE
  5
6F
330
3
100
AcDbSymbolTableRecord
100
AcDbTextStyleTableRecord
  2
ISO
 70
     0
 40
0.0
 41
1.0
 50
0.0
 71
     0
 42
2.5
  3

  4

1001
ACAD
1000
txt
1071
        0
  0
STYLE
  5
70
330
3
100
AcDbSymbolTableRecord
100
AcDbTextStyleTableRecord
  2
zucchetti
 70
     0
 40
0.0
 41
1.0
 50
0.0
 71
     0
 42
2.5
  3

  4

1001
ACAD
1000
Arial
1071
        0
  0
ENDTAB
  0
TABLE
  2
VIEW
  5
6
330
0
100
AcDbSymbolTable
 70
     0
  0
ENDTAB
  0
TABLE
  2
UCS
  5
7
330
0
100
AcDbSymbolTable
 70
     0
  0
ENDTAB
  0
TABLE
  2
APPID
  5
9
330
0
100
AcDbSymbolTable
 70
     1
  0
APPID
  5
12
330
9
100
AcDbSymbolTableRecord
100
AcDbRegAppTableRecord
  2
ACAD
 70
     0
  0
ENDTAB
  0
TABLE
  2
DIMSTYLE
  5
A
330
0
100
AcDbSymbolTable
 70
     4
100
AcDbDimStyleTable
  0
DIMSTYLE
105
27
330
A
100
AcDbSymbolTableRecord
100
AcDbDimStyleTableRecord
  2
ISO-25
 70
     0
 41
2.5
 42
0.625
 43
3.75
 44
1.25
 73
     0
 74
     0
 77
     1
 78
     8
140
2.5
141
2.5
143
0.03937
147
0.625
171
     3
172
     1
178
     0
271
     2
272
     2
274
     3
278
    44
283
     0
284
     8
340
11
  0
DIMSTYLE
105
71
330
A
100
AcDbSymbolTableRecord
100
AcDbDimStyleTableRecord
  2
Default
 70
     0
  3
<>
 41
4.375
 42
1.05
 44
2.1
 49
10.01
 73
     0
 74
     0
 77
     1
 78
     8
140
3.5
146
0.4
147
1.75
172
     1
271
     2
178
     3
271
     2
272
     3
284
     8
340
6E
341
72
342
72
  0
DIMSTYLE
105
79
330
A
100
AcDbSymbolTableRecord
100
AcDbDimStyleTableRecord
  2
ISO
 70
     0
  3
<>
 41
4.375
 42
1.05
 44
2.1
 49
10.01
 73
     0
 74
     0
 77
     1
 78
     8
140
3.5
146
0.4
147
1.75
172
     1
271
     2
178
     3
271
     2
272
     3
284
     8
340
6F
341
72
342
72
  0
DIMSTYLE
105
7A
330
A
100
AcDbSymbolTableRecord
100
AcDbDimStyleTableRecord
  2
zucchetti
 70
     0
  3
<>
 41
3.0
 42
0.9
 44
1.8
 49
8.58
 73
     0
 74
     0
 77
     1
 78
     8
140
3.0
146
0.6
147
1.5
172
     1
176
     3
177
     3
271
     2
178
     3
271
     2
272
     2
284
     8
340
70
  0
ENDTAB
  0
TABLE
  2
BLOCK_RECORD
  5
1
330
0
100
AcDbSymbolTable
 70
     6
  0
BLOCK_RECORD
  5
1F
330
1
100
AcDbSymbolTableRecord
100
AcDbBlockTableRecord
  2
*Model_Space
340
22
 70
     0
280
     1
281
     0
  0
BLOCK_RECORD
  5
1B
330
1
100
AcDbSymbolTableRecord
100
AcDbBlockTableRecord
  2
*Paper_Space
340
1E
 70
     0
280
     1
281
     0
  0
BLOCK_RECORD
  5
23
330
1
100
AcDbSymbolTableRecord
100
AcDbBlockTableRecord
  2
*Paper_Space0
340
26
 70
     0
280
     1
281
     0
  0
BLOCK_RECORD
  5
72
330
1
100
AcDbSymbolTableRecord
100
AcDbBlockTableRecord
  2
_CLOSED
340
0
 70
     0
280
     1
281
     0
  0
BLOCK_RECORD
  5
7B
330
1
100
AcDbSymbolTableRecord
100
AcDbBlockTableRecord
  2
a
340
0
102
{BLKREFS
331
B1
102
}
 70
     0
280
     1
281
     0
  0
BLOCK_RECORD
  5
B2
330
1
100
AcDbSymbolTableRecord
100
AcDbBlockTableRecord
  2
b
340
0
102
{BLKREFS
331
10E
102
}
 70
     0
280
     1
281
     0
  0
BLOCK_RECORD
  5
10F
330
1
100
AcDbSymbolTableRecord
100
AcDbBlockTableRecord
  2
c
340
0
102
{BLKREFS
331
16C
102
}
 70
     0
280
     1
281
     0
  0
BLOCK_RECORD
  5
16D
330
1
100
AcDbSymbolTableRecord
100
AcDbBlockTableRecord
  2
d
340
0
102
{BLKREFS
331
1CA
102
}
 70
     0
280
     1
281
     0
  0
ENDTAB
  0
ENDSEC
  0
SECTION
  2
BLOCKS
  0
BLOCK
  5
20
330
1F
100
AcDbEntity
  8
0
100
AcDbBlockBegin
  2
*Model_Space
 70
     0
 10
0.0
 20
0.0
 30
0.0
  3
*Model_Space
  1

  0
ENDBLK
  5
21
330
1F
100
AcDbEntity
  8
0
100
AcDbBlockEnd
  0
BLOCK
  5
1C
330
1B
100
AcDbEntity
 67
     1
  8
0
100
AcDbBlockBegin
  2
*Paper_Space
 70
     0
 10
0.0
 20
0.0
 30
0.0
  3
*Paper_Space
  1

  0
ENDBLK
  5
1D
330
1B
100
AcDbEntity
 67
     1
  8
0
100
AcDbBlockEnd
  0
BLOCK
  5
24
330
23
100
AcDbEntity
  8
0
100
AcDbBlockBegin
  2
*Paper_Space0
 70
     0
 10
0.0
 20
0.0
 30
0.0
  3
*Paper_Space0
  1

  0
ENDBLK
  5
25
330
23
100
AcDbEntity
  8
0
100
AcDbBlockEnd
  0
BLOCK
  5
73
330
72
100
AcDbEntity
  8
0
100
AcDbBlockBegin
  2
_CLOSED
 70
     0
 10
0.0
 20
0.0
 30
0.0
  3
_CLOSED
  1

  0
LINE
  5
75
330
72
100
AcDbEntity
  8
0
  6
ByBlock
 62
     0
370
    -2
100
AcDbLine
 10
-1.0
 20
0.166667
 30
0.0
 11
0.0
 21
0.0
 31
0.0
  0
LINE
  5
76
330
72
100
AcDbEntity
  8
0
  6
ByBlock
 62
     0
370
    -2
100
AcDbLine
 10
0.0
 20
0.0
 30
0.0
 11
-1.0
 21
-0.166667
 31
0.0
  0
LINE
  5
77
330
72
100
AcDbEntity
  8
0
  6
ByBlock
 62
     0
370
    -2
100
AcDbLine
 10
-1.0
 20
0.166667
 30
0.0
 11
-1.0
 21
-0.166667
 31
0.0
  0
LINE
  5
78
330
72
100
AcDbEntity
  8
0
  6
ByBlock
 62
     0
370
    -2
100
AcDbLine
 10
0.0
 20
0.0
 30
0.0
 11
-1.0
 21
0.0
 31
0.0
  0
ENDBLK
  5
74
330
72
100
AcDbEntity
  8
0
100
AcDbBlockEnd
  0
BLOCK
  5
AF
330
7B
100
AcDbEntity
  8
0
100
AcDbBlockBegin
  2
a
 70
     0
 10
193.177399
 20
365.840179
 30
0.0
  3
a
  1

  0
ARC
  5
7C
330
7B
100
AcDbEntity
  8
0
  6
Continuous
 62
     0
370
     0
100
AcDbCircle
 10
286.779478
 20
485.942261
 30
0.0
 40
10.64999998807905
100
AcDbArc
 50
202.44828
 51
22.44828
  0
ARC
  5
7D
330
7B
100
AcDbEntity
  8
0
  6
Continuous
 62
     0
370
     0
100
AcDbCircle
 10
286.779478
 20
485.942261
 30
0.0
 40
10.64999998807905
100
AcDbArc
 50
22.44828
 51
202.44828
  0
ARC
  5
7E
330
7B
100
AcDbEntity
  8
0
  6
Continuous
 62
     0
370
    30
100
AcDbCircle
 10
286.779478
 20
485.942261
 30
0.0
 40
10.94999999999999
100
AcDbArc
 50
202.44828
 51
22.44828
  0
ARC
  5
7F
330
7B
100
AcDbEntity
  8
0
  6
Continuous
 62
     0
370
    30
100
AcDbCircle
 10
286.779478
 20
485.942261
 30
0.0
 40
10.94999999999998
100
AcDbArc
 50
22.44828
 51
202.44828
  0
ARC
  5
80
330
7B
100
AcDbEntity
  8
0
  6
Continuous
 62
     0
370
    30
100
AcDbCircle
 10
286.779478
 20
485.942262
 30
0.0
 40
10.99999999999999
100
AcDbArc
 50
90.0
 51
270.0
  0
ARC
  5
81
330
7B
100
AcDbEntity
  8
0
  6
Continuous
 62
     0
370
    30
100
AcDbCircle
 10
286.779478
 20
485.942262
 30
0.0
 40
10.99999999999998
100
AcDbArc
 50
270.0
 51
90.0
  0
LWPOLYLINE
  5
82
330
7B
100
AcDbEntity
  8
0
  6
Continuous
 62
     0
370
     0
100
AcDbPolyline
 90
       24
 70
     0
 43
0.0
 10
276.023254
 20
457.591309
 10
276.029907
 20
457.593231
 10
276.039215
 20
457.590607
 10
276.053314
 20
457.579803
 10
276.076019
 20
457.553864
 10
276.114227
 20
457.500641
 10
276.179413
 20
457.399109
 10
276.281708
 20
457.229279
 10
276.411407
 20
457.005737
 10
276.551636
 20
456.758698
 10
276.694794
 20
456.503235
 10
276.83844
 20
456.244507
 10
276.981934
 20
455.984253
 10
277.125977
 20
455.723633
 10
277.271881
 20
455.463715
 10
277.420746
 20
455.205353
 10
277.573822
 20
454.949371
 10
277.731842
 20
454.696411
 10
277.89505
 20
454.446838
 10
278.063568
 20
454.200897
 10
278.237274
 20
453.958649
 10
278.415833
 20
453.720001
 10
278.599579
 20
453.485413
 10
278.794281
 20
453.253998
  0
LWPOLYLINE
  5
83
330
7B
100
AcDbEntity
  8
0
  6
Continuous
 62
     0
370
     0
100
AcDbPolyline
 90
       15
 70
     0
 43
0.0
 10
278.794281
 20
453.253998
 10
279.905426
 20
453.575317
 10
281.027283
 20
453.858734
 10
282.158142
 20
454.106049
 10
283.298065
 20
454.310974
 10
284.446564
 20
454.467499
 10
285.602203
 20
454.568848
 10
286.762299
 20
454.605774
 10
287.922485
 20
454.570923
 10
289.078308
 20
454.471344
 10
290.22702
 20
454.316315
 10
291.367218
 20
454.112793
 10
292.498352
 20
453.866608
 10
293.620361
 20
453.583862
 10
294.764435
 20
453.25412
  0
LWPOLYLINE
  5
84
330
7B
100
AcDbEntity
  8
0
  6
Continuous
 62
     0
370
     0
100
AcDbPolyline
 90
       24
 70
     0
 43
0.0
 10
294.764435
 20
453.25412
 10
294.955566
 20
453.482422
 10
295.139465
 20
453.71701
 10
295.318512
 20
453.955444
 10
295.492554
 20
454.197571
 10
295.661285
 20
454.443481
 10
295.824585
 20
454.692993
 10
295.982635
 20
454.945892
 10
296.135712
 20
455.201813
 10
296.284637
 20
455.460114
 10
296.430542
 20
455.720032
 10
296.574615
 20
455.980621
 10
296.718079
 20
456.240875
 10
296.861725
 20
456.499634
 10
297.004883
 20
456.755127
 10
297.145172
 20
457.00235
 10
297.275116
 20
457.22644
 10
297.37793
 20
457.397278
 10
297.443634
 20
457.499725
 10
297.482147
 20
457.553497
 10
297.505035
 20
457.579742
 10
297.519226
 20
457.590729
 10
297.528595
 20
457.593445
 10
297.53537
 20
457.591492
  0
LWPOLYLINE
  5
85
330
7B
100
AcDbEntity
  8
0
  6
Continuous
 62
     0
370
     0
100
AcDbPolyline
 90
       16
 70
     0
 43
0.0
 10
308.697845
 20
434.122223
 10
308.740021
 20
435.29892
 10
308.750549
 20
436.476562
 10
308.729492
 20
437.654083
 10
308.675354
 20
438.830414
 10
308.585175
 20
440.004547
 10
308.4552
 20
441.175049
 10
308.28006
 20
442.33963
 10
308.054321
 20
443.495605
 10
307.773163
 20
444.639313
 10
307.43222
 20
445.766754
 10
307.028564
 20
446.873291
 10
306.560425
 20
447.954163
 10
306.028503
 20
449.005127
 10
305.434753
 20
450.022339
 10
304.740326
 20
451.063843
  0
LWPOLYLINE
  5
86
330
7B
100
AcDbEntity
  8
0
  6
Continuous
 62
     0
370
     0
100
AcDbPolyline
 90
       26
 70
     0
 43
0.0
 10
297.544464
 20
457.58374
 10
298.534149
 20
456.992218
 10
299.491333
 20
456.346191
 10
300.414062
 20
455.649323
 10
301.299103
 20
454.905701
 10
302.143463
 20
454.11908
 10
302.945526
 20
453.291077
 10
303.703888
 20
452.422607
 10
304.415375
 20
451.514893
 10
305.075745
 20
450.569305
 10
305.679016
 20
449.586487
 10
306.218872
 20
448.567322
 10
306.690979
 20
447.515076
 10
307.093323
 20
446.434296
 10
307.429718
 20
445.331146
 10
307.706055
 20
444.211639
 10
307.930634
 20
443.080566
 10
308.111816
 20
441.941925
 10
308.257324
 20
440.798096
 10
308.37442
 20
439.651154
 10
308.468262
 20
438.502075
 10
308.54306
 20
437.351593
 10
308.602142
 20
436.200256
 10
308.647308
 20
435.048309
 10
308.679993
 20
433.895905
 10
308.70163
 20
432.718109
  0
LWPOLYLINE
  5
87
330
7B
100
AcDbEntity
  8
0
  6
Continuous
 62
     0
370
     0
100
AcDbPolyline
 90
       27
 70
     0
 43
0.0
 10
294.764435
 20
453.25412
 10
295.428741
 20
452.345184
 10
296.056763
 20
451.4104
 10
296.654419
 20
450.456116
 10
297.221985
 20
449.483734
 10
297.760803
 20
448.495087
 10
298.271271
 20
447.491669
 10
298.744507
 20
446.470123
 10
299.162323
 20
445.424866
 10
299.509521
 20
444.353851
 10
299.785828
 20
443.262421
 10
300.000122
 20
442.156982
 10
300.163727
 20
441.042969
 10
300.28717
 20
439.923706
 10
300.379761
 20
438.801575
 10
300.449036
 20
437.677704
 10
300.501801
 20
436.552979
 10
300.541687
 20
435.427765
 10
300.571259
 20
434.302246
 10
300.592682
 20
433.176544
 10
300.607208
 20
432.050751
 10
300.615997
 20
430.924896
 10
300.619995
 20
429.799011
 10
300.619934
 20
428.673157
 10
300.616486
 20
427.547363
 10
300.610443
 20
426.421631
 10
300.602692
 20
425.270172
  0
LWPOLYLINE
  5
88
330
7B
100
AcDbEntity
  8
0
  6
Continuous
 62
     0
370
     0
100
AcDbPolyline
 90
       31
 70
     0
 43
0.0
 10
300.602692
 20
425.270172
 10
300.904785
 20
425.269897
 10
301.206879
 20
425.269623
 10
301.508942
 20
425.269379
 10
301.811035
 20
425.269135
 10
302.113098
 20
425.26886
 10
302.415192
 20
425.268646
 10
302.717224
 20
425.268402
 10
303.019287
 20
425.268188
 10
303.32135
 20
425.267944
 10
303.623383
 20
425.267761
 10
303.925415
 20
425.267548
 10
304.227448
 20
425.267365
 10
304.529449
 20
425.267151
 10
304.831451
 20
425.266968
 10
305.133362
 20
425.266785
 10
305.435211
 20
425.266571
 10
305.736938
 20
425.266388
 10
306.038544
 20
425.266144
 10
306.339996
 20
425.2659
 10
306.641266
 20
425.265594
 10
306.9422
 20
425.265198
 10
307.242584
 20
425.264587
 10
307.541565
 20
425.263336
 10
307.837402
 20
425.260681
 10
308.124237
 20
425.254791
 10
308.380127
 20
425.24176
 10
308.567291
 20
425.219299
 10
308.675537
 20
425.182831
 10
308.726929
 20
425.121887
 10
308.740906
 20
425.033356
  0
LWPOLYLINE
  5
89
330
7B
100
AcDbEntity
  8
0
  6
Continuous
 62
     0
370
     0
100
AcDbPolyline
 90
        8
 70
     0
 43
0.0
 10
276.11972
 20
384.789459
 10
279.151489
 20
384.736328
 10
282.185516
 20
384.7117
 10
285.220886
 20
384.702484
 10
288.256836
 20
384.702393
 10
291.292236
 20
384.711365
 10
294.326294
 20
384.735535
 10
297.440186
 20
384.789642
  0
LWPOLYLINE
  5
8A
330
7B
100
AcDbEntity
  8
0
  6
Continuous
 62
     0
370
     0
100
AcDbPolyline
 90
       78
 70
     0
 43
0.0
 10
297.440186
 20
384.789642
 10
297.888855
 20
385.095459
 10
298.291626
 20
385.45636
 10
298.63974
 20
385.867157
 10
298.921204
 20
386.323608
 10
299.138489
 20
386.812042
 10
299.306366
 20
387.31842
 10
299.438232
 20
387.834717
 10
299.544067
 20
388.356628
 10
299.631165
 20
388.881714
 10
299.704102
 20
389.408813
 10
299.766174
 20
389.937164
 10
299.819153
 20
390.466522
 10
299.864594
 20
390.996582
 10
299.904053
 20
391.5271
 10
299.939026
 20
392.057922
 10
299.970367
 20
392.588867
 10
299.998505
 20
393.119934
 10
300.023895
 20
393.651123
 10
300.046967
 20
394.182434
 10
300.068176
 20
394.713776
 10
300.087891
 20
395.245209
 10
300.106384
 20
395.776642
 10
300.123749
 20
396.308136
 10
300.140137
 20
396.839691
 10
300.155701
 20
397.371246
 10
300.170563
 20
397.902832
 10
300.184906
 20
398.434418
 10
300.198822
 20
398.966034
 10
300.212402
 20
399.49765
 10
300.225677
 20
400.029266
 10
300.238617
 20
400.560913
 10
300.251282
 20
401.09259
 10
300.263611
 20
401.624298
 10
300.275696
 20
402.156036
 10
300.287506
 20
402.687836
 10
300.299042
 20
403.219666
 10
300.310333
 20
403.751526
 10
300.321381
 20
404.283478
 10
300.332184
 20
404.81546
 10
300.342743
 20
405.347504
 10
300.353088
 20
405.879639
 10
300.36322
 20
406.411835
 10
300.373169
 20
406.944122
 10
300.382874
 20
407.476471
 10
300.392395
 20
408.008911
 10
300.401703
 20
408.541443
 10
300.410828
 20
409.074066
 10
300.419769
 20
409.606812
 10
300.428528
 20
410.139648
 10
300.437103
 20
410.672668
 10
300.445526
 20
411.205841
 10
300.453766
 20
411.739166
 10
300.461823
 20
412.272675
 10
300.469727
 20
412.806396
 10
300.477448
 20
413.340332
 10
300.485046
 20
413.874542
 10
300.492462
 20
414.408997
 10
300.499725
 20
414.943817
 10
300.506836
 20
415.478973
 10
300.513824
 20
416.014679
 10
300.52063
 20
416.550995
 10
300.527283
 20
417.088135
 10
300.533752
 20
417.62619
 10
300.540039
 20
418.165283
 10
300.546112
 20
418.705536
 10
300.551941
 20
419.247009
 10
300.557587
 20
419.789825
 10
300.562958
 20
420.334045
 10
300.568085
 20
420.879517
 10
300.572998
 20
421.426117
 10
300.577698
 20
421.973633
 10
300.582184
 20
422.521881
 10
300.586517
 20
423.070679
 10
300.590729
 20
423.619843
 10
300.594788
 20
424.169281
 10
300.598785
 20
424.718842
 10
300.602692
 20
425.270172
  0
LWPOLYLINE
  5
8B
330
7B
100
AcDbEntity
  8
0
  6
Continuous
 62
     0
370
     0
100
AcDbPolyline
 90
       27
 70
     0
 43
0.0
 10
278.794281
 20
453.253998
 10
278.130646
 20
452.344513
 10
277.502045
 20
451.410156
 10
276.904236
 20
450.455994
 10
276.336792
 20
449.483521
 10
275.797974
 20
448.494904
 10
275.287537
 20
447.491455
 10
274.814301
 20
446.469879
 10
274.396484
 20
445.424622
 10
274.049316
 20
444.353607
 10
273.773041
 20
443.262177
 10
273.558777
 20
442.156738
 10
273.395172
 20
441.042694
 10
273.271759
 20
439.923462
 10
273.179199
 20
438.801331
 10
273.109924
 20
437.677429
 10
273.057159
 20
436.552704
 10
273.017303
 20
435.42749
 10
272.987762
 20
434.301971
 10
272.96637
 20
433.1763
 10
272.951843
 20
432.050476
 10
272.943085
 20
430.924622
 10
272.939117
 20
429.798737
 10
272.939209
 20
428.672882
 10
272.942657
 20
427.547089
 10
272.9487
 20
426.421356
 10
272.956482
 20
425.269928
  0
LWPOLYLINE
  5
8C
330
7B
100
AcDbEntity
  8
0
  6
Continuous
 62
     0
370
     0
100
AcDbPolyline
 90
       78
 70
     0
 43
0.0
 10
272.956482
 20
425.269928
 10
272.960419
 20
424.720306
 10
272.964386
 20
424.170776
 10
272.968475
 20
423.621338
 10
272.972687
 20
423.072174
 10
272.97702
 20
422.523407
 10
272.981537
 20
421.975159
 10
272.986237
 20
421.427643
 10
272.99115
 20
420.881073
 10
272.996307
 20
420.335602
 10
273.001678
 20
419.791382
 10
273.007324
 20
419.248566
 10
273.013184
 20
418.707092
 10
273.019257
 20
418.16687
 10
273.025543
 20
417.627777
 10
273.032013
 20
417.089722
 10
273.038666
 20
416.552612
 10
273.045502
 20
416.016296
 10
273.05249
 20
415.480621
 10
273.059601
 20
414.945465
 10
273.066895
 20
414.410675
 10
273.07431
 20
413.87619
 10
273.081909
 20
413.342041
 10
273.089661
 20
412.808105
 10
273.097565
 20
412.274384
 10
273.105621
 20
411.740875
 10
273.113861
 20
411.20755
 10
273.122284
 20
410.674408
 10
273.13089
 20
410.141418
 10
273.139648
 20
409.608582
 10
273.14859
 20
409.075836
 10
273.157745
 20
408.543213
 10
273.167053
 20
408.010712
 10
273.176575
 20
407.478271
 10
273.18631
 20
406.945953
 10
273.196228
 20
406.413666
 10
273.20639
 20
405.8815
 10
273.216736
 20
405.349396
 10
273.227325
 20
404.817352
 10
273.238129
 20
404.28537
 10
273.249176
 20
403.753448
 10
273.260498
 20
403.221588
 10
273.272034
 20
402.689758
 10
273.283844
 20
402.15799
 10
273.295929
 20
401.626251
 10
273.308289
 20
401.094574
 10
273.320953
 20
400.562897
 10
273.333893
 20
400.031281
 10
273.347168
 20
399.499664
 10
273.360748
 20
398.968048
 10
273.374695
 20
398.436462
 10
273.389038
 20
397.904877
 10
273.4039
 20
397.373291
 10
273.419464
 20
396.841766
 10
273.435883
 20
396.310242
 10
273.453247
 20
395.778748
 10
273.47171
 20
395.247314
 10
273.491455
 20
394.715912
 10
273.512665
 20
394.18457
 10
273.535736
 20
393.65329
 10
273.561127
 20
393.122101
 10
273.589264
 20
392.591034
 10
273.620605
 20
392.060089
 10
273.655548
 20
391.529327
 10
273.694977
 20
390.998779
 10
273.740417
 20
390.468719
 10
273.793365
 20
389.939392
 10
273.855377
 20
389.411041
 10
273.928284
 20
388.883972
 10
274.01532
 20
388.358856
 10
274.121033
 20
387.836945
 10
274.252747
 20
387.320648
 10
274.420471
 20
386.814209
 10
274.637482
 20
386.325684
 10
274.91861
 20
385.869049
 10
275.266296
 20
385.457947
 10
275.668549
 20
385.096497
 10
276.11972
 20
384.789459
  0
LWPOLYLINE
  5
8D
330
7B
100
AcDbEntity
  8
0
  6
Continuous
 62
     0
370
     0
100
AcDbPolyline
 90
       20
 70
     0
 43
0.0
 10
297.440186
 20
384.789642
 10
297.723846
 20
384.639557
 10
297.999329
 20
384.47464
 10
298.268219
 20
384.299347
 10
298.529907
 20
384.113739
 10
298.782898
 20
383.916321
 10
299.025635
 20
383.706329
 10
299.256317
 20
383.483337
 10
299.474854
 20
383.24826
 10
299.683777
 20
383.004028
 10
299.886169
 20
382.754547
 10
300.085358
 20
382.503967
 10
300.282379
 20
382.250549
 10
300.467499
 20
382.001801
 10
300.618958
 20
381.780762
 10
300.72052
 20
381.609283
 10
300.778687
 20
381.486267
 10
300.807709
 20
381.398254
 10
300.813263
 20
381.339783
 10
300.795013
 20
381.312408
  0
LWPOLYLINE
  5
8E
330
7B
100
AcDbEntity
  8
0
  6
Continuous
 62
     0
370
     0
100
AcDbPolyline
 90
       20
 70
     0
 43
0.0
 10
276.11972
 20
384.789459
 10
275.836182
 20
384.639008
 10
275.56076
 20
384.473969
 10
275.291718
 20
384.298798
 10
275.029907
 20
384.113342
 10
274.776794
 20
383.916016
 10
274.534058
 20
383.705933
 10
274.303375
 20
383.48288
 10
274.084839
 20
383.247772
 10
273.875916
 20
383.00351
 10
273.673492
 20
382.753967
 10
273.474274
 20
382.503387
 10
273.277222
 20
382.249908
 10
273.092133
 20
382.00116
 10
272.940735
 20
381.780151
 10
272.839294
 20
381.608765
 10
272.781158
 20
381.485809
 10
272.752197
 20
381.397827
 10
272.746704
 20
381.339417
 10
272.764984
 20
381.312134
  0
LWPOLYLINE
  5
8F
330
7B
100
AcDbEntity
  8
0
  6
Continuous
 62
     0
370
     0
100
AcDbPolyline
 90
       26
 70
     0
 43
0.0
 10
264.857788
 20
432.745575
 10
264.879059
 20
433.897064
 10
264.911713
 20
435.048279
 10
264.956787
 20
436.199066
 10
265.015808
 20
437.349243
 10
265.090454
 20
438.498566
 10
265.184113
 20
439.646454
 10
265.300964
 20
440.792297
 10
265.446136
 20
441.934967
 10
265.626862
 20
443.07251
 10
265.85083
 20
444.202515
 10
266.126434
 20
445.321014
 10
266.461884
 20
446.423218
 10
266.863098
 20
447.503174
 10
267.333893
 20
448.554718
 10
267.872375
 20
449.573273
 10
268.474213
 20
450.555603
 10
269.133148
 20
451.500793
 10
269.84314
 20
452.408173
 10
270.599976
 20
453.276459
 10
271.400452
 20
454.10434
 10
272.243195
 20
454.89093
 10
273.126556
 20
455.634705
 10
274.047577
 20
456.331879
 10
275.003082
 20
456.978394
 10
276.01416
 20
457.583557
  0
LWPOLYLINE
  5
90
330
7B
100
AcDbEntity
  8
0
  6
Continuous
 62
     0
370
     0
100
AcDbPolyline
 90
       16
 70
     0
 43
0.0
 10
268.703156
 20
450.89978
 10
268.064972
 20
449.926788
 10
267.483734
 20
448.918823
 10
266.963104
 20
447.878204
 10
266.504761
 20
446.808655
 10
266.109375
 20
445.714355
 10
265.775024
 20
444.599854
 10
265.498932
 20
443.469635
 10
265.276794
 20
442.327545
 10
265.104004
 20
441.177094
 10
264.975311
 20
440.020844
 10
264.885498
 20
438.861023
 10
264.830902
 20
437.699036
 10
264.808746
 20
436.535858
 10
264.817383
 20
435.372498
 10
264.861115
 20
434.12262
  0
LWPOLYLINE
  5
91
330
7B
100
AcDbEntity
  8
0
  6
Continuous
 62
     0
370
     0
100
AcDbPolyline
 90
       31
 70
     0
 43
0.0
 10
264.818268
 20
425.032867
 10
264.832062
 20
425.121002
 10
264.883148
 20
425.182129
 10
264.990906
 20
425.218719
 10
265.177521
 20
425.241241
 10
265.433075
 20
425.254333
 10
265.719849
 20
425.260284
 10
266.015656
 20
425.26297
 10
266.314636
 20
425.264221
 10
266.615051
 20
425.264832
 10
266.915955
 20
425.265228
 10
267.217224
 20
425.265533
 10
267.518707
 20
425.265808
 10
267.820312
 20
425.266052
 10
268.12207
 20
425.266266
 10
268.42392
 20
425.266449
 10
268.725861
 20
425.266663
 10
269.027832
 20
425.266846
 10
269.329865
 20
425.267029
 10
269.631897
 20
425.267242
 10
269.93396
 20
425.267456
 10
270.235992
 20
425.26767
 10
270.538055
 20
425.267883
 10
270.840118
 20
425.268127
 10
271.142212
 20
425.268372
 10
271.444275
 20
425.268616
 10
271.746368
 20
425.26886
 10
272.048462
 20
425.269104
 10
272.350555
 20
425.269379
 10
272.652649
 20
425.269653
 10
272.956482
 20
425.269928
  0
LWPOLYLINE
  5
92
330
7B
100
AcDbEntity
  8
0
  6
Continuous
 62
     0
370
    30
100
AcDbPolyline
 90
        4
 70
     0
 43
0.0
 10
264.850983
 20
434.194794
 10
264.674103
 20
435.427948
 10
264.566528
 20
436.668915
 10
264.529602
 20
437.989258
  0
LWPOLYLINE
  5
93
330
7B
100
AcDbEntity
  8
0
  6
Continuous
 62
     0
370
    30
100
AcDbPolyline
 90
        4
 70
     0
 43
0.0
 10
309.029358
 20
437.989655
 10
308.996735
 20
436.745605
 10
308.893494
 20
435.504181
 10
308.708008
 20
434.194885
  0
LWPOLYLINE
  5
94
330
7B
100
AcDbEntity
  8
0
  6
Continuous
 62
     0
370
    30
100
AcDbPolyline
 90
       12
 70
     0
 43
0.0
 10
268.967072
 20
451.27417
 10
268.218842
 20
450.199524
 10
267.538696
 20
449.086243
 10
266.928436
 20
447.938171
 10
266.388367
 20
446.759766
 10
265.917969
 20
445.555695
 10
265.516144
 20
444.330597
 10
265.181885
 20
443.087555
 10
264.914398
 20
441.828705
 10
264.714966
 20
440.558014
 10
264.585632
 20
439.280457
 10
264.529541
 20
437.989258
  0
LWPOLYLINE
  5
95
330
7B
100
AcDbEntity
  8
0
  6
Continuous
 62
     0
370
    30
100
AcDbPolyline
 90
       12
 70
     0
 43
0.0
 10
309.029419
 20
437.989655
 10
308.974152
 20
439.269073
 10
308.845612
 20
440.545624
 10
308.647003
 20
441.81543
 10
308.380463
 20
443.073456
 10
308.047241
 20
444.315704
 10
307.646576
 20
445.540039
 10
307.17749
 20
446.743469
 10
306.638824
 20
447.921326
 10
306.03009
 20
449.06897
 10
305.351562
 20
450.181976
 10
304.59787
 20
451.266052
  0
ARC
  5
96
330
7B
100
AcDbEntity
  8
0
  6
Continuous
 62
     0
370
     0
100
AcDbCircle
 10
286.779478
 20
459.442262
 30
0.0
 40
89.0
100
AcDbArc
 50
180.0
 51
0.0
  0
ARC
  5
97
330
7B
100
AcDbEntity
  8
0
  6
Continuous
 62
     0
370
     0
100
AcDbCircle
 10
286.779478
 20
459.442262
 30
0.0
 40
89.0
100
AcDbArc
 50
360.0
 51
180.0
  0
ARC
  5
98
330
7B
100
AcDbEntity
  8
0
  6
Continuous
 62
     0
370
    30
100
AcDbCircle
 10
286.779478
 20
459.442262
 30
0.0
 40
89.99999999999996
100
AcDbArc
 50
360.0
 51
180.0
  0
ARC
  5
99
330
7B
100
AcDbEntity
  8
0
  6
Continuous
 62
     0
370
    30
100
AcDbCircle
 10
286.779478
 20
459.442262
 30
0.0
 40
89.99999999999997
100
AcDbArc
 50
180.0
 51
0.0
  0
ARC
  5
9A
330
7B
100
AcDbEntity
  8
0
  6
Continuous
 62
     0
370
     0
100
AcDbCircle
 10
286.779478
 20
485.942262
 30
0.0
 40
11.8
100
AcDbArc
 50
180.0
 51
0.0
  0
ARC
  5
9B
330
7B
100
AcDbEntity
  8
0
  6
Continuous
 62
     0
370
     0
100
AcDbCircle
 10
286.779478
 20
485.942262
 30
0.0
 40
11.8
100
AcDbArc
 50
0.0
 51
180.0
  0
ARC
  5
9C
330
7B
100
AcDbEntity
  8
0
  6
Continuous
 62
     0
370
     0
100
AcDbCircle
 10
286.779478
 20
437.942262
 30
0.0
 40
22.89999999999978
100
AcDbArc
 50
180.0
 51
196.661099
  0
ARC
  5
9D
330
7B
100
AcDbEntity
  8
0
  6
Continuous
 62
     0
370
     0
100
AcDbCircle
 10
286.779478
 20
437.942262
 30
0.0
 40
22.89999999999993
100
AcDbArc
 50
343.339936
 51
0.0
  0
ARC
  5
9E
330
7B
100
AcDbEntity
  8
0
  6
Continuous
 62
     0
370
     0
100
AcDbCircle
 10
286.779478
 20
437.942262
 30
0.0
 40
22.9
100
AcDbArc
 50
0.0
 51
180.0
  0
LWPOLYLINE
  5
9F
330
7B
100
AcDbEntity
  8
0
  6
Continuous
 62
     0
370
    30
100
AcDbPolyline
 90
        6
 70
     0
 43
0.0
 10
308.696503
 20
434.088745
 10
308.69873
 20
434.115082
 10
308.701233
 20
434.140259
 10
308.703796
 20
434.162048
 10
308.706024
 20
434.17865
 10
308.708557
 20
434.194794
  0
LWPOLYLINE
  5
A0
330
7B
100
AcDbEntity
  8
0
  6
Continuous
 62
     0
370
    30
100
AcDbPolyline
 90
        6
 70
     0
 43
0.0
 10
264.850433
 20
434.194702
 10
264.852844
 20
434.179321
 10
264.855011
 20
434.163513
 10
264.857513
 20
434.142426
 10
264.860016
 20
434.117737
 10
264.862549
 20
434.088257
  0
LWPOLYLINE
  5
A1
330
7B
100
AcDbEntity
  8
0
  6
Continuous
 62
     0
370
    30
100
AcDbPolyline
 90
       70
 70
     0
 43
0.0
 10
272.764618
 20
381.312073
 10
272.107697
 20
381.524445
 10
271.462494
 20
381.768982
 10
270.834198
 20
382.053009
 10
270.230713
 20
382.384186
 10
269.661652
 20
382.76947
 10
269.139191
 20
383.212769
 10
268.673889
 20
383.712494
 10
268.269562
 20
384.259888
 10
267.92569
 20
384.84436
 10
267.634064
 20
385.454407
 10
267.384338
 20
386.081085
 10
267.166718
 20
386.718719
 10
266.974152
 20
387.363678
 10
266.803131
 20
388.014252
 10
266.650421
 20
388.669037
 10
266.513184
 20
389.326935
 10
266.389252
 20
389.987274
 10
266.2771
 20
390.649567
 10
266.175201
 20
391.313385
 10
266.082062
 20
391.978333
 10
265.996735
 20
392.644165
 10
265.918396
 20
393.31073
 10
265.846283
 20
393.977875
 10
265.779633
 20
394.645477
 10
265.717804
 20
395.313416
 10
265.660461
 20
395.981689
 10
265.607147
 20
396.650208
 10
265.557434
 20
397.318939
 10
265.510925
 20
397.987793
 10
265.467285
 20
398.656799
 10
265.4263
 20
399.325897
 10
265.387756
 20
399.995117
 10
265.351471
 20
400.664459
 10
265.31723
 20
401.333923
 10
265.284882
 20
402.00351
 10
265.254272
 20
402.673218
 10
265.225281
 20
403.343109
 10
265.197754
 20
404.013123
 10
265.171631
 20
404.683319
 10
265.146881
 20
405.353668
 10
265.123444
 20
406.024231
 10
265.101227
 20
406.694977
 10
265.080139
 20
407.365906
 10
265.060181
 20
408.037079
 10
265.041229
 20
408.708496
 10
265.023285
 20
409.380157
 10
265.006317
 20
410.052124
 10
264.990265
 20
410.724365
 10
264.975067
 20
411.396973
 10
264.960663
 20
412.069946
 10
264.946991
 20
412.743347
 10
264.93399
 20
413.417328
 10
264.921539
 20
414.091949
 10
264.909576
 20
414.767273
 10
264.898132
 20
415.443481
 10
264.887238
 20
416.120667
 10
264.876953
 20
416.79892
 10
264.86734
 20
417.478394
 10
264.858459
 20
418.15918
 10
264.850403
 20
418.841461
 10
264.843201
 20
419.525238
 10
264.836975
 20
420.21048
 10
264.831787
 20
420.897034
 10
264.827637
 20
421.584686
 10
264.824463
 20
422.273224
 10
264.822083
 20
422.962463
 10
264.820374
 20
423.652191
 10
264.819153
 20
424.342224
 10
264.818298
 20
425.032867
  0
LWPOLYLINE
  5
A2
330
7B
100
AcDbEntity
  8
0
  6
Continuous
 62
     0
370
    30
100
AcDbPolyline
 90
       12
 70
     0
 43
0.0
 10
264.818329
 20
425.041962
 10
264.817657
 20
425.754303
 10
264.817474
 20
426.466461
 10
264.817932
 20
427.178345
 10
264.819214
 20
427.889618
 10
264.821442
 20
428.599762
 10
264.824677
 20
429.308167
 10
264.828979
 20
430.014252
 10
264.834473
 20
430.71582
 10
264.841248
 20
431.410431
 10
264.849182
 20
432.086884
 10
264.857941
 20
432.745575
  0
LWPOLYLINE
  5
A3
330
7B
100
AcDbEntity
  8
0
  6
Continuous
 62
     0
370
    30
100
AcDbPolyline
 90
       16
 70
     0
 43
0.0
 10
276.023254
 20
457.591309
 10
275.515717
 20
457.297546
 10
275.016602
 20
456.98938
 10
274.526184
 20
456.667328
 10
274.0448
 20
456.33194
 10
273.572723
 20
455.983704
 10
273.110199
 20
455.623108
 10
272.657318
 20
455.250549
 10
272.214294
 20
454.866364
 10
271.781494
 20
454.470795
 10
271.359192
 20
454.064209
 10
270.947632
 20
453.646881
 10
270.547272
 20
453.219147
 10
270.158508
 20
452.781372
 10
269.78241
 20
452.334503
 10
269.42395
 20
451.884857
  0
LWPOLYLINE
  5
A4
330
7B
100
AcDbEntity
  8
0
  6
Continuous
 62
     0
370
    30
100
AcDbPolyline
 90
       13
 70
     0
 43
0.0
 10
264.859467
 20
432.865234
 10
264.862488
 20
433.119415
 10
264.86438
 20
433.314209
 10
264.865387
 20
433.449982
 10
264.865692
 20
433.525879
 10
264.865753
 20
433.597351
 10
264.86557
 20
433.681274
 10
264.865112
 20
433.782074
 10
264.864349
 20
433.899323
 10
264.863464
 20
434.003387
 10
264.862762
 20
434.071716
 10
264.862244
 20
434.109619
 10
264.86203
 20
434.122681
  0
LWPOLYLINE
  5
A5
330
7B
100
AcDbEntity
  8
0
  6
Continuous
 62
     0
370
    30
100
AcDbPolyline
 90
        2
 70
     0
 43
0.0
 10
268.066803
 20
449.917114
 10
268.074493
 20
449.92981
  0
LWPOLYLINE
  5
A6
330
7B
100
AcDbEntity
  8
0
  6
Continuous
 62
     0
370
    30
100
AcDbPolyline
 90
       23
 70
     0
 43
0.0
 10
269.421326
 20
451.881409
 10
269.37027
 20
451.815247
 10
269.318359
 20
451.747528
 10
269.266632
 20
451.679474
 10
269.214783
 20
451.610687
 10
269.164001
 20
451.542786
 10
269.110321
 20
451.470398
 10
269.056824
 20
451.397644
 10
268.999939
 20
451.31958
 10
268.942719
 20
451.240265
 10
268.879974
 20
451.152466
 10
268.819092
 20
451.066376
 10
268.753632
 20
450.972717
 10
268.685944
 20
450.874756
 10
268.614075
 20
450.76944
 10
268.53833
 20
450.65686
 10
268.460541
 20
450.539581
 10
268.378418
 20
450.413818
 10
268.292877
 20
450.28064
 10
268.208405
 20
450.146851
 10
268.133026
 20
450.025391
 10
268.083252
 20
449.944183
 10
268.066803
 20
449.917114
  0
LWPOLYLINE
  5
A7
330
7B
100
AcDbEntity
  8
0
  6
Continuous
 62
     0
370
    30
100
AcDbPolyline
 90
       22
 70
     0
 43
0.0
 10
300.795105
 20
381.312103
 10
299.494812
 20
380.969269
 10
298.177582
 20
380.694885
 10
296.850525
 20
380.471008
 10
295.516785
 20
380.287964
 10
294.178528
 20
380.139099
 10
292.837311
 20
380.019379
 10
291.493866
 20
379.9263
 10
290.148834
 20
379.858002
 10
288.802765
 20
379.813049
 10
287.456085
 20
379.790619
 10
286.109222
 20
379.790222
 10
284.762512
 20
379.812225
 10
283.416443
 20
379.857269
 10
282.071472
 20
379.925995
 10
280.728027
 20
380.019135
 10
279.386749
 20
380.138489
 10
278.048584
 20
380.287384
 10
276.714874
 20
380.470367
 10
275.387604
 20
380.693634
 10
274.070374
 20
380.967834
 10
272.764832
 20
381.311859
  0
LWPOLYLINE
  5
A8
330
7B
100
AcDbEntity
  8
0
  6
Continuous
 62
     0
370
    30
100
AcDbPolyline
 90
       71
 70
     0
 43
0.0
 10
308.740845
 20
425.033356
 10
308.740021
 20
424.35318
 10
308.738861
 20
423.673126
 10
308.737213
 20
422.993347
 10
308.734924
 20
422.314026
 10
308.731812
 20
421.635345
 10
308.727814
 20
420.957489
 10
308.722839
 20
420.280731
 10
308.716858
 20
419.605225
 10
308.709869
 20
418.931122
 10
308.702026
 20
418.258453
 10
308.693359
 20
417.587189
 10
308.68399
 20
416.917236
 10
308.673981
 20
416.248505
 10
308.663391
 20
415.580933
 10
308.652283
 20
414.914368
 10
308.640656
 20
414.248657
 10
308.62851
 20
413.583679
 10
308.615845
 20
412.919281
 10
308.602539
 20
412.255432
 10
308.588593
 20
411.592041
 10
308.573853
 20
410.929016
 10
308.558319
 20
410.266357
 10
308.541901
 20
409.603973
 10
308.524567
 20
408.941895
 10
308.506256
 20
408.28009
 10
308.486969
 20
407.6185
 10
308.466614
 20
406.957153
 10
308.44519
 20
406.29599
 10
308.422607
 20
405.63504
 10
308.398773
 20
404.974274
 10
308.373688
 20
404.31366
 10
308.347198
 20
403.653229
 10
308.319275
 20
402.99295
 10
308.289917
 20
402.332794
 10
308.258911
 20
401.672791
 10
308.226166
 20
401.012909
 10
308.191528
 20
400.35318
 10
308.154785
 20
399.693512
 10
308.115784
 20
399.033997
 10
308.07431
 20
398.374603
 10
308.030151
 20
397.715332
 10
307.983124
 20
397.056152
 10
307.932831
 20
396.397156
 10
307.878906
 20
395.738373
 10
307.820923
 20
395.079865
 10
307.758392
 20
394.421661
 10
307.690948
 20
393.763855
 10
307.617981
 20
393.106537
 10
307.538818
 20
392.449829
 10
307.452637
 20
391.793884
 10
307.358673
 20
391.138824
 10
307.255829
 20
390.484955
 10
307.14267
 20
389.832703
 10
307.017731
 20
389.182434
 10
306.879364
 20
388.534668
 10
306.725494
 20
387.890015
 10
306.553406
 20
387.249695
 10
306.359833
 20
386.615204
 10
306.140839
 20
385.988342
 10
305.889648
 20
385.372467
 10
305.596222
 20
384.773773
 10
305.250977
 20
384.201141
 10
304.846985
 20
383.665375
 10
304.382996
 20
383.177399
 10
303.864441
 20
382.744446
 10
303.301575
 20
382.367737
 10
302.705719
 20
382.043365
 10
302.085999
 20
381.764526
 10
301.449921
 20
381.523773
 10
300.79541
 20
381.312378
  0
LWPOLYLINE
  5
A9
330
7B
100
AcDbEntity
  8
0
  6
Continuous
 62
     0
370
    30
100
AcDbPolyline
 90
       18
 70
     0
 43
0.0
 10
308.740845
 20
425.043427
 10
308.741333
 20
425.506348
 10
308.741638
 20
425.969208
 10
308.741699
 20
426.431976
 10
308.741486
 20
426.894623
 10
308.740936
 20
427.357117
 10
308.740051
 20
427.819305
 10
308.7388
 20
428.281036
 10
308.737122
 20
428.742157
 10
308.734985
 20
429.202545
 10
308.732422
 20
429.662079
 10
308.72937
 20
430.120148
 10
308.7258
 20
430.576111
 10
308.72171
 20
431.029663
 10
308.717102
 20
431.478973
 10
308.711975
 20
431.920441
 10
308.706543
 20
432.343719
 10
308.701477
 20
432.718109
  0
LWPOLYLINE
  5
AA
330
7B
100
AcDbEntity
  8
0
  6
Continuous
 62
     0
370
    30
100
AcDbPolyline
 90
       13
 70
     0
 43
0.0
 10
304.139832
 20
451.878632
 10
303.700653
 20
452.426636
 10
303.227051
 20
452.979492
 10
302.734711
 20
453.517395
 10
302.224884
 20
454.039368
 10
301.698303
 20
454.544708
 10
301.155518
 20
455.032837
 10
300.597168
 20
455.503174
 10
300.023712
 20
455.955139
 10
299.435455
 20
456.38797
 10
298.832886
 20
456.800812
 10
298.216522
 20
457.192657
 10
297.53537
 20
457.591492
  0
LWPOLYLINE
  5
AB
330
7B
100
AcDbEntity
  8
0
  6
Continuous
 62
     0
370
    30
100
AcDbPolyline
 90
       13
 70
     0
 43
0.0
 10
308.696991
 20
434.122284
 10
308.696808
 20
434.110626
 10
308.69632
 20
434.074249
 10
308.695587
 20
434.007477
 10
308.694733
 20
433.905182
 10
308.693939
 20
433.787415
 10
308.693481
 20
433.686035
 10
308.693298
 20
433.600983
 10
308.693329
 20
433.529266
 10
308.693634
 20
433.455139
 10
308.69458
 20
433.322968
 10
308.696442
 20
433.131287
 10
308.699554
 20
432.865906
  0
LWPOLYLINE
  5
AC
330
7B
100
AcDbEntity
  8
0
  6
Continuous
 62
     0
370
    30
100
AcDbPolyline
 90
       31
 70
     0
 43
0.0
 10
305.53064
 20
449.853516
 10
305.523254
 20
449.865753
 10
305.496613
 20
449.909851
 10
305.455536
 20
449.977234
 10
305.401611
 20
450.06488
 10
305.343201
 20
450.158661
 10
305.283722
 20
450.252991
 10
305.224182
 20
450.346283
 10
305.167999
 20
450.433319
 10
305.111176
 20
450.520325
 10
305.05722
 20
450.602081
 10
305.003357
 20
450.682831
 10
304.952454
 20
450.758423
 10
304.901672
 20
450.83313
 10
304.853821
 20
450.902893
 10
304.807251
 20
450.970184
 10
304.759186
 20
451.039062
 10
304.712555
 20
451.105316
 10
304.668854
 20
451.166992
 10
304.624725
 20
451.228699
 10
304.579987
 20
451.290833
 10
304.537872
 20
451.348969
 10
304.497437
 20
451.404327
 10
304.455933
 20
451.460724
 10
304.414764
 20
451.516388
 10
304.375031
 20
451.569733
 10
304.334961
 20
451.623169
 10
304.294617
 20
451.676636
 10
304.255005
 20
451.728821
 10
304.213684
 20
451.782898
 10
304.180481
 20
451.826111
  0
LWPOLYLINE
  5
AD
330
7B
100
AcDbEntity
  8
0
  6
Continuous
 62
     0
370
    30
100
AcDbPolyline
 90
       17
 70
     0
 43
0.0
 10
304.894043
 20
450.841125
 10
304.939606
 20
450.774567
 10
304.986481
 20
450.705475
 10
305.036255
 20
450.631378
 10
305.087067
 20
450.555084
 10
305.137085
 20
450.479156
 10
305.185516
 20
450.404968
 10
305.231781
 20
450.333374
 10
305.277283
 20
450.262268
 10
305.322113
 20
450.19162
 10
305.362732
 20
450.126953
 10
305.403778
 20
450.061035
 10
305.439178
 20
450.003784
 10
305.473633
 20
449.94751
 10
305.502045
 20
449.900787
 10
305.522217
 20
449.867462
 10
305.53064
 20
449.853516
  0
LWPOLYLINE
  5
AE
330
7B
100
AcDbEntity
  8
0
  6
Continuous
 62
     0
370
    30
100
AcDbPolyline
 90
       19
 70
     0
 43
0.0
 10
276.023224
 20
457.59137
 10
277.126831
 20
458.165253
 10
278.263245
 20
458.671692
 10
279.427704
 20
459.110321
 10
280.61557
 20
459.48114
 10
281.822601
 20
459.784058
 10
283.044556
 20
460.01944
 10
284.277496
 20
460.187653
 10
285.517822
 20
460.288849
 10
286.76181
 20
460.323181
 10
288.005859
 20
460.290741
 10
289.246338
 20
460.191437
 10
290.479553
 20
460.025146
 10
291.701904
 20
459.791656
 10
292.909393
 20
459.490662
 10
294.0979
 20
459.121857
 10
295.263062
 20
458.685089
 10
296.400299
 20
458.180511
 10
297.5354
 20
457.591553
  0
ENDBLK
  5
B0
330
7B
100
AcDbEntity
  8
0
100
AcDbBlockEnd
  0
BLOCK
  5
10C
330
B2
100
AcDbEntity
  8
0
100
AcDbBlockBegin
  2
b
 70
     0
 10
0.0
 20
285.731461
 30
0.0
  3
b
  1

  0
LINE
  5
B3
330
B2
100
AcDbEntity
  8
0
  6
Continuous
 62
     0
370
    30
100
AcDbLine
 10
296.62247
 20
210.705597
 30
0.0
 11
297.429478
 21
210.705597
 31
0.0
  0
LWPOLYLINE
  5
B4
330
B2
100
AcDbEntity
  8
0
  6
Continuous
 62
     0
370
    30
100
AcDbPolyline
 90
       34
 70
     0
 43
0.0
 10
276.129486
 20
210.705597
 10
276.166168
 20
210.705597
 10
276.279846
 20
210.705597
 10
276.46933
 20
210.705597
 10
276.731812
 20
210.705597
 10
277.063019
 20
210.705597
 10
277.457306
 20
210.705597
 10
277.908081
 20
210.705597
 10
278.408173
 20
210.705597
 10
278.964935
 20
210.705597
 10
279.583679
 20
210.705597
 10
280.260925
 20
210.705597
 10
280.991638
 20
210.705597
 10
281.769409
 20
210.705597
 10
282.586639
 20
210.705597
 10
283.434692
 20
210.705597
 10
284.304321
 20
210.705597
 10
285.185822
 20
210.705597
 10
286.06958
 20
210.705597
 10
286.946289
 20
210.705597
 10
287.807251
 20
210.705597
 10
288.650269
 20
210.705597
 10
289.494202
 20
210.705597
 10
290.333771
 20
210.705597
 10
291.159821
 20
210.705597
 10
291.962891
 20
210.705597
 10
292.733704
 20
210.705597
 10
293.463409
 20
210.705597
 10
294.144012
 20
210.705597
 10
294.768524
 20
210.705597
 10
295.331421
 20
210.705597
 10
295.828491
 20
210.705597
 10
296.257172
 20
210.705597
 10
296.622467
 20
210.705597
  0
LINE
  5
B5
330
B2
100
AcDbEntity
  8
0
  6
Continuous
 62
     0
370
     0
100
AcDbLine
 10
296.899738
 20
211.005597
 30
0.0
 11
297.729474
 21
211.005597
 31
0.0
  0
LINE
  5
B6
330
B2
100
AcDbEntity
  8
0
  6
Continuous
 62
     0
370
     0
100
AcDbLine
 10
275.829483
 20
211.005597
 30
0.0
 11
296.899738
 21
211.005597
 31
0.0
  0
LINE
  5
B7
330
B2
100
AcDbEntity
  8
0
  6
Continuous
 62
     0
370
     0
100
AcDbLine
 10
295.005077
 20
230.405597
 30
0.0
 11
277.879482
 21
230.405597
 31
0.0
  0
LWPOLYLINE
  5
B8
330
B2
100
AcDbEntity
  8
0
  6
Continuous
 62
     0
370
     0
100
AcDbPolyline
 90
        6
 70
     0
 43
0.0
 10
295.679474
 20
230.405594
 10
295.655365
 20
230.405594
 10
295.582031
 20
230.405594
 10
295.4599
 20
230.405594
 10
295.289581
 20
230.405594
 10
295.005066
 20
230.405594
  0
LINE
  5
B9
330
B2
100
AcDbEntity
  8
0
  6
Continuous
 62
     0
370
     0
100
AcDbLine
 10
297.729478
 20
218.108204
 30
0.0
 11
296.899738
 21
218.108204
 31
0.0
  0
LINE
  5
BA
330
B2
100
AcDbEntity
  8
0
  6
Continuous
 62
     0
370
     0
100
AcDbLine
 10
296.899738
 20
218.108204
 30
0.0
 11
275.829478
 21
218.108204
 31
0.0
  0
LWPOLYLINE
  5
BB
330
B2
100
AcDbEntity
  8
0
  6
Continuous
 62
     0
370
     0
100
AcDbPolyline
 90
        6
 70
     0
 43
0.0
 10
297.432159
 20
218.408188
 10
297.401764
 20
218.408188
 10
297.309174
 20
218.408188
 10
297.154663
 20
218.408188
 10
296.939575
 20
218.408188
 10
296.624878
 20
218.408188
  0
LINE
  5
BC
330
B2
100
AcDbEntity
  8
0
  6
Continuous
 62
     0
370
     0
100
AcDbLine
 10
296.62489
 20
218.408192
 30
0.0
 11
276.12682
 21
218.408192
 31
0.0
  0
LINE
  5
BD
330
B2
100
AcDbEntity
  8
0
  6
Continuous
 62
     0
370
     0
100
AcDbLine
 10
295.921237
 20
218.414836
 30
0.0
 11
296.670752
 21
218.414837
 31
0.0
  0
LWPOLYLINE
  5
BE
330
B2
100
AcDbEntity
  8
0
  6
Continuous
 62
     0
370
     0
100
AcDbPolyline
 90
       33
 70
     0
 43
0.0
 10
276.888214
 20
218.414841
 10
276.925934
 20
218.414841
 10
277.040863
 20
218.414841
 10
277.234314
 20
218.414841
 10
277.505829
 20
218.414841
 10
277.852966
 20
218.414841
 10
278.271454
 20
218.414841
 10
278.75531
 20
218.414841
 10
279.297211
 20
218.414841
 10
279.888733
 20
218.414841
 10
280.520752
 20
218.414841
 10
281.18396
 20
218.414841
 10
281.869019
 20
218.414841
 10
282.567017
 20
218.414841
 10
283.27301
 20
218.414841
 10
284.013977
 20
218.414841
 10
284.794067
 20
218.414841
 10
285.607666
 20
218.414841
 10
286.447784
 20
218.414841
 10
287.306152
 20
218.414841
 10
288.173431
 20
218.414841
 10
289.039459
 20
218.414841
 10
289.893677
 20
218.414841
 10
290.725525
 20
218.414841
 10
291.52478
 20
218.414841
 10
292.282074
 20
218.414841
 10
292.989227
 20
218.414841
 10
293.639526
 20
218.414841
 10
294.227844
 20
218.414841
 10
294.750824
 20
218.414841
 10
295.206818
 20
218.414841
 10
295.595734
 20
218.414841
 10
295.921234
 20
218.414841
  0
LINE
  5
BF
330
B2
100
AcDbEntity
  8
0
  6
Continuous
 62
     0
370
     0
100
AcDbLine
 10
277.879478
 20
219.414798
 30
0.0
 11
295.005077
 21
219.414798
 31
0.0
  0
LINE
  5
C0
330
B2
100
AcDbEntity
  8
0
  6
Continuous
 62
     0
370
     0
100
AcDbLine
 10
295.005077
 20
219.414798
 30
0.0
 11
295.679478
 21
219.414798
 31
0.0
  0
LINE
  5
C1
330
B2
100
AcDbEntity
  8
0
  6
Continuous
 62
     0
370
    30
100
AcDbLine
 10
286.779478
 20
230.579541
 30
0.0
 11
276.779478
 21
230.579541
 31
0.0
  0
LINE
  5
C2
330
B2
100
AcDbEntity
  8
0
  6
Continuous
 62
     0
370
    30
100
AcDbLine
 10
296.779478
 20
230.579541
 30
0.0
 11
286.779478
 21
230.579541
 31
0.0
  0
LINE
  5
C3
330
B2
100
AcDbEntity
  8
0
  6
Continuous
 62
     0
370
    30
100
AcDbLine
 10
286.779478
 20
231.579541
 30
0.0
 11
275.779478
 21
231.579541
 31
0.0
  0
LWPOLYLINE
  5
C4
330
B2
100
AcDbEntity
  8
0
  6
Continuous
 62
     0
370
    30
100
AcDbPolyline
 90
       20
 70
     0
 43
0.0
 10
297.77948
 20
231.579544
 10
297.742004
 20
231.579544
 10
297.629974
 20
231.579544
 10
297.444061
 20
231.579544
 10
297.185547
 20
231.579544
 10
296.856262
 20
231.579544
 10
296.458313
 20
231.579544
 10
295.994568
 20
231.579544
 10
295.468018
 20
231.579544
 10
294.882385
 20
231.579544
 10
294.241577
 20
231.579544
 10
293.549988
 20
231.579544
 10
292.812317
 20
231.579544
 10
292.033539
 20
231.579544
 10
291.219055
 20
231.579544
 10
290.374451
 20
231.579544
 10
289.50531
 20
231.579544
 10
288.617279
 20
231.579544
 10
287.716583
 20
231.579544
 10
286.77948
 20
231.579544
  0
LINE
  5
C5
330
B2
100
AcDbEntity
  8
0
  6
Continuous
 62
     0
370
     0
100
AcDbLine
 10
275.968481
 20
210.752487
 30
0.0
 11
276.01415
 21
207.749807
 31
0.0
  0
LWPOLYLINE
  5
C6
330
B2
100
AcDbEntity
  8
0
  6
Continuous
 62
     0
370
     0
100
AcDbPolyline
 90
       26
 70
     0
 43
0.0
 10
276.01416
 20
207.749802
 10
276.019012
 20
207.45369
 10
276.024536
 20
207.157562
 10
276.031525
 20
206.861435
 10
276.041504
 20
206.565414
 10
276.056732
 20
206.269821
 10
276.08136
 20
205.976013
 10
276.122955
 20
205.688644
 10
276.193237
 20
205.423157
 10
276.299957
 20
205.212311
 10
276.431
 20
205.073578
 10
276.570648
 20
204.986862
 10
276.712708
 20
204.930161
 10
276.855103
 20
204.890411
 10
276.997345
 20
204.860367
 10
277.140259
 20
204.836273
 10
277.285095
 20
204.815445
 10
277.433014
 20
204.796371
 10
277.585114
 20
204.778015
 10
277.742096
 20
204.759552
 10
277.904175
 20
204.740585
 10
278.071503
 20
204.720734
 10
278.243927
 20
204.699875
 10
278.421051
 20
204.677994
 10
278.603394
 20
204.654846
 10
278.794281
 20
204.629532
  0
LWPOLYLINE
  5
C7
330
B2
100
AcDbEntity
  8
0
  6
Continuous
 62
     0
370
     0
100
AcDbPolyline
 90
       10
 70
     0
 43
0.0
 10
278.794281
 20
204.629532
 10
280.527954
 20
204.479431
 10
282.285156
 20
204.34053
 10
284.064056
 20
204.229462
 10
285.861359
 20
204.163849
 10
287.666931
 20
204.163254
 10
289.464478
 20
204.227921
 10
291.243774
 20
204.338394
 10
293.001282
 20
204.476929
 10
294.764435
 20
204.629532
  0
LWPOLYLINE
  5
C8
330
B2
100
AcDbEntity
  8
0
  6
Continuous
 62
     0
370
     0
100
AcDbPolyline
 90
       26
 70
     0
 43
0.0
 10
294.764435
 20
204.629532
 10
294.953949
 20
204.654709
 10
295.136292
 20
204.677902
 10
295.313904
 20
204.69986
 10
295.486572
 20
204.720703
 10
295.654053
 20
204.740524
 10
295.816162
 20
204.759491
 10
295.973114
 20
204.777954
 10
296.125183
 20
204.796326
 10
296.273071
 20
204.815384
 10
296.417908
 20
204.836197
 10
296.560822
 20
204.860291
 10
296.703064
 20
204.890305
 10
296.845459
 20
204.929993
 10
296.987457
 20
204.986633
 10
297.127136
 20
205.073196
 10
297.258209
 20
205.21167
 10
297.365051
 20
205.422241
 10
297.435455
 20
205.687561
 10
297.477142
 20
205.974869
 10
297.501831
 20
206.268646
 10
297.517059
 20
206.564209
 10
297.527069
 20
206.860199
 10
297.534058
 20
207.156296
 10
297.539581
 20
207.452408
 10
297.544464
 20
207.749802
  0
LINE
  5
C9
330
B2
100
AcDbEntity
  8
0
  6
Continuous
 62
     0
370
     0
100
AcDbLine
 10
297.544462
 20
207.749807
 30
0.0
 11
297.590128
 21
210.752267
 31
0.0
  0
LWPOLYLINE
  5
CA
330
B2
100
AcDbEntity
  8
0
  6
Continuous
 62
     0
370
     0
100
AcDbPolyline
 90
       21
 70
     0
 43
0.0
 10
308.750885
 20
217.427597
 10
308.735321
 20
217.427521
 10
308.682526
 20
217.427505
 10
308.58902
 20
217.427521
 10
308.450378
 20
217.427521
 10
308.260071
 20
217.427505
 10
308.011627
 20
217.427505
 10
307.699127
 20
217.427505
 10
307.317688
 20
217.427505
 10
306.864044
 20
217.427505
 10
306.336975
 20
217.427505
 10
305.738068
 20
217.427505
 10
305.070801
 20
217.427505
 10
304.34021
 20
217.427505
 10
303.551178
 20
217.427505
 10
302.707947
 20
217.427505
 10
301.813049
 20
217.427505
 10
300.868164
 20
217.427505
 10
299.876892
 20
217.427505
 10
298.843781
 20
217.427505
 10
297.729492
 20
217.427505
  0
LWPOLYLINE
  5
CB
330
B2
100
AcDbEntity
  8
0
  6
Continuous
 62
     0
370
     0
100
AcDbPolyline
 90
       26
 70
     0
 43
0.0
 10
297.544464
 20
207.749802
 10
298.590881
 20
207.749664
 10
299.60083
 20
207.749481
 10
300.571747
 20
207.749191
 10
301.499847
 20
207.748795
 10
302.381805
 20
207.748215
 10
303.216003
 20
207.747406
 10
304.000275
 20
207.746338
 10
304.730194
 20
207.744904
 10
305.399963
 20
207.743057
 10
306.001923
 20
207.740784
 10
306.529816
 20
207.738205
 10
306.979736
 20
207.73555
 10
307.354156
 20
207.733032
 10
307.659515
 20
207.73085
 10
307.90509
 20
207.729095
 10
308.100922
 20
207.727844
 10
308.256226
 20
207.727173
 10
308.379639
 20
207.727081
 10
308.477203
 20
207.727417
 10
308.553925
 20
207.727982
 10
308.613464
 20
207.728577
 10
308.657776
 20
207.72908
 10
308.688538
 20
207.729309
 10
308.706726
 20
207.72908
 10
308.71286
 20
207.728088
  0
LWPOLYLINE
  5
CC
330
B2
100
AcDbEntity
  8
0
  6
Continuous
 62
     0
370
     0
100
AcDbPolyline
 90
       26
 70
     0
 43
0.0
 10
294.764435
 20
204.629532
 10
295.454742
 20
204.656052
 10
296.106262
 20
204.671707
 10
296.724915
 20
204.67688
 10
297.311066
 20
204.672211
 10
297.866516
 20
204.659256
 10
298.390045
 20
204.639648
 10
298.869446
 20
204.614807
 10
299.282593
 20
204.587723
 10
299.618042
 20
204.561493
 10
299.879333
 20
204.538208
 10
300.078552
 20
204.518646
 10
300.228027
 20
204.502945
 10
300.339203
 20
204.490829
 10
300.421387
 20
204.481445
 10
300.482758
 20
204.473679
 10
300.528931
 20
204.466675
 10
300.562988
 20
204.459793
 10
300.587585
 20
204.452438
 10
300.604401
 20
204.444092
 10
300.614716
 20
204.43425
 10
300.619659
 20
204.422363
 10
300.620117
 20
204.407639
 10
300.616821
 20
204.389221
 10
300.610657
 20
204.36615
 10
300.602692
 20
204.335526
  0
LWPOLYLINE
  5
CD
330
B2
100
AcDbEntity
  8
0
  6
Continuous
 62
     0
370
     0
100
AcDbPolyline
 90
       36
 70
     0
 43
0.0
 10
300.602692
 20
204.335526
 10
300.86087
 20
204.352142
 10
301.119049
 20
204.36879
 10
301.377228
 20
204.385452
 10
301.635406
 20
204.402161
 10
301.893585
 20
204.418915
 10
302.151764
 20
204.43573
 10
302.409912
 20
204.452606
 10
302.668091
 20
204.469559
 10
302.926239
 20
204.486603
 10
303.184387
 20
204.503754
 10
303.442535
 20
204.521011
 10
303.700684
 20
204.538391
 10
303.958801
 20
204.555908
 10
304.216949
 20
204.573578
 10
304.475067
 20
204.591431
 10
304.733154
 20
204.609634
 10
304.991211
 20
204.628311
 10
305.249237
 20
204.647614
 10
305.507172
 20
204.667679
 10
305.765045
 20
204.68869
 10
306.022797
 20
204.710754
 10
306.280487
 20
204.734024
 10
306.537994
 20
204.758743
 10
306.795319
 20
204.785568
 10
307.052338
 20
204.815399
 10
307.308838
 20
204.849655
 10
307.564117
 20
204.891785
 10
307.817017
 20
204.946686
 10
308.063934
 20
205.025101
 10
308.294006
 20
205.143509
 10
308.483276
 20
205.319504
 10
308.613007
 20
205.542252
 10
308.68988
 20
205.787018
 10
308.728638
 20
206.037125
 10
308.740875
 20
206.288315
  0
LWPOLYLINE
  5
CE
330
B2
100
AcDbEntity
  8
0
  6
Continuous
 62
     0
370
     0
100
AcDbPolyline
 90
        8
 70
     0
 43
0.0
 10
276.11972
 20
195.048904
 10
279.100281
 20
194.902481
 10
282.083069
 20
194.799026
 10
285.067169
 20
194.741592
 10
288.051849
 20
194.737549
 10
291.036102
 20
194.787445
 10
294.019104
 20
194.884567
 10
297.440186
 20
195.048904
  0
LWPOLYLINE
  5
CF
330
B2
100
AcDbEntity
  8
0
  6
Continuous
 62
     0
370
     0
100
AcDbPolyline
 90
       70
 70
     0
 43
0.0
 10
297.440186
 20
195.048904
 10
297.937897
 20
195.14592
 10
298.377716
 20
195.259491
 10
298.74527
 20
195.387863
 10
299.028992
 20
195.528259
 10
299.240784
 20
195.675858
 10
299.401123
 20
195.827103
 10
299.525635
 20
195.980331
 10
299.625275
 20
196.134689
 10
299.70694
 20
196.289734
 10
299.775116
 20
196.445175
 10
299.832275
 20
196.600937
 10
299.880585
 20
196.756912
 10
299.922211
 20
196.913025
 10
299.958893
 20
197.069183
 10
299.991364
 20
197.225388
 10
300.020294
 20
197.381638
 10
300.046265
 20
197.537918
 10
300.069885
 20
197.694229
 10
300.091675
 20
197.850555
 10
300.111969
 20
198.006897
 10
300.13092
 20
198.163254
 10
300.148743
 20
198.319611
 10
300.165619
 20
198.475983
 10
300.181763
 20
198.632339
 10
300.197388
 20
198.788696
 10
300.212555
 20
198.945038
 10
300.227325
 20
199.101349
 10
300.241699
 20
199.257568
 10
300.255707
 20
199.413712
 10
300.269379
 20
199.569717
 10
300.282684
 20
199.725571
 10
300.295654
 20
199.881256
 10
300.308319
 20
200.036728
 10
300.320679
 20
200.191986
 10
300.332733
 20
200.34697
 10
300.344513
 20
200.501678
 10
300.356018
 20
200.656082
 10
300.367218
 20
200.81015
 10
300.378204
 20
200.963867
 10
300.388885
 20
201.117203
 10
300.399353
 20
201.270126
 10
300.409576
 20
201.422592
 10
300.419586
 20
201.574554
 10
300.429352
 20
201.725922
 10
300.438904
 20
201.876587
 10
300.448242
 20
202.026489
 10
300.457336
 20
202.175537
 10
300.466248
 20
202.323639
 10
300.474945
 20
202.470718
 10
300.483459
 20
202.616638
 10
300.49176
 20
202.761124
 10
300.499878
 20
202.90387
 10
300.507812
 20
203.044556
 10
300.515564
 20
203.18251
 10
300.523102
 20
203.31694
 10
300.530457
 20
203.446991
 10
300.537537
 20
203.571426
 10
300.544403
 20
203.688843
 10
300.550995
 20
203.797867
 10
300.557281
 20
203.89711
 10
300.563293
 20
203.985382
 10
300.569
 20
204.062149
 10
300.574402
 20
204.127213
 10
300.579559
 20
204.181381
 10
300.584503
 20
204.225784
 10
300.589233
 20
204.261871
 10
300.593811
 20
204.291168
 10
300.598267
 20
204.315231
 10
300.602692
 20
204.335526
  0
LWPOLYLINE
  5
D0
330
B2
100
AcDbEntity
  8
0
  6
Continuous
 62
     0
370
     0
100
AcDbPolyline
 90
       26
 70
     0
 43
0.0
 10
278.794281
 20
204.629532
 10
278.104614
 20
204.65596
 10
277.452515
 20
204.671692
 10
276.833771
 20
204.67688
 10
276.247711
 20
204.672211
 10
275.692261
 20
204.659256
 10
275.168762
 20
204.639648
 10
274.689362
 20
204.614807
 10
274.276245
 20
204.587723
 10
273.940796
 20
204.561493
 10
273.679535
 20
204.538208
 10
273.480347
 20
204.518646
 10
273.330872
 20
204.502945
 10
273.219727
 20
204.490829
 10
273.137573
 20
204.481445
 10
273.076233
 20
204.473679
 10
273.03006
 20
204.466675
 10
272.996033
 20
204.459793
 10
272.971466
 20
204.452438
 10
272.954651
 20
204.444092
 10
272.944366
 20
204.43425
 10
272.939423
 20
204.422363
 10
272.939026
 20
204.407639
 10
272.942322
 20
204.389221
 10
272.948517
 20
204.36615
 10
272.956482
 20
204.335526
  0
LWPOLYLINE
  5
D1
330
B2
100
AcDbEntity
  8
0
  6
Continuous
 62
     0
370
     0
100
AcDbPolyline
 90
       70
 70
     0
 43
0.0
 10
272.956482
 20
204.335526
 10
272.960876
 20
204.315491
 10
272.965332
 20
204.291489
 10
272.96991
 20
204.262268
 10
272.97467
 20
204.226273
 10
272.979614
 20
204.181976
 10
272.984772
 20
204.127945
 10
272.990204
 20
204.063019
 10
272.995911
 20
203.986404
 10
273.001923
 20
203.89827
 10
273.008209
 20
203.799164
 10
273.014801
 20
203.690247
 10
273.021667
 20
203.572922
 10
273.028778
 20
203.448578
 10
273.036133
 20
203.318588
 10
273.043671
 20
203.184204
 10
273.051422
 20
203.046295
 10
273.059387
 20
202.905655
 10
273.067505
 20
202.762939
 10
273.075836
 20
202.618469
 10
273.08432
 20
202.472565
 10
273.093048
 20
202.3255
 10
273.101959
 20
202.177414
 10
273.111084
 20
202.028381
 10
273.120422
 20
201.878494
 10
273.129974
 20
201.727844
 10
273.13974
 20
201.576492
 10
273.14975
 20
201.424545
 10
273.159973
 20
201.272079
 10
273.170441
 20
201.119156
 10
273.181152
 20
200.965836
 10
273.192139
 20
200.812134
 10
273.203369
 20
200.658081
 10
273.214874
 20
200.503677
 10
273.226654
 20
200.348984
 10
273.238708
 20
200.194
 10
273.251068
 20
200.038757
 10
273.263733
 20
199.883286
 10
273.276733
 20
199.727615
 10
273.290039
 20
199.571762
 10
273.303711
 20
199.415756
 10
273.317719
 20
199.259628
 10
273.332092
 20
199.103409
 10
273.346893
 20
198.947113
 10
273.362061
 20
198.790771
 10
273.377655
 20
198.634415
 10
273.393799
 20
198.478043
 10
273.410706
 20
198.321686
 10
273.428497
 20
198.165329
 10
273.447449
 20
198.008987
 10
273.467743
 20
197.852646
 10
273.489532
 20
197.69632
 10
273.513123
 20
197.540024
 10
273.539062
 20
197.383743
 10
273.567963
 20
197.227493
 10
273.600403
 20
197.071289
 10
273.637024
 20
196.915131
 10
273.678589
 20
196.759033
 10
273.726807
 20
196.603058
 10
273.783844
 20
196.447296
 10
273.851868
 20
196.29184
 10
273.933319
 20
196.136795
 10
274.032684
 20
195.982422
 10
274.156799
 20
195.829193
 10
274.316559
 20
195.677902
 10
274.527527
 20
195.530243
 10
274.81015
 20
195.389725
 10
275.176514
 20
195.261154
 10
275.615143
 20
195.147324
 10
276.11972
 20
195.048904
  0
LWPOLYLINE
  5
D2
330
B2
100
AcDbEntity
  8
0
  6
Continuous
 62
     0
370
     0
100
AcDbPolyline
 90
        7
 70
     0
 43
0.0
 10
297.440186
 20
195.048904
 10
297.922821
 20
195.024353
 10
298.384216
 20
194.996552
 10
298.822296
 20
194.967499
 10
299.229095
 20
194.939407
 10
299.600891
 20
194.91803
 10
300.029938
 20
194.923019
  0
LWPOLYLINE
  5
D3
330
B2
100
AcDbEntity
  8
0
  6
Continuous
 62
     0
370
     0
100
AcDbPolyline
 90
        7
 70
     0
 43
0.0
 10
276.11972
 20
195.048904
 10
275.637726
 20
195.024292
 10
275.176605
 20
194.996567
 10
274.738678
 20
194.967575
 10
274.332184
 20
194.939499
 10
273.960602
 20
194.918091
 10
273.530731
 20
194.922958
  0
LWPOLYLINE
  5
D4
330
B2
100
AcDbEntity
  8
0
  6
Continuous
 62
     0
370
     0
100
AcDbPolyline
 90
       26
 70
     0
 43
0.0
 10
264.846222
 20
207.728088
 10
264.852234
 20
207.72908
 10
264.8703
 20
207.729324
 10
264.900909
 20
207.72908
 10
264.945068
 20
207.728577
 10
265.004425
 20
207.727982
 10
265.080963
 20
207.727417
 10
265.178284
 20
207.727081
 10
265.301392
 20
207.727173
 10
265.456329
 20
207.727844
 10
265.651672
 20
207.72908
 10
265.896698
 20
207.73082
 10
266.201355
 20
207.733017
 10
266.575012
 20
207.735519
 10
267.024139
 20
207.738174
 10
267.551178
 20
207.740768
 10
268.152344
 20
207.743042
 10
268.821381
 20
207.744888
 10
269.550659
 20
207.746323
 10
270.334259
 20
207.747391
 10
271.167877
 20
207.748199
 10
272.049255
 20
207.748779
 10
272.976776
 20
207.749191
 10
273.947174
 20
207.749466
 10
274.956604
 20
207.749664
 10
276.01416
 20
207.749802
  0
LINE
  5
D5
330
B2
100
AcDbEntity
  8
0
  6
Continuous
 62
     0
370
     0
100
AcDbLine
 10
275.829478
 20
217.427512
 30
0.0
 11
264.80809
 21
217.427594
 31
0.0
  0
LWPOLYLINE
  5
D6
330
B2
100
AcDbEntity
  8
0
  6
Continuous
 62
     0
370
     0
100
AcDbPolyline
 90
       36
 70
     0
 43
0.0
 10
264.818329
 20
206.285843
 10
264.830444
 20
206.038284
 10
264.869019
 20
205.788254
 10
264.945648
 20
205.543518
 10
265.075012
 20
205.320633
 10
265.263916
 20
205.144379
 10
265.493744
 20
205.025681
 10
265.74054
 20
204.947098
 10
265.993317
 20
204.89212
 10
266.248505
 20
204.84993
 10
266.504944
 20
204.815628
 10
266.761871
 20
204.785782
 10
267.019104
 20
204.758942
 10
267.276581
 20
204.734222
 10
267.534149
 20
204.710938
 10
267.79184
 20
204.688873
 10
268.049622
 20
204.667877
 10
268.307495
 20
204.647797
 10
268.56543
 20
204.628494
 10
268.823425
 20
204.609818
 10
269.081421
 20
204.591629
 10
269.339478
 20
204.573761
 10
269.597534
 20
204.556107
 10
269.855591
 20
204.538589
 10
270.113647
 20
204.52121
 10
270.371704
 20
204.503952
 10
270.629791
 20
204.486816
 10
270.887848
 20
204.469772
 10
271.145935
 20
204.45282
 10
271.404022
 20
204.435959
 10
271.662109
 20
204.419144
 10
271.920227
 20
204.40239
 10
272.178314
 20
204.385696
 10
272.436401
 20
204.369019
 10
272.694519
 20
204.352386
 10
272.956482
 20
204.335526
  0
LINE
  5
D7
330
B2
100
AcDbEntity
  8
0
  6
Continuous
 62
     0
370
    30
100
AcDbLine
 10
264.529602
 20
228.686447
 30
0.0
 11
265.379494
 21
228.686447
 31
0.0
  0
LINE
  5
D8
330
B2
100
AcDbEntity
  8
0
  6
Continuous
 62
     0
370
    30
100
AcDbLine
 10
308.179462
 20
228.686447
 30
0.0
 11
309.029354
 21
228.686447
 31
0.0
  0
LWPOLYLINE
  5
D9
330
B2
100
AcDbEntity
  8
0
  6
Continuous
 62
     0
370
    30
100
AcDbPolyline
 90
       21
 70
     0
 43
0.0
 10
277.879486
 20
220.849442
 10
276.677673
 20
221.067505
 10
275.518616
 20
221.312576
 10
274.405487
 20
221.58345
 10
273.341064
 20
221.878632
 10
272.327728
 20
222.196121
 10
271.367706
 20
222.534134
 10
270.463379
 20
222.891296
 10
269.617126
 20
223.266296
 10
268.83136
 20
223.657867
 10
268.108734
 20
224.064743
 10
267.451904
 20
224.485703
 10
266.862335
 20
224.919266
 10
266.340179
 20
225.3638
 10
265.884918
 20
225.817596
 10
265.495453
 20
226.279007
 10
265.170837
 20
226.747055
 10
264.910431
 20
227.220993
 10
264.715393
 20
227.699265
 10
264.587738
 20
228.179932
 10
264.529541
 20
228.686447
  0
LWPOLYLINE
  5
DA
330
B2
100
AcDbEntity
  8
0
  6
Continuous
 62
     0
370
    30
100
AcDbPolyline
 90
       21
 70
     0
 43
0.0
 10
309.029419
 20
228.686447
 10
308.975891
 20
228.204697
 10
308.851776
 20
227.723938
 10
308.660126
 20
227.24556
 10
308.403046
 20
226.771423
 10
308.081726
 20
226.303055
 10
307.695618
 20
225.841263
 10
307.243774
 20
225.386993
 10
306.725098
 20
224.941956
 10
306.139008
 20
224.507812
 10
305.485626
 20
224.086197
 10
304.766296
 20
223.678574
 10
303.983734
 20
223.286194
 10
303.140533
 20
222.910309
 10
302.239166
 20
222.5522
 10
301.281982
 20
222.213165
 10
300.271301
 20
221.894669
 10
299.209473
 20
221.598373
 10
298.098846
 20
221.326096
 10
296.942108
 20
221.079453
 10
295.679474
 20
220.849304
  0
LWPOLYLINE
  5
DB
330
B2
100
AcDbEntity
  8
0
  6
Continuous
 62
     0
370
     0
100
AcDbPolyline
 90
        6
 70
     0
 43
0.0
 10
306.543701
 20
226.26062
 10
307.022919
 20
226.729431
 10
307.426605
 20
227.207291
 10
307.753967
 20
227.692596
 10
308.004395
 20
228.183746
 10
308.179474
 20
228.686447
  0
LWPOLYLINE
  5
DC
330
B2
100
AcDbEntity
  8
0
  6
Continuous
 62
     0
370
     0
100
AcDbPolyline
 90
       14
 70
     0
 43
0.0
 10
295.679474
 20
221.50882
 10
296.863251
 20
221.742416
 10
298.001099
 20
222.003601
 10
299.08902
 20
222.290878
 10
300.123108
 20
222.602707
 10
301.099518
 20
222.937531
 10
302.015106
 20
223.293732
 10
302.867218
 20
223.669632
 10
303.65332
 20
224.063553
 10
304.371399
 20
224.473816
 10
305.019653
 20
224.898788
 10
305.596436
 20
225.336761
 10
306.100464
 20
225.786118
 10
306.543701
 20
226.26062
  0
LWPOLYLINE
  5
DD
330
B2
100
AcDbEntity
  8
0
  6
Continuous
 62
     0
370
     0
100
AcDbPolyline
 90
       14
 70
     0
 43
0.0
 10
267.015167
 20
226.26062
 10
267.442963
 20
225.801178
 10
267.944641
 20
225.35144
 10
268.518982
 20
224.913025
 10
269.164856
 20
224.487595
 10
269.880829
 20
224.076767
 10
270.664825
 20
223.682251
 10
271.514709
 20
223.305725
 10
272.428375
 20
222.948853
 10
273.403107
 20
222.613312
 10
274.435333
 20
222.300674
 10
275.521423
 20
222.012527
 10
276.657745
 20
221.750443
 10
277.879486
 20
221.508759
  0
LWPOLYLINE
  5
DE
330
B2
100
AcDbEntity
  8
0
  6
Continuous
 62
     0
370
     0
100
AcDbPolyline
 90
        6
 70
     0
 43
0.0
 10
265.379486
 20
228.686447
 10
265.551453
 20
228.190979
 10
265.80072
 20
227.699753
 10
266.126923
 20
227.214355
 10
266.52948
 20
226.736359
 10
267.015167
 20
226.26062
  0
LINE
  5
DF
330
B2
100
AcDbEntity
  8
0
  6
Continuous
 62
     0
370
    30
100
AcDbLine
 10
308.179462
 20
228.686447
 30
0.0
 11
306.644363
 21
228.686447
 31
0.0
  0
LWPOLYLINE
  5
E0
330
B2
100
AcDbEntity
  8
0
  6
Continuous
 62
     0
370
    30
100
AcDbPolyline
 90
       18
 70
     0
 43
0.0
 10
277.879486
 20
222.842514
 10
276.818451
 20
223.047134
 10
275.793793
 20
223.274307
 10
274.809326
 20
223.52327
 10
273.868805
 20
223.793167
 10
272.975464
 20
224.082916
 10
272.132507
 20
224.391464
 10
271.34317
 20
224.717712
 10
270.610352
 20
225.060455
 10
269.936554
 20
225.418442
 10
269.32428
 20
225.790329
 10
268.775879
 20
226.17482
 10
268.293274
 20
226.57048
 10
267.878113
 20
226.97583
 10
267.531982
 20
227.38942
 10
267.256256
 20
227.809753
 10
267.051788
 20
228.235321
 10
266.914581
 20
228.686447
  0
LWPOLYLINE
  5
E1
330
B2
100
AcDbEntity
  8
0
  6
Continuous
 62
     0
370
    30
100
AcDbPolyline
 90
       18
 70
     0
 43
0.0
 10
306.644348
 20
228.686447
 10
306.515656
 20
228.257141
 10
306.314819
 20
227.831345
 10
306.042664
 20
227.41069
 10
305.700134
 20
226.996735
 10
305.288422
 20
226.590927
 10
304.809174
 20
226.194748
 10
304.264099
 20
225.809662
 10
303.655029
 20
225.437088
 10
302.984314
 20
225.078369
 10
302.254395
 20
224.734818
 10
301.467834
 20
224.407715
 10
300.627594
 20
224.098221
 10
299.736755
 20
223.80748
 10
298.798523
 20
223.536575
 10
297.816193
 20
223.286514
 10
296.793579
 20
223.058167
 10
295.679474
 20
222.842484
  0
LINE
  5
E2
330
B2
100
AcDbEntity
  8
0
  6
Continuous
 62
     0
370
    30
100
AcDbLine
 10
266.914593
 20
228.686447
 30
0.0
 11
265.379494
 21
228.686447
 31
0.0
  0
LINE
  5
E3
330
B2
100
AcDbEntity
  8
0
  6
Continuous
 62
     0
370
    30
100
AcDbLine
 10
297.686381
 20
231.486446
 30
0.0
 11
308.979478
 21
231.486446
 31
0.0
  0
LINE
  5
E4
330
B2
100
AcDbEntity
  8
0
  6
Continuous
 62
     0
370
    30
100
AcDbLine
 10
264.579478
 20
231.486446
 30
0.0
 11
275.872576
 21
231.486446
 31
0.0
  0
ARC
  5
E5
330
B2
100
AcDbEntity
  8
0
  6
Continuous
 62
     0
370
    30
100
AcDbCircle
 10
375.77963
 20
242.679501
 30
0.0
 40
0.9998481692849785
100
AcDbArc
 50
276.891148
 51
0.002359
  0
LINE
  5
E6
330
B2
100
AcDbEntity
  8
0
  6
Continuous
 62
     0
370
    30
100
AcDbLine
 10
375.779478
 20
241.679543
 30
0.0
 11
197.779478
 21
241.679543
 31
0.0
  0
LINE
  5
E7
330
B2
100
AcDbEntity
  8
0
  6
Continuous
 62
     0
370
     0
100
AcDbLine
 10
196.779478
 20
242.679543
 30
0.0
 11
376.779478
 21
242.679543
 31
0.0
  0
LINE
  5
E8
330
B2
100
AcDbEntity
  8
0
  6
Continuous
 62
     0
370
    30
100
AcDbLine
 10
376.779478
 20
242.679543
 30
0.0
 11
376.779478
 21
253.679543
 31
0.0
  0
LINE
  5
E9
330
B2
100
AcDbEntity
  8
0
  6
Continuous
 62
     0
370
    30
100
AcDbLine
 10
376.779478
 20
253.679543
 30
0.0
 11
196.779478
 21
253.679543
 31
0.0
  0
LINE
  5
EA
330
B2
100
AcDbEntity
  8
0
  6
Continuous
 62
     0
370
    30
100
AcDbLine
 10
196.779478
 20
242.679543
 30
0.0
 11
196.779478
 21
253.679543
 31
0.0
  0
ARC
  5
EB
330
B2
100
AcDbEntity
  8
0
  6
Continuous
 62
     0
370
    30
100
AcDbCircle
 10
197.779503
 20
242.679567
 30
0.0
 40
1.000024307960667
100
AcDbArc
 50
180.001393
 51
269.998607
  0
ARC
  5
EC
330
B2
100
AcDbEntity
  8
0
  6
Continuous
 62
     0
370
    30
100
AcDbCircle
 10
375.77914
 20
242.672437
 30
0.0
 40
0.9928949094123556
100
AcDbArc
 50
270.019501
 51
276.96813
  0
LINE
  5
ED
330
B2
100
AcDbEntity
  8
0
  6
Continuous
 62
     0
370
    30
100
AcDbLine
 10
308.979478
 20
241.679543
 30
0.0
 11
308.979478
 21
231.486446
 31
0.0
  0
LINE
  5
EE
330
B2
100
AcDbEntity
  8
0
  6
Continuous
 62
     0
370
    30
100
AcDbLine
 10
264.579478
 20
241.679543
 30
0.0
 11
264.579478
 21
231.486446
 31
0.0
  0
ARC
  5
EF
330
B2
100
AcDbEntity
  8
0
  6
Continuous
 62
     0
370
    30
100
AcDbCircle
 10
286.971999
 20
232.871246
 30
0.0
 40
20.48937043081468
100
AcDbArc
 50
183.875359
 51
191.785155
  0
ARC
  5
F0
330
B2
100
AcDbEntity
  8
0
  6
Continuous
 62
     0
370
    30
100
AcDbCircle
 10
286.586958
 20
232.871246
 30
0.0
 40
20.48937043076342
100
AcDbArc
 50
348.214845
 51
356.124641
  0
LWPOLYLINE
  5
F1
330
B2
100
AcDbEntity
  8
0
  6
Continuous
 62
     0
370
    30
100
AcDbPolyline
 90
        5
 70
     0
 43
0.0
 10
308.750824
 20
217.427612
 10
308.799744
 20
219.925842
 10
308.859375
 20
222.453018
 10
308.926086
 20
224.999817
 10
309.028198
 20
228.654999
  0
LWPOLYLINE
  5
F2
330
B2
100
AcDbEntity
  8
0
  6
Continuous
 62
     0
370
    30
100
AcDbPolyline
 90
        5
 70
     0
 43
0.0
 10
264.530792
 20
228.654861
 10
264.602905
 20
226.094681
 10
264.671692
 20
223.542267
 10
264.734772
 20
221.005234
 10
264.808167
 20
217.427612
  0
LWPOLYLINE
  5
F3
330
B2
100
AcDbEntity
  8
0
  6
Continuous
 62
     0
370
    30
100
AcDbPolyline
 90
       63
 70
     0
 43
0.0
 10
273.531372
 20
194.92308
 10
272.793335
 20
194.996933
 10
272.066376
 20
195.081482
 10
271.355499
 20
195.180176
 10
270.668243
 20
195.297043
 10
270.017151
 20
195.435913
 10
269.42218
 20
195.598373
 10
268.893768
 20
195.784897
 10
268.439911
 20
195.990845
 10
268.06012
 20
196.208191
 10
267.743286
 20
196.429657
 10
267.472351
 20
196.653412
 10
267.232513
 20
196.882599
 10
267.022186
 20
197.113052
 10
266.836945
 20
197.342911
 10
266.670502
 20
197.575104
 10
266.520142
 20
197.80983
 10
266.384277
 20
198.045059
 10
266.260834
 20
198.281052
 10
266.147766
 20
198.518707
 10
266.044464
 20
198.756393
 10
265.950684
 20
198.991776
 10
265.865265
 20
199.224823
 10
265.786591
 20
199.457275
 10
265.714264
 20
199.688431
 10
265.647858
 20
199.917587
 10
265.586823
 20
200.144135
 10
265.530579
 20
200.367661
 10
265.478607
 20
200.588669
 10
265.430359
 20
200.807739
 10
265.385559
 20
201.024567
 10
265.343964
 20
201.238678
 10
265.305267
 20
201.450058
 10
265.269012
 20
201.659485
 10
265.234955
 20
201.867416
 10
265.202972
 20
202.073761
 10
265.172913
 20
202.278473
 10
265.144714
 20
202.481506
 10
265.118256
 20
202.682831
 10
265.093384
 20
202.882416
 10
265.070007
 20
203.0802
 10
265.048065
 20
203.276154
 10
265.027435
 20
203.470154
 10
265.008087
 20
203.662109
 10
264.98996
 20
203.85173
 10
264.972961
 20
204.038437
 10
264.957001
 20
204.221634
 10
264.941986
 20
204.400726
 10
264.927856
 20
204.575272
 10
264.91449
 20
204.745026
 10
264.901733
 20
204.909592
 10
264.889679
 20
205.067978
 10
264.878387
 20
205.218796
 10
264.86795
 20
205.360718
 10
264.858398
 20
205.492523
 10
264.849884
 20
205.613586
 10
264.842468
 20
205.723404
 10
264.836151
 20
205.822205
 10
264.830933
 20
205.912277
 10
264.826691
 20
205.996277
 10
264.823395
 20
206.076431
 10
264.820984
 20
206.152237
 10
264.819366
 20
206.221939
  0
LWPOLYLINE
  5
F4
330
B2
100
AcDbEntity
  8
0
  6
Continuous
 62
     0
370
    30
100
AcDbPolyline
 90
       10
 70
     0
 43
0.0
 10
264.818817
 20
206.254684
 10
264.817871
 20
206.324066
 10
264.817474
 20
206.415115
 10
264.818207
 20
206.522537
 10
264.820251
 20
206.6474
 10
264.823456
 20
206.787689
 10
264.827759
 20
206.952759
 10
264.83313
 20
207.155426
 10
264.839355
 20
207.407181
 10
264.846222
 20
207.728043
  0
LWPOLYLINE
  5
F5
330
B2
100
AcDbEntity
  8
0
  6
Continuous
 62
     0
370
    30
100
AcDbPolyline
 90
       16
 70
     0
 43
0.0
 10
264.846222
 20
207.728043
 10
264.852997
 20
208.142975
 10
264.858704
 20
208.621063
 10
264.862885
 20
209.150192
 10
264.865204
 20
209.730255
 10
264.865723
 20
210.3591
 10
264.864868
 20
211.020416
 10
264.863068
 20
211.699448
 10
264.860535
 20
212.389114
 10
264.857117
 20
213.086823
 10
264.8526
 20
213.790787
 10
264.846741
 20
214.499557
 10
264.839447
 20
215.212448
 10
264.830658
 20
215.929337
 10
264.820435
 20
216.650177
 10
264.807953
 20
217.427582
  0
LWPOLYLINE
  5
F6
330
B2
100
AcDbEntity
  8
0
  6
Continuous
 62
     0
370
    30
100
AcDbPolyline
 90
       12
 70
     0
 43
0.0
 10
300.029175
 20
194.923157
 10
297.646545
 20
194.736435
 10
295.241211
 20
194.599167
 10
292.827179
 20
194.499008
 10
290.409698
 20
194.431839
 10
287.990845
 20
194.397278
 10
285.571594
 20
194.39711
 10
283.15271
 20
194.431778
 10
280.73526
 20
194.499054
 10
278.321228
 20
194.599091
 10
275.915802
 20
194.736221
 10
273.530762
 20
194.923157
  0
LWPOLYLINE
  5
F7
330
B2
100
AcDbEntity
  8
0
  6
Continuous
 62
     0
370
    30
100
AcDbPolyline
 90
       62
 70
     0
 43
0.0
 10
308.739746
 20
206.219345
 10
308.738098
 20
206.147995
 10
308.735596
 20
206.070724
 10
308.732178
 20
205.988602
 10
308.727753
 20
205.902435
 10
308.722351
 20
205.810226
 10
308.715851
 20
205.708725
 10
308.70813
 20
205.595428
 10
308.69931
 20
205.470581
 10
308.689453
 20
205.334702
 10
308.67868
 20
205.188599
 10
308.667053
 20
205.033722
 10
308.654694
 20
204.87149
 10
308.641602
 20
204.703094
 10
308.627808
 20
204.529266
 10
308.613251
 20
204.350616
 10
308.597778
 20
204.167496
 10
308.581268
 20
203.980347
 10
308.56366
 20
203.789749
 10
308.54483
 20
203.596298
 10
308.52475
 20
203.400574
 10
308.503326
 20
203.202835
 10
308.480499
 20
203.003128
 10
308.456177
 20
202.801529
 10
308.430267
 20
202.598145
 10
308.402679
 20
202.393005
 10
308.37326
 20
202.186081
 10
308.341858
 20
201.977371
 10
308.30838
 20
201.766998
 10
308.272797
 20
201.555252
 10
308.234772
 20
201.341736
 10
308.19397
 20
201.125488
 10
308.149994
 20
200.906479
 10
308.102661
 20
200.685135
 10
308.051636
 20
200.4617
 10
307.996399
 20
200.235809
 10
307.936371
 20
200.006912
 10
307.871002
 20
199.774902
 10
307.799835
 20
199.54068
 10
307.722412
 20
199.305283
 10
307.638031
 20
199.068832
 10
307.545776
 20
198.830612
 10
307.444
 20
198.589859
 10
307.331909
 20
198.348053
 10
307.20929
 20
198.107605
 10
307.075043
 20
197.868774
 10
306.92627
 20
197.630585
 10
306.760986
 20
197.393829
 10
306.577362
 20
197.159958
 10
306.369202
 20
196.926254
 10
306.131348
 20
196.692902
 10
305.861542
 20
196.46463
 10
305.54837
 20
196.239624
 10
305.172028
 20
196.017883
 10
304.720337
 20
195.806976
 10
304.191193
 20
195.615158
 10
303.592499
 20
195.448013
 10
302.934875
 20
195.305298
 10
302.238647
 20
195.185455
 10
301.517395
 20
195.084534
 10
300.779358
 20
194.998245
 10
300.029938
 20
194.923218
  0
LWPOLYLINE
  5
F8
330
B2
100
AcDbEntity
  8
0
  6
Continuous
 62
     0
370
    30
100
AcDbPolyline
 90
       10
 70
     0
 43
0.0
 10
308.740265
 20
206.250748
 10
308.741302
 20
206.326279
 10
308.741669
 20
206.415634
 10
308.740906
 20
206.524048
 10
308.738861
 20
206.64772
 10
308.735687
 20
206.787506
 10
308.731384
 20
206.951767
 10
308.726013
 20
207.153778
 10
308.719757
 20
207.405136
 10
308.71286
 20
207.728043
  0
LWPOLYLINE
  5
F9
330
B2
100
AcDbEntity
  8
0
  6
Continuous
 62
     0
370
    30
100
AcDbPolyline
 90
       16
 70
     0
 43
0.0
 10
308.751038
 20
217.427582
 10
308.739319
 20
216.700272
 10
308.728973
 20
215.976593
 10
308.720062
 20
215.256668
 10
308.712646
 20
214.540619
 10
308.706665
 20
213.828766
 10
308.702087
 20
213.12178
 10
308.698639
 20
212.421066
 10
308.696045
 20
211.728256
 10
308.694214
 20
211.045929
 10
308.693298
 20
210.381439
 10
308.693787
 20
209.748718
 10
308.696075
 20
209.165237
 10
308.700226
 20
208.633102
 10
308.705933
 20
208.152115
 10
308.71283
 20
207.728027
  0
LINE
  5
FA
330
B2
100
AcDbEntity
  8
0
  6
Continuous
 62
     0
370
    30
100
AcDbLine
 10
275.779478
 20
241.679541
 30
0.0
 11
275.779478
 21
231.579541
 31
0.0
  0
LINE
  5
FB
330
B2
100
AcDbEntity
  8
0
  6
Continuous
 62
     0
370
    30
100
AcDbLine
 10
297.779478
 20
241.679541
 30
0.0
 11
297.779478
 21
231.579541
 31
0.0
  0
LINE
  5
FC
330
B2
100
AcDbEntity
  8
0
  6
Continuous
 62
     0
370
    30
100
AcDbLine
 10
276.779478
 20
230.579541
 30
0.0
 11
275.779478
 21
231.579541
 31
0.0
  0
LINE
  5
FD
330
B2
100
AcDbEntity
  8
0
  6
Continuous
 62
     0
370
    30
100
AcDbLine
 10
297.779478
 20
231.579541
 30
0.0
 11
296.779478
 21
230.579541
 31
0.0
  0
ARC
  5
FE
330
B2
100
AcDbEntity
  8
0
  6
Continuous
 62
     0
370
    30
100
AcDbCircle
 10
296.679503
 20
219.414823
 30
0.0
 40
1.000024867383914
100
AcDbArc
 50
180.001412
 51
269.498588
  0
ARC
  5
FF
330
B2
100
AcDbEntity
  8
0
  6
Continuous
 62
     0
370
    30
100
AcDbCircle
 10
276.879453
 20
219.414823
 30
0.0
 40
1.000024887262274
100
AcDbArc
 50
270.501411
 51
359.998586
  0
LINE
  5
100
330
B2
100
AcDbEntity
  8
0
  6
Continuous
 62
     0
370
    30
100
AcDbLine
 10
277.879478
 20
219.414798
 30
0.0
 11
277.879478
 21
230.405597
 31
0.0
  0
LINE
  5
101
330
B2
100
AcDbEntity
  8
0
  6
Continuous
 62
     0
370
    30
100
AcDbLine
 10
295.679478
 20
219.414798
 30
0.0
 11
295.679478
 21
230.405597
 31
0.0
  0
LINE
  5
102
330
B2
100
AcDbEntity
  8
0
  6
Continuous
 62
     0
370
    30
100
AcDbLine
 10
297.432113
 20
218.408192
 30
0.0
 11
296.670752
 21
218.414837
 31
0.0
  0
LINE
  5
103
330
B2
100
AcDbEntity
  8
0
  6
Continuous
 62
     0
370
    30
100
AcDbLine
 10
276.126844
 20
218.408192
 30
0.0
 11
276.888205
 21
218.414837
 31
0.0
  0
ARC
  5
104
330
B2
100
AcDbEntity
  8
0
  6
Continuous
 62
     0
370
    30
100
AcDbCircle
 10
297.429463
 20
218.108189
 30
0.0
 40
0.3000150600279735
100
AcDbArc
 50
0.002848
 51
89.479621
  0
ARC
  5
105
330
B2
100
AcDbEntity
  8
0
  6
Continuous
 62
     0
370
    30
100
AcDbCircle
 10
276.129493
 20
218.108189
 30
0.0
 40
0.3000150565584525
100
AcDbArc
 50
90.515491
 51
179.997152
  0
LINE
  5
106
330
B2
100
AcDbEntity
  8
0
  6
Continuous
 62
     0
370
    30
100
AcDbLine
 10
275.829478
 20
211.005597
 30
0.0
 11
275.829478
 21
218.108204
 31
0.0
  0
LINE
  5
107
330
B2
100
AcDbEntity
  8
0
  6
Continuous
 62
     0
370
    30
100
AcDbLine
 10
297.729478
 20
211.005597
 30
0.0
 11
297.729478
 21
218.108204
 31
0.0
  0
ARC
  5
108
330
B2
100
AcDbEntity
  8
0
  6
Continuous
 62
     0
370
    30
100
AcDbCircle
 10
295.379221
 20
230.405499
 30
0.0
 40
0.3002572753795145
100
AcDbArc
 50
0.018767
 51
35.425548
  0
ARC
  5
109
330
B2
100
AcDbEntity
  8
0
  6
Continuous
 62
     0
370
    30
100
AcDbCircle
 10
278.179733
 20
230.4055
 30
0.0
 40
0.3002549536432274
100
AcDbArc
 50
144.571334
 51
179.981373
  0
ARC
  5
10A
330
B2
100
AcDbEntity
  8
0
  6
Continuous
 62
     0
370
    30
100
AcDbCircle
 10
297.429463
 20
211.005612
 30
0.0
 40
0.300015233405957
100
AcDbArc
 50
270.006607
 51
359.997095
  0
ARC
  5
10B
330
B2
100
AcDbEntity
  8
0
  6
Continuous
 62
     0
370
    30
100
AcDbCircle
 10
276.129493
 20
211.005612
 30
0.0
 40
0.3000150326756333
100
AcDbArc
 50
180.002867
 51
269.99674
  0
ENDBLK
  5
10D
330
B2
100
AcDbEntity
  8
0
100
AcDbBlockEnd
  0
BLOCK
  5
16A
330
10F
100
AcDbEntity
  8
0
100
AcDbBlockBegin
  2
c
 70
     0
 10
396.24115
 20
0.0
 30
0.0
  3
c
  1

  0
LINE
  5
110
330
10F
100
AcDbEntity
  8
0
  6
Continuous
 62
     0
370
    30
100
AcDbLine
 10
532.929793
 20
475.292261
 30
0.0
 11
532.929793
 21
481.875565
 31
0.0
  0
LINE
  5
111
330
10F
100
AcDbEntity
  8
0
  6
Continuous
 62
     0
370
    30
100
AcDbLine
 10
532.929793
 20
481.875565
 30
0.0
 11
532.929793
 21
496.592261
 31
0.0
  0
LINE
  5
112
330
10F
100
AcDbEntity
  8
0
  6
Continuous
 62
     0
370
     0
100
AcDbLine
 10
532.629793
 20
474.992265
 30
0.0
 11
532.629793
 21
481.761011
 31
0.0
  0
LINE
  5
113
330
10F
100
AcDbEntity
  8
0
  6
Continuous
 62
     0
370
     0
100
AcDbLine
 10
532.629793
 20
481.761011
 30
0.0
 11
532.629793
 21
496.892256
 31
0.0
  0
LWPOLYLINE
  5
114
330
10F
100
AcDbEntity
  8
0
  6
Continuous
 62
     0
370
     0
100
AcDbPolyline
 90
       22
 70
     0
 43
0.0
 10
513.229797
 20
494.842255
 10
513.229797
 20
494.804169
 10
513.229797
 20
494.688843
 10
513.229797
 20
494.497131
 10
513.229797
 20
494.230896
 10
513.229797
 20
493.892303
 10
513.229797
 20
493.484406
 10
513.229797
 20
493.010712
 10
513.229797
 20
492.475342
 10
513.229797
 20
491.883026
 10
513.229797
 20
491.238861
 10
513.229797
 20
490.548523
 10
513.229797
 20
489.817963
 10
513.229797
 20
489.05365
 10
513.229797
 20
488.262177
 10
513.229797
 20
487.450439
 10
513.229797
 20
486.625549
 10
513.229797
 20
485.7948
 10
513.229797
 20
484.965332
 10
513.229797
 20
484.144165
 10
513.229797
 20
483.33847
 10
513.229797
 20
482.543793
  0
LINE
  5
115
330
10F
100
AcDbEntity
  8
0
  6
Continuous
 62
     0
370
     0
100
AcDbLine
 10
513.229793
 20
482.543802
 30
0.0
 11
513.229793
 21
477.042264
 31
0.0
  0
LINE
  5
116
330
10F
100
AcDbEntity
  8
0
  6
Continuous
 62
     0
370
     0
100
AcDbLine
 10
525.527186
 20
481.761011
 30
0.0
 11
525.527186
 21
474.992261
 31
0.0
  0
LINE
  5
117
330
10F
100
AcDbEntity
  8
0
  6
Continuous
 62
     0
370
     0
100
AcDbLine
 10
525.527186
 20
496.892261
 30
0.0
 11
525.527186
 21
481.761011
 31
0.0
  0
LINE
  5
118
330
10F
100
AcDbEntity
  8
0
  6
Continuous
 62
     0
370
     0
100
AcDbLine
 10
525.227198
 20
481.874566
 30
0.0
 11
525.227198
 21
475.289705
 31
0.0
  0
LWPOLYLINE
  5
119
330
10F
100
AcDbEntity
  8
0
  6
Continuous
 62
     0
370
     0
100
AcDbPolyline
 90
       24
 70
     0
 43
0.0
 10
525.227173
 20
496.594818
 10
525.227173
 20
496.556885
 10
525.227173
 20
496.441833
 10
525.227173
 20
496.250336
 10
525.227173
 20
495.983948
 10
525.227173
 20
495.644501
 10
525.227173
 20
495.234467
 10
525.227173
 20
494.756927
 10
525.227173
 20
494.21521
 10
525.227173
 20
493.613342
 10
525.227173
 20
492.95575
 10
525.227173
 20
492.24707
 10
525.227173
 20
491.492615
 10
525.227173
 20
490.697784
 10
525.227173
 20
489.868347
 10
525.227173
 20
489.010376
 10
525.227173
 20
488.130005
 10
525.227173
 20
487.233765
 10
525.227173
 20
486.328339
 10
525.227173
 20
485.420197
 10
525.227173
 20
484.515503
 10
525.227173
 20
483.620422
 10
525.227173
 20
482.742462
 10
525.227173
 20
481.874573
  0
LINE
  5
11A
330
10F
100
AcDbEntity
  8
0
  6
Continuous
 62
     0
370
     0
100
AcDbLine
 10
525.220554
 20
476.050987
 30
0.0
 11
525.220554
 21
482.165285
 31
0.0
  0
LINE
  5
11B
330
10F
100
AcDbEntity
  8
0
  6
Continuous
 62
     0
370
     0
100
AcDbLine
 10
525.220554
 20
482.165285
 30
0.0
 11
525.220554
 21
495.833534
 31
0.0
  0
LINE
  5
11C
330
10F
100
AcDbEntity
  8
0
  6
Continuous
 62
     0
370
     0
100
AcDbLine
 10
524.220592
 20
482.543802
 30
0.0
 11
524.220592
 21
494.842261
 31
0.0
  0
LINE
  5
11D
330
10F
100
AcDbEntity
  8
0
  6
Continuous
 62
     0
370
     0
100
AcDbLine
 10
524.220592
 20
477.042261
 30
0.0
 11
524.220592
 21
482.543802
 31
0.0
  0
LINE
  5
11E
330
10F
100
AcDbEntity
  8
0
  6
Continuous
 62
     0
370
    30
100
AcDbLine
 10
513.055849
 20
495.942262
 30
0.0
 11
513.055849
 21
475.942262
 31
0.0
  0
LINE
  5
11F
330
10F
100
AcDbEntity
  8
0
  6
Continuous
 62
     0
370
    30
100
AcDbLine
 10
513.055849
 20
495.942262
 30
0.0
 11
512.055849
 21
496.942262
 31
0.0
  0
LINE
  5
120
330
10F
100
AcDbEntity
  8
0
  6
Continuous
 62
     0
370
    30
100
AcDbLine
 10
512.055849
 20
496.942262
 30
0.0
 11
512.055849
 21
474.942262
 31
0.0
  0
LINE
  5
121
330
10F
100
AcDbEntity
  8
0
  6
Continuous
 62
     0
370
    30
100
AcDbLine
 10
501.955849
 20
496.942262
 30
0.0
 11
512.055849
 21
496.942262
 31
0.0
  0
LWPOLYLINE
  5
122
330
10F
100
AcDbEntity
  8
0
  6
Continuous
 62
     0
370
     0
100
AcDbPolyline
 90
        7
 70
     0
 43
0.0
 10
525.238342
 20
415.717529
 10
525.264282
 20
415.71936
 10
525.341553
 20
415.724579
 10
525.468323
 20
415.732574
 10
525.641663
 20
415.742432
 10
525.857788
 20
415.75296
 10
526.177185
 20
415.765015
  0
LWPOLYLINE
  5
123
330
10F
100
AcDbEntity
  8
0
  6
Continuous
 62
     0
370
     0
100
AcDbPolyline
 90
       13
 70
     0
 43
0.0
 10
526.177185
 20
415.765015
 10
526.179749
 20
415.841156
 10
526.186096
 20
415.946686
 10
526.197876
 20
416.080444
 10
526.216614
 20
416.241272
 10
526.244202
 20
416.428131
 10
526.282532
 20
416.640198
 10
526.334534
 20
416.877014
 10
526.403442
 20
417.138306
 10
526.492554
 20
417.423798
 10
526.602844
 20
417.733002
 10
526.746521
 20
418.072815
 10
526.956543
 20
418.475952
  0
LWPOLYLINE
  5
124
330
10F
100
AcDbEntity
  8
0
  6
Continuous
 62
     0
370
     0
100
AcDbPolyline
 90
        7
 70
     0
 43
0.0
 10
526.956543
 20
418.475952
 10
525.03717
 20
418.511688
 10
523.104797
 20
418.547272
 10
521.165283
 20
418.579803
 10
519.221558
 20
418.61026
 10
517.275452
 20
418.639282
 10
514.948975
 20
418.673096
  0
LINE
  5
125
330
10F
100
AcDbEntity
  8
0
  6
Continuous
 62
     0
370
    30
100
AcDbLine
 10
514.948946
 20
418.673099
 30
0.0
 11
514.948945
 21
415.692691
 31
0.0
  0
LINE
  5
126
330
10F
100
AcDbEntity
  8
0
  6
Continuous
 62
     0
370
     0
100
AcDbLine
 10
526.20788
 20
460.269123
 30
0.0
 11
526.20788
 21
457.434091
 31
0.0
  0
LWPOLYLINE
  5
127
330
10F
100
AcDbEntity
  8
0
  6
Continuous
 62
     0
370
     0
100
AcDbPolyline
 90
        3
 70
     0
 43
0.0
 10
526.207886
 20
457.434082
 10
527.705444
 20
457.460571
 10
535.885559
 20
457.583557
  0
LWPOLYLINE
  5
128
330
10F
100
AcDbEntity
  8
0
  6
Continuous
 62
     0
370
     0
100
AcDbPolyline
 90
       29
 70
     0
 43
0.0
 10
535.885559
 20
457.583557
 10
536.149719
 20
457.587769
 10
536.413879
 20
457.591278
 10
536.67804
 20
457.593201
 10
536.942139
 20
457.591827
 10
537.206116
 20
457.584869
 10
537.46936
 20
457.56839
 10
537.730469
 20
457.53598
 10
537.984863
 20
457.476105
 10
538.219055
 20
457.372589
 10
538.408997
 20
457.214691
 10
538.540527
 20
457.016266
 10
538.626892
 20
456.79895
 10
538.684875
 20
456.574036
 10
538.726257
 20
456.346008
 10
538.757263
 20
456.116302
 10
538.782043
 20
455.885895
 10
538.802734
 20
455.655548
 10
538.821045
 20
455.425934
 10
538.838074
 20
455.197632
 10
538.854431
 20
454.971191
 10
538.87085
 20
454.747101
 10
538.887573
 20
454.525604
 10
538.904907
 20
454.306885
 10
538.923035
 20
454.091095
 10
538.941956
 20
453.878174
 10
538.961731
 20
453.667999
 10
538.982605
 20
453.461334
 10
539.005859
 20
453.253998
  0
LWPOLYLINE
  5
129
330
10F
100
AcDbEntity
  8
0
  6
Continuous
 62
     0
370
     0
100
AcDbPolyline
 90
        8
 70
     0
 43
0.0
 10
539.005859
 20
453.253998
 10
539.1026
 20
453.575806
 10
539.197876
 20
453.859619
 10
539.286011
 20
454.107147
 10
539.363159
 20
454.312134
 10
539.424866
 20
454.468567
 10
539.465942
 20
454.56955
 10
539.481018
 20
454.605804
  0
LWPOLYLINE
  5
12A
330
10F
100
AcDbEntity
  8
0
  6
Continuous
 62
     0
370
     0
100
AcDbPolyline
 90
        6
 70
     0
 43
0.0
 10
548.586487
 20
384.789459
 10
548.68988
 20
384.749786
 10
548.773132
 20
384.726227
 10
548.837524
 20
384.712006
 10
548.881226
 20
384.704559
 10
548.902832
 20
384.701416
  0
LWPOLYLINE
  5
12B
330
10F
100
AcDbEntity
  8
0
  6
Continuous
 62
     0
370
     0
100
AcDbPolyline
 90
       16
 70
     0
 43
0.0
 10
539.005859
 20
453.253998
 10
538.967834
 20
451.661469
 10
538.959045
 20
450.004669
 10
538.976074
 20
448.29599
 10
539.01178
 20
446.539398
 10
539.056519
 20
444.714142
 10
539.097046
 20
442.822479
 10
539.127502
 20
440.895111
 10
539.147888
 20
438.952667
 10
539.161621
 20
437.004486
 10
539.173218
 20
435.054352
 10
539.185547
 20
433.103424
 10
539.20105
 20
431.152191
 10
539.22229
 20
429.200867
 10
539.252991
 20
427.249664
 10
539.299866
 20
425.269928
  0
LWPOLYLINE
  5
12C
330
10F
100
AcDbEntity
  8
0
  6
Continuous
 62
     0
370
     0
100
AcDbPolyline
 90
       63
 70
     0
 43
0.0
 10
539.299866
 20
425.269928
 10
539.322388
 20
424.587341
 10
539.349976
 20
423.904877
 10
539.384521
 20
423.222717
 10
539.42804
 20
422.541077
 10
539.482666
 20
421.86026
 10
539.550232
 20
421.180664
 10
539.632019
 20
420.502594
 10
539.72821
 20
419.826416
 10
539.838074
 20
419.152374
 10
539.960022
 20
418.480377
 10
540.092163
 20
417.810211
 10
540.232605
 20
417.141693
 10
540.379456
 20
416.47464
 10
540.531189
 20
415.808807
 10
540.686707
 20
415.14386
 10
540.845032
 20
414.479584
 10
541.005615
 20
413.815796
 10
541.167969
 20
413.152466
 10
541.331787
 20
412.489502
 10
541.496826
 20
411.826843
 10
541.663025
 20
411.164459
 10
541.830261
 20
410.50235
 10
541.998352
 20
409.840485
 10
542.167236
 20
409.178833
 10
542.336853
 20
408.517334
 10
542.507019
 20
407.856018
 10
542.677673
 20
407.194794
 10
542.848755
 20
406.533722
 10
543.020325
 20
405.872772
 10
543.192322
 20
405.211945
 10
543.364624
 20
404.551208
 10
543.537292
 20
403.890564
 10
543.710266
 20
403.230011
 10
543.883484
 20
402.569519
 10
544.056946
 20
401.909119
 10
544.230591
 20
401.248749
 10
544.404419
 20
400.58847
 10
544.578308
 20
399.928192
 10
544.752319
 20
399.267975
 10
544.926331
 20
398.607758
 10
545.100342
 20
397.94754
 10
545.274414
 20
397.287384
 10
545.448425
 20
396.627228
 10
545.622498
 20
395.967133
 10
545.796509
 20
395.307098
 10
545.970459
 20
394.647125
 10
546.14447
 20
393.987244
 10
546.318359
 20
393.327484
 10
546.492249
 20
392.667908
 10
546.666077
 20
392.008484
 10
546.839905
 20
391.349335
 10
547.013489
 20
390.690704
 10
547.18689
 20
390.03302
 10
547.359924
 20
389.37674
 10
547.53241
 20
388.722534
 10
547.703918
 20
388.071869
 10
547.873779
 20
387.428009
 10
548.040405
 20
386.797852
 10
548.2005
 20
386.196442
 10
548.347656
 20
385.650421
 10
548.477051
 20
385.179108
 10
548.586487
 20
384.789459
  0
LWPOLYLINE
  5
12D
330
10F
100
AcDbEntity
  8
0
  6
Continuous
 62
     0
370
     0
100
AcDbPolyline
 90
       24
 70
     0
 43
0.0
 10
548.586487
 20
384.789459
 10
548.598022
 20
384.662415
 10
548.61084
 20
384.524261
 10
548.62439
 20
384.378113
 10
548.638306
 20
384.224945
 10
548.652588
 20
384.063873
 10
548.667053
 20
383.893921
 10
548.681335
 20
383.714722
 10
548.694946
 20
383.526093
 10
548.707214
 20
383.3284
 10
548.716614
 20
383.123322
 10
548.721558
 20
382.912872
 10
548.718994
 20
382.69986
 10
548.704407
 20
382.48645
 10
548.66803
 20
382.27063
 10
548.595764
 20
382.056763
 10
548.469849
 20
381.85907
 10
548.281067
 20
381.692047
 10
548.049255
 20
381.564484
 10
547.796692
 20
381.468079
 10
547.533936
 20
381.395905
 10
547.264709
 20
381.345001
 10
546.99176
 20
381.316162
 10
546.709961
 20
381.31488
  0
LWPOLYLINE
  5
12E
330
10F
100
AcDbEntity
  8
0
  6
Continuous
 62
     0
370
     0
100
AcDbPolyline
 90
       10
 70
     0
 43
0.0
 10
546.709961
 20
381.31488
 10
546.422913
 20
381.360687
 10
546.165222
 20
381.466736
 10
545.952271
 20
381.622345
 10
545.773438
 20
381.802216
 10
545.618225
 20
381.99762
 10
545.485596
 20
382.210541
 10
545.372375
 20
382.439026
 10
545.272339
 20
382.677551
 10
545.177795
 20
382.934174
  0
LWPOLYLINE
  5
12F
330
10F
100
AcDbEntity
  8
0
  6
Continuous
 62
     0
370
    30
100
AcDbPolyline
 90
        7
 70
     0
 43
0.0
 10
545.177795
 20
382.934174
 10
545.033325
 20
383.375732
 10
544.903992
 20
383.80661
 10
544.789062
 20
384.209747
 10
544.688049
 20
384.576447
 10
544.598694
 20
384.908905
 10
544.518738
 20
385.211456
  0
LWPOLYLINE
  5
130
330
10F
100
AcDbEntity
  8
0
  6
Continuous
 62
     0
370
     0
100
AcDbPolyline
 90
       69
 70
     0
 43
0.0
 10
544.518738
 20
385.211456
 10
544.444214
 20
385.493286
 10
544.357605
 20
385.820984
 10
544.257568
 20
386.199982
 10
544.143738
 20
386.631409
 10
544.019409
 20
387.102997
 10
543.889221
 20
387.596771
 10
543.75592
 20
388.102325
 10
543.621033
 20
388.613953
 10
543.485107
 20
389.128967
 10
543.34845
 20
389.645874
 10
543.21106
 20
390.164001
 10
543.072998
 20
390.682831
 10
542.934326
 20
391.202148
 10
542.795105
 20
391.72171
 10
542.655334
 20
392.241394
 10
542.515015
 20
392.761169
 10
542.374207
 20
393.280945
 10
542.23291
 20
393.80069
 10
542.091187
 20
394.320374
 10
541.948975
 20
394.839996
 10
541.806335
 20
395.359528
 10
541.663269
 20
395.878967
 10
541.519775
 20
396.398315
 10
541.375916
 20
396.917542
 10
541.231689
 20
397.436707
 10
541.087036
 20
397.95575
 10
540.941956
 20
398.474701
 10
540.796509
 20
398.9935
 10
540.650574
 20
399.512207
 10
540.50415
 20
400.030792
 10
540.357239
 20
400.549225
 10
540.209717
 20
401.067474
 10
540.061646
 20
401.585571
 10
539.912903
 20
402.103455
 10
539.763367
 20
402.621124
 10
539.613159
 20
403.13855
 10
539.462097
 20
403.655731
 10
539.31012
 20
404.172638
 10
539.157288
 20
404.68924
 10
539.003479
 20
405.205566
 10
538.848572
 20
405.721497
 10
538.692505
 20
406.237061
 10
538.535156
 20
406.752197
 10
538.376343
 20
407.266815
 10
538.216003
 20
407.780914
 10
538.053833
 20
408.294373
 10
537.889709
 20
408.807068
 10
537.723206
 20
409.318939
 10
537.554077
 20
409.829803
 10
537.381958
 20
410.339508
 10
537.206055
 20
410.847656
 10
537.025452
 20
411.35376
 10
536.839172
 20
411.857361
 10
536.646057
 20
412.357727
 10
536.444336
 20
412.853729
 10
536.232178
 20
413.344086
 10
536.007019
 20
413.826843
 10
535.764648
 20
414.298309
 10
535.5
 20
414.753723
 10
535.2052
 20
415.183685
 10
534.871094
 20
415.574585
 10
534.48999
 20
415.908112
 10
534.064819
 20
416.181152
 10
533.603577
 20
416.404633
 10
533.110779
 20
416.585419
 10
532.595093
 20
416.732635
 10
532.069336
 20
416.859039
 10
531.543457
 20
416.97879
  0
LWPOLYLINE
  5
131
330
10F
100
AcDbEntity
  8
0
  6
Continuous
 62
     0
370
     0
100
AcDbPolyline
 90
        6
 70
     0
 43
0.0
 10
531.543457
 20
416.97879
 10
530.568848
 20
417.220367
 10
529.646729
 20
417.485931
 10
528.753357
 20
417.77832
 10
527.873474
 20
418.100647
 10
526.956543
 20
418.475952
  0
LWPOLYLINE
  5
132
330
10F
100
AcDbEntity
  8
0
  6
Continuous
 62
     0
370
     0
100
AcDbPolyline
 90
       14
 70
     0
 43
0.0
 10
526.177185
 20
415.765015
 10
526.536194
 20
415.77356
 10
526.932312
 20
415.776917
 10
527.351929
 20
415.773438
 10
527.783264
 20
415.76239
 10
528.214111
 20
415.743561
 10
528.63147
 20
415.717804
 10
529.022644
 20
415.686584
 10
529.375732
 20
415.652252
 10
529.68042
 20
415.617676
 10
529.92749
 20
415.58606
 10
530.109924
 20
415.560425
 10
530.222351
 20
415.543579
 10
530.262024
 20
415.537476
  0
LWPOLYLINE
  5
133
330
10F
100
AcDbEntity
  8
0
  6
Continuous
 62
     0
370
     0
100
AcDbPolyline
 90
       12
 70
     0
 43
0.0
 10
535.932129
 20
424.244965
 10
535.657349
 20
424.566284
 10
535.345947
 20
424.851746
 10
535.00177
 20
425.096588
 10
534.634338
 20
425.304504
 10
534.246033
 20
425.4711
 10
533.843018
 20
425.597656
 10
533.430603
 20
425.688843
 10
533.012878
 20
425.750549
 10
532.592468
 20
425.788452
 10
532.171021
 20
425.808868
 10
531.74353
 20
425.818512
  0
LWPOLYLINE
  5
134
330
10F
100
AcDbEntity
  8
0
  6
Continuous
 62
     0
370
     0
100
AcDbPolyline
 90
        9
 70
     0
 43
0.0
 10
531.74353
 20
425.818512
 10
531.731934
 20
425.02713
 10
531.718018
 20
424.24585
 10
531.702026
 20
423.479858
 10
531.684814
 20
422.736053
 10
531.668091
 20
422.024292
 10
531.65509
 20
421.356476
 10
531.651855
 20
420.742889
 10
531.672852
 20
420.097229
  0
LWPOLYLINE
  5
135
330
10F
100
AcDbEntity
  8
0
  6
Continuous
 62
     0
370
     0
100
AcDbPolyline
 90
        6
 70
     0
 43
0.0
 10
531.672852
 20
420.097229
 10
531.708923
 20
419.709412
 10
531.769226
 20
419.334961
 10
531.861755
 20
418.973511
 10
531.998291
 20
418.624603
 10
532.20282
 20
418.260284
  0
ARC
  5
136
330
10F
100
AcDbEntity
  8
0
  6
Continuous
 62
     0
370
     0
100
AcDbCircle
 10
531.268867
 20
413.521229
 30
0.0
 40
4.830205919691734
100
AcDbArc
 50
52.368414
 51
78.851407
  0
LWPOLYLINE
  5
137
330
10F
100
AcDbEntity
  8
0
  6
Continuous
 62
     0
370
     0
100
AcDbPolyline
 90
       13
 70
     0
 43
0.0
 10
534.218079
 20
417.346527
 10
534.230347
 20
417.71759
 10
534.259033
 20
418.152954
 10
534.3172
 20
418.633759
 10
534.415955
 20
419.142578
 10
534.563782
 20
419.664093
 10
534.755615
 20
420.207703
 10
534.969727
 20
420.796539
 10
535.18689
 20
421.430664
 10
535.395203
 20
422.100922
 10
535.589417
 20
422.79541
 10
535.765625
 20
423.508575
 10
535.932129
 20
424.244965
  0
LWPOLYLINE
  5
138
330
10F
100
AcDbEntity
  8
0
  6
Continuous
 62
     0
370
     0
100
AcDbPolyline
 90
       28
 70
     0
 43
0.0
 10
535.932129
 20
424.244965
 10
535.92218
 20
425.624298
 10
535.916748
 20
427.004883
 10
535.912598
 20
428.386169
 10
535.909363
 20
429.767792
 10
535.907166
 20
431.149567
 10
535.906189
 20
432.531311
 10
535.906128
 20
433.912872
 10
535.906555
 20
435.294067
 10
535.907166
 20
436.674591
 10
535.907837
 20
438.054108
 10
535.908264
 20
439.431915
 10
535.908203
 20
440.806915
 10
535.90741
 20
442.177307
 10
535.905884
 20
443.539612
 10
535.903748
 20
444.888916
 10
535.901062
 20
446.217529
 10
535.898071
 20
447.515778
 10
535.895142
 20
448.773163
 10
535.892456
 20
449.981903
 10
535.890381
 20
451.137787
 10
535.888855
 20
452.239685
 10
535.887695
 20
453.285675
 10
535.886902
 20
454.273499
 10
535.886353
 20
455.201599
 10
535.885986
 20
456.065979
 10
535.885742
 20
456.85968
 10
535.885559
 20
457.583557
  0
LWPOLYLINE
  5
139
330
10F
100
AcDbEntity
  8
0
  6
Continuous
 62
     0
370
     0
100
AcDbPolyline
 90
       27
 70
     0
 43
0.0
 10
526.207886
 20
457.434082
 10
526.207886
 20
456.72113
 10
526.207886
 20
455.933655
 10
526.207886
 20
455.077057
 10
526.207886
 20
454.15744
 10
526.207886
 20
453.178955
 10
526.207886
 20
452.143402
 10
526.207886
 20
451.053467
 10
526.207886
 20
449.912231
 10
526.207886
 20
448.722687
 10
526.207886
 20
447.488892
 10
526.207886
 20
446.217163
 10
526.207886
 20
444.914581
 10
526.207886
 20
443.588562
 10
526.207886
 20
442.245605
 10
526.207886
 20
440.891296
 10
526.207886
 20
439.529755
 10
526.207886
 20
438.164246
 10
526.207825
 20
436.796509
 10
526.207703
 20
435.428223
 10
526.207397
 20
434.061096
 10
526.206909
 20
432.696564
 10
526.206116
 20
431.334991
 10
526.204956
 20
429.977142
 10
526.203308
 20
428.628265
 10
526.20105
 20
427.295166
 10
526.197876
 20
425.948059
  0
LWPOLYLINE
  5
13A
330
10F
100
AcDbEntity
  8
0
  6
Continuous
 62
     0
370
     0
100
AcDbPolyline
 90
        4
 70
     0
 43
0.0
 10
526.197876
 20
425.948059
 10
527.957275
 20
425.868195
 10
529.715698
 20
425.830841
 10
531.74353
 20
425.818512
  0
LWPOLYLINE
  5
13B
330
10F
100
AcDbEntity
  8
0
  6
Continuous
 62
     0
370
     0
100
AcDbPolyline
 90
       37
 70
     0
 43
0.0
 10
535.932129
 20
424.244965
 10
536.163574
 20
424.419281
 10
536.407349
 20
424.579193
 10
536.660889
 20
424.727264
 10
536.922974
 20
424.8638
 10
537.194275
 20
424.984192
 10
537.475159
 20
425.082489
 10
537.761963
 20
425.155365
 10
538.045898
 20
425.202667
 10
538.306091
 20
425.230377
 10
538.506348
 20
425.248444
 10
538.632812
 20
425.257507
 10
538.712708
 20
425.261658
 10
538.767883
 20
425.26358
 10
538.810181
 20
425.264496
 10
538.845459
 20
425.264984
 10
538.876526
 20
425.26535
 10
538.904785
 20
425.265625
 10
538.931213
 20
425.265869
 10
538.956116
 20
425.266113
 10
538.979675
 20
425.266327
 10
539.002136
 20
425.26651
 10
539.023682
 20
425.266693
 10
539.044617
 20
425.266907
 10
539.065125
 20
425.26709
 10
539.085388
 20
425.267273
 10
539.105469
 20
425.267487
 10
539.125305
 20
425.2677
 10
539.145081
 20
425.267914
 10
539.164673
 20
425.268158
 10
539.184143
 20
425.268372
 10
539.203491
 20
425.268616
 10
539.222839
 20
425.26886
 10
539.242065
 20
425.269135
 10
539.26123
 20
425.269379
 10
539.280334
 20
425.269653
 10
539.299866
 20
425.269928
  0
LWPOLYLINE
  5
13C
330
10F
100
AcDbEntity
  8
0
  6
Continuous
 62
     0
370
     0
100
AcDbPolyline
 90
       59
 70
     0
 43
0.0
 10
535.932129
 20
424.244965
 10
536.100342
 20
423.450104
 10
536.263855
 20
422.654205
 10
536.424866
 20
421.857788
 10
536.585327
 20
421.061279
 10
536.747131
 20
420.265045
 10
536.911804
 20
419.469391
 10
537.080688
 20
418.674652
 10
537.254761
 20
417.881042
 10
537.433716
 20
417.08844
 10
537.616882
 20
416.296844
 10
537.803833
 20
415.506134
 10
537.99408
 20
414.716217
 10
538.187073
 20
413.927002
 10
538.382385
 20
413.138367
 10
538.57959
 20
412.35022
 10
538.778259
 20
411.562439
 10
538.978088
 20
410.774994
 10
539.179016
 20
409.987885
 10
539.38092
 20
409.201019
 10
539.583618
 20
408.414398
 10
539.786987
 20
407.627991
 10
539.990845
 20
406.841766
 10
540.195251
 20
406.055725
 10
540.400085
 20
405.269867
 10
540.605347
 20
404.484161
 10
540.810913
 20
403.698639
 10
541.016846
 20
402.913239
 10
541.222961
 20
402.128021
 10
541.429382
 20
401.342957
 10
541.635864
 20
400.558044
 10
541.842529
 20
399.773346
 10
542.049255
 20
398.9888
 10
542.255981
 20
398.204468
 10
542.462708
 20
397.420319
 10
542.669373
 20
396.636444
 10
542.875916
 20
395.852936
 10
543.082397
 20
395.069855
 10
543.288696
 20
394.287292
 10
543.494812
 20
393.505371
 10
543.700745
 20
392.724243
 10
543.906433
 20
391.944183
 10
544.111694
 20
391.165405
 10
544.316589
 20
390.388214
 10
544.520935
 20
389.613037
 10
544.724487
 20
388.840973
 10
544.92688
 20
388.073364
 10
545.127747
 20
387.311523
 10
545.326538
 20
386.557434
 10
545.522339
 20
385.814575
 10
545.713379
 20
385.090088
 10
545.896484
 20
384.39563
 10
546.067322
 20
383.747864
 10
546.22113
 20
383.164825
 10
546.354675
 20
382.658752
 10
546.467773
 20
382.23053
 10
546.562561
 20
381.871857
 10
546.642029
 20
381.571533
 10
546.709961
 20
381.31488
  0
LWPOLYLINE
  5
13D
330
10F
100
AcDbEntity
  8
0
  6
Continuous
 62
     0
370
     0
100
AcDbPolyline
 90
       59
 70
     0
 43
0.0
 10
534.218079
 20
417.346527
 10
534.664978
 20
416.946503
 10
535.060852
 20
416.474121
 10
535.409607
 20
415.944305
 10
535.721436
 20
415.37616
 10
536.005676
 20
414.785309
 10
536.269409
 20
414.178833
 10
536.517334
 20
413.56131
 10
536.75293
 20
412.936249
 10
536.978577
 20
412.305664
 10
537.196228
 20
411.670959
 10
537.407471
 20
411.033142
 10
537.613647
 20
410.393036
 10
537.81604
 20
409.751312
 10
538.015076
 20
409.108215
 10
538.211121
 20
408.463898
 10
538.404541
 20
407.818573
 10
538.595764
 20
407.172424
 10
538.784973
 20
406.525574
 10
538.972656
 20
405.878174
 10
539.158936
 20
405.230377
 10
539.343933
 20
404.582153
 10
539.527649
 20
403.933533
 10
539.710327
 20
403.284607
 10
539.891907
 20
402.635376
 10
540.072632
 20
401.985901
 10
540.252502
 20
401.336182
 10
540.431641
 20
400.686279
 10
540.610107
 20
400.036224
 10
540.787964
 20
399.386017
 10
540.965332
 20
398.735748
 10
541.142212
 20
398.085388
 10
541.318787
 20
397.434998
 10
541.494934
 20
396.784607
 10
541.670837
 20
396.134247
 10
541.846313
 20
395.484009
 10
542.021423
 20
394.833893
 10
542.196106
 20
394.18399
 10
542.370422
 20
393.534332
 10
542.54425
 20
392.885071
 10
542.717529
 20
392.236298
 10
542.89032
 20
391.588257
 10
543.0625
 20
390.941101
 10
543.234009
 20
390.295105
 10
543.404663
 20
389.651001
 10
543.57428
 20
389.009827
 10
543.742615
 20
388.372589
 10
543.909302
 20
387.740509
 10
544.074036
 20
387.115875
 10
544.235596
 20
386.50296
 10
544.39209
 20
385.909332
 10
544.540405
 20
385.346863
 10
544.676758
 20
384.830078
 10
544.797546
 20
384.372162
 10
544.901306
 20
383.979218
 10
544.988953
 20
383.647614
 10
545.062561
 20
383.369232
 10
545.124573
 20
383.134888
 10
545.177795
 20
382.934174
  0
LWPOLYLINE
  5
13E
330
10F
100
AcDbEntity
  8
0
  6
Continuous
 62
     0
370
     0
100
AcDbPolyline
 90
        7
 70
     0
 43
0.0
 10
532.20282
 20
418.260284
 10
531.979614
 20
418.011292
 10
531.822205
 20
417.77832
 10
531.714783
 20
417.561371
 10
531.639526
 20
417.358643
 10
531.585083
 20
417.167694
 10
531.543457
 20
416.97879
  0
LWPOLYLINE
  5
13F
330
10F
100
AcDbEntity
  8
0
  6
Continuous
 62
     0
370
     0
100
AcDbPolyline
 90
       12
 70
     0
 43
0.0
 10
526.197876
 20
425.948059
 10
526.195496
 20
425.070618
 10
526.195251
 20
424.216858
 10
526.200562
 20
423.394012
 10
526.215393
 20
422.608826
 10
526.243896
 20
421.867218
 10
526.290771
 20
421.174011
 10
526.361267
 20
420.532562
 10
526.459961
 20
419.943359
 10
526.588257
 20
419.404358
 10
526.749573
 20
418.918701
 10
526.956543
 20
418.475952
  0
LWPOLYLINE
  5
140
330
10F
100
AcDbEntity
  8
0
  6
Continuous
 62
     0
370
     0
100
AcDbPolyline
 90
        9
 70
     0
 43
0.0
 10
526.956543
 20
418.475952
 10
527.476379
 20
418.671234
 10
528.007385
 20
418.868378
 10
528.552612
 20
419.073425
 10
529.114197
 20
419.284912
 10
529.695557
 20
419.499451
 10
530.302246
 20
419.712982
 10
530.94043
 20
419.915283
 10
531.672852
 20
420.097229
  0
LINE
  5
141
330
10F
100
AcDbEntity
  8
0
  6
Continuous
 62
     0
370
    30
100
AcDbLine
 10
514.948946
 20
418.673099
 30
0.0
 11
514.948946
 21
437.989263
 31
0.0
  0
LINE
  5
142
330
10F
100
AcDbEntity
  8
0
  6
Continuous
 62
     0
370
    30
100
AcDbLine
 10
523.494454
 20
460.251472
 30
0.0
 11
514.948948
 21
437.989263
 31
0.0
  0
LINE
  5
143
330
10F
100
AcDbEntity
  8
0
  6
Continuous
 62
     0
370
    30
100
AcDbLine
 10
512.148946
 20
415.742262
 30
0.0
 11
501.955849
 21
415.742262
 31
0.0
  0
LINE
  5
144
330
10F
100
AcDbEntity
  8
0
  6
Continuous
 62
     0
370
    30
100
AcDbLine
 10
512.148946
 20
415.742262
 30
0.0
 11
512.148946
 21
460.142262
 31
0.0
  0
LINE
  5
145
330
10F
100
AcDbEntity
  8
0
  6
Continuous
 62
     0
370
    30
100
AcDbLine
 10
501.955853
 20
459.442262
 30
0.0
 11
501.955849
 21
370.442262
 31
0.0
  0
LINE
  5
146
330
10F
100
AcDbEntity
  8
0
  6
Continuous
 62
     0
370
    30
100
AcDbLine
 10
501.955849
 20
548.442262
 30
0.0
 11
501.955853
 21
459.442262
 31
0.0
  0
LWPOLYLINE
  5
147
330
10F
100
AcDbEntity
  8
0
  6
Continuous
 62
     0
370
     0
100
AcDbPolyline
 90
       54
 70
     0
 43
0.0
 10
500.955841
 20
459.442261
 10
500.955841
 20
462.109314
 10
500.955841
 20
464.774017
 10
500.955841
 20
467.434052
 10
500.955841
 20
470.087067
 10
500.955841
 20
472.730743
 10
500.955841
 20
475.362762
 10
500.955841
 20
477.980743
 10
500.955841
 20
480.582428
 10
500.955841
 20
483.165558
 10
500.955841
 20
485.727875
 10
500.955841
 20
488.26712
 10
500.955841
 20
490.781097
 10
500.955841
 20
493.267487
 10
500.955841
 20
495.724121
 10
500.955841
 20
498.148865
 10
500.955841
 20
500.539612
 10
500.955841
 20
502.894318
 10
500.955841
 20
505.210938
 10
500.955841
 20
507.487335
 10
500.955841
 20
509.721497
 10
500.955841
 20
511.911407
 10
500.955841
 20
514.055176
 10
500.955841
 20
516.151062
 10
500.955841
 20
518.197205
 10
500.955841
 20
520.191772
 10
500.955841
 20
522.132996
 10
500.955841
 20
524.019043
 10
500.955841
 20
525.848267
 10
500.955841
 20
527.619202
 10
500.955841
 20
529.330322
 10
500.955841
 20
530.980164
 10
500.955841
 20
532.567139
 10
500.955841
 20
534.089905
 10
500.955841
 20
535.546936
 10
500.955841
 20
536.937073
 10
500.955841
 20
538.259216
 10
500.955841
 20
539.512146
 10
500.955841
 20
540.694885
 10
500.955841
 20
541.806274
 10
500.955841
 20
542.845276
 10
500.955841
 20
543.810791
 10
500.955841
 20
544.702209
 10
500.955841
 20
545.518799
 10
500.955841
 20
546.259888
 10
500.955841
 20
546.924866
 10
500.955841
 20
547.512939
 10
500.955841
 20
548.023499
 10
500.955841
 20
548.456116
 10
500.955841
 20
548.810608
 10
500.955841
 20
549.08667
 10
500.955841
 20
549.284119
 10
500.955841
 20
549.40271
 10
500.955841
 20
549.442261
  0
LWPOLYLINE
  5
148
330
10F
100
AcDbEntity
  8
0
  6
Continuous
 62
     0
370
     0
100
AcDbPolyline
 90
       54
 70
     0
 43
0.0
 10
500.955841
 20
369.442261
 10
500.955841
 20
369.481262
 10
500.955841
 20
369.599335
 10
500.955841
 20
369.796265
 10
500.955841
 20
370.071808
 10
500.955841
 20
370.425751
 10
500.955841
 20
370.857849
 10
500.955841
 20
371.367889
 10
500.955841
 20
371.955444
 10
500.955841
 20
372.619873
 10
500.955841
 20
373.360474
 10
500.955841
 20
374.176544
 10
500.955841
 20
375.067474
 10
500.955841
 20
376.032501
 10
500.955841
 20
377.070953
 10
500.955841
 20
378.181885
 10
500.955841
 20
379.364136
 10
500.955841
 20
380.616638
 10
500.955841
 20
381.938293
 10
500.955841
 20
383.327942
 10
500.955841
 20
384.784546
 10
500.955841
 20
386.306854
 10
500.955841
 20
387.893463
 10
500.955841
 20
389.542847
 10
500.955841
 20
391.253571
 10
500.955841
 20
393.024078
 10
500.955841
 20
394.852936
 10
500.955841
 20
396.738586
 10
500.955841
 20
398.679443
 10
500.955841
 20
400.673706
 10
500.955841
 20
402.719482
 10
500.955841
 20
404.815033
 10
500.955841
 20
406.958496
 10
500.955841
 20
409.148102
 10
500.955841
 20
411.381958
 10
500.955841
 20
413.658081
 10
500.955841
 20
415.974426
 10
500.955841
 20
418.328888
 10
500.955841
 20
420.719421
 10
500.955841
 20
423.143921
 10
500.955841
 20
425.600342
 10
500.955841
 20
428.086548
 10
500.955841
 20
430.600342
 10
500.955841
 20
433.139435
 10
500.955841
 20
435.701599
 10
500.955841
 20
438.284576
 10
500.955841
 20
440.886139
 10
500.955841
 20
443.504059
 10
500.955841
 20
446.135956
 10
500.955841
 20
448.779572
 10
500.955841
 20
451.432556
 10
500.955841
 20
454.092529
 10
500.955841
 20
456.757233
 10
500.955841
 20
459.442261
  0
LINE
  5
149
330
10F
100
AcDbEntity
  8
0
  6
Continuous
 62
     0
370
    30
100
AcDbLine
 10
489.955849
 20
549.442262
 30
0.0
 11
489.955849
 21
459.442262
 31
0.0
  0
LINE
  5
14A
330
10F
100
AcDbEntity
  8
0
  6
Continuous
 62
     0
370
    30
100
AcDbLine
 10
489.955849
 20
459.442262
 30
0.0
 11
489.955849
 21
369.442262
 31
0.0
  0
LINE
  5
14B
330
10F
100
AcDbEntity
  8
0
  6
Continuous
 62
     0
370
    30
100
AcDbLine
 10
500.955849
 20
369.442262
 30
0.0
 11
489.955849
 21
369.442262
 31
0.0
  0
LINE
  5
14C
330
10F
100
AcDbEntity
  8
0
  6
Continuous
 62
     0
370
    30
100
AcDbLine
 10
500.955849
 20
549.442262
 30
0.0
 11
489.955849
 21
549.442262
 31
0.0
  0
ARC
  5
14D
330
10F
100
AcDbEntity
  8
0
  6
Continuous
 62
     0
370
    30
100
AcDbCircle
 10
500.955824
 20
370.442286
 30
0.0
 40
1.00002430797055
100
AcDbArc
 50
270.001393
 51
359.998607
  0
ARC
  5
14E
330
10F
100
AcDbEntity
  8
0
  6
Continuous
 62
     0
370
    30
100
AcDbCircle
 10
500.955824
 20
548.442237
 30
0.0
 40
1.000024307971652
100
AcDbArc
 50
0.001393
 51
89.998607
  0
LINE
  5
14F
330
10F
100
AcDbEntity
  8
0
  6
Continuous
 62
     0
370
    30
100
AcDbLine
 10
501.955849
 20
460.142262
 30
0.0
 11
512.148946
 21
460.142262
 31
0.0
  0
ARC
  5
150
330
10F
100
AcDbEntity
  8
0
  6
Continuous
 62
     0
370
    30
100
AcDbCircle
 10
510.764146
 20
438.134782
 30
0.0
 40
20.48937043079642
100
AcDbArc
 50
273.875359
 51
281.785155
  0
ARC
  5
151
330
10F
100
AcDbEntity
  8
0
  6
Continuous
 62
     0
370
    30
100
AcDbCircle
 10
510.762682
 20
437.739145
 30
0.0
 40
20.50004212654641
100
AcDbArc
 50
58.265694
 51
86.122558
  0
LWPOLYLINE
  5
152
330
10F
100
AcDbEntity
  8
0
  6
Continuous
 62
     0
370
    30
100
AcDbPolyline
 90
        4
 70
     0
 43
0.0
 10
530.262024
 20
415.537476
 10
528.636169
 20
415.642212
 10
527.00769
 20
415.694366
 10
525.238342
 20
415.717529
  0
LINE
  5
153
330
10F
100
AcDbEntity
  8
0
  6
Continuous
 62
     0
370
    30
100
AcDbLine
 10
526.20788
 20
460.269273
 30
0.0
 11
523.49347
 21
460.251466
 31
0.0
  0
LWPOLYLINE
  5
154
330
10F
100
AcDbEntity
  8
0
  6
Continuous
 62
     0
370
    30
100
AcDbPolyline
 90
       31
 70
     0
 43
0.0
 10
542.670227
 20
392.186127
 10
542.688477
 20
392.118225
 10
542.734985
 20
391.945251
 10
542.799011
 20
391.706879
 10
542.870789
 20
391.438782
 10
542.947083
 20
391.153595
 10
543.025452
 20
390.859924
 10
543.104675
 20
390.562714
 10
543.184082
 20
390.264069
 10
543.263306
 20
389.965759
 10
543.342041
 20
389.668549
 10
543.420105
 20
389.373566
 10
543.497742
 20
389.079865
 10
543.575012
 20
388.787079
 10
543.651855
 20
388.49585
 10
543.728394
 20
388.205536
 10
543.805054
 20
387.914764
 10
543.881287
 20
387.625519
 10
543.956665
 20
387.339722
 10
544.03064
 20
387.05899
 10
544.102783
 20
386.785431
 10
544.172485
 20
386.52121
 10
544.239136
 20
386.268646
 10
544.301758
 20
386.031342
 10
544.358521
 20
385.816284
 10
544.410339
 20
385.619995
 10
544.457642
 20
385.440948
 10
544.499573
 20
385.282318
 10
544.534668
 20
385.149933
 10
544.567749
 20
385.025116
 10
544.593994
 20
384.926422
  0
LWPOLYLINE
  5
155
330
10F
100
AcDbEntity
  8
0
  6
Continuous
 62
     0
370
    30
100
AcDbPolyline
 90
       62
 70
     0
 43
0.0
 10
542.672424
 20
392.177704
 10
542.549377
 20
392.628265
 10
542.42572
 20
393.078674
 10
542.301453
 20
393.5289
 10
542.176636
 20
393.979004
 10
542.05127
 20
394.428925
 10
541.925354
 20
394.878723
 10
541.798889
 20
395.328339
 10
541.671936
 20
395.777832
 10
541.544495
 20
396.227173
 10
541.416504
 20
396.676392
 10
541.288086
 20
397.125488
 10
541.159119
 20
397.574432
 10
541.029663
 20
398.023224
 10
540.899719
 20
398.471863
 10
540.769226
 20
398.920349
 10
540.638184
 20
399.368683
 10
540.506653
 20
399.816864
 10
540.374573
 20
400.264923
 10
540.241943
 20
400.712769
 10
540.108765
 20
401.160492
 10
539.975037
 20
401.608002
 10
539.840637
 20
402.055359
 10
539.705566
 20
402.502472
 10
539.569763
 20
402.949402
 10
539.433167
 20
403.396088
 10
539.295776
 20
403.842499
 10
539.15741
 20
404.288635
 10
539.018066
 20
404.734467
 10
538.877747
 20
405.179962
 10
538.736206
 20
405.625122
 10
538.593506
 20
406.069885
 10
538.449585
 20
406.514221
 10
538.30426
 20
406.95813
 10
538.157532
 20
407.401581
 10
538.009155
 20
407.844452
 10
537.858887
 20
408.286743
 10
537.706665
 20
408.728333
 10
537.552002
 20
409.169098
 10
537.394348
 20
409.608795
 10
537.233154
 20
410.04715
 10
537.067688
 20
410.483948
 10
536.897217
 20
410.918823
 10
536.720642
 20
411.351227
 10
536.536499
 20
411.780487
 10
536.343384
 20
412.205811
 10
536.138489
 20
412.62558
 10
535.918701
 20
413.037689
 10
535.679504
 20
413.438873
 10
535.413696
 20
413.822723
 10
535.112366
 20
414.179535
 10
534.764648
 20
414.490448
 10
534.369812
 20
414.739197
 10
533.944214
 20
414.931061
 10
533.501709
 20
415.079803
 10
533.049072
 20
415.194427
 10
532.590027
 20
415.281433
 10
532.127686
 20
415.347961
 10
531.663879
 20
415.403259
 10
531.199341
 20
415.45105
 10
530.734558
 20
415.499573
 10
530.262024
 20
415.537476
  0
LWPOLYLINE
  5
156
330
10F
100
AcDbEntity
  8
0
  6
Continuous
 62
     0
370
    30
100
AcDbPolyline
 90
       40
 70
     0
 43
0.0
 10
544.746582
 20
384.362579
 10
544.824341
 20
384.07132
 10
544.902649
 20
383.780304
 10
544.981628
 20
383.489563
 10
545.061646
 20
383.199127
 10
545.142822
 20
382.909027
 10
545.225342
 20
382.619232
 10
545.309326
 20
382.329712
 10
545.395691
 20
382.040771
 10
545.48584
 20
381.753021
 10
545.581421
 20
381.467041
 10
545.684753
 20
381.183777
 10
545.799805
 20
380.90506
 10
545.934753
 20
380.635468
 10
546.101196
 20
380.384491
 10
546.302124
 20
380.159637
 10
546.534912
 20
379.968994
 10
546.808533
 20
379.844452
 10
547.104919
 20
379.792267
 10
547.406067
 20
379.794159
 10
547.705566
 20
379.832214
 10
547.999329
 20
379.899628
 10
548.283997
 20
379.997955
 10
548.55426
 20
380.131226
 10
548.796265
 20
380.310303
 10
548.987854
 20
380.542114
 10
549.116882
 20
380.814056
 10
549.191772
 20
381.105865
 10
549.229187
 20
381.404999
 10
549.242554
 20
381.706116
 10
549.239197
 20
382.00766
 10
549.224548
 20
382.30896
 10
549.202087
 20
382.60965
 10
549.172974
 20
382.90976
 10
549.138611
 20
383.20932
 10
549.09967
 20
383.508362
 10
549.056519
 20
383.806824
 10
549.009399
 20
384.104675
 10
548.958557
 20
384.401917
 10
548.903687
 20
384.701447
  0
LWPOLYLINE
  5
157
330
10F
100
AcDbEntity
  8
0
  6
Continuous
 62
     0
370
    30
100
AcDbPolyline
 90
       44
 70
     0
 43
0.0
 10
548.903687
 20
384.701447
 10
548.546326
 20
386.312927
 10
548.134216
 20
387.91153
 10
547.713135
 20
389.507751
 10
547.292419
 20
391.104126
 10
546.871521
 20
392.700409
 10
546.450684
 20
394.296722
 10
546.029846
 20
395.893036
 10
545.608887
 20
397.489319
 10
545.188049
 20
399.085632
 10
544.767639
 20
400.682068
 10
544.348145
 20
402.278717
 10
543.930054
 20
403.875763
 10
543.514038
 20
405.473358
 10
543.100891
 20
407.071686
 10
542.69165
 20
408.67099
 10
542.287354
 20
410.271576
 10
541.889038
 20
411.873657
 10
541.498962
 20
413.477753
 10
541.12146
 20
415.084869
 10
540.765503
 20
416.696869
 10
540.447571
 20
418.316803
 10
540.190979
 20
419.947449
 10
540.016052
 20
421.588806
 10
539.915161
 20
423.236511
 10
539.861511
 20
424.886475
 10
539.828979
 20
426.536987
 10
539.807556
 20
428.187714
 10
539.79187
 20
429.838501
 10
539.780396
 20
431.489319
 10
539.772034
 20
433.140137
 10
539.765625
 20
434.790985
 10
539.760132
 20
436.441833
 10
539.754272
 20
438.092682
 10
539.746582
 20
439.7435
 10
539.735291
 20
441.394318
 10
539.718567
 20
443.045105
 10
539.695618
 20
444.695801
 10
539.66748
 20
446.346405
 10
539.638733
 20
447.997009
 10
539.610718
 20
449.647614
 10
539.579285
 20
451.298187
 10
539.539062
 20
452.948578
 10
539.481018
 20
454.605804
  0
LWPOLYLINE
  5
158
330
10F
100
AcDbEntity
  8
0
  6
Continuous
 62
     0
370
    30
100
AcDbPolyline
 90
       65
 70
     0
 43
0.0
 10
526.207886
 20
460.269287
 10
526.487732
 20
460.270996
 10
526.767517
 20
460.272736
 10
527.047363
 20
460.274445
 10
527.327148
 20
460.276123
 10
527.606995
 20
460.277771
 10
527.886841
 20
460.279419
 10
528.166626
 20
460.281036
 10
528.446472
 20
460.282623
 10
528.726318
 20
460.28418
 10
529.006104
 20
460.285706
 10
529.28595
 20
460.287201
 10
529.565796
 20
460.288666
 10
529.845581
 20
460.2901
 10
530.125427
 20
460.291504
 10
530.405273
 20
460.292877
 10
530.685059
 20
460.29422
 10
530.964905
 20
460.295563
 10
531.244751
 20
460.296906
 10
531.524536
 20
460.298218
 10
531.804382
 20
460.299561
 10
532.084229
 20
460.300903
 10
532.364014
 20
460.302277
 10
532.64386
 20
460.30365
 10
532.923706
 20
460.305084
 10
533.203491
 20
460.306519
 10
533.483337
 20
460.308014
 10
533.763184
 20
460.309479
 10
534.042969
 20
460.310913
 10
534.322815
 20
460.312378
 10
534.602661
 20
460.313812
 10
534.882446
 20
460.315308
 10
535.162292
 20
460.316864
 10
535.442078
 20
460.318512
 10
535.721924
 20
460.320251
 10
536.00177
 20
460.321838
 10
536.281555
 20
460.322968
 10
536.561462
 20
460.32312
 10
536.841248
 20
460.320801
 10
537.120972
 20
460.314026
 10
537.400452
 20
460.300323
 10
537.679016
 20
460.273865
 10
537.954529
 20
460.225525
 10
538.222046
 20
460.143616
 10
538.466736
 20
460.009705
 10
538.667053
 20
459.815491
 10
538.815186
 20
459.578644
 10
538.923767
 20
459.320892
 10
539.006836
 20
459.05368
 10
539.072937
 20
458.781799
 10
539.128052
 20
458.507477
 10
539.175659
 20
458.23175
 10
539.217224
 20
457.955017
 10
539.253662
 20
457.677551
 10
539.286011
 20
457.399597
 10
539.315002
 20
457.121277
 10
539.341003
 20
456.842651
 10
539.364685
 20
456.563843
 10
539.38623
 20
456.284851
 10
539.405823
 20
456.005707
 10
539.423706
 20
455.72644
 10
539.440002
 20
455.447083
 10
539.454834
 20
455.167633
 10
539.468445
 20
454.888123
 10
539.481018
 20
454.605804
  0
LWPOLYLINE
  5
159
330
10F
100
AcDbEntity
  8
0
  6
Continuous
 62
     0
370
    30
100
AcDbPolyline
 90
        4
 70
     0
 43
0.0
 10
525.238342
 20
415.717529
 10
522.222229
 20
415.728546
 10
519.206055
 20
415.718689
 10
514.948975
 20
415.692261
  0
LINE
  5
15A
330
10F
100
AcDbEntity
  8
0
  6
Continuous
 62
     0
370
    30
100
AcDbLine
 10
501.955849
 20
474.942262
 30
0.0
 11
512.055849
 21
474.942262
 31
0.0
  0
LINE
  5
15B
330
10F
100
AcDbEntity
  8
0
  6
Continuous
 62
     0
370
    30
100
AcDbLine
 10
512.055849
 20
474.942262
 30
0.0
 11
513.055849
 21
475.942262
 31
0.0
  0
ARC
  5
15C
330
10F
100
AcDbEntity
  8
0
  6
Continuous
 62
     0
370
    30
100
AcDbCircle
 10
524.220567
 20
476.042236
 30
0.0
 40
1.000024867147891
100
AcDbArc
 50
0.501412
 51
89.998588
  0
ARC
  5
15D
330
10F
100
AcDbEntity
  8
0
  6
Continuous
 62
     0
370
    30
100
AcDbCircle
 10
524.220567
 20
495.842285
 30
0.0
 40
1.000024867382767
100
AcDbArc
 50
270.001412
 51
359.498588
  0
LINE
  5
15E
330
10F
100
AcDbEntity
  8
0
  6
Continuous
 62
     0
370
    30
100
AcDbLine
 10
524.220592
 20
494.842261
 30
0.0
 11
513.229793
 21
494.842261
 31
0.0
  0
LINE
  5
15F
330
10F
100
AcDbEntity
  8
0
  6
Continuous
 62
     0
370
    30
100
AcDbLine
 10
524.220592
 20
477.042261
 30
0.0
 11
513.229793
 21
477.042261
 31
0.0
  0
LINE
  5
160
330
10F
100
AcDbEntity
  8
0
  6
Continuous
 62
     0
370
    30
100
AcDbLine
 10
525.227197
 20
475.289702
 30
0.0
 11
525.220554
 21
476.050987
 31
0.0
  0
LINE
  5
161
330
10F
100
AcDbEntity
  8
0
  6
Continuous
 62
     0
370
    30
100
AcDbLine
 10
525.227197
 20
496.594819
 30
0.0
 11
525.220554
 21
495.833534
 31
0.0
  0
ARC
  5
162
330
10F
100
AcDbEntity
  8
0
  6
Continuous
 62
     0
370
    30
100
AcDbCircle
 10
525.527201
 20
475.292276
 30
0.0
 40
0.3000150267243329
100
AcDbArc
 50
180.503404
 51
269.997158
  0
ARC
  5
163
330
10F
100
AcDbEntity
  8
0
  6
Continuous
 62
     0
370
    30
100
AcDbCircle
 10
525.527201
 20
496.592245
 30
0.0
 40
0.3000150274000847
100
AcDbArc
 50
90.002843
 51
179.496303
  0
LINE
  5
164
330
10F
100
AcDbEntity
  8
0
  6
Continuous
 62
     0
370
    30
100
AcDbLine
 10
532.629793
 20
496.892261
 30
0.0
 11
525.527186
 21
496.892261
 31
0.0
  0
LINE
  5
165
330
10F
100
AcDbEntity
  8
0
  6
Continuous
 62
     0
370
    30
100
AcDbLine
 10
532.629793
 20
474.992261
 30
0.0
 11
525.527186
 21
474.992261
 31
0.0
  0
ARC
  5
166
330
10F
100
AcDbEntity
  8
0
  6
Continuous
 62
     0
370
    30
100
AcDbCircle
 10
513.229889
 20
477.342509
 30
0.0
 40
0.3002488628569464
100
AcDbArc
 50
234.563094
 51
269.981741
  0
ARC
  5
167
330
10F
100
AcDbEntity
  8
0
  6
Continuous
 62
     0
370
    30
100
AcDbCircle
 10
513.229888
 20
494.542014
 30
0.0
 40
0.3002463587712727
100
AcDbArc
 50
90.018107
 51
125.4403
  0
ARC
  5
168
330
10F
100
AcDbEntity
  8
0
  6
Continuous
 62
     0
370
    30
100
AcDbCircle
 10
532.629778
 20
475.292276
 30
0.0
 40
0.3000152344423228
100
AcDbArc
 50
270.002905
 51
359.992837
  0
ARC
  5
169
330
10F
100
AcDbEntity
  8
0
  6
Continuous
 62
     0
370
    30
100
AcDbCircle
 10
532.629778
 20
496.592245
 30
0.0
 40
0.3000152348744246
100
AcDbArc
 50
0.007335
 51
89.997095
  0
ENDBLK
  5
16B
330
10F
100
AcDbEntity
  8
0
100
AcDbBlockEnd
  0
BLOCK
  5
1C8
330
16D
100
AcDbEntity
  8
0
100
AcDbBlockBegin
  2
d
 70
     0
 10
126.118195
 20
0.0
 30
0.0
  3
d
  1

  0
LINE
  5
16E
330
16D
100
AcDbEntity
  8
0
  6
Continuous
 62
     0
370
    30
100
AcDbLine
 10
51.092332
 20
490.008956
 30
0.0
 11
51.092332
 21
475.292261
 31
0.0
  0
LWPOLYLINE
  5
16F
330
16D
100
AcDbEntity
  8
0
  6
Continuous
 62
     0
370
    30
100
AcDbPolyline
 90
       15
 70
     0
 43
0.0
 10
51.092331
 20
496.592255
 10
51.092331
 20
496.556213
 10
51.092331
 20
496.450653
 10
51.092331
 20
496.273682
 10
51.092331
 20
496.022461
 10
51.092331
 20
495.696259
 10
51.092331
 20
495.295898
 10
51.092331
 20
494.823944
 10
51.092331
 20
494.284607
 10
51.092331
 20
493.683655
 10
51.092331
 20
493.028198
 10
51.092331
 20
492.326447
 10
51.092331
 20
491.58728
 10
51.092331
 20
490.820099
 10
51.092331
 20
490.008942
  0
LINE
  5
170
330
16D
100
AcDbEntity
  8
0
  6
Continuous
 62
     0
370
     0
100
AcDbLine
 10
51.392332
 20
490.12351
 30
0.0
 11
51.392332
 21
474.992265
 31
0.0
  0
LINE
  5
171
330
16D
100
AcDbEntity
  8
0
  6
Continuous
 62
     0
370
     0
100
AcDbLine
 10
51.392332
 20
496.892256
 30
0.0
 11
51.392332
 21
490.12351
 31
0.0
  0
LINE
  5
172
330
16D
100
AcDbEntity
  8
0
  6
Continuous
 62
     0
370
     0
100
AcDbLine
 10
70.792332
 20
489.340719
 30
0.0
 11
70.792332
 21
494.842257
 31
0.0
  0
LWPOLYLINE
  5
173
330
16D
100
AcDbEntity
  8
0
  6
Continuous
 62
     0
370
     0
100
AcDbPolyline
 90
       22
 70
     0
 43
0.0
 10
70.792336
 20
477.042267
 10
70.792336
 20
477.080353
 10
70.792336
 20
477.195679
 10
70.792336
 20
477.38739
 10
70.792336
 20
477.653625
 10
70.792336
 20
477.992218
 10
70.792336
 20
478.400116
 10
70.792336
 20
478.87381
 10
70.792336
 20
479.40918
 10
70.792336
 20
480.001495
 10
70.792336
 20
480.64566
 10
70.792336
 20
481.335999
 10
70.792336
 20
482.066559
 10
70.792336
 20
482.830872
 10
70.792336
 20
483.622345
 10
70.792336
 20
484.434052
 10
70.792336
 20
485.258942
 10
70.792336
 20
486.089752
 10
70.792336
 20
486.919281
 10
70.792336
 20
487.740326
 10
70.792336
 20
488.545624
 10
70.792336
 20
489.340729
  0
LINE
  5
174
330
16D
100
AcDbEntity
  8
0
  6
Continuous
 62
     0
370
     0
100
AcDbLine
 10
58.494939
 20
474.992261
 30
0.0
 11
58.494939
 21
490.12351
 31
0.0
  0
LINE
  5
175
330
16D
100
AcDbEntity
  8
0
  6
Continuous
 62
     0
370
     0
100
AcDbLine
 10
58.494939
 20
490.12351
 30
0.0
 11
58.494939
 21
496.892261
 31
0.0
  0
LWPOLYLINE
  5
176
330
16D
100
AcDbEntity
  8
0
  6
Continuous
 62
     0
370
     0
100
AcDbPolyline
 90
       24
 70
     0
 43
0.0
 10
58.794926
 20
475.289703
 10
58.794926
 20
475.327637
 10
58.794926
 20
475.442688
 10
58.794926
 20
475.634186
 10
58.794926
 20
475.900574
 10
58.794926
 20
476.240021
 10
58.794926
 20
476.650085
 10
58.794926
 20
477.127594
 10
58.794926
 20
477.669312
 10
58.794926
 20
478.271179
 10
58.794926
 20
478.928772
 10
58.794926
 20
479.637451
 10
58.794926
 20
480.391907
 10
58.794926
 20
481.186737
 10
58.794926
 20
482.016174
 10
58.794926
 20
482.874146
 10
58.794926
 20
483.754517
 10
58.794926
 20
484.650757
 10
58.794926
 20
485.556183
 10
58.794926
 20
486.464325
 10
58.794926
 20
487.369019
 10
58.794926
 20
488.26413
 10
58.794926
 20
489.14209
 10
58.794926
 20
490.009949
  0
LINE
  5
177
330
16D
100
AcDbEntity
  8
0
  6
Continuous
 62
     0
370
     0
100
AcDbLine
 10
58.794927
 20
490.009955
 30
0.0
 11
58.794927
 21
496.594817
 31
0.0
  0
LINE
  5
178
330
16D
100
AcDbEntity
  8
0
  6
Continuous
 62
     0
370
     0
100
AcDbLine
 10
58.801571
 20
489.719236
 30
0.0
 11
58.801572
 21
476.050987
 31
0.0
  0
LINE
  5
179
330
16D
100
AcDbEntity
  8
0
  6
Continuous
 62
     0
370
     0
100
AcDbLine
 10
58.801572
 20
495.833534
 30
0.0
 11
58.801571
 21
489.719236
 31
0.0
  0
LINE
  5
17A
330
16D
100
AcDbEntity
  8
0
  6
Continuous
 62
     0
370
     0
100
AcDbLine
 10
59.801534
 20
494.842261
 30
0.0
 11
59.801534
 21
489.340719
 31
0.0
  0
LINE
  5
17B
330
16D
100
AcDbEntity
  8
0
  6
Continuous
 62
     0
370
     0
100
AcDbLine
 10
59.801534
 20
489.340719
 30
0.0
 11
59.801534
 21
477.042261
 31
0.0
  0
LINE
  5
17C
330
16D
100
AcDbEntity
  8
0
  6
Continuous
 62
     0
370
    30
100
AcDbLine
 10
70.966277
 20
475.942262
 30
0.0
 11
70.966277
 21
495.942262
 31
0.0
  0
LINE
  5
17D
330
16D
100
AcDbEntity
  8
0
  6
Continuous
 62
     0
370
    30
100
AcDbLine
 10
70.966277
 20
495.942262
 30
0.0
 11
71.966277
 21
496.942262
 31
0.0
  0
LINE
  5
17E
330
16D
100
AcDbEntity
  8
0
  6
Continuous
 62
     0
370
    30
100
AcDbLine
 10
71.966277
 20
474.942262
 30
0.0
 11
71.966277
 21
496.942262
 31
0.0
  0
LINE
  5
17F
330
16D
100
AcDbEntity
  8
0
  6
Continuous
 62
     0
370
    30
100
AcDbLine
 10
82.066277
 20
496.942262
 30
0.0
 11
71.966277
 21
496.942262
 31
0.0
  0
LWPOLYLINE
  5
180
330
16D
100
AcDbEntity
  8
0
  6
Continuous
 62
     0
370
     0
100
AcDbPolyline
 90
        7
 70
     0
 43
0.0
 10
69.073181
 20
418.673309
 10
67.126297
 20
418.64505
 10
65.180099
 20
418.616211
 10
63.235943
 20
418.586121
 10
61.295601
 20
418.554047
 10
59.361862
 20
418.518921
 10
57.065609
 20
418.476196
  0
LWPOLYLINE
  5
181
330
16D
100
AcDbEntity
  8
0
  6
Continuous
 62
     0
370
     0
100
AcDbPolyline
 90
       13
 70
     0
 43
0.0
 10
57.065609
 20
418.476196
 10
57.260212
 20
418.106323
 10
57.407711
 20
417.76355
 10
57.520149
 20
417.451874
 10
57.611263
 20
417.164154
 10
57.681919
 20
416.900574
 10
57.73534
 20
416.661438
 10
57.774822
 20
416.447083
 10
57.803303
 20
416.257812
 10
57.82283
 20
416.094482
 10
57.835163
 20
415.95813
 10
57.841942
 20
415.849884
 10
57.844917
 20
415.765045
  0
LWPOLYLINE
  5
182
330
16D
100
AcDbEntity
  8
0
  6
Continuous
 62
     0
370
     0
100
AcDbPolyline
 90
        7
 70
     0
 43
0.0
 10
57.844917
 20
415.765045
 10
58.106617
 20
415.755463
 10
58.332314
 20
415.744965
 10
58.516277
 20
415.734833
 10
58.654495
 20
415.726288
 10
58.743893
 20
415.720306
 10
58.783787
 20
415.717529
  0
LINE
  5
183
330
16D
100
AcDbEntity
  8
0
  6
Continuous
 62
     0
370
    30
100
AcDbLine
 10
69.07318
 20
415.692691
 30
0.0
 11
69.073179
 21
418.673294
 31
0.0
  0
LINE
  5
184
330
16D
100
AcDbEntity
  8
0
  6
Continuous
 62
     0
370
     0
100
AcDbLine
 10
57.814245
 20
457.434283
 30
0.0
 11
57.814246
 21
460.269123
 31
0.0
  0
LWPOLYLINE
  5
185
330
16D
100
AcDbEntity
  8
0
  6
Continuous
 62
     0
370
     0
100
AcDbPolyline
 90
        8
 70
     0
 43
0.0
 10
44.541096
 20
454.605804
 10
44.556103
 20
454.569794
 10
44.597111
 20
454.469025
 10
44.658722
 20
454.312805
 10
44.735825
 20
454.108002
 10
44.823936
 20
453.860565
 10
44.919205
 20
453.576508
 10
45.016258
 20
453.25412
  0
LWPOLYLINE
  5
186
330
16D
100
AcDbEntity
  8
0
  6
Continuous
 62
     0
370
     0
100
AcDbPolyline
 90
       29
 70
     0
 43
0.0
 10
45.016258
 20
453.25412
 10
45.038834
 20
453.455597
 10
45.059742
 20
453.662354
 10
45.079613
 20
453.872223
 10
45.098572
 20
454.084991
 10
45.116684
 20
454.30069
 10
45.134014
 20
454.519318
 10
45.150761
 20
454.740723
 10
45.167187
 20
454.964722
 10
45.183582
 20
455.191071
 10
45.200546
 20
455.419312
 10
45.218838
 20
455.648865
 10
45.239407
 20
455.879211
 10
45.264023
 20
456.109619
 10
45.294819
 20
456.339325
 10
45.335823
 20
456.567413
 10
45.393139
 20
456.792419
 10
45.478455
 20
457.010071
 10
45.608311
 20
457.209351
 10
45.796516
 20
457.368744
 10
46.029739
 20
457.473877
 10
46.283779
 20
457.534821
 10
46.544765
 20
457.567841
 10
46.807941
 20
457.584717
 10
47.071861
 20
457.591888
 10
47.335945
 20
457.593384
 10
47.600079
 20
457.591583
 10
47.864212
 20
457.588074
 10
48.136539
 20
457.58374
  0
LWPOLYLINE
  5
187
330
16D
100
AcDbEntity
  8
0
  6
Continuous
 62
     0
370
     0
100
AcDbPolyline
 90
        3
 70
     0
 43
0.0
 10
48.136539
 20
457.58374
 10
49.634151
 20
457.560059
 10
57.814243
 20
457.434296
  0
LWPOLYLINE
  5
188
330
16D
100
AcDbEntity
  8
0
  6
Continuous
 62
     0
370
     0
100
AcDbPolyline
 90
       27
 70
     0
 43
0.0
 10
57.824257
 20
425.948425
 10
57.82114
 20
427.255737
 10
57.818855
 20
428.588287
 10
57.817192
 20
429.936798
 10
57.816025
 20
431.294464
 10
57.815224
 20
432.655945
 10
57.814713
 20
434.020386
 10
57.814423
 20
435.387451
 10
57.814285
 20
436.755737
 10
57.814243
 20
438.123505
 10
57.814243
 20
439.489136
 10
57.814247
 20
440.8508
 10
57.814243
 20
442.205383
 10
57.814243
 20
443.548767
 10
57.814243
 20
444.875397
 10
57.814243
 20
446.178772
 10
57.814243
 20
447.451538
 10
57.814243
 20
448.686523
 10
57.814243
 20
449.877472
 10
57.814243
 20
451.020203
 10
57.814243
 20
452.111725
 10
57.814243
 20
453.148895
 10
57.814243
 20
454.12915
 10
57.814243
 20
455.050568
 10
57.814243
 20
455.909119
 10
57.814243
 20
456.69873
 10
57.814243
 20
457.434296
  0
LWPOLYLINE
  5
189
330
16D
100
AcDbEntity
  8
0
  6
Continuous
 62
     0
370
     0
100
AcDbPolyline
 90
       28
 70
     0
 43
0.0
 10
48.136539
 20
457.58374
 10
48.136375
 20
456.868164
 10
48.136143
 20
456.075256
 10
48.135784
 20
455.211639
 10
48.135239
 20
454.284241
 10
48.134438
 20
453.297058
 10
48.133312
 20
452.251709
 10
48.131752
 20
451.150421
 10
48.129669
 20
449.995148
 10
48.127041
 20
448.786957
 10
48.124069
 20
447.53009
 10
48.121101
 20
446.232239
 10
48.118427
 20
444.903931
 10
48.116261
 20
443.55481
 10
48.114727
 20
442.192596
 10
48.113907
 20
440.822296
 10
48.113827
 20
439.447327
 10
48.114273
 20
438.06955
 10
48.114941
 20
436.690063
 10
48.115589
 20
435.30954
 10
48.116001
 20
433.928345
 10
48.11591
 20
432.546783
 10
48.114948
 20
431.165009
 10
48.112804
 20
429.783264
 10
48.109562
 20
428.401642
 10
48.105408
 20
427.020355
 10
48.099945
 20
425.63974
 10
48.089985
 20
424.245331
  0
LWPOLYLINE
  5
18A
330
16D
100
AcDbEntity
  8
0
  6
Continuous
 62
     0
370
     0
100
AcDbPolyline
 90
       12
 70
     0
 43
0.0
 10
48.089985
 20
424.245331
 10
48.364796
 20
424.566986
 10
48.676434
 20
424.852539
 10
49.020905
 20
425.097321
 10
49.388626
 20
425.305298
 10
49.777187
 20
425.471893
 10
50.180492
 20
425.598389
 10
50.593166
 20
425.689514
 10
51.01115
 20
425.75116
 10
51.431808
 20
425.788971
 10
51.853485
 20
425.809326
 10
52.278603
 20
425.818878
  0
LWPOLYLINE
  5
18B
330
16D
100
AcDbEntity
  8
0
  6
Continuous
 62
     0
370
     0
100
AcDbPolyline
 90
        4
 70
     0
 43
0.0
 10
52.278603
 20
425.818878
 10
54.037052
 20
425.828979
 10
55.795242
 20
425.859863
 10
57.824257
 20
425.948425
  0
LWPOLYLINE
  5
18C
330
16D
100
AcDbEntity
  8
0
  6
Continuous
 62
     0
370
     0
100
AcDbPolyline
 90
       16
 70
     0
 43
0.0
 10
45.016258
 20
453.25412
 10
45.05434
 20
451.661835
 10
45.063095
 20
450.004822
 10
45.04604
 20
448.296143
 10
45.01033
 20
446.539581
 10
44.965607
 20
444.714325
 10
44.925056
 20
442.822662
 10
44.894592
 20
440.895294
 10
44.874256
 20
438.95285
 10
44.860474
 20
437.004639
 10
44.848907
 20
435.054504
 10
44.836609
 20
433.103577
 10
44.821106
 20
431.152344
 10
44.799824
 20
429.201019
 10
44.769131
 20
427.249817
 10
44.722252
 20
425.270172
  0
LWPOLYLINE
  5
18D
330
16D
100
AcDbEntity
  8
0
  6
Continuous
 62
     0
370
     0
100
AcDbPolyline
 90
       37
 70
     0
 43
0.0
 10
44.722252
 20
425.270172
 10
44.741352
 20
425.269897
 10
44.760479
 20
425.269653
 10
44.779652
 20
425.269379
 10
44.798874
 20
425.269135
 10
44.818165
 20
425.26889
 10
44.83754
 20
425.268646
 10
44.857018
 20
425.268433
 10
44.876614
 20
425.268219
 10
44.896343
 20
425.268005
 10
44.916229
 20
425.267792
 10
44.936287
 20
425.267578
 10
44.956535
 20
425.267395
 10
44.97702
 20
425.267212
 10
44.997936
 20
425.267029
 10
45.019497
 20
425.266846
 10
45.041935
 20
425.266632
 10
45.065468
 20
425.266449
 10
45.090321
 20
425.266205
 10
45.116714
 20
425.265991
 10
45.144936
 20
425.265717
 10
45.175926
 20
425.26535
 10
45.211056
 20
425.264862
 10
45.253143
 20
425.263977
 10
45.307961
 20
425.262115
 10
45.387058
 20
425.257996
 10
45.51215
 20
425.249115
 10
45.710648
 20
425.231262
 10
45.969887
 20
425.203888
 10
46.253582
 20
425.157104
 10
46.540451
 20
425.084808
 10
46.821529
 20
424.987091
 10
47.093075
 20
424.867188
 10
47.355354
 20
424.730896
 10
47.60894
 20
424.582886
 10
47.853039
 20
424.423309
 10
48.089985
 20
424.245331
  0
LWPOLYLINE
  5
18E
330
16D
100
AcDbEntity
  8
0
  6
Continuous
 62
     0
370
     0
100
AcDbPolyline
 90
        6
 70
     0
 43
0.0
 10
35.119316
 20
384.701416
 10
35.131699
 20
384.703217
 10
35.168285
 20
384.709076
 10
35.226543
 20
384.720978
 10
35.304096
 20
384.741333
 10
35.435642
 20
384.789642
  0
LWPOLYLINE
  5
18F
330
16D
100
AcDbEntity
  8
0
  6
Continuous
 62
     0
370
     0
100
AcDbPolyline
 90
       63
 70
     0
 43
0.0
 10
35.435642
 20
384.789642
 10
35.544724
 20
385.178131
 10
35.673981
 20
385.648865
 10
35.82111
 20
386.194672
 10
35.981136
 20
386.795959
 10
36.147781
 20
387.426086
 10
36.317631
 20
388.069946
 10
36.489166
 20
388.720612
 10
36.661644
 20
389.374847
 10
36.83466
 20
390.031128
 10
37.008053
 20
390.688812
 10
37.181698
 20
391.347504
 10
37.355476
 20
392.006683
 10
37.52932
 20
392.666077
 10
37.703213
 20
393.325714
 10
37.877155
 20
393.985474
 10
38.051128
 20
394.645386
 10
38.225128
 20
395.305389
 10
38.399147
 20
395.965454
 10
38.573181
 20
396.625549
 10
38.747223
 20
397.285736
 10
38.921268
 20
397.945923
 10
39.095314
 20
398.60614
 10
39.269348
 20
399.266388
 10
39.44334
 20
399.926636
 10
39.617256
 20
400.586914
 10
39.791058
 20
401.247253
 10
39.964706
 20
401.907623
 10
40.138168
 20
402.568054
 10
40.311405
 20
403.228546
 10
40.484379
 20
403.88913
 10
40.657055
 20
404.549805
 10
40.829395
 20
405.210541
 10
41.001373
 20
405.871399
 10
41.172943
 20
406.532379
 10
41.344078
 20
407.193481
 10
41.51474
 20
407.854706
 10
41.684895
 20
408.516052
 10
41.854485
 20
409.177582
 10
42.023399
 20
409.839264
 10
42.191525
 20
410.50116
 10
42.358746
 20
411.163269
 10
42.524944
 20
411.825653
 10
42.69001
 20
412.488342
 10
42.853817
 20
413.151337
 10
43.01619
 20
413.814697
 10
43.17675
 20
414.478485
 10
43.335083
 20
415.142792
 10
43.490635
 20
415.80777
 10
43.642399
 20
416.473633
 10
43.789249
 20
417.140717
 10
43.929703
 20
417.809235
 10
44.061874
 20
418.479401
 10
44.183853
 20
419.151428
 10
44.29372
 20
419.8255
 10
44.389931
 20
420.501709
 10
44.471767
 20
421.179779
 10
44.539341
 20
421.859406
 10
44.594021
 20
422.540222
 10
44.637562
 20
423.221893
 10
44.672077
 20
423.904083
 10
44.699692
 20
424.586578
 10
44.722252
 20
425.270172
  0
LWPOLYLINE
  5
190
330
16D
100
AcDbEntity
  8
0
  6
Continuous
 62
     0
370
     0
100
AcDbPolyline
 90
       59
 70
     0
 43
0.0
 10
37.312134
 20
381.315125
 10
37.379089
 20
381.567963
 10
37.458351
 20
381.867554
 10
37.552914
 20
382.225372
 10
37.66573
 20
382.652557
 10
37.799004
 20
383.157532
 10
37.952538
 20
383.739532
 10
38.123165
 20
384.386566
 10
38.306129
 20
385.080475
 10
38.497051
 20
385.804657
 10
38.692841
 20
386.547333
 10
38.891609
 20
387.30127
 10
39.09243
 20
388.063019
 10
39.294785
 20
388.830597
 10
39.498314
 20
389.6026
 10
39.702663
 20
390.377747
 10
39.907547
 20
391.154907
 10
40.112846
 20
391.933655
 10
40.318501
 20
392.713715
 10
40.524429
 20
393.494843
 10
40.730568
 20
394.276733
 10
40.936874
 20
395.059296
 10
41.143322
 20
395.842346
 10
41.34988
 20
396.625885
 10
41.55653
 20
397.40976
 10
41.763245
 20
398.193878
 10
41.969982
 20
398.97821
 10
42.176701
 20
399.762756
 10
42.383354
 20
400.547485
 10
42.589886
 20
401.332367
 10
42.796257
 20
402.117432
 10
43.002415
 20
402.902649
 10
43.208313
 20
403.688049
 10
43.413906
 20
404.473572
 10
43.619152
 20
405.259277
 10
43.823997
 20
406.045135
 10
44.0284
 20
406.831177
 10
44.232319
 20
407.617401
 10
44.435684
 20
408.403809
 10
44.638382
 20
409.190399
 10
44.840271
 20
409.977264
 10
45.041218
 20
410.764374
 10
45.241089
 20
411.551819
 10
45.439747
 20
412.339569
 10
45.636971
 20
413.127747
 10
45.832333
 20
413.916351
 10
46.025372
 20
414.705566
 10
46.215626
 20
415.495483
 10
46.402637
 20
416.286194
 10
46.585907
 20
417.077759
 10
46.764893
 20
417.870331
 10
46.939053
 20
418.66394
 10
47.108013
 20
419.458679
 10
47.272682
 20
420.254303
 10
47.434525
 20
421.050537
 10
47.595043
 20
421.847046
 10
47.756039
 20
422.643463
 10
47.919502
 20
423.439362
 10
48.089985
 20
424.245331
  0
LWPOLYLINE
  5
191
330
16D
100
AcDbEntity
  8
0
  6
Continuous
 62
     0
370
     0
100
AcDbPolyline
 90
       24
 70
     0
 43
0.0
 10
35.435642
 20
384.789642
 10
35.424137
 20
384.662903
 10
35.411346
 20
384.524872
 10
35.397816
 20
384.378662
 10
35.38385
 20
384.225372
 10
35.369556
 20
384.064117
 10
35.355083
 20
383.894135
 10
35.340797
 20
383.714935
 10
35.327168
 20
383.526337
 10
35.314934
 20
383.328674
 10
35.305489
 20
383.123566
 10
35.30056
 20
382.913116
 10
35.303116
 20
382.700104
 10
35.317715
 20
382.486694
 10
35.354095
 20
382.270874
 10
35.426334
 20
382.057037
 10
35.552277
 20
381.859314
 10
35.741024
 20
381.692291
 10
35.972847
 20
381.564728
 10
36.225441
 20
381.468353
 10
36.48819
 20
381.396149
 10
36.757408
 20
381.345245
 10
37.030346
 20
381.316406
 10
37.312134
 20
381.315125
  0
LWPOLYLINE
  5
192
330
16D
100
AcDbEntity
  8
0
  6
Continuous
 62
     0
370
    30
100
AcDbPolyline
 90
        7
 70
     0
 43
0.0
 10
39.503418
 20
385.211639
 10
39.427631
 20
384.924774
 10
39.338856
 20
384.594208
 10
39.238472
 20
384.229218
 10
39.124172
 20
383.827576
 10
38.995449
 20
383.39743
 10
38.844334
 20
382.934418
  0
LWPOLYLINE
  5
193
330
16D
100
AcDbEntity
  8
0
  6
Continuous
 62
     0
370
     0
100
AcDbPolyline
 90
       10
 70
     0
 43
0.0
 10
38.844334
 20
382.934418
 10
38.754051
 20
382.688782
 10
38.654545
 20
382.44989
 10
38.542057
 20
382.220856
 10
38.410389
 20
382.007141
 10
38.256222
 20
381.810974
 10
38.078545
 20
381.630402
 10
37.867573
 20
381.473145
 10
37.611759
 20
381.36441
 10
37.312134
 20
381.315125
  0
LWPOLYLINE
  5
194
330
16D
100
AcDbEntity
  8
0
  6
Continuous
 62
     0
370
     0
100
AcDbPolyline
 90
       59
 70
     0
 43
0.0
 10
38.844334
 20
382.934418
 10
38.897064
 20
383.133362
 10
38.959019
 20
383.367401
 10
39.032532
 20
383.645386
 10
39.120026
 20
383.976532
 10
39.223633
 20
384.368958
 10
39.34433
 20
384.826355
 10
39.480526
 20
385.342712
 10
39.628761
 20
385.904877
 10
39.785225
 20
386.498322
 10
39.946781
 20
387.111115
 10
40.111443
 20
387.735687
 10
40.278164
 20
388.367706
 10
40.446457
 20
389.004913
 10
40.616047
 20
389.646057
 10
40.786709
 20
390.290131
 10
40.958214
 20
390.936127
 10
41.130386
 20
391.583282
 10
41.303154
 20
392.231323
 10
41.476475
 20
392.880066
 10
41.650295
 20
393.529358
 10
41.824577
 20
394.179016
 10
41.999279
 20
394.828918
 10
42.174385
 20
395.479004
 10
42.349873
 20
396.129242
 10
42.525723
 20
396.779602
 10
42.70192
 20
397.429993
 10
42.878445
 20
398.080383
 10
43.055344
 20
398.730743
 10
43.232689
 20
399.381042
 10
43.410557
 20
400.031219
 10
43.589016
 20
400.681274
 10
43.768147
 20
401.331177
 10
43.948021
 20
401.980896
 10
44.128719
 20
402.630402
 10
44.310333
 20
403.279633
 10
44.492962
 20
403.928558
 10
44.676704
 20
404.577148
 10
44.861656
 20
405.225403
 10
45.047916
 20
405.873199
 10
45.23558
 20
406.520599
 10
45.424828
 20
407.16745
 10
45.615982
 20
407.813629
 10
45.809402
 20
408.458954
 10
46.00544
 20
409.103271
 10
46.204453
 20
409.746368
 10
46.406792
 20
410.388123
 10
46.612961
 20
411.028259
 10
46.824139
 20
411.666077
 10
47.04171
 20
412.300812
 10
47.267281
 20
412.931458
 10
47.5028
 20
413.556549
 10
47.750618
 20
414.174133
 10
48.014202
 20
414.780731
 10
48.29829
 20
415.371704
 10
48.609821
 20
415.940094
 10
48.958256
 20
416.470306
 10
49.353676
 20
416.943237
 10
49.804024
 20
417.346832
  0
LWPOLYLINE
  5
195
330
16D
100
AcDbEntity
  8
0
  6
Continuous
 62
     0
370
     0
100
AcDbPolyline
 90
       13
 70
     0
 43
0.0
 10
49.804024
 20
417.346832
 10
49.791779
 20
417.717896
 10
49.763069
 20
418.153259
 10
49.704899
 20
418.634094
 10
49.606182
 20
419.142914
 10
49.458336
 20
419.664429
 10
49.266487
 20
420.208069
 10
49.052414
 20
420.796906
 10
48.835209
 20
421.43103
 10
48.626907
 20
422.101288
 10
48.432724
 20
422.795776
 10
48.25655
 20
423.508972
 10
48.089985
 20
424.245331
  0
LWPOLYLINE
  5
196
330
16D
100
AcDbEntity
  8
0
  6
Continuous
 62
     0
370
     0
100
AcDbPolyline
 90
       69
 70
     0
 43
0.0
 10
39.503418
 20
385.211639
 10
39.577812
 20
385.493011
 10
39.664455
 20
385.821014
 10
39.76453
 20
386.200134
 10
39.878338
 20
386.631561
 10
40.002705
 20
387.103149
 10
40.1329
 20
387.596924
 10
40.266167
 20
388.102478
 10
40.401054
 20
388.614105
 10
40.536976
 20
389.12912
 10
40.673668
 20
389.646027
 10
40.811069
 20
390.164154
 10
40.949123
 20
390.683014
 10
41.087791
 20
391.202301
 10
41.227028
 20
391.721893
 10
41.366802
 20
392.241577
 10
41.507099
 20
392.761353
 10
41.647896
 20
393.281128
 10
41.789173
 20
393.800842
 10
41.930923
 20
394.320526
 10
42.073124
 20
394.840149
 10
42.215767
 20
395.35968
 10
42.358833
 20
395.87915
 10
42.502308
 20
396.398499
 10
42.646183
 20
396.917725
 10
42.790443
 20
397.43689
 10
42.935089
 20
397.955933
 10
43.080139
 20
398.474884
 10
43.22562
 20
398.993713
 10
43.371552
 20
399.512421
 10
43.51796
 20
400.030975
 10
43.664879
 20
400.549408
 10
43.812366
 20
401.067688
 10
43.960468
 20
401.585754
 10
44.109238
 20
402.103638
 10
44.258724
 20
402.621338
 10
44.408974
 20
403.138763
 10
44.560043
 20
403.655945
 10
44.711979
 20
404.172852
 10
44.86483
 20
404.689453
 10
45.018654
 20
405.20575
 10
45.173534
 20
405.72171
 10
45.329594
 20
406.237274
 10
45.486965
 20
406.752411
 10
45.645767
 20
407.267029
 10
45.806129
 20
407.781128
 10
45.968262
 20
408.294586
 10
46.132439
 20
408.807281
 10
46.298939
 20
409.319153
 10
46.468044
 20
409.830017
 10
46.640137
 20
410.339722
 10
46.816032
 20
410.84787
 10
46.996662
 20
411.353973
 10
47.182949
 20
411.857574
 10
47.37606
 20
412.357941
 10
47.577766
 20
412.853943
 10
47.789928
 20
413.344299
 10
48.015083
 20
413.827057
 10
48.257477
 20
414.298492
 10
48.522121
 20
414.753906
 10
48.816936
 20
415.183899
 10
49.151009
 20
415.574799
 10
49.532158
 20
415.908325
 10
49.95731
 20
416.181366
 10
50.418552
 20
416.404846
 10
50.911366
 20
416.585632
 10
51.427048
 20
416.732849
 10
51.952789
 20
416.859222
 10
52.478672
 20
416.979004
  0
LWPOLYLINE
  5
197
330
16D
100
AcDbEntity
  8
0
  6
Continuous
 62
     0
370
     0
100
AcDbPolyline
 90
        7
 70
     0
 43
0.0
 10
52.478672
 20
416.979004
 10
52.43877
 20
417.161102
 10
52.384518
 20
417.352844
 10
52.309532
 20
417.556427
 10
52.202366
 20
417.774323
 10
52.044949
 20
418.008453
 10
51.819317
 20
418.260559
  0
ARC
  5
198
330
16D
100
AcDbEntity
  8
0
  6
Continuous
 62
     0
370
     0
100
AcDbCircle
 10
52.752524
 20
413.523049
 30
0.0
 40
4.828550534936484
100
AcDbArc
 50
101.14358
 51
127.635724
  0
LWPOLYLINE
  5
199
330
16D
100
AcDbEntity
  8
0
  6
Continuous
 62
     0
370
     0
100
AcDbPolyline
 90
        6
 70
     0
 43
0.0
 10
57.065609
 20
418.476196
 10
56.195438
 20
418.119049
 10
55.315872
 20
417.794891
 10
54.423512
 20
417.501007
 10
53.503468
 20
417.2341
 10
52.478672
 20
416.979004
  0
LWPOLYLINE
  5
19A
330
16D
100
AcDbEntity
  8
0
  6
Continuous
 62
     0
370
     0
100
AcDbPolyline
 90
       14
 70
     0
 43
0.0
 10
53.760101
 20
415.537476
 10
53.79731
 20
415.543213
 10
53.907387
 20
415.559723
 10
54.087639
 20
415.585114
 10
54.332699
 20
415.616608
 10
54.635612
 20
415.651154
 10
54.987309
 20
415.685516
 10
55.377392
 20
415.716888
 10
55.794067
 20
415.742889
 10
56.224724
 20
415.761932
 10
56.656231
 20
415.773254
 10
57.076431
 20
415.776947
 10
57.473492
 20
415.773804
 10
57.844917
 20
415.765045
  0
LWPOLYLINE
  5
19B
330
16D
100
AcDbEntity
  8
0
  6
Continuous
 62
     0
370
     0
100
AcDbPolyline
 90
        6
 70
     0
 43
0.0
 10
51.819317
 20
418.260559
 10
52.006554
 20
418.588287
 10
52.144714
 20
418.928436
 10
52.241333
 20
419.280029
 10
52.304909
 20
419.644165
 10
52.349285
 20
420.097534
  0
LWPOLYLINE
  5
19C
330
16D
100
AcDbEntity
  8
0
  6
Continuous
 62
     0
370
     0
100
AcDbPolyline
 90
        9
 70
     0
 43
0.0
 10
52.349285
 20
420.097534
 10
52.36935
 20
420.650757
 10
52.368378
 20
421.255341
 10
52.356472
 20
421.91507
 10
52.340038
 20
422.620697
 10
52.322754
 20
423.360168
 10
52.306541
 20
424.123138
 10
52.292259
 20
424.902374
 10
52.278603
 20
425.818878
  0
LWPOLYLINE
  5
19D
330
16D
100
AcDbEntity
  8
0
  6
Continuous
 62
     0
370
     0
100
AcDbPolyline
 90
       12
 70
     0
 43
0.0
 10
57.065609
 20
418.476196
 10
57.269291
 20
418.911346
 10
57.431362
 20
419.395935
 10
57.560184
 20
419.933929
 10
57.659351
 20
420.522034
 10
57.730301
 20
421.162384
 10
57.777527
 20
421.854431
 10
57.806332
 20
422.594971
 10
57.821392
 20
423.37915
 10
57.82682
 20
424.20108
 10
57.826656
 20
425.054016
 10
57.824257
 20
425.948425
  0
LWPOLYLINE
  5
19E
330
16D
100
AcDbEntity
  8
0
  6
Continuous
 62
     0
370
     0
100
AcDbPolyline
 90
        9
 70
     0
 43
0.0
 10
52.349285
 20
420.097534
 10
53.02803
 20
419.931061
 10
53.669132
 20
419.730408
 10
54.278114
 20
419.517303
 10
54.861301
 20
419.302612
 10
55.424305
 20
419.090759
 10
55.970783
 20
418.884979
 10
56.502796
 20
418.687347
 10
57.065609
 20
418.476196
  0
LINE
  5
19F
330
16D
100
AcDbEntity
  8
0
  6
Continuous
 62
     0
370
    30
100
AcDbLine
 10
69.073179
 20
437.989653
 30
0.0
 11
69.073179
 21
418.673294
 31
0.0
  0
LINE
  5
1A0
330
16D
100
AcDbEntity
  8
0
  6
Continuous
 62
     0
370
    30
100
AcDbLine
 10
69.073177
 20
437.989653
 30
0.0
 11
60.527672
 21
460.251472
 31
0.0
  0
LINE
  5
1A1
330
16D
100
AcDbEntity
  8
0
  6
Continuous
 62
     0
370
    30
100
AcDbLine
 10
71.873179
 20
460.142262
 30
0.0
 11
71.873179
 21
415.742262
 31
0.0
  0
LINE
  5
1A2
330
16D
100
AcDbEntity
  8
0
  6
Continuous
 62
     0
370
    30
100
AcDbLine
 10
71.873179
 20
415.742262
 30
0.0
 11
82.066277
 21
415.742262
 31
0.0
  0
LWPOLYLINE
  5
1A3
330
16D
100
AcDbEntity
  8
0
  6
Continuous
 62
     0
370
    30
100
AcDbPolyline
 90
       54
 70
     0
 43
0.0
 10
82.066277
 20
370.442261
 10
82.066277
 20
370.481445
 10
82.066277
 20
370.598846
 10
82.066277
 20
370.79422
 10
82.066277
 20
371.067352
 10
82.066277
 20
371.41803
 10
82.066277
 20
371.846008
 10
82.066277
 20
372.351074
 10
82.066277
 20
372.932831
 10
82.066277
 20
373.590576
 10
82.066277
 20
374.323639
 10
82.066277
 20
375.131317
 10
82.066277
 20
376.01297
 10
82.066277
 20
376.967896
 10
82.066277
 20
377.995361
 10
82.066277
 20
379.094421
 10
82.066277
 20
380.264069
 10
82.066277
 20
381.503235
 10
82.066277
 20
382.810883
 10
82.066277
 20
384.185913
 10
82.066277
 20
385.62735
 10
82.066277
 20
387.133942
 10
82.066277
 20
388.704132
 10
82.066277
 20
390.336304
 10
82.066277
 20
392.028809
 10
82.066277
 20
393.779999
 10
82.066277
 20
395.588257
 10
82.066277
 20
397.451904
 10
82.066277
 20
399.369446
 10
82.066277
 20
401.339325
 10
82.066277
 20
403.360107
 10
82.066277
 20
405.430145
 10
82.066277
 20
407.547607
 10
82.066277
 20
409.710602
 10
82.066277
 20
411.917236
 10
82.066277
 20
414.165436
 10
82.066277
 20
416.453217
 10
82.066277
 20
418.778473
 10
82.066277
 20
421.139343
 10
82.066277
 20
423.534058
 10
82.066277
 20
425.960876
 10
82.066277
 20
428.417908
 10
82.066277
 20
430.902863
 10
82.066277
 20
433.413513
 10
82.066277
 20
435.94754
 10
82.066277
 20
438.502655
 10
82.066277
 20
441.076569
 10
82.066269
 20
443.666962
 10
82.066269
 20
446.271362
 10
82.066269
 20
448.887085
 10
82.066269
 20
451.511475
 10
82.066269
 20
454.141815
 10
82.066269
 20
456.775482
 10
82.066269
 20
459.442261
  0
LINE
  5
1A4
330
16D
100
AcDbEntity
  8
0
  6
Continuous
 62
     0
370
    30
100
AcDbLine
 10
82.066273
 20
459.442262
 30
0.0
 11
82.066277
 21
548.442262
 31
0.0
  0
LINE
  5
1A5
330
16D
100
AcDbEntity
  8
0
  6
Continuous
 62
     0
370
     0
100
AcDbLine
 10
83.066277
 20
549.442259
 30
0.0
 11
83.066273
 21
459.442262
 31
0.0
  0
LINE
  5
1A6
330
16D
100
AcDbEntity
  8
0
  6
Continuous
 62
     0
370
     0
100
AcDbLine
 10
83.066273
 20
459.442262
 30
0.0
 11
83.066277
 21
369.442264
 31
0.0
  0
LINE
  5
1A7
330
16D
100
AcDbEntity
  8
0
  6
Continuous
 62
     0
370
    30
100
AcDbLine
 10
94.066277
 20
459.442262
 30
0.0
 11
94.066277
 21
549.442262
 31
0.0
  0
LINE
  5
1A8
330
16D
100
AcDbEntity
  8
0
  6
Continuous
 62
     0
370
    30
100
AcDbLine
 10
94.066277
 20
369.442262
 30
0.0
 11
94.066277
 21
459.442262
 31
0.0
  0
LINE
  5
1A9
330
16D
100
AcDbEntity
  8
0
  6
Continuous
 62
     0
370
    30
100
AcDbLine
 10
83.066277
 20
369.442262
 30
0.0
 11
94.066277
 21
369.442262
 31
0.0
  0
LINE
  5
1AA
330
16D
100
AcDbEntity
  8
0
  6
Continuous
 62
     0
370
    30
100
AcDbLine
 10
83.066277
 20
549.442262
 30
0.0
 11
94.066277
 21
549.442262
 31
0.0
  0
ARC
  5
1AB
330
16D
100
AcDbEntity
  8
0
  6
Continuous
 62
     0
370
    30
100
AcDbCircle
 10
83.066301
 20
370.442286
 30
0.0
 40
1.000024307962834
100
AcDbArc
 50
180.001393
 51
269.998607
  0
ARC
  5
1AC
330
16D
100
AcDbEntity
  8
0
  6
Continuous
 62
     0
370
    30
100
AcDbCircle
 10
83.066301
 20
548.442237
 30
0.0
 40
1.000024307970408
100
AcDbArc
 50
90.001393
 51
179.998607
  0
LINE
  5
1AD
330
16D
100
AcDbEntity
  8
0
  6
Continuous
 62
     0
370
    30
100
AcDbLine
 10
82.066277
 20
460.142262
 30
0.0
 11
71.873179
 21
460.142262
 31
0.0
  0
ARC
  5
1AE
330
16D
100
AcDbEntity
  8
0
  6
Continuous
 62
     0
370
    30
100
AcDbCircle
 10
73.257979
 20
438.134782
 30
0.0
 40
20.48937043081098
100
AcDbArc
 50
258.214845
 51
266.124641
  0
ARC
  5
1AF
330
16D
100
AcDbEntity
  8
0
  6
Continuous
 62
     0
370
    30
100
AcDbCircle
 10
73.259444
 20
437.739145
 30
0.0
 40
20.50004212654784
100
AcDbArc
 50
93.877442
 51
121.734306
  0
LWPOLYLINE
  5
1B0
330
16D
100
AcDbEntity
  8
0
  6
Continuous
 62
     0
370
    30
100
AcDbPolyline
 90
        4
 70
     0
 43
0.0
 10
53.760101
 20
415.537476
 10
55.385971
 20
415.642212
 10
57.014423
 20
415.694366
 10
58.78381
 20
415.717529
  0
LINE
  5
1B1
330
16D
100
AcDbEntity
  8
0
  6
Continuous
 62
     0
370
    30
100
AcDbLine
 10
57.814246
 20
460.269273
 30
0.0
 11
60.528655
 21
460.251466
 31
0.0
  0
LWPOLYLINE
  5
1B2
330
16D
100
AcDbEntity
  8
0
  6
Continuous
 62
     0
370
    30
100
AcDbPolyline
 90
       62
 70
     0
 43
0.0
 10
41.343151
 20
392.153778
 10
41.466312
 20
392.604767
 10
41.590065
 20
393.055573
 10
41.714394
 20
393.506226
 10
41.839294
 20
393.956757
 10
41.964752
 20
394.407104
 10
42.090759
 20
394.8573
 10
42.217297
 20
395.307343
 10
42.344357
 20
395.757233
 10
42.47192
 20
396.207001
 10
42.599972
 20
396.656616
 10
42.728516
 20
397.10614
 10
42.857563
 20
397.555481
 10
42.987114
 20
398.0047
 10
43.117176
 20
398.453735
 10
43.247761
 20
398.902649
 10
43.378872
 20
399.35141
 10
43.510509
 20
399.800018
 10
43.642685
 20
400.248444
 10
43.775406
 20
400.696716
 10
43.90868
 20
401.144836
 10
44.042534
 20
401.592773
 10
44.177021
 20
402.040527
 10
44.312191
 20
402.488098
 10
44.448093
 20
402.935425
 10
44.584778
 20
403.382507
 10
44.722305
 20
403.829346
 10
44.860744
 20
404.275909
 10
45.00016
 20
404.722137
 10
45.140633
 20
405.16806
 10
45.28223
 20
405.613617
 10
45.425018
 20
406.058777
 10
45.569077
 20
406.50354
 10
45.71447
 20
406.947876
 10
45.861324
 20
407.391724
 10
46.009815
 20
407.835022
 10
46.160133
 20
408.27774
 10
46.312466
 20
408.719727
 10
46.467201
 20
409.160919
 10
46.624931
 20
409.601013
 10
46.786259
 20
410.039825
 10
46.951786
 20
410.477051
 10
47.122326
 20
410.912354
 10
47.298985
 20
411.345184
 10
47.483147
 20
411.774902
 10
47.676346
 20
412.200653
 10
47.881222
 20
412.62085
 10
48.101063
 20
413.033447
 10
48.340256
 20
413.43512
 10
48.605995
 20
413.81955
 10
48.907303
 20
414.176941
 10
49.254978
 20
414.488556
 10
49.64986
 20
414.737915
 10
50.075752
 20
414.930237
 10
50.518581
 20
415.079254
 10
50.971611
 20
415.194122
 10
51.431091
 20
415.28125
 10
51.893803
 20
415.34787
 10
52.358051
 20
415.403259
 10
52.823029
 20
415.45105
 10
53.288212
 20
415.499634
 10
53.760101
 20
415.537476
  0
LWPOLYLINE
  5
1B3
330
16D
100
AcDbEntity
  8
0
  6
Continuous
 62
     0
370
    30
100
AcDbPolyline
 90
       46
 70
     0
 43
0.0
 10
41.346798
 20
392.167358
 10
41.340099
 20
392.142456
 10
41.317932
 20
392.060059
 10
41.284466
 20
391.935577
 10
41.242893
 20
391.780731
 10
41.196651
 20
391.608307
 10
41.14875
 20
391.429504
 10
41.098137
 20
391.240295
 10
41.046734
 20
391.047882
 10
40.99477
 20
390.853149
 10
40.94207
 20
390.655396
 10
40.889465
 20
390.457764
 10
40.836697
 20
390.259277
 10
40.784153
 20
390.061432
 10
40.731853
 20
389.864258
 10
40.679588
 20
389.666992
 10
40.627636
 20
389.470703
 10
40.576
 20
389.275452
 10
40.524445
 20
389.080322
 10
40.473125
 20
388.885986
 10
40.422096
 20
388.692596
 10
40.371235
 20
388.499756
 10
40.320412
 20
388.307007
 10
40.269573
 20
388.114136
 10
40.218784
 20
387.921448
 10
40.168129
 20
387.729279
 10
40.11771
 20
387.538055
 10
40.067726
 20
387.34845
 10
40.01833
 20
387.161102
 10
39.969662
 20
386.976532
 10
39.921902
 20
386.795441
 10
39.875374
 20
386.619019
 10
39.830059
 20
386.447205
 10
39.786114
 20
386.28064
 10
39.744186
 20
386.121735
 10
39.704525
 20
385.971436
 10
39.667065
 20
385.829559
 10
39.631634
 20
385.695374
 10
39.598537
 20
385.570068
 10
39.567074
 20
385.450989
 10
39.538494
 20
385.342896
 10
39.513073
 20
385.246796
 10
39.489445
 20
385.157593
 10
39.468803
 20
385.079712
 10
39.446693
 20
384.996429
 10
39.420525
 20
384.898132
  0
LWPOLYLINE
  5
1B4
330
16D
100
AcDbEntity
  8
0
  6
Continuous
 62
     0
370
    30
100
AcDbPolyline
 90
       40
 70
     0
 43
0.0
 10
39.277084
 20
384.368378
 10
39.19928
 20
384.076935
 10
39.120972
 20
383.785767
 10
39.041931
 20
383.494873
 10
38.961914
 20
383.204285
 10
38.880718
 20
382.914062
 10
38.798195
 20
382.624084
 10
38.714153
 20
382.334412
 10
38.627792
 20
382.045319
 10
38.537708
 20
381.757385
 10
38.442184
 20
381.471222
 10
38.338902
 20
381.187775
 10
38.223984
 20
380.908844
 10
38.089298
 20
380.638947
 10
37.923241
 20
380.387482
 10
37.722622
 20
380.162201
 10
37.490143
 20
379.970856
 10
37.216805
 20
379.845428
 10
36.920387
 20
379.79248
 10
36.61908
 20
379.793915
 10
36.319401
 20
379.831696
 10
36.025402
 20
379.898895
 10
35.740479
 20
379.996979
 10
35.469936
 20
380.129974
 10
35.227539
 20
380.308777
 10
35.035366
 20
380.540344
 10
34.905903
 20
380.812225
 10
34.830681
 20
381.104126
 10
34.793037
 20
381.403351
 10
34.779572
 20
381.704651
 10
34.782883
 20
382.006348
 10
34.797482
 20
382.3078
 10
34.819973
 20
382.608643
 10
34.849033
 20
382.908905
 10
34.883438
 20
383.208649
 10
34.922375
 20
383.507812
 10
34.965549
 20
383.806427
 10
35.012703
 20
384.104431
 10
35.06358
 20
384.401825
 10
35.118462
 20
384.701447
  0
LWPOLYLINE
  5
1B5
330
16D
100
AcDbEntity
  8
0
  6
Continuous
 62
     0
370
    30
100
AcDbPolyline
 90
       44
 70
     0
 43
0.0
 10
35.118462
 20
384.701447
 10
35.475807
 20
386.312927
 10
35.887901
 20
387.91153
 10
36.309006
 20
389.507751
 10
36.729725
 20
391.104126
 10
37.150581
 20
392.700409
 10
37.571423
 20
394.296722
 10
37.992256
 20
395.893036
 10
38.413212
 20
397.489319
 10
38.834068
 20
399.085632
 10
39.254467
 20
400.682068
 10
39.673977
 20
402.278717
 10
40.092049
 20
403.875763
 10
40.508083
 20
405.473358
 10
40.921215
 20
407.071686
 10
41.330452
 20
408.67099
 10
41.734795
 20
410.271576
 10
42.133102
 20
411.873657
 10
42.523182
 20
413.477753
 10
42.900661
 20
415.084869
 10
43.256634
 20
416.696869
 10
43.574528
 20
418.316803
 10
43.831127
 20
419.947449
 10
44.006092
 20
421.588806
 10
44.106945
 20
423.236511
 10
44.160618
 20
424.886475
 10
44.193146
 20
426.536987
 10
44.214596
 20
428.187714
 10
44.230286
 20
429.838501
 10
44.241707
 20
431.489319
 10
44.250114
 20
433.140137
 10
44.256504
 20
434.790985
 10
44.26199
 20
436.441833
 10
44.267879
 20
438.092682
 10
44.275551
 20
439.7435
 10
44.286839
 20
441.394318
 10
44.303528
 20
443.045105
 10
44.326485
 20
444.695801
 10
44.354668
 20
446.346405
 10
44.383373
 20
447.997009
 10
44.4114
 20
449.647614
 10
44.442844
 20
451.298187
 10
44.483059
 20
452.948578
 10
44.541096
 20
454.605804
  0
LWPOLYLINE
  5
1B6
330
16D
100
AcDbEntity
  8
0
  6
Continuous
 62
     0
370
    30
100
AcDbPolyline
 90
       65
 70
     0
 43
0.0
 10
57.814247
 20
460.269287
 10
57.534424
 20
460.270996
 10
57.254597
 20
460.272736
 10
56.974773
 20
460.274445
 10
56.69495
 20
460.276123
 10
56.415127
 20
460.277771
 10
56.135303
 20
460.279419
 10
55.855476
 20
460.281036
 10
55.575653
 20
460.282623
 10
55.29583
 20
460.28418
 10
55.016003
 20
460.285706
 10
54.736179
 20
460.287201
 10
54.456352
 20
460.288666
 10
54.176529
 20
460.2901
 10
53.896702
 20
460.291504
 10
53.616879
 20
460.292877
 10
53.337051
 20
460.29422
 10
53.057224
 20
460.295563
 10
52.777401
 20
460.296906
 10
52.497574
 20
460.298218
 10
52.217747
 20
460.299561
 10
51.937923
 20
460.300903
 10
51.658096
 20
460.302277
 10
51.378269
 20
460.30365
 10
51.098446
 20
460.305084
 10
50.818623
 20
460.306519
 10
50.538795
 20
460.308014
 10
50.258972
 20
460.309479
 10
49.979145
 20
460.310913
 10
49.699314
 20
460.312378
 10
49.419487
 20
460.313812
 10
49.13966
 20
460.315308
 10
48.859837
 20
460.316864
 10
48.580017
 20
460.318512
 10
48.300205
 20
460.320251
 10
48.020386
 20
460.321838
 10
47.740551
 20
460.322968
 10
47.460693
 20
460.32312
 10
47.180866
 20
460.320801
 10
46.901146
 20
460.314026
 10
46.621666
 20
460.300323
 10
46.343098
 20
460.273865
 10
46.06757
 20
460.225525
 10
45.800049
 20
460.143616
 10
45.555374
 20
460.009705
 10
45.355083
 20
459.815491
 10
45.206917
 20
459.578644
 10
45.098343
 20
459.320892
 10
45.015301
 20
459.05368
 10
44.949207
 20
458.781799
 10
44.894051
 20
458.507477
 10
44.846462
 20
458.23175
 10
44.804928
 20
457.955017
 10
44.768459
 20
457.677551
 10
44.736088
 20
457.399597
 10
44.707138
 20
457.121277
 10
44.681099
 20
456.842651
 10
44.657459
 20
456.563843
 10
44.635914
 20
456.284851
 10
44.616291
 20
456.005707
 10
44.598427
 20
455.72644
 10
44.58215
 20
455.447083
 10
44.567299
 20
455.167633
 10
44.553711
 20
454.888123
 10
44.541096
 20
454.605804
  0
LWPOLYLINE
  5
1B7
330
16D
100
AcDbEntity
  8
0
  6
Continuous
 62
     0
370
    30
100
AcDbPolyline
 90
        4
 70
     0
 43
0.0
 10
58.783806
 20
415.717529
 10
61.799915
 20
415.728546
 10
64.816063
 20
415.718689
 10
69.073181
 20
415.692261
  0
LINE
  5
1B8
330
16D
100
AcDbEntity
  8
0
  6
Continuous
 62
     0
370
    30
100
AcDbLine
 10
82.066277
 20
474.942262
 30
0.0
 11
71.966277
 21
474.942262
 31
0.0
  0
LINE
  5
1B9
330
16D
100
AcDbEntity
  8
0
  6
Continuous
 62
     0
370
    30
100
AcDbLine
 10
71.966277
 20
474.942262
 30
0.0
 11
70.966277
 21
475.942262
 31
0.0
  0
ARC
  5
1BA
330
16D
100
AcDbEntity
  8
0
  6
Continuous
 62
     0
370
    30
100
AcDbCircle
 10
59.801558
 20
476.042236
 30
0.0
 40
1.000024867148178
100
AcDbArc
 50
90.001412
 51
179.498588
  0
ARC
  5
1BB
330
16D
100
AcDbEntity
  8
0
  6
Continuous
 62
     0
370
    30
100
AcDbCircle
 10
59.801558
 20
495.842285
 30
0.0
 40
1.000024867383479
100
AcDbArc
 50
180.501412
 51
269.998588
  0
LINE
  5
1BC
330
16D
100
AcDbEntity
  8
0
  6
Continuous
 62
     0
370
    30
100
AcDbLine
 10
59.801534
 20
494.842261
 30
0.0
 11
70.792332
 21
494.842261
 31
0.0
  0
LINE
  5
1BD
330
16D
100
AcDbEntity
  8
0
  6
Continuous
 62
     0
370
    30
100
AcDbLine
 10
59.801534
 20
477.042261
 30
0.0
 11
70.792332
 21
477.042261
 31
0.0
  0
LINE
  5
1BE
330
16D
100
AcDbEntity
  8
0
  6
Continuous
 62
     0
370
    30
100
AcDbLine
 10
58.794928
 20
475.289702
 30
0.0
 11
58.801572
 21
476.050987
 31
0.0
  0
LINE
  5
1BF
330
16D
100
AcDbEntity
  8
0
  6
Continuous
 62
     0
370
    30
100
AcDbLine
 10
58.794928
 20
496.594819
 30
0.0
 11
58.801572
 21
495.833534
 31
0.0
  0
ARC
  5
1C0
330
16D
100
AcDbEntity
  8
0
  6
Continuous
 62
     0
370
    30
100
AcDbCircle
 10
58.494924
 20
475.292276
 30
0.0
 40
0.3000150267421912
100
AcDbArc
 50
270.002842
 51
359.496596
  0
ARC
  5
1C1
330
16D
100
AcDbEntity
  8
0
  6
Continuous
 62
     0
370
    30
100
AcDbCircle
 10
58.494924
 20
496.592245
 30
0.0
 40
0.3000150274088552
100
AcDbArc
 50
0.503697
 51
89.997157
  0
LINE
  5
1C2
330
16D
100
AcDbEntity
  8
0
  6
Continuous
 62
     0
370
    30
100
AcDbLine
 10
51.392332
 20
496.892261
 30
0.0
 11
58.494939
 21
496.892261
 31
0.0
  0
LINE
  5
1C3
330
16D
100
AcDbEntity
  8
0
  6
Continuous
 62
     0
370
    30
100
AcDbLine
 10
51.392332
 20
474.992261
 30
0.0
 11
58.494939
 21
474.992261
 31
0.0
  0
ARC
  5
1C4
330
16D
100
AcDbEntity
  8
0
  6
Continuous
 62
     0
370
    30
100
AcDbCircle
 10
70.792237
 20
477.342509
 30
0.0
 40
0.3002488629793978
100
AcDbArc
 50
270.018259
 51
305.436906
  0
ARC
  5
1C5
330
16D
100
AcDbEntity
  8
0
  6
Continuous
 62
     0
370
    30
100
AcDbCircle
 10
70.792237
 20
494.542014
 30
0.0
 40
0.3002463589326972
100
AcDbArc
 50
54.5597
 51
89.981893
  0
ARC
  5
1C6
330
16D
100
AcDbEntity
  8
0
  6
Continuous
 62
     0
370
    30
100
AcDbCircle
 10
51.392348
 20
475.292276
 30
0.0
 40
0.300015234440867
100
AcDbArc
 50
180.007163
 51
269.997095
  0
ARC
  5
1C7
330
16D
100
AcDbEntity
  8
0
  6
Continuous
 62
     0
370
    30
100
AcDbCircle
 10
51.392348
 20
496.592245
 30
0.0
 40
0.3000152348542539
100
AcDbArc
 50
90.002905
 51
179.992665
  0
ENDBLK
  5
1C9
330
16D
100
AcDbEntity
  8
0
100
AcDbBlockEnd
  0
ENDSEC
  0
SECTION
  2
ENTITIES
  0
INSERT
  5
B1
330
1F
100
AcDbEntity
  8
0
  6
Continuous
 62
     7
420
 16250871
370
     0
100
AcDbBlockReference
  2
a
 10
193.177399
 20
365.840179
 30
0.0
  0
INSERT
  5
10E
330
1F
100
AcDbEntity
  8
0
  6
Continuous
 62
     7
420
 16250871
370
     0
100
AcDbBlockReference
  2
b
 10
0.0
 20
285.731461
 30
0.0
  0
INSERT
  5
16C
330
1F
100
AcDbEntity
  8
0
  6
Continuous
 62
     7
420
 16250871
370
     0
100
AcDbBlockReference
  2
c
 10
396.24115
 20
0.0
 30
0.0
  0
INSERT
  5
1CA
330
1F
100
AcDbEntity
  8
0
  6
Continuous
 62
     7
420
 16250871
370
     0
100
AcDbBlockReference
  2
d
 10
126.118195
 20
0.0
 30
0.0
  0
ENDSEC
  0
SECTION
  2
OBJECTS
  0
DICTIONARY
  5
C
330
0
100
AcDbDictionary
281
     1
  3
ACAD_DETAILVIEWSTYLE
350
202
  3
ACAD_GROUP
350
D
  3
ACAD_LAYOUT
350
1A
  3
ACAD_MATERIAL
350
43
  3
ACAD_MLEADERSTYLE
350
6B
  3
ACAD_MLINESTYLE
350
17
  3
ACAD_PLOTSETTINGS
350
19
  3
ACAD_PLOTSTYLENAME
350
E
  3
ACAD_SCALELIST
350
47
  3
ACAD_SECTIONVIEWSTYLE
350
203
  3
ACAD_TABLESTYLE
350
69
  3
ACAD_VISUALSTYLE
350
2A
  3
ACDB_RECOMPOSE_DATA
350
1FF
  3
AcDbVariableDictionary
350
1CB
  0
SUN
  5
6D
330
29
100
AcDbSun
 90
        1
290
     0
 63
     7
421
 16777215
 40
1.0
291
     1
 91
  2455826
 92
 54000000
292
     0
 70
     2
 71
   256
280
     1
  0
DICTIONARY
  5
202
102
{ACAD_REACTORS
330
C
102
}
330
C
100
AcDbDictionary
281
     1
  0
DICTIONARY
  5
D
102
{ACAD_REACTORS
330
C
102
}
330
C
100
AcDbDictionary
281
     1
  0
DICTIONARY
  5
1A
102
{ACAD_REACTORS
330
C
102
}
330
C
100
AcDbDictionary
281
     1
  3
Layout1
350
1E
  3
Layout2
350
26
  3
Model
350
22
  0
DICTIONARY
  5
43
102
{ACAD_REACTORS
330
C
102
}
330
C
100
AcDbDictionary
281
     1
  3
ByBlock
350
45
  3
ByLayer
350
44
  3
Global
350
46
  0
DICTIONARY
  5
6B
102
{ACAD_REACTORS
330
C
102
}
330
C
100
AcDbDictionary
281
     1
  3
Standard
350
6C
  0
DICTIONARY
  5
17
102
{ACAD_REACTORS
330
C
102
}
330
C
100
AcDbDictionary
281
     1
  3
Standard
350
18
  0
DICTIONARY
  5
19
102
{ACAD_REACTORS
330
C
102
}
330
C
100
AcDbDictionary
281
     1
  0
ACDBDICTIONARYWDFLT
  5
E
102
{ACAD_REACTORS
330
C
102
}
330
C
100
AcDbDictionary
281
     1
  3
Normal
350
F
100
AcDbDictionaryWithDefault
340
F
  0
DICTIONARY
  5
47
102
{ACAD_REACTORS
330
C
102
}
330
C
100
AcDbDictionary
281
     1
  3
A0
350
48
  3
A1
350
49
  3
A2
350
4A
  3
A3
350
4B
  3
A4
350
4C
  3
A5
350
4D
  3
A6
350
4E
  3
A7
350
4F
  3
A8
350
50
  3
A9
350
51
  3
B0
350
52
  3
B1
350
53
  3
B2
350
54
  3
B3
350
55
  3
B4
350
56
  3
B5
350
57
  3
B6
350
58
  3
B7
350
59
  3
B8
350
5A
  3
B9
350
5B
  3
C0
350
5C
  3
C1
350
5D
  3
C2
350
5E
  3
C3
350
5F
  3
C4
350
60
  3
C5
350
61
  3
C6
350
62
  3
C7
350
63
  3
C8
350
64
  3
C9
350
65
  3
D0
350
66
  3
D1
350
67
  3
D2
350
68
  0
DICTIONARY
  5
203
102
{ACAD_REACTORS
330
C
102
}
330
C
100
AcDbDictionary
281
     1
  0
DICTIONARY
  5
69
102
{ACAD_REACTORS
330
C
102
}
330
C
100
AcDbDictionary
281
     1
  3
Standard
350
6A
  0
DICTIONARY
  5
2A
102
{ACAD_REACTORS
330
C
102
}
330
C
100
AcDbDictionary
281
     1
  3
2dWireframe
350
2F
  3
Basic
350
32
  3
Brighten
350
36
  3
ColorChange
350
3A
  3
Conceptual
350
34
  3
Dim
350
35
  3
EdgeColorOff
350
3D
  3
Facepattern
350
39
  3
Flat
350
2B
  3
FlatWithEdges
350
2C
  3
Gouraud
350
2D
  3
GouraudWithEdges
350
2E
  3
Hidden
350
31
  3
JitterOff
350
3B
  3
Linepattern
350
38
  3
OverhangOff
350
3C
  3
Realistic
350
33
  3
Shaded
350
42
  3
Shaded with edges
350
41
  3
Shades of Gray
350
3E
  3
Sketchy
350
3F
  3
Thicken
350
37
  3
Wireframe
350
30
  3
X-Ray
350
40
  0
XRECORD
  5
1FF
102
{ACAD_REACTORS
330
C
102
}
330
C
100
AcDbXrecord
280
     1
 90
        1
330
6A
  0
DICTIONARY
  5
1CB
102
{ACAD_REACTORS
330
C
102
}
330
C
100
AcDbDictionary
281
     1
  3
CANNOSCALE
350
1CC
  3
CMLEADERSTYLE
350
201
  3
CTABLESTYLE
350
200
  0
LAYOUT
  5
1E
102
{ACAD_REACTORS
330
1A
102
}
330
1A
100
AcDbPlotSettings
  1

  2
none_device
  4

  6

 40
0.0
 41
0.0
 42
0.0
 43
0.0
 44
0.0
 45
0.0
 46
0.0
 47
0.0
 48
0.0
 49
0.0
140
0.0
141
0.0
142
1.0
143
1.0
 70
   688
 72
     1
 73
     0
 74
     5
  7

 75
    16
 76
     0
 77
     2
 78
   300
147
1.0
148
0.0
149
0.0
100
AcDbLayout
  1
Layout1
 70
     1
 71
     1
 10
0.0
 20
0.0
 11
420.0
 21
297.0
 12
0.0
 22
0.0
 32
0.0
 14
1.000000E+20
 24
1.000000E+20
 34
1.000000E+20
 15
-1.000000E+20
 25
-1.000000E+20
 35
-1.000000E+20
146
0.0
 13
0.0
 23
0.0
 33
0.0
 16
1.0
 26
0.0
 36
0.0
 17
0.0
 27
1.0
 37
0.0
 76
     0
330
1B
  0
LAYOUT
  5
26
102
{ACAD_REACTORS
330
1A
102
}
330
1A
100
AcDbPlotSettings
  1

  2
none_device
  4

  6

 40
0.0
 41
0.0
 42
0.0
 43
0.0
 44
0.0
 45
0.0
 46
0.0
 47
0.0
 48
0.0
 49
0.0
140
0.0
141
0.0
142
1.0
143
1.0
 70
   688
 72
     1
 73
     0
 74
     5
  7

 75
    16
 76
     0
 77
     2
 78
   300
147
1.0
148
0.0
149
0.0
100
AcDbLayout
  1
Layout2
 70
     1
 71
     2
 10
0.0
 20
0.0
 11
0.0
 21
0.0
 12
0.0
 22
0.0
 32
0.0
 14
0.0
 24
0.0
 34
0.0
 15
0.0
 25
0.0
 35
0.0
146
0.0
 13
0.0
 23
0.0
 33
0.0
 16
1.0
 26
0.0
 36
0.0
 17
0.0
 27
1.0
 37
0.0
 76
     0
330
23
  0
LAYOUT
  5
22
102
{ACAD_REACTORS
330
1A
102
}
330
1A
100
AcDbPlotSettings
  1

  2
none_device
  4
Letter_(8.50_x_11.00_Inches)
  6

 40
6.35
 41
6.35
 42
6.350005
 43
6.350005
 44
215.9
 45
279.4
 46
0.0
 47
0.0
 48
0.0
 49
0.0
140
0.0
141
0.0
142
1.0
143
1.0
 70
  1712
 72
     1
 73
     0
 74
     0
  7

 75
     0
 76
     0
 77
     2
 78
   300
147
1.0
148
0.0
149
0.0
100
AcDbLayout
  1
Model
 70
     1
 71
     0
 10
0.0
 20
0.0
 11
420.0
 21
297.0
 12
0.0
 22
0.0
 32
0.0
 14
1.000000E+20
 24
1.000000E+20
 34
1.000000E+20
 15
-1.000000E+20
 25
-1.000000E+20
 35
-1.000000E+20
146
0.0
 13
0.0
 23
0.0
 33
0.0
 16
1.0
 26
0.0
 36
0.0
 17
0.0
 27
1.0
 37
0.0
 76
     0
330
1F
331
29
  0
MATERIAL
  5
45
102
{ACAD_REACTORS
330
43
102
}
330
43
100
AcDbMaterial
  1
ByBlock
 72
     1
 94
      127
  0
MATERIAL
  5
44
102
{ACAD_REACTORS
330
43
102
}
330
43
100
AcDbMaterial
  1
ByLayer
 72
     1
 94
      127
  0
MATERIAL
  5
46
102
{ACAD_REACTORS
330
43
102
}
330
43
100
AcDbMaterial
  1
Global
 72
     1
 94
      127
  0
MLEADERSTYLE
  5
6C
102
{ACAD_REACTORS
330
6B
102
}
330
6B
100
AcDbMLeaderStyle
179
     2
170
     2
171
     1
172
     0
 90
        2
 40
0.0
 41
0.0
173
     1
 91
-1056964608
340
14
 92
       -2
290
     1
 42
2.0
291
     1
 43
8.0
  3
Standard
341
0
 44
4.0
300

342
11
174
     1
178
     6
175
     1
176
     0
 93
-1056964608
 45
4.0
292
     0
297
     0
 46
4.0
343
0
 94
-1056964608
 47
1.0
 49
1.0
140
1.0
293
     1
141
0.0
294
     1
177
     0
142
1.0
295
     0
296
     0
143
3.75
271
     0
272
     9
273
     9
  0
MLINESTYLE
  5
18
102
{ACAD_REACTORS
330
17
102
}
330
17
100
AcDbMlineStyle
  2
Standard
 70
     0
  3

 62
   256
 51
90.0
 52
90.0
 71
     2
 49
0.5
 62
   256
  6
BYLAYER
 49
-0.5
 62
   256
  6
BYLAYER
  0
ACDBPLACEHOLDER
  5
F
102
{ACAD_REACTORS
330
E
102
}
330
E
  0
SCALE
  5
48
102
{ACAD_REACTORS
330
47
102
}
330
47
100
AcDbScale
 70
     0
300
1:1
140
1.0
141
1.0
290
     1
  0
SCALE
  5
49
102
{ACAD_REACTORS
330
47
102
}
330
47
100
AcDbScale
 70
     0
300
1:2
140
1.0
141
2.0
290
     0
  0
SCALE
  5
4A
102
{ACAD_REACTORS
330
47
102
}
330
47
100
AcDbScale
 70
     0
300
1:4
140
1.0
141
4.0
290
     0
  0
SCALE
  5
4B
102
{ACAD_REACTORS
330
47
102
}
330
47
100
AcDbScale
 70
     0
300
1:5
140
1.0
141
5.0
290
     0
  0
SCALE
  5
4C
102
{ACAD_REACTORS
330
47
102
}
330
47
100
AcDbScale
 70
     0
300
1:8
140
1.0
141
8.0
290
     0
  0
SCALE
  5
4D
102
{ACAD_REACTORS
330
47
102
}
330
47
100
AcDbScale
 70
     0
300
1:10
140
1.0
141
10.0
290
     0
  0
SCALE
  5
4E
102
{ACAD_REACTORS
330
47
102
}
330
47
100
AcDbScale
 70
     0
300
1:16
140
1.0
141
16.0
290
     0
  0
SCALE
  5
4F
102
{ACAD_REACTORS
330
47
102
}
330
47
100
AcDbScale
 70
     0
300
1:20
140
1.0
141
20.0
290
     0
  0
SCALE
  5
50
102
{ACAD_REACTORS
330
47
102
}
330
47
100
AcDbScale
 70
     0
300
1:30
140
1.0
141
30.0
290
     0
  0
SCALE
  5
51
102
{ACAD_REACTORS
330
47
102
}
330
47
100
AcDbScale
 70
     0
300
1:40
140
1.0
141
40.0
290
     0
  0
SCALE
  5
52
102
{ACAD_REACTORS
330
47
102
}
330
47
100
AcDbScale
 70
     0
300
1:50
140
1.0
141
50.0
290
     0
  0
SCALE
  5
53
102
{ACAD_REACTORS
330
47
102
}
330
47
100
AcDbScale
 70
     0
300
1:100
140
1.0
141
100.0
290
     0
  0
SCALE
  5
54
102
{ACAD_REACTORS
330
47
102
}
330
47
100
AcDbScale
 70
     0
300
2:1
140
2.0
141
1.0
290
     0
  0
SCALE
  5
55
102
{ACAD_REACTORS
330
47
102
}
330
47
100
AcDbScale
 70
     0
300
4:1
140
4.0
141
1.0
290
     0
  0
SCALE
  5
56
102
{ACAD_REACTORS
330
47
102
}
330
47
100
AcDbScale
 70
     0
300
8:1
140
8.0
141
1.0
290
     0
  0
SCALE
  5
57
102
{ACAD_REACTORS
330
47
102
}
330
47
100
AcDbScale
 70
     0
300
10:1
140
10.0
141
1.0
290
     0
  0
SCALE
  5
58
102
{ACAD_REACTORS
330
47
102
}
330
47
100
AcDbScale
 70
     0
300
100:1
140
100.0
141
1.0
290
     0
  0
SCALE
  5
59
102
{ACAD_REACTORS
330
47
102
}
330
47
100
AcDbScale
 70
     0
300
1/128" = 1'-0"
140
0.007812
141
12.0
290
     0
  0
SCALE
  5
5A
102
{ACAD_REACTORS
330
47
102
}
330
47
100
AcDbScale
 70
     0
300
1/64" = 1'-0"
140
0.015625
141
12.0
290
     0
  0
SCALE
  5
5B
102
{ACAD_REACTORS
330
47
102
}
330
47
100
AcDbScale
 70
     0
300
1/32" = 1'-0"
140
0.03125
141
12.0
290
     0
  0
SCALE
  5
5C
102
{ACAD_REACTORS
330
47
102
}
330
47
100
AcDbScale
 70
     0
300
1/16" = 1'-0"
140
0.0625
141
12.0
290
     0
  0
SCALE
  5
5D
102
{ACAD_REACTORS
330
47
102
}
330
47
100
AcDbScale
 70
     0
300
3/32" = 1'-0"
140
0.09375
141
12.0
290
     0
  0
SCALE
  5
5E
102
{ACAD_REACTORS
330
47
102
}
330
47
100
AcDbScale
 70
     0
300
1/8" = 1'-0"
140
0.125
141
12.0
290
     0
  0
SCALE
  5
5F
102
{ACAD_REACTORS
330
47
102
}
330
47
100
AcDbScale
 70
     0
300
3/16" = 1'-0"
140
0.1875
141
12.0
290
     0
  0
SCALE
  5
60
102
{ACAD_REACTORS
330
47
102
}
330
47
100
AcDbScale
 70
     0
300
1/4" = 1'-0"
140
0.25
141
12.0
290
     0
  0
SCALE
  5
61
102
{ACAD_REACTORS
330
47
102
}
330
47
100
AcDbScale
 70
     0
300
3/8" = 1'-0"
140
0.375
141
12.0
290
     0
  0
SCALE
  5
62
102
{ACAD_REACTORS
330
47
102
}
330
47
100
AcDbScale
 70
     0
300
1/2" = 1'-0"
140
0.5
141
12.0
290
     0
  0
SCALE
  5
63
102
{ACAD_REACTORS
330
47
102
}
330
47
100
AcDbScale
 70
     0
300
3/4" = 1'-0"
140
0.75
141
12.0
290
     0
  0
SCALE
  5
64
102
{ACAD_REACTORS
330
47
102
}
330
47
100
AcDbScale
 70
     0
300
1" = 1'-0"
140
1.0
141
12.0
290
     0
  0
SCALE
  5
65
102
{ACAD_REACTORS
330
47
102
}
330
47
100
AcDbScale
 70
     0
300
1-1/2" = 1'-0"
140
1.5
141
12.0
290
     0
  0
SCALE
  5
66
102
{ACAD_REACTORS
330
47
102
}
330
47
100
AcDbScale
 70
     0
300
3" = 1'-0"
140
3.0
141
12.0
290
     0
  0
SCALE
  5
67
102
{ACAD_REACTORS
330
47
102
}
330
47
100
AcDbScale
 70
     0
300
6" = 1'-0"
140
6.0
141
12.0
290
     0
  0
SCALE
  5
68
102
{ACAD_REACTORS
330
47
102
}
330
47
100
AcDbScale
 70
     0
300
1'-0" = 1'-0"
140
12.0
141
12.0
290
     0
  0
TABLESTYLE
  5
6A
102
{ACAD_REACTORS
330
69
102
}
102
{ACAD_XDICTIONARY
360
1FD
102
}
330
69
100
AcDbTableStyle
  3
Standard
 70
     0
 71
     0
 40
0.06
 41
0.06
280
     0
281
     0
  7
Standard
140
4.5
170
     2
 62
     0
 63
   257
283
     0
 90
        4
 91
        0
  1

274
    -2
284
     1
 64
     0
275
    -2
285
     1
 65
     0
276
    -2
286
     1
 66
     0
277
    -2
287
     1
 67
     0
278
    -2
288
     1
 68
     0
279
    -2
289
     1
 69
     0
  7
Standard
140
6.0
170
     5
 62
     0
 63
   257
283
     0
 90
        4
 91
        0
  1

274
    -2
284
     1
 64
     0
275
    -2
285
     1
 65
     0
276
    -2
286
     1
 66
     0
277
    -2
287
     1
 67
     0
278
    -2
288
     1
 68
     0
279
    -2
289
     1
 69
     0
  7
Standard
140
4.5
170
     5
 62
     0
 63
   257
283
     0
 90
        4
 91
        0
  1

274
    -2
284
     1
 64
     0
275
    -2
285
     1
 65
     0
276
    -2
286
     1
 66
     0
277
    -2
287
     1
 67
     0
278
    -2
288
     1
 68
     0
279
    -2
289
     1
 69
     0
  0
VISUALSTYLE
  5
2F
102
{ACAD_REACTORS
330
2A
102
}
102
{ACAD_XDICTIONARY
360
1D5
102
}
330
2A
100
AcDbVisualStyle
  2
2dWireframe
 70
     4
177
     2
291
     0
 71
     0
176
     1
 72
     2
176
     1
 73
     0
176
     1
 90
        0
176
     1
 40
0.6
176
     1
 41
30.0
176
     1
 62
     5
 63
     7
421
 16777215
176
     1
 74
     1
176
     1
 91
        4
176
     1
 64
     7
176
     1
 65
   257
176
     1
 75
     1
176
     1
175
     1
176
     1
 42
1.0
176
     1
 92
        0
176
     1
 66
   257
176
     1
 43
1.0
176
     1
 76
     1
176
     1
 77
     6
176
     1
 78
     2
176
     1
 67
     7
176
     1
 79
     5
176
     1
170
     0
176
     1
171
     0
176
     1
290
     0
176
     1
 93
        1
176
     1
 44
0.0
176
     1
173
     0
176
     1
  0
VISUALSTYLE
  5
32
102
{ACAD_REACTORS
330
2A
102
}
102
{ACAD_XDICTIONARY
360
1DB
102
}
330
2A
100
AcDbVisualStyle
  2
Basic
 70
     7
177
     2
291
     1
 71
     1
176
     1
 72
     0
176
     1
 73
     1
176
     1
 90
        0
176
     1
 40
0.6
176
     1
 41
30.0
176
     1
 62
     5
 63
     7
421
 16777215
176
     1
 74
     0
176
     1
 91
        4
176
     1
 64
     7
176
     1
 65
   257
176
     1
 75
     1
176
     1
175
     1
176
     1
 42
1.0
176
     1
 92
        8
176
     1
 66
     7
176
     1
 43
1.0
176
     1
 76
     1
176
     1
 77
     6
176
     1
 78
     2
176
     1
 67
     7
176
     1
 79
     5
176
     1
170
     0
176
     1
171
     0
176
     1
290
     0
176
     1
 93
        1
176
     1
 44
0.0
176
     1
173
     0
176
     1
  0
VISUALSTYLE
  5
36
102
{ACAD_REACTORS
330
2A
102
}
102
{ACAD_XDICTIONARY
360
1E3
102
}
330
2A
100
AcDbVisualStyle
  2
Brighten
 70
    12
177
     2
291
     1
 71
     2
176
     1
 72
     2
176
     1
 73
     0
176
     1
 90
        0
176
     1
 40
0.6
176
     1
 41
30.0
176
     1
 62
     5
 63
     7
421
 16777215
176
     1
 74
     1
176
     1
 91
        4
176
     1
 64
     7
176
     1
 65
   257
176
     1
 75
     1
176
     1
175
     1
176
     1
 42
1.0
176
     1
 92
        8
176
     1
 66
     7
176
     1
 43
1.0
176
     1
 76
     1
176
     1
 77
     6
176
     1
 78
     2
176
     1
 67
     7
176
     1
 79
     5
176
     1
170
     0
176
     1
171
     0
176
     1
290
     0
176
     1
 93
        1
176
     1
 44
50.0
176
     1
173
     0
176
     1
  0
VISUALSTYLE
  5
3A
102
{ACAD_REACTORS
330
2A
102
}
102
{ACAD_XDICTIONARY
360
1EB
102
}
330
2A
100
AcDbVisualStyle
  2
ColorChange
 70
    16
177
     2
291
     1
 71
     2
176
     1
 72
     2
176
     1
 73
     3
176
     1
 90
        0
176
     1
 40
0.6
176
     1
 41
30.0
176
     1
 62
     5
 63
     8
421
  8421504
176
     1
 74
     1
176
     1
 91
        4
176
     1
 64
     7
176
     1
 65
   257
176
     1
 75
     1
176
     1
175
     1
176
     1
 42
1.0
176
     1
 92
        8
176
     1
 66
     8
424
  8421504
176
     1
 43
1.0
176
     1
 76
     1
176
     1
 77
     6
176
     1
 78
     2
176
     1
 67
     7
176
     1
 79
     5
176
     1
170
     0
176
     1
171
     0
176
     1
290
     0
176
     1
 93
        1
176
     1
 44
0.0
176
     1
173
     0
176
     1
  0
VISUALSTYLE
  5
34
102
{ACAD_REACTORS
330
2A
102
}
102
{ACAD_XDICTIONARY
360
1DF
102
}
330
2A
100
AcDbVisualStyle
  2
Conceptual
 70
     9
177
     2
291
     0
 71
     3
176
     1
 72
     2
176
     1
 73
     0
176
     1
 90
        0
176
     1
 40
0.6
176
     1
 41
30.0
176
     1
 62
     5
 63
     7
421
 16777215
176
     1
 74
     2
176
     1
 91
        2
176
     1
 64
     7
176
     1
 65
   257
176
     1
 75
     1
176
     1
175
     1
176
     1
 42
179.0
176
     1
 92
        8
176
     1
 66
     7
176
     1
 43
1.0
176
     1
 76
     1
176
     1
 77
     6
176
     1
 78
     2
176
     1
 67
     7
176
     1
 79
     3
176
     1
170
     0
176
     1
171
     0
176
     1
290
     0
176
     1
 93
        1
176
     1
 44
0.0
176
     1
173
     0
176
     1
  0
VISUALSTYLE
  5
35
102
{ACAD_REACTORS
330
2A
102
}
102
{ACAD_XDICTIONARY
360
1E1
102
}
330
2A
100
AcDbVisualStyle
  2
Dim
 70
    11
177
     2
291
     1
 71
     2
176
     1
 72
     2
176
     1
 73
     0
176
     1
 90
        0
176
     1
 40
0.6
176
     1
 41
30.0
176
     1
 62
     5
 63
     7
421
 16777215
176
     1
 74
     1
176
     1
 91
        4
176
     1
 64
     7
176
     1
 65
   257
176
     1
 75
     1
176
     1
175
     1
176
     1
 42
1.0
176
     1
 92
        8
176
     1
 66
     7
176
     1
 43
1.0
176
     1
 76
     1
176
     1
 77
     6
176
     1
 78
     2
176
     1
 67
     7
176
     1
 79
     5
176
     1
170
     0
176
     1
171
     0
176
     1
290
     0
176
     1
 93
        1
176
     1
 44
-50.0
176
     1
173
     0
176
     1
  0
VISUALSTYLE
  5
3D
102
{ACAD_REACTORS
330
2A
102
}
102
{ACAD_XDICTIONARY
360
1F1
102
}
330
2A
100
AcDbVisualStyle
  2
EdgeColorOff
 70
    22
177
     2
291
     1
 71
     2
176
     0
 72
     2
176
     0
 73
     0
176
     0
 90
        0
176
     0
 40
0.6
176
     0
 41
30.0
176
     0
 62
     5
 63
     7
421
 16777215
176
     0
 74
     1
176
     0
 91
        4
176
     0
 64
     7
176
     0
 65
   257
176
     0
 75
     1
176
     0
175
     1
176
     0
 42
1.0
176
     0
 92
        8
176
     2
 66
     7
176
     0
 43
1.0
176
     0
 76
     1
176
     0
 77
     6
176
     0
 78
     2
176
     0
 67
     7
176
     0
 79
     5
176
     0
170
     0
176
     0
171
     0
176
     0
290
     0
176
     0
 93
        1
176
     0
 44
0.0
176
     0
173
     0
176
     0
  0
VISUALSTYLE
  5
39
102
{ACAD_REACTORS
330
2A
102
}
102
{ACAD_XDICTIONARY
360
1E9
102
}
330
2A
100
AcDbVisualStyle
  2
Facepattern
 70
    15
177
     2
291
     1
 71
     2
176
     1
 72
     2
176
     1
 73
     0
176
     1
 90
        0
176
     1
 40
0.6
176
     1
 41
30.0
176
     1
 62
     5
 63
     7
421
 16777215
176
     1
 74
     1
176
     1
 91
        4
176
     1
 64
     7
176
     1
 65
   257
176
     1
 75
     1
176
     1
175
     1
176
     1
 42
1.0
176
     1
 92
        8
176
     1
 66
     7
176
     1
 43
1.0
176
     1
 76
     1
176
     1
 77
     6
176
     1
 78
     2
176
     1
 67
     7
176
     1
 79
     5
176
     1
170
     0
176
     1
171
     0
176
     1
290
     0
176
     1
 93
        1
176
     1
 44
0.0
176
     1
173
     0
176
     1
  0
VISUALSTYLE
  5
2B
102
{ACAD_REACTORS
330
2A
102
}
102
{ACAD_XDICTIONARY
360
1CD
102
}
330
2A
100
AcDbVisualStyle
  2
Flat
 70
     0
177
     2
291
     1
 71
     2
176
     1
 72
     1
176
     1
 73
     1
176
     1
 90
        2
176
     1
 40
0.6
176
     1
 41
30.0
176
     1
 62
     5
 63
     7
421
 16777215
176
     1
 74
     0
176
     1
 91
        0
176
     1
 64
     7
176
     1
 65
   257
176
     1
 75
     1
176
     1
175
     1
176
     1
 42
1.0
176
     1
 92
        8
176
     1
 66
     7
176
     1
 43
1.0
176
     1
 76
     1
176
     1
 77
     6
176
     1
 78
     2
176
     1
 67
     7
176
     1
 79
     5
176
     1
170
     0
176
     1
171
     0
176
     1
290
     0
176
     1
 93
       13
176
     1
 44
0.0
176
     1
173
     0
176
     1
  0
VISUALSTYLE
  5
2C
102
{ACAD_REACTORS
330
2A
102
}
102
{ACAD_XDICTIONARY
360
1CF
102
}
330
2A
100
AcDbVisualStyle
  2
FlatWithEdges
 70
     1
177
     2
291
     1
 71
     2
176
     1
 72
     1
176
     1
 73
     1
176
     1
 90
        2
176
     1
 40
0.6
176
     1
 41
30.0
176
     1
 62
     5
 63
     7
421
 16777215
176
     1
 74
     1
176
     1
 91
        0
176
     1
 64
     7
176
     1
 65
   257
176
     1
 75
     1
176
     1
175
     1
176
     1
 42
1.0
176
     1
 92
        0
176
     1
 66
   257
176
     1
 43
1.0
176
     1
 76
     1
176
     1
 77
     6
176
     1
 78
     2
176
     1
 67
     7
176
     1
 79
     5
176
     1
170
     0
176
     1
171
     0
176
     1
290
     0
176
     1
 93
       13
176
     1
 44
0.0
176
     1
173
     0
176
     1
  0
VISUALSTYLE
  5
2D
102
{ACAD_REACTORS
330
2A
102
}
102
{ACAD_XDICTIONARY
360
1D1
102
}
330
2A
100
AcDbVisualStyle
  2
Gouraud
 70
     2
177
     2
291
     1
 71
     2
176
     1
 72
     2
176
     1
 73
     1
176
     1
 90
        2
176
     1
 40
0.6
176
     1
 41
30.0
176
     1
 62
     5
 63
     7
421
 16777215
176
     1
 74
     0
176
     1
 91
        0
176
     1
 64
     7
176
     1
 65
   257
176
     1
 75
     1
176
     1
175
     1
176
     1
 42
1.0
176
     1
 92
        0
176
     1
 66
     7
176
     1
 43
1.0
176
     1
 76
     1
176
     1
 77
     6
176
     1
 78
     2
176
     1
 67
     7
176
     1
 79
     5
176
     1
170
     0
176
     1
171
     0
176
     1
290
     0
176
     1
 93
       13
176
     1
 44
0.0
176
     1
173
     0
176
     1
  0
VISUALSTYLE
  5
2E
102
{ACAD_REACTORS
330
2A
102
}
102
{ACAD_XDICTIONARY
360
1D3
102
}
330
2A
100
AcDbVisualStyle
  2
GouraudWithEdges
 70
     3
177
     2
291
     1
 71
     2
176
     1
 72
     2
176
     1
 73
     1
176
     1
 90
        2
176
     1
 40
0.6
176
     1
 41
30.0
176
     1
 62
     5
 63
     7
421
 16777215
176
     1
 74
     1
176
     1
 91
        0
176
     1
 64
     7
176
     1
 65
   257
176
     1
 75
     1
176
     1
175
     1
176
     1
 42
1.0
176
     1
 92
        0
176
     1
 66
   257
176
     1
 43
1.0
176
     1
 76
     1
176
     1
 77
     6
176
     1
 78
     2
176
     1
 67
     7
176
     1
 79
     5
176
     1
170
     0
176
     1
171
     0
176
     1
290
     0
176
     1
 93
       13
176
     1
 44
0.0
176
     1
173
     0
176
     1
  0
VISUALSTYLE
  5
31
102
{ACAD_REACTORS
330
2A
102
}
102
{ACAD_XDICTIONARY
360
1D9
102
}
330
2A
100
AcDbVisualStyle
  2
Hidden
 70
     6
177
     2
291
     0
 71
     1
176
     1
 72
     2
176
     1
 73
     2
176
     1
 90
        0
176
     1
 40
0.6
176
     1
 41
30.0
176
     1
 62
     5
 63
     7
421
 16777215
176
     1
 74
     2
176
     1
 91
        2
176
     1
 64
     7
176
     1
 65
   257
176
     1
 75
     2
176
     1
175
     1
176
     1
 42
40.0
176
     1
 92
        0
176
     1
 66
   257
176
     1
 43
1.0
176
     1
 76
     1
176
     1
 77
     6
176
     1
 78
     2
176
     1
 67
     7
176
     1
 79
     3
176
     1
170
     0
176
     1
171
     0
176
     1
290
     0
176
     1
 93
        1
176
     1
 44
0.0
176
     1
173
     0
176
     1
  0
VISUALSTYLE
  5
3B
102
{ACAD_REACTORS
330
2A
102
}
102
{ACAD_XDICTIONARY
360
1ED
102
}
330
2A
100
AcDbVisualStyle
  2
JitterOff
 70
    20
177
     2
291
     1
 71
     2
176
     0
 72
     2
176
     0
 73
     0
176
     0
 90
        0
176
     0
 40
0.6
176
     0
 41
30.0
176
     0
 62
     5
 63
     7
421
 16777215
176
     0
 74
     1
176
     0
 91
        4
176
     0
 64
     7
176
     0
 65
   257
176
     0
 75
     1
176
     0
175
     1
176
     0
 42
1.0
176
     0
 92
       10
176
     2
 66
     7
176
     0
 43
1.0
176
     0
 76
     1
176
     0
 77
     6
176
     0
 78
     2
176
     0
 67
     7
176
     0
 79
     5
176
     0
170
     0
176
     0
171
     0
176
     0
290
     0
176
     0
 93
        1
176
     0
 44
0.0
176
     0
173
     0
176
     0
  0
VISUALSTYLE
  5
38
102
{ACAD_REACTORS
330
2A
102
}
102
{ACAD_XDICTIONARY
360
1E7
102
}
330
2A
100
AcDbVisualStyle
  2
Linepattern
 70
    14
177
     2
291
     1
 71
     2
176
     1
 72
     2
176
     1
 73
     0
176
     1
 90
        0
176
     1
 40
0.6
176
     1
 41
30.0
176
     1
 62
     5
 63
     7
421
 16777215
176
     1
 74
     1
176
     1
 91
        4
176
     1
 64
     7
176
     1
 65
   257
176
     1
 75
     7
176
     1
175
     7
176
     1
 42
1.0
176
     1
 92
        8
176
     1
 66
     7
176
     1
 43
1.0
176
     1
 76
     1
176
     1
 77
     6
176
     1
 78
     2
176
     1
 67
     7
176
     1
 79
     5
176
     1
170
     0
176
     1
171
     0
176
     1
290
     0
176
     1
 93
        1
176
     1
 44
0.0
176
     1
173
     0
176
     1
  0
VISUALSTYLE
  5
3C
102
{ACAD_REACTORS
330
2A
102
}
102
{ACAD_XDICTIONARY
360
1EF
102
}
330
2A
100
AcDbVisualStyle
  2
OverhangOff
 70
    21
177
     2
291
     1
 71
     2
176
     0
 72
     2
176
     0
 73
     0
176
     0
 90
        0
176
     0
 40
0.6
176
     0
 41
30.0
176
     0
 62
     5
 63
     7
421
 16777215
176
     0
 74
     1
176
     0
 91
        4
176
     0
 64
     7
176
     0
 65
   257
176
     0
 75
     1
176
     0
175
     1
176
     0
 42
1.0
176
     0
 92
        9
176
     2
 66
     7
176
     0
 43
1.0
176
     0
 76
     1
176
     0
 77
     6
176
     0
 78
     2
176
     0
 67
     7
176
     0
 79
     5
176
     0
170
     0
176
     0
171
     0
176
     0
290
     0
176
     0
 93
        1
176
     0
 44
0.0
176
     0
173
     0
176
     0
  0
VISUALSTYLE
  5
33
102
{ACAD_REACTORS
330
2A
102
}
102
{ACAD_XDICTIONARY
360
1DD
102
}
330
2A
100
AcDbVisualStyle
  2
Realistic
 70
     8
177
     2
291
     0
 71
     2
176
     1
 72
     3
176
     1
 73
     0
176
     1
 90
        2
176
     1
 40
0.6
176
     1
 41
30.0
176
     1
 62
     5
 63
     7
421
 16777215
176
     1
 74
     0
176
     1
 91
        0
176
     1
 64
     7
176
     1
 65
   257
176
     1
 75
     1
176
     1
175
     1
176
     1
 42
1.0
176
     1
 92
        8
176
     1
 66
   257
176
     1
 43
1.0
176
     1
 76
     1
176
     1
 77
     6
176
     1
 78
     2
176
     1
 67
     7
176
     1
 79
     3
176
     1
170
     0
176
     1
171
     0
176
     1
290
     0
176
     1
 93
       13
176
     1
 44
0.0
176
     1
173
     0
176
     1
  0
VISUALSTYLE
  5
42
102
{ACAD_REACTORS
330
2A
102
}
102
{ACAD_XDICTIONARY
360
1FB
102
}
330
2A
100
AcDbVisualStyle
  2
Shaded
 70
    27
177
     2
291
     0
 71
     2
176
     1
 72
     2
176
     1
 73
     1
176
     1
 90
        2
176
     1
 40
0.6
176
     1
 41
30.0
176
     1
 62
     5
 63
     7
421
 16777215
176
     1
 74
     0
176
     1
 91
        4
176
     1
 64
     7
176
     1
 65
   257
176
     1
 75
     1
176
     1
175
     1
176
     1
 42
1.0
176
     1
 92
        8
176
     1
 66
   257
176
     1
 43
1.0
176
     1
 76
     1
176
     1
 77
     6
176
     1
 78
     2
176
     1
 67
     8
425
  7895160
176
     1
 79
     3
176
     1
170
     0
176
     1
171
     0
176
     1
290
     0
176
     1
 93
        5
176
     1
 44
0.0
176
     1
173
     0
176
     1
  0
VISUALSTYLE
  5
41
102
{ACAD_REACTORS
330
2A
102
}
102
{ACAD_XDICTIONARY
360
1F9
102
}
330
2A
100
AcDbVisualStyle
  2
Shaded with edges
 70
    26
177
     2
291
     0
 71
     2
176
     1
 72
     2
176
     1
 73
     1
176
     1
 90
        2
176
     1
 40
0.6
176
     1
 41
30.0
176
     1
 62
     5
 63
     7
421
 16777215
176
     1
 74
     1
176
     1
 91
       10
176
     1
 64
     7
176
     1
 65
   257
176
     1
 75
     2
176
     1
175
     1
176
     1
 42
1.0
176
     1
 92
        8
176
     1
 66
   257
176
     1
 43
1.0
176
     1
 76
     1
176
     1
 77
     6
176
     1
 78
     2
176
     1
 67
     7
176
     1
 79
     3
176
     1
170
     0
176
     1
171
     0
176
     1
290
     0
176
     1
 93
        5
176
     1
 44
0.0
176
     1
173
     0
176
     1
  0
VISUALSTYLE
  5
3E
102
{ACAD_REACTORS
330
2A
102
}
102
{ACAD_XDICTIONARY
360
1F3
102
}
330
2A
100
AcDbVisualStyle
  2
Shades of Gray
 70
    23
177
     2
291
     0
 71
     2
176
     1
 72
     2
176
     1
 73
     3
176
     1
 90
        0
176
     1
 40
0.6
176
     1
 41
30.0
176
     1
 62
     5
 63
     7
421
 16777215
176
     1
 74
     2
176
     1
 91
        2
176
     1
 64
     7
176
     1
 65
     7
176
     1
 75
     1
176
     1
175
     1
176
     1
 42
40.0
176
     1
 92
        8
176
     1
 66
     7
176
     1
 43
1.0
176
     1
 76
     1
176
     1
 77
     6
176
     1
 78
     2
176
     1
 67
     7
176
     1
 79
     3
176
     1
170
     0
176
     1
171
     0
176
     1
290
     0
176
     1
 93
        1
176
     1
 44
0.0
176
     1
173
     0
176
     1
  0
VISUALSTYLE
  5
3F
102
{ACAD_REACTORS
330
2A
102
}
102
{ACAD_XDICTIONARY
360
1F5
102
}
330
2A
100
AcDbVisualStyle
  2
Sketchy
 70
    24
177
     2
291
     0
 71
     1
176
     1
 72
     2
176
     1
 73
     2
176
     1
 90
        0
176
     1
 40
0.6
176
     1
 41
30.0
176
     1
 62
     5
 63
     7
421
 16777215
176
     1
 74
     2
176
     1
 91
        2
176
     1
 64
     7
176
     1
 65
     7
176
     1
 75
     1
176
     1
175
     1
176
     1
 42
40.0
176
     1
 92
       11
176
     1
 66
     7
176
     1
 43
1.0
176
     1
 76
     1
176
     1
 77
     6
176
     1
 78
     2
176
     1
 67
     7
176
     1
 79
     6
176
     1
170
     0
176
     1
171
     0
176
     1
290
     0
176
     1
 93
        1
176
     1
 44
0.0
176
     1
173
     0
176
     1
  0
VISUALSTYLE
  5
37
102
{ACAD_REACTORS
330
2A
102
}
102
{ACAD_XDICTIONARY
360
1E5
102
}
330
2A
100
AcDbVisualStyle
  2
Thicken
 70
    13
177
     2
291
     1
 71
     2
176
     1
 72
     2
176
     1
 73
     0
176
     1
 90
        0
176
     1
 40
0.6
176
     1
 41
30.0
176
     1
 62
     5
 63
     7
421
 16777215
176
     1
 74
     1
176
     1
 91
        4
176
     1
 64
     7
176
     1
 65
   257
176
     1
 75
     1
176
     1
175
     1
176
     1
 42
1.0
176
     1
 92
       12
176
     1
 66
     7
176
     1
 43
1.0
176
     1
 76
     1
176
     1
 77
     6
176
     1
 78
     2
176
     1
 67
     7
176
     1
 79
     5
176
     1
170
     0
176
     1
171
     0
176
     1
290
     0
176
     1
 93
        1
176
     1
 44
0.0
176
     1
173
     0
176
     1
  0
VISUALSTYLE
  5
30
102
{ACAD_REACTORS
330
2A
102
}
102
{ACAD_XDICTIONARY
360
1D7
102
}
330
2A
100
AcDbVisualStyle
  2
Wireframe
 70
     5
177
     2
291
     0
 71
     0
176
     1
 72
     2
176
     1
 73
     0
176
     1
 90
        0
176
     1
 40
0.6
176
     1
 41
30.0
176
     1
 62
     5
 63
     7
421
 16777215
176
     1
 74
     1
176
     1
 91
        4
176
     1
 64
     7
176
     1
 65
   257
176
     1
 75
     1
176
     1
175
     1
176
     1
 42
1.0
176
     1
 92
        0
176
     1
 66
   257
176
     1
 43
1.0
176
     1
 76
     1
176
     1
 77
     6
176
     1
 78
     2
176
     1
 67
     7
176
     1
 79
     3
176
     1
170
     0
176
     1
171
     0
176
     1
290
     0
176
     1
 93
        1
176
     1
 44
0.0
176
     1
173
     0
176
     1
  0
VISUALSTYLE
  5
40
102
{ACAD_REACTORS
330
2A
102
}
102
{ACAD_XDICTIONARY
360
1F7
102
}
330
2A
100
AcDbVisualStyle
  2
X-Ray
 70
    25
177
     2
291
     0
 71
     2
176
     1
 72
     2
176
     1
 73
     1
176
     1
 90
        1
176
     1
 40
0.5
176
     1
 41
30.0
176
     1
 62
     5
 63
     7
421
 16777215
176
     1
 74
     1
176
     1
 91
        0
176
     1
 64
     7
176
     1
 65
   257
176
     1
 75
     1
176
     1
175
     1
176
     1
 42
1.0
176
     1
 92
        8
176
     1
 66
     7
176
     1
 43
1.0
176
     1
 76
     1
176
     1
 77
     6
176
     1
 78
     2
176
     1
 67
     7
176
     1
 79
     3
176
     1
170
     0
176
     1
171
     0
176
     1
290
     0
176
     1
 93
       13
176
     1
 44
0.0
176
     1
173
     0
176
     1
  0
DICTIONARYVAR
  5
1CC
102
{ACAD_REACTORS
330
1CB
102
}
330
1CB
100
DictionaryVariables
280
     0
  1
1:1
  0
DICTIONARYVAR
  5
201
102
{ACAD_REACTORS
330
1CB
102
}
330
1CB
100
DictionaryVariables
280
     0
  1
Standard
  0
DICTIONARYVAR
  5
200
102
{ACAD_REACTORS
330
1CB
102
}
330
1CB
100
DictionaryVariables
280
     0
  1
Standard
  0
DICTIONARY
  5
1FD
330
6A
100
AcDbDictionary
280
     1
281
     1
  3
ACAD_ROUNDTRIP_2008_TABLESTYLE_CELLSTYLEMAP
360
1FE
  0
DICTIONARY
  5
1D5
330
2F
100
AcDbDictionary
280
     1
281
     1
  3
ACAD_XREC_ROUNDTRIP
360
1D6
  0
DICTIONARY
  5
1DB
330
32
100
AcDbDictionary
280
     1
281
     1
  3
ACAD_XREC_ROUNDTRIP
360
1DC
  0
DICTIONARY
  5
1E3
330
36
100
AcDbDictionary
280
     1
281
     1
  3
ACAD_XREC_ROUNDTRIP
360
1E4
  0
DICTIONARY
  5
1EB
330
3A
100
AcDbDictionary
280
     1
281
     1
  3
ACAD_XREC_ROUNDTRIP
360
1EC
  0
DICTIONARY
  5
1DF
330
34
100
AcDbDictionary
280
     1
281
     1
  3
ACAD_XREC_ROUNDTRIP
360
1E0
  0
DICTIONARY
  5
1E1
330
35
100
AcDbDictionary
280
     1
281
     1
  3
ACAD_XREC_ROUNDTRIP
360
1E2
  0
DICTIONARY
  5
1F1
330
3D
100
AcDbDictionary
280
     1
281
     1
  3
ACAD_XREC_ROUNDTRIP
360
1F2
  0
DICTIONARY
  5
1E9
330
39
100
AcDbDictionary
280
     1
281
     1
  3
ACAD_XREC_ROUNDTRIP
360
1EA
  0
DICTIONARY
  5
1CD
330
2B
100
AcDbDictionary
280
     1
281
     1
  3
ACAD_XREC_ROUNDTRIP
360
1CE
  0
DICTIONARY
  5
1CF
330
2C
100
AcDbDictionary
280
     1
281
     1
  3
ACAD_XREC_ROUNDTRIP
360
1D0
  0
DICTIONARY
  5
1D1
330
2D
100
AcDbDictionary
280
     1
281
     1
  3
ACAD_XREC_ROUNDTRIP
360
1D2
  0
DICTIONARY
  5
1D3
330
2E
100
AcDbDictionary
280
     1
281
     1
  3
ACAD_XREC_ROUNDTRIP
360
1D4
  0
DICTIONARY
  5
1D9
330
31
100
AcDbDictionary
280
     1
281
     1
  3
ACAD_XREC_ROUNDTRIP
360
1DA
  0
DICTIONARY
  5
1ED
330
3B
100
AcDbDictionary
280
     1
281
     1
  3
ACAD_XREC_ROUNDTRIP
360
1EE
  0
DICTIONARY
  5
1E7
330
38
100
AcDbDictionary
280
     1
281
     1
  3
ACAD_XREC_ROUNDTRIP
360
1E8
  0
DICTIONARY
  5
1EF
330
3C
100
AcDbDictionary
280
     1
281
     1
  3
ACAD_XREC_ROUNDTRIP
360
1F0
  0
DICTIONARY
  5
1DD
330
33
100
AcDbDictionary
280
     1
281
     1
  3
ACAD_XREC_ROUNDTRIP
360
1DE
  0
DICTIONARY
  5
1FB
330
42
100
AcDbDictionary
280
     1
281
     1
  3
ACAD_XREC_ROUNDTRIP
360
1FC
  0
DICTIONARY
  5
1F9
330
41
100
AcDbDictionary
280
     1
281
     1
  3
ACAD_XREC_ROUNDTRIP
360
1FA
  0
DICTIONARY
  5
1F3
330
3E
100
AcDbDictionary
280
     1
281
     1
  3
ACAD_XREC_ROUNDTRIP
360
1F4
  0
DICTIONARY
  5
1F5
330
3F
100
AcDbDictionary
280
     1
281
     1
  3
ACAD_XREC_ROUNDTRIP
360
1F6
  0
DICTIONARY
  5
1E5
330
37
100
AcDbDictionary
280
     1
281
     1
  3
ACAD_XREC_ROUNDTRIP
360
1E6
  0
DICTIONARY
  5
1D7
330
30
100
AcDbDictionary
280
     1
281
     1
  3
ACAD_XREC_ROUNDTRIP
360
1D8
  0
DICTIONARY
  5
1F7
330
40
100
AcDbDictionary
280
     1
281
     1
  3
ACAD_XREC_ROUNDTRIP
360
1F8
  0
CELLSTYLEMAP
  5
1FE
102
{ACAD_REACTORS
330
1FD
102
}
330
1FD
100
AcDbCellStyleMap
 90
        3
300
CELLSTYLE
  1
TABLEFORMAT_BEGIN
 90
        5
170
     1
 91
        0
 92
    32768
 62
   257
 93
        1
300
CONTENTFORMAT
  1
CONTENTFORMAT_BEGIN
 90
        0
 91
        0
 92
        4
 93
        0
300

 40
0.0
140
1.0
 94
        5
 62
     0
340
11
144
6.0
309
CONTENTFORMAT_END
171
     1
301
MARGIN
  1
CELLMARGIN_BEGIN
 40
1.5
 40
1.5
 40
1.5
 40
1.5
 40
1.5
 40
1.5
309
CELLMARGIN_END
 94
        6
 95
        1
302
GRIDFORMAT
  1
GRIDFORMAT_BEGIN
 90
        0
 91
        1
 62
     0
 92
       -2
340
14
 93
        0
 40
0.045
309
GRIDFORMAT_END
 95
        2
302
GRIDFORMAT
  1
GRIDFORMAT_BEGIN
 90
        0
 91
        1
 62
     0
 92
       -2
340
14
 93
        0
 40
0.045
309
GRIDFORMAT_END
 95
        4
302
GRIDFORMAT
  1
GRIDFORMAT_BEGIN
 90
        0
 91
        1
 62
     0
 92
       -2
340
14
 93
        0
 40
0.045
309
GRIDFORMAT_END
 95
        8
302
GRIDFORMAT
  1
GRIDFORMAT_BEGIN
 90
        0
 91
        1
 62
     0
 92
       -2
340
14
 93
        0
 40
0.045
309
GRIDFORMAT_END
 95
       16
302
GRIDFORMAT
  1
GRIDFORMAT_BEGIN
 90
        0
 91
        1
 62
     0
 92
       -2
340
14
 93
        0
 40
0.045
309
GRIDFORMAT_END
 95
       32
302
GRIDFORMAT
  1
GRIDFORMAT_BEGIN
 90
        0
 91
        1
 62
     0
 92
       -2
340
14
 93
        0
 40
0.045
309
GRIDFORMAT_END
309
TABLEFORMAT_END
  1
CELLSTYLE_BEGIN
 90
        1
 91
        1
300
_TITLE
309
CELLSTYLE_END
300
CELLSTYLE
  1
TABLEFORMAT_BEGIN
 90
        5
170
     1
 91
        0
 92
        0
 62
   257
 93
        1
300
CONTENTFORMAT
  1
CONTENTFORMAT_BEGIN
 90
        0
 91
        0
 92
        4
 93
        0
300

 40
0.0
140
1.0
 94
        5
 62
     0
340
11
144
4.5
309
CONTENTFORMAT_END
171
     1
301
MARGIN
  1
CELLMARGIN_BEGIN
 40
1.5
 40
1.5
 40
1.5
 40
1.5
 40
1.5
 40
1.5
309
CELLMARGIN_END
 94
        6
 95
        1
302
GRIDFORMAT
  1
GRIDFORMAT_BEGIN
 90
        0
 91
        1
 62
     0
 92
       -2
340
14
 93
        0
 40
0.045
309
GRIDFORMAT_END
 95
        2
302
GRIDFORMAT
  1
GRIDFORMAT_BEGIN
 90
        0
 91
        1
 62
     0
 92
       -2
340
14
 93
        0
 40
0.045
309
GRIDFORMAT_END
 95
        4
302
GRIDFORMAT
  1
GRIDFORMAT_BEGIN
 90
        0
 91
        1
 62
     0
 92
       -2
340
14
 93
        0
 40
0.045
309
GRIDFORMAT_END
 95
        8
302
GRIDFORMAT
  1
GRIDFORMAT_BEGIN
 90
        0
 91
        1
 62
     0
 92
       -2
340
14
 93
        0
 40
0.045
309
GRIDFORMAT_END
 95
       16
302
GRIDFORMAT
  1
GRIDFORMAT_BEGIN
 90
        0
 91
        1
 62
     0
 92
       -2
340
14
 93
        0
 40
0.045
309
GRIDFORMAT_END
 95
       32
302
GRIDFORMAT
  1
GRIDFORMAT_BEGIN
 90
        0
 91
        1
 62
     0
 92
       -2
340
14
 93
        0
 40
0.045
309
GRIDFORMAT_END
309
TABLEFORMAT_END
  1
CELLSTYLE_BEGIN
 90
        2
 91
        1
300
_HEADER
309
CELLSTYLE_END
300
CELLSTYLE
  1
TABLEFORMAT_BEGIN
 90
        5
170
     1
 91
        0
 92
        0
 62
   257
 93
        1
300
CONTENTFORMAT
  1
CONTENTFORMAT_BEGIN
 90
        0
 91
        0
 92
        4
 93
        0
300

 40
0.0
140
1.0
 94
        2
 62
     0
340
11
144
4.5
309
CONTENTFORMAT_END
171
     1
301
MARGIN
  1
CELLMARGIN_BEGIN
 40
1.5
 40
1.5
 40
1.5
 40
1.5
 40
1.5
 40
1.5
309
CELLMARGIN_END
 94
        6
 95
        1
302
GRIDFORMAT
  1
GRIDFORMAT_BEGIN
 90
        0
 91
        1
 62
     0
 92
       -2
340
14
 93
        0
 40
0.045
309
GRIDFORMAT_END
 95
        2
302
GRIDFORMAT
  1
GRIDFORMAT_BEGIN
 90
        0
 91
        1
 62
     0
 92
       -2
340
14
 93
        0
 40
0.045
309
GRIDFORMAT_END
 95
        4
302
GRIDFORMAT
  1
GRIDFORMAT_BEGIN
 90
        0
 91
        1
 62
     0
 92
       -2
340
14
 93
        0
 40
0.045
309
GRIDFORMAT_END
 95
        8
302
GRIDFORMAT
  1
GRIDFORMAT_BEGIN
 90
        0
 91
        1
 62
     0
 92
       -2
340
14
 93
        0
 40
0.045
309
GRIDFORMAT_END
 95
       16
302
GRIDFORMAT
  1
GRIDFORMAT_BEGIN
 90
        0
 91
        1
 62
     0
 92
       -2
340
14
 93
        0
 40
0.045
309
GRIDFORMAT_END
 95
       32
302
GRIDFORMAT
  1
GRIDFORMAT_BEGIN
 90
        0
 91
        1
 62
     0
 92
       -2
340
14
 93
        0
 40
0.045
309
GRIDFORMAT_END
309
TABLEFORMAT_END
  1
CELLSTYLE_BEGIN
 90
        3
 91
        2
300
_DATA
309
CELLSTYLE_END
  0
XRECORD
  5
1D6
102
{ACAD_REACTORS
330
1D5
102
}
330
1D5
100
AcDbXrecord
280
     1
102
RTVSPost2010Prop28
280
     1
102
RTVSPost2010PropOp28
 70
     1
102
RTVSPost2010Prop29
280
     1
102
RTVSPost2010PropOp29
 70
     1
102
RTVSPost2010Prop30
280
     0
102
RTVSPost2010PropOp30
 70
     1
102
RTVSPost2010Prop31
280
     0
102
RTVSPost2010PropOp31
 70
     1
102
RTVSPost2010Prop32
280
     0
102
RTVSPost2010PropOp32
 70
     1
102
RTVSPost2010Prop33
280
     0
102
RTVSPost2010PropOp33
 70
     1
102
RTVSPost2010Prop34
280
     0
102
RTVSPost2010PropOp34
 70
     1
102
RTVSPost2010Prop35
280
     0
102
RTVSPost2010PropOp35
 70
     1
102
RTVSPost2010Prop36
280
     0
102
RTVSPost2010PropOp36
 70
     1
102
RTVSPost2010Prop37
 90
       50
102
RTVSPost2010PropOp37
 70
     1
102
RTVSPost2010Prop38
140
0.0
102
RTVSPost2010PropOp38
 70
     1
102
RTVSPost2010Prop39
140
1.0
102
RTVSPost2010PropOp39
 70
     1
102
RTVSPost2010Prop40
 90
        0
102
RTVSPost2010PropOp40
 70
     1
102
RTVSPost2010Prop41ColorIndex
 90
       18
102
RTVSPost2010Prop41ColorRGB
 90
        0
102
RTVSPost2010PropOp41
 70
     1
102
RTVSPost2010Prop42
 90
       50
102
RTVSPost2010PropOp42
 70
     1
102
RTVSPost2010Prop43
 90
        3
102
RTVSPost2010PropOp43
 70
     1
102
RTVSPost2010Prop44ColorIndex
 90
        5
102
RTVSPost2010Prop44ColorRGB
 90
      255
102
RTVSPost2010PropOp44
 70
     1
102
RTVSPost2010Prop45
280
     0
102
RTVSPost2010PropOp45
 70
     1
102
RTVSPost2010Prop46
 90
       50
102
RTVSPost2010PropOp46
 70
     1
102
RTVSPost2010Prop47
 90
       50
102
RTVSPost2010PropOp47
 70
     1
102
RTVSPost2010Prop48
 90
       50
102
RTVSPost2010PropOp48
 70
     1
102
RTVSPost2010Prop49
280
     0
102
RTVSPost2010PropOp49
 70
     1
102
RTVSPost2010Prop50
 90
       50
102
RTVSPost2010PropOp50
 70
     1
102
RTVSPost2010Prop51ColorIndex
 90
      256
102
RTVSPost2010Prop51ColorRGB
 90
-16777216
102
RTVSPost2010PropOp51
 70
     0
102
RTVSPost2010Prop52
140
1.0
102
RTVSPost2010PropOp52
 70
     0
102
RTVSPost2010Prop53
 90
        2
102
RTVSPost2010PropOp53
 70
     1
102
RTVSPost2010Prop54
  1
strokes_ogs.tif
102
RTVSPost2010PropOp54
 70
     1
102
RTVSPost2010Prop55
280
     0
102
RTVSPost2010PropOp55
 70
     1
102
RTVSPost2010Prop56
140
1.0
102
RTVSPost2010PropOp56
 70
     1
102
RTVSPost2010Prop57
140
1.0
102
RTVSPost2010PropOp57
 70
     1
  0
XRECORD
  5
1DC
102
{ACAD_REACTORS
330
1DB
102
}
330
1DB
100
AcDbXrecord
280
     1
102
RTVSPost2010Prop28
280
     0
102
RTVSPost2010PropOp28
 70
     1
102
RTVSPost2010Prop29
280
     1
102
RTVSPost2010PropOp29
 70
     1
102
RTVSPost2010Prop30
280
     1
102
RTVSPost2010PropOp30
 70
     1
102
RTVSPost2010Prop31
280
     0
102
RTVSPost2010PropOp31
 70
     1
102
RTVSPost2010Prop32
280
     0
102
RTVSPost2010PropOp32
 70
     1
102
RTVSPost2010Prop33
280
     0
102
RTVSPost2010PropOp33
 70
     1
102
RTVSPost2010Prop34
280
     0
102
RTVSPost2010PropOp34
 70
     1
102
RTVSPost2010Prop35
280
     0
102
RTVSPost2010PropOp35
 70
     1
102
RTVSPost2010Prop36
280
     0
102
RTVSPost2010PropOp36
 70
     1
102
RTVSPost2010Prop37
 90
       50
102
RTVSPost2010PropOp37
 70
     1
102
RTVSPost2010Prop38
140
0.0
102
RTVSPost2010PropOp38
 70
     1
102
RTVSPost2010Prop39
140
1.0
102
RTVSPost2010PropOp39
 70
     1
102
RTVSPost2010Prop40
 90
        0
102
RTVSPost2010PropOp40
 70
     1
102
RTVSPost2010Prop41ColorIndex
 90
       18
102
RTVSPost2010Prop41ColorRGB
 90
        0
102
RTVSPost2010PropOp41
 70
     1
102
RTVSPost2010Prop42
 90
       50
102
RTVSPost2010PropOp42
 70
     1
102
RTVSPost2010Prop43
 90
        3
102
RTVSPost2010PropOp43
 70
     1
102
RTVSPost2010Prop44ColorIndex
 90
        5
102
RTVSPost2010Prop44ColorRGB
 90
      255
102
RTVSPost2010PropOp44
 70
     1
102
RTVSPost2010Prop45
280
     0
102
RTVSPost2010PropOp45
 70
     1
102
RTVSPost2010Prop46
 90
       50
102
RTVSPost2010PropOp46
 70
     1
102
RTVSPost2010Prop47
 90
       50
102
RTVSPost2010PropOp47
 70
     1
102
RTVSPost2010Prop48
 90
       50
102
RTVSPost2010PropOp48
 70
     1
102
RTVSPost2010Prop49
280
     0
102
RTVSPost2010PropOp49
 70
     1
102
RTVSPost2010Prop50
 90
       50
102
RTVSPost2010PropOp50
 70
     1
102
RTVSPost2010Prop51ColorIndex
 90
      256
102
RTVSPost2010Prop51ColorRGB
 90
-16777216
102
RTVSPost2010PropOp51
 70
     0
102
RTVSPost2010Prop52
140
1.0
102
RTVSPost2010PropOp52
 70
     0
102
RTVSPost2010Prop53
 90
        2
102
RTVSPost2010PropOp53
 70
     1
102
RTVSPost2010Prop54
  1
strokes_ogs.tif
102
RTVSPost2010PropOp54
 70
     1
102
RTVSPost2010Prop55
280
     0
102
RTVSPost2010PropOp55
 70
     1
102
RTVSPost2010Prop56
140
1.0
102
RTVSPost2010PropOp56
 70
     1
102
RTVSPost2010Prop57
140
1.0
102
RTVSPost2010PropOp57
 70
     1
  0
XRECORD
  5
1E4
102
{ACAD_REACTORS
330
1E3
102
}
330
1E3
100
AcDbXrecord
280
     1
102
RTVSPost2010Prop28
280
     0
102
RTVSPost2010PropOp28
 70
     1
102
RTVSPost2010Prop29
280
     1
102
RTVSPost2010PropOp29
 70
     1
102
RTVSPost2010Prop30
280
     1
102
RTVSPost2010PropOp30
 70
     1
102
RTVSPost2010Prop31
280
     0
102
RTVSPost2010PropOp31
 70
     1
102
RTVSPost2010Prop32
280
     0
102
RTVSPost2010PropOp32
 70
     1
102
RTVSPost2010Prop33
280
     0
102
RTVSPost2010PropOp33
 70
     1
102
RTVSPost2010Prop34
280
     0
102
RTVSPost2010PropOp34
 70
     1
102
RTVSPost2010Prop35
280
     0
102
RTVSPost2010PropOp35
 70
     1
102
RTVSPost2010Prop36
280
     0
102
RTVSPost2010PropOp36
 70
     1
102
RTVSPost2010Prop37
 90
       50
102
RTVSPost2010PropOp37
 70
     1
102
RTVSPost2010Prop38
140
0.0
102
RTVSPost2010PropOp38
 70
     1
102
RTVSPost2010Prop39
140
1.0
102
RTVSPost2010PropOp39
 70
     1
102
RTVSPost2010Prop40
 90
        0
102
RTVSPost2010PropOp40
 70
     1
102
RTVSPost2010Prop41ColorIndex
 90
       18
102
RTVSPost2010Prop41ColorRGB
 90
        0
102
RTVSPost2010PropOp41
 70
     1
102
RTVSPost2010Prop42
 90
       50
102
RTVSPost2010PropOp42
 70
     1
102
RTVSPost2010Prop43
 90
        3
102
RTVSPost2010PropOp43
 70
     1
102
RTVSPost2010Prop44ColorIndex
 90
        5
102
RTVSPost2010Prop44ColorRGB
 90
      255
102
RTVSPost2010PropOp44
 70
     1
102
RTVSPost2010Prop45
280
     0
102
RTVSPost2010PropOp45
 70
     1
102
RTVSPost2010Prop46
 90
       50
102
RTVSPost2010PropOp46
 70
     1
102
RTVSPost2010Prop47
 90
       50
102
RTVSPost2010PropOp47
 70
     1
102
RTVSPost2010Prop48
 90
       50
102
RTVSPost2010PropOp48
 70
     1
102
RTVSPost2010Prop49
280
     0
102
RTVSPost2010PropOp49
 70
     1
102
RTVSPost2010Prop50
 90
       50
102
RTVSPost2010PropOp50
 70
     1
102
RTVSPost2010Prop51ColorIndex
 90
      256
102
RTVSPost2010Prop51ColorRGB
 90
-16777216
102
RTVSPost2010PropOp51
 70
     0
102
RTVSPost2010Prop52
140
1.0
102
RTVSPost2010PropOp52
 70
     0
102
RTVSPost2010Prop53
 90
        2
102
RTVSPost2010PropOp53
 70
     1
102
RTVSPost2010Prop54
  1
strokes_ogs.tif
102
RTVSPost2010PropOp54
 70
     1
102
RTVSPost2010Prop55
280
     0
102
RTVSPost2010PropOp55
 70
     1
102
RTVSPost2010Prop56
140
1.0
102
RTVSPost2010PropOp56
 70
     1
102
RTVSPost2010Prop57
140
1.0
102
RTVSPost2010PropOp57
 70
     1
  0
XRECORD
  5
1EC
102
{ACAD_REACTORS
330
1EB
102
}
330
1EB
100
AcDbXrecord
280
     1
102
RTVSPost2010Prop28
280
     0
102
RTVSPost2010PropOp28
 70
     1
102
RTVSPost2010Prop29
280
     1
102
RTVSPost2010PropOp29
 70
     1
102
RTVSPost2010Prop30
280
     1
102
RTVSPost2010PropOp30
 70
     1
102
RTVSPost2010Prop31
280
     0
102
RTVSPost2010PropOp31
 70
     1
102
RTVSPost2010Prop32
280
     0
102
RTVSPost2010PropOp32
 70
     1
102
RTVSPost2010Prop33
280
     0
102
RTVSPost2010PropOp33
 70
     1
102
RTVSPost2010Prop34
280
     0
102
RTVSPost2010PropOp34
 70
     1
102
RTVSPost2010Prop35
280
     0
102
RTVSPost2010PropOp35
 70
     1
102
RTVSPost2010Prop36
280
     0
102
RTVSPost2010PropOp36
 70
     1
102
RTVSPost2010Prop37
 90
       50
102
RTVSPost2010PropOp37
 70
     1
102
RTVSPost2010Prop38
140
0.0
102
RTVSPost2010PropOp38
 70
     1
102
RTVSPost2010Prop39
140
1.0
102
RTVSPost2010PropOp39
 70
     1
102
RTVSPost2010Prop40
 90
        0
102
RTVSPost2010PropOp40
 70
     1
102
RTVSPost2010Prop41ColorIndex
 90
       18
102
RTVSPost2010Prop41ColorRGB
 90
        0
102
RTVSPost2010PropOp41
 70
     1
102
RTVSPost2010Prop42
 90
       50
102
RTVSPost2010PropOp42
 70
     1
102
RTVSPost2010Prop43
 90
        3
102
RTVSPost2010PropOp43
 70
     1
102
RTVSPost2010Prop44ColorIndex
 90
        5
102
RTVSPost2010Prop44ColorRGB
 90
      255
102
RTVSPost2010PropOp44
 70
     1
102
RTVSPost2010Prop45
280
     0
102
RTVSPost2010PropOp45
 70
     1
102
RTVSPost2010Prop46
 90
       50
102
RTVSPost2010PropOp46
 70
     1
102
RTVSPost2010Prop47
 90
       50
102
RTVSPost2010PropOp47
 70
     1
102
RTVSPost2010Prop48
 90
       50
102
RTVSPost2010PropOp48
 70
     1
102
RTVSPost2010Prop49
280
     0
102
RTVSPost2010PropOp49
 70
     1
102
RTVSPost2010Prop50
 90
       50
102
RTVSPost2010PropOp50
 70
     1
102
RTVSPost2010Prop51ColorIndex
 90
      256
102
RTVSPost2010Prop51ColorRGB
 90
-16777216
102
RTVSPost2010PropOp51
 70
     0
102
RTVSPost2010Prop52
140
1.0
102
RTVSPost2010PropOp52
 70
     0
102
RTVSPost2010Prop53
 90
        2
102
RTVSPost2010PropOp53
 70
     1
102
RTVSPost2010Prop54
  1
strokes_ogs.tif
102
RTVSPost2010PropOp54
 70
     1
102
RTVSPost2010Prop55
280
     0
102
RTVSPost2010PropOp55
 70
     1
102
RTVSPost2010Prop56
140
1.0
102
RTVSPost2010PropOp56
 70
     1
102
RTVSPost2010Prop57
140
1.0
102
RTVSPost2010PropOp57
 70
     1
  0
XRECORD
  5
1E0
102
{ACAD_REACTORS
330
1DF
102
}
330
1DF
100
AcDbXrecord
280
     1
102
RTVSPost2010Prop28
280
     0
102
RTVSPost2010PropOp28
 70
     1
102
RTVSPost2010Prop29
280
     1
102
RTVSPost2010PropOp29
 70
     1
102
RTVSPost2010Prop30
280
     1
102
RTVSPost2010PropOp30
 70
     1
102
RTVSPost2010Prop31
280
     0
102
RTVSPost2010PropOp31
 70
     1
102
RTVSPost2010Prop32
280
     0
102
RTVSPost2010PropOp32
 70
     1
102
RTVSPost2010Prop33
280
     0
102
RTVSPost2010PropOp33
 70
     1
102
RTVSPost2010Prop34
280
     0
102
RTVSPost2010PropOp34
 70
     1
102
RTVSPost2010Prop35
280
     0
102
RTVSPost2010PropOp35
 70
     1
102
RTVSPost2010Prop36
280
     0
102
RTVSPost2010PropOp36
 70
     1
102
RTVSPost2010Prop37
 90
       50
102
RTVSPost2010PropOp37
 70
     1
102
RTVSPost2010Prop38
140
0.0
102
RTVSPost2010PropOp38
 70
     1
102
RTVSPost2010Prop39
140
1.0
102
RTVSPost2010PropOp39
 70
     1
102
RTVSPost2010Prop40
 90
        0
102
RTVSPost2010PropOp40
 70
     1
102
RTVSPost2010Prop41ColorIndex
 90
       18
102
RTVSPost2010Prop41ColorRGB
 90
        0
102
RTVSPost2010PropOp41
 70
     1
102
RTVSPost2010Prop42
 90
       50
102
RTVSPost2010PropOp42
 70
     1
102
RTVSPost2010Prop43
 90
        3
102
RTVSPost2010PropOp43
 70
     1
102
RTVSPost2010Prop44ColorIndex
 90
        5
102
RTVSPost2010Prop44ColorRGB
 90
      255
102
RTVSPost2010PropOp44
 70
     1
102
RTVSPost2010Prop45
280
     0
102
RTVSPost2010PropOp45
 70
     1
102
RTVSPost2010Prop46
 90
       50
102
RTVSPost2010PropOp46
 70
     1
102
RTVSPost2010Prop47
 90
       50
102
RTVSPost2010PropOp47
 70
     1
102
RTVSPost2010Prop48
 90
       50
102
RTVSPost2010PropOp48
 70
     1
102
RTVSPost2010Prop49
280
     0
102
RTVSPost2010PropOp49
 70
     1
102
RTVSPost2010Prop50
 90
       50
102
RTVSPost2010PropOp50
 70
     1
102
RTVSPost2010Prop51ColorIndex
 90
      256
102
RTVSPost2010Prop51ColorRGB
 90
-16777216
102
RTVSPost2010PropOp51
 70
     0
102
RTVSPost2010Prop52
140
1.0
102
RTVSPost2010PropOp52
 70
     0
102
RTVSPost2010Prop53
 90
        2
102
RTVSPost2010PropOp53
 70
     1
102
RTVSPost2010Prop54
  1
strokes_ogs.tif
102
RTVSPost2010PropOp54
 70
     1
102
RTVSPost2010Prop55
280
     0
102
RTVSPost2010PropOp55
 70
     1
102
RTVSPost2010Prop56
140
1.0
102
RTVSPost2010PropOp56
 70
     1
102
RTVSPost2010Prop57
140
1.0
102
RTVSPost2010PropOp57
 70
     1
  0
XRECORD
  5
1E2
102
{ACAD_REACTORS
330
1E1
102
}
330
1E1
100
AcDbXrecord
280
     1
102
RTVSPost2010Prop28
280
     0
102
RTVSPost2010PropOp28
 70
     1
102
RTVSPost2010Prop29
280
     1
102
RTVSPost2010PropOp29
 70
     1
102
RTVSPost2010Prop30
280
     1
102
RTVSPost2010PropOp30
 70
     1
102
RTVSPost2010Prop31
280
     0
102
RTVSPost2010PropOp31
 70
     1
102
RTVSPost2010Prop32
280
     0
102
RTVSPost2010PropOp32
 70
     1
102
RTVSPost2010Prop33
280
     0
102
RTVSPost2010PropOp33
 70
     1
102
RTVSPost2010Prop34
280
     0
102
RTVSPost2010PropOp34
 70
     1
102
RTVSPost2010Prop35
280
     0
102
RTVSPost2010PropOp35
 70
     1
102
RTVSPost2010Prop36
280
     0
102
RTVSPost2010PropOp36
 70
     1
102
RTVSPost2010Prop37
 90
       50
102
RTVSPost2010PropOp37
 70
     1
102
RTVSPost2010Prop38
140
0.0
102
RTVSPost2010PropOp38
 70
     1
102
RTVSPost2010Prop39
140
1.0
102
RTVSPost2010PropOp39
 70
     1
102
RTVSPost2010Prop40
 90
        0
102
RTVSPost2010PropOp40
 70
     1
102
RTVSPost2010Prop41ColorIndex
 90
       18
102
RTVSPost2010Prop41ColorRGB
 90
        0
102
RTVSPost2010PropOp41
 70
     1
102
RTVSPost2010Prop42
 90
       50
102
RTVSPost2010PropOp42
 70
     1
102
RTVSPost2010Prop43
 90
        3
102
RTVSPost2010PropOp43
 70
     1
102
RTVSPost2010Prop44ColorIndex
 90
        5
102
RTVSPost2010Prop44ColorRGB
 90
      255
102
RTVSPost2010PropOp44
 70
     1
102
RTVSPost2010Prop45
280
     0
102
RTVSPost2010PropOp45
 70
     1
102
RTVSPost2010Prop46
 90
       50
102
RTVSPost2010PropOp46
 70
     1
102
RTVSPost2010Prop47
 90
       50
102
RTVSPost2010PropOp47
 70
     1
102
RTVSPost2010Prop48
 90
       50
102
RTVSPost2010PropOp48
 70
     1
102
RTVSPost2010Prop49
280
     0
102
RTVSPost2010PropOp49
 70
     1
102
RTVSPost2010Prop50
 90
       50
102
RTVSPost2010PropOp50
 70
     1
102
RTVSPost2010Prop51ColorIndex
 90
      256
102
RTVSPost2010Prop51ColorRGB
 90
-16777216
102
RTVSPost2010PropOp51
 70
     0
102
RTVSPost2010Prop52
140
1.0
102
RTVSPost2010PropOp52
 70
     0
102
RTVSPost2010Prop53
 90
        2
102
RTVSPost2010PropOp53
 70
     1
102
RTVSPost2010Prop54
  1
strokes_ogs.tif
102
RTVSPost2010PropOp54
 70
     1
102
RTVSPost2010Prop55
280
     0
102
RTVSPost2010PropOp55
 70
     1
102
RTVSPost2010Prop56
140
1.0
102
RTVSPost2010PropOp56
 70
     1
102
RTVSPost2010Prop57
140
1.0
102
RTVSPost2010PropOp57
 70
     1
  0
XRECORD
  5
1F2
102
{ACAD_REACTORS
330
1F1
102
}
330
1F1
100
AcDbXrecord
280
     1
102
RTVSPost2010Prop28
280
     0
102
RTVSPost2010PropOp28
 70
     0
102
RTVSPost2010Prop29
280
     1
102
RTVSPost2010PropOp29
 70
     0
102
RTVSPost2010Prop30
280
     1
102
RTVSPost2010PropOp30
 70
     0
102
RTVSPost2010Prop31
280
     0
102
RTVSPost2010PropOp31
 70
     0
102
RTVSPost2010Prop32
280
     0
102
RTVSPost2010PropOp32
 70
     0
102
RTVSPost2010Prop33
280
     0
102
RTVSPost2010PropOp33
 70
     0
102
RTVSPost2010Prop34
280
     0
102
RTVSPost2010PropOp34
 70
     0
102
RTVSPost2010Prop35
280
     0
102
RTVSPost2010PropOp35
 70
     0
102
RTVSPost2010Prop36
280
     0
102
RTVSPost2010PropOp36
 70
     0
102
RTVSPost2010Prop37
 90
       50
102
RTVSPost2010PropOp37
 70
     0
102
RTVSPost2010Prop38
140
0.0
102
RTVSPost2010PropOp38
 70
     0
102
RTVSPost2010Prop39
140
1.0
102
RTVSPost2010PropOp39
 70
     0
102
RTVSPost2010Prop40
 90
        0
102
RTVSPost2010PropOp40
 70
     0
102
RTVSPost2010Prop41ColorIndex
 90
       18
102
RTVSPost2010Prop41ColorRGB
 90
        0
102
RTVSPost2010PropOp41
 70
     0
102
RTVSPost2010Prop42
 90
       50
102
RTVSPost2010PropOp42
 70
     0
102
RTVSPost2010Prop43
 90
        3
102
RTVSPost2010PropOp43
 70
     0
102
RTVSPost2010Prop44ColorIndex
 90
        5
102
RTVSPost2010Prop44ColorRGB
 90
      255
102
RTVSPost2010PropOp44
 70
     0
102
RTVSPost2010Prop45
280
     0
102
RTVSPost2010PropOp45
 70
     0
102
RTVSPost2010Prop46
 90
       50
102
RTVSPost2010PropOp46
 70
     0
102
RTVSPost2010Prop47
 90
       50
102
RTVSPost2010PropOp47
 70
     0
102
RTVSPost2010Prop48
 90
       50
102
RTVSPost2010PropOp48
 70
     0
102
RTVSPost2010Prop49
280
     0
102
RTVSPost2010PropOp49
 70
     0
102
RTVSPost2010Prop50
 90
       50
102
RTVSPost2010PropOp50
 70
     0
102
RTVSPost2010Prop51ColorIndex
 90
      256
102
RTVSPost2010Prop51ColorRGB
 90
-16777216
102
RTVSPost2010PropOp51
 70
     0
102
RTVSPost2010Prop52
140
1.0
102
RTVSPost2010PropOp52
 70
     0
102
RTVSPost2010Prop53
 90
        2
102
RTVSPost2010PropOp53
 70
     0
102
RTVSPost2010Prop54
  1
strokes_ogs.tif
102
RTVSPost2010PropOp54
 70
     0
102
RTVSPost2010Prop55
280
     0
102
RTVSPost2010PropOp55
 70
     0
102
RTVSPost2010Prop56
140
1.0
102
RTVSPost2010PropOp56
 70
     0
102
RTVSPost2010Prop57
140
1.0
102
RTVSPost2010PropOp57
 70
     0
  0
XRECORD
  5
1EA
102
{ACAD_REACTORS
330
1E9
102
}
330
1E9
100
AcDbXrecord
280
     1
102
RTVSPost2010Prop28
280
     0
102
RTVSPost2010PropOp28
 70
     1
102
RTVSPost2010Prop29
280
     1
102
RTVSPost2010PropOp29
 70
     1
102
RTVSPost2010Prop30
280
     1
102
RTVSPost2010PropOp30
 70
     1
102
RTVSPost2010Prop31
280
     0
102
RTVSPost2010PropOp31
 70
     1
102
RTVSPost2010Prop32
280
     0
102
RTVSPost2010PropOp32
 70
     1
102
RTVSPost2010Prop33
280
     0
102
RTVSPost2010PropOp33
 70
     1
102
RTVSPost2010Prop34
280
     0
102
RTVSPost2010PropOp34
 70
     1
102
RTVSPost2010Prop35
280
     0
102
RTVSPost2010PropOp35
 70
     1
102
RTVSPost2010Prop36
280
     0
102
RTVSPost2010PropOp36
 70
     1
102
RTVSPost2010Prop37
 90
       50
102
RTVSPost2010PropOp37
 70
     1
102
RTVSPost2010Prop38
140
0.0
102
RTVSPost2010PropOp38
 70
     1
102
RTVSPost2010Prop39
140
1.0
102
RTVSPost2010PropOp39
 70
     1
102
RTVSPost2010Prop40
 90
        0
102
RTVSPost2010PropOp40
 70
     1
102
RTVSPost2010Prop41ColorIndex
 90
       18
102
RTVSPost2010Prop41ColorRGB
 90
        0
102
RTVSPost2010PropOp41
 70
     1
102
RTVSPost2010Prop42
 90
       50
102
RTVSPost2010PropOp42
 70
     1
102
RTVSPost2010Prop43
 90
        3
102
RTVSPost2010PropOp43
 70
     1
102
RTVSPost2010Prop44ColorIndex
 90
        5
102
RTVSPost2010Prop44ColorRGB
 90
      255
102
RTVSPost2010PropOp44
 70
     1
102
RTVSPost2010Prop45
280
     0
102
RTVSPost2010PropOp45
 70
     1
102
RTVSPost2010Prop46
 90
       50
102
RTVSPost2010PropOp46
 70
     1
102
RTVSPost2010Prop47
 90
       50
102
RTVSPost2010PropOp47
 70
     1
102
RTVSPost2010Prop48
 90
       50
102
RTVSPost2010PropOp48
 70
     1
102
RTVSPost2010Prop49
280
     0
102
RTVSPost2010PropOp49
 70
     1
102
RTVSPost2010Prop50
 90
       50
102
RTVSPost2010PropOp50
 70
     1
102
RTVSPost2010Prop51ColorIndex
 90
      256
102
RTVSPost2010Prop51ColorRGB
 90
-16777216
102
RTVSPost2010PropOp51
 70
     0
102
RTVSPost2010Prop52
140
1.0
102
RTVSPost2010PropOp52
 70
     0
102
RTVSPost2010Prop53
 90
        2
102
RTVSPost2010PropOp53
 70
     1
102
RTVSPost2010Prop54
  1
strokes_ogs.tif
102
RTVSPost2010PropOp54
 70
     1
102
RTVSPost2010Prop55
280
     0
102
RTVSPost2010PropOp55
 70
     1
102
RTVSPost2010Prop56
140
1.0
102
RTVSPost2010PropOp56
 70
     1
102
RTVSPost2010Prop57
140
1.0
102
RTVSPost2010PropOp57
 70
     1
  0
XRECORD
  5
1CE
102
{ACAD_REACTORS
330
1CD
102
}
330
1CD
100
AcDbXrecord
280
     1
102
RTVSPost2010Prop28
280
     0
102
RTVSPost2010PropOp28
 70
     1
102
RTVSPost2010Prop29
280
     1
102
RTVSPost2010PropOp29
 70
     1
102
RTVSPost2010Prop30
280
     1
102
RTVSPost2010PropOp30
 70
     1
102
RTVSPost2010Prop31
280
     0
102
RTVSPost2010PropOp31
 70
     1
102
RTVSPost2010Prop32
280
     0
102
RTVSPost2010PropOp32
 70
     1
102
RTVSPost2010Prop33
280
     0
102
RTVSPost2010PropOp33
 70
     1
102
RTVSPost2010Prop34
280
     0
102
RTVSPost2010PropOp34
 70
     1
102
RTVSPost2010Prop35
280
     0
102
RTVSPost2010PropOp35
 70
     1
102
RTVSPost2010Prop36
280
     0
102
RTVSPost2010PropOp36
 70
     1
102
RTVSPost2010Prop37
 90
       50
102
RTVSPost2010PropOp37
 70
     1
102
RTVSPost2010Prop38
140
0.0
102
RTVSPost2010PropOp38
 70
     1
102
RTVSPost2010Prop39
140
1.0
102
RTVSPost2010PropOp39
 70
     1
102
RTVSPost2010Prop40
 90
        0
102
RTVSPost2010PropOp40
 70
     1
102
RTVSPost2010Prop41ColorIndex
 90
       18
102
RTVSPost2010Prop41ColorRGB
 90
        0
102
RTVSPost2010PropOp41
 70
     1
102
RTVSPost2010Prop42
 90
       50
102
RTVSPost2010PropOp42
 70
     1
102
RTVSPost2010Prop43
 90
        3
102
RTVSPost2010PropOp43
 70
     1
102
RTVSPost2010Prop44ColorIndex
 90
        5
102
RTVSPost2010Prop44ColorRGB
 90
      255
102
RTVSPost2010PropOp44
 70
     1
102
RTVSPost2010Prop45
280
     0
102
RTVSPost2010PropOp45
 70
     1
102
RTVSPost2010Prop46
 90
       50
102
RTVSPost2010PropOp46
 70
     1
102
RTVSPost2010Prop47
 90
       50
102
RTVSPost2010PropOp47
 70
     1
102
RTVSPost2010Prop48
 90
       50
102
RTVSPost2010PropOp48
 70
     1
102
RTVSPost2010Prop49
280
     0
102
RTVSPost2010PropOp49
 70
     1
102
RTVSPost2010Prop50
 90
       50
102
RTVSPost2010PropOp50
 70
     1
102
RTVSPost2010Prop51ColorIndex
 90
      256
102
RTVSPost2010Prop51ColorRGB
 90
-16777216
102
RTVSPost2010PropOp51
 70
     0
102
RTVSPost2010Prop52
140
1.0
102
RTVSPost2010PropOp52
 70
     0
102
RTVSPost2010Prop53
 90
        2
102
RTVSPost2010PropOp53
 70
     1
102
RTVSPost2010Prop54
  1
strokes_ogs.tif
102
RTVSPost2010PropOp54
 70
     1
102
RTVSPost2010Prop55
280
     0
102
RTVSPost2010PropOp55
 70
     1
102
RTVSPost2010Prop56
140
1.0
102
RTVSPost2010PropOp56
 70
     1
102
RTVSPost2010Prop57
140
1.0
102
RTVSPost2010PropOp57
 70
     1
  0
XRECORD
  5
1D0
102
{ACAD_REACTORS
330
1CF
102
}
330
1CF
100
AcDbXrecord
280
     1
102
RTVSPost2010Prop28
280
     0
102
RTVSPost2010PropOp28
 70
     1
102
RTVSPost2010Prop29
280
     1
102
RTVSPost2010PropOp29
 70
     1
102
RTVSPost2010Prop30
280
     1
102
RTVSPost2010PropOp30
 70
     1
102
RTVSPost2010Prop31
280
     0
102
RTVSPost2010PropOp31
 70
     1
102
RTVSPost2010Prop32
280
     0
102
RTVSPost2010PropOp32
 70
     1
102
RTVSPost2010Prop33
280
     0
102
RTVSPost2010PropOp33
 70
     1
102
RTVSPost2010Prop34
280
     0
102
RTVSPost2010PropOp34
 70
     1
102
RTVSPost2010Prop35
280
     0
102
RTVSPost2010PropOp35
 70
     1
102
RTVSPost2010Prop36
280
     0
102
RTVSPost2010PropOp36
 70
     1
102
RTVSPost2010Prop37
 90
       50
102
RTVSPost2010PropOp37
 70
     1
102
RTVSPost2010Prop38
140
0.0
102
RTVSPost2010PropOp38
 70
     1
102
RTVSPost2010Prop39
140
1.0
102
RTVSPost2010PropOp39
 70
     1
102
RTVSPost2010Prop40
 90
        0
102
RTVSPost2010PropOp40
 70
     1
102
RTVSPost2010Prop41ColorIndex
 90
       18
102
RTVSPost2010Prop41ColorRGB
 90
        0
102
RTVSPost2010PropOp41
 70
     1
102
RTVSPost2010Prop42
 90
       50
102
RTVSPost2010PropOp42
 70
     1
102
RTVSPost2010Prop43
 90
        3
102
RTVSPost2010PropOp43
 70
     1
102
RTVSPost2010Prop44ColorIndex
 90
        5
102
RTVSPost2010Prop44ColorRGB
 90
      255
102
RTVSPost2010PropOp44
 70
     1
102
RTVSPost2010Prop45
280
     0
102
RTVSPost2010PropOp45
 70
     1
102
RTVSPost2010Prop46
 90
       50
102
RTVSPost2010PropOp46
 70
     1
102
RTVSPost2010Prop47
 90
       50
102
RTVSPost2010PropOp47
 70
     1
102
RTVSPost2010Prop48
 90
       50
102
RTVSPost2010PropOp48
 70
     1
102
RTVSPost2010Prop49
280
     0
102
RTVSPost2010PropOp49
 70
     1
102
RTVSPost2010Prop50
 90
       50
102
RTVSPost2010PropOp50
 70
     1
102
RTVSPost2010Prop51ColorIndex
 90
      256
102
RTVSPost2010Prop51ColorRGB
 90
-16777216
102
RTVSPost2010PropOp51
 70
     0
102
RTVSPost2010Prop52
140
1.0
102
RTVSPost2010PropOp52
 70
     0
102
RTVSPost2010Prop53
 90
        2
102
RTVSPost2010PropOp53
 70
     1
102
RTVSPost2010Prop54
  1
strokes_ogs.tif
102
RTVSPost2010PropOp54
 70
     1
102
RTVSPost2010Prop55
280
     0
102
RTVSPost2010PropOp55
 70
     1
102
RTVSPost2010Prop56
140
1.0
102
RTVSPost2010PropOp56
 70
     1
102
RTVSPost2010Prop57
140
1.0
102
RTVSPost2010PropOp57
 70
     1
  0
XRECORD
  5
1D2
102
{ACAD_REACTORS
330
1D1
102
}
330
1D1
100
AcDbXrecord
280
     1
102
RTVSPost2010Prop28
280
     0
102
RTVSPost2010PropOp28
 70
     1
102
RTVSPost2010Prop29
280
     1
102
RTVSPost2010PropOp29
 70
     1
102
RTVSPost2010Prop30
280
     1
102
RTVSPost2010PropOp30
 70
     1
102
RTVSPost2010Prop31
280
     0
102
RTVSPost2010PropOp31
 70
     1
102
RTVSPost2010Prop32
280
     0
102
RTVSPost2010PropOp32
 70
     1
102
RTVSPost2010Prop33
280
     0
102
RTVSPost2010PropOp33
 70
     1
102
RTVSPost2010Prop34
280
     0
102
RTVSPost2010PropOp34
 70
     1
102
RTVSPost2010Prop35
280
     0
102
RTVSPost2010PropOp35
 70
     1
102
RTVSPost2010Prop36
280
     0
102
RTVSPost2010PropOp36
 70
     1
102
RTVSPost2010Prop37
 90
       50
102
RTVSPost2010PropOp37
 70
     1
102
RTVSPost2010Prop38
140
0.0
102
RTVSPost2010PropOp38
 70
     1
102
RTVSPost2010Prop39
140
1.0
102
RTVSPost2010PropOp39
 70
     1
102
RTVSPost2010Prop40
 90
        0
102
RTVSPost2010PropOp40
 70
     1
102
RTVSPost2010Prop41ColorIndex
 90
       18
102
RTVSPost2010Prop41ColorRGB
 90
        0
102
RTVSPost2010PropOp41
 70
     1
102
RTVSPost2010Prop42
 90
       50
102
RTVSPost2010PropOp42
 70
     1
102
RTVSPost2010Prop43
 90
        3
102
RTVSPost2010PropOp43
 70
     1
102
RTVSPost2010Prop44ColorIndex
 90
        5
102
RTVSPost2010Prop44ColorRGB
 90
      255
102
RTVSPost2010PropOp44
 70
     1
102
RTVSPost2010Prop45
280
     0
102
RTVSPost2010PropOp45
 70
     1
102
RTVSPost2010Prop46
 90
       50
102
RTVSPost2010PropOp46
 70
     1
102
RTVSPost2010Prop47
 90
       50
102
RTVSPost2010PropOp47
 70
     1
102
RTVSPost2010Prop48
 90
       50
102
RTVSPost2010PropOp48
 70
     1
102
RTVSPost2010Prop49
280
     0
102
RTVSPost2010PropOp49
 70
     1
102
RTVSPost2010Prop50
 90
       50
102
RTVSPost2010PropOp50
 70
     1
102
RTVSPost2010Prop51ColorIndex
 90
      256
102
RTVSPost2010Prop51ColorRGB
 90
-16777216
102
RTVSPost2010PropOp51
 70
     0
102
RTVSPost2010Prop52
140
1.0
102
RTVSPost2010PropOp52
 70
     0
102
RTVSPost2010Prop53
 90
        2
102
RTVSPost2010PropOp53
 70
     1
102
RTVSPost2010Prop54
  1
strokes_ogs.tif
102
RTVSPost2010PropOp54
 70
     1
102
RTVSPost2010Prop55
280
     0
102
RTVSPost2010PropOp55
 70
     1
102
RTVSPost2010Prop56
140
1.0
102
RTVSPost2010PropOp56
 70
     1
102
RTVSPost2010Prop57
140
1.0
102
RTVSPost2010PropOp57
 70
     1
  0
XRECORD
  5
1D4
102
{ACAD_REACTORS
330
1D3
102
}
330
1D3
100
AcDbXrecord
280
     1
102
RTVSPost2010Prop28
280
     0
102
RTVSPost2010PropOp28
 70
     1
102
RTVSPost2010Prop29
280
     1
102
RTVSPost2010PropOp29
 70
     1
102
RTVSPost2010Prop30
280
     1
102
RTVSPost2010PropOp30
 70
     1
102
RTVSPost2010Prop31
280
     0
102
RTVSPost2010PropOp31
 70
     1
102
RTVSPost2010Prop32
280
     0
102
RTVSPost2010PropOp32
 70
     1
102
RTVSPost2010Prop33
280
     0
102
RTVSPost2010PropOp33
 70
     1
102
RTVSPost2010Prop34
280
     0
102
RTVSPost2010PropOp34
 70
     1
102
RTVSPost2010Prop35
280
     0
102
RTVSPost2010PropOp35
 70
     1
102
RTVSPost2010Prop36
280
     0
102
RTVSPost2010PropOp36
 70
     1
102
RTVSPost2010Prop37
 90
       50
102
RTVSPost2010PropOp37
 70
     1
102
RTVSPost2010Prop38
140
0.0
102
RTVSPost2010PropOp38
 70
     1
102
RTVSPost2010Prop39
140
1.0
102
RTVSPost2010PropOp39
 70
     1
102
RTVSPost2010Prop40
 90
        0
102
RTVSPost2010PropOp40
 70
     1
102
RTVSPost2010Prop41ColorIndex
 90
       18
102
RTVSPost2010Prop41ColorRGB
 90
        0
102
RTVSPost2010PropOp41
 70
     1
102
RTVSPost2010Prop42
 90
       50
102
RTVSPost2010PropOp42
 70
     1
102
RTVSPost2010Prop43
 90
        3
102
RTVSPost2010PropOp43
 70
     1
102
RTVSPost2010Prop44ColorIndex
 90
        5
102
RTVSPost2010Prop44ColorRGB
 90
      255
102
RTVSPost2010PropOp44
 70
     1
102
RTVSPost2010Prop45
280
     0
102
RTVSPost2010PropOp45
 70
     1
102
RTVSPost2010Prop46
 90
       50
102
RTVSPost2010PropOp46
 70
     1
102
RTVSPost2010Prop47
 90
       50
102
RTVSPost2010PropOp47
 70
     1
102
RTVSPost2010Prop48
 90
       50
102
RTVSPost2010PropOp48
 70
     1
102
RTVSPost2010Prop49
280
     0
102
RTVSPost2010PropOp49
 70
     1
102
RTVSPost2010Prop50
 90
       50
102
RTVSPost2010PropOp50
 70
     1
102
RTVSPost2010Prop51ColorIndex
 90
      256
102
RTVSPost2010Prop51ColorRGB
 90
-16777216
102
RTVSPost2010PropOp51
 70
     0
102
RTVSPost2010Prop52
140
1.0
102
RTVSPost2010PropOp52
 70
     0
102
RTVSPost2010Prop53
 90
        2
102
RTVSPost2010PropOp53
 70
     1
102
RTVSPost2010Prop54
  1
strokes_ogs.tif
102
RTVSPost2010PropOp54
 70
     1
102
RTVSPost2010Prop55
280
     0
102
RTVSPost2010PropOp55
 70
     1
102
RTVSPost2010Prop56
140
1.0
102
RTVSPost2010PropOp56
 70
     1
102
RTVSPost2010Prop57
140
1.0
102
RTVSPost2010PropOp57
 70
     1
  0
XRECORD
  5
1DA
102
{ACAD_REACTORS
330
1D9
102
}
330
1D9
100
AcDbXrecord
280
     1
102
RTVSPost2010Prop28
280
     0
102
RTVSPost2010PropOp28
 70
     1
102
RTVSPost2010Prop29
280
     1
102
RTVSPost2010PropOp29
 70
     1
102
RTVSPost2010Prop30
280
     1
102
RTVSPost2010PropOp30
 70
     1
102
RTVSPost2010Prop31
280
     0
102
RTVSPost2010PropOp31
 70
     1
102
RTVSPost2010Prop32
280
     0
102
RTVSPost2010PropOp32
 70
     1
102
RTVSPost2010Prop33
280
     0
102
RTVSPost2010PropOp33
 70
     1
102
RTVSPost2010Prop34
280
     0
102
RTVSPost2010PropOp34
 70
     1
102
RTVSPost2010Prop35
280
     0
102
RTVSPost2010PropOp35
 70
     1
102
RTVSPost2010Prop36
280
     0
102
RTVSPost2010PropOp36
 70
     1
102
RTVSPost2010Prop37
 90
       50
102
RTVSPost2010PropOp37
 70
     1
102
RTVSPost2010Prop38
140
0.0
102
RTVSPost2010PropOp38
 70
     1
102
RTVSPost2010Prop39
140
1.0
102
RTVSPost2010PropOp39
 70
     1
102
RTVSPost2010Prop40
 90
        0
102
RTVSPost2010PropOp40
 70
     1
102
RTVSPost2010Prop41ColorIndex
 90
       18
102
RTVSPost2010Prop41ColorRGB
 90
        0
102
RTVSPost2010PropOp41
 70
     1
102
RTVSPost2010Prop42
 90
       50
102
RTVSPost2010PropOp42
 70
     1
102
RTVSPost2010Prop43
 90
        3
102
RTVSPost2010PropOp43
 70
     1
102
RTVSPost2010Prop44ColorIndex
 90
        5
102
RTVSPost2010Prop44ColorRGB
 90
      255
102
RTVSPost2010PropOp44
 70
     1
102
RTVSPost2010Prop45
280
     0
102
RTVSPost2010PropOp45
 70
     1
102
RTVSPost2010Prop46
 90
       50
102
RTVSPost2010PropOp46
 70
     1
102
RTVSPost2010Prop47
 90
       50
102
RTVSPost2010PropOp47
 70
     1
102
RTVSPost2010Prop48
 90
       50
102
RTVSPost2010PropOp48
 70
     1
102
RTVSPost2010Prop49
280
     0
102
RTVSPost2010PropOp49
 70
     1
102
RTVSPost2010Prop50
 90
       50
102
RTVSPost2010PropOp50
 70
     1
102
RTVSPost2010Prop51ColorIndex
 90
      256
102
RTVSPost2010Prop51ColorRGB
 90
-16777216
102
RTVSPost2010PropOp51
 70
     0
102
RTVSPost2010Prop52
140
1.0
102
RTVSPost2010PropOp52
 70
     0
102
RTVSPost2010Prop53
 90
        2
102
RTVSPost2010PropOp53
 70
     1
102
RTVSPost2010Prop54
  1
strokes_ogs.tif
102
RTVSPost2010PropOp54
 70
     1
102
RTVSPost2010Prop55
280
     0
102
RTVSPost2010PropOp55
 70
     1
102
RTVSPost2010Prop56
140
1.0
102
RTVSPost2010PropOp56
 70
     1
102
RTVSPost2010Prop57
140
1.0
102
RTVSPost2010PropOp57
 70
     1
  0
XRECORD
  5
1EE
102
{ACAD_REACTORS
330
1ED
102
}
330
1ED
100
AcDbXrecord
280
     1
102
RTVSPost2010Prop28
280
     0
102
RTVSPost2010PropOp28
 70
     0
102
RTVSPost2010Prop29
280
     1
102
RTVSPost2010PropOp29
 70
     0
102
RTVSPost2010Prop30
280
     1
102
RTVSPost2010PropOp30
 70
     0
102
RTVSPost2010Prop31
280
     0
102
RTVSPost2010PropOp31
 70
     0
102
RTVSPost2010Prop32
280
     0
102
RTVSPost2010PropOp32
 70
     0
102
RTVSPost2010Prop33
280
     0
102
RTVSPost2010PropOp33
 70
     0
102
RTVSPost2010Prop34
280
     0
102
RTVSPost2010PropOp34
 70
     0
102
RTVSPost2010Prop35
280
     0
102
RTVSPost2010PropOp35
 70
     0
102
RTVSPost2010Prop36
280
     0
102
RTVSPost2010PropOp36
 70
     0
102
RTVSPost2010Prop37
 90
       50
102
RTVSPost2010PropOp37
 70
     0
102
RTVSPost2010Prop38
140
0.0
102
RTVSPost2010PropOp38
 70
     0
102
RTVSPost2010Prop39
140
1.0
102
RTVSPost2010PropOp39
 70
     0
102
RTVSPost2010Prop40
 90
        0
102
RTVSPost2010PropOp40
 70
     0
102
RTVSPost2010Prop41ColorIndex
 90
       18
102
RTVSPost2010Prop41ColorRGB
 90
        0
102
RTVSPost2010PropOp41
 70
     0
102
RTVSPost2010Prop42
 90
       50
102
RTVSPost2010PropOp42
 70
     0
102
RTVSPost2010Prop43
 90
        3
102
RTVSPost2010PropOp43
 70
     0
102
RTVSPost2010Prop44ColorIndex
 90
        5
102
RTVSPost2010Prop44ColorRGB
 90
      255
102
RTVSPost2010PropOp44
 70
     0
102
RTVSPost2010Prop45
280
     0
102
RTVSPost2010PropOp45
 70
     0
102
RTVSPost2010Prop46
 90
       50
102
RTVSPost2010PropOp46
 70
     0
102
RTVSPost2010Prop47
 90
       50
102
RTVSPost2010PropOp47
 70
     0
102
RTVSPost2010Prop48
 90
       50
102
RTVSPost2010PropOp48
 70
     0
102
RTVSPost2010Prop49
280
     0
102
RTVSPost2010PropOp49
 70
     0
102
RTVSPost2010Prop50
 90
       50
102
RTVSPost2010PropOp50
 70
     0
102
RTVSPost2010Prop51ColorIndex
 90
      256
102
RTVSPost2010Prop51ColorRGB
 90
-16777216
102
RTVSPost2010PropOp51
 70
     0
102
RTVSPost2010Prop52
140
1.0
102
RTVSPost2010PropOp52
 70
     0
102
RTVSPost2010Prop53
 90
        2
102
RTVSPost2010PropOp53
 70
     0
102
RTVSPost2010Prop54
  1
strokes_ogs.tif
102
RTVSPost2010PropOp54
 70
     0
102
RTVSPost2010Prop55
280
     0
102
RTVSPost2010PropOp55
 70
     0
102
RTVSPost2010Prop56
140
1.0
102
RTVSPost2010PropOp56
 70
     0
102
RTVSPost2010Prop57
140
1.0
102
RTVSPost2010PropOp57
 70
     0
  0
XRECORD
  5
1E8
102
{ACAD_REACTORS
330
1E7
102
}
330
1E7
100
AcDbXrecord
280
     1
102
RTVSPost2010Prop28
280
     0
102
RTVSPost2010PropOp28
 70
     1
102
RTVSPost2010Prop29
280
     1
102
RTVSPost2010PropOp29
 70
     1
102
RTVSPost2010Prop30
280
     1
102
RTVSPost2010PropOp30
 70
     1
102
RTVSPost2010Prop31
280
     0
102
RTVSPost2010PropOp31
 70
     1
102
RTVSPost2010Prop32
280
     0
102
RTVSPost2010PropOp32
 70
     1
102
RTVSPost2010Prop33
280
     0
102
RTVSPost2010PropOp33
 70
     1
102
RTVSPost2010Prop34
280
     0
102
RTVSPost2010PropOp34
 70
     1
102
RTVSPost2010Prop35
280
     0
102
RTVSPost2010PropOp35
 70
     1
102
RTVSPost2010Prop36
280
     0
102
RTVSPost2010PropOp36
 70
     1
102
RTVSPost2010Prop37
 90
       50
102
RTVSPost2010PropOp37
 70
     1
102
RTVSPost2010Prop38
140
0.0
102
RTVSPost2010PropOp38
 70
     1
102
RTVSPost2010Prop39
140
1.0
102
RTVSPost2010PropOp39
 70
     1
102
RTVSPost2010Prop40
 90
        0
102
RTVSPost2010PropOp40
 70
     1
102
RTVSPost2010Prop41ColorIndex
 90
       18
102
RTVSPost2010Prop41ColorRGB
 90
        0
102
RTVSPost2010PropOp41
 70
     1
102
RTVSPost2010Prop42
 90
       50
102
RTVSPost2010PropOp42
 70
     1
102
RTVSPost2010Prop43
 90
        3
102
RTVSPost2010PropOp43
 70
     1
102
RTVSPost2010Prop44ColorIndex
 90
        5
102
RTVSPost2010Prop44ColorRGB
 90
      255
102
RTVSPost2010PropOp44
 70
     1
102
RTVSPost2010Prop45
280
     0
102
RTVSPost2010PropOp45
 70
     1
102
RTVSPost2010Prop46
 90
       50
102
RTVSPost2010PropOp46
 70
     1
102
RTVSPost2010Prop47
 90
       50
102
RTVSPost2010PropOp47
 70
     1
102
RTVSPost2010Prop48
 90
       50
102
RTVSPost2010PropOp48
 70
     1
102
RTVSPost2010Prop49
280
     0
102
RTVSPost2010PropOp49
 70
     1
102
RTVSPost2010Prop50
 90
       50
102
RTVSPost2010PropOp50
 70
     1
102
RTVSPost2010Prop51ColorIndex
 90
      256
102
RTVSPost2010Prop51ColorRGB
 90
-16777216
102
RTVSPost2010PropOp51
 70
     0
102
RTVSPost2010Prop52
140
1.0
102
RTVSPost2010PropOp52
 70
     0
102
RTVSPost2010Prop53
 90
        2
102
RTVSPost2010PropOp53
 70
     1
102
RTVSPost2010Prop54
  1
strokes_ogs.tif
102
RTVSPost2010PropOp54
 70
     1
102
RTVSPost2010Prop55
280
     0
102
RTVSPost2010PropOp55
 70
     1
102
RTVSPost2010Prop56
140
1.0
102
RTVSPost2010PropOp56
 70
     1
102
RTVSPost2010Prop57
140
1.0
102
RTVSPost2010PropOp57
 70
     1
  0
XRECORD
  5
1F0
102
{ACAD_REACTORS
330
1EF
102
}
330
1EF
100
AcDbXrecord
280
     1
102
RTVSPost2010Prop28
280
     0
102
RTVSPost2010PropOp28
 70
     0
102
RTVSPost2010Prop29
280
     1
102
RTVSPost2010PropOp29
 70
     0
102
RTVSPost2010Prop30
280
     1
102
RTVSPost2010PropOp30
 70
     0
102
RTVSPost2010Prop31
280
     0
102
RTVSPost2010PropOp31
 70
     0
102
RTVSPost2010Prop32
280
     0
102
RTVSPost2010PropOp32
 70
     0
102
RTVSPost2010Prop33
280
     0
102
RTVSPost2010PropOp33
 70
     0
102
RTVSPost2010Prop34
280
     0
102
RTVSPost2010PropOp34
 70
     0
102
RTVSPost2010Prop35
280
     0
102
RTVSPost2010PropOp35
 70
     0
102
RTVSPost2010Prop36
280
     0
102
RTVSPost2010PropOp36
 70
     0
102
RTVSPost2010Prop37
 90
       50
102
RTVSPost2010PropOp37
 70
     0
102
RTVSPost2010Prop38
140
0.0
102
RTVSPost2010PropOp38
 70
     0
102
RTVSPost2010Prop39
140
1.0
102
RTVSPost2010PropOp39
 70
     0
102
RTVSPost2010Prop40
 90
        0
102
RTVSPost2010PropOp40
 70
     0
102
RTVSPost2010Prop41ColorIndex
 90
       18
102
RTVSPost2010Prop41ColorRGB
 90
        0
102
RTVSPost2010PropOp41
 70
     0
102
RTVSPost2010Prop42
 90
       50
102
RTVSPost2010PropOp42
 70
     0
102
RTVSPost2010Prop43
 90
        3
102
RTVSPost2010PropOp43
 70
     0
102
RTVSPost2010Prop44ColorIndex
 90
        5
102
RTVSPost2010Prop44ColorRGB
 90
      255
102
RTVSPost2010PropOp44
 70
     0
102
RTVSPost2010Prop45
280
     0
102
RTVSPost2010PropOp45
 70
     0
102
RTVSPost2010Prop46
 90
       50
102
RTVSPost2010PropOp46
 70
     0
102
RTVSPost2010Prop47
 90
       50
102
RTVSPost2010PropOp47
 70
     0
102
RTVSPost2010Prop48
 90
       50
102
RTVSPost2010PropOp48
 70
     0
102
RTVSPost2010Prop49
280
     0
102
RTVSPost2010PropOp49
 70
     0
102
RTVSPost2010Prop50
 90
       50
102
RTVSPost2010PropOp50
 70
     0
102
RTVSPost2010Prop51ColorIndex
 90
      256
102
RTVSPost2010Prop51ColorRGB
 90
-16777216
102
RTVSPost2010PropOp51
 70
     0
102
RTVSPost2010Prop52
140
1.0
102
RTVSPost2010PropOp52
 70
     0
102
RTVSPost2010Prop53
 90
        2
102
RTVSPost2010PropOp53
 70
     0
102
RTVSPost2010Prop54
  1
strokes_ogs.tif
102
RTVSPost2010PropOp54
 70
     0
102
RTVSPost2010Prop55
280
     0
102
RTVSPost2010PropOp55
 70
     0
102
RTVSPost2010Prop56
140
1.0
102
RTVSPost2010PropOp56
 70
     0
102
RTVSPost2010Prop57
140
1.0
102
RTVSPost2010PropOp57
 70
     0
  0
XRECORD
  5
1DE
102
{ACAD_REACTORS
330
1DD
102
}
330
1DD
100
AcDbXrecord
280
     1
102
RTVSPost2010Prop28
280
     0
102
RTVSPost2010PropOp28
 70
     1
102
RTVSPost2010Prop29
280
     1
102
RTVSPost2010PropOp29
 70
     1
102
RTVSPost2010Prop30
280
     1
102
RTVSPost2010PropOp30
 70
     1
102
RTVSPost2010Prop31
280
     0
102
RTVSPost2010PropOp31
 70
     1
102
RTVSPost2010Prop32
280
     0
102
RTVSPost2010PropOp32
 70
     1
102
RTVSPost2010Prop33
280
     0
102
RTVSPost2010PropOp33
 70
     1
102
RTVSPost2010Prop34
280
     0
102
RTVSPost2010PropOp34
 70
     1
102
RTVSPost2010Prop35
280
     0
102
RTVSPost2010PropOp35
 70
     1
102
RTVSPost2010Prop36
280
     0
102
RTVSPost2010PropOp36
 70
     1
102
RTVSPost2010Prop37
 90
       50
102
RTVSPost2010PropOp37
 70
     1
102
RTVSPost2010Prop38
140
0.0
102
RTVSPost2010PropOp38
 70
     1
102
RTVSPost2010Prop39
140
1.0
102
RTVSPost2010PropOp39
 70
     1
102
RTVSPost2010Prop40
 90
        0
102
RTVSPost2010PropOp40
 70
     1
102
RTVSPost2010Prop41ColorIndex
 90
       18
102
RTVSPost2010Prop41ColorRGB
 90
        0
102
RTVSPost2010PropOp41
 70
     1
102
RTVSPost2010Prop42
 90
       50
102
RTVSPost2010PropOp42
 70
     1
102
RTVSPost2010Prop43
 90
        3
102
RTVSPost2010PropOp43
 70
     1
102
RTVSPost2010Prop44ColorIndex
 90
        5
102
RTVSPost2010Prop44ColorRGB
 90
      255
102
RTVSPost2010PropOp44
 70
     1
102
RTVSPost2010Prop45
280
     0
102
RTVSPost2010PropOp45
 70
     1
102
RTVSPost2010Prop46
 90
       50
102
RTVSPost2010PropOp46
 70
     1
102
RTVSPost2010Prop47
 90
       50
102
RTVSPost2010PropOp47
 70
     1
102
RTVSPost2010Prop48
 90
       50
102
RTVSPost2010PropOp48
 70
     1
102
RTVSPost2010Prop49
280
     0
102
RTVSPost2010PropOp49
 70
     1
102
RTVSPost2010Prop50
 90
       50
102
RTVSPost2010PropOp50
 70
     1
102
RTVSPost2010Prop51ColorIndex
 90
      256
102
RTVSPost2010Prop51ColorRGB
 90
-16777216
102
RTVSPost2010PropOp51
 70
     0
102
RTVSPost2010Prop52
140
1.0
102
RTVSPost2010PropOp52
 70
     0
102
RTVSPost2010Prop53
 90
        2
102
RTVSPost2010PropOp53
 70
     1
102
RTVSPost2010Prop54
  1
strokes_ogs.tif
102
RTVSPost2010PropOp54
 70
     1
102
RTVSPost2010Prop55
280
     0
102
RTVSPost2010PropOp55
 70
     1
102
RTVSPost2010Prop56
140
1.0
102
RTVSPost2010PropOp56
 70
     1
102
RTVSPost2010Prop57
140
1.0
102
RTVSPost2010PropOp57
 70
     1
  0
XRECORD
  5
1FC
102
{ACAD_REACTORS
330
1FB
102
}
330
1FB
100
AcDbXrecord
280
     1
102
RTVSPost2010Prop28
280
     0
102
RTVSPost2010PropOp28
 70
     1
102
RTVSPost2010Prop29
280
     1
102
RTVSPost2010PropOp29
 70
     1
102
RTVSPost2010Prop30
280
     1
102
RTVSPost2010PropOp30
 70
     1
102
RTVSPost2010Prop31
280
     0
102
RTVSPost2010PropOp31
 70
     1
102
RTVSPost2010Prop32
280
     0
102
RTVSPost2010PropOp32
 70
     1
102
RTVSPost2010Prop33
280
     0
102
RTVSPost2010PropOp33
 70
     1
102
RTVSPost2010Prop34
280
     0
102
RTVSPost2010PropOp34
 70
     1
102
RTVSPost2010Prop35
280
     0
102
RTVSPost2010PropOp35
 70
     1
102
RTVSPost2010Prop36
280
     0
102
RTVSPost2010PropOp36
 70
     1
102
RTVSPost2010Prop37
 90
       50
102
RTVSPost2010PropOp37
 70
     1
102
RTVSPost2010Prop38
140
0.0
102
RTVSPost2010PropOp38
 70
     1
102
RTVSPost2010Prop39
140
1.0
102
RTVSPost2010PropOp39
 70
     1
102
RTVSPost2010Prop40
 90
        0
102
RTVSPost2010PropOp40
 70
     1
102
RTVSPost2010Prop41ColorIndex
 90
       18
102
RTVSPost2010Prop41ColorRGB
 90
        0
102
RTVSPost2010PropOp41
 70
     1
102
RTVSPost2010Prop42
 90
       50
102
RTVSPost2010PropOp42
 70
     1
102
RTVSPost2010Prop43
 90
        3
102
RTVSPost2010PropOp43
 70
     1
102
RTVSPost2010Prop44ColorIndex
 90
        5
102
RTVSPost2010Prop44ColorRGB
 90
      255
102
RTVSPost2010PropOp44
 70
     1
102
RTVSPost2010Prop45
280
     0
102
RTVSPost2010PropOp45
 70
     1
102
RTVSPost2010Prop46
 90
       50
102
RTVSPost2010PropOp46
 70
     1
102
RTVSPost2010Prop47
 90
       50
102
RTVSPost2010PropOp47
 70
     1
102
RTVSPost2010Prop48
 90
       50
102
RTVSPost2010PropOp48
 70
     1
102
RTVSPost2010Prop49
280
     0
102
RTVSPost2010PropOp49
 70
     1
102
RTVSPost2010Prop50
 90
       50
102
RTVSPost2010PropOp50
 70
     1
102
RTVSPost2010Prop51ColorIndex
 90
      256
102
RTVSPost2010Prop51ColorRGB
 90
-16777216
102
RTVSPost2010PropOp51
 70
     0
102
RTVSPost2010Prop52
140
1.0
102
RTVSPost2010PropOp52
 70
     0
102
RTVSPost2010Prop53
 90
        2
102
RTVSPost2010PropOp53
 70
     1
102
RTVSPost2010Prop54
  1
strokes_ogs.tif
102
RTVSPost2010PropOp54
 70
     1
102
RTVSPost2010Prop55
280
     0
102
RTVSPost2010PropOp55
 70
     1
102
RTVSPost2010Prop56
140
1.0
102
RTVSPost2010PropOp56
 70
     1
102
RTVSPost2010Prop57
140
1.0
102
RTVSPost2010PropOp57
 70
     1
  0
XRECORD
  5
1FA
102
{ACAD_REACTORS
330
1F9
102
}
330
1F9
100
AcDbXrecord
280
     1
102
RTVSPost2010Prop28
280
     0
102
RTVSPost2010PropOp28
 70
     1
102
RTVSPost2010Prop29
280
     1
102
RTVSPost2010PropOp29
 70
     1
102
RTVSPost2010Prop30
280
     1
102
RTVSPost2010PropOp30
 70
     1
102
RTVSPost2010Prop31
280
     0
102
RTVSPost2010PropOp31
 70
     1
102
RTVSPost2010Prop32
280
     0
102
RTVSPost2010PropOp32
 70
     1
102
RTVSPost2010Prop33
280
     0
102
RTVSPost2010PropOp33
 70
     1
102
RTVSPost2010Prop34
280
     0
102
RTVSPost2010PropOp34
 70
     1
102
RTVSPost2010Prop35
280
     0
102
RTVSPost2010PropOp35
 70
     1
102
RTVSPost2010Prop36
280
     0
102
RTVSPost2010PropOp36
 70
     1
102
RTVSPost2010Prop37
 90
       50
102
RTVSPost2010PropOp37
 70
     1
102
RTVSPost2010Prop38
140
0.0
102
RTVSPost2010PropOp38
 70
     1
102
RTVSPost2010Prop39
140
1.0
102
RTVSPost2010PropOp39
 70
     1
102
RTVSPost2010Prop40
 90
        0
102
RTVSPost2010PropOp40
 70
     1
102
RTVSPost2010Prop41ColorIndex
 90
       18
102
RTVSPost2010Prop41ColorRGB
 90
        0
102
RTVSPost2010PropOp41
 70
     1
102
RTVSPost2010Prop42
 90
       50
102
RTVSPost2010PropOp42
 70
     1
102
RTVSPost2010Prop43
 90
        3
102
RTVSPost2010PropOp43
 70
     1
102
RTVSPost2010Prop44ColorIndex
 90
        5
102
RTVSPost2010Prop44ColorRGB
 90
      255
102
RTVSPost2010PropOp44
 70
     1
102
RTVSPost2010Prop45
280
     0
102
RTVSPost2010PropOp45
 70
     1
102
RTVSPost2010Prop46
 90
       50
102
RTVSPost2010PropOp46
 70
     1
102
RTVSPost2010Prop47
 90
       50
102
RTVSPost2010PropOp47
 70
     1
102
RTVSPost2010Prop48
 90
       50
102
RTVSPost2010PropOp48
 70
     1
102
RTVSPost2010Prop49
280
     0
102
RTVSPost2010PropOp49
 70
     1
102
RTVSPost2010Prop50
 90
       50
102
RTVSPost2010PropOp50
 70
     1
102
RTVSPost2010Prop51ColorIndex
 90
      256
102
RTVSPost2010Prop51ColorRGB
 90
-16777216
102
RTVSPost2010PropOp51
 70
     0
102
RTVSPost2010Prop52
140
1.0
102
RTVSPost2010PropOp52
 70
     0
102
RTVSPost2010Prop53
 90
        2
102
RTVSPost2010PropOp53
 70
     1
102
RTVSPost2010Prop54
  1
strokes_ogs.tif
102
RTVSPost2010PropOp54
 70
     1
102
RTVSPost2010Prop55
280
     0
102
RTVSPost2010PropOp55
 70
     1
102
RTVSPost2010Prop56
140
1.0
102
RTVSPost2010PropOp56
 70
     1
102
RTVSPost2010Prop57
140
1.0
102
RTVSPost2010PropOp57
 70
     1
  0
XRECORD
  5
1F4
102
{ACAD_REACTORS
330
1F3
102
}
330
1F3
100
AcDbXrecord
280
     1
102
RTVSPost2010Prop28
280
     0
102
RTVSPost2010PropOp28
 70
     1
102
RTVSPost2010Prop29
280
     1
102
RTVSPost2010PropOp29
 70
     1
102
RTVSPost2010Prop30
280
     1
102
RTVSPost2010PropOp30
 70
     1
102
RTVSPost2010Prop31
280
     0
102
RTVSPost2010PropOp31
 70
     1
102
RTVSPost2010Prop32
280
     0
102
RTVSPost2010PropOp32
 70
     1
102
RTVSPost2010Prop33
280
     0
102
RTVSPost2010PropOp33
 70
     1
102
RTVSPost2010Prop34
280
     0
102
RTVSPost2010PropOp34
 70
     1
102
RTVSPost2010Prop35
280
     0
102
RTVSPost2010PropOp35
 70
     1
102
RTVSPost2010Prop36
280
     0
102
RTVSPost2010PropOp36
 70
     1
102
RTVSPost2010Prop37
 90
       50
102
RTVSPost2010PropOp37
 70
     1
102
RTVSPost2010Prop38
140
0.0
102
RTVSPost2010PropOp38
 70
     1
102
RTVSPost2010Prop39
140
1.0
102
RTVSPost2010PropOp39
 70
     1
102
RTVSPost2010Prop40
 90
        0
102
RTVSPost2010PropOp40
 70
     1
102
RTVSPost2010Prop41ColorIndex
 90
       18
102
RTVSPost2010Prop41ColorRGB
 90
        0
102
RTVSPost2010PropOp41
 70
     1
102
RTVSPost2010Prop42
 90
       50
102
RTVSPost2010PropOp42
 70
     1
102
RTVSPost2010Prop43
 90
        3
102
RTVSPost2010PropOp43
 70
     1
102
RTVSPost2010Prop44ColorIndex
 90
        5
102
RTVSPost2010Prop44ColorRGB
 90
      255
102
RTVSPost2010PropOp44
 70
     1
102
RTVSPost2010Prop45
280
     0
102
RTVSPost2010PropOp45
 70
     1
102
RTVSPost2010Prop46
 90
       50
102
RTVSPost2010PropOp46
 70
     1
102
RTVSPost2010Prop47
 90
       50
102
RTVSPost2010PropOp47
 70
     1
102
RTVSPost2010Prop48
 90
       50
102
RTVSPost2010PropOp48
 70
     1
102
RTVSPost2010Prop49
280
     0
102
RTVSPost2010PropOp49
 70
     1
102
RTVSPost2010Prop50
 90
       50
102
RTVSPost2010PropOp50
 70
     1
102
RTVSPost2010Prop51ColorIndex
 90
      256
102
RTVSPost2010Prop51ColorRGB
 90
-16777216
102
RTVSPost2010PropOp51
 70
     0
102
RTVSPost2010Prop52
140
1.0
102
RTVSPost2010PropOp52
 70
     0
102
RTVSPost2010Prop53
 90
        2
102
RTVSPost2010PropOp53
 70
     1
102
RTVSPost2010Prop54
  1
strokes_ogs.tif
102
RTVSPost2010PropOp54
 70
     1
102
RTVSPost2010Prop55
280
     0
102
RTVSPost2010PropOp55
 70
     1
102
RTVSPost2010Prop56
140
1.0
102
RTVSPost2010PropOp56
 70
     1
102
RTVSPost2010Prop57
140
1.0
102
RTVSPost2010PropOp57
 70
     1
  0
XRECORD
  5
1F6
102
{ACAD_REACTORS
330
1F5
102
}
330
1F5
100
AcDbXrecord
280
     1
102
RTVSPost2010Prop28
280
     0
102
RTVSPost2010PropOp28
 70
     1
102
RTVSPost2010Prop29
280
     1
102
RTVSPost2010PropOp29
 70
     1
102
RTVSPost2010Prop30
280
     1
102
RTVSPost2010PropOp30
 70
     1
102
RTVSPost2010Prop31
280
     0
102
RTVSPost2010PropOp31
 70
     1
102
RTVSPost2010Prop32
280
     0
102
RTVSPost2010PropOp32
 70
     1
102
RTVSPost2010Prop33
280
     0
102
RTVSPost2010PropOp33
 70
     1
102
RTVSPost2010Prop34
280
     0
102
RTVSPost2010PropOp34
 70
     1
102
RTVSPost2010Prop35
280
     0
102
RTVSPost2010PropOp35
 70
     1
102
RTVSPost2010Prop36
280
     0
102
RTVSPost2010PropOp36
 70
     1
102
RTVSPost2010Prop37
 90
       50
102
RTVSPost2010PropOp37
 70
     1
102
RTVSPost2010Prop38
140
0.0
102
RTVSPost2010PropOp38
 70
     1
102
RTVSPost2010Prop39
140
1.0
102
RTVSPost2010PropOp39
 70
     1
102
RTVSPost2010Prop40
 90
        0
102
RTVSPost2010PropOp40
 70
     1
102
RTVSPost2010Prop41ColorIndex
 90
       18
102
RTVSPost2010Prop41ColorRGB
 90
        0
102
RTVSPost2010PropOp41
 70
     1
102
RTVSPost2010Prop42
 90
       50
102
RTVSPost2010PropOp42
 70
     1
102
RTVSPost2010Prop43
 90
        3
102
RTVSPost2010PropOp43
 70
     1
102
RTVSPost2010Prop44ColorIndex
 90
        5
102
RTVSPost2010Prop44ColorRGB
 90
      255
102
RTVSPost2010PropOp44
 70
     1
102
RTVSPost2010Prop45
280
     0
102
RTVSPost2010PropOp45
 70
     1
102
RTVSPost2010Prop46
 90
       50
102
RTVSPost2010PropOp46
 70
     1
102
RTVSPost2010Prop47
 90
       50
102
RTVSPost2010PropOp47
 70
     1
102
RTVSPost2010Prop48
 90
       50
102
RTVSPost2010PropOp48
 70
     1
102
RTVSPost2010Prop49
280
     0
102
RTVSPost2010PropOp49
 70
     1
102
RTVSPost2010Prop50
 90
       50
102
RTVSPost2010PropOp50
 70
     1
102
RTVSPost2010Prop51ColorIndex
 90
      256
102
RTVSPost2010Prop51ColorRGB
 90
-16777216
102
RTVSPost2010PropOp51
 70
     0
102
RTVSPost2010Prop52
140
1.0
102
RTVSPost2010PropOp52
 70
     0
102
RTVSPost2010Prop53
 90
        2
102
RTVSPost2010PropOp53
 70
     1
102
RTVSPost2010Prop54
  1
strokes_ogs.tif
102
RTVSPost2010PropOp54
 70
     1
102
RTVSPost2010Prop55
280
     0
102
RTVSPost2010PropOp55
 70
     1
102
RTVSPost2010Prop56
140
1.0
102
RTVSPost2010PropOp56
 70
     1
102
RTVSPost2010Prop57
140
1.0
102
RTVSPost2010PropOp57
 70
     1
  0
XRECORD
  5
1E6
102
{ACAD_REACTORS
330
1E5
102
}
330
1E5
100
AcDbXrecord
280
     1
102
RTVSPost2010Prop28
280
     0
102
RTVSPost2010PropOp28
 70
     1
102
RTVSPost2010Prop29
280
     1
102
RTVSPost2010PropOp29
 70
     1
102
RTVSPost2010Prop30
280
     1
102
RTVSPost2010PropOp30
 70
     1
102
RTVSPost2010Prop31
280
     0
102
RTVSPost2010PropOp31
 70
     1
102
RTVSPost2010Prop32
280
     0
102
RTVSPost2010PropOp32
 70
     1
102
RTVSPost2010Prop33
280
     0
102
RTVSPost2010PropOp33
 70
     1
102
RTVSPost2010Prop34
280
     0
102
RTVSPost2010PropOp34
 70
     1
102
RTVSPost2010Prop35
280
     0
102
RTVSPost2010PropOp35
 70
     1
102
RTVSPost2010Prop36
280
     0
102
RTVSPost2010PropOp36
 70
     1
102
RTVSPost2010Prop37
 90
       50
102
RTVSPost2010PropOp37
 70
     1
102
RTVSPost2010Prop38
140
0.0
102
RTVSPost2010PropOp38
 70
     1
102
RTVSPost2010Prop39
140
1.0
102
RTVSPost2010PropOp39
 70
     1
102
RTVSPost2010Prop40
 90
        0
102
RTVSPost2010PropOp40
 70
     1
102
RTVSPost2010Prop41ColorIndex
 90
       18
102
RTVSPost2010Prop41ColorRGB
 90
        0
102
RTVSPost2010PropOp41
 70
     1
102
RTVSPost2010Prop42
 90
       50
102
RTVSPost2010PropOp42
 70
     1
102
RTVSPost2010Prop43
 90
        3
102
RTVSPost2010PropOp43
 70
     1
102
RTVSPost2010Prop44ColorIndex
 90
        5
102
RTVSPost2010Prop44ColorRGB
 90
      255
102
RTVSPost2010PropOp44
 70
     1
102
RTVSPost2010Prop45
280
     0
102
RTVSPost2010PropOp45
 70
     1
102
RTVSPost2010Prop46
 90
       50
102
RTVSPost2010PropOp46
 70
     1
102
RTVSPost2010Prop47
 90
       50
102
RTVSPost2010PropOp47
 70
     1
102
RTVSPost2010Prop48
 90
       50
102
RTVSPost2010PropOp48
 70
     1
102
RTVSPost2010Prop49
280
     0
102
RTVSPost2010PropOp49
 70
     1
102
RTVSPost2010Prop50
 90
       50
102
RTVSPost2010PropOp50
 70
     1
102
RTVSPost2010Prop51ColorIndex
 90
      256
102
RTVSPost2010Prop51ColorRGB
 90
-16777216
102
RTVSPost2010PropOp51
 70
     0
102
RTVSPost2010Prop52
140
1.0
102
RTVSPost2010PropOp52
 70
     0
102
RTVSPost2010Prop53
 90
        2
102
RTVSPost2010PropOp53
 70
     1
102
RTVSPost2010Prop54
  1
strokes_ogs.tif
102
RTVSPost2010PropOp54
 70
     1
102
RTVSPost2010Prop55
280
     0
102
RTVSPost2010PropOp55
 70
     1
102
RTVSPost2010Prop56
140
1.0
102
RTVSPost2010PropOp56
 70
     1
102
RTVSPost2010Prop57
140
1.0
102
RTVSPost2010PropOp57
 70
     1
  0
XRECORD
  5
1D8
102
{ACAD_REACTORS
330
1D7
102
}
330
1D7
100
AcDbXrecord
280
     1
102
RTVSPost2010Prop28
280
     0
102
RTVSPost2010PropOp28
 70
     1
102
RTVSPost2010Prop29
280
     1
102
RTVSPost2010PropOp29
 70
     1
102
RTVSPost2010Prop30
280
     1
102
RTVSPost2010PropOp30
 70
     1
102
RTVSPost2010Prop31
280
     0
102
RTVSPost2010PropOp31
 70
     1
102
RTVSPost2010Prop32
280
     0
102
RTVSPost2010PropOp32
 70
     1
102
RTVSPost2010Prop33
280
     0
102
RTVSPost2010PropOp33
 70
     1
102
RTVSPost2010Prop34
280
     0
102
RTVSPost2010PropOp34
 70
     1
102
RTVSPost2010Prop35
280
     0
102
RTVSPost2010PropOp35
 70
     1
102
RTVSPost2010Prop36
280
     0
102
RTVSPost2010PropOp36
 70
     1
102
RTVSPost2010Prop37
 90
       50
102
RTVSPost2010PropOp37
 70
     1
102
RTVSPost2010Prop38
140
0.0
102
RTVSPost2010PropOp38
 70
     1
102
RTVSPost2010Prop39
140
1.0
102
RTVSPost2010PropOp39
 70
     1
102
RTVSPost2010Prop40
 90
        0
102
RTVSPost2010PropOp40
 70
     1
102
RTVSPost2010Prop41ColorIndex
 90
       18
102
RTVSPost2010Prop41ColorRGB
 90
        0
102
RTVSPost2010PropOp41
 70
     1
102
RTVSPost2010Prop42
 90
       50
102
RTVSPost2010PropOp42
 70
     1
102
RTVSPost2010Prop43
 90
        3
102
RTVSPost2010PropOp43
 70
     1
102
RTVSPost2010Prop44ColorIndex
 90
        5
102
RTVSPost2010Prop44ColorRGB
 90
      255
102
RTVSPost2010PropOp44
 70
     1
102
RTVSPost2010Prop45
280
     0
102
RTVSPost2010PropOp45
 70
     1
102
RTVSPost2010Prop46
 90
       50
102
RTVSPost2010PropOp46
 70
     1
102
RTVSPost2010Prop47
 90
       50
102
RTVSPost2010PropOp47
 70
     1
102
RTVSPost2010Prop48
 90
       50
102
RTVSPost2010PropOp48
 70
     1
102
RTVSPost2010Prop49
280
     0
102
RTVSPost2010PropOp49
 70
     1
102
RTVSPost2010Prop50
 90
       50
102
RTVSPost2010PropOp50
 70
     1
102
RTVSPost2010Prop51ColorIndex
 90
      256
102
RTVSPost2010Prop51ColorRGB
 90
-16777216
102
RTVSPost2010PropOp51
 70
     0
102
RTVSPost2010Prop52
140
1.0
102
RTVSPost2010PropOp52
 70
     0
102
RTVSPost2010Prop53
 90
        2
102
RTVSPost2010PropOp53
 70
     1
102
RTVSPost2010Prop54
  1
strokes_ogs.tif
102
RTVSPost2010PropOp54
 70
     1
102
RTVSPost2010Prop55
280
     0
102
RTVSPost2010PropOp55
 70
     1
102
RTVSPost2010Prop56
140
1.0
102
RTVSPost2010PropOp56
 70
     1
102
RTVSPost2010Prop57
140
1.0
102
RTVSPost2010PropOp57
 70
     1
  0
XRECORD
  5
1F8
102
{ACAD_REACTORS
330
1F7
102
}
330
1F7
100
AcDbXrecord
280
     1
102
RTVSPost2010Prop28
280
     0
102
RTVSPost2010PropOp28
 70
     1
102
RTVSPost2010Prop29
280
     1
102
RTVSPost2010PropOp29
 70
     1
102
RTVSPost2010Prop30
280
     1
102
RTVSPost2010PropOp30
 70
     1
102
RTVSPost2010Prop31
280
     0
102
RTVSPost2010PropOp31
 70
     1
102
RTVSPost2010Prop32
280
     0
102
RTVSPost2010PropOp32
 70
     1
102
RTVSPost2010Prop33
280
     0
102
RTVSPost2010PropOp33
 70
     1
102
RTVSPost2010Prop34
280
     0
102
RTVSPost2010PropOp34
 70
     1
102
RTVSPost2010Prop35
280
     0
102
RTVSPost2010PropOp35
 70
     1
102
RTVSPost2010Prop36
280
     0
102
RTVSPost2010PropOp36
 70
     1
102
RTVSPost2010Prop37
 90
       50
102
RTVSPost2010PropOp37
 70
     1
102
RTVSPost2010Prop38
140
0.0
102
RTVSPost2010PropOp38
 70
     1
102
RTVSPost2010Prop39
140
1.0
102
RTVSPost2010PropOp39
 70
     1
102
RTVSPost2010Prop40
 90
        0
102
RTVSPost2010PropOp40
 70
     1
102
RTVSPost2010Prop41ColorIndex
 90
       18
102
RTVSPost2010Prop41ColorRGB
 90
        0
102
RTVSPost2010PropOp41
 70
     1
102
RTVSPost2010Prop42
 90
       50
102
RTVSPost2010PropOp42
 70
     1
102
RTVSPost2010Prop43
 90
        3
102
RTVSPost2010PropOp43
 70
     1
102
RTVSPost2010Prop44ColorIndex
 90
        5
102
RTVSPost2010Prop44ColorRGB
 90
      255
102
RTVSPost2010PropOp44
 70
     1
102
RTVSPost2010Prop45
280
     0
102
RTVSPost2010PropOp45
 70
     1
102
RTVSPost2010Prop46
 90
       50
102
RTVSPost2010PropOp46
 70
     1
102
RTVSPost2010Prop47
 90
       50
102
RTVSPost2010PropOp47
 70
     1
102
RTVSPost2010Prop48
 90
       50
102
RTVSPost2010PropOp48
 70
     1
102
RTVSPost2010Prop49
280
     0
102
RTVSPost2010PropOp49
 70
     1
102
RTVSPost2010Prop50
 90
       50
102
RTVSPost2010PropOp50
 70
     1
102
RTVSPost2010Prop51ColorIndex
 90
      256
102
RTVSPost2010Prop51ColorRGB
 90
-16777216
102
RTVSPost2010PropOp51
 70
     0
102
RTVSPost2010Prop52
140
1.0
102
RTVSPost2010PropOp52
 70
     0
102
RTVSPost2010Prop53
 90
        2
102
RTVSPost2010PropOp53
 70
     1
102
RTVSPost2010Prop54
  1
strokes_ogs.tif
102
RTVSPost2010PropOp54
 70
     1
102
RTVSPost2010Prop55
280
     0
102
RTVSPost2010PropOp55
 70
     1
102
RTVSPost2010Prop56
140
1.0
102
RTVSPost2010PropOp56
 70
     1
102
RTVSPost2010Prop57
140
1.0
102
RTVSPost2010PropOp57
 70
     1
  0
ENDSEC
  0
EOF
