  0
SECTION
  2
HEADER
  9
$ACADVER
  1
AC1024
  9
$ACADMAINTVER
 70
     6
  9
$DWGCODEPAGE
  3
ANSI_1252
  9
$INSBASE
 10
0.0
 20
0.0
 30
0.0
  9
$EXTMIN
 10
1.000000E+20
 20
1.000000E+20
 30
1.000000E+20
  9
$EXTMAX
 10
-1.000000E+20
 20
-1.000000E+20
 30
-1.000000E+20
  9
$LIMMIN
 10
0.0
 20
0.0
  9
$LIMMAX
 10
420.0
 20
297.0
  9
$ORTHOMODE
 70
     0
  9
$REGENMODE
 70
     1
  9
$FILLMODE
 70
     1
  9
$QTEXTMODE
 70
     0
  9
$MIRRTEXT
 70
     1
  9
$LTSCALE
 40
1.0
  9
$ATTMODE
 70
     1
  9
$TEXTSIZE
 40
2.5
  9
$TRACEWID
 40
1.0
  9
$TEXTSTYLE
  7
Standard
  9
$CLAYER
  8
0
  9
$CELTYPE
  6
ByLayer
  9
$CECOLOR
 62
   256
  9
$CELTSCALE
 40
1.0
  9
$DISPSILH
 70
     0
  9
$DIMSCALE
 40
1.0
  9
$DIMASZ
 40
2.5
  9
$DIMEXO
 40
0.625
  9
$DIMDLI
 40
3.75
  9
$DIMRND
 40
0.0
  9
$DIMDLE
 40
0.0
  9
$DIMEXE
 40
1.25
  9
$DIMTP
 40
0.0
  9
$DIMTM
 40
0.0
  9
$DIMTXT
 40
2.5
  9
$DIMCEN
 40
2.5
  9
$DIMTSZ
 40
0.0
  9
$DIMTOL
 70
     0
  9
$DIMLIM
 70
     0
  9
$DIMTIH
 70
     0
  9
$DIMTOH
 70
     0
  9
$DIMSE1
 70
     0
  9
$DIMSE2
 70
     0
  9
$DIMTAD
 70
     1
  9
$DIMZIN
 70
     8
  9
$DIMBLK
  1

  9
$DIMASO
 70
     1
  9
$DIMSHO
 70
     1
  9
$DIMPOST
  1

  9
$DIMAPOST
  1

  9
$DIMALT
 70
     0
  9
$DIMALTD
 70
     3
  9
$DIMALTF
 40
0.03937
  9
$DIMLFAC
 40
1.0
  9
$DIMTOFL
 70
     1
  9
$DIMTVP
 40
0.0
  9
$DIMTIX
 70
     0
  9
$DIMSOXD
 70
     0
  9
$DIMSAH
 70
     0
  9
$DIMBLK1
  1

  9
$DIMBLK2
  1

  9
$DIMSTYLE
  2
ISO-25
  9
$DIMCLRD
 70
     0
  9
$DIMCLRE
 70
     0
  9
$DIMCLRT
 70
     0
  9
$DIMTFAC
 40
1.0
  9
$DIMGAP
 40
0.625
  9
$DIMJUST
 70
     0
  9
$DIMSD1
 70
     0
  9
$DIMSD2
 70
     0
  9
$DIMTOLJ
 70
     0
  9
$DIMTZIN
 70
     8
  9
$DIMALTZ
 70
     0
  9
$DIMALTTZ
 70
     0
  9
$DIMUPT
 70
     0
  9
$DIMDEC
 70
     2
  9
$DIMTDEC
 70
     2
  9
$DIMALTU
 70
     2
  9
$DIMALTTD
 70
     3
  9
$DIMTXSTY
  7
Standard
  9
$DIMAUNIT
 70
     0
  9
$DIMADEC
 70
     0
  9
$DIMALTRND
 40
0.0
  9
$DIMAZIN
 70
     0
  9
$DIMDSEP
 70
    44
  9
$DIMATFIT
 70
     3
  9
$DIMFRAC
 70
     0
  9
$DIMLDRBLK
  1

  9
$DIMLUNIT
 70
     2
  9
$DIMLWD
 70
    -2
  9
$DIMLWE
 70
    -2
  9
$DIMTMOVE
 70
     0
  9
$DIMFXL
 40
1.0
  9
$DIMFXLON
 70
     0
  9
$DIMJOGANG
 40
0.785398
  9
$DIMTFILL
 70
     0
  9
$DIMTFILLCLR
 70
     0
  9
$DIMARCSYM
 70
     0
  9
$DIMLTYPE
  6

  9
$DIMLTEX1
  6

  9
$DIMLTEX2
  6

  9
$DIMTXTDIRECTION
 70
     0
  9
$LUNITS
 70
     2
  9
$LUPREC
 70
     4
  9
$SKETCHINC
 40
1.0
  9
$FILLETRAD
 40
10.0
  9
$AUNITS
 70
     0
  9
$AUPREC
 70
     0
  9
$MENU
  1
.
  9
$ELEVATION
 40
0.0
  9
$PELEVATION
 40
0.0
  9
$THICKNESS
 40
0.0
  9
$LIMCHECK
 70
     0
  9
$CHAMFERA
 40
0.0
  9
$CHAMFERB
 40
0.0
  9
$CHAMFERC
 40
0.0
  9
$CHAMFERD
 40
0.0
  9
$SKPOLY
 70
     0
  9
$TDCREATE
 40
2458614.616916979
  9
$TDUCREATE
 40
2458614.533583646
  9
$TDUPDATE
 40
2458614.616917535
  9
$TDUUPDATE
 40
2458614.533584201
  9
$TDINDWG
 40
0.0000000116
  9
$TDUSRTIMER
 40
0.0000000116
  9
$USRTIMER
 70
     1
  9
$ANGBASE
 50
0.0
  9
$ANGDIR
 70
     0
  9
$PDMODE
 70
     0
  9
$PDSIZE
 40
0.0
  9
$PLINEWID
 40
0.0
  9
$SPLFRAME
 70
     0
  9
$SPLINETYPE
 70
     6
  9
$SPLINESEGS
 70
     8
  9
$HANDSEED
  5
18F
  9
$SURFTAB1
 70
     6
  9
$SURFTAB2
 70
     6
  9
$SURFTYPE
 70
     6
  9
$SURFU
 70
     6
  9
$SURFV
 70
     6
  9
$UCSBASE
  2

  9
$UCSNAME
  2

  9
$UCSORG
 10
0.0
 20
0.0
 30
0.0
  9
$UCSXDIR
 10
1.0
 20
0.0
 30
0.0
  9
$UCSYDIR
 10
0.0
 20
1.0
 30
0.0
  9
$UCSORTHOREF
  2

  9
$UCSORTHOVIEW
 70
     0
  9
$UCSORGTOP
 10
0.0
 20
0.0
 30
0.0
  9
$UCSORGBOTTOM
 10
0.0
 20
0.0
 30
0.0
  9
$UCSORGLEFT
 10
0.0
 20
0.0
 30
0.0
  9
$UCSORGRIGHT
 10
0.0
 20
0.0
 30
0.0
  9
$UCSORGFRONT
 10
0.0
 20
0.0
 30
0.0
  9
$UCSORGBACK
 10
0.0
 20
0.0
 30
0.0
  9
$PUCSBASE
  2

  9
$PUCSNAME
  2

  9
$PUCSORG
 10
0.0
 20
0.0
 30
0.0
  9
$PUCSXDIR
 10
1.0
 20
0.0
 30
0.0
  9
$PUCSYDIR
 10
0.0
 20
1.0
 30
0.0
  9
$PUCSORTHOREF
  2

  9
$PUCSORTHOVIEW
 70
     0
  9
$PUCSORGTOP
 10
0.0
 20
0.0
 30
0.0
  9
$PUCSORGBOTTOM
 10
0.0
 20
0.0
 30
0.0
  9
$PUCSORGLEFT
 10
0.0
 20
0.0
 30
0.0
  9
$PUCSORGRIGHT
 10
0.0
 20
0.0
 30
0.0
  9
$PUCSORGFRONT
 10
0.0
 20
0.0
 30
0.0
  9
$PUCSORGBACK
 10
0.0
 20
0.0
 30
0.0
  9
$USERI1
 70
     0
  9
$USERI2
 70
     0
  9
$USERI3
 70
     0
  9
$USERI4
 70
     0
  9
$USERI5
 70
     0
  9
$USERR1
 40
0.0
  9
$USERR2
 40
0.0
  9
$USERR3
 40
0.0
  9
$USERR4
 40
0.0
  9
$USERR5
 40
0.0
  9
$WORLDVIEW
 70
     1
  9
$SHADEDGE
 70
     3
  9
$SHADEDIF
 70
    70
  9
$TILEMODE
 70
     1
  9
$MAXACTVP
 70
    64
  9
$PINSBASE
 10
0.0
 20
0.0
 30
0.0
  9
$PLIMCHECK
 70
     0
  9
$PEXTMIN
 10
1.000000E+20
 20
1.000000E+20
 30
1.000000E+20
  9
$PEXTMAX
 10
-1.000000E+20
 20
-1.000000E+20
 30
-1.000000E+20
  9
$PLIMMIN
 10
0.0
 20
0.0
  9
$PLIMMAX
 10
420.0
 20
297.0
  9
$UNITMODE
 70
     0
  9
$VISRETAIN
 70
     1
  9
$PLINEGEN
 70
     0
  9
$PSLTSCALE
 70
     1
  9
$TREEDEPTH
 70
  3020
  9
$CMLSTYLE
  2
Standard
  9
$CMLJUST
 70
     0
  9
$CMLSCALE
 40
20.0
  9
$PROXYGRAPHICS
 70
     1
  9
$MEASUREMENT
 70
     1
  9
$CELWEIGHT
370
    -1
  9
$ENDCAPS
280
     0
  9
$JOINSTYLE
280
     0
  9
$LWDISPLAY
290
     0
  9
$INSUNITS
 70
     4
  9
$HYPERLINKBASE
  1

  9
$STYLESHEET
  1

  9
$XEDIT
290
     1
  9
$CEPSNTYPE
380
     0
  9
$PSTYLEMODE
290
     1
  9
$FINGERPRINTGUID
  2
{D944161A-51E7-41B0-8382-74FC4C9EE924}
  9
$VERSIONGUID
  2
{FAEB1C32-E019-11D5-929B-00C0DF256EC4}
  9
$EXTNAMES
290
     1
  9
$PSVPSCALE
 40
0.0
  9
$OLESTARTUP
290
     0
  9
$SORTENTS
280
   127
  9
$INDEXCTL
280
     0
  9
$HIDETEXT
280
     1
  9
$XCLIPFRAME
280
     2
  9
$HALOGAP
280
     0
  9
$OBSCOLOR
 70
   257
  9
$OBSLTYPE
280
     0
  9
$INTERSECTIONDISPLAY
280
     0
  9
$INTERSECTIONCOLOR
 70
   257
  9
$DIMASSOC
280
     2
  9
$PROJECTNAME
  1

  9
$CAMERADISPLAY
290
     0
  9
$LENSLENGTH
 40
50.0
  9
$CAMERAHEIGHT
 40
0.0
  9
$STEPSPERSEC
 40
2.0
  9
$STEPSIZE
 40
6.0
  9
$3DDWFPREC
 40
2.0
  9
$PSOLWIDTH
 40
5.0
  9
$PSOLHEIGHT
 40
80.0
  9
$LOFTANG1
 40
1.570796
  9
$LOFTANG2
 40
1.570796
  9
$LOFTMAG1
 40
0.0
  9
$LOFTMAG2
 40
0.0
  9
$LOFTPARAM
 70
     7
  9
$LOFTNORMALS
280
     1
  9
$LATITUDE
 40
37.795
  9
$LONGITUDE
 40
-122.394
  9
$NORTHDIRECTION
 40
0.0
  9
$TIMEZONE
 70
 -8000
  9
$LIGHTGLYPHDISPLAY
280
     1
  9
$TILEMODELIGHTSYNCH
280
     1
  9
$CMATERIAL
347
44
  9
$SOLIDHIST
280
     0
  9
$SHOWHIST
280
     1
  9
$DWFFRAME
280
     2
  9
$DGNFRAME
280
     2
  9
$REALWORLDSCALE
290
     1
  9
$INTERFERECOLOR
 62
   256
  9
$CSHADOW
280
     0
  9
$SHADOWPLANELOCATION
 40
0.0
  0
ENDSEC
  0
SECTION
  2
CLASSES
  0
CLASS
  1
ACDBDICTIONARYWDFLT
  2
AcDbDictionaryWithDefault
  3
ObjectDBX Classes
 90
        0
 91
        4
280
     0
281
     0
  0
CLASS
  1
VISUALSTYLE
  2
AcDbVisualStyle
  3
ObjectDBX Classes
 90
     4095
 91
        4
280
     0
281
     0
  0
CLASS
  1
MATERIAL
  2
AcDbMaterial
  3
ObjectDBX Classes
 90
     1153
 91
        4
280
     0
281
     0
  0
CLASS
  1
SCALE
  2
AcDbScale
  3
ObjectDBX Classes
 90
     1153
 91
        4
280
     0
281
     0
  0
CLASS
  1
TABLESTYLE
  2
AcDbTableStyle
  3
ObjectDBX Classes
 90
     4095
 91
        4
280
     0
281
     0
  0
CLASS
  1
MLEADERSTYLE
  2
AcDbMLeaderStyle
  3
ACDB_MLEADERSTYLE_CLASS
 90
     4095
 91
        4
280
     0
281
     0
  0
CLASS
  1
SUN
  2
AcDbSun
  3
SCENEOE
 90
     1153
 91
        4
280
     0
281
     0
  0
CLASS
  1
DICTIONARYVAR
  2
AcDbDictionaryVar
  3
ObjectDBX Classes
 90
        0
 91
        4
280
     0
281
     0
  0
CLASS
  1
CELLSTYLEMAP
  2
AcDbCellStyleMap
  3
ObjectDBX Classes
 90
     1152
 91
        4
280
     0
281
     0
  0
ENDSEC
  0
SECTION
  2
TABLES
  0
TABLE
  2
VPORT
  5
8
330
0
100
AcDbSymbolTable
 70
     1
  0
VPORT
  5
29
330
8
100
AcDbSymbolTableRecord
100
AcDbViewportTableRecord
  2
*Active
 70
     0
 10
0.0
 20
0.0
 11
1.0
 21
1.0
 12
344.186916
 22
148.5
 13
0.0
 23
0.0
 14
10.0
 24
10.0
 15
10.0
 25
10.0
 16
0.0
 26
0.0
 36
1.0
 17
0.0
 27
0.0
 37
0.0
 40
297.0
 41
1.972973
 42
50.0
 43
0.0
 44
0.0
 50
0.0
 51
0.0
 71
     0
 72
   100
 73
     1
 74
     3
 75
     0
 76
     0
 77
     0
 78
     0
281
     0
 65
     1
110
0.0
120
0.0
130
0.0
111
1.0
121
0.0
131
0.0
112
0.0
122
1.0
132
0.0
 79
     0
146
0.0
348
2F
 60
     3
 61
     5
292
     1
282
     1
141
0.0
142
0.0
 63
   250
361
6D
  0
ENDTAB
  0
TABLE
  2
LTYPE
  5
5
330
0
100
AcDbSymbolTable
 70
     1
  0
LTYPE
  5
14
330
5
100
AcDbSymbolTableRecord
100
AcDbLinetypeTableRecord
  2
ByBlock
 70
     0
  3

 72
    65
 73
     0
 40
0.0
  0
LTYPE
  5
15
330
5
100
AcDbSymbolTableRecord
100
AcDbLinetypeTableRecord
  2
ByLayer
 70
     0
  3

 72
    65
 73
     0
 40
0.0
  0
LTYPE
  5
16
330
5
100
AcDbSymbolTableRecord
100
AcDbLinetypeTableRecord
  2
Continuous
 70
     0
  3
Solid line
 72
    65
 73
     0
 40
0.0
  0
ENDTAB
  0
TABLE
  2
LAYER
  5
2
330
0
100
AcDbSymbolTable
 70
     1
  0
LAYER
  5
10
330
2
100
AcDbSymbolTableRecord
100
AcDbLayerTableRecord
  2
0
 70
     0
 62
   106
  6
Continuous
370
     0
390
F
347
46
  0
ENDTAB
  0
TABLE
  2
STYLE
  5
3
330
0
100
AcDbSymbolTable
 70
     4
  0
STYLE
  5
11
330
3
100
AcDbSymbolTableRecord
100
AcDbTextStyleTableRecord
  2
Standard
 70
     0
 40
0.0
 41
1.0
 50
0.0
 71
     0
 42
2.5
  3
txt
  4

  0
STYLE
  5
6E
330
3
100
AcDbSymbolTableRecord
100
AcDbTextStyleTableRecord
  2
Default
 70
     0
 40
0.0
 41
1.0
 50
0.0
 71
     0
 42
2.5
  3

  4

1001
ACAD
1000
txt
1071
        0
  0
STYLE
  5
6F
330
3
100
AcDbSymbolTableRecord
100
AcDbTextStyleTableRecord
  2
ISO
 70
     0
 40
0.0
 41
1.0
 50
0.0
 71
     0
 42
2.5
  3

  4

1001
ACAD
1000
txt
1071
        0
  0
STYLE
  5
70
330
3
100
AcDbSymbolTableRecord
100
AcDbTextStyleTableRecord
  2
zucchetti
 70
     0
 40
0.0
 41
1.0
 50
0.0
 71
     0
 42
2.5
  3

  4

1001
ACAD
1000
Arial
1071
        0
  0
ENDTAB
  0
TABLE
  2
VIEW
  5
6
330
0
100
AcDbSymbolTable
 70
     0
  0
ENDTAB
  0
TABLE
  2
UCS
  5
7
330
0
100
AcDbSymbolTable
 70
     0
  0
ENDTAB
  0
TABLE
  2
APPID
  5
9
330
0
100
AcDbSymbolTable
 70
     1
  0
APPID
  5
12
330
9
100
AcDbSymbolTableRecord
100
AcDbRegAppTableRecord
  2
ACAD
 70
     0
  0
ENDTAB
  0
TABLE
  2
DIMSTYLE
  5
A
330
0
100
AcDbSymbolTable
 70
     4
100
AcDbDimStyleTable
  0
DIMSTYLE
105
27
330
A
100
AcDbSymbolTableRecord
100
AcDbDimStyleTableRecord
  2
ISO-25
 70
     0
 41
2.5
 42
0.625
 43
3.75
 44
1.25
 73
     0
 74
     0
 77
     1
 78
     8
140
2.5
141
2.5
143
0.03937
147
0.625
171
     3
172
     1
178
     0
271
     2
272
     2
274
     3
278
    44
283
     0
284
     8
340
11
  0
DIMSTYLE
105
71
330
A
100
AcDbSymbolTableRecord
100
AcDbDimStyleTableRecord
  2
Default
 70
     0
  3
<>
 41
4.375
 42
1.05
 44
2.1
 49
10.01
 73
     0
 74
     0
 77
     1
 78
     8
140
3.5
146
0.4
147
1.75
172
     1
271
     2
178
     3
271
     2
272
     3
284
     8
340
6E
341
72
342
72
  0
DIMSTYLE
105
79
330
A
100
AcDbSymbolTableRecord
100
AcDbDimStyleTableRecord
  2
ISO
 70
     0
  3
<>
 41
4.375
 42
1.05
 44
2.1
 49
10.01
 73
     0
 74
     0
 77
     1
 78
     8
140
3.5
146
0.4
147
1.75
172
     1
271
     2
178
     3
271
     2
272
     3
284
     8
340
6F
341
72
342
72
  0
DIMSTYLE
105
7A
330
A
100
AcDbSymbolTableRecord
100
AcDbDimStyleTableRecord
  2
zucchetti
 70
     0
  3
<>
 41
3.0
 42
0.9
 44
1.8
 49
8.58
 73
     0
 74
     0
 77
     1
 78
     8
140
3.0
146
0.6
147
1.5
172
     1
176
     3
177
     3
271
     2
178
     3
271
     2
272
     2
284
     8
340
70
  0
ENDTAB
  0
TABLE
  2
BLOCK_RECORD
  5
1
330
0
100
AcDbSymbolTable
 70
     6
  0
BLOCK_RECORD
  5
1F
330
1
100
AcDbSymbolTableRecord
100
AcDbBlockTableRecord
  2
*Model_Space
340
22
 70
     0
280
     1
281
     0
  0
BLOCK_RECORD
  5
1B
330
1
100
AcDbSymbolTableRecord
100
AcDbBlockTableRecord
  2
*Paper_Space
340
1E
 70
     0
280
     1
281
     0
  0
BLOCK_RECORD
  5
23
330
1
100
AcDbSymbolTableRecord
100
AcDbBlockTableRecord
  2
*Paper_Space0
340
26
 70
     0
280
     1
281
     0
  0
BLOCK_RECORD
  5
72
330
1
100
AcDbSymbolTableRecord
100
AcDbBlockTableRecord
  2
_CLOSED
340
0
 70
     0
280
     1
281
     0
  0
BLOCK_RECORD
  5
7B
330
1
100
AcDbSymbolTableRecord
100
AcDbBlockTableRecord
  2
a
340
0
102
{BLKREFS
331
A6
102
}
 70
     0
280
     1
281
     0
  0
BLOCK_RECORD
  5
A7
330
1
100
AcDbSymbolTableRecord
100
AcDbBlockTableRecord
  2
b
340
0
102
{BLKREFS
331
DD
102
}
 70
     0
280
     1
281
     0
  0
BLOCK_RECORD
  5
DE
330
1
100
AcDbSymbolTableRecord
100
AcDbBlockTableRecord
  2
c
340
0
102
{BLKREFS
331
119
102
}
 70
     0
280
     1
281
     0
  0
BLOCK_RECORD
  5
11A
330
1
100
AcDbSymbolTableRecord
100
AcDbBlockTableRecord
  2
d
340
0
102
{BLKREFS
331
155
102
}
 70
     0
280
     1
281
     0
  0
ENDTAB
  0
ENDSEC
  0
SECTION
  2
BLOCKS
  0
BLOCK
  5
20
330
1F
100
AcDbEntity
  8
0
100
AcDbBlockBegin
  2
*Model_Space
 70
     0
 10
0.0
 20
0.0
 30
0.0
  3
*Model_Space
  1

  0
ENDBLK
  5
21
330
1F
100
AcDbEntity
  8
0
100
AcDbBlockEnd
  0
BLOCK
  5
1C
330
1B
100
AcDbEntity
 67
     1
  8
0
100
AcDbBlockBegin
  2
*Paper_Space
 70
     0
 10
0.0
 20
0.0
 30
0.0
  3
*Paper_Space
  1

  0
ENDBLK
  5
1D
330
1B
100
AcDbEntity
 67
     1
  8
0
100
AcDbBlockEnd
  0
BLOCK
  5
24
330
23
100
AcDbEntity
  8
0
100
AcDbBlockBegin
  2
*Paper_Space0
 70
     0
 10
0.0
 20
0.0
 30
0.0
  3
*Paper_Space0
  1

  0
ENDBLK
  5
25
330
23
100
AcDbEntity
  8
0
100
AcDbBlockEnd
  0
BLOCK
  5
73
330
72
100
AcDbEntity
  8
0
100
AcDbBlockBegin
  2
_CLOSED
 70
     0
 10
0.0
 20
0.0
 30
0.0
  3
_CLOSED
  1

  0
LINE
  5
75
330
72
100
AcDbEntity
  8
0
  6
ByBlock
 62
     0
370
    -2
100
AcDbLine
 10
-1.0
 20
0.166667
 30
0.0
 11
0.0
 21
0.0
 31
0.0
  0
LINE
  5
76
330
72
100
AcDbEntity
  8
0
  6
ByBlock
 62
     0
370
    -2
100
AcDbLine
 10
0.0
 20
0.0
 30
0.0
 11
-1.0
 21
-0.166667
 31
0.0
  0
LINE
  5
77
330
72
100
AcDbEntity
  8
0
  6
ByBlock
 62
     0
370
    -2
100
AcDbLine
 10
-1.0
 20
0.166667
 30
0.0
 11
-1.0
 21
-0.166667
 31
0.0
  0
LINE
  5
78
330
72
100
AcDbEntity
  8
0
  6
ByBlock
 62
     0
370
    -2
100
AcDbLine
 10
0.0
 20
0.0
 30
0.0
 11
-1.0
 21
0.0
 31
0.0
  0
ENDBLK
  5
74
330
72
100
AcDbEntity
  8
0
100
AcDbBlockEnd
  0
BLOCK
  5
A4
330
7B
100
AcDbEntity
  8
0
100
AcDbBlockBegin
  2
a
 70
     0
 10
153.218689
 20
354.284576
 30
0.0
  3
a
  1

  0
LWPOLYLINE
  5
7C
330
7B
100
AcDbEntity
  8
0
  6
Continuous
 62
     0
370
     0
100
AcDbPolyline
 90
       24
 70
     0
 43
0.0
 10
236.064545
 20
467.535706
 10
236.071198
 20
467.537628
 10
236.080521
 20
467.535004
 10
236.094589
 20
467.5242
 10
236.11731
 20
467.49826
 10
236.155502
 20
467.445038
 10
236.220718
 20
467.343506
 10
236.323013
 20
467.173676
 10
236.452698
 20
466.950134
 10
236.592941
 20
466.703094
 10
236.736084
 20
466.447632
 10
236.879745
 20
466.188904
 10
237.023224
 20
465.92865
 10
237.167282
 20
465.66803
 10
237.313156
 20
465.408112
 10
237.462051
 20
465.14975
 10
237.615112
 20
464.893768
 10
237.773132
 20
464.640808
 10
237.93634
 20
464.391235
 10
238.104858
 20
464.145294
 10
238.278564
 20
463.903046
 10
238.457108
 20
463.664398
 10
238.640884
 20
463.42981
 10
238.835556
 20
463.198395
  0
LWPOLYLINE
  5
7D
330
7B
100
AcDbEntity
  8
0
  6
Continuous
 62
     0
370
     0
100
AcDbPolyline
 90
       15
 70
     0
 43
0.0
 10
238.835556
 20
463.198395
 10
239.946732
 20
463.519714
 10
241.068573
 20
463.803131
 10
242.199432
 20
464.050446
 10
243.339355
 20
464.255371
 10
244.487854
 20
464.411896
 10
245.643478
 20
464.513245
 10
246.803589
 20
464.550171
 10
247.963776
 20
464.51532
 10
249.119583
 20
464.415741
 10
250.268311
 20
464.260712
 10
251.408524
 20
464.05719
 10
252.539642
 20
463.811005
 10
253.661652
 20
463.528259
 10
254.80571
 20
463.198517
  0
LWPOLYLINE
  5
7E
330
7B
100
AcDbEntity
  8
0
  6
Continuous
 62
     0
370
     0
100
AcDbPolyline
 90
       24
 70
     0
 43
0.0
 10
254.80571
 20
463.198517
 10
254.996857
 20
463.426819
 10
255.180756
 20
463.661407
 10
255.359818
 20
463.899841
 10
255.533859
 20
464.141968
 10
255.702576
 20
464.387878
 10
255.86586
 20
464.63739
 10
256.023926
 20
464.890289
 10
256.177002
 20
465.14621
 10
256.325928
 20
465.40451
 10
256.471832
 20
465.664429
 10
256.615906
 20
465.925018
 10
256.759369
 20
466.185272
 10
256.903015
 20
466.444031
 10
257.046173
 20
466.699524
 10
257.186462
 20
466.946747
 10
257.316406
 20
467.170837
 10
257.41922
 20
467.341675
 10
257.484924
 20
467.444122
 10
257.523438
 20
467.497894
 10
257.546326
 20
467.524139
 10
257.560516
 20
467.535126
 10
257.569885
 20
467.537842
 10
257.57666
 20
467.535889
  0
LWPOLYLINE
  5
7F
330
7B
100
AcDbEntity
  8
0
  6
Continuous
 62
     0
370
     0
100
AcDbPolyline
 90
       16
 70
     0
 43
0.0
 10
268.739136
 20
444.06662
 10
268.781311
 20
445.243317
 10
268.79184
 20
446.420959
 10
268.770782
 20
447.59848
 10
268.716644
 20
448.774811
 10
268.626465
 20
449.948944
 10
268.49649
 20
451.119446
 10
268.32135
 20
452.284027
 10
268.095612
 20
453.440002
 10
267.814453
 20
454.58371
 10
267.473511
 20
455.711151
 10
267.069855
 20
456.817688
 10
266.601715
 20
457.89856
 10
266.069794
 20
458.949524
 10
265.476044
 20
459.966736
 10
264.781616
 20
461.00824
  0
LWPOLYLINE
  5
80
330
7B
100
AcDbEntity
  8
0
  6
Continuous
 62
     0
370
     0
100
AcDbPolyline
 90
       26
 70
     0
 43
0.0
 10
257.585754
 20
467.528137
 10
258.575439
 20
466.936615
 10
259.532623
 20
466.290588
 10
260.455353
 20
465.593719
 10
261.340393
 20
464.850098
 10
262.184753
 20
464.063477
 10
262.986816
 20
463.235474
 10
263.745178
 20
462.367004
 10
264.456665
 20
461.45929
 10
265.117035
 20
460.513702
 10
265.720306
 20
459.530884
 10
266.260162
 20
458.511719
 10
266.732269
 20
457.459473
 10
267.134613
 20
456.378693
 10
267.471008
 20
455.275543
 10
267.747345
 20
454.156036
 10
267.971924
 20
453.024963
 10
268.153107
 20
451.886322
 10
268.298615
 20
450.742493
 10
268.41571
 20
449.595551
 10
268.509552
 20
448.446472
 10
268.584351
 20
447.29599
 10
268.643433
 20
446.144653
 10
268.688599
 20
444.992706
 10
268.721283
 20
443.840302
 10
268.74292
 20
442.662506
  0
LWPOLYLINE
  5
81
330
7B
100
AcDbEntity
  8
0
  6
Continuous
 62
     0
370
     0
100
AcDbPolyline
 90
       27
 70
     0
 43
0.0
 10
254.80571
 20
463.198517
 10
255.470016
 20
462.289581
 10
256.098053
 20
461.354797
 10
256.695709
 20
460.400513
 10
257.263275
 20
459.428131
 10
257.802094
 20
458.439484
 10
258.312561
 20
457.436066
 10
258.785797
 20
456.41452
 10
259.203613
 20
455.369263
 10
259.550812
 20
454.298248
 10
259.827118
 20
453.206818
 10
260.041412
 20
452.101379
 10
260.205017
 20
450.987366
 10
260.328461
 20
449.868103
 10
260.421051
 20
448.745972
 10
260.490326
 20
447.622101
 10
260.543091
 20
446.497375
 10
260.582977
 20
445.372162
 10
260.612549
 20
444.246643
 10
260.633972
 20
443.120941
 10
260.648499
 20
441.995148
 10
260.657288
 20
440.869293
 10
260.661285
 20
439.743408
 10
260.661224
 20
438.617554
 10
260.657776
 20
437.49176
 10
260.651733
 20
436.366028
 10
260.643982
 20
435.214569
  0
LWPOLYLINE
  5
82
330
7B
100
AcDbEntity
  8
0
  6
Continuous
 62
     0
370
     0
100
AcDbPolyline
 90
       31
 70
     0
 43
0.0
 10
260.643982
 20
435.214569
 10
260.946075
 20
435.214294
 10
261.248169
 20
435.21402
 10
261.550232
 20
435.213776
 10
261.852325
 20
435.213531
 10
262.154388
 20
435.213257
 10
262.456482
 20
435.213043
 10
262.758514
 20
435.212799
 10
263.060577
 20
435.212585
 10
263.36264
 20
435.212341
 10
263.664673
 20
435.212158
 10
263.966705
 20
435.211945
 10
264.268738
 20
435.211761
 10
264.57074
 20
435.211548
 10
264.872742
 20
435.211365
 10
265.174652
 20
435.211182
 10
265.476501
 20
435.210968
 10
265.778229
 20
435.210785
 10
266.079834
 20
435.210541
 10
266.381287
 20
435.210297
 10
266.682556
 20
435.209991
 10
266.98349
 20
435.209595
 10
267.283875
 20
435.208984
 10
267.582855
 20
435.207733
 10
267.878693
 20
435.205078
 10
268.165527
 20
435.199188
 10
268.421417
 20
435.186157
 10
268.608582
 20
435.163696
 10
268.716827
 20
435.127228
 10
268.768219
 20
435.066284
 10
268.782196
 20
434.977753
  0
LWPOLYLINE
  5
83
330
7B
100
AcDbEntity
  8
0
  6
Continuous
 62
     0
370
     0
100
AcDbPolyline
 90
        8
 70
     0
 43
0.0
 10
236.161011
 20
394.733856
 10
239.19278
 20
394.680725
 10
242.226807
 20
394.656097
 10
245.262192
 20
394.646881
 10
248.298126
 20
394.64679
 10
251.333542
 20
394.655762
 10
254.367599
 20
394.679932
 10
257.481476
 20
394.734039
  0
LWPOLYLINE
  5
84
330
7B
100
AcDbEntity
  8
0
  6
Continuous
 62
     0
370
     0
100
AcDbPolyline
 90
       78
 70
     0
 43
0.0
 10
257.481476
 20
394.734039
 10
257.930145
 20
395.039856
 10
258.332916
 20
395.400757
 10
258.68103
 20
395.811554
 10
258.962494
 20
396.268005
 10
259.179779
 20
396.756439
 10
259.347656
 20
397.262817
 10
259.479523
 20
397.779114
 10
259.585358
 20
398.301025
 10
259.672455
 20
398.826111
 10
259.745392
 20
399.35321
 10
259.807465
 20
399.881561
 10
259.860443
 20
400.410919
 10
259.905884
 20
400.940979
 10
259.945343
 20
401.471497
 10
259.980316
 20
402.002319
 10
260.011658
 20
402.533264
 10
260.039795
 20
403.064331
 10
260.065186
 20
403.59552
 10
260.088257
 20
404.126831
 10
260.109467
 20
404.658173
 10
260.129181
 20
405.189606
 10
260.147675
 20
405.721039
 10
260.165039
 20
406.252533
 10
260.181427
 20
406.784088
 10
260.196991
 20
407.315643
 10
260.211853
 20
407.847229
 10
260.226196
 20
408.378815
 10
260.240112
 20
408.910431
 10
260.253693
 20
409.442047
 10
260.266968
 20
409.973663
 10
260.279907
 20
410.50531
 10
260.292572
 20
411.036987
 10
260.304901
 20
411.568695
 10
260.316986
 20
412.100433
 10
260.328796
 20
412.632233
 10
260.340332
 20
413.164062
 10
260.351624
 20
413.695923
 10
260.362671
 20
414.227875
 10
260.373474
 20
414.759857
 10
260.384033
 20
415.291901
 10
260.394379
 20
415.824036
 10
260.40451
 20
416.356232
 10
260.414459
 20
416.888519
 10
260.424164
 20
417.420868
 10
260.433685
 20
417.953308
 10
260.442993
 20
418.48584
 10
260.452118
 20
419.018463
 10
260.46106
 20
419.551208
 10
260.469818
 20
420.084045
 10
260.478394
 20
420.617065
 10
260.486816
 20
421.150238
 10
260.495056
 20
421.683563
 10
260.503113
 20
422.217072
 10
260.511017
 20
422.750793
 10
260.518738
 20
423.284729
 10
260.526337
 20
423.818939
 10
260.533752
 20
424.353394
 10
260.541016
 20
424.888214
 10
260.548126
 20
425.42337
 10
260.555115
 20
425.959076
 10
260.56192
 20
426.495392
 10
260.568573
 20
427.032532
 10
260.575043
 20
427.570587
 10
260.581329
 20
428.10968
 10
260.587402
 20
428.649933
 10
260.593231
 20
429.191406
 10
260.598877
 20
429.734222
 10
260.604248
 20
430.278442
 10
260.609375
 20
430.823914
 10
260.614288
 20
431.370514
 10
260.618988
 20
431.91803
 10
260.623474
 20
432.466278
 10
260.627808
 20
433.015076
 10
260.632019
 20
433.56424
 10
260.636078
 20
434.113678
 10
260.640076
 20
434.663239
 10
260.643982
 20
435.214569
  0
LWPOLYLINE
  5
85
330
7B
100
AcDbEntity
  8
0
  6
Continuous
 62
     0
370
     0
100
AcDbPolyline
 90
       27
 70
     0
 43
0.0
 10
238.835556
 20
463.198395
 10
238.171921
 20
462.28891
 10
237.543335
 20
461.354553
 10
236.945526
 20
460.400391
 10
236.378082
 20
459.427917
 10
235.839264
 20
458.439301
 10
235.328812
 20
457.435852
 10
234.855591
 20
456.414276
 10
234.43779
 20
455.369019
 10
234.090607
 20
454.298004
 10
233.814331
 20
453.206573
 10
233.600052
 20
452.101135
 10
233.436462
 20
450.987091
 10
233.313049
 20
449.867859
 10
233.220474
 20
448.745728
 10
233.151215
 20
447.621826
 10
233.09845
 20
446.497101
 10
233.058594
 20
445.371887
 10
233.029053
 20
444.246368
 10
233.00766
 20
443.120697
 10
232.993134
 20
441.994873
 10
232.984375
 20
440.869019
 10
232.980392
 20
439.743134
 10
232.980484
 20
438.617279
 10
232.983932
 20
437.491486
 10
232.98999
 20
436.365753
 10
232.997772
 20
435.214325
  0
LWPOLYLINE
  5
86
330
7B
100
AcDbEntity
  8
0
  6
Continuous
 62
     0
370
     0
100
AcDbPolyline
 90
       78
 70
     0
 43
0.0
 10
232.997772
 20
435.214325
 10
233.001694
 20
434.664703
 10
233.005692
 20
434.115173
 10
233.009766
 20
433.565735
 10
233.013962
 20
433.016571
 10
233.018311
 20
432.467804
 10
233.022827
 20
431.919556
 10
233.027527
 20
431.37204
 10
233.03244
 20
430.82547
 10
233.037582
 20
430.279999
 10
233.042969
 20
429.735779
 10
233.048599
 20
429.192963
 10
233.054459
 20
428.651489
 10
233.060547
 20
428.111267
 10
233.066818
 20
427.572174
 10
233.073303
 20
427.034119
 10
233.079956
 20
426.497009
 10
233.086777
 20
425.960693
 10
233.093765
 20
425.425018
 10
233.100906
 20
424.889862
 10
233.108185
 20
424.355072
 10
233.115616
 20
423.820587
 10
233.123199
 20
423.286438
 10
233.130936
 20
422.752502
 10
233.13884
 20
422.218781
 10
233.146912
 20
421.685272
 10
233.155167
 20
421.151947
 10
233.163574
 20
420.618805
 10
233.172165
 20
420.085815
 10
233.180939
 20
419.552979
 10
233.189896
 20
419.020233
 10
233.199036
 20
418.48761
 10
233.208359
 20
417.955109
 10
233.21788
 20
417.422668
 10
233.2276
 20
416.89035
 10
233.237534
 20
416.358063
 10
233.247665
 20
415.825897
 10
233.258026
 20
415.293793
 10
233.268616
 20
414.761749
 10
233.279434
 20
414.229767
 10
233.290482
 20
413.697845
 10
233.301773
 20
413.165985
 10
233.313324
 20
412.634155
 10
233.325134
 20
412.102386
 10
233.337219
 20
411.570648
 10
233.349579
 20
411.038971
 10
233.362228
 20
410.507294
 10
233.375183
 20
409.975677
 10
233.388458
 20
409.444061
 10
233.402054
 20
408.912445
 10
233.415985
 20
408.380859
 10
233.430313
 20
407.849274
 10
233.44519
 20
407.317688
 10
233.46077
 20
406.786163
 10
233.477158
 20
406.254639
 10
233.494537
 20
405.723145
 10
233.513016
 20
405.191711
 10
233.532745
 20
404.660309
 10
233.553955
 20
404.128967
 10
233.577026
 20
403.597687
 10
233.602417
 20
403.066498
 10
233.630554
 20
402.535431
 10
233.66188
 20
402.004486
 10
233.696838
 20
401.473724
 10
233.736282
 20
400.943176
 10
233.781693
 20
400.413116
 10
233.834641
 20
399.883789
 10
233.896683
 20
399.355438
 10
233.969574
 20
398.828369
 10
234.05661
 20
398.303253
 10
234.162323
 20
397.781342
 10
234.294052
 20
397.265045
 10
234.461761
 20
396.758606
 10
234.678757
 20
396.270081
 10
234.9599
 20
395.813446
 10
235.307602
 20
395.402344
 10
235.709839
 20
395.040894
 10
236.161011
 20
394.733856
  0
LWPOLYLINE
  5
87
330
7B
100
AcDbEntity
  8
0
  6
Continuous
 62
     0
370
     0
100
AcDbPolyline
 90
       20
 70
     0
 43
0.0
 10
257.481476
 20
394.734039
 10
257.765137
 20
394.583954
 10
258.040619
 20
394.419037
 10
258.309509
 20
394.243744
 10
258.571198
 20
394.058136
 10
258.824188
 20
393.860718
 10
259.066925
 20
393.650726
 10
259.297607
 20
393.427734
 10
259.516144
 20
393.192657
 10
259.725067
 20
392.948425
 10
259.92746
 20
392.698944
 10
260.126648
 20
392.448364
 10
260.323669
 20
392.194946
 10
260.508789
 20
391.946198
 10
260.660248
 20
391.725159
 10
260.76181
 20
391.55368
 10
260.819977
 20
391.430664
 10
260.848999
 20
391.342651
 10
260.854553
 20
391.28418
 10
260.836304
 20
391.256805
  0
LWPOLYLINE
  5
88
330
7B
100
AcDbEntity
  8
0
  6
Continuous
 62
     0
370
     0
100
AcDbPolyline
 90
       20
 70
     0
 43
0.0
 10
236.161011
 20
394.733856
 10
235.877487
 20
394.583405
 10
235.602051
 20
394.418365
 10
235.333023
 20
394.243195
 10
235.071182
 20
394.057739
 10
234.818069
 20
393.860413
 10
234.575333
 20
393.65033
 10
234.344666
 20
393.427277
 10
234.126129
 20
393.192169
 10
233.917191
 20
392.947906
 10
233.714767
 20
392.698364
 10
233.515579
 20
392.447784
 10
233.318527
 20
392.194305
 10
233.133438
 20
391.945557
 10
232.98204
 20
391.724548
 10
232.880585
 20
391.553162
 10
232.822464
 20
391.430206
 10
232.793503
 20
391.342224
 10
232.787994
 20
391.283813
 10
232.806274
 20
391.256531
  0
LWPOLYLINE
  5
89
330
7B
100
AcDbEntity
  8
0
  6
Continuous
 62
     0
370
     0
100
AcDbPolyline
 90
       26
 70
     0
 43
0.0
 10
224.899078
 20
442.689972
 10
224.920349
 20
443.841461
 10
224.953003
 20
444.992676
 10
224.998077
 20
446.143463
 10
225.057098
 20
447.29364
 10
225.131744
 20
448.442963
 10
225.225403
 20
449.590851
 10
225.342255
 20
450.736694
 10
225.487427
 20
451.879364
 10
225.668137
 20
453.016907
 10
225.892136
 20
454.146912
 10
226.167725
 20
455.265411
 10
226.503159
 20
456.367615
 10
226.904373
 20
457.447571
 10
227.375183
 20
458.499115
 10
227.913666
 20
459.51767
 10
228.515518
 20
460.5
 10
229.174423
 20
461.44519
 10
229.884415
 20
462.35257
 10
230.641266
 20
463.220856
 10
231.441742
 20
464.048737
 10
232.28447
 20
464.835327
 10
233.167847
 20
465.579102
 10
234.088882
 20
466.276276
 10
235.044388
 20
466.922791
 10
236.055435
 20
467.527954
  0
LWPOLYLINE
  5
8A
330
7B
100
AcDbEntity
  8
0
  6
Continuous
 62
     0
370
     0
100
AcDbPolyline
 90
       16
 70
     0
 43
0.0
 10
228.744446
 20
460.844177
 10
228.106247
 20
459.871185
 10
227.52504
 20
458.86322
 10
227.004379
 20
457.822601
 10
226.546051
 20
456.753052
 10
226.150665
 20
455.658752
 10
225.81633
 20
454.54425
 10
225.540222
 20
453.414032
 10
225.3181
 20
452.271942
 10
225.145294
 20
451.12149
 10
225.016586
 20
449.96524
 10
224.926773
 20
448.80542
 10
224.872208
 20
447.643433
 10
224.850037
 20
446.480255
 10
224.858673
 20
445.316895
 10
224.90242
 20
444.067017
  0
LWPOLYLINE
  5
8B
330
7B
100
AcDbEntity
  8
0
  6
Continuous
 62
     0
370
     0
100
AcDbPolyline
 90
       31
 70
     0
 43
0.0
 10
224.859558
 20
434.977264
 10
224.873337
 20
435.065399
 10
224.924438
 20
435.126526
 10
225.032196
 20
435.163116
 10
225.218811
 20
435.185638
 10
225.47438
 20
435.19873
 10
225.761139
 20
435.204681
 10
226.056946
 20
435.207367
 10
226.355942
 20
435.208618
 10
226.656326
 20
435.209229
 10
226.95726
 20
435.209625
 10
227.25853
 20
435.20993
 10
227.559998
 20
435.210205
 10
227.861618
 20
435.210449
 10
228.163361
 20
435.210663
 10
228.46521
 20
435.210846
 10
228.767151
 20
435.21106
 10
229.069138
 20
435.211243
 10
229.371155
 20
435.211426
 10
229.673203
 20
435.211639
 10
229.97525
 20
435.211853
 10
230.277298
 20
435.212067
 10
230.579361
 20
435.21228
 10
230.881424
 20
435.212524
 10
231.183487
 20
435.212769
 10
231.485565
 20
435.213013
 10
231.787659
 20
435.213257
 10
232.089752
 20
435.213501
 10
232.391846
 20
435.213776
 10
232.693939
 20
435.21405
 10
232.997772
 20
435.214325
  0
LWPOLYLINE
  5
8C
330
7B
100
AcDbEntity
  8
0
  6
Continuous
 62
     0
370
    30
100
AcDbPolyline
 90
        4
 70
     0
 43
0.0
 10
224.892258
 20
444.139191
 10
224.715393
 20
445.372345
 10
224.607834
 20
446.613312
 10
224.570892
 20
447.933655
  0
LWPOLYLINE
  5
8D
330
7B
100
AcDbEntity
  8
0
  6
Continuous
 62
     0
370
    30
100
AcDbPolyline
 90
        4
 70
     0
 43
0.0
 10
269.070648
 20
447.934052
 10
269.038025
 20
446.690002
 10
268.934784
 20
445.448578
 10
268.749298
 20
444.139282
  0
LWPOLYLINE
  5
8E
330
7B
100
AcDbEntity
  8
0
  6
Continuous
 62
     0
370
    30
100
AcDbPolyline
 90
       12
 70
     0
 43
0.0
 10
229.008377
 20
461.218567
 10
228.260147
 20
460.143921
 10
227.580002
 20
459.03064
 10
226.969727
 20
457.882568
 10
226.429642
 20
456.704163
 10
225.959259
 20
455.500092
 10
225.557449
 20
454.274994
 10
225.22316
 20
453.031952
 10
224.955704
 20
451.773102
 10
224.756241
 20
450.502411
 10
224.626923
 20
449.224854
 10
224.570816
 20
447.933655
  0
LWPOLYLINE
  5
8F
330
7B
100
AcDbEntity
  8
0
  6
Continuous
 62
     0
370
    30
100
AcDbPolyline
 90
       12
 70
     0
 43
0.0
 10
269.070709
 20
447.934052
 10
269.015442
 20
449.21347
 10
268.886902
 20
450.490021
 10
268.688293
 20
451.759827
 10
268.421753
 20
453.017853
 10
268.088531
 20
454.260101
 10
267.687866
 20
455.484436
 10
267.218781
 20
456.687866
 10
266.680115
 20
457.865723
 10
266.071381
 20
459.013367
 10
265.392853
 20
460.126373
 10
264.63916
 20
461.210449
  0
ARC
  5
90
330
7B
100
AcDbEntity
  8
0
  6
Continuous
 62
     0
370
     0
100
AcDbCircle
 10
246.820769
 20
447.886659
 30
0.0
 40
89.0
100
AcDbArc
 50
180.0
 51
0.0
  0
ARC
  5
91
330
7B
100
AcDbEntity
  8
0
  6
Continuous
 62
     0
370
     0
100
AcDbCircle
 10
246.820769
 20
447.886659
 30
0.0
 40
89.0
100
AcDbArc
 50
360.0
 51
180.0
  0
ARC
  5
92
330
7B
100
AcDbEntity
  8
0
  6
Continuous
 62
     0
370
    30
100
AcDbCircle
 10
246.820769
 20
447.886659
 30
0.0
 40
89.99999999999996
100
AcDbArc
 50
360.0
 51
180.0
  0
ARC
  5
93
330
7B
100
AcDbEntity
  8
0
  6
Continuous
 62
     0
370
    30
100
AcDbCircle
 10
246.820769
 20
447.886659
 30
0.0
 40
89.99999999999997
100
AcDbArc
 50
180.0
 51
0.0
  0
LWPOLYLINE
  5
94
330
7B
100
AcDbEntity
  8
0
  6
Continuous
 62
     0
370
    30
100
AcDbPolyline
 90
        6
 70
     0
 43
0.0
 10
268.737793
 20
444.033142
 10
268.740021
 20
444.059479
 10
268.742523
 20
444.084656
 10
268.745087
 20
444.106445
 10
268.747314
 20
444.123047
 10
268.749847
 20
444.139191
  0
LWPOLYLINE
  5
95
330
7B
100
AcDbEntity
  8
0
  6
Continuous
 62
     0
370
    30
100
AcDbPolyline
 90
        6
 70
     0
 43
0.0
 10
224.891724
 20
444.139099
 10
224.894135
 20
444.123718
 10
224.896286
 20
444.10791
 10
224.898788
 20
444.086823
 10
224.901306
 20
444.062134
 10
224.903839
 20
444.032654
  0
LWPOLYLINE
  5
96
330
7B
100
AcDbEntity
  8
0
  6
Continuous
 62
     0
370
    30
100
AcDbPolyline
 90
       70
 70
     0
 43
0.0
 10
232.805923
 20
391.25647
 10
232.148987
 20
391.468842
 10
231.503769
 20
391.713379
 10
230.875488
 20
391.997406
 10
230.272018
 20
392.328583
 10
229.702957
 20
392.713867
 10
229.180481
 20
393.157166
 10
228.715179
 20
393.656891
 10
228.310837
 20
394.204285
 10
227.96698
 20
394.788757
 10
227.675354
 20
395.398804
 10
227.425644
 20
396.025482
 10
227.208008
 20
396.663116
 10
227.015457
 20
397.308075
 10
226.844421
 20
397.958649
 10
226.691696
 20
398.613434
 10
226.554474
 20
399.271332
 10
226.430557
 20
399.931671
 10
226.31839
 20
400.593964
 10
226.216476
 20
401.257782
 10
226.123367
 20
401.922729
 10
226.038025
 20
402.588562
 10
225.959702
 20
403.255127
 10
225.887573
 20
403.922272
 10
225.820908
 20
404.589874
 10
225.759109
 20
405.257812
 10
225.701752
 20
405.926086
 10
225.648422
 20
406.594604
 10
225.598724
 20
407.263336
 10
225.552216
 20
407.93219
 10
225.508575
 20
408.601196
 10
225.46759
 20
409.270294
 10
225.429047
 20
409.939514
 10
225.392761
 20
410.608856
 10
225.358505
 20
411.27832
 10
225.326157
 20
411.947906
 10
225.295563
 20
412.617615
 10
225.266556
 20
413.287506
 10
225.239029
 20
413.95752
 10
225.212921
 20
414.627716
 10
225.188171
 20
415.298065
 10
225.164719
 20
415.968628
 10
225.142502
 20
416.639374
 10
225.121429
 20
417.310303
 10
225.101456
 20
417.981476
 10
225.08252
 20
418.652893
 10
225.06459
 20
419.324554
 10
225.047607
 20
419.996521
 10
225.03154
 20
420.668762
 10
225.016342
 20
421.34137
 10
225.001953
 20
422.014343
 10
224.988297
 20
422.687744
 10
224.975281
 20
423.361725
 10
224.96283
 20
424.036346
 10
224.950867
 20
424.71167
 10
224.939407
 20
425.387878
 10
224.928513
 20
426.065063
 10
224.918228
 20
426.743317
 10
224.90863
 20
427.422791
 10
224.899765
 20
428.103577
 10
224.891678
 20
428.785858
 10
224.884476
 20
429.469635
 10
224.87825
 20
430.154877
 10
224.873077
 20
430.841431
 10
224.868942
 20
431.529083
 10
224.865753
 20
432.217621
 10
224.863373
 20
432.90686
 10
224.861649
 20
433.596588
 10
224.860443
 20
434.286621
 10
224.859573
 20
434.977264
  0
LWPOLYLINE
  5
97
330
7B
100
AcDbEntity
  8
0
  6
Continuous
 62
     0
370
    30
100
AcDbPolyline
 90
       12
 70
     0
 43
0.0
 10
224.859619
 20
434.986359
 10
224.858963
 20
435.6987
 10
224.858765
 20
436.410858
 10
224.859222
 20
437.122742
 10
224.860504
 20
437.834015
 10
224.862732
 20
438.544159
 10
224.865952
 20
439.252563
 10
224.87027
 20
439.958649
 10
224.875778
 20
440.660217
 10
224.882538
 20
441.354828
 10
224.890457
 20
442.031281
 10
224.899231
 20
442.689972
  0
LWPOLYLINE
  5
98
330
7B
100
AcDbEntity
  8
0
  6
Continuous
 62
     0
370
    30
100
AcDbPolyline
 90
       16
 70
     0
 43
0.0
 10
236.064545
 20
467.535706
 10
235.557022
 20
467.241943
 10
235.057892
 20
466.933777
 10
234.56749
 20
466.611725
 10
234.08609
 20
466.276337
 10
233.614029
 20
465.928101
 10
233.151489
 20
465.567505
 10
232.698593
 20
465.194946
 10
232.255585
 20
464.81076
 10
231.822769
 20
464.415192
 10
231.400482
 20
464.008606
 10
230.988937
 20
463.591278
 10
230.588547
 20
463.163544
 10
230.199799
 20
462.725769
 10
229.823685
 20
462.2789
 10
229.46524
 20
461.829254
  0
LWPOLYLINE
  5
99
330
7B
100
AcDbEntity
  8
0
  6
Continuous
 62
     0
370
    30
100
AcDbPolyline
 90
       13
 70
     0
 43
0.0
 10
224.900772
 20
442.809631
 10
224.903778
 20
443.063812
 10
224.905685
 20
443.258606
 10
224.906662
 20
443.394379
 10
224.906982
 20
443.470276
 10
224.907043
 20
443.541748
 10
224.90686
 20
443.625671
 10
224.906403
 20
443.726471
 10
224.90564
 20
443.843719
 10
224.90477
 20
443.947784
 10
224.904037
 20
444.016113
 10
224.903534
 20
444.054016
 10
224.903305
 20
444.067078
  0
LWPOLYLINE
  5
9A
330
7B
100
AcDbEntity
  8
0
  6
Continuous
 62
     0
370
    30
100
AcDbPolyline
 90
        2
 70
     0
 43
0.0
 10
228.108093
 20
459.861511
 10
228.115799
 20
459.874207
  0
LWPOLYLINE
  5
9B
330
7B
100
AcDbEntity
  8
0
  6
Continuous
 62
     0
370
    30
100
AcDbPolyline
 90
       23
 70
     0
 43
0.0
 10
229.462631
 20
461.825806
 10
229.411545
 20
461.759644
 10
229.359665
 20
461.691925
 10
229.307938
 20
461.623871
 10
229.256073
 20
461.555084
 10
229.205307
 20
461.487183
 10
229.151596
 20
461.414795
 10
229.098099
 20
461.342041
 10
229.041245
 20
461.263977
 10
228.983994
 20
461.184662
 10
228.921265
 20
461.096863
 10
228.860397
 20
461.010773
 10
228.794922
 20
460.917114
 10
228.727234
 20
460.819153
 10
228.65538
 20
460.713837
 10
228.57962
 20
460.601257
 10
228.501846
 20
460.483978
 10
228.419693
 20
460.358215
 10
228.334167
 20
460.225037
 10
228.24971
 20
460.091248
 10
228.174301
 20
459.969788
 10
228.124542
 20
459.88858
 10
228.108093
 20
459.861511
  0
LWPOLYLINE
  5
9C
330
7B
100
AcDbEntity
  8
0
  6
Continuous
 62
     0
370
    30
100
AcDbPolyline
 90
       22
 70
     0
 43
0.0
 10
260.836395
 20
391.2565
 10
259.536102
 20
390.913666
 10
258.218872
 20
390.639282
 10
256.891815
 20
390.415405
 10
255.558075
 20
390.232361
 10
254.219818
 20
390.083496
 10
252.878586
 20
389.963776
 10
251.535141
 20
389.870697
 10
250.190109
 20
389.802399
 10
248.844055
 20
389.757446
 10
247.497391
 20
389.735016
 10
246.150497
 20
389.734619
 10
244.803802
 20
389.756622
 10
243.457748
 20
389.801666
 10
242.112762
 20
389.870392
 10
240.769333
 20
389.963531
 10
239.428055
 20
390.082886
 10
238.089874
 20
390.231781
 10
236.75618
 20
390.414764
 10
235.428894
 20
390.638031
 10
234.111664
 20
390.912231
 10
232.806122
 20
391.256256
  0
LWPOLYLINE
  5
9D
330
7B
100
AcDbEntity
  8
0
  6
Continuous
 62
     0
370
    30
100
AcDbPolyline
 90
       71
 70
     0
 43
0.0
 10
268.782135
 20
434.977753
 10
268.781311
 20
434.297577
 10
268.780151
 20
433.617523
 10
268.778503
 20
432.937744
 10
268.776215
 20
432.258423
 10
268.773102
 20
431.579742
 10
268.769104
 20
430.901886
 10
268.76413
 20
430.225128
 10
268.758148
 20
429.549622
 10
268.75116
 20
428.875519
 10
268.743317
 20
428.20285
 10
268.73465
 20
427.531586
 10
268.725281
 20
426.861633
 10
268.715271
 20
426.192902
 10
268.704681
 20
425.52533
 10
268.693573
 20
424.858765
 10
268.681946
 20
424.193054
 10
268.6698
 20
423.528076
 10
268.657135
 20
422.863678
 10
268.643829
 20
422.199829
 10
268.629883
 20
421.536438
 10
268.615143
 20
420.873413
 10
268.599609
 20
420.210754
 10
268.583191
 20
419.54837
 10
268.565857
 20
418.886292
 10
268.547546
 20
418.224487
 10
268.528259
 20
417.562897
 10
268.507904
 20
416.90155
 10
268.486481
 20
416.240387
 10
268.463898
 20
415.579437
 10
268.440063
 20
414.918671
 10
268.414978
 20
414.258057
 10
268.388489
 20
413.597626
 10
268.360565
 20
412.937347
 10
268.331207
 20
412.277191
 10
268.300201
 20
411.617188
 10
268.267456
 20
410.957306
 10
268.232819
 20
410.297577
 10
268.196075
 20
409.637909
 10
268.157074
 20
408.978394
 10
268.115601
 20
408.319
 10
268.071442
 20
407.659729
 10
268.024414
 20
407.000549
 10
267.974121
 20
406.341553
 10
267.920197
 20
405.68277
 10
267.862213
 20
405.024261
 10
267.799683
 20
404.366058
 10
267.732239
 20
403.708252
 10
267.659271
 20
403.050934
 10
267.580109
 20
402.394226
 10
267.493927
 20
401.738281
 10
267.399963
 20
401.083221
 10
267.297119
 20
400.429352
 10
267.18396
 20
399.7771
 10
267.059021
 20
399.126831
 10
266.920654
 20
398.479065
 10
266.766785
 20
397.834412
 10
266.594696
 20
397.194092
 10
266.401123
 20
396.559601
 10
266.182129
 20
395.932739
 10
265.930939
 20
395.316864
 10
265.637512
 20
394.71817
 10
265.292267
 20
394.145538
 10
264.888275
 20
393.609772
 10
264.424286
 20
393.121796
 10
263.905731
 20
392.688843
 10
263.342865
 20
392.312134
 10
262.747009
 20
391.987762
 10
262.127289
 20
391.708923
 10
261.491211
 20
391.46817
 10
260.8367
 20
391.256775
  0
LWPOLYLINE
  5
9E
330
7B
100
AcDbEntity
  8
0
  6
Continuous
 62
     0
370
    30
100
AcDbPolyline
 90
       18
 70
     0
 43
0.0
 10
268.782135
 20
434.987823
 10
268.782623
 20
435.450745
 10
268.782928
 20
435.913605
 10
268.78299
 20
436.376373
 10
268.782776
 20
436.83902
 10
268.782227
 20
437.301514
 10
268.781342
 20
437.763702
 10
268.78009
 20
438.225433
 10
268.778412
 20
438.686554
 10
268.776276
 20
439.146942
 10
268.773712
 20
439.606476
 10
268.77066
 20
440.064545
 10
268.76709
 20
440.520508
 10
268.763
 20
440.97406
 10
268.758392
 20
441.42337
 10
268.753265
 20
441.864838
 10
268.747833
 20
442.288116
 10
268.742767
 20
442.662506
  0
LWPOLYLINE
  5
9F
330
7B
100
AcDbEntity
  8
0
  6
Continuous
 62
     0
370
    30
100
AcDbPolyline
 90
       13
 70
     0
 43
0.0
 10
264.181122
 20
461.823029
 10
263.741943
 20
462.371033
 10
263.268341
 20
462.923889
 10
262.776001
 20
463.461792
 10
262.266174
 20
463.983765
 10
261.739594
 20
464.489105
 10
261.196808
 20
464.977234
 10
260.638458
 20
465.447571
 10
260.065002
 20
465.899536
 10
259.476746
 20
466.332367
 10
258.874176
 20
466.745209
 10
258.257812
 20
467.137054
 10
257.57666
 20
467.535889
  0
LWPOLYLINE
  5
A0
330
7B
100
AcDbEntity
  8
0
  6
Continuous
 62
     0
370
    30
100
AcDbPolyline
 90
       13
 70
     0
 43
0.0
 10
268.738281
 20
444.066681
 10
268.738098
 20
444.055023
 10
268.73761
 20
444.018646
 10
268.736877
 20
443.951874
 10
268.736023
 20
443.849579
 10
268.735229
 20
443.731812
 10
268.734772
 20
443.630432
 10
268.734589
 20
443.54538
 10
268.734619
 20
443.473663
 10
268.734924
 20
443.399536
 10
268.73587
 20
443.267365
 10
268.737732
 20
443.075684
 10
268.740845
 20
442.810303
  0
LWPOLYLINE
  5
A1
330
7B
100
AcDbEntity
  8
0
  6
Continuous
 62
     0
370
    30
100
AcDbPolyline
 90
       31
 70
     0
 43
0.0
 10
265.57193
 20
459.797913
 10
265.564545
 20
459.81015
 10
265.537903
 20
459.854248
 10
265.496826
 20
459.921631
 10
265.442902
 20
460.009277
 10
265.384491
 20
460.103058
 10
265.325012
 20
460.197388
 10
265.265472
 20
460.29068
 10
265.20929
 20
460.377716
 10
265.152466
 20
460.464722
 10
265.098511
 20
460.546478
 10
265.044647
 20
460.627228
 10
264.993744
 20
460.70282
 10
264.942963
 20
460.777527
 10
264.895111
 20
460.84729
 10
264.848541
 20
460.914581
 10
264.800476
 20
460.983459
 10
264.753845
 20
461.049713
 10
264.710144
 20
461.111389
 10
264.666016
 20
461.173096
 10
264.621277
 20
461.235229
 10
264.579163
 20
461.293365
 10
264.538727
 20
461.348724
 10
264.497223
 20
461.405121
 10
264.456055
 20
461.460785
 10
264.416321
 20
461.51413
 10
264.376251
 20
461.567566
 10
264.335907
 20
461.621033
 10
264.296295
 20
461.673218
 10
264.254974
 20
461.727295
 10
264.221771
 20
461.770508
  0
LWPOLYLINE
  5
A2
330
7B
100
AcDbEntity
  8
0
  6
Continuous
 62
     0
370
    30
100
AcDbPolyline
 90
       17
 70
     0
 43
0.0
 10
264.935333
 20
460.785522
 10
264.980896
 20
460.718964
 10
265.027771
 20
460.649872
 10
265.077545
 20
460.575775
 10
265.128357
 20
460.499481
 10
265.178375
 20
460.423553
 10
265.226807
 20
460.349365
 10
265.273071
 20
460.277771
 10
265.318573
 20
460.206665
 10
265.363403
 20
460.136017
 10
265.404022
 20
460.07135
 10
265.445068
 20
460.005432
 10
265.480469
 20
459.948181
 10
265.514923
 20
459.891907
 10
265.543335
 20
459.845184
 10
265.563507
 20
459.811859
 10
265.57193
 20
459.797913
  0
LWPOLYLINE
  5
A3
330
7B
100
AcDbEntity
  8
0
  6
Continuous
 62
     0
370
    30
100
AcDbPolyline
 90
       19
 70
     0
 43
0.0
 10
236.064514
 20
467.535767
 10
237.168121
 20
468.10965
 10
238.30452
 20
468.616089
 10
239.468994
 20
469.054718
 10
240.656876
 20
469.425537
 10
241.863876
 20
469.728455
 10
243.085831
 20
469.963837
 10
244.318802
 20
470.13205
 10
245.559113
 20
470.233246
 10
246.803116
 20
470.267578
 10
248.047165
 20
470.235138
 10
249.287613
 20
470.135834
 10
250.520859
 20
469.969543
 10
251.743195
 20
469.736053
 10
252.950668
 20
469.435059
 10
254.139191
 20
469.066254
 10
255.304337
 20
468.629486
 10
256.441589
 20
468.124908
 10
257.576691
 20
467.53595
  0
ENDBLK
  5
A5
330
7B
100
AcDbEntity
  8
0
100
AcDbBlockEnd
  0
BLOCK
  5
DB
330
A7
100
AcDbEntity
  8
0
100
AcDbBlockBegin
  2
b
 70
     0
 10
0.0
 20
280.202667
 30
0.0
  3
b
  1

  0
LINE
  5
A8
330
A7
100
AcDbEntity
  8
0
  6
Continuous
 62
     0
370
     0
100
AcDbLine
 10
257.732717
 20
211.898717
 30
0.0
 11
235.908478
 21
211.898717
 31
0.0
  0
LWPOLYLINE
  5
A9
330
A7
100
AcDbEntity
  8
0
  6
Continuous
 62
     0
370
     0
100
AcDbPolyline
 90
        3
 70
     0
 43
0.0
 10
235.908478
 20
211.898712
 10
235.927841
 20
210.780151
 10
236.055435
 20
202.221008
  0
LWPOLYLINE
  5
AA
330
A7
100
AcDbEntity
  8
0
  6
Continuous
 62
     0
370
     0
100
AcDbPolyline
 90
       26
 70
     0
 43
0.0
 10
236.055435
 20
202.221008
 10
236.060303
 20
201.924896
 10
236.065826
 20
201.628769
 10
236.072815
 20
201.332642
 10
236.082794
 20
201.036621
 10
236.098007
 20
200.741028
 10
236.12265
 20
200.44722
 10
236.16423
 20
200.159836
 10
236.234528
 20
199.894363
 10
236.341248
 20
199.683502
 10
236.472305
 20
199.544785
 10
236.611954
 20
199.458069
 10
236.753998
 20
199.401367
 10
236.896393
 20
199.361618
 10
237.038635
 20
199.331573
 10
237.181564
 20
199.30748
 10
237.326401
 20
199.286652
 10
237.474304
 20
199.267578
 10
237.626389
 20
199.249222
 10
237.783386
 20
199.230759
 10
237.94548
 20
199.211792
 10
238.112808
 20
199.19194
 10
238.285202
 20
199.171082
 10
238.462357
 20
199.1492
 10
238.644669
 20
199.126053
 10
238.835556
 20
199.100739
  0
LWPOLYLINE
  5
AB
330
A7
100
AcDbEntity
  8
0
  6
Continuous
 62
     0
370
     0
100
AcDbPolyline
 90
       10
 70
     0
 43
0.0
 10
238.835556
 20
199.100739
 10
240.569244
 20
198.950638
 10
242.326431
 20
198.811737
 10
244.105347
 20
198.700668
 10
245.902664
 20
198.635056
 10
247.708206
 20
198.63446
 10
249.505783
 20
198.699127
 10
251.285049
 20
198.809601
 10
253.042587
 20
198.948135
 10
254.80571
 20
199.100739
  0
LWPOLYLINE
  5
AC
330
A7
100
AcDbEntity
  8
0
  6
Continuous
 62
     0
370
     0
100
AcDbPolyline
 90
       26
 70
     0
 43
0.0
 10
254.80571
 20
199.100739
 10
254.995239
 20
199.1259
 10
255.177597
 20
199.149109
 10
255.355194
 20
199.171066
 10
255.527863
 20
199.19191
 10
255.695328
 20
199.211731
 10
255.857452
 20
199.230698
 10
256.014404
 20
199.249161
 10
256.166473
 20
199.267532
 10
256.314362
 20
199.286591
 10
256.459198
 20
199.307404
 10
256.602112
 20
199.331497
 10
256.744354
 20
199.361511
 10
256.886749
 20
199.401199
 10
257.028748
 20
199.457825
 10
257.168427
 20
199.544403
 10
257.2995
 20
199.682877
 10
257.406342
 20
199.893448
 10
257.476746
 20
200.158768
 10
257.518433
 20
200.446075
 10
257.543121
 20
200.739838
 10
257.55835
 20
201.035416
 10
257.568359
 20
201.331406
 10
257.575348
 20
201.627502
 10
257.580872
 20
201.923615
 10
257.585754
 20
202.221008
  0
LWPOLYLINE
  5
AD
330
A7
100
AcDbEntity
  8
0
  6
Continuous
 62
     0
370
     0
100
AcDbPolyline
 90
        3
 70
     0
 43
0.0
 10
257.585754
 20
202.221008
 10
257.603394
 20
203.339737
 10
257.732727
 20
211.898712
  0
LWPOLYLINE
  5
AE
330
A7
100
AcDbEntity
  8
0
  6
Continuous
 62
     0
370
     0
100
AcDbPolyline
 90
       21
 70
     0
 43
0.0
 10
268.792175
 20
211.898804
 10
268.77655
 20
211.898727
 10
268.723541
 20
211.898712
 10
268.629669
 20
211.898712
 10
268.490479
 20
211.898712
 10
268.299377
 20
211.898712
 10
268.049835
 20
211.898712
 10
267.735992
 20
211.898712
 10
267.352875
 20
211.898712
 10
266.897278
 20
211.898712
 10
266.367981
 20
211.898712
 10
265.766632
 20
211.898712
 10
265.096771
 20
211.898712
 10
264.363464
 20
211.898712
 10
263.571594
 20
211.898712
 10
262.725464
 20
211.898712
 10
261.827484
 20
211.898712
 10
260.879395
 20
211.898712
 10
259.884918
 20
211.898712
 10
258.848572
 20
211.898712
 10
257.732727
 20
211.898712
  0
LWPOLYLINE
  5
AF
330
A7
100
AcDbEntity
  8
0
  6
Continuous
 62
     0
370
     0
100
AcDbPolyline
 90
       26
 70
     0
 43
0.0
 10
257.585754
 20
202.221008
 10
258.632172
 20
202.220871
 10
259.64212
 20
202.220673
 10
260.613037
 20
202.220398
 10
261.541138
 20
202.220001
 10
262.423096
 20
202.219406
 10
263.257294
 20
202.218613
 10
264.041565
 20
202.217545
 10
264.771484
 20
202.21611
 10
265.441254
 20
202.214264
 10
266.043213
 20
202.21199
 10
266.571106
 20
202.209412
 10
267.021027
 20
202.206757
 10
267.395447
 20
202.204239
 10
267.700806
 20
202.202057
 10
267.946381
 20
202.200302
 10
268.142212
 20
202.199051
 10
268.297516
 20
202.19838
 10
268.420929
 20
202.198273
 10
268.518494
 20
202.198624
 10
268.595215
 20
202.199173
 10
268.654755
 20
202.199783
 10
268.699066
 20
202.200287
 10
268.729828
 20
202.200516
 10
268.748016
 20
202.200287
 10
268.75415
 20
202.199295
  0
LWPOLYLINE
  5
B0
330
A7
100
AcDbEntity
  8
0
  6
Continuous
 62
     0
370
     0
100
AcDbPolyline
 90
       26
 70
     0
 43
0.0
 10
254.80571
 20
199.100739
 10
255.496033
 20
199.127258
 10
256.147552
 20
199.142899
 10
256.766205
 20
199.148087
 10
257.352356
 20
199.143417
 10
257.907806
 20
199.130463
 10
258.431335
 20
199.11084
 10
258.910736
 20
199.086014
 10
259.323883
 20
199.058929
 10
259.659332
 20
199.0327
 10
259.920624
 20
199.009415
 10
260.119843
 20
198.989853
 10
260.269318
 20
198.974152
 10
260.380493
 20
198.962036
 10
260.462677
 20
198.952652
 10
260.524048
 20
198.944885
 10
260.570221
 20
198.937881
 10
260.604279
 20
198.931
 10
260.628876
 20
198.923645
 10
260.645691
 20
198.915298
 10
260.656006
 20
198.905457
 10
260.66095
 20
198.89357
 10
260.661407
 20
198.878845
 10
260.658112
 20
198.860428
 10
260.651947
 20
198.837357
 10
260.643982
 20
198.806732
  0
LWPOLYLINE
  5
B1
330
A7
100
AcDbEntity
  8
0
  6
Continuous
 62
     0
370
     0
100
AcDbPolyline
 90
       36
 70
     0
 43
0.0
 10
260.643982
 20
198.806732
 10
260.902161
 20
198.823349
 10
261.160339
 20
198.839996
 10
261.418518
 20
198.856659
 10
261.676697
 20
198.873367
 10
261.934875
 20
198.890121
 10
262.193054
 20
198.906937
 10
262.451202
 20
198.923813
 10
262.709381
 20
198.940765
 10
262.967529
 20
198.957809
 10
263.225677
 20
198.97496
 10
263.483826
 20
198.992218
 10
263.741974
 20
199.009598
 10
264.000092
 20
199.027115
 10
264.25824
 20
199.044785
 10
264.516357
 20
199.062637
 10
264.774445
 20
199.080841
 10
265.032501
 20
199.099518
 10
265.290527
 20
199.11882
 10
265.548462
 20
199.138885
 10
265.806335
 20
199.159882
 10
266.064087
 20
199.181961
 10
266.321777
 20
199.205231
 10
266.579285
 20
199.22995
 10
266.836609
 20
199.256775
 10
267.093628
 20
199.286606
 10
267.350128
 20
199.320862
 10
267.605408
 20
199.362991
 10
267.858307
 20
199.417892
 10
268.105225
 20
199.496307
 10
268.335297
 20
199.614716
 10
268.524567
 20
199.79071
 10
268.654297
 20
200.013458
 10
268.731171
 20
200.258224
 10
268.769928
 20
200.508331
 10
268.782166
 20
200.759521
  0
LWPOLYLINE
  5
B2
330
A7
100
AcDbEntity
  8
0
  6
Continuous
 62
     0
370
     0
100
AcDbPolyline
 90
        8
 70
     0
 43
0.0
 10
236.161011
 20
189.520111
 10
239.141586
 20
189.373688
 10
242.124344
 20
189.270233
 10
245.108459
 20
189.212799
 10
248.09314
 20
189.208755
 10
251.077393
 20
189.258636
 10
254.060394
 20
189.355774
 10
257.481476
 20
189.520111
  0
LWPOLYLINE
  5
B3
330
A7
100
AcDbEntity
  8
0
  6
Continuous
 62
     0
370
     0
100
AcDbPolyline
 90
       70
 70
     0
 43
0.0
 10
257.481476
 20
189.520111
 10
257.979187
 20
189.617126
 10
258.419006
 20
189.730698
 10
258.78656
 20
189.85907
 10
259.070282
 20
189.999466
 10
259.282074
 20
190.147064
 10
259.442413
 20
190.298309
 10
259.566925
 20
190.451538
 10
259.666565
 20
190.605896
 10
259.74823
 20
190.760925
 10
259.816406
 20
190.916382
 10
259.873566
 20
191.072144
 10
259.921875
 20
191.228119
 10
259.963501
 20
191.384232
 10
260.000183
 20
191.54039
 10
260.032654
 20
191.696594
 10
260.061584
 20
191.852844
 10
260.087555
 20
192.009125
 10
260.111176
 20
192.165436
 10
260.132965
 20
192.321762
 10
260.153259
 20
192.478104
 10
260.172211
 20
192.63446
 10
260.190033
 20
192.790817
 10
260.206909
 20
192.947174
 10
260.223053
 20
193.103546
 10
260.238678
 20
193.259903
 10
260.253845
 20
193.416245
 10
260.268616
 20
193.572556
 10
260.28299
 20
193.728775
 10
260.296997
 20
193.884918
 10
260.310669
 20
194.040924
 10
260.323975
 20
194.196777
 10
260.336945
 20
194.352463
 10
260.349609
 20
194.507935
 10
260.361969
 20
194.663193
 10
260.374023
 20
194.818176
 10
260.385803
 20
194.972885
 10
260.397308
 20
195.127289
 10
260.408508
 20
195.281357
 10
260.419495
 20
195.435074
 10
260.430176
 20
195.588409
 10
260.440643
 20
195.741333
 10
260.450867
 20
195.893799
 10
260.460876
 20
196.045761
 10
260.470642
 20
196.197128
 10
260.480194
 20
196.347794
 10
260.489532
 20
196.497696
 10
260.498627
 20
196.646744
 10
260.507538
 20
196.794846
 10
260.516235
 20
196.941925
 10
260.52475
 20
197.087845
 10
260.533051
 20
197.23233
 10
260.541168
 20
197.375076
 10
260.549103
 20
197.515762
 10
260.556854
 20
197.653717
 10
260.564392
 20
197.788147
 10
260.571747
 20
197.918198
 10
260.578827
 20
198.042633
 10
260.585693
 20
198.160049
 10
260.592285
 20
198.269073
 10
260.598572
 20
198.368317
 10
260.604584
 20
198.456589
 10
260.610291
 20
198.533356
 10
260.615692
 20
198.598419
 10
260.62085
 20
198.652588
 10
260.625793
 20
198.696991
 10
260.630524
 20
198.733078
 10
260.635101
 20
198.762375
 10
260.639557
 20
198.786438
 10
260.643982
 20
198.806732
  0
LWPOLYLINE
  5
B4
330
A7
100
AcDbEntity
  8
0
  6
Continuous
 62
     0
370
     0
100
AcDbPolyline
 90
       26
 70
     0
 43
0.0
 10
238.835556
 20
199.100739
 10
238.14592
 20
199.127167
 10
237.49382
 20
199.142899
 10
236.875046
 20
199.148087
 10
236.289001
 20
199.143417
 10
235.733551
 20
199.130463
 10
235.210037
 20
199.11084
 10
234.730652
 20
199.086014
 10
234.31752
 20
199.058929
 10
233.982086
 20
199.0327
 10
233.72084
 20
199.009415
 10
233.521622
 20
198.989853
 10
233.372162
 20
198.974152
 10
233.261002
 20
198.962036
 10
233.178864
 20
198.952652
 10
233.117523
 20
198.944885
 10
233.071335
 20
198.937881
 10
233.037323
 20
198.931
 10
233.012741
 20
198.923645
 10
232.995941
 20
198.915298
 10
232.985641
 20
198.905457
 10
232.980713
 20
198.89357
 10
232.980301
 20
198.878845
 10
232.983597
 20
198.860428
 10
232.989792
 20
198.837357
 10
232.997772
 20
198.806732
  0
LWPOLYLINE
  5
B5
330
A7
100
AcDbEntity
  8
0
  6
Continuous
 62
     0
370
     0
100
AcDbPolyline
 90
       70
 70
     0
 43
0.0
 10
232.997772
 20
198.806732
 10
233.002151
 20
198.786697
 10
233.006622
 20
198.762695
 10
233.011215
 20
198.733475
 10
233.015961
 20
198.697479
 10
233.020905
 20
198.653183
 10
233.026062
 20
198.599152
 10
233.031494
 20
198.534225
 10
233.037201
 20
198.457611
 10
233.043198
 20
198.369476
 10
233.049515
 20
198.270355
 10
233.056107
 20
198.161453
 10
233.062958
 20
198.044128
 10
233.070068
 20
197.919785
 10
233.077408
 20
197.789795
 10
233.084976
 20
197.655411
 10
233.092728
 20
197.517502
 10
233.100677
 20
197.376862
 10
233.108795
 20
197.234146
 10
233.117111
 20
197.089676
 10
233.125626
 20
196.943771
 10
233.134338
 20
196.796707
 10
233.14325
 20
196.648621
 10
233.152359
 20
196.499588
 10
233.161697
 20
196.349701
 10
233.171249
 20
196.199051
 10
233.18103
 20
196.047699
 10
233.19104
 20
195.895752
 10
233.201263
 20
195.743286
 10
233.211746
 20
195.590363
 10
233.222458
 20
195.437042
 10
233.233429
 20
195.28334
 10
233.244659
 20
195.129272
 10
233.256149
 20
194.974884
 10
233.267929
 20
194.82019
 10
233.279999
 20
194.665207
 10
233.292358
 20
194.509964
 10
233.305038
 20
194.354492
 10
233.318008
 20
194.198822
 10
233.331329
 20
194.042969
 10
233.344986
 20
193.886963
 10
233.359009
 20
193.730835
 10
233.373398
 20
193.5746
 10
233.388168
 20
193.418304
 10
233.403351
 20
193.261978
 10
233.418961
 20
193.105621
 10
233.435104
 20
192.949249
 10
233.451981
 20
192.792892
 10
233.469803
 20
192.636536
 10
233.488754
 20
192.480179
 10
233.509018
 20
192.323853
 10
233.530823
 20
192.167526
 10
233.554428
 20
192.01123
 10
233.580353
 20
191.85495
 10
233.609253
 20
191.6987
 10
233.641708
 20
191.542496
 10
233.678329
 20
191.386337
 10
233.719879
 20
191.23024
 10
233.768097
 20
191.074265
 10
233.825134
 20
190.918503
 10
233.893158
 20
190.763046
 10
233.974609
 20
190.608002
 10
234.073975
 20
190.453629
 10
234.198074
 20
190.3004
 10
234.357849
 20
190.149109
 10
234.568817
 20
190.00145
 10
234.85144
 20
189.860931
 10
235.217789
 20
189.732361
 10
235.656433
 20
189.61853
 10
236.161011
 20
189.520111
  0
LWPOLYLINE
  5
B6
330
A7
100
AcDbEntity
  8
0
  6
Continuous
 62
     0
370
     0
100
AcDbPolyline
 90
        7
 70
     0
 43
0.0
 10
257.481476
 20
189.520111
 10
257.964111
 20
189.49556
 10
258.425507
 20
189.467758
 10
258.863586
 20
189.438705
 10
259.270386
 20
189.410614
 10
259.642181
 20
189.389236
 10
260.071228
 20
189.394226
  0
LWPOLYLINE
  5
B7
330
A7
100
AcDbEntity
  8
0
  6
Continuous
 62
     0
370
     0
100
AcDbPolyline
 90
        7
 70
     0
 43
0.0
 10
236.161011
 20
189.520111
 10
235.679031
 20
189.495499
 10
235.217896
 20
189.467773
 10
234.779984
 20
189.438782
 10
234.373474
 20
189.410706
 10
234.001892
 20
189.389297
 10
233.572021
 20
189.394165
  0
LWPOLYLINE
  5
B8
330
A7
100
AcDbEntity
  8
0
  6
Continuous
 62
     0
370
     0
100
AcDbPolyline
 90
       26
 70
     0
 43
0.0
 10
224.887527
 20
202.199295
 10
224.893509
 20
202.200287
 10
224.911575
 20
202.200531
 10
224.942215
 20
202.200287
 10
224.986343
 20
202.199783
 10
225.045715
 20
202.199188
 10
225.122253
 20
202.198624
 10
225.219574
 20
202.198288
 10
225.342682
 20
202.19838
 10
225.497604
 20
202.199051
 10
225.692963
 20
202.200287
 10
225.937988
 20
202.202026
 10
226.242661
 20
202.204224
 10
226.616318
 20
202.206726
 10
227.065414
 20
202.209381
 10
227.592468
 20
202.211975
 10
228.193619
 20
202.214249
 10
228.862686
 20
202.216095
 10
229.591934
 20
202.217529
 10
230.375565
 20
202.218597
 10
231.209167
 20
202.219406
 10
232.090561
 20
202.219986
 10
233.018082
 20
202.220398
 10
233.988449
 20
202.220673
 10
234.997879
 20
202.220871
 10
236.055435
 20
202.221008
  0
LINE
  5
B9
330
A7
100
AcDbEntity
  8
0
  6
Continuous
 62
     0
370
     0
100
AcDbLine
 10
235.908478
 20
211.898717
 30
0.0
 11
224.84938
 21
211.8988
 31
0.0
  0
LWPOLYLINE
  5
BA
330
A7
100
AcDbEntity
  8
0
  6
Continuous
 62
     0
370
     0
100
AcDbPolyline
 90
       36
 70
     0
 43
0.0
 10
224.859604
 20
200.75705
 10
224.871719
 20
200.509491
 10
224.910324
 20
200.25946
 10
224.986954
 20
200.014725
 10
225.116287
 20
199.79184
 10
225.305206
 20
199.61557
 10
225.535034
 20
199.496887
 10
225.78183
 20
199.418304
 10
226.034607
 20
199.363327
 10
226.28981
 20
199.321136
 10
226.546219
 20
199.286835
 10
226.803162
 20
199.256989
 10
227.06041
 20
199.230148
 10
227.317856
 20
199.205429
 10
227.575439
 20
199.182144
 10
227.83313
 20
199.16008
 10
228.090912
 20
199.139084
 10
228.348785
 20
199.119003
 10
228.60672
 20
199.099701
 10
228.8647
 20
199.081024
 10
229.122726
 20
199.06282
 10
229.380768
 20
199.044968
 10
229.638824
 20
199.027298
 10
229.896881
 20
199.009796
 10
230.154938
 20
198.992416
 10
230.41301
 20
198.975159
 10
230.671082
 20
198.958023
 10
230.929153
 20
198.940979
 10
231.187225
 20
198.924026
 10
231.445312
 20
198.90715
 10
231.703415
 20
198.89035
 10
231.961502
 20
198.873596
 10
232.219604
 20
198.856903
 10
232.477707
 20
198.840225
 10
232.735809
 20
198.823593
 10
232.997772
 20
198.806732
  0
LINE
  5
BB
330
A7
100
AcDbEntity
  8
0
  6
Continuous
 62
     0
370
    30
100
AcDbLine
 10
224.570893
 20
223.157653
 30
0.0
 11
225.420785
 21
223.157653
 31
0.0
  0
LINE
  5
BC
330
A7
100
AcDbEntity
  8
0
  6
Continuous
 62
     0
370
    30
100
AcDbLine
 10
268.220752
 20
223.157653
 30
0.0
 11
269.070644
 21
223.157653
 31
0.0
  0
LWPOLYLINE
  5
BD
330
A7
100
AcDbEntity
  8
0
  6
Continuous
 62
     0
370
    30
100
AcDbPolyline
 90
       51
 70
     0
 43
0.0
 10
269.070709
 20
223.157654
 10
269.010315
 20
222.64006
 10
268.868744
 20
222.123718
 10
268.649628
 20
221.610428
 10
268.355377
 20
221.102509
 10
267.986908
 20
220.601562
 10
267.543274
 20
220.108521
 10
267.023163
 20
219.625
 10
266.425415
 20
219.153168
 10
265.749908
 20
218.695038
 10
264.997498
 20
218.252533
 10
264.171295
 20
217.827255
 10
263.274536
 20
217.420761
 10
262.310333
 20
217.034622
 10
261.281586
 20
216.670486
 10
260.191223
 20
216.330109
 10
259.042114
 20
216.01561
 10
257.837219
 20
215.729218
 10
256.580017
 20
215.472885
 10
255.274948
 20
215.248215
 10
253.928711
 20
215.056168
 10
252.548401
 20
214.897629
 10
251.141098
 20
214.773422
 10
249.713669
 20
214.684174
 10
248.272842
 20
214.630295
 10
246.825287
 20
214.612137
 10
245.377701
 20
214.630005
 10
243.936798
 20
214.683655
 10
242.509277
 20
214.77269
 10
241.101837
 20
214.896729
 10
239.721344
 20
215.055161
 10
238.374878
 20
215.247055
 10
237.069519
 20
215.471481
 10
235.811966
 20
215.727402
 10
234.60672
 20
216.013443
 10
233.457245
 20
216.327835
 10
232.366531
 20
216.668152
 10
231.337402
 20
217.03215
 10
230.372772
 20
217.418152
 10
229.475601
 20
217.824524
 10
228.648926
 20
218.24968
 10
227.896072
 20
218.692093
 10
227.220078
 20
219.150162
 10
226.621841
 20
219.621948
 10
226.101257
 20
220.105362
 10
225.65715
 20
220.598312
 10
225.288223
 20
221.099182
 10
224.99353
 20
221.607117
 10
224.773911
 20
222.120453
 10
224.631851
 20
222.63678
 10
224.570816
 20
223.157654
  0
LWPOLYLINE
  5
BE
330
A7
100
AcDbEntity
  8
0
  6
Continuous
 62
     0
370
     0
100
AcDbPolyline
 90
        6
 70
     0
 43
0.0
 10
266.584991
 20
220.731827
 10
267.064209
 20
221.200623
 10
267.467896
 20
221.678497
 10
267.795258
 20
222.163803
 10
268.045685
 20
222.654953
 10
268.220764
 20
223.157654
  0
LWPOLYLINE
  5
BF
330
A7
100
AcDbEntity
  8
0
  6
Continuous
 62
     0
370
     0
100
AcDbPolyline
 90
       40
 70
     0
 43
0.0
 10
227.056442
 20
220.731827
 10
227.492828
 20
220.264008
 10
228.005768
 20
219.806305
 10
228.594055
 20
219.360397
 10
229.256454
 20
218.928055
 10
229.991409
 20
218.510986
 10
230.796707
 20
218.110992
 10
231.670105
 20
217.729843
 10
232.609329
 20
217.369308
 10
233.611389
 20
217.031143
 10
234.672455
 20
216.716995
 10
235.788681
 20
216.428558
 10
236.956223
 20
216.16748
 10
238.170486
 20
215.935287
 10
239.426117
 20
215.733322
 10
240.717636
 20
215.562927
 10
242.039169
 20
215.425171
 10
243.384293
 20
215.320862
 10
244.746567
 20
215.250824
 10
246.119324
 20
215.215561
 10
247.495605
 20
215.21521
 10
248.868423
 20
215.249817
 10
250.230942
 20
215.31926
 10
251.576538
 20
215.422867
 10
252.89859
 20
215.559967
 10
254.190689
 20
215.729782
 10
255.447083
 20
215.931137
 10
256.662201
 20
216.162766
 10
257.830688
 20
216.423309
 10
258.94812
 20
216.711227
 10
260.010406
 20
217.024872
 10
261.013489
 20
217.36261
 10
261.953827
 20
217.722763
 10
262.828674
 20
218.103546
 10
263.635284
 20
218.503189
 10
264.37146
 20
218.919922
 10
265.035339
 20
219.352005
 10
265.625153
 20
219.797668
 10
266.139526
 20
220.255173
 10
266.584991
 20
220.731827
  0
LWPOLYLINE
  5
C0
330
A7
100
AcDbEntity
  8
0
  6
Continuous
 62
     0
370
     0
100
AcDbPolyline
 90
        6
 70
     0
 43
0.0
 10
225.420761
 20
223.157654
 10
225.592743
 20
222.662186
 10
225.842026
 20
222.170959
 10
226.168228
 20
221.685547
 10
226.57077
 20
221.207565
 10
227.056442
 20
220.731827
  0
LINE
  5
C1
330
A7
100
AcDbEntity
  8
0
  6
Continuous
 62
     0
370
    30
100
AcDbLine
 10
268.220752
 20
223.157653
 30
0.0
 11
266.685653
 21
223.157653
 31
0.0
  0
LWPOLYLINE
  5
C2
330
A7
100
AcDbEntity
  8
0
  6
Continuous
 62
     0
370
    30
100
AcDbPolyline
 90
       48
 70
     0
 43
0.0
 10
266.685638
 20
223.157654
 10
266.54837
 20
222.706406
 10
266.331451
 20
222.259109
 10
266.035797
 20
221.817703
 10
265.662506
 20
221.383926
 10
265.213104
 20
220.959503
 10
264.689575
 20
220.546143
 10
264.093872
 20
220.145523
 10
263.428314
 20
219.759277
 10
262.695709
 20
219.388931
 10
261.898956
 20
219.036026
 10
261.041229
 20
218.701981
 10
260.126099
 20
218.388107
 10
259.157196
 20
218.095688
 10
258.138336
 20
217.825974
 10
257.0737
 20
217.579987
 10
255.967697
 20
217.358688
 10
254.824661
 20
217.163055
 10
253.64917
 20
216.993896
 10
252.446075
 20
216.851822
 10
251.22023
 20
216.737457
 10
249.976547
 20
216.651291
 10
248.720093
 20
216.593613
 10
247.455963
 20
216.564682
 10
246.189255
 20
216.564682
 10
244.925095
 20
216.593506
 10
243.668594
 20
216.651047
 10
242.424881
 20
216.737137
 10
241.198959
 20
216.851425
 10
239.995773
 20
216.993378
 10
238.820267
 20
217.162506
 10
237.677185
 20
217.358093
 10
236.570999
 20
217.579285
 10
235.50618
 20
217.82515
 10
234.487228
 20
218.094818
 10
233.518204
 20
218.387177
 10
232.602875
 20
218.700974
 10
231.744949
 20
219.034958
 10
230.948074
 20
219.387817
 10
230.215302
 20
219.758102
 10
229.54953
 20
220.144287
 10
228.953583
 20
220.544861
 10
228.429855
 20
220.958191
 10
227.98027
 20
221.382599
 10
227.60672
 20
221.816345
 10
227.310837
 20
222.257721
 10
227.093689
 20
222.704987
 10
226.955887
 20
223.157654
  0
LINE
  5
C3
330
A7
100
AcDbEntity
  8
0
  6
Continuous
 62
     0
370
    30
100
AcDbLine
 10
226.955883
 20
223.157653
 30
0.0
 11
225.420785
 21
223.157653
 31
0.0
  0
LINE
  5
C4
330
A7
100
AcDbEntity
  8
0
  6
Continuous
 62
     0
370
    30
100
AcDbLine
 10
246.820574
 20
225.957652
 30
0.0
 11
269.020769
 21
225.957652
 31
0.0
  0
LINE
  5
C5
330
A7
100
AcDbEntity
  8
0
  6
Continuous
 62
     0
370
    30
100
AcDbLine
 10
224.620769
 20
225.957652
 30
0.0
 11
246.820574
 21
225.957652
 31
0.0
  0
ARC
  5
C6
330
A7
100
AcDbEntity
  8
0
  6
Continuous
 62
     0
370
    30
100
AcDbCircle
 10
335.82092
 20
237.150708
 30
0.0
 40
0.9998481692849785
100
AcDbArc
 50
276.891148
 51
0.002359
  0
LINE
  5
C7
330
A7
100
AcDbEntity
  8
0
  6
Continuous
 62
     0
370
    30
100
AcDbLine
 10
335.820769
 20
236.150749
 30
0.0
 11
157.820769
 21
236.150749
 31
0.0
  0
LINE
  5
C8
330
A7
100
AcDbEntity
  8
0
  6
Continuous
 62
     0
370
     0
100
AcDbLine
 10
156.820769
 20
237.150749
 30
0.0
 11
336.820769
 21
237.150749
 31
0.0
  0
LINE
  5
C9
330
A7
100
AcDbEntity
  8
0
  6
Continuous
 62
     0
370
    30
100
AcDbLine
 10
336.820769
 20
237.150749
 30
0.0
 11
336.820769
 21
248.150749
 31
0.0
  0
LINE
  5
CA
330
A7
100
AcDbEntity
  8
0
  6
Continuous
 62
     0
370
    30
100
AcDbLine
 10
336.820769
 20
248.150749
 30
0.0
 11
156.820769
 21
248.150749
 31
0.0
  0
LINE
  5
CB
330
A7
100
AcDbEntity
  8
0
  6
Continuous
 62
     0
370
    30
100
AcDbLine
 10
156.820769
 20
237.150749
 30
0.0
 11
156.820769
 21
248.150749
 31
0.0
  0
ARC
  5
CC
330
A7
100
AcDbEntity
  8
0
  6
Continuous
 62
     0
370
    30
100
AcDbCircle
 10
157.820793
 20
237.150774
 30
0.0
 40
1.000024307960667
100
AcDbArc
 50
180.001393
 51
269.998607
  0
ARC
  5
CD
330
A7
100
AcDbEntity
  8
0
  6
Continuous
 62
     0
370
    30
100
AcDbCircle
 10
335.82043
 20
237.143644
 30
0.0
 40
0.9928949094123556
100
AcDbArc
 50
270.019501
 51
276.96813
  0
LINE
  5
CE
330
A7
100
AcDbEntity
  8
0
  6
Continuous
 62
     0
370
    30
100
AcDbLine
 10
269.020769
 20
236.150749
 30
0.0
 11
269.020769
 21
225.957652
 31
0.0
  0
LINE
  5
CF
330
A7
100
AcDbEntity
  8
0
  6
Continuous
 62
     0
370
    30
100
AcDbLine
 10
224.620769
 20
236.150749
 30
0.0
 11
224.620769
 21
225.957652
 31
0.0
  0
ARC
  5
D0
330
A7
100
AcDbEntity
  8
0
  6
Continuous
 62
     0
370
    30
100
AcDbCircle
 10
247.013289
 20
227.342451
 30
0.0
 40
20.48937043084261
100
AcDbArc
 50
183.875359
 51
191.785155
  0
ARC
  5
D1
330
A7
100
AcDbEntity
  8
0
  6
Continuous
 62
     0
370
    30
100
AcDbCircle
 10
246.628248
 20
227.342451
 30
0.0
 40
20.48937043084132
100
AcDbArc
 50
348.214845
 51
356.124641
  0
LWPOLYLINE
  5
D2
330
A7
100
AcDbEntity
  8
0
  6
Continuous
 62
     0
370
    30
100
AcDbPolyline
 90
        5
 70
     0
 43
0.0
 10
268.792114
 20
211.898819
 10
268.841034
 20
214.397049
 10
268.900665
 20
216.924225
 10
268.967377
 20
219.471024
 10
269.069489
 20
223.126205
  0
LWPOLYLINE
  5
D3
330
A7
100
AcDbEntity
  8
0
  6
Continuous
 62
     0
370
    30
100
AcDbPolyline
 90
        5
 70
     0
 43
0.0
 10
224.572067
 20
223.126068
 10
224.644211
 20
220.565887
 10
224.712982
 20
218.013474
 10
224.776077
 20
215.47644
 10
224.849457
 20
211.898819
  0
LWPOLYLINE
  5
D4
330
A7
100
AcDbEntity
  8
0
  6
Continuous
 62
     0
370
    30
100
AcDbPolyline
 90
       63
 70
     0
 43
0.0
 10
233.572662
 20
189.394287
 10
232.834641
 20
189.46814
 10
232.107681
 20
189.552689
 10
231.396774
 20
189.651382
 10
230.709534
 20
189.76825
 10
230.058456
 20
189.907104
 10
229.46347
 20
190.06958
 10
228.935074
 20
190.256104
 10
228.481201
 20
190.462036
 10
228.101395
 20
190.679398
 10
227.784576
 20
190.900864
 10
227.513641
 20
191.124619
 10
227.273788
 20
191.353806
 10
227.063477
 20
191.584259
 10
226.87825
 20
191.814117
 10
226.711777
 20
192.04631
 10
226.561417
 20
192.281021
 10
226.425568
 20
192.516266
 10
226.302124
 20
192.752258
 10
226.189041
 20
192.989914
 10
226.085739
 20
193.2276
 10
225.991974
 20
193.462982
 10
225.906555
 20
193.69603
 10
225.827866
 20
193.928467
 10
225.755554
 20
194.159637
 10
225.689148
 20
194.388794
 10
225.628113
 20
194.615341
 10
225.571884
 20
194.838867
 10
225.519897
 20
195.059875
 10
225.471634
 20
195.278946
 10
225.426834
 20
195.495773
 10
225.385254
 20
195.709885
 10
225.346542
 20
195.921265
 10
225.310303
 20
196.130692
 10
225.276245
 20
196.338623
 10
225.244247
 20
196.544968
 10
225.214203
 20
196.74968
 10
225.186005
 20
196.952713
 10
225.159531
 20
197.154037
 10
225.134674
 20
197.353622
 10
225.111313
 20
197.551407
 10
225.08934
 20
197.74736
 10
225.06871
 20
197.94136
 10
225.049377
 20
198.133316
 10
225.031235
 20
198.322937
 10
225.014236
 20
198.509644
 10
224.998276
 20
198.692841
 10
224.983292
 20
198.871933
 10
224.969147
 20
199.046478
 10
224.955765
 20
199.216232
 10
224.943039
 20
199.380798
 10
224.930984
 20
199.539185
 10
224.919693
 20
199.690002
 10
224.909225
 20
199.831924
 10
224.899704
 20
199.96373
 10
224.891174
 20
200.084793
 10
224.883743
 20
200.194611
 10
224.877457
 20
200.293396
 10
224.872238
 20
200.383484
 10
224.867996
 20
200.467484
 10
224.864685
 20
200.547638
 10
224.862274
 20
200.623444
 10
224.860657
 20
200.693146
  0
LWPOLYLINE
  5
D5
330
A7
100
AcDbEntity
  8
0
  6
Continuous
 62
     0
370
    30
100
AcDbPolyline
 90
       10
 70
     0
 43
0.0
 10
224.860107
 20
200.725891
 10
224.859161
 20
200.795273
 10
224.858749
 20
200.886322
 10
224.859497
 20
200.993729
 10
224.861542
 20
201.118607
 10
224.864746
 20
201.258896
 10
224.869034
 20
201.423965
 10
224.874405
 20
201.626633
 10
224.880661
 20
201.878387
 10
224.887497
 20
202.199234
  0
LWPOLYLINE
  5
D6
330
A7
100
AcDbEntity
  8
0
  6
Continuous
 62
     0
370
    30
100
AcDbPolyline
 90
       16
 70
     0
 43
0.0
 10
224.887512
 20
202.199249
 10
224.894302
 20
202.614182
 10
224.899994
 20
203.09227
 10
224.90416
 20
203.621399
 10
224.906494
 20
204.201462
 10
224.907028
 20
204.830307
 10
224.906174
 20
205.491623
 10
224.904358
 20
206.170654
 10
224.901825
 20
206.860321
 10
224.898422
 20
207.558014
 10
224.893906
 20
208.261978
 10
224.888046
 20
208.970764
 10
224.880722
 20
209.683655
 10
224.871948
 20
210.400543
 10
224.86171
 20
211.121384
 10
224.849228
 20
211.898788
  0
LWPOLYLINE
  5
D7
330
A7
100
AcDbEntity
  8
0
  6
Continuous
 62
     0
370
    30
100
AcDbPolyline
 90
       12
 70
     0
 43
0.0
 10
260.070465
 20
189.394363
 10
257.687836
 20
189.207642
 10
255.282501
 20
189.070374
 10
252.868484
 20
188.970215
 10
250.451004
 20
188.90303
 10
248.03212
 20
188.868484
 10
245.612885
 20
188.868317
 10
243.194016
 20
188.902985
 10
240.776535
 20
188.970261
 10
238.362518
 20
189.070297
 10
235.957108
 20
189.207428
 10
233.572037
 20
189.394363
  0
LWPOLYLINE
  5
D8
330
A7
100
AcDbEntity
  8
0
  6
Continuous
 62
     0
370
    30
100
AcDbPolyline
 90
       62
 70
     0
 43
0.0
 10
268.781036
 20
200.690552
 10
268.779388
 20
200.619202
 10
268.776886
 20
200.541916
 10
268.773468
 20
200.459808
 10
268.769043
 20
200.373642
 10
268.763641
 20
200.281433
 10
268.757141
 20
200.179932
 10
268.74942
 20
200.066635
 10
268.740601
 20
199.941788
 10
268.730743
 20
199.805908
 10
268.719971
 20
199.659805
 10
268.708344
 20
199.504929
 10
268.695984
 20
199.342697
 10
268.682892
 20
199.174301
 10
268.669098
 20
199.000473
 10
268.654541
 20
198.821823
 10
268.639069
 20
198.638702
 10
268.622559
 20
198.451553
 10
268.60495
 20
198.260956
 10
268.586121
 20
198.067505
 10
268.56604
 20
197.87178
 10
268.544617
 20
197.674042
 10
268.52179
 20
197.474335
 10
268.497467
 20
197.272736
 10
268.471558
 20
197.069351
 10
268.44397
 20
196.864212
 10
268.414551
 20
196.657272
 10
268.383148
 20
196.448578
 10
268.34967
 20
196.238205
 10
268.314087
 20
196.026459
 10
268.276062
 20
195.812927
 10
268.23526
 20
195.596695
 10
268.191284
 20
195.377686
 10
268.143951
 20
195.156342
 10
268.092926
 20
194.932907
 10
268.037689
 20
194.707016
 10
267.977661
 20
194.478119
 10
267.912292
 20
194.246109
 10
267.841125
 20
194.011887
 10
267.763702
 20
193.776489
 10
267.679321
 20
193.540039
 10
267.587067
 20
193.301819
 10
267.485291
 20
193.061066
 10
267.373199
 20
192.81926
 10
267.25058
 20
192.578812
 10
267.116333
 20
192.339966
 10
266.96756
 20
192.101791
 10
266.802277
 20
191.865036
 10
266.618652
 20
191.631165
 10
266.410492
 20
191.397461
 10
266.172638
 20
191.164108
 10
265.902832
 20
190.935837
 10
265.589661
 20
190.710831
 10
265.213318
 20
190.48909
 10
264.761627
 20
190.278183
 10
264.232483
 20
190.086365
 10
263.633789
 20
189.91922
 10
262.976166
 20
189.776505
 10
262.279938
 20
189.656662
 10
261.558685
 20
189.55574
 10
260.820648
 20
189.469452
 10
260.071228
 20
189.394424
  0
LWPOLYLINE
  5
D9
330
A7
100
AcDbEntity
  8
0
  6
Continuous
 62
     0
370
    30
100
AcDbPolyline
 90
       10
 70
     0
 43
0.0
 10
268.781555
 20
200.721954
 10
268.782593
 20
200.797485
 10
268.782959
 20
200.886841
 10
268.782196
 20
200.995255
 10
268.780151
 20
201.118927
 10
268.776978
 20
201.258713
 10
268.772675
 20
201.422974
 10
268.767303
 20
201.624985
 10
268.761047
 20
201.876343
 10
268.75415
 20
202.199249
  0
LWPOLYLINE
  5
DA
330
A7
100
AcDbEntity
  8
0
  6
Continuous
 62
     0
370
    30
100
AcDbPolyline
 90
       16
 70
     0
 43
0.0
 10
268.792328
 20
211.898788
 10
268.780609
 20
211.171463
 10
268.770264
 20
210.4478
 10
268.761353
 20
209.727875
 10
268.753937
 20
209.011826
 10
268.747955
 20
208.299973
 10
268.743378
 20
207.592987
 10
268.739929
 20
206.892273
 10
268.737335
 20
206.199448
 10
268.735504
 20
205.517136
 10
268.734589
 20
204.852646
 10
268.735077
 20
204.219925
 10
268.737366
 20
203.636444
 10
268.741516
 20
203.104309
 10
268.747223
 20
202.623322
 10
268.75412
 20
202.199234
  0
ENDBLK
  5
DC
330
A7
100
AcDbEntity
  8
0
100
AcDbBlockEnd
  0
BLOCK
  5
117
330
DE
100
AcDbEntity
  8
0
100
AcDbBlockBegin
  2
c
 70
     0
 10
365.840942
 20
0.0
 30
0.0
  3
c
  1

  0
LWPOLYLINE
  5
DF
330
DE
100
AcDbEntity
  8
0
  6
Continuous
 62
     0
370
     0
100
AcDbPolyline
 90
        7
 70
     0
 43
0.0
 10
494.838135
 20
425.661926
 10
494.864075
 20
425.663757
 10
494.941376
 20
425.668976
 10
495.068115
 20
425.676971
 10
495.241455
 20
425.686829
 10
495.457581
 20
425.697357
 10
495.777008
 20
425.709412
  0
LWPOLYLINE
  5
E0
330
DE
100
AcDbEntity
  8
0
  6
Continuous
 62
     0
370
     0
100
AcDbPolyline
 90
       13
 70
     0
 43
0.0
 10
495.777008
 20
425.709412
 10
495.779572
 20
425.785553
 10
495.785919
 20
425.891083
 10
495.797638
 20
426.024841
 10
495.816437
 20
426.185669
 10
495.843994
 20
426.372528
 10
495.882355
 20
426.584595
 10
495.934326
 20
426.821411
 10
496.003235
 20
427.082703
 10
496.092377
 20
427.368195
 10
496.202667
 20
427.677399
 10
496.346313
 20
428.017212
 10
496.556305
 20
428.420349
  0
LWPOLYLINE
  5
E1
330
DE
100
AcDbEntity
  8
0
  6
Continuous
 62
     0
370
     0
100
AcDbPolyline
 90
        7
 70
     0
 43
0.0
 10
496.556305
 20
428.420349
 10
494.636963
 20
428.456085
 10
492.70462
 20
428.491669
 10
490.765106
 20
428.5242
 10
488.82132
 20
428.554657
 10
486.875214
 20
428.583679
 10
484.548737
 20
428.617493
  0
LINE
  5
E2
330
DE
100
AcDbEntity
  8
0
  6
Continuous
 62
     0
370
    30
100
AcDbLine
 10
484.548738
 20
428.617496
 30
0.0
 11
484.548738
 21
425.637088
 31
0.0
  0
LINE
  5
E3
330
DE
100
AcDbEntity
  8
0
  6
Continuous
 62
     0
370
     0
100
AcDbLine
 10
495.807672
 20
470.21352
 30
0.0
 11
495.807673
 21
467.378488
 31
0.0
  0
LWPOLYLINE
  5
E4
330
DE
100
AcDbEntity
  8
0
  6
Continuous
 62
     0
370
     0
100
AcDbPolyline
 90
        3
 70
     0
 43
0.0
 10
495.807678
 20
467.378479
 10
497.305267
 20
467.404968
 10
505.485382
 20
467.527954
  0
LWPOLYLINE
  5
E5
330
DE
100
AcDbEntity
  8
0
  6
Continuous
 62
     0
370
     0
100
AcDbPolyline
 90
       29
 70
     0
 43
0.0
 10
505.485382
 20
467.527954
 10
505.749512
 20
467.532166
 10
506.013672
 20
467.535675
 10
506.277832
 20
467.537598
 10
506.541931
 20
467.536224
 10
506.805878
 20
467.529266
 10
507.069122
 20
467.512787
 10
507.330261
 20
467.480377
 10
507.584625
 20
467.420502
 10
507.818878
 20
467.316986
 10
508.008789
 20
467.159088
 10
508.140289
 20
466.960663
 10
508.226685
 20
466.743347
 10
508.284637
 20
466.518433
 10
508.32605
 20
466.290405
 10
508.357086
 20
466.060699
 10
508.381836
 20
465.830292
 10
508.402496
 20
465.599945
 10
508.420868
 20
465.370331
 10
508.437836
 20
465.142029
 10
508.454254
 20
464.915588
 10
508.470673
 20
464.691498
 10
508.487396
 20
464.470001
 10
508.50473
 20
464.251282
 10
508.522827
 20
464.035492
 10
508.541779
 20
463.822571
 10
508.561523
 20
463.612396
 10
508.582367
 20
463.405731
 10
508.605652
 20
463.198395
  0
LWPOLYLINE
  5
E6
330
DE
100
AcDbEntity
  8
0
  6
Continuous
 62
     0
370
     0
100
AcDbPolyline
 90
        8
 70
     0
 43
0.0
 10
508.605652
 20
463.198395
 10
508.702362
 20
463.520203
 10
508.797668
 20
463.804016
 10
508.885834
 20
464.051544
 10
508.962952
 20
464.256531
 10
509.024628
 20
464.412964
 10
509.065735
 20
464.513947
 10
509.080811
 20
464.550201
  0
LWPOLYLINE
  5
E7
330
DE
100
AcDbEntity
  8
0
  6
Continuous
 62
     0
370
     0
100
AcDbPolyline
 90
        6
 70
     0
 43
0.0
 10
518.186279
 20
394.733856
 10
518.289673
 20
394.694183
 10
518.372925
 20
394.670624
 10
518.437317
 20
394.656403
 10
518.481018
 20
394.648956
 10
518.502625
 20
394.645813
  0
LWPOLYLINE
  5
E8
330
DE
100
AcDbEntity
  8
0
  6
Continuous
 62
     0
370
     0
100
AcDbPolyline
 90
       16
 70
     0
 43
0.0
 10
508.605652
 20
463.198395
 10
508.567627
 20
461.605865
 10
508.558807
 20
459.949066
 10
508.575867
 20
458.240387
 10
508.611603
 20
456.483795
 10
508.656311
 20
454.658539
 10
508.696869
 20
452.766876
 10
508.727325
 20
450.839508
 10
508.74765
 20
448.897064
 10
508.761444
 20
446.948883
 10
508.77301
 20
444.998749
 10
508.785309
 20
443.047821
 10
508.800812
 20
441.096588
 10
508.822083
 20
439.145264
 10
508.852783
 20
437.194061
 10
508.899658
 20
435.214325
  0
LWPOLYLINE
  5
E9
330
DE
100
AcDbEntity
  8
0
  6
Continuous
 62
     0
370
     0
100
AcDbPolyline
 90
       63
 70
     0
 43
0.0
 10
508.899658
 20
435.214325
 10
508.92218
 20
434.531738
 10
508.949799
 20
433.849274
 10
508.984283
 20
433.167114
 10
509.027832
 20
432.485474
 10
509.082489
 20
431.804657
 10
509.150024
 20
431.125061
 10
509.231842
 20
430.446991
 10
509.328033
 20
429.770813
 10
509.437866
 20
429.096771
 10
509.559814
 20
428.424774
 10
509.691956
 20
427.754608
 10
509.832397
 20
427.08609
 10
509.979248
 20
426.419037
 10
510.130981
 20
425.753204
 10
510.28653
 20
425.088257
 10
510.444855
 20
424.423981
 10
510.605408
 20
423.760193
 10
510.767761
 20
423.096863
 10
510.93158
 20
422.433899
 10
511.096619
 20
421.77124
 10
511.262817
 20
421.108856
 10
511.430023
 20
420.446747
 10
511.598145
 20
419.784882
 10
511.767059
 20
419.12323
 10
511.936646
 20
418.461731
 10
512.106812
 20
417.800415
 10
512.277466
 20
417.139191
 10
512.448547
 20
416.478119
 10
512.620117
 20
415.817169
 10
512.792114
 20
415.156342
 10
512.964417
 20
414.495605
 10
513.137085
 20
413.834961
 10
513.310059
 20
413.174408
 10
513.483276
 20
412.513916
 10
513.656738
 20
411.853516
 10
513.830383
 20
411.193146
 10
514.004211
 20
410.532867
 10
514.178101
 20
409.872589
 10
514.352112
 20
409.212372
 10
514.526123
 20
408.552155
 10
514.700134
 20
407.891937
 10
514.874207
 20
407.231781
 10
515.048218
 20
406.571625
 10
515.22229
 20
405.91153
 10
515.396301
 20
405.251495
 10
515.570251
 20
404.591522
 10
515.744263
 20
403.931641
 10
515.918152
 20
403.271881
 10
516.092041
 20
402.612305
 10
516.265869
 20
401.952881
 10
516.439697
 20
401.293732
 10
516.613281
 20
400.635101
 10
516.786682
 20
399.977417
 10
516.959717
 20
399.321136
 10
517.132202
 20
398.666931
 10
517.303711
 20
398.016266
 10
517.473572
 20
397.372406
 10
517.640198
 20
396.742249
 10
517.800293
 20
396.140839
 10
517.947449
 20
395.594818
 10
518.076843
 20
395.123505
 10
518.186279
 20
394.733856
  0
LWPOLYLINE
  5
EA
330
DE
100
AcDbEntity
  8
0
  6
Continuous
 62
     0
370
     0
100
AcDbPolyline
 90
       24
 70
     0
 43
0.0
 10
518.186279
 20
394.733856
 10
518.197815
 20
394.606812
 10
518.210632
 20
394.468658
 10
518.224182
 20
394.32251
 10
518.238098
 20
394.169342
 10
518.25238
 20
394.00827
 10
518.266846
 20
393.838318
 10
518.281128
 20
393.659119
 10
518.294739
 20
393.47049
 10
518.307007
 20
393.272797
 10
518.316406
 20
393.067719
 10
518.32135
 20
392.857269
 10
518.318787
 20
392.644257
 10
518.304199
 20
392.430847
 10
518.267822
 20
392.215027
 10
518.195557
 20
392.00116
 10
518.069641
 20
391.803467
 10
517.880859
 20
391.636444
 10
517.649048
 20
391.508881
 10
517.396484
 20
391.412476
 10
517.133728
 20
391.340302
 10
516.864502
 20
391.289398
 10
516.591553
 20
391.260559
 10
516.309753
 20
391.259277
  0
LWPOLYLINE
  5
EB
330
DE
100
AcDbEntity
  8
0
  6
Continuous
 62
     0
370
     0
100
AcDbPolyline
 90
       10
 70
     0
 43
0.0
 10
516.309753
 20
391.259277
 10
516.022705
 20
391.305084
 10
515.765015
 20
391.411133
 10
515.552063
 20
391.566742
 10
515.37323
 20
391.746613
 10
515.218018
 20
391.942017
 10
515.085388
 20
392.154938
 10
514.972168
 20
392.383423
 10
514.872131
 20
392.621948
 10
514.777588
 20
392.878571
  0
LWPOLYLINE
  5
EC
330
DE
100
AcDbEntity
  8
0
  6
Continuous
 62
     0
370
    30
100
AcDbPolyline
 90
        7
 70
     0
 43
0.0
 10
514.777588
 20
392.878571
 10
514.633118
 20
393.320129
 10
514.503784
 20
393.751007
 10
514.388855
 20
394.154144
 10
514.287842
 20
394.520844
 10
514.198486
 20
394.853302
 10
514.11853
 20
395.155853
  0
LWPOLYLINE
  5
ED
330
DE
100
AcDbEntity
  8
0
  6
Continuous
 62
     0
370
     0
100
AcDbPolyline
 90
       69
 70
     0
 43
0.0
 10
514.11853
 20
395.155853
 10
514.044006
 20
395.437683
 10
513.957397
 20
395.765381
 10
513.857361
 20
396.144379
 10
513.74353
 20
396.575806
 10
513.619202
 20
397.047394
 10
513.489014
 20
397.541168
 10
513.355713
 20
398.046722
 10
513.220825
 20
398.55835
 10
513.0849
 20
399.073364
 10
512.948242
 20
399.590271
 10
512.810852
 20
400.108398
 10
512.672791
 20
400.627228
 10
512.534119
 20
401.146545
 10
512.394897
 20
401.666107
 10
512.255127
 20
402.185791
 10
512.114807
 20
402.705566
 10
511.973999
 20
403.225342
 10
511.832733
 20
403.745087
 10
511.690979
 20
404.264771
 10
511.548767
 20
404.784393
 10
511.406128
 20
405.303925
 10
511.263062
 20
405.823364
 10
511.119598
 20
406.342712
 10
510.975708
 20
406.861938
 10
510.831451
 20
407.381104
 10
510.686829
 20
407.900146
 10
510.541779
 20
408.419098
 10
510.396271
 20
408.937897
 10
510.250366
 20
409.456604
 10
510.103943
 20
409.975189
 10
509.957031
 20
410.493622
 10
509.80954
 20
411.011871
 10
509.661438
 20
411.529968
 10
509.512665
 20
412.047852
 10
509.36319
 20
412.565521
 10
509.212921
 20
413.082947
 10
509.061859
 20
413.600128
 10
508.909943
 20
414.117035
 10
508.75708
 20
414.633636
 10
508.603241
 20
415.149963
 10
508.448364
 20
415.665894
 10
508.292328
 20
416.181458
 10
508.134949
 20
416.696594
 10
507.976135
 20
417.211212
 10
507.815765
 20
417.725311
 10
507.653656
 20
418.23877
 10
507.489471
 20
418.751465
 10
507.322968
 20
419.263336
 10
507.15387
 20
419.7742
 10
506.981781
 20
420.283905
 10
506.805878
 20
420.792053
 10
506.625244
 20
421.298157
 10
506.438965
 20
421.801758
 10
506.24585
 20
422.302124
 10
506.044159
 20
422.798126
 10
505.832001
 20
423.288483
 10
505.606842
 20
423.77124
 10
505.364441
 20
424.242706
 10
505.099792
 20
424.69812
 10
504.804962
 20
425.128082
 10
504.470917
 20
425.518982
 10
504.089752
 20
425.852509
 10
503.664612
 20
426.125549
 10
503.203369
 20
426.34903
 10
502.710541
 20
426.529816
 10
502.194885
 20
426.677032
 10
501.669128
 20
426.803436
 10
501.14325
 20
426.923187
  0
LWPOLYLINE
  5
EE
330
DE
100
AcDbEntity
  8
0
  6
Continuous
 62
     0
370
     0
100
AcDbPolyline
 90
        6
 70
     0
 43
0.0
 10
501.14325
 20
426.923187
 10
500.16864
 20
427.164764
 10
499.246552
 20
427.430328
 10
498.353119
 20
427.722717
 10
497.473267
 20
428.045044
 10
496.556305
 20
428.420349
  0
LWPOLYLINE
  5
EF
330
DE
100
AcDbEntity
  8
0
  6
Continuous
 62
     0
370
     0
100
AcDbPolyline
 90
       14
 70
     0
 43
0.0
 10
495.777008
 20
425.709412
 10
496.135986
 20
425.717957
 10
496.532074
 20
425.721313
 10
496.951721
 20
425.717834
 10
497.383026
 20
425.706787
 10
497.813934
 20
425.687958
 10
498.231262
 20
425.662201
 10
498.622406
 20
425.630981
 10
498.975525
 20
425.596649
 10
499.280182
 20
425.562073
 10
499.527252
 20
425.530457
 10
499.709717
 20
425.504822
 10
499.822144
 20
425.487976
 10
499.861816
 20
425.481873
  0
LWPOLYLINE
  5
F0
330
DE
100
AcDbEntity
  8
0
  6
Continuous
 62
     0
370
     0
100
AcDbPolyline
 90
       12
 70
     0
 43
0.0
 10
505.531921
 20
434.189362
 10
505.257141
 20
434.510681
 10
504.94574
 20
434.796143
 10
504.601593
 20
435.040985
 10
504.234131
 20
435.248901
 10
503.845825
 20
435.415497
 10
503.44281
 20
435.542053
 10
503.030396
 20
435.63324
 10
502.612671
 20
435.694946
 10
502.192261
 20
435.732849
 10
501.770844
 20
435.753265
 10
501.343323
 20
435.762909
  0
LWPOLYLINE
  5
F1
330
DE
100
AcDbEntity
  8
0
  6
Continuous
 62
     0
370
     0
100
AcDbPolyline
 90
        9
 70
     0
 43
0.0
 10
501.343323
 20
435.762909
 10
501.331726
 20
434.971527
 10
501.31781
 20
434.190247
 10
501.301849
 20
433.424255
 10
501.284637
 20
432.68045
 10
501.267883
 20
431.968689
 10
501.254913
 20
431.300873
 10
501.251617
 20
430.687286
 10
501.272644
 20
430.041626
  0
LWPOLYLINE
  5
F2
330
DE
100
AcDbEntity
  8
0
  6
Continuous
 62
     0
370
     0
100
AcDbPolyline
 90
        6
 70
     0
 43
0.0
 10
501.272644
 20
430.041626
 10
501.308746
 20
429.653809
 10
501.369019
 20
429.279358
 10
501.461578
 20
428.917908
 10
501.598053
 20
428.569
 10
501.802612
 20
428.204681
  0
ARC
  5
F3
330
DE
100
AcDbEntity
  8
0
  6
Continuous
 62
     0
370
     0
100
AcDbCircle
 10
500.868659
 20
423.465626
 30
0.0
 40
4.830205919680011
100
AcDbArc
 50
52.368414
 51
78.851407
  0
LWPOLYLINE
  5
F4
330
DE
100
AcDbEntity
  8
0
  6
Continuous
 62
     0
370
     0
100
AcDbPolyline
 90
       13
 70
     0
 43
0.0
 10
503.817902
 20
427.290924
 10
503.830139
 20
427.661987
 10
503.858856
 20
428.097351
 10
503.917023
 20
428.578156
 10
504.015747
 20
429.086975
 10
504.163574
 20
429.60849
 10
504.355438
 20
430.1521
 10
504.569519
 20
430.740936
 10
504.786713
 20
431.375061
 10
504.994995
 20
432.045319
 10
505.18924
 20
432.739807
 10
505.365417
 20
433.452972
 10
505.531921
 20
434.189362
  0
LWPOLYLINE
  5
F5
330
DE
100
AcDbEntity
  8
0
  6
Continuous
 62
     0
370
     0
100
AcDbPolyline
 90
       28
 70
     0
 43
0.0
 10
505.531921
 20
434.189362
 10
505.521973
 20
435.568695
 10
505.51651
 20
436.94928
 10
505.512421
 20
438.330566
 10
505.509155
 20
439.712189
 10
505.506989
 20
441.093964
 10
505.506012
 20
442.475708
 10
505.50592
 20
443.857269
 10
505.506317
 20
445.238464
 10
505.506958
 20
446.618988
 10
505.507629
 20
447.998505
 10
505.508087
 20
449.376312
 10
505.508026
 20
450.751312
 10
505.507202
 20
452.121704
 10
505.505676
 20
453.484009
 10
505.50351
 20
454.833313
 10
505.500854
 20
456.161926
 10
505.497894
 20
457.460175
 10
505.494904
 20
458.71756
 10
505.492279
 20
459.9263
 10
505.490173
 20
461.082184
 10
505.488617
 20
462.184082
 10
505.487488
 20
463.230072
 10
505.486694
 20
464.217896
 10
505.486145
 20
465.145996
 10
505.485779
 20
466.010376
 10
505.485535
 20
466.804077
 10
505.485382
 20
467.527954
  0
LWPOLYLINE
  5
F6
330
DE
100
AcDbEntity
  8
0
  6
Continuous
 62
     0
370
     0
100
AcDbPolyline
 90
       27
 70
     0
 43
0.0
 10
495.807678
 20
467.378479
 10
495.807678
 20
466.665527
 10
495.807678
 20
465.878052
 10
495.807678
 20
465.021454
 10
495.807678
 20
464.101837
 10
495.807678
 20
463.123352
 10
495.807678
 20
462.087799
 10
495.807678
 20
460.997864
 10
495.807678
 20
459.856628
 10
495.807678
 20
458.667084
 10
495.807678
 20
457.433289
 10
495.807678
 20
456.16156
 10
495.807678
 20
454.858978
 10
495.807678
 20
453.532959
 10
495.807678
 20
452.190002
 10
495.807678
 20
450.835693
 10
495.807678
 20
449.474152
 10
495.807678
 20
448.108643
 10
495.807648
 20
446.740906
 10
495.807495
 20
445.37262
 10
495.80722
 20
444.005493
 10
495.806702
 20
442.640961
 10
495.805908
 20
441.279388
 10
495.804779
 20
439.921539
 10
495.803131
 20
438.572662
 10
495.800842
 20
437.239563
 10
495.797668
 20
435.892456
  0
LWPOLYLINE
  5
F7
330
DE
100
AcDbEntity
  8
0
  6
Continuous
 62
     0
370
     0
100
AcDbPolyline
 90
        4
 70
     0
 43
0.0
 10
495.797668
 20
435.892456
 10
497.557098
 20
435.812592
 10
499.315491
 20
435.775238
 10
501.343323
 20
435.762909
  0
LWPOLYLINE
  5
F8
330
DE
100
AcDbEntity
  8
0
  6
Continuous
 62
     0
370
     0
100
AcDbPolyline
 90
       37
 70
     0
 43
0.0
 10
505.531921
 20
434.189362
 10
505.763336
 20
434.363678
 10
506.007172
 20
434.52359
 10
506.260651
 20
434.671661
 10
506.522766
 20
434.808197
 10
506.794067
 20
434.928589
 10
507.074951
 20
435.026886
 10
507.361755
 20
435.099762
 10
507.645691
 20
435.147064
 10
507.905914
 20
435.174774
 10
508.10611
 20
435.192841
 10
508.232635
 20
435.201904
 10
508.3125
 20
435.206055
 10
508.367676
 20
435.207977
 10
508.410004
 20
435.208893
 10
508.445251
 20
435.209381
 10
508.476318
 20
435.209747
 10
508.504578
 20
435.210022
 10
508.531006
 20
435.210266
 10
508.555908
 20
435.21051
 10
508.579468
 20
435.210724
 10
508.601929
 20
435.210907
 10
508.623505
 20
435.21109
 10
508.64444
 20
435.211304
 10
508.664917
 20
435.211487
 10
508.685181
 20
435.21167
 10
508.705231
 20
435.211884
 10
508.725128
 20
435.212097
 10
508.744843
 20
435.212311
 10
508.764465
 20
435.212555
 10
508.783936
 20
435.212769
 10
508.803314
 20
435.213013
 10
508.822601
 20
435.213257
 10
508.841827
 20
435.213531
 10
508.860992
 20
435.213776
 10
508.880127
 20
435.21405
 10
508.899658
 20
435.214325
  0
LWPOLYLINE
  5
F9
330
DE
100
AcDbEntity
  8
0
  6
Continuous
 62
     0
370
     0
100
AcDbPolyline
 90
       59
 70
     0
 43
0.0
 10
505.531921
 20
434.189362
 10
505.700165
 20
433.394501
 10
505.863678
 20
432.598602
 10
506.024658
 20
431.802185
 10
506.18515
 20
431.005676
 10
506.346954
 20
430.209442
 10
506.511566
 20
429.413788
 10
506.680481
 20
428.619049
 10
506.854553
 20
427.825439
 10
507.033478
 20
427.032837
 10
507.216705
 20
426.241241
 10
507.403656
 20
425.450531
 10
507.593872
 20
424.660614
 10
507.786865
 20
423.871399
 10
507.982208
 20
423.082764
 10
508.179413
 20
422.294617
 10
508.378052
 20
421.506836
 10
508.577911
 20
420.719391
 10
508.778839
 20
419.932281
 10
508.980713
 20
419.145416
 10
509.183411
 20
418.358795
 10
509.386749
 20
417.572388
 10
509.590668
 20
416.786163
 10
509.795074
 20
416.000122
 10
509.999908
 20
415.214264
 10
510.205139
 20
414.428558
 10
510.410736
 20
413.643036
 10
510.616638
 20
412.857635
 10
510.822784
 20
412.072418
 10
511.029144
 20
411.287354
 10
511.235687
 20
410.502441
 10
511.442322
 20
409.717743
 10
511.649048
 20
408.933197
 10
511.855774
 20
408.148865
 10
512.0625
 20
407.364716
 10
512.269165
 20
406.580841
 10
512.475708
 20
405.797333
 10
512.68219
 20
405.014252
 10
512.888489
 20
404.231689
 10
513.094604
 20
403.449768
 10
513.300537
 20
402.66864
 10
513.506226
 20
401.88858
 10
513.711487
 20
401.109802
 10
513.916382
 20
400.332611
 10
514.120728
 20
399.557434
 10
514.32428
 20
398.78537
 10
514.526672
 20
398.017761
 10
514.727539
 20
397.25592
 10
514.926331
 20
396.501831
 10
515.122131
 20
395.758972
 10
515.313171
 20
395.034485
 10
515.496277
 20
394.340027
 10
515.667114
 20
393.692261
 10
515.820923
 20
393.109222
 10
515.954468
 20
392.603149
 10
516.067566
 20
392.174927
 10
516.162354
 20
391.816254
 10
516.241821
 20
391.51593
 10
516.309753
 20
391.259277
  0
LWPOLYLINE
  5
FA
330
DE
100
AcDbEntity
  8
0
  6
Continuous
 62
     0
370
     0
100
AcDbPolyline
 90
       59
 70
     0
 43
0.0
 10
503.817902
 20
427.290924
 10
504.264801
 20
426.8909
 10
504.660614
 20
426.418518
 10
505.009399
 20
425.888702
 10
505.321198
 20
425.320557
 10
505.605469
 20
424.729706
 10
505.869202
 20
424.12323
 10
506.117157
 20
423.505707
 10
506.352753
 20
422.880646
 10
506.5784
 20
422.250061
 10
506.796021
 20
421.615356
 10
507.007263
 20
420.977539
 10
507.21344
 20
420.337433
 10
507.415833
 20
419.695709
 10
507.614868
 20
419.052612
 10
507.810913
 20
418.408295
 10
508.004364
 20
417.76297
 10
508.195526
 20
417.116821
 10
508.384796
 20
416.469971
 10
508.572479
 20
415.822571
 10
508.758759
 20
415.174774
 10
508.943695
 20
414.52655
 10
509.127472
 20
413.87793
 10
509.310089
 20
413.229004
 10
509.49173
 20
412.579773
 10
509.672424
 20
411.930298
 10
509.852295
 20
411.280579
 10
510.031433
 20
410.630676
 10
510.2099
 20
409.980621
 10
510.387787
 20
409.330414
 10
510.565125
 20
408.680145
 10
510.742035
 20
408.029785
 10
510.918549
 20
407.379395
 10
511.094757
 20
406.729004
 10
511.270599
 20
406.078644
 10
511.446106
 20
405.428406
 10
511.621216
 20
404.77829
 10
511.795898
 20
404.128387
 10
511.970184
 20
403.478729
 10
512.144043
 20
402.829468
 10
512.317322
 20
402.180695
 10
512.490112
 20
401.532654
 10
512.662292
 20
400.885498
 10
512.833801
 20
400.239502
 10
513.004456
 20
399.595398
 10
513.174072
 20
398.954224
 10
513.342407
 20
398.316986
 10
513.509094
 20
397.684906
 10
513.673828
 20
397.060272
 10
513.835388
 20
396.447357
 10
513.991882
 20
395.853729
 10
514.140198
 20
395.29126
 10
514.27655
 20
394.774475
 10
514.397339
 20
394.316559
 10
514.501099
 20
393.923615
 10
514.588745
 20
393.59201
 10
514.662354
 20
393.313629
 10
514.724365
 20
393.079285
 10
514.777588
 20
392.878571
  0
LWPOLYLINE
  5
FB
330
DE
100
AcDbEntity
  8
0
  6
Continuous
 62
     0
370
     0
100
AcDbPolyline
 90
        7
 70
     0
 43
0.0
 10
501.802612
 20
428.204681
 10
501.579407
 20
427.955688
 10
501.421967
 20
427.722717
 10
501.314575
 20
427.505768
 10
501.239349
 20
427.30304
 10
501.184845
 20
427.112091
 10
501.14325
 20
426.923187
  0
LWPOLYLINE
  5
FC
330
DE
100
AcDbEntity
  8
0
  6
Continuous
 62
     0
370
     0
100
AcDbPolyline
 90
       12
 70
     0
 43
0.0
 10
495.797668
 20
435.892456
 10
495.795288
 20
435.015015
 10
495.795044
 20
434.161255
 10
495.800354
 20
433.338409
 10
495.815186
 20
432.553223
 10
495.843719
 20
431.811615
 10
495.890564
 20
431.118408
 10
495.96109
 20
430.476959
 10
496.059784
 20
429.887756
 10
496.188049
 20
429.348755
 10
496.349396
 20
428.863098
 10
496.556305
 20
428.420349
  0
LWPOLYLINE
  5
FD
330
DE
100
AcDbEntity
  8
0
  6
Continuous
 62
     0
370
     0
100
AcDbPolyline
 90
        9
 70
     0
 43
0.0
 10
496.556305
 20
428.420349
 10
497.076202
 20
428.615631
 10
497.607178
 20
428.812775
 10
498.152435
 20
429.017822
 10
498.71402
 20
429.229309
 10
499.295349
 20
429.443848
 10
499.902008
 20
429.657379
 10
500.540222
 20
429.85968
 10
501.272644
 20
430.041626
  0
LINE
  5
FE
330
DE
100
AcDbEntity
  8
0
  6
Continuous
 62
     0
370
    30
100
AcDbLine
 10
484.548738
 20
428.617496
 30
0.0
 11
484.548739
 21
447.93366
 31
0.0
  0
LINE
  5
FF
330
DE
100
AcDbEntity
  8
0
  6
Continuous
 62
     0
370
    30
100
AcDbLine
 10
493.094246
 20
470.195869
 30
0.0
 11
484.548741
 21
447.93366
 31
0.0
  0
LINE
  5
100
330
DE
100
AcDbEntity
  8
0
  6
Continuous
 62
     0
370
    30
100
AcDbLine
 10
481.748738
 20
425.686659
 30
0.0
 11
471.555641
 21
425.686659
 31
0.0
  0
LINE
  5
101
330
DE
100
AcDbEntity
  8
0
  6
Continuous
 62
     0
370
    30
100
AcDbLine
 10
481.748738
 20
425.686659
 30
0.0
 11
481.748738
 21
470.086659
 31
0.0
  0
LINE
  5
102
330
DE
100
AcDbEntity
  8
0
  6
Continuous
 62
     0
370
    30
100
AcDbLine
 10
471.555645
 20
447.886659
 30
0.0
 11
471.555641
 21
358.886659
 31
0.0
  0
LINE
  5
103
330
DE
100
AcDbEntity
  8
0
  6
Continuous
 62
     0
370
    30
100
AcDbLine
 10
471.555641
 20
536.886659
 30
0.0
 11
471.555645
 21
447.886659
 31
0.0
  0
LWPOLYLINE
  5
104
330
DE
100
AcDbEntity
  8
0
  6
Continuous
 62
     0
370
     0
100
AcDbPolyline
 90
       54
 70
     0
 43
0.0
 10
470.555634
 20
447.886658
 10
470.555634
 20
450.553711
 10
470.555634
 20
453.218414
 10
470.555634
 20
455.878448
 10
470.555634
 20
458.531464
 10
470.555634
 20
461.17514
 10
470.555634
 20
463.807159
 10
470.555634
 20
466.42514
 10
470.555634
 20
469.026825
 10
470.555634
 20
471.609955
 10
470.555634
 20
474.172272
 10
470.555634
 20
476.711517
 10
470.555634
 20
479.225494
 10
470.555634
 20
481.711884
 10
470.555634
 20
484.168518
 10
470.555634
 20
486.593262
 10
470.555634
 20
488.984009
 10
470.555634
 20
491.338715
 10
470.555634
 20
493.655334
 10
470.555634
 20
495.931732
 10
470.555634
 20
498.165894
 10
470.555634
 20
500.355804
 10
470.555634
 20
502.499573
 10
470.555634
 20
504.595459
 10
470.555634
 20
506.641602
 10
470.555634
 20
508.636169
 10
470.555634
 20
510.577393
 10
470.555634
 20
512.46344
 10
470.555634
 20
514.292664
 10
470.555634
 20
516.063599
 10
470.555634
 20
517.774719
 10
470.555634
 20
519.424561
 10
470.555634
 20
521.011536
 10
470.555634
 20
522.534302
 10
470.555634
 20
523.991333
 10
470.555634
 20
525.38147
 10
470.555634
 20
526.703613
 10
470.555634
 20
527.956543
 10
470.555634
 20
529.139282
 10
470.555634
 20
530.250671
 10
470.555634
 20
531.289673
 10
470.555634
 20
532.255188
 10
470.555634
 20
533.146606
 10
470.555634
 20
533.963196
 10
470.555634
 20
534.704285
 10
470.555634
 20
535.369263
 10
470.555634
 20
535.957336
 10
470.555634
 20
536.467896
 10
470.555634
 20
536.900513
 10
470.555634
 20
537.255005
 10
470.555634
 20
537.531067
 10
470.555634
 20
537.728516
 10
470.555634
 20
537.847107
 10
470.555634
 20
537.886658
  0
LWPOLYLINE
  5
105
330
DE
100
AcDbEntity
  8
0
  6
Continuous
 62
     0
370
     0
100
AcDbPolyline
 90
       54
 70
     0
 43
0.0
 10
470.555634
 20
357.886658
 10
470.555634
 20
357.925659
 10
470.555634
 20
358.043732
 10
470.555634
 20
358.240662
 10
470.555634
 20
358.516205
 10
470.555634
 20
358.870148
 10
470.555634
 20
359.302246
 10
470.555634
 20
359.812286
 10
470.555634
 20
360.399841
 10
470.555634
 20
361.06427
 10
470.555634
 20
361.804871
 10
470.555634
 20
362.620941
 10
470.555634
 20
363.511871
 10
470.555634
 20
364.476898
 10
470.555634
 20
365.51535
 10
470.555634
 20
366.626282
 10
470.555634
 20
367.808533
 10
470.555634
 20
369.061035
 10
470.555634
 20
370.38269
 10
470.555634
 20
371.772339
 10
470.555634
 20
373.228943
 10
470.555634
 20
374.751251
 10
470.555634
 20
376.33786
 10
470.555634
 20
377.987244
 10
470.555634
 20
379.697968
 10
470.555634
 20
381.468475
 10
470.555634
 20
383.297333
 10
470.555634
 20
385.182983
 10
470.555634
 20
387.12384
 10
470.555634
 20
389.118103
 10
470.555634
 20
391.163879
 10
470.555634
 20
393.25943
 10
470.555634
 20
395.402893
 10
470.555634
 20
397.592499
 10
470.555634
 20
399.826355
 10
470.555634
 20
402.102478
 10
470.555634
 20
404.418823
 10
470.555634
 20
406.773285
 10
470.555634
 20
409.163818
 10
470.555634
 20
411.588318
 10
470.555634
 20
414.044739
 10
470.555634
 20
416.530945
 10
470.555634
 20
419.044739
 10
470.555634
 20
421.583832
 10
470.555634
 20
424.145996
 10
470.555634
 20
426.728973
 10
470.555634
 20
429.330536
 10
470.555634
 20
431.948456
 10
470.555634
 20
434.580353
 10
470.555634
 20
437.223969
 10
470.555634
 20
439.876953
 10
470.555634
 20
442.536926
 10
470.555634
 20
445.20163
 10
470.555634
 20
447.886658
  0
LINE
  5
106
330
DE
100
AcDbEntity
  8
0
  6
Continuous
 62
     0
370
    30
100
AcDbLine
 10
459.555641
 20
537.886659
 30
0.0
 11
459.555641
 21
447.886659
 31
0.0
  0
LINE
  5
107
330
DE
100
AcDbEntity
  8
0
  6
Continuous
 62
     0
370
    30
100
AcDbLine
 10
459.555641
 20
447.886659
 30
0.0
 11
459.555641
 21
357.886659
 31
0.0
  0
LINE
  5
108
330
DE
100
AcDbEntity
  8
0
  6
Continuous
 62
     0
370
    30
100
AcDbLine
 10
470.555641
 20
357.886659
 30
0.0
 11
459.555641
 21
357.886659
 31
0.0
  0
LINE
  5
109
330
DE
100
AcDbEntity
  8
0
  6
Continuous
 62
     0
370
    30
100
AcDbLine
 10
470.555641
 20
537.886659
 30
0.0
 11
459.555641
 21
537.886659
 31
0.0
  0
ARC
  5
10A
330
DE
100
AcDbEntity
  8
0
  6
Continuous
 62
     0
370
    30
100
AcDbCircle
 10
470.555617
 20
358.886683
 30
0.0
 40
1.00002430797055
100
AcDbArc
 50
270.001393
 51
359.998607
  0
ARC
  5
10B
330
DE
100
AcDbEntity
  8
0
  6
Continuous
 62
     0
370
    30
100
AcDbCircle
 10
470.555617
 20
536.886634
 30
0.0
 40
1.000024307971652
100
AcDbArc
 50
0.001393
 51
89.998607
  0
LINE
  5
10C
330
DE
100
AcDbEntity
  8
0
  6
Continuous
 62
     0
370
    30
100
AcDbLine
 10
471.555641
 20
470.086659
 30
0.0
 11
481.748738
 21
470.086659
 31
0.0
  0
ARC
  5
10D
330
DE
100
AcDbEntity
  8
0
  6
Continuous
 62
     0
370
    30
100
AcDbCircle
 10
480.363939
 20
448.079179
 30
0.0
 40
20.48937043084365
100
AcDbArc
 50
273.875359
 51
281.785155
  0
ARC
  5
10E
330
DE
100
AcDbEntity
  8
0
  6
Continuous
 62
     0
370
    30
100
AcDbCircle
 10
480.362474
 20
447.683542
 30
0.0
 40
20.50004212654546
100
AcDbArc
 50
58.265694
 51
86.122558
  0
LWPOLYLINE
  5
10F
330
DE
100
AcDbEntity
  8
0
  6
Continuous
 62
     0
370
    30
100
AcDbPolyline
 90
        4
 70
     0
 43
0.0
 10
499.861816
 20
425.481873
 10
498.235962
 20
425.586609
 10
496.607483
 20
425.638763
 10
494.838104
 20
425.661926
  0
LINE
  5
110
330
DE
100
AcDbEntity
  8
0
  6
Continuous
 62
     0
370
    30
100
AcDbLine
 10
495.807672
 20
470.21367
 30
0.0
 11
493.093263
 21
470.195863
 31
0.0
  0
LWPOLYLINE
  5
111
330
DE
100
AcDbEntity
  8
0
  6
Continuous
 62
     0
370
    30
100
AcDbPolyline
 90
       31
 70
     0
 43
0.0
 10
512.27002
 20
402.130524
 10
512.288269
 20
402.062622
 10
512.334778
 20
401.889648
 10
512.398804
 20
401.651276
 10
512.470581
 20
401.383179
 10
512.546875
 20
401.097992
 10
512.625244
 20
400.804321
 10
512.704468
 20
400.507111
 10
512.783875
 20
400.208466
 10
512.863098
 20
399.910156
 10
512.941833
 20
399.612946
 10
513.019897
 20
399.317963
 10
513.097534
 20
399.024261
 10
513.174805
 20
398.731476
 10
513.251648
 20
398.440247
 10
513.328186
 20
398.149933
 10
513.404846
 20
397.859161
 10
513.481079
 20
397.569916
 10
513.556458
 20
397.284119
 10
513.630432
 20
397.003387
 10
513.702576
 20
396.729828
 10
513.772278
 20
396.465607
 10
513.838928
 20
396.213043
 10
513.90155
 20
395.975739
 10
513.958313
 20
395.760681
 10
514.010132
 20
395.564392
 10
514.057434
 20
395.385345
 10
514.099365
 20
395.226715
 10
514.13446
 20
395.09433
 10
514.167542
 20
394.969513
 10
514.193787
 20
394.870819
  0
LWPOLYLINE
  5
112
330
DE
100
AcDbEntity
  8
0
  6
Continuous
 62
     0
370
    30
100
AcDbPolyline
 90
       62
 70
     0
 43
0.0
 10
512.272217
 20
402.122101
 10
512.14917
 20
402.572662
 10
512.025513
 20
403.023071
 10
511.901245
 20
403.473297
 10
511.776428
 20
403.923401
 10
511.651062
 20
404.373322
 10
511.525146
 20
404.82312
 10
511.398712
 20
405.272736
 10
511.271729
 20
405.722229
 10
511.144257
 20
406.17157
 10
511.016296
 20
406.620789
 10
510.887848
 20
407.069885
 10
510.758911
 20
407.518829
 10
510.629456
 20
407.967621
 10
510.499481
 20
408.41626
 10
510.368988
 20
408.864746
 10
510.237976
 20
409.31308
 10
510.106445
 20
409.761261
 10
509.974365
 20
410.20932
 10
509.841736
 20
410.657166
 10
509.708588
 20
411.104889
 10
509.574829
 20
411.552399
 10
509.44043
 20
411.999756
 10
509.305359
 20
412.446869
 10
509.169556
 20
412.893799
 10
509.03299
 20
413.340485
 10
508.895538
 20
413.786896
 10
508.757202
 20
414.233032
 10
508.617889
 20
414.678864
 10
508.477509
 20
415.124359
 10
508.336029
 20
415.569519
 10
508.193329
 20
416.014282
 10
508.049377
 20
416.458618
 10
507.904083
 20
416.902527
 10
507.757324
 20
417.345978
 10
507.608917
 20
417.788849
 10
507.45871
 20
418.23114
 10
507.306458
 20
418.672729
 10
507.151825
 20
419.113495
 10
506.994171
 20
419.553192
 10
506.832916
 20
419.991547
 10
506.66748
 20
420.428345
 10
506.497009
 20
420.86322
 10
506.320404
 20
421.295624
 10
506.136292
 20
421.724884
 10
505.943146
 20
422.150208
 10
505.738312
 20
422.569977
 10
505.518463
 20
422.982086
 10
505.279266
 20
423.38327
 10
505.013489
 20
423.76712
 10
504.712128
 20
424.123932
 10
504.36441
 20
424.434845
 10
503.969635
 20
424.683594
 10
503.544006
 20
424.875458
 10
503.101532
 20
425.0242
 10
502.648865
 20
425.138824
 10
502.189789
 20
425.22583
 10
501.727509
 20
425.292358
 10
501.263672
 20
425.347656
 10
500.799133
 20
425.395447
 10
500.334351
 20
425.44397
 10
499.861816
 20
425.481873
  0
LWPOLYLINE
  5
113
330
DE
100
AcDbEntity
  8
0
  6
Continuous
 62
     0
370
    30
100
AcDbPolyline
 90
       40
 70
     0
 43
0.0
 10
514.346375
 20
394.306976
 10
514.424133
 20
394.015717
 10
514.502441
 20
393.724701
 10
514.581421
 20
393.43396
 10
514.661438
 20
393.143524
 10
514.742615
 20
392.853424
 10
514.825134
 20
392.563629
 10
514.909119
 20
392.274109
 10
514.995483
 20
391.985168
 10
515.085632
 20
391.697418
 10
515.181213
 20
391.411438
 10
515.284546
 20
391.128174
 10
515.399597
 20
390.849457
 10
515.534546
 20
390.579865
 10
515.700989
 20
390.328888
 10
515.901917
 20
390.104034
 10
516.134705
 20
389.913391
 10
516.408325
 20
389.788849
 10
516.704712
 20
389.736664
 10
517.005859
 20
389.738556
 10
517.305359
 20
389.776611
 10
517.599121
 20
389.844025
 10
517.883789
 20
389.942352
 10
518.154053
 20
390.075623
 10
518.396057
 20
390.2547
 10
518.587646
 20
390.486511
 10
518.716675
 20
390.758453
 10
518.791565
 20
391.050262
 10
518.828979
 20
391.349396
 10
518.842346
 20
391.650513
 10
518.838989
 20
391.952057
 10
518.824341
 20
392.253357
 10
518.80188
 20
392.554047
 10
518.772766
 20
392.854156
 10
518.738403
 20
393.153717
 10
518.699463
 20
393.452759
 10
518.656311
 20
393.751221
 10
518.609192
 20
394.049072
 10
518.55835
 20
394.346313
 10
518.503479
 20
394.645844
  0
LWPOLYLINE
  5
114
330
DE
100
AcDbEntity
  8
0
  6
Continuous
 62
     0
370
    30
100
AcDbPolyline
 90
       44
 70
     0
 43
0.0
 10
518.503479
 20
394.645844
 10
518.146118
 20
396.257324
 10
517.734009
 20
397.855927
 10
517.312927
 20
399.452148
 10
516.892212
 20
401.048523
 10
516.471313
 20
402.644806
 10
516.050476
 20
404.241119
 10
515.629639
 20
405.837433
 10
515.208679
 20
407.433716
 10
514.787842
 20
409.030029
 10
514.367432
 20
410.626465
 10
513.947937
 20
412.223114
 10
513.529846
 20
413.82016
 10
513.113831
 20
415.417755
 10
512.700684
 20
417.016083
 10
512.291443
 20
418.615387
 10
511.887115
 20
420.215973
 10
511.488831
 20
421.818054
 10
511.098724
 20
423.42215
 10
510.721252
 20
425.029266
 10
510.365295
 20
426.641266
 10
510.047394
 20
428.2612
 10
509.790802
 20
429.891846
 10
509.615814
 20
431.533203
 10
509.514984
 20
433.180908
 10
509.461304
 20
434.830872
 10
509.428772
 20
436.481384
 10
509.407318
 20
438.132111
 10
509.391632
 20
439.782898
 10
509.380219
 20
441.433716
 10
509.371796
 20
443.084534
 10
509.365417
 20
444.735382
 10
509.359924
 20
446.38623
 10
509.354034
 20
448.037079
 10
509.346375
 20
449.687897
 10
509.335083
 20
451.338715
 10
509.31839
 20
452.989502
 10
509.295441
 20
454.640198
 10
509.267242
 20
456.290802
 10
509.238556
 20
457.941406
 10
509.21051
 20
459.59201
 10
509.179077
 20
461.242584
 10
509.138855
 20
462.892975
 10
509.080811
 20
464.550201
  0
LWPOLYLINE
  5
115
330
DE
100
AcDbEntity
  8
0
  6
Continuous
 62
     0
370
    30
100
AcDbPolyline
 90
       65
 70
     0
 43
0.0
 10
495.807678
 20
470.213684
 10
496.087494
 20
470.215393
 10
496.36731
 20
470.217133
 10
496.647156
 20
470.218842
 10
496.926971
 20
470.22052
 10
497.206787
 20
470.222168
 10
497.486603
 20
470.223816
 10
497.766449
 20
470.225433
 10
498.046265
 20
470.22702
 10
498.32608
 20
470.228577
 10
498.605927
 20
470.230103
 10
498.885742
 20
470.231598
 10
499.165558
 20
470.233063
 10
499.445404
 20
470.234497
 10
499.72522
 20
470.235901
 10
500.005035
 20
470.237274
 10
500.284851
 20
470.238617
 10
500.564697
 20
470.23996
 10
500.844513
 20
470.241302
 10
501.124329
 20
470.242615
 10
501.404175
 20
470.243958
 10
501.68399
 20
470.2453
 10
501.963837
 20
470.246674
 10
502.243652
 20
470.248047
 10
502.523468
 20
470.249481
 10
502.803284
 20
470.250916
 10
503.08313
 20
470.252411
 10
503.362946
 20
470.253876
 10
503.642761
 20
470.25531
 10
503.922607
 20
470.256775
 10
504.202423
 20
470.258209
 10
504.482269
 20
470.259705
 10
504.762085
 20
470.261261
 10
505.041901
 20
470.262909
 10
505.321716
 20
470.264648
 10
505.601532
 20
470.266235
 10
505.881378
 20
470.267365
 10
506.161224
 20
470.267517
 10
506.44104
 20
470.265198
 10
506.720764
 20
470.258423
 10
507.000244
 20
470.24472
 10
507.278809
 20
470.218262
 10
507.554352
 20
470.169922
 10
507.821869
 20
470.088013
 10
508.066559
 20
469.954102
 10
508.266846
 20
469.759888
 10
508.415009
 20
469.523041
 10
508.52356
 20
469.265289
 10
508.606628
 20
468.998077
 10
508.672699
 20
468.726196
 10
508.727875
 20
468.451874
 10
508.775452
 20
468.176147
 10
508.816986
 20
467.899414
 10
508.853455
 20
467.621948
 10
508.885834
 20
467.343994
 10
508.914764
 20
467.065674
 10
508.940826
 20
466.787048
 10
508.964447
 20
466.50824
 10
508.985992
 20
466.229248
 10
509.005615
 20
465.950104
 10
509.023499
 20
465.670837
 10
509.039764
 20
465.391479
 10
509.054626
 20
465.11203
 10
509.068207
 20
464.83252
 10
509.080811
 20
464.550201
  0
LWPOLYLINE
  5
116
330
DE
100
AcDbEntity
  8
0
  6
Continuous
 62
     0
370
    30
100
AcDbPolyline
 90
        4
 70
     0
 43
0.0
 10
494.838104
 20
425.661926
 10
491.821991
 20
425.672943
 10
488.805847
 20
425.663086
 10
484.548737
 20
425.636658
  0
ENDBLK
  5
118
330
DE
100
AcDbEntity
  8
0
100
AcDbBlockEnd
  0
BLOCK
  5
153
330
11A
100
AcDbEntity
  8
0
100
AcDbBlockBegin
  2
d
 70
     0
 10
77.353676
 20
0.0
 30
0.0
  3
d
  1

  0
LWPOLYLINE
  5
11B
330
11A
100
AcDbEntity
  8
0
  6
Continuous
 62
     0
370
     0
100
AcDbPolyline
 90
        7
 70
     0
 43
0.0
 10
20.308661
 20
428.617706
 10
18.361774
 20
428.589447
 10
16.415581
 20
428.560608
 10
14.471422
 20
428.530518
 10
12.53108
 20
428.498444
 10
10.597342
 20
428.463318
 10
8.301091
 20
428.420593
  0
LWPOLYLINE
  5
11C
330
11A
100
AcDbEntity
  8
0
  6
Continuous
 62
     0
370
     0
100
AcDbPolyline
 90
       13
 70
     0
 43
0.0
 10
8.301091
 20
428.420593
 10
8.495693
 20
428.05072
 10
8.643193
 20
427.707947
 10
8.755631
 20
427.396271
 10
8.846745
 20
427.108551
 10
8.917401
 20
426.844971
 10
8.97082
 20
426.605835
 10
9.010303
 20
426.391479
 10
9.038784
 20
426.202209
 10
9.058311
 20
426.038879
 10
9.070644
 20
425.902527
 10
9.077423
 20
425.794281
 10
9.080399
 20
425.709442
  0
LWPOLYLINE
  5
11D
330
11A
100
AcDbEntity
  8
0
  6
Continuous
 62
     0
370
     0
100
AcDbPolyline
 90
        7
 70
     0
 43
0.0
 10
9.080399
 20
425.709442
 10
9.342097
 20
425.69986
 10
9.567797
 20
425.689362
 10
9.751757
 20
425.67923
 10
9.889977
 20
425.670685
 10
9.979373
 20
425.664703
 10
10.019269
 20
425.661926
  0
LINE
  5
11E
330
11A
100
AcDbEntity
  8
0
  6
Continuous
 62
     0
370
    30
100
AcDbLine
 10
20.308661
 20
425.637088
 30
0.0
 11
20.308661
 21
428.617691
 31
0.0
  0
LINE
  5
11F
330
11A
100
AcDbEntity
  8
0
  6
Continuous
 62
     0
370
     0
100
AcDbLine
 10
9.049726
 20
467.378679
 30
0.0
 11
9.049727
 21
470.21352
 31
0.0
  0
LWPOLYLINE
  5
120
330
11A
100
AcDbEntity
  8
0
  6
Continuous
 62
     0
370
     0
100
AcDbPolyline
 90
        8
 70
     0
 43
0.0
 10
-4.223423
 20
464.550201
 10
-4.208416
 20
464.514191
 10
-4.167407
 20
464.413422
 10
-4.105796
 20
464.257202
 10
-4.028695
 20
464.052399
 10
-3.940584
 20
463.804962
 10
-3.845315
 20
463.520905
 10
-3.74826
 20
463.198517
  0
LWPOLYLINE
  5
121
330
11A
100
AcDbEntity
  8
0
  6
Continuous
 62
     0
370
     0
100
AcDbPolyline
 90
       29
 70
     0
 43
0.0
 10
-3.74826
 20
463.198517
 10
-3.725686
 20
463.399994
 10
-3.704778
 20
463.60675
 10
-3.684906
 20
463.81662
 10
-3.665945
 20
464.029388
 10
-3.647836
 20
464.245087
 10
-3.630505
 20
464.463715
 10
-3.613757
 20
464.68512
 10
-3.597332
 20
464.909119
 10
-3.580936
 20
465.135468
 10
-3.563974
 20
465.363708
 10
-3.54568
 20
465.593262
 10
-3.525111
 20
465.823608
 10
-3.500495
 20
466.054016
 10
-3.469701
 20
466.283722
 10
-3.428697
 20
466.51181
 10
-3.371381
 20
466.736816
 10
-3.286063
 20
466.954468
 10
-3.156206
 20
467.153748
 10
-2.968002
 20
467.313141
 10
-2.73478
 20
467.418274
 10
-2.480739
 20
467.479218
 10
-2.219753
 20
467.512238
 10
-1.956577
 20
467.529114
 10
-1.692657
 20
467.536285
 10
-1.428572
 20
467.537781
 10
-1.164439
 20
467.53598
 10
-0.900308
 20
467.532471
 10
-0.627978
 20
467.528137
  0
LWPOLYLINE
  5
122
330
11A
100
AcDbEntity
  8
0
  6
Continuous
 62
     0
370
     0
100
AcDbPolyline
 90
        3
 70
     0
 43
0.0
 10
-0.627978
 20
467.528137
 10
0.869634
 20
467.504456
 10
9.049726
 20
467.378693
  0
LWPOLYLINE
  5
123
330
11A
100
AcDbEntity
  8
0
  6
Continuous
 62
     0
370
     0
100
AcDbPolyline
 90
       27
 70
     0
 43
0.0
 10
9.059738
 20
435.892822
 10
9.056622
 20
437.200134
 10
9.054335
 20
438.532684
 10
9.052674
 20
439.881195
 10
9.051505
 20
441.238861
 10
9.050705
 20
442.600342
 10
9.050195
 20
443.964783
 10
9.049904
 20
445.331848
 10
9.049767
 20
446.700134
 10
9.049724
 20
448.067902
 10
9.049725
 20
449.433533
 10
9.049727
 20
450.795197
 10
9.049726
 20
452.14978
 10
9.049726
 20
453.493164
 10
9.049726
 20
454.819794
 10
9.049726
 20
456.123169
 10
9.049726
 20
457.395935
 10
9.049726
 20
458.63092
 10
9.049726
 20
459.821869
 10
9.049726
 20
460.9646
 10
9.049726
 20
462.056122
 10
9.049726
 20
463.093292
 10
9.049726
 20
464.073547
 10
9.049726
 20
464.994965
 10
9.049726
 20
465.853516
 10
9.049726
 20
466.643127
 10
9.049726
 20
467.378693
  0
LWPOLYLINE
  5
124
330
11A
100
AcDbEntity
  8
0
  6
Continuous
 62
     0
370
     0
100
AcDbPolyline
 90
       28
 70
     0
 43
0.0
 10
-0.627978
 20
467.528137
 10
-0.628143
 20
466.812561
 10
-0.628375
 20
466.019653
 10
-0.628734
 20
465.156036
 10
-0.629281
 20
464.228638
 10
-0.630081
 20
463.241455
 10
-0.631207
 20
462.196106
 10
-0.632765
 20
461.094818
 10
-0.634849
 20
459.939545
 10
-0.637477
 20
458.731354
 10
-0.640449
 20
457.474487
 10
-0.643419
 20
456.176636
 10
-0.646092
 20
454.848328
 10
-0.648257
 20
453.499207
 10
-0.649791
 20
452.136993
 10
-0.65061
 20
450.766693
 10
-0.650691
 20
449.391724
 10
-0.650245
 20
448.013947
 10
-0.649576
 20
446.63446
 10
-0.648929
 20
445.253937
 10
-0.648516
 20
443.872742
 10
-0.648608
 20
442.49118
 10
-0.649571
 20
441.109406
 10
-0.651713
 20
439.727661
 10
-0.654955
 20
438.346039
 10
-0.659112
 20
436.964752
 10
-0.664576
 20
435.584137
 10
-0.674533
 20
434.189728
  0
LWPOLYLINE
  5
125
330
11A
100
AcDbEntity
  8
0
  6
Continuous
 62
     0
370
     0
100
AcDbPolyline
 90
       12
 70
     0
 43
0.0
 10
-0.674533
 20
434.189728
 10
-0.399723
 20
434.511383
 10
-0.088086
 20
434.796936
 10
0.256386
 20
435.041718
 10
0.624107
 20
435.249695
 10
1.012667
 20
435.41629
 10
1.415975
 20
435.542786
 10
1.828646
 20
435.633911
 10
2.246631
 20
435.695557
 10
2.66729
 20
435.733368
 10
3.088967
 20
435.753723
 10
3.514083
 20
435.763275
  0
LWPOLYLINE
  5
126
330
11A
100
AcDbEntity
  8
0
  6
Continuous
 62
     0
370
     0
100
AcDbPolyline
 90
        4
 70
     0
 43
0.0
 10
3.514083
 20
435.763275
 10
5.272533
 20
435.773376
 10
7.030725
 20
435.80426
 10
9.059738
 20
435.892822
  0
LWPOLYLINE
  5
127
330
11A
100
AcDbEntity
  8
0
  6
Continuous
 62
     0
370
     0
100
AcDbPolyline
 90
       16
 70
     0
 43
0.0
 10
-3.74826
 20
463.198517
 10
-3.710177
 20
461.606232
 10
-3.701425
 20
459.949219
 10
-3.718479
 20
458.24054
 10
-3.754189
 20
456.483978
 10
-3.798912
 20
454.658722
 10
-3.839461
 20
452.767059
 10
-3.869925
 20
450.839691
 10
-3.890264
 20
448.897247
 10
-3.904044
 20
446.949036
 10
-3.915612
 20
444.998901
 10
-3.927912
 20
443.047974
 10
-3.943414
 20
441.096741
 10
-3.964696
 20
439.145416
 10
-3.995387
 20
437.194214
 10
-4.042268
 20
435.214569
  0
LWPOLYLINE
  5
128
330
11A
100
AcDbEntity
  8
0
  6
Continuous
 62
     0
370
     0
100
AcDbPolyline
 90
       37
 70
     0
 43
0.0
 10
-4.042268
 20
435.214569
 10
-4.023167
 20
435.214294
 10
-4.004038
 20
435.21405
 10
-3.984868
 20
435.213776
 10
-3.965644
 20
435.213531
 10
-3.946353
 20
435.213287
 10
-3.926978
 20
435.213043
 10
-3.907502
 20
435.21283
 10
-3.887907
 20
435.212616
 10
-3.868175
 20
435.212402
 10
-3.848289
 20
435.212189
 10
-3.828231
 20
435.211975
 10
-3.807984
 20
435.211792
 10
-3.787497
 20
435.211609
 10
-3.766584
 20
435.211426
 10
-3.74502
 20
435.211243
 10
-3.722584
 20
435.211029
 10
-3.699051
 20
435.210846
 10
-3.674199
 20
435.210602
 10
-3.647804
 20
435.210388
 10
-3.619584
 20
435.210114
 10
-3.588594
 20
435.209747
 10
-3.553462
 20
435.209259
 10
-3.511377
 20
435.208374
 10
-3.456558
 20
435.206512
 10
-3.37746
 20
435.202393
 10
-3.252367
 20
435.193512
 10
-3.053872
 20
435.175659
 10
-2.794631
 20
435.148285
 10
-2.510935
 20
435.101501
 10
-2.224067
 20
435.029205
 10
-1.942989
 20
434.931488
 10
-1.671443
 20
434.811584
 10
-1.409166
 20
434.675293
 10
-1.155579
 20
434.527283
 10
-0.911482
 20
434.367706
 10
-0.674533
 20
434.189728
  0
LWPOLYLINE
  5
129
330
11A
100
AcDbEntity
  8
0
  6
Continuous
 62
     0
370
     0
100
AcDbPolyline
 90
        6
 70
     0
 43
0.0
 10
-13.645203
 20
394.645813
 10
-13.632822
 20
394.647614
 10
-13.596235
 20
394.653473
 10
-13.537974
 20
394.665375
 10
-13.460422
 20
394.68573
 10
-13.328876
 20
394.734039
  0
LWPOLYLINE
  5
12A
330
11A
100
AcDbEntity
  8
0
  6
Continuous
 62
     0
370
     0
100
AcDbPolyline
 90
       63
 70
     0
 43
0.0
 10
-13.328876
 20
394.734039
 10
-13.219795
 20
395.122528
 10
-13.090537
 20
395.593262
 10
-12.943411
 20
396.139069
 10
-12.783383
 20
396.740356
 10
-12.616737
 20
397.370483
 10
-12.44689
 20
398.014343
 10
-12.275352
 20
398.665009
 10
-12.102876
 20
399.319244
 10
-11.929859
 20
399.975525
 10
-11.756467
 20
400.633209
 10
-11.582821
 20
401.291901
 10
-11.409042
 20
401.95108
 10
-11.2352
 20
402.610474
 10
-11.061304
 20
403.270111
 10
-10.887364
 20
403.929871
 10
-10.713391
 20
404.589783
 10
-10.539392
 20
405.249786
 10
-10.365372
 20
405.909851
 10
-10.191339
 20
406.569946
 10
-10.017296
 20
407.230133
 10
-9.84325
 20
407.89032
 10
-9.669206
 20
408.550537
 10
-9.495173
 20
409.210785
 10
-9.321179
 20
409.871033
 10
-9.147264
 20
410.531311
 10
-8.973462
 20
411.19165
 10
-8.799812
 20
411.85202
 10
-8.62635
 20
412.512451
 10
-8.453115
 20
413.172943
 10
-8.280141
 20
413.833527
 10
-8.107465
 20
414.494202
 10
-7.935122
 20
415.154938
 10
-7.763147
 20
415.815796
 10
-7.591575
 20
416.476776
 10
-7.42044
 20
417.137878
 10
-7.249778
 20
417.799103
 10
-7.079624
 20
418.460449
 10
-6.910035
 20
419.121979
 10
-6.74112
 20
419.783661
 10
-6.572993
 20
420.445557
 10
-6.405773
 20
421.107666
 10
-6.239573
 20
421.77005
 10
-6.074511
 20
422.432739
 10
-5.910701
 20
423.095734
 10
-5.748328
 20
423.759094
 10
-5.587769
 20
424.422882
 10
-5.429437
 20
425.087189
 10
-5.273883
 20
425.752167
 10
-5.122119
 20
426.41803
 10
-4.975271
 20
427.085114
 10
-4.834816
 20
427.753632
 10
-4.702643
 20
428.423798
 10
-4.580667
 20
429.095825
 10
-4.470797
 20
429.769897
 10
-4.374588
 20
430.446106
 10
-4.292753
 20
431.124176
 10
-4.225179
 20
431.803802
 10
-4.170497
 20
432.484619
 10
-4.126956
 20
433.16629
 10
-4.092442
 20
433.84848
 10
-4.064826
 20
434.530975
 10
-4.042268
 20
435.214569
  0
LWPOLYLINE
  5
12B
330
11A
100
AcDbEntity
  8
0
  6
Continuous
 62
     0
370
     0
100
AcDbPolyline
 90
       59
 70
     0
 43
0.0
 10
-11.452384
 20
391.259521
 10
-11.385429
 20
391.51236
 10
-11.306169
 20
391.811951
 10
-11.211605
 20
392.169769
 10
-11.098788
 20
392.596954
 10
-10.965515
 20
393.101929
 10
-10.811981
 20
393.683929
 10
-10.641353
 20
394.330963
 10
-10.45839
 20
395.024872
 10
-10.267466
 20
395.749054
 10
-10.071676
 20
396.49173
 10
-9.87291
 20
397.245667
 10
-9.672088
 20
398.007416
 10
-9.469735
 20
398.774994
 10
-9.266207
 20
399.546997
 10
-9.061854
 20
400.322144
 10
-8.856973
 20
401.099304
 10
-8.65167
 20
401.878052
 10
-8.446019
 20
402.658112
 10
-8.240089
 20
403.43924
 10
-8.033951
 20
404.22113
 10
-7.827644
 20
405.003693
 10
-7.621198
 20
405.786743
 10
-7.414637
 20
406.570282
 10
-7.207987
 20
407.354156
 10
-7.001275
 20
408.138275
 10
-6.794536
 20
408.922607
 10
-6.587817
 20
409.707153
 10
-6.381166
 20
410.491882
 10
-6.174632
 20
411.276764
 10
-5.968262
 20
412.061829
 10
-5.762104
 20
412.847046
 10
-5.556205
 20
413.632446
 10
-5.350612
 20
414.417969
 10
-5.145369
 20
415.203674
 10
-4.940522
 20
415.989532
 10
-4.736117
 20
416.775574
 10
-4.5322
 20
417.561798
 10
-4.328833
 20
418.348206
 10
-4.126138
 20
419.134796
 10
-3.924248
 20
419.921661
 10
-3.723301
 20
420.708771
 10
-3.523431
 20
421.496216
 10
-3.324773
 20
422.283966
 10
-3.127549
 20
423.072144
 10
-2.932188
 20
423.860748
 10
-2.739149
 20
424.649963
 10
-2.548893
 20
425.43988
 10
-2.361881
 20
426.230591
 10
-2.178611
 20
427.022156
 10
-1.999624
 20
427.814728
 10
-1.825467
 20
428.608337
 10
-1.656507
 20
429.403076
 10
-1.491837
 20
430.1987
 10
-1.329993
 20
430.994934
 10
-1.169477
 20
431.791443
 10
-1.008481
 20
432.58786
 10
-0.845018
 20
433.383759
 10
-0.674533
 20
434.189728
  0
LWPOLYLINE
  5
12C
330
11A
100
AcDbEntity
  8
0
  6
Continuous
 62
     0
370
     0
100
AcDbPolyline
 90
       24
 70
     0
 43
0.0
 10
-13.328876
 20
394.734039
 10
-13.340381
 20
394.6073
 10
-13.35317
 20
394.469269
 10
-13.366701
 20
394.323059
 10
-13.38067
 20
394.169769
 10
-13.39496
 20
394.008514
 10
-13.409433
 20
393.838531
 10
-13.423721
 20
393.659332
 10
-13.43735
 20
393.470734
 10
-13.449586
 20
393.273071
 10
-13.459029
 20
393.067963
 10
-13.46396
 20
392.857513
 10
-13.461403
 20
392.644501
 10
-13.446803
 20
392.431091
 10
-13.410424
 20
392.215271
 10
-13.338183
 20
392.001434
 10
-13.212242
 20
391.803711
 10
-13.023496
 20
391.636688
 10
-12.79167
 20
391.509125
 10
-12.539077
 20
391.41275
 10
-12.276329
 20
391.340546
 10
-12.007109
 20
391.289642
 10
-11.734171
 20
391.260803
 10
-11.452384
 20
391.259521
  0
LWPOLYLINE
  5
12D
330
11A
100
AcDbEntity
  8
0
  6
Continuous
 62
     0
370
    30
100
AcDbPolyline
 90
        7
 70
     0
 43
0.0
 10
-9.261101
 20
395.156036
 10
-9.336886
 20
394.869171
 10
-9.425661
 20
394.538605
 10
-9.526047
 20
394.173615
 10
-9.640347
 20
393.771973
 10
-9.76907
 20
393.341827
 10
-9.920187
 20
392.878815
  0
LWPOLYLINE
  5
12E
330
11A
100
AcDbEntity
  8
0
  6
Continuous
 62
     0
370
     0
100
AcDbPolyline
 90
       10
 70
     0
 43
0.0
 10
-9.920187
 20
392.878815
 10
-10.010468
 20
392.633179
 10
-10.109975
 20
392.394287
 10
-10.222461
 20
392.165253
 10
-10.354129
 20
391.951538
 10
-10.508297
 20
391.755371
 10
-10.685976
 20
391.574799
 10
-10.896948
 20
391.417542
 10
-11.152759
 20
391.308807
 10
-11.452384
 20
391.259521
  0
LWPOLYLINE
  5
12F
330
11A
100
AcDbEntity
  8
0
  6
Continuous
 62
     0
370
     0
100
AcDbPolyline
 90
       59
 70
     0
 43
0.0
 10
-9.920187
 20
392.878815
 10
-9.867456
 20
393.077759
 10
-9.805502
 20
393.311798
 10
-9.731987
 20
393.589783
 10
-9.644494
 20
393.920929
 10
-9.540888
 20
394.313354
 10
-9.42019
 20
394.770752
 10
-9.283994
 20
395.287109
 10
-9.135757
 20
395.849274
 10
-8.979292
 20
396.442719
 10
-8.817738
 20
397.055511
 10
-8.653075
 20
397.680084
 10
-8.486354
 20
398.312103
 10
-8.318061
 20
398.94931
 10
-8.148472
 20
399.590454
 10
-7.977811
 20
400.234528
 10
-7.806304
 20
400.880524
 10
-7.634133
 20
401.527679
 10
-7.461365
 20
402.17572
 10
-7.288045
 20
402.824463
 10
-7.114222
 20
403.473755
 10
-6.939941
 20
404.123413
 10
-6.765239
 20
404.773315
 10
-6.590134
 20
405.423401
 10
-6.414647
 20
406.073639
 10
-6.238796
 20
406.723999
 10
-6.0626
 20
407.37439
 10
-5.886073
 20
408.02478
 10
-5.709174
 20
408.67514
 10
-5.531829
 20
409.325439
 10
-5.353962
 20
409.975616
 10
-5.175501
 20
410.625671
 10
-4.996371
 20
411.275574
 10
-4.816497
 20
411.925293
 10
-4.6358
 20
412.574799
 10
-4.454186
 20
413.22403
 10
-4.271558
 20
413.872955
 10
-4.087816
 20
414.521545
 10
-3.902864
 20
415.1698
 10
-3.716604
 20
415.817596
 10
-3.528937
 20
416.464996
 10
-3.339693
 20
417.111847
 10
-3.148538
 20
417.758026
 10
-2.955118
 20
418.403351
 10
-2.759078
 20
419.047668
 10
-2.560066
 20
419.690765
 10
-2.357725
 20
420.33252
 10
-2.151558
 20
420.972656
 10
-1.940381
 20
421.610474
 10
-1.722807
 20
422.245209
 10
-1.497237
 20
422.875854
 10
-1.261719
 20
423.500946
 10
-1.0139
 20
424.11853
 10
-0.750315
 20
424.725128
 10
-0.466228
 20
425.316101
 10
-0.154697
 20
425.884491
 10
0.193739
 20
426.414703
 10
0.589158
 20
426.887634
 10
1.039504
 20
427.291229
  0
LWPOLYLINE
  5
130
330
11A
100
AcDbEntity
  8
0
  6
Continuous
 62
     0
370
     0
100
AcDbPolyline
 90
       13
 70
     0
 43
0.0
 10
1.039504
 20
427.291229
 10
1.027259
 20
427.662292
 10
0.99855
 20
428.097656
 10
0.940382
 20
428.578491
 10
0.841662
 20
429.087311
 10
0.693818
 20
429.608826
 10
0.501967
 20
430.152466
 10
0.287894
 20
430.741302
 10
0.070689
 20
431.375427
 10
-0.137611
 20
432.045685
 10
-0.331794
 20
432.740173
 10
-0.507969
 20
433.453369
 10
-0.674533
 20
434.189728
  0
LWPOLYLINE
  5
131
330
11A
100
AcDbEntity
  8
0
  6
Continuous
 62
     0
370
     0
100
AcDbPolyline
 90
       69
 70
     0
 43
0.0
 10
-9.261101
 20
395.156036
 10
-9.186708
 20
395.437408
 10
-9.100064
 20
395.765411
 10
-8.999988
 20
396.144531
 10
-8.886179
 20
396.575958
 10
-8.761812
 20
397.047546
 10
-8.631619
 20
397.541321
 10
-8.498352
 20
398.046875
 10
-8.363463
 20
398.558502
 10
-8.227541
 20
399.073517
 10
-8.090849
 20
399.590424
 10
-7.953449
 20
400.108551
 10
-7.815394
 20
400.627411
 10
-7.676727
 20
401.146698
 10
-7.537491
 20
401.66629
 10
-7.397716
 20
402.185974
 10
-7.25742
 20
402.70575
 10
-7.116624
 20
403.225525
 10
-6.975345
 20
403.745239
 10
-6.833597
 20
404.264923
 10
-6.691395
 20
404.784546
 10
-6.548754
 20
405.304077
 10
-6.405687
 20
405.823547
 10
-6.262209
 20
406.342896
 10
-6.118335
 20
406.862122
 10
-5.974076
 20
407.381287
 10
-5.829432
 20
407.90033
 10
-5.684379
 20
408.419281
 10
-5.538898
 20
408.93811
 10
-5.392966
 20
409.456818
 10
-5.246559
 20
409.975372
 10
-5.099638
 20
410.493805
 10
-4.952151
 20
411.012085
 10
-4.804049
 20
411.530151
 10
-4.655281
 20
412.048035
 10
-4.505796
 20
412.565735
 10
-4.355545
 20
413.08316
 10
-4.204477
 20
413.600342
 10
-4.052541
 20
414.117249
 10
-3.899688
 20
414.63385
 10
-3.745866
 20
415.150146
 10
-3.590986
 20
415.666107
 10
-3.434924
 20
416.181671
 10
-3.277555
 20
416.696808
 10
-3.118753
 20
417.211426
 10
-2.958389
 20
417.725525
 10
-2.796257
 20
418.238983
 10
-2.63208
 20
418.751678
 10
-2.465579
 20
419.26355
 10
-2.296474
 20
419.774414
 10
-2.124381
 20
420.284119
 10
-1.948485
 20
420.792267
 10
-1.767857
 20
421.29837
 10
-1.58157
 20
421.801971
 10
-1.388458
 20
422.302338
 10
-1.186753
 20
422.79834
 10
-0.974592
 20
423.288696
 10
-0.749436
 20
423.771454
 10
-0.507041
 20
424.242889
 10
-0.242398
 20
424.698303
 10
0.052418
 20
425.128296
 10
0.386489
 20
425.519196
 10
0.767638
 20
425.852722
 10
1.192789
 20
426.125763
 10
1.654032
 20
426.349243
 10
2.146846
 20
426.530029
 10
2.662528
 20
426.677246
 10
3.188269
 20
426.803619
 10
3.714154
 20
426.923401
  0
LWPOLYLINE
  5
132
330
11A
100
AcDbEntity
  8
0
  6
Continuous
 62
     0
370
     0
100
AcDbPolyline
 90
        7
 70
     0
 43
0.0
 10
3.714154
 20
426.923401
 10
3.67425
 20
427.105499
 10
3.619997
 20
427.297241
 10
3.545015
 20
427.500824
 10
3.437845
 20
427.718719
 10
3.280432
 20
427.95285
 10
3.0548
 20
428.204956
  0
ARC
  5
133
330
11A
100
AcDbEntity
  8
0
  6
Continuous
 62
     0
370
     0
100
AcDbCircle
 10
3.988005
 20
423.467446
 30
0.0
 40
4.828550534941193
100
AcDbArc
 50
101.14358
 51
127.635724
  0
LWPOLYLINE
  5
134
330
11A
100
AcDbEntity
  8
0
  6
Continuous
 62
     0
370
     0
100
AcDbPolyline
 90
        6
 70
     0
 43
0.0
 10
8.301091
 20
428.420593
 10
7.43092
 20
428.063446
 10
6.551353
 20
427.739288
 10
5.658993
 20
427.445404
 10
4.738949
 20
427.178497
 10
3.714154
 20
426.923401
  0
LWPOLYLINE
  5
135
330
11A
100
AcDbEntity
  8
0
  6
Continuous
 62
     0
370
     0
100
AcDbPolyline
 90
       14
 70
     0
 43
0.0
 10
4.995584
 20
425.481873
 10
5.032792
 20
425.48761
 10
5.142869
 20
425.50412
 10
5.323119
 20
425.52951
 10
5.568181
 20
425.561005
 10
5.871095
 20
425.595551
 10
6.222789
 20
425.629913
 10
6.612874
 20
425.661285
 10
7.029548
 20
425.687286
 10
7.460205
 20
425.706329
 10
7.891711
 20
425.717651
 10
8.311914
 20
425.721344
 10
8.708974
 20
425.718201
 10
9.080399
 20
425.709442
  0
LWPOLYLINE
  5
136
330
11A
100
AcDbEntity
  8
0
  6
Continuous
 62
     0
370
     0
100
AcDbPolyline
 90
        6
 70
     0
 43
0.0
 10
3.0548
 20
428.204956
 10
3.242034
 20
428.532684
 10
3.380197
 20
428.872833
 10
3.476815
 20
429.224426
 10
3.54039
 20
429.588562
 10
3.584765
 20
430.041931
  0
LWPOLYLINE
  5
137
330
11A
100
AcDbEntity
  8
0
  6
Continuous
 62
     0
370
     0
100
AcDbPolyline
 90
        9
 70
     0
 43
0.0
 10
3.584765
 20
430.041931
 10
3.60483
 20
430.595154
 10
3.603859
 20
431.199738
 10
3.591952
 20
431.859467
 10
3.575518
 20
432.565094
 10
3.558237
 20
433.304565
 10
3.542022
 20
434.067535
 10
3.52774
 20
434.846771
 10
3.514083
 20
435.763275
  0
LWPOLYLINE
  5
138
330
11A
100
AcDbEntity
  8
0
  6
Continuous
 62
     0
370
     0
100
AcDbPolyline
 90
       12
 70
     0
 43
0.0
 10
8.301091
 20
428.420593
 10
8.504773
 20
428.855743
 10
8.666842
 20
429.340332
 10
8.795664
 20
429.878326
 10
8.894834
 20
430.466431
 10
8.965784
 20
431.106781
 10
9.013006
 20
431.798828
 10
9.041811
 20
432.539368
 10
9.056872
 20
433.323547
 10
9.062304
 20
434.145477
 10
9.06214
 20
434.998413
 10
9.059738
 20
435.892822
  0
LWPOLYLINE
  5
139
330
11A
100
AcDbEntity
  8
0
  6
Continuous
 62
     0
370
     0
100
AcDbPolyline
 90
        9
 70
     0
 43
0.0
 10
3.584765
 20
430.041931
 10
4.263514
 20
429.875458
 10
4.904612
 20
429.674805
 10
5.513595
 20
429.4617
 10
6.096784
 20
429.247009
 10
6.659788
 20
429.035156
 10
7.206263
 20
428.829376
 10
7.738277
 20
428.631744
 10
8.301091
 20
428.420593
  0
LINE
  5
13A
330
11A
100
AcDbEntity
  8
0
  6
Continuous
 62
     0
370
    30
100
AcDbLine
 10
20.30866
 20
447.93405
 30
0.0
 11
20.308661
 21
428.617691
 31
0.0
  0
LINE
  5
13B
330
11A
100
AcDbEntity
  8
0
  6
Continuous
 62
     0
370
    30
100
AcDbLine
 10
20.308658
 20
447.93405
 30
0.0
 11
11.763153
 21
470.195869
 31
0.0
  0
LINE
  5
13C
330
11A
100
AcDbEntity
  8
0
  6
Continuous
 62
     0
370
    30
100
AcDbLine
 10
23.108661
 20
470.086659
 30
0.0
 11
23.108661
 21
425.686659
 31
0.0
  0
LINE
  5
13D
330
11A
100
AcDbEntity
  8
0
  6
Continuous
 62
     0
370
    30
100
AcDbLine
 10
23.108661
 20
425.686659
 30
0.0
 11
33.301758
 21
425.686659
 31
0.0
  0
LWPOLYLINE
  5
13E
330
11A
100
AcDbEntity
  8
0
  6
Continuous
 62
     0
370
    30
100
AcDbPolyline
 90
       54
 70
     0
 43
0.0
 10
33.301758
 20
358.886658
 10
33.301758
 20
358.925842
 10
33.301758
 20
359.043243
 10
33.301758
 20
359.238617
 10
33.301758
 20
359.511749
 10
33.301758
 20
359.862427
 10
33.301758
 20
360.290405
 10
33.301758
 20
360.795471
 10
33.301758
 20
361.377228
 10
33.301758
 20
362.034973
 10
33.301758
 20
362.768036
 10
33.301758
 20
363.575714
 10
33.301758
 20
364.457367
 10
33.301758
 20
365.412292
 10
33.301758
 20
366.439758
 10
33.301758
 20
367.538818
 10
33.301758
 20
368.708466
 10
33.301758
 20
369.947632
 10
33.301754
 20
371.25528
 10
33.301754
 20
372.63031
 10
33.301754
 20
374.071747
 10
33.301754
 20
375.578339
 10
33.301754
 20
377.148529
 10
33.301754
 20
378.780701
 10
33.301754
 20
380.473206
 10
33.301754
 20
382.224396
 10
33.301754
 20
384.032654
 10
33.301754
 20
385.896301
 10
33.301754
 20
387.813843
 10
33.301754
 20
389.783722
 10
33.301754
 20
391.804504
 10
33.301754
 20
393.874542
 10
33.301754
 20
395.992004
 10
33.301754
 20
398.154999
 10
33.301754
 20
400.361633
 10
33.301754
 20
402.609833
 10
33.301754
 20
404.897614
 10
33.301754
 20
407.22287
 10
33.301754
 20
409.58374
 10
33.301754
 20
411.978455
 10
33.301754
 20
414.405273
 10
33.301754
 20
416.862305
 10
33.301754
 20
419.34726
 10
33.301754
 20
421.85791
 10
33.301754
 20
424.391937
 10
33.301754
 20
426.947052
 10
33.301754
 20
429.520966
 10
33.301754
 20
432.111359
 10
33.301754
 20
434.715759
 10
33.301754
 20
437.331482
 10
33.301754
 20
439.955872
 10
33.301754
 20
442.586212
 10
33.301754
 20
445.219879
 10
33.301754
 20
447.886658
  0
LINE
  5
13F
330
11A
100
AcDbEntity
  8
0
  6
Continuous
 62
     0
370
    30
100
AcDbLine
 10
33.301754
 20
447.886659
 30
0.0
 11
33.301758
 21
536.886659
 31
0.0
  0
LINE
  5
140
330
11A
100
AcDbEntity
  8
0
  6
Continuous
 62
     0
370
     0
100
AcDbLine
 10
34.301758
 20
537.886656
 30
0.0
 11
34.301754
 21
447.886659
 31
0.0
  0
LINE
  5
141
330
11A
100
AcDbEntity
  8
0
  6
Continuous
 62
     0
370
     0
100
AcDbLine
 10
34.301754
 20
447.886659
 30
0.0
 11
34.301758
 21
357.886661
 31
0.0
  0
LINE
  5
142
330
11A
100
AcDbEntity
  8
0
  6
Continuous
 62
     0
370
    30
100
AcDbLine
 10
45.301758
 20
447.886659
 30
0.0
 11
45.301758
 21
537.886659
 31
0.0
  0
LINE
  5
143
330
11A
100
AcDbEntity
  8
0
  6
Continuous
 62
     0
370
    30
100
AcDbLine
 10
45.301758
 20
357.886659
 30
0.0
 11
45.301758
 21
447.886659
 31
0.0
  0
LINE
  5
144
330
11A
100
AcDbEntity
  8
0
  6
Continuous
 62
     0
370
    30
100
AcDbLine
 10
34.301758
 20
357.886659
 30
0.0
 11
45.301758
 21
357.886659
 31
0.0
  0
LINE
  5
145
330
11A
100
AcDbEntity
  8
0
  6
Continuous
 62
     0
370
    30
100
AcDbLine
 10
34.301758
 20
537.886659
 30
0.0
 11
45.301758
 21
537.886659
 31
0.0
  0
ARC
  5
146
330
11A
100
AcDbEntity
  8
0
  6
Continuous
 62
     0
370
    30
100
AcDbCircle
 10
34.301782
 20
358.886683
 30
0.0
 40
1.000024307962834
100
AcDbArc
 50
180.001393
 51
269.998607
  0
ARC
  5
147
330
11A
100
AcDbEntity
  8
0
  6
Continuous
 62
     0
370
    30
100
AcDbCircle
 10
34.301782
 20
536.886634
 30
0.0
 40
1.000024307970408
100
AcDbArc
 50
90.001393
 51
179.998607
  0
LINE
  5
148
330
11A
100
AcDbEntity
  8
0
  6
Continuous
 62
     0
370
    30
100
AcDbLine
 10
33.301758
 20
470.086659
 30
0.0
 11
23.108661
 21
470.086659
 31
0.0
  0
ARC
  5
149
330
11A
100
AcDbEntity
  8
0
  6
Continuous
 62
     0
370
    30
100
AcDbCircle
 10
24.49346
 20
448.079179
 30
0.0
 40
20.48937043079605
100
AcDbArc
 50
258.214845
 51
266.124641
  0
ARC
  5
14A
330
11A
100
AcDbEntity
  8
0
  6
Continuous
 62
     0
370
    30
100
AcDbCircle
 10
24.494925
 20
447.683542
 30
0.0
 40
20.50004212654174
100
AcDbArc
 50
93.877442
 51
121.734306
  0
LWPOLYLINE
  5
14B
330
11A
100
AcDbEntity
  8
0
  6
Continuous
 62
     0
370
    30
100
AcDbPolyline
 90
        4
 70
     0
 43
0.0
 10
4.995584
 20
425.481873
 10
6.621451
 20
425.586609
 10
8.249906
 20
425.638763
 10
10.019291
 20
425.661926
  0
LINE
  5
14C
330
11A
100
AcDbEntity
  8
0
  6
Continuous
 62
     0
370
    30
100
AcDbLine
 10
9.049727
 20
470.21367
 30
0.0
 11
11.764136
 21
470.195863
 31
0.0
  0
LWPOLYLINE
  5
14D
330
11A
100
AcDbEntity
  8
0
  6
Continuous
 62
     0
370
    30
100
AcDbPolyline
 90
       62
 70
     0
 43
0.0
 10
-7.421366
 20
402.098175
 10
-7.298205
 20
402.549164
 10
-7.174455
 20
402.999969
 10
-7.050124
 20
403.450623
 10
-6.925224
 20
403.901154
 10
-6.799766
 20
404.351501
 10
-6.673761
 20
404.801697
 10
-6.547221
 20
405.25174
 10
-6.420162
 20
405.70163
 10
-6.292599
 20
406.151398
 10
-6.164547
 20
406.601013
 10
-6.036003
 20
407.050537
 10
-5.906958
 20
407.499878
 10
-5.777406
 20
407.949097
 10
-5.647341
 20
408.398132
 10
-5.516757
 20
408.847046
 10
-5.385648
 20
409.295807
 10
-5.254009
 20
409.744415
 10
-5.121833
 20
410.192841
 10
-4.989112
 20
410.641113
 10
-4.855839
 20
411.089233
 10
-4.721983
 20
411.53717
 10
-4.587496
 20
411.984924
 10
-4.452327
 20
412.432495
 10
-4.316425
 20
412.879822
 10
-4.179739
 20
413.326904
 10
-4.042212
 20
413.773743
 10
-3.903775
 20
414.220306
 10
-3.764357
 20
414.666534
 10
-3.623885
 20
415.112457
 10
-3.48229
 20
415.558014
 10
-3.339499
 20
416.003174
 10
-3.195443
 20
416.447937
 10
-3.050047
 20
416.892273
 10
-2.903194
 20
417.336121
 10
-2.754702
 20
417.779419
 10
-2.604386
 20
418.222137
 10
-2.452054
 20
418.664124
 10
-2.297317
 20
419.105316
 10
-2.139586
 20
419.54541
 10
-1.978262
 20
419.984222
 10
-1.812732
 20
420.421448
 10
-1.642193
 20
420.85675
 10
-1.465535
 20
421.289581
 10
-1.281371
 20
421.719299
 10
-1.088173
 20
422.14505
 10
-0.883296
 20
422.565247
 10
-0.663455
 20
422.977844
 10
-0.424263
 20
423.379517
 10
-0.158522
 20
423.763947
 10
0.142784
 20
424.121338
 10
0.49046
 20
424.432953
 10
0.885343
 20
424.682312
 10
1.311234
 20
424.874634
 10
1.754061
 20
425.023651
 10
2.207092
 20
425.138519
 10
2.666574
 20
425.225647
 10
3.129285
 20
425.292267
 10
3.593531
 20
425.347656
 10
4.058511
 20
425.395447
 10
4.523692
 20
425.444031
 10
4.995581
 20
425.481873
  0
LWPOLYLINE
  5
14E
330
11A
100
AcDbEntity
  8
0
  6
Continuous
 62
     0
370
    30
100
AcDbPolyline
 90
       46
 70
     0
 43
0.0
 10
-7.417719
 20
402.111755
 10
-7.424418
 20
402.086853
 10
-7.446587
 20
402.004456
 10
-7.480054
 20
401.879974
 10
-7.521627
 20
401.725128
 10
-7.567867
 20
401.552704
 10
-7.615767
 20
401.373901
 10
-7.66638
 20
401.184692
 10
-7.717784
 20
400.992279
 10
-7.769749
 20
400.797546
 10
-7.82245
 20
400.599792
 10
-7.875052
 20
400.402161
 10
-7.927822
 20
400.203674
 10
-7.980365
 20
400.005829
 10
-8.032665
 20
399.808655
 10
-8.084929
 20
399.611389
 10
-8.136882
 20
399.4151
 10
-8.188519
 20
399.219849
 10
-8.240075
 20
399.024719
 10
-8.291391
 20
398.830383
 10
-8.342422
 20
398.636993
 10
-8.393285
 20
398.444153
 10
-8.444106
 20
398.251404
 10
-8.494946
 20
398.058533
 10
-8.545735
 20
397.865845
 10
-8.596392
 20
397.673676
 10
-8.646808
 20
397.482452
 10
-8.696793
 20
397.292847
 10
-8.74619
 20
397.105499
 10
-8.794856
 20
396.920929
 10
-8.842618
 20
396.739838
 10
-8.889143
 20
396.563416
 10
-8.93446
 20
396.391602
 10
-8.978404
 20
396.225037
 10
-9.020331
 20
396.066132
 10
-9.059996
 20
395.915833
 10
-9.097453
 20
395.773956
 10
-9.132885
 20
395.639771
 10
-9.165979
 20
395.514465
 10
-9.197446
 20
395.395386
 10
-9.226025
 20
395.287292
 10
-9.251448
 20
395.191193
 10
-9.275073
 20
395.10199
 10
-9.295716
 20
395.024109
 10
-9.317827
 20
394.940826
 10
-9.343994
 20
394.842529
  0
LWPOLYLINE
  5
14F
330
11A
100
AcDbEntity
  8
0
  6
Continuous
 62
     0
370
    30
100
AcDbPolyline
 90
       40
 70
     0
 43
0.0
 10
-9.487433
 20
394.312775
 10
-9.565239
 20
394.021332
 10
-9.643548
 20
393.730164
 10
-9.722588
 20
393.43927
 10
-9.802604
 20
393.148682
 10
-9.883801
 20
392.858459
 10
-9.966325
 20
392.568481
 10
-10.050364
 20
392.278809
 10
-10.136726
 20
391.989716
 10
-10.22681
 20
391.701782
 10
-10.322333
 20
391.415619
 10
-10.425618
 20
391.132172
 10
-10.540535
 20
390.853241
 10
-10.67522
 20
390.583344
 10
-10.841278
 20
390.331879
 10
-11.041895
 20
390.106598
 10
-11.274375
 20
389.915253
 10
-11.547715
 20
389.789825
 10
-11.844131
 20
389.736877
 10
-12.145439
 20
389.738312
 10
-12.445118
 20
389.776093
 10
-12.739115
 20
389.843292
 10
-13.024039
 20
389.941376
 10
-13.294584
 20
390.074371
 10
-13.536981
 20
390.253174
 10
-13.729154
 20
390.484741
 10
-13.858618
 20
390.756622
 10
-13.933837
 20
391.048523
 10
-13.971479
 20
391.347748
 10
-13.984948
 20
391.649048
 10
-13.981636
 20
391.950745
 10
-13.967038
 20
392.252197
 10
-13.944547
 20
392.55304
 10
-13.915485
 20
392.853302
 10
-13.881082
 20
393.153046
 10
-13.842146
 20
393.452209
 10
-13.79897
 20
393.750824
 10
-13.751815
 20
394.048828
 10
-13.700938
 20
394.346222
 10
-13.646055
 20
394.645844
  0
LWPOLYLINE
  5
150
330
11A
100
AcDbEntity
  8
0
  6
Continuous
 62
     0
370
    30
100
AcDbPolyline
 90
       44
 70
     0
 43
0.0
 10
-13.646055
 20
394.645844
 10
-13.288713
 20
396.257324
 10
-12.876618
 20
397.855927
 10
-12.455511
 20
399.452148
 10
-12.034794
 20
401.048523
 10
-11.613937
 20
402.644806
 10
-11.193096
 20
404.241119
 10
-10.772263
 20
405.837433
 10
-10.351305
 20
407.433716
 10
-9.93045
 20
409.030029
 10
-9.510052
 20
410.626465
 10
-9.09054
 20
412.223114
 10
-8.67247
 20
413.82016
 10
-8.256437
 20
415.417755
 10
-7.843303
 20
417.016083
 10
-7.434066
 20
418.615387
 10
-7.029726
 20
420.215973
 10
-6.631417
 20
421.818054
 10
-6.241337
 20
423.42215
 10
-5.863859
 20
425.029266
 10
-5.507885
 20
426.641266
 10
-5.189992
 20
428.2612
 10
-4.933393
 20
429.891846
 10
-4.758428
 20
431.533203
 10
-4.657572
 20
433.180908
 10
-4.6039
 20
434.830872
 10
-4.571373
 20
436.481384
 10
-4.549924
 20
438.132111
 10
-4.534235
 20
439.782898
 10
-4.522811
 20
441.433716
 10
-4.514403
 20
443.084534
 10
-4.508014
 20
444.735382
 10
-4.502529
 20
446.38623
 10
-4.496638
 20
448.037079
 10
-4.488969
 20
449.687897
 10
-4.47768
 20
451.338715
 10
-4.46099
 20
452.989502
 10
-4.438035
 20
454.640198
 10
-4.40985
 20
456.290802
 10
-4.381145
 20
457.941406
 10
-4.353118
 20
459.59201
 10
-4.321674
 20
461.242584
 10
-4.281458
 20
462.892975
 10
-4.223423
 20
464.550201
  0
LWPOLYLINE
  5
151
330
11A
100
AcDbEntity
  8
0
  6
Continuous
 62
     0
370
    30
100
AcDbPolyline
 90
       65
 70
     0
 43
0.0
 10
9.049726
 20
470.213684
 10
8.769903
 20
470.215393
 10
8.49008
 20
470.217133
 10
8.210256
 20
470.218842
 10
7.930432
 20
470.22052
 10
7.650608
 20
470.222168
 10
7.370783
 20
470.223816
 10
7.090959
 20
470.225433
 10
6.811134
 20
470.22702
 10
6.53131
 20
470.228577
 10
6.251485
 20
470.230103
 10
5.97166
 20
470.231598
 10
5.691835
 20
470.233063
 10
5.41201
 20
470.234497
 10
5.132184
 20
470.235901
 10
4.852359
 20
470.237274
 10
4.572533
 20
470.238617
 10
4.292707
 20
470.23996
 10
4.012881
 20
470.241302
 10
3.733055
 20
470.242615
 10
3.453229
 20
470.243958
 10
3.173403
 20
470.2453
 10
2.893577
 20
470.246674
 10
2.613752
 20
470.248047
 10
2.333927
 20
470.249481
 10
2.054102
 20
470.250916
 10
1.774278
 20
470.252411
 10
1.494452
 20
470.253876
 10
1.214625
 20
470.25531
 10
0.934797
 20
470.256775
 10
0.654969
 20
470.258209
 10
0.375142
 20
470.259705
 10
0.095319
 20
470.261261
 10
-0.184501
 20
470.262909
 10
-0.464315
 20
470.264648
 10
-0.744133
 20
470.266235
 10
-1.023969
 20
470.267365
 10
-1.303827
 20
470.267517
 10
-1.583654
 20
470.265198
 10
-1.863371
 20
470.258423
 10
-2.142852
 20
470.24472
 10
-2.42142
 20
470.218262
 10
-2.696949
 20
470.169922
 10
-2.96447
 20
470.088013
 10
-3.209146
 20
469.954102
 10
-3.409435
 20
469.759888
 10
-3.557603
 20
469.523041
 10
-3.666176
 20
469.265289
 10
-3.749218
 20
468.998077
 10
-3.815312
 20
468.726196
 10
-3.870467
 20
468.451874
 10
-3.918056
 20
468.176147
 10
-3.959589
 20
467.899414
 10
-3.996061
 20
467.621948
 10
-4.028432
 20
467.343994
 10
-4.05738
 20
467.065674
 10
-4.083422
 20
466.787048
 10
-4.107058
 20
466.50824
 10
-4.128603
 20
466.229248
 10
-4.148227
 20
465.950104
 10
-4.166094
 20
465.670837
 10
-4.182369
 20
465.391479
 10
-4.197219
 20
465.11203
 10
-4.210809
 20
464.83252
 10
-4.223423
 20
464.550201
  0
LWPOLYLINE
  5
152
330
11A
100
AcDbEntity
  8
0
  6
Continuous
 62
     0
370
    30
100
AcDbPolyline
 90
        4
 70
     0
 43
0.0
 10
10.019285
 20
425.661926
 10
13.035397
 20
425.672943
 10
16.051546
 20
425.663086
 10
20.308661
 20
425.636658
  0
ENDBLK
  5
154
330
11A
100
AcDbEntity
  8
0
100
AcDbBlockEnd
  0
ENDSEC
  0
SECTION
  2
ENTITIES
  0
INSERT
  5
A6
330
1F
100
AcDbEntity
  8
0
  6
Continuous
 62
     7
420
 16250871
370
     0
100
AcDbBlockReference
  2
a
 10
153.218689
 20
354.284576
 30
0.0
  0
INSERT
  5
DD
330
1F
100
AcDbEntity
  8
0
  6
Continuous
 62
     7
420
 16250871
370
     0
100
AcDbBlockReference
  2
b
 10
0.0
 20
280.202667
 30
0.0
  0
INSERT
  5
119
330
1F
100
AcDbEntity
  8
0
  6
Continuous
 62
     7
420
 16250871
370
     0
100
AcDbBlockReference
  2
c
 10
365.840942
 20
0.0
 30
0.0
  0
INSERT
  5
155
330
1F
100
AcDbEntity
  8
0
  6
Continuous
 62
     7
420
 16250871
370
     0
100
AcDbBlockReference
  2
d
 10
77.353676
 20
0.0
 30
0.0
  0
ENDSEC
  0
SECTION
  2
OBJECTS
  0
DICTIONARY
  5
C
330
0
100
AcDbDictionary
281
     1
  3
ACAD_DETAILVIEWSTYLE
350
18D
  3
ACAD_GROUP
350
D
  3
ACAD_LAYOUT
350
1A
  3
ACAD_MATERIAL
350
43
  3
ACAD_MLEADERSTYLE
350
6B
  3
ACAD_MLINESTYLE
350
17
  3
ACAD_PLOTSETTINGS
350
19
  3
ACAD_PLOTSTYLENAME
350
E
  3
ACAD_SCALELIST
350
47
  3
ACAD_SECTIONVIEWSTYLE
350
18E
  3
ACAD_TABLESTYLE
350
69
  3
ACAD_VISUALSTYLE
350
2A
  3
ACDB_RECOMPOSE_DATA
350
18A
  3
AcDbVariableDictionary
350
156
  0
SUN
  5
6D
330
29
100
AcDbSun
 90
        1
290
     0
 63
     7
421
 16777215
 40
1.0
291
     1
 91
  2455826
 92
 54000000
292
     0
 70
     2
 71
   256
280
     1
  0
DICTIONARY
  5
18D
102
{ACAD_REACTORS
330
C
102
}
330
C
100
AcDbDictionary
281
     1
  0
DICTIONARY
  5
D
102
{ACAD_REACTORS
330
C
102
}
330
C
100
AcDbDictionary
281
     1
  0
DICTIONARY
  5
1A
102
{ACAD_REACTORS
330
C
102
}
330
C
100
AcDbDictionary
281
     1
  3
Layout1
350
1E
  3
Layout2
350
26
  3
Model
350
22
  0
DICTIONARY
  5
43
102
{ACAD_REACTORS
330
C
102
}
330
C
100
AcDbDictionary
281
     1
  3
ByBlock
350
45
  3
ByLayer
350
44
  3
Global
350
46
  0
DICTIONARY
  5
6B
102
{ACAD_REACTORS
330
C
102
}
330
C
100
AcDbDictionary
281
     1
  3
Standard
350
6C
  0
DICTIONARY
  5
17
102
{ACAD_REACTORS
330
C
102
}
330
C
100
AcDbDictionary
281
     1
  3
Standard
350
18
  0
DICTIONARY
  5
19
102
{ACAD_REACTORS
330
C
102
}
330
C
100
AcDbDictionary
281
     1
  0
ACDBDICTIONARYWDFLT
  5
E
102
{ACAD_REACTORS
330
C
102
}
330
C
100
AcDbDictionary
281
     1
  3
Normal
350
F
100
AcDbDictionaryWithDefault
340
F
  0
DICTIONARY
  5
47
102
{ACAD_REACTORS
330
C
102
}
330
C
100
AcDbDictionary
281
     1
  3
A0
350
48
  3
A1
350
49
  3
A2
350
4A
  3
A3
350
4B
  3
A4
350
4C
  3
A5
350
4D
  3
A6
350
4E
  3
A7
350
4F
  3
A8
350
50
  3
A9
350
51
  3
B0
350
52
  3
B1
350
53
  3
B2
350
54
  3
B3
350
55
  3
B4
350
56
  3
B5
350
57
  3
B6
350
58
  3
B7
350
59
  3
B8
350
5A
  3
B9
350
5B
  3
C0
350
5C
  3
C1
350
5D
  3
C2
350
5E
  3
C3
350
5F
  3
C4
350
60
  3
C5
350
61
  3
C6
350
62
  3
C7
350
63
  3
C8
350
64
  3
C9
350
65
  3
D0
350
66
  3
D1
350
67
  3
D2
350
68
  0
DICTIONARY
  5
18E
102
{ACAD_REACTORS
330
C
102
}
330
C
100
AcDbDictionary
281
     1
  0
DICTIONARY
  5
69
102
{ACAD_REACTORS
330
C
102
}
330
C
100
AcDbDictionary
281
     1
  3
Standard
350
6A
  0
DICTIONARY
  5
2A
102
{ACAD_REACTORS
330
C
102
}
330
C
100
AcDbDictionary
281
     1
  3
2dWireframe
350
2F
  3
Basic
350
32
  3
Brighten
350
36
  3
ColorChange
350
3A
  3
Conceptual
350
34
  3
Dim
350
35
  3
EdgeColorOff
350
3D
  3
Facepattern
350
39
  3
Flat
350
2B
  3
FlatWithEdges
350
2C
  3
Gouraud
350
2D
  3
GouraudWithEdges
350
2E
  3
Hidden
350
31
  3
JitterOff
350
3B
  3
Linepattern
350
38
  3
OverhangOff
350
3C
  3
Realistic
350
33
  3
Shaded
350
42
  3
Shaded with edges
350
41
  3
Shades of Gray
350
3E
  3
Sketchy
350
3F
  3
Thicken
350
37
  3
Wireframe
350
30
  3
X-Ray
350
40
  0
XRECORD
  5
18A
102
{ACAD_REACTORS
330
C
102
}
330
C
100
AcDbXrecord
280
     1
 90
        1
330
6A
  0
DICTIONARY
  5
156
102
{ACAD_REACTORS
330
C
102
}
330
C
100
AcDbDictionary
281
     1
  3
CANNOSCALE
350
157
  3
CMLEADERSTYLE
350
18C
  3
CTABLESTYLE
350
18B
  0
LAYOUT
  5
1E
102
{ACAD_REACTORS
330
1A
102
}
330
1A
100
AcDbPlotSettings
  1

  2
none_device
  4

  6

 40
0.0
 41
0.0
 42
0.0
 43
0.0
 44
0.0
 45
0.0
 46
0.0
 47
0.0
 48
0.0
 49
0.0
140
0.0
141
0.0
142
1.0
143
1.0
 70
   688
 72
     1
 73
     0
 74
     5
  7

 75
    16
 76
     0
 77
     2
 78
   300
147
1.0
148
0.0
149
0.0
100
AcDbLayout
  1
Layout1
 70
     1
 71
     1
 10
0.0
 20
0.0
 11
420.0
 21
297.0
 12
0.0
 22
0.0
 32
0.0
 14
1.000000E+20
 24
1.000000E+20
 34
1.000000E+20
 15
-1.000000E+20
 25
-1.000000E+20
 35
-1.000000E+20
146
0.0
 13
0.0
 23
0.0
 33
0.0
 16
1.0
 26
0.0
 36
0.0
 17
0.0
 27
1.0
 37
0.0
 76
     0
330
1B
  0
LAYOUT
  5
26
102
{ACAD_REACTORS
330
1A
102
}
330
1A
100
AcDbPlotSettings
  1

  2
none_device
  4

  6

 40
0.0
 41
0.0
 42
0.0
 43
0.0
 44
0.0
 45
0.0
 46
0.0
 47
0.0
 48
0.0
 49
0.0
140
0.0
141
0.0
142
1.0
143
1.0
 70
   688
 72
     1
 73
     0
 74
     5
  7

 75
    16
 76
     0
 77
     2
 78
   300
147
1.0
148
0.0
149
0.0
100
AcDbLayout
  1
Layout2
 70
     1
 71
     2
 10
0.0
 20
0.0
 11
0.0
 21
0.0
 12
0.0
 22
0.0
 32
0.0
 14
0.0
 24
0.0
 34
0.0
 15
0.0
 25
0.0
 35
0.0
146
0.0
 13
0.0
 23
0.0
 33
0.0
 16
1.0
 26
0.0
 36
0.0
 17
0.0
 27
1.0
 37
0.0
 76
     0
330
23
  0
LAYOUT
  5
22
102
{ACAD_REACTORS
330
1A
102
}
330
1A
100
AcDbPlotSettings
  1

  2
none_device
  4
Letter_(8.50_x_11.00_Inches)
  6

 40
6.35
 41
6.35
 42
6.350005
 43
6.350005
 44
215.9
 45
279.4
 46
0.0
 47
0.0
 48
0.0
 49
0.0
140
0.0
141
0.0
142
1.0
143
1.0
 70
  1712
 72
     1
 73
     0
 74
     0
  7

 75
     0
 76
     0
 77
     2
 78
   300
147
1.0
148
0.0
149
0.0
100
AcDbLayout
  1
Model
 70
     1
 71
     0
 10
0.0
 20
0.0
 11
420.0
 21
297.0
 12
0.0
 22
0.0
 32
0.0
 14
1.000000E+20
 24
1.000000E+20
 34
1.000000E+20
 15
-1.000000E+20
 25
-1.000000E+20
 35
-1.000000E+20
146
0.0
 13
0.0
 23
0.0
 33
0.0
 16
1.0
 26
0.0
 36
0.0
 17
0.0
 27
1.0
 37
0.0
 76
     0
330
1F
331
29
  0
MATERIAL
  5
45
102
{ACAD_REACTORS
330
43
102
}
330
43
100
AcDbMaterial
  1
ByBlock
 72
     1
 94
      127
  0
MATERIAL
  5
44
102
{ACAD_REACTORS
330
43
102
}
330
43
100
AcDbMaterial
  1
ByLayer
 72
     1
 94
      127
  0
MATERIAL
  5
46
102
{ACAD_REACTORS
330
43
102
}
330
43
100
AcDbMaterial
  1
Global
 72
     1
 94
      127
  0
MLEADERSTYLE
  5
6C
102
{ACAD_REACTORS
330
6B
102
}
330
6B
100
AcDbMLeaderStyle
179
     2
170
     2
171
     1
172
     0
 90
        2
 40
0.0
 41
0.0
173
     1
 91
-1056964608
340
14
 92
       -2
290
     1
 42
2.0
291
     1
 43
8.0
  3
Standard
341
0
 44
4.0
300

342
11
174
     1
178
     6
175
     1
176
     0
 93
-1056964608
 45
4.0
292
     0
297
     0
 46
4.0
343
0
 94
-1056964608
 47
1.0
 49
1.0
140
1.0
293
     1
141
0.0
294
     1
177
     0
142
1.0
295
     0
296
     0
143
3.75
271
     0
272
     9
273
     9
  0
MLINESTYLE
  5
18
102
{ACAD_REACTORS
330
17
102
}
330
17
100
AcDbMlineStyle
  2
Standard
 70
     0
  3

 62
   256
 51
90.0
 52
90.0
 71
     2
 49
0.5
 62
   256
  6
BYLAYER
 49
-0.5
 62
   256
  6
BYLAYER
  0
ACDBPLACEHOLDER
  5
F
102
{ACAD_REACTORS
330
E
102
}
330
E
  0
SCALE
  5
48
102
{ACAD_REACTORS
330
47
102
}
330
47
100
AcDbScale
 70
     0
300
1:1
140
1.0
141
1.0
290
     1
  0
SCALE
  5
49
102
{ACAD_REACTORS
330
47
102
}
330
47
100
AcDbScale
 70
     0
300
1:2
140
1.0
141
2.0
290
     0
  0
SCALE
  5
4A
102
{ACAD_REACTORS
330
47
102
}
330
47
100
AcDbScale
 70
     0
300
1:4
140
1.0
141
4.0
290
     0
  0
SCALE
  5
4B
102
{ACAD_REACTORS
330
47
102
}
330
47
100
AcDbScale
 70
     0
300
1:5
140
1.0
141
5.0
290
     0
  0
SCALE
  5
4C
102
{ACAD_REACTORS
330
47
102
}
330
47
100
AcDbScale
 70
     0
300
1:8
140
1.0
141
8.0
290
     0
  0
SCALE
  5
4D
102
{ACAD_REACTORS
330
47
102
}
330
47
100
AcDbScale
 70
     0
300
1:10
140
1.0
141
10.0
290
     0
  0
SCALE
  5
4E
102
{ACAD_REACTORS
330
47
102
}
330
47
100
AcDbScale
 70
     0
300
1:16
140
1.0
141
16.0
290
     0
  0
SCALE
  5
4F
102
{ACAD_REACTORS
330
47
102
}
330
47
100
AcDbScale
 70
     0
300
1:20
140
1.0
141
20.0
290
     0
  0
SCALE
  5
50
102
{ACAD_REACTORS
330
47
102
}
330
47
100
AcDbScale
 70
     0
300
1:30
140
1.0
141
30.0
290
     0
  0
SCALE
  5
51
102
{ACAD_REACTORS
330
47
102
}
330
47
100
AcDbScale
 70
     0
300
1:40
140
1.0
141
40.0
290
     0
  0
SCALE
  5
52
102
{ACAD_REACTORS
330
47
102
}
330
47
100
AcDbScale
 70
     0
300
1:50
140
1.0
141
50.0
290
     0
  0
SCALE
  5
53
102
{ACAD_REACTORS
330
47
102
}
330
47
100
AcDbScale
 70
     0
300
1:100
140
1.0
141
100.0
290
     0
  0
SCALE
  5
54
102
{ACAD_REACTORS
330
47
102
}
330
47
100
AcDbScale
 70
     0
300
2:1
140
2.0
141
1.0
290
     0
  0
SCALE
  5
55
102
{ACAD_REACTORS
330
47
102
}
330
47
100
AcDbScale
 70
     0
300
4:1
140
4.0
141
1.0
290
     0
  0
SCALE
  5
56
102
{ACAD_REACTORS
330
47
102
}
330
47
100
AcDbScale
 70
     0
300
8:1
140
8.0
141
1.0
290
     0
  0
SCALE
  5
57
102
{ACAD_REACTORS
330
47
102
}
330
47
100
AcDbScale
 70
     0
300
10:1
140
10.0
141
1.0
290
     0
  0
SCALE
  5
58
102
{ACAD_REACTORS
330
47
102
}
330
47
100
AcDbScale
 70
     0
300
100:1
140
100.0
141
1.0
290
     0
  0
SCALE
  5
59
102
{ACAD_REACTORS
330
47
102
}
330
47
100
AcDbScale
 70
     0
300
1/128" = 1'-0"
140
0.007812
141
12.0
290
     0
  0
SCALE
  5
5A
102
{ACAD_REACTORS
330
47
102
}
330
47
100
AcDbScale
 70
     0
300
1/64" = 1'-0"
140
0.015625
141
12.0
290
     0
  0
SCALE
  5
5B
102
{ACAD_REACTORS
330
47
102
}
330
47
100
AcDbScale
 70
     0
300
1/32" = 1'-0"
140
0.03125
141
12.0
290
     0
  0
SCALE
  5
5C
102
{ACAD_REACTORS
330
47
102
}
330
47
100
AcDbScale
 70
     0
300
1/16" = 1'-0"
140
0.0625
141
12.0
290
     0
  0
SCALE
  5
5D
102
{ACAD_REACTORS
330
47
102
}
330
47
100
AcDbScale
 70
     0
300
3/32" = 1'-0"
140
0.09375
141
12.0
290
     0
  0
SCALE
  5
5E
102
{ACAD_REACTORS
330
47
102
}
330
47
100
AcDbScale
 70
     0
300
1/8" = 1'-0"
140
0.125
141
12.0
290
     0
  0
SCALE
  5
5F
102
{ACAD_REACTORS
330
47
102
}
330
47
100
AcDbScale
 70
     0
300
3/16" = 1'-0"
140
0.1875
141
12.0
290
     0
  0
SCALE
  5
60
102
{ACAD_REACTORS
330
47
102
}
330
47
100
AcDbScale
 70
     0
300
1/4" = 1'-0"
140
0.25
141
12.0
290
     0
  0
SCALE
  5
61
102
{ACAD_REACTORS
330
47
102
}
330
47
100
AcDbScale
 70
     0
300
3/8" = 1'-0"
140
0.375
141
12.0
290
     0
  0
SCALE
  5
62
102
{ACAD_REACTORS
330
47
102
}
330
47
100
AcDbScale
 70
     0
300
1/2" = 1'-0"
140
0.5
141
12.0
290
     0
  0
SCALE
  5
63
102
{ACAD_REACTORS
330
47
102
}
330
47
100
AcDbScale
 70
     0
300
3/4" = 1'-0"
140
0.75
141
12.0
290
     0
  0
SCALE
  5
64
102
{ACAD_REACTORS
330
47
102
}
330
47
100
AcDbScale
 70
     0
300
1" = 1'-0"
140
1.0
141
12.0
290
     0
  0
SCALE
  5
65
102
{ACAD_REACTORS
330
47
102
}
330
47
100
AcDbScale
 70
     0
300
1-1/2" = 1'-0"
140
1.5
141
12.0
290
     0
  0
SCALE
  5
66
102
{ACAD_REACTORS
330
47
102
}
330
47
100
AcDbScale
 70
     0
300
3" = 1'-0"
140
3.0
141
12.0
290
     0
  0
SCALE
  5
67
102
{ACAD_REACTORS
330
47
102
}
330
47
100
AcDbScale
 70
     0
300
6" = 1'-0"
140
6.0
141
12.0
290
     0
  0
SCALE
  5
68
102
{ACAD_REACTORS
330
47
102
}
330
47
100
AcDbScale
 70
     0
300
1'-0" = 1'-0"
140
12.0
141
12.0
290
     0
  0
TABLESTYLE
  5
6A
102
{ACAD_REACTORS
330
69
102
}
102
{ACAD_XDICTIONARY
360
188
102
}
330
69
100
AcDbTableStyle
  3
Standard
 70
     0
 71
     0
 40
0.06
 41
0.06
280
     0
281
     0
  7
Standard
140
4.5
170
     2
 62
     0
 63
   257
283
     0
 90
        4
 91
        0
  1

274
    -2
284
     1
 64
     0
275
    -2
285
     1
 65
     0
276
    -2
286
     1
 66
     0
277
    -2
287
     1
 67
     0
278
    -2
288
     1
 68
     0
279
    -2
289
     1
 69
     0
  7
Standard
140
6.0
170
     5
 62
     0
 63
   257
283
     0
 90
        4
 91
        0
  1

274
    -2
284
     1
 64
     0
275
    -2
285
     1
 65
     0
276
    -2
286
     1
 66
     0
277
    -2
287
     1
 67
     0
278
    -2
288
     1
 68
     0
279
    -2
289
     1
 69
     0
  7
Standard
140
4.5
170
     5
 62
     0
 63
   257
283
     0
 90
        4
 91
        0
  1

274
    -2
284
     1
 64
     0
275
    -2
285
     1
 65
     0
276
    -2
286
     1
 66
     0
277
    -2
287
     1
 67
     0
278
    -2
288
     1
 68
     0
279
    -2
289
     1
 69
     0
  0
VISUALSTYLE
  5
2F
102
{ACAD_REACTORS
330
2A
102
}
102
{ACAD_XDICTIONARY
360
160
102
}
330
2A
100
AcDbVisualStyle
  2
2dWireframe
 70
     4
177
     2
291
     0
 71
     0
176
     1
 72
     2
176
     1
 73
     0
176
     1
 90
        0
176
     1
 40
0.6
176
     1
 41
30.0
176
     1
 62
     5
 63
     7
421
 16777215
176
     1
 74
     1
176
     1
 91
        4
176
     1
 64
     7
176
     1
 65
   257
176
     1
 75
     1
176
     1
175
     1
176
     1
 42
1.0
176
     1
 92
        0
176
     1
 66
   257
176
     1
 43
1.0
176
     1
 76
     1
176
     1
 77
     6
176
     1
 78
     2
176
     1
 67
     7
176
     1
 79
     5
176
     1
170
     0
176
     1
171
     0
176
     1
290
     0
176
     1
 93
        1
176
     1
 44
0.0
176
     1
173
     0
176
     1
  0
VISUALSTYLE
  5
32
102
{ACAD_REACTORS
330
2A
102
}
102
{ACAD_XDICTIONARY
360
166
102
}
330
2A
100
AcDbVisualStyle
  2
Basic
 70
     7
177
     2
291
     1
 71
     1
176
     1
 72
     0
176
     1
 73
     1
176
     1
 90
        0
176
     1
 40
0.6
176
     1
 41
30.0
176
     1
 62
     5
 63
     7
421
 16777215
176
     1
 74
     0
176
     1
 91
        4
176
     1
 64
     7
176
     1
 65
   257
176
     1
 75
     1
176
     1
175
     1
176
     1
 42
1.0
176
     1
 92
        8
176
     1
 66
     7
176
     1
 43
1.0
176
     1
 76
     1
176
     1
 77
     6
176
     1
 78
     2
176
     1
 67
     7
176
     1
 79
     5
176
     1
170
     0
176
     1
171
     0
176
     1
290
     0
176
     1
 93
        1
176
     1
 44
0.0
176
     1
173
     0
176
     1
  0
VISUALSTYLE
  5
36
102
{ACAD_REACTORS
330
2A
102
}
102
{ACAD_XDICTIONARY
360
16E
102
}
330
2A
100
AcDbVisualStyle
  2
Brighten
 70
    12
177
     2
291
     1
 71
     2
176
     1
 72
     2
176
     1
 73
     0
176
     1
 90
        0
176
     1
 40
0.6
176
     1
 41
30.0
176
     1
 62
     5
 63
     7
421
 16777215
176
     1
 74
     1
176
     1
 91
        4
176
     1
 64
     7
176
     1
 65
   257
176
     1
 75
     1
176
     1
175
     1
176
     1
 42
1.0
176
     1
 92
        8
176
     1
 66
     7
176
     1
 43
1.0
176
     1
 76
     1
176
     1
 77
     6
176
     1
 78
     2
176
     1
 67
     7
176
     1
 79
     5
176
     1
170
     0
176
     1
171
     0
176
     1
290
     0
176
     1
 93
        1
176
     1
 44
50.0
176
     1
173
     0
176
     1
  0
VISUALSTYLE
  5
3A
102
{ACAD_REACTORS
330
2A
102
}
102
{ACAD_XDICTIONARY
360
176
102
}
330
2A
100
AcDbVisualStyle
  2
ColorChange
 70
    16
177
     2
291
     1
 71
     2
176
     1
 72
     2
176
     1
 73
     3
176
     1
 90
        0
176
     1
 40
0.6
176
     1
 41
30.0
176
     1
 62
     5
 63
     8
421
  8421504
176
     1
 74
     1
176
     1
 91
        4
176
     1
 64
     7
176
     1
 65
   257
176
     1
 75
     1
176
     1
175
     1
176
     1
 42
1.0
176
     1
 92
        8
176
     1
 66
     8
424
  8421504
176
     1
 43
1.0
176
     1
 76
     1
176
     1
 77
     6
176
     1
 78
     2
176
     1
 67
     7
176
     1
 79
     5
176
     1
170
     0
176
     1
171
     0
176
     1
290
     0
176
     1
 93
        1
176
     1
 44
0.0
176
     1
173
     0
176
     1
  0
VISUALSTYLE
  5
34
102
{ACAD_REACTORS
330
2A
102
}
102
{ACAD_XDICTIONARY
360
16A
102
}
330
2A
100
AcDbVisualStyle
  2
Conceptual
 70
     9
177
     2
291
     0
 71
     3
176
     1
 72
     2
176
     1
 73
     0
176
     1
 90
        0
176
     1
 40
0.6
176
     1
 41
30.0
176
     1
 62
     5
 63
     7
421
 16777215
176
     1
 74
     2
176
     1
 91
        2
176
     1
 64
     7
176
     1
 65
   257
176
     1
 75
     1
176
     1
175
     1
176
     1
 42
179.0
176
     1
 92
        8
176
     1
 66
     7
176
     1
 43
1.0
176
     1
 76
     1
176
     1
 77
     6
176
     1
 78
     2
176
     1
 67
     7
176
     1
 79
     3
176
     1
170
     0
176
     1
171
     0
176
     1
290
     0
176
     1
 93
        1
176
     1
 44
0.0
176
     1
173
     0
176
     1
  0
VISUALSTYLE
  5
35
102
{ACAD_REACTORS
330
2A
102
}
102
{ACAD_XDICTIONARY
360
16C
102
}
330
2A
100
AcDbVisualStyle
  2
Dim
 70
    11
177
     2
291
     1
 71
     2
176
     1
 72
     2
176
     1
 73
     0
176
     1
 90
        0
176
     1
 40
0.6
176
     1
 41
30.0
176
     1
 62
     5
 63
     7
421
 16777215
176
     1
 74
     1
176
     1
 91
        4
176
     1
 64
     7
176
     1
 65
   257
176
     1
 75
     1
176
     1
175
     1
176
     1
 42
1.0
176
     1
 92
        8
176
     1
 66
     7
176
     1
 43
1.0
176
     1
 76
     1
176
     1
 77
     6
176
     1
 78
     2
176
     1
 67
     7
176
     1
 79
     5
176
     1
170
     0
176
     1
171
     0
176
     1
290
     0
176
     1
 93
        1
176
     1
 44
-50.0
176
     1
173
     0
176
     1
  0
VISUALSTYLE
  5
3D
102
{ACAD_REACTORS
330
2A
102
}
102
{ACAD_XDICTIONARY
360
17C
102
}
330
2A
100
AcDbVisualStyle
  2
EdgeColorOff
 70
    22
177
     2
291
     1
 71
     2
176
     0
 72
     2
176
     0
 73
     0
176
     0
 90
        0
176
     0
 40
0.6
176
     0
 41
30.0
176
     0
 62
     5
 63
     7
421
 16777215
176
     0
 74
     1
176
     0
 91
        4
176
     0
 64
     7
176
     0
 65
   257
176
     0
 75
     1
176
     0
175
     1
176
     0
 42
1.0
176
     0
 92
        8
176
     2
 66
     7
176
     0
 43
1.0
176
     0
 76
     1
176
     0
 77
     6
176
     0
 78
     2
176
     0
 67
     7
176
     0
 79
     5
176
     0
170
     0
176
     0
171
     0
176
     0
290
     0
176
     0
 93
        1
176
     0
 44
0.0
176
     0
173
     0
176
     0
  0
VISUALSTYLE
  5
39
102
{ACAD_REACTORS
330
2A
102
}
102
{ACAD_XDICTIONARY
360
174
102
}
330
2A
100
AcDbVisualStyle
  2
Facepattern
 70
    15
177
     2
291
     1
 71
     2
176
     1
 72
     2
176
     1
 73
     0
176
     1
 90
        0
176
     1
 40
0.6
176
     1
 41
30.0
176
     1
 62
     5
 63
     7
421
 16777215
176
     1
 74
     1
176
     1
 91
        4
176
     1
 64
     7
176
     1
 65
   257
176
     1
 75
     1
176
     1
175
     1
176
     1
 42
1.0
176
     1
 92
        8
176
     1
 66
     7
176
     1
 43
1.0
176
     1
 76
     1
176
     1
 77
     6
176
     1
 78
     2
176
     1
 67
     7
176
     1
 79
     5
176
     1
170
     0
176
     1
171
     0
176
     1
290
     0
176
     1
 93
        1
176
     1
 44
0.0
176
     1
173
     0
176
     1
  0
VISUALSTYLE
  5
2B
102
{ACAD_REACTORS
330
2A
102
}
102
{ACAD_XDICTIONARY
360
158
102
}
330
2A
100
AcDbVisualStyle
  2
Flat
 70
     0
177
     2
291
     1
 71
     2
176
     1
 72
     1
176
     1
 73
     1
176
     1
 90
        2
176
     1
 40
0.6
176
     1
 41
30.0
176
     1
 62
     5
 63
     7
421
 16777215
176
     1
 74
     0
176
     1
 91
        0
176
     1
 64
     7
176
     1
 65
   257
176
     1
 75
     1
176
     1
175
     1
176
     1
 42
1.0
176
     1
 92
        8
176
     1
 66
     7
176
     1
 43
1.0
176
     1
 76
     1
176
     1
 77
     6
176
     1
 78
     2
176
     1
 67
     7
176
     1
 79
     5
176
     1
170
     0
176
     1
171
     0
176
     1
290
     0
176
     1
 93
       13
176
     1
 44
0.0
176
     1
173
     0
176
     1
  0
VISUALSTYLE
  5
2C
102
{ACAD_REACTORS
330
2A
102
}
102
{ACAD_XDICTIONARY
360
15A
102
}
330
2A
100
AcDbVisualStyle
  2
FlatWithEdges
 70
     1
177
     2
291
     1
 71
     2
176
     1
 72
     1
176
     1
 73
     1
176
     1
 90
        2
176
     1
 40
0.6
176
     1
 41
30.0
176
     1
 62
     5
 63
     7
421
 16777215
176
     1
 74
     1
176
     1
 91
        0
176
     1
 64
     7
176
     1
 65
   257
176
     1
 75
     1
176
     1
175
     1
176
     1
 42
1.0
176
     1
 92
        0
176
     1
 66
   257
176
     1
 43
1.0
176
     1
 76
     1
176
     1
 77
     6
176
     1
 78
     2
176
     1
 67
     7
176
     1
 79
     5
176
     1
170
     0
176
     1
171
     0
176
     1
290
     0
176
     1
 93
       13
176
     1
 44
0.0
176
     1
173
     0
176
     1
  0
VISUALSTYLE
  5
2D
102
{ACAD_REACTORS
330
2A
102
}
102
{ACAD_XDICTIONARY
360
15C
102
}
330
2A
100
AcDbVisualStyle
  2
Gouraud
 70
     2
177
     2
291
     1
 71
     2
176
     1
 72
     2
176
     1
 73
     1
176
     1
 90
        2
176
     1
 40
0.6
176
     1
 41
30.0
176
     1
 62
     5
 63
     7
421
 16777215
176
     1
 74
     0
176
     1
 91
        0
176
     1
 64
     7
176
     1
 65
   257
176
     1
 75
     1
176
     1
175
     1
176
     1
 42
1.0
176
     1
 92
        0
176
     1
 66
     7
176
     1
 43
1.0
176
     1
 76
     1
176
     1
 77
     6
176
     1
 78
     2
176
     1
 67
     7
176
     1
 79
     5
176
     1
170
     0
176
     1
171
     0
176
     1
290
     0
176
     1
 93
       13
176
     1
 44
0.0
176
     1
173
     0
176
     1
  0
VISUALSTYLE
  5
2E
102
{ACAD_REACTORS
330
2A
102
}
102
{ACAD_XDICTIONARY
360
15E
102
}
330
2A
100
AcDbVisualStyle
  2
GouraudWithEdges
 70
     3
177
     2
291
     1
 71
     2
176
     1
 72
     2
176
     1
 73
     1
176
     1
 90
        2
176
     1
 40
0.6
176
     1
 41
30.0
176
     1
 62
     5
 63
     7
421
 16777215
176
     1
 74
     1
176
     1
 91
        0
176
     1
 64
     7
176
     1
 65
   257
176
     1
 75
     1
176
     1
175
     1
176
     1
 42
1.0
176
     1
 92
        0
176
     1
 66
   257
176
     1
 43
1.0
176
     1
 76
     1
176
     1
 77
     6
176
     1
 78
     2
176
     1
 67
     7
176
     1
 79
     5
176
     1
170
     0
176
     1
171
     0
176
     1
290
     0
176
     1
 93
       13
176
     1
 44
0.0
176
     1
173
     0
176
     1
  0
VISUALSTYLE
  5
31
102
{ACAD_REACTORS
330
2A
102
}
102
{ACAD_XDICTIONARY
360
164
102
}
330
2A
100
AcDbVisualStyle
  2
Hidden
 70
     6
177
     2
291
     0
 71
     1
176
     1
 72
     2
176
     1
 73
     2
176
     1
 90
        0
176
     1
 40
0.6
176
     1
 41
30.0
176
     1
 62
     5
 63
     7
421
 16777215
176
     1
 74
     2
176
     1
 91
        2
176
     1
 64
     7
176
     1
 65
   257
176
     1
 75
     2
176
     1
175
     1
176
     1
 42
40.0
176
     1
 92
        0
176
     1
 66
   257
176
     1
 43
1.0
176
     1
 76
     1
176
     1
 77
     6
176
     1
 78
     2
176
     1
 67
     7
176
     1
 79
     3
176
     1
170
     0
176
     1
171
     0
176
     1
290
     0
176
     1
 93
        1
176
     1
 44
0.0
176
     1
173
     0
176
     1
  0
VISUALSTYLE
  5
3B
102
{ACAD_REACTORS
330
2A
102
}
102
{ACAD_XDICTIONARY
360
178
102
}
330
2A
100
AcDbVisualStyle
  2
JitterOff
 70
    20
177
     2
291
     1
 71
     2
176
     0
 72
     2
176
     0
 73
     0
176
     0
 90
        0
176
     0
 40
0.6
176
     0
 41
30.0
176
     0
 62
     5
 63
     7
421
 16777215
176
     0
 74
     1
176
     0
 91
        4
176
     0
 64
     7
176
     0
 65
   257
176
     0
 75
     1
176
     0
175
     1
176
     0
 42
1.0
176
     0
 92
       10
176
     2
 66
     7
176
     0
 43
1.0
176
     0
 76
     1
176
     0
 77
     6
176
     0
 78
     2
176
     0
 67
     7
176
     0
 79
     5
176
     0
170
     0
176
     0
171
     0
176
     0
290
     0
176
     0
 93
        1
176
     0
 44
0.0
176
     0
173
     0
176
     0
  0
VISUALSTYLE
  5
38
102
{ACAD_REACTORS
330
2A
102
}
102
{ACAD_XDICTIONARY
360
172
102
}
330
2A
100
AcDbVisualStyle
  2
Linepattern
 70
    14
177
     2
291
     1
 71
     2
176
     1
 72
     2
176
     1
 73
     0
176
     1
 90
        0
176
     1
 40
0.6
176
     1
 41
30.0
176
     1
 62
     5
 63
     7
421
 16777215
176
     1
 74
     1
176
     1
 91
        4
176
     1
 64
     7
176
     1
 65
   257
176
     1
 75
     7
176
     1
175
     7
176
     1
 42
1.0
176
     1
 92
        8
176
     1
 66
     7
176
     1
 43
1.0
176
     1
 76
     1
176
     1
 77
     6
176
     1
 78
     2
176
     1
 67
     7
176
     1
 79
     5
176
     1
170
     0
176
     1
171
     0
176
     1
290
     0
176
     1
 93
        1
176
     1
 44
0.0
176
     1
173
     0
176
     1
  0
VISUALSTYLE
  5
3C
102
{ACAD_REACTORS
330
2A
102
}
102
{ACAD_XDICTIONARY
360
17A
102
}
330
2A
100
AcDbVisualStyle
  2
OverhangOff
 70
    21
177
     2
291
     1
 71
     2
176
     0
 72
     2
176
     0
 73
     0
176
     0
 90
        0
176
     0
 40
0.6
176
     0
 41
30.0
176
     0
 62
     5
 63
     7
421
 16777215
176
     0
 74
     1
176
     0
 91
        4
176
     0
 64
     7
176
     0
 65
   257
176
     0
 75
     1
176
     0
175
     1
176
     0
 42
1.0
176
     0
 92
        9
176
     2
 66
     7
176
     0
 43
1.0
176
     0
 76
     1
176
     0
 77
     6
176
     0
 78
     2
176
     0
 67
     7
176
     0
 79
     5
176
     0
170
     0
176
     0
171
     0
176
     0
290
     0
176
     0
 93
        1
176
     0
 44
0.0
176
     0
173
     0
176
     0
  0
VISUALSTYLE
  5
33
102
{ACAD_REACTORS
330
2A
102
}
102
{ACAD_XDICTIONARY
360
168
102
}
330
2A
100
AcDbVisualStyle
  2
Realistic
 70
     8
177
     2
291
     0
 71
     2
176
     1
 72
     3
176
     1
 73
     0
176
     1
 90
        2
176
     1
 40
0.6
176
     1
 41
30.0
176
     1
 62
     5
 63
     7
421
 16777215
176
     1
 74
     0
176
     1
 91
        0
176
     1
 64
     7
176
     1
 65
   257
176
     1
 75
     1
176
     1
175
     1
176
     1
 42
1.0
176
     1
 92
        8
176
     1
 66
   257
176
     1
 43
1.0
176
     1
 76
     1
176
     1
 77
     6
176
     1
 78
     2
176
     1
 67
     7
176
     1
 79
     3
176
     1
170
     0
176
     1
171
     0
176
     1
290
     0
176
     1
 93
       13
176
     1
 44
0.0
176
     1
173
     0
176
     1
  0
VISUALSTYLE
  5
42
102
{ACAD_REACTORS
330
2A
102
}
102
{ACAD_XDICTIONARY
360
186
102
}
330
2A
100
AcDbVisualStyle
  2
Shaded
 70
    27
177
     2
291
     0
 71
     2
176
     1
 72
     2
176
     1
 73
     1
176
     1
 90
        2
176
     1
 40
0.6
176
     1
 41
30.0
176
     1
 62
     5
 63
     7
421
 16777215
176
     1
 74
     0
176
     1
 91
        4
176
     1
 64
     7
176
     1
 65
   257
176
     1
 75
     1
176
     1
175
     1
176
     1
 42
1.0
176
     1
 92
        8
176
     1
 66
   257
176
     1
 43
1.0
176
     1
 76
     1
176
     1
 77
     6
176
     1
 78
     2
176
     1
 67
     8
425
  7895160
176
     1
 79
     3
176
     1
170
     0
176
     1
171
     0
176
     1
290
     0
176
     1
 93
        5
176
     1
 44
0.0
176
     1
173
     0
176
     1
  0
VISUALSTYLE
  5
41
102
{ACAD_REACTORS
330
2A
102
}
102
{ACAD_XDICTIONARY
360
184
102
}
330
2A
100
AcDbVisualStyle
  2
Shaded with edges
 70
    26
177
     2
291
     0
 71
     2
176
     1
 72
     2
176
     1
 73
     1
176
     1
 90
        2
176
     1
 40
0.6
176
     1
 41
30.0
176
     1
 62
     5
 63
     7
421
 16777215
176
     1
 74
     1
176
     1
 91
       10
176
     1
 64
     7
176
     1
 65
   257
176
     1
 75
     2
176
     1
175
     1
176
     1
 42
1.0
176
     1
 92
        8
176
     1
 66
   257
176
     1
 43
1.0
176
     1
 76
     1
176
     1
 77
     6
176
     1
 78
     2
176
     1
 67
     7
176
     1
 79
     3
176
     1
170
     0
176
     1
171
     0
176
     1
290
     0
176
     1
 93
        5
176
     1
 44
0.0
176
     1
173
     0
176
     1
  0
VISUALSTYLE
  5
3E
102
{ACAD_REACTORS
330
2A
102
}
102
{ACAD_XDICTIONARY
360
17E
102
}
330
2A
100
AcDbVisualStyle
  2
Shades of Gray
 70
    23
177
     2
291
     0
 71
     2
176
     1
 72
     2
176
     1
 73
     3
176
     1
 90
        0
176
     1
 40
0.6
176
     1
 41
30.0
176
     1
 62
     5
 63
     7
421
 16777215
176
     1
 74
     2
176
     1
 91
        2
176
     1
 64
     7
176
     1
 65
     7
176
     1
 75
     1
176
     1
175
     1
176
     1
 42
40.0
176
     1
 92
        8
176
     1
 66
     7
176
     1
 43
1.0
176
     1
 76
     1
176
     1
 77
     6
176
     1
 78
     2
176
     1
 67
     7
176
     1
 79
     3
176
     1
170
     0
176
     1
171
     0
176
     1
290
     0
176
     1
 93
        1
176
     1
 44
0.0
176
     1
173
     0
176
     1
  0
VISUALSTYLE
  5
3F
102
{ACAD_REACTORS
330
2A
102
}
102
{ACAD_XDICTIONARY
360
180
102
}
330
2A
100
AcDbVisualStyle
  2
Sketchy
 70
    24
177
     2
291
     0
 71
     1
176
     1
 72
     2
176
     1
 73
     2
176
     1
 90
        0
176
     1
 40
0.6
176
     1
 41
30.0
176
     1
 62
     5
 63
     7
421
 16777215
176
     1
 74
     2
176
     1
 91
        2
176
     1
 64
     7
176
     1
 65
     7
176
     1
 75
     1
176
     1
175
     1
176
     1
 42
40.0
176
     1
 92
       11
176
     1
 66
     7
176
     1
 43
1.0
176
     1
 76
     1
176
     1
 77
     6
176
     1
 78
     2
176
     1
 67
     7
176
     1
 79
     6
176
     1
170
     0
176
     1
171
     0
176
     1
290
     0
176
     1
 93
        1
176
     1
 44
0.0
176
     1
173
     0
176
     1
  0
VISUALSTYLE
  5
37
102
{ACAD_REACTORS
330
2A
102
}
102
{ACAD_XDICTIONARY
360
170
102
}
330
2A
100
AcDbVisualStyle
  2
Thicken
 70
    13
177
     2
291
     1
 71
     2
176
     1
 72
     2
176
     1
 73
     0
176
     1
 90
        0
176
     1
 40
0.6
176
     1
 41
30.0
176
     1
 62
     5
 63
     7
421
 16777215
176
     1
 74
     1
176
     1
 91
        4
176
     1
 64
     7
176
     1
 65
   257
176
     1
 75
     1
176
     1
175
     1
176
     1
 42
1.0
176
     1
 92
       12
176
     1
 66
     7
176
     1
 43
1.0
176
     1
 76
     1
176
     1
 77
     6
176
     1
 78
     2
176
     1
 67
     7
176
     1
 79
     5
176
     1
170
     0
176
     1
171
     0
176
     1
290
     0
176
     1
 93
        1
176
     1
 44
0.0
176
     1
173
     0
176
     1
  0
VISUALSTYLE
  5
30
102
{ACAD_REACTORS
330
2A
102
}
102
{ACAD_XDICTIONARY
360
162
102
}
330
2A
100
AcDbVisualStyle
  2
Wireframe
 70
     5
177
     2
291
     0
 71
     0
176
     1
 72
     2
176
     1
 73
     0
176
     1
 90
        0
176
     1
 40
0.6
176
     1
 41
30.0
176
     1
 62
     5
 63
     7
421
 16777215
176
     1
 74
     1
176
     1
 91
        4
176
     1
 64
     7
176
     1
 65
   257
176
     1
 75
     1
176
     1
175
     1
176
     1
 42
1.0
176
     1
 92
        0
176
     1
 66
   257
176
     1
 43
1.0
176
     1
 76
     1
176
     1
 77
     6
176
     1
 78
     2
176
     1
 67
     7
176
     1
 79
     3
176
     1
170
     0
176
     1
171
     0
176
     1
290
     0
176
     1
 93
        1
176
     1
 44
0.0
176
     1
173
     0
176
     1
  0
VISUALSTYLE
  5
40
102
{ACAD_REACTORS
330
2A
102
}
102
{ACAD_XDICTIONARY
360
182
102
}
330
2A
100
AcDbVisualStyle
  2
X-Ray
 70
    25
177
     2
291
     0
 71
     2
176
     1
 72
     2
176
     1
 73
     1
176
     1
 90
        1
176
     1
 40
0.5
176
     1
 41
30.0
176
     1
 62
     5
 63
     7
421
 16777215
176
     1
 74
     1
176
     1
 91
        0
176
     1
 64
     7
176
     1
 65
   257
176
     1
 75
     1
176
     1
175
     1
176
     1
 42
1.0
176
     1
 92
        8
176
     1
 66
     7
176
     1
 43
1.0
176
     1
 76
     1
176
     1
 77
     6
176
     1
 78
     2
176
     1
 67
     7
176
     1
 79
     3
176
     1
170
     0
176
     1
171
     0
176
     1
290
     0
176
     1
 93
       13
176
     1
 44
0.0
176
     1
173
     0
176
     1
  0
DICTIONARYVAR
  5
157
102
{ACAD_REACTORS
330
156
102
}
330
156
100
DictionaryVariables
280
     0
  1
1:1
  0
DICTIONARYVAR
  5
18C
102
{ACAD_REACTORS
330
156
102
}
330
156
100
DictionaryVariables
280
     0
  1
Standard
  0
DICTIONARYVAR
  5
18B
102
{ACAD_REACTORS
330
156
102
}
330
156
100
DictionaryVariables
280
     0
  1
Standard
  0
DICTIONARY
  5
188
330
6A
100
AcDbDictionary
280
     1
281
     1
  3
ACAD_ROUNDTRIP_2008_TABLESTYLE_CELLSTYLEMAP
360
189
  0
DICTIONARY
  5
160
330
2F
100
AcDbDictionary
280
     1
281
     1
  3
ACAD_XREC_ROUNDTRIP
360
161
  0
DICTIONARY
  5
166
330
32
100
AcDbDictionary
280
     1
281
     1
  3
ACAD_XREC_ROUNDTRIP
360
167
  0
DICTIONARY
  5
16E
330
36
100
AcDbDictionary
280
     1
281
     1
  3
ACAD_XREC_ROUNDTRIP
360
16F
  0
DICTIONARY
  5
176
330
3A
100
AcDbDictionary
280
     1
281
     1
  3
ACAD_XREC_ROUNDTRIP
360
177
  0
DICTIONARY
  5
16A
330
34
100
AcDbDictionary
280
     1
281
     1
  3
ACAD_XREC_ROUNDTRIP
360
16B
  0
DICTIONARY
  5
16C
330
35
100
AcDbDictionary
280
     1
281
     1
  3
ACAD_XREC_ROUNDTRIP
360
16D
  0
DICTIONARY
  5
17C
330
3D
100
AcDbDictionary
280
     1
281
     1
  3
ACAD_XREC_ROUNDTRIP
360
17D
  0
DICTIONARY
  5
174
330
39
100
AcDbDictionary
280
     1
281
     1
  3
ACAD_XREC_ROUNDTRIP
360
175
  0
DICTIONARY
  5
158
330
2B
100
AcDbDictionary
280
     1
281
     1
  3
ACAD_XREC_ROUNDTRIP
360
159
  0
DICTIONARY
  5
15A
330
2C
100
AcDbDictionary
280
     1
281
     1
  3
ACAD_XREC_ROUNDTRIP
360
15B
  0
DICTIONARY
  5
15C
330
2D
100
AcDbDictionary
280
     1
281
     1
  3
ACAD_XREC_ROUNDTRIP
360
15D
  0
DICTIONARY
  5
15E
330
2E
100
AcDbDictionary
280
     1
281
     1
  3
ACAD_XREC_ROUNDTRIP
360
15F
  0
DICTIONARY
  5
164
330
31
100
AcDbDictionary
280
     1
281
     1
  3
ACAD_XREC_ROUNDTRIP
360
165
  0
DICTIONARY
  5
178
330
3B
100
AcDbDictionary
280
     1
281
     1
  3
ACAD_XREC_ROUNDTRIP
360
179
  0
DICTIONARY
  5
172
330
38
100
AcDbDictionary
280
     1
281
     1
  3
ACAD_XREC_ROUNDTRIP
360
173
  0
DICTIONARY
  5
17A
330
3C
100
AcDbDictionary
280
     1
281
     1
  3
ACAD_XREC_ROUNDTRIP
360
17B
  0
DICTIONARY
  5
168
330
33
100
AcDbDictionary
280
     1
281
     1
  3
ACAD_XREC_ROUNDTRIP
360
169
  0
DICTIONARY
  5
186
330
42
100
AcDbDictionary
280
     1
281
     1
  3
ACAD_XREC_ROUNDTRIP
360
187
  0
DICTIONARY
  5
184
330
41
100
AcDbDictionary
280
     1
281
     1
  3
ACAD_XREC_ROUNDTRIP
360
185
  0
DICTIONARY
  5
17E
330
3E
100
AcDbDictionary
280
     1
281
     1
  3
ACAD_XREC_ROUNDTRIP
360
17F
  0
DICTIONARY
  5
180
330
3F
100
AcDbDictionary
280
     1
281
     1
  3
ACAD_XREC_ROUNDTRIP
360
181
  0
DICTIONARY
  5
170
330
37
100
AcDbDictionary
280
     1
281
     1
  3
ACAD_XREC_ROUNDTRIP
360
171
  0
DICTIONARY
  5
162
330
30
100
AcDbDictionary
280
     1
281
     1
  3
ACAD_XREC_ROUNDTRIP
360
163
  0
DICTIONARY
  5
182
330
40
100
AcDbDictionary
280
     1
281
     1
  3
ACAD_XREC_ROUNDTRIP
360
183
  0
CELLSTYLEMAP
  5
189
102
{ACAD_REACTORS
330
188
102
}
330
188
100
AcDbCellStyleMap
 90
        3
300
CELLSTYLE
  1
TABLEFORMAT_BEGIN
 90
        5
170
     1
 91
        0
 92
    32768
 62
   257
 93
        1
300
CONTENTFORMAT
  1
CONTENTFORMAT_BEGIN
 90
        0
 91
        0
 92
        4
 93
        0
300

 40
0.0
140
1.0
 94
        5
 62
     0
340
11
144
6.0
309
CONTENTFORMAT_END
171
     1
301
MARGIN
  1
CELLMARGIN_BEGIN
 40
1.5
 40
1.5
 40
1.5
 40
1.5
 40
1.5
 40
1.5
309
CELLMARGIN_END
 94
        6
 95
        1
302
GRIDFORMAT
  1
GRIDFORMAT_BEGIN
 90
        0
 91
        1
 62
     0
 92
       -2
340
14
 93
        0
 40
0.045
309
GRIDFORMAT_END
 95
        2
302
GRIDFORMAT
  1
GRIDFORMAT_BEGIN
 90
        0
 91
        1
 62
     0
 92
       -2
340
14
 93
        0
 40
0.045
309
GRIDFORMAT_END
 95
        4
302
GRIDFORMAT
  1
GRIDFORMAT_BEGIN
 90
        0
 91
        1
 62
     0
 92
       -2
340
14
 93
        0
 40
0.045
309
GRIDFORMAT_END
 95
        8
302
GRIDFORMAT
  1
GRIDFORMAT_BEGIN
 90
        0
 91
        1
 62
     0
 92
       -2
340
14
 93
        0
 40
0.045
309
GRIDFORMAT_END
 95
       16
302
GRIDFORMAT
  1
GRIDFORMAT_BEGIN
 90
        0
 91
        1
 62
     0
 92
       -2
340
14
 93
        0
 40
0.045
309
GRIDFORMAT_END
 95
       32
302
GRIDFORMAT
  1
GRIDFORMAT_BEGIN
 90
        0
 91
        1
 62
     0
 92
       -2
340
14
 93
        0
 40
0.045
309
GRIDFORMAT_END
309
TABLEFORMAT_END
  1
CELLSTYLE_BEGIN
 90
        1
 91
        1
300
_TITLE
309
CELLSTYLE_END
300
CELLSTYLE
  1
TABLEFORMAT_BEGIN
 90
        5
170
     1
 91
        0
 92
        0
 62
   257
 93
        1
300
CONTENTFORMAT
  1
CONTENTFORMAT_BEGIN
 90
        0
 91
        0
 92
        4
 93
        0
300

 40
0.0
140
1.0
 94
        5
 62
     0
340
11
144
4.5
309
CONTENTFORMAT_END
171
     1
301
MARGIN
  1
CELLMARGIN_BEGIN
 40
1.5
 40
1.5
 40
1.5
 40
1.5
 40
1.5
 40
1.5
309
CELLMARGIN_END
 94
        6
 95
        1
302
GRIDFORMAT
  1
GRIDFORMAT_BEGIN
 90
        0
 91
        1
 62
     0
 92
       -2
340
14
 93
        0
 40
0.045
309
GRIDFORMAT_END
 95
        2
302
GRIDFORMAT
  1
GRIDFORMAT_BEGIN
 90
        0
 91
        1
 62
     0
 92
       -2
340
14
 93
        0
 40
0.045
309
GRIDFORMAT_END
 95
        4
302
GRIDFORMAT
  1
GRIDFORMAT_BEGIN
 90
        0
 91
        1
 62
     0
 92
       -2
340
14
 93
        0
 40
0.045
309
GRIDFORMAT_END
 95
        8
302
GRIDFORMAT
  1
GRIDFORMAT_BEGIN
 90
        0
 91
        1
 62
     0
 92
       -2
340
14
 93
        0
 40
0.045
309
GRIDFORMAT_END
 95
       16
302
GRIDFORMAT
  1
GRIDFORMAT_BEGIN
 90
        0
 91
        1
 62
     0
 92
       -2
340
14
 93
        0
 40
0.045
309
GRIDFORMAT_END
 95
       32
302
GRIDFORMAT
  1
GRIDFORMAT_BEGIN
 90
        0
 91
        1
 62
     0
 92
       -2
340
14
 93
        0
 40
0.045
309
GRIDFORMAT_END
309
TABLEFORMAT_END
  1
CELLSTYLE_BEGIN
 90
        2
 91
        1
300
_HEADER
309
CELLSTYLE_END
300
CELLSTYLE
  1
TABLEFORMAT_BEGIN
 90
        5
170
     1
 91
        0
 92
        0
 62
   257
 93
        1
300
CONTENTFORMAT
  1
CONTENTFORMAT_BEGIN
 90
        0
 91
        0
 92
        4
 93
        0
300

 40
0.0
140
1.0
 94
        2
 62
     0
340
11
144
4.5
309
CONTENTFORMAT_END
171
     1
301
MARGIN
  1
CELLMARGIN_BEGIN
 40
1.5
 40
1.5
 40
1.5
 40
1.5
 40
1.5
 40
1.5
309
CELLMARGIN_END
 94
        6
 95
        1
302
GRIDFORMAT
  1
GRIDFORMAT_BEGIN
 90
        0
 91
        1
 62
     0
 92
       -2
340
14
 93
        0
 40
0.045
309
GRIDFORMAT_END
 95
        2
302
GRIDFORMAT
  1
GRIDFORMAT_BEGIN
 90
        0
 91
        1
 62
     0
 92
       -2
340
14
 93
        0
 40
0.045
309
GRIDFORMAT_END
 95
        4
302
GRIDFORMAT
  1
GRIDFORMAT_BEGIN
 90
        0
 91
        1
 62
     0
 92
       -2
340
14
 93
        0
 40
0.045
309
GRIDFORMAT_END
 95
        8
302
GRIDFORMAT
  1
GRIDFORMAT_BEGIN
 90
        0
 91
        1
 62
     0
 92
       -2
340
14
 93
        0
 40
0.045
309
GRIDFORMAT_END
 95
       16
302
GRIDFORMAT
  1
GRIDFORMAT_BEGIN
 90
        0
 91
        1
 62
     0
 92
       -2
340
14
 93
        0
 40
0.045
309
GRIDFORMAT_END
 95
       32
302
GRIDFORMAT
  1
GRIDFORMAT_BEGIN
 90
        0
 91
        1
 62
     0
 92
       -2
340
14
 93
        0
 40
0.045
309
GRIDFORMAT_END
309
TABLEFORMAT_END
  1
CELLSTYLE_BEGIN
 90
        3
 91
        2
300
_DATA
309
CELLSTYLE_END
  0
XRECORD
  5
161
102
{ACAD_REACTORS
330
160
102
}
330
160
100
AcDbXrecord
280
     1
102
RTVSPost2010Prop28
280
     1
102
RTVSPost2010PropOp28
 70
     1
102
RTVSPost2010Prop29
280
     1
102
RTVSPost2010PropOp29
 70
     1
102
RTVSPost2010Prop30
280
     0
102
RTVSPost2010PropOp30
 70
     1
102
RTVSPost2010Prop31
280
     0
102
RTVSPost2010PropOp31
 70
     1
102
RTVSPost2010Prop32
280
     0
102
RTVSPost2010PropOp32
 70
     1
102
RTVSPost2010Prop33
280
     0
102
RTVSPost2010PropOp33
 70
     1
102
RTVSPost2010Prop34
280
     0
102
RTVSPost2010PropOp34
 70
     1
102
RTVSPost2010Prop35
280
     0
102
RTVSPost2010PropOp35
 70
     1
102
RTVSPost2010Prop36
280
     0
102
RTVSPost2010PropOp36
 70
     1
102
RTVSPost2010Prop37
 90
       50
102
RTVSPost2010PropOp37
 70
     1
102
RTVSPost2010Prop38
140
0.0
102
RTVSPost2010PropOp38
 70
     1
102
RTVSPost2010Prop39
140
1.0
102
RTVSPost2010PropOp39
 70
     1
102
RTVSPost2010Prop40
 90
        0
102
RTVSPost2010PropOp40
 70
     1
102
RTVSPost2010Prop41ColorIndex
 90
       18
102
RTVSPost2010Prop41ColorRGB
 90
        0
102
RTVSPost2010PropOp41
 70
     1
102
RTVSPost2010Prop42
 90
       50
102
RTVSPost2010PropOp42
 70
     1
102
RTVSPost2010Prop43
 90
        3
102
RTVSPost2010PropOp43
 70
     1
102
RTVSPost2010Prop44ColorIndex
 90
        5
102
RTVSPost2010Prop44ColorRGB
 90
      255
102
RTVSPost2010PropOp44
 70
     1
102
RTVSPost2010Prop45
280
     0
102
RTVSPost2010PropOp45
 70
     1
102
RTVSPost2010Prop46
 90
       50
102
RTVSPost2010PropOp46
 70
     1
102
RTVSPost2010Prop47
 90
       50
102
RTVSPost2010PropOp47
 70
     1
102
RTVSPost2010Prop48
 90
       50
102
RTVSPost2010PropOp48
 70
     1
102
RTVSPost2010Prop49
280
     0
102
RTVSPost2010PropOp49
 70
     1
102
RTVSPost2010Prop50
 90
       50
102
RTVSPost2010PropOp50
 70
     1
102
RTVSPost2010Prop51ColorIndex
 90
      256
102
RTVSPost2010Prop51ColorRGB
 90
-16777216
102
RTVSPost2010PropOp51
 70
     0
102
RTVSPost2010Prop52
140
1.0
102
RTVSPost2010PropOp52
 70
     0
102
RTVSPost2010Prop53
 90
        2
102
RTVSPost2010PropOp53
 70
     1
102
RTVSPost2010Prop54
  1
strokes_ogs.tif
102
RTVSPost2010PropOp54
 70
     1
102
RTVSPost2010Prop55
280
     0
102
RTVSPost2010PropOp55
 70
     1
102
RTVSPost2010Prop56
140
1.0
102
RTVSPost2010PropOp56
 70
     1
102
RTVSPost2010Prop57
140
1.0
102
RTVSPost2010PropOp57
 70
     1
  0
XRECORD
  5
167
102
{ACAD_REACTORS
330
166
102
}
330
166
100
AcDbXrecord
280
     1
102
RTVSPost2010Prop28
280
     0
102
RTVSPost2010PropOp28
 70
     1
102
RTVSPost2010Prop29
280
     1
102
RTVSPost2010PropOp29
 70
     1
102
RTVSPost2010Prop30
280
     1
102
RTVSPost2010PropOp30
 70
     1
102
RTVSPost2010Prop31
280
     0
102
RTVSPost2010PropOp31
 70
     1
102
RTVSPost2010Prop32
280
     0
102
RTVSPost2010PropOp32
 70
     1
102
RTVSPost2010Prop33
280
     0
102
RTVSPost2010PropOp33
 70
     1
102
RTVSPost2010Prop34
280
     0
102
RTVSPost2010PropOp34
 70
     1
102
RTVSPost2010Prop35
280
     0
102
RTVSPost2010PropOp35
 70
     1
102
RTVSPost2010Prop36
280
     0
102
RTVSPost2010PropOp36
 70
     1
102
RTVSPost2010Prop37
 90
       50
102
RTVSPost2010PropOp37
 70
     1
102
RTVSPost2010Prop38
140
0.0
102
RTVSPost2010PropOp38
 70
     1
102
RTVSPost2010Prop39
140
1.0
102
RTVSPost2010PropOp39
 70
     1
102
RTVSPost2010Prop40
 90
        0
102
RTVSPost2010PropOp40
 70
     1
102
RTVSPost2010Prop41ColorIndex
 90
       18
102
RTVSPost2010Prop41ColorRGB
 90
        0
102
RTVSPost2010PropOp41
 70
     1
102
RTVSPost2010Prop42
 90
       50
102
RTVSPost2010PropOp42
 70
     1
102
RTVSPost2010Prop43
 90
        3
102
RTVSPost2010PropOp43
 70
     1
102
RTVSPost2010Prop44ColorIndex
 90
        5
102
RTVSPost2010Prop44ColorRGB
 90
      255
102
RTVSPost2010PropOp44
 70
     1
102
RTVSPost2010Prop45
280
     0
102
RTVSPost2010PropOp45
 70
     1
102
RTVSPost2010Prop46
 90
       50
102
RTVSPost2010PropOp46
 70
     1
102
RTVSPost2010Prop47
 90
       50
102
RTVSPost2010PropOp47
 70
     1
102
RTVSPost2010Prop48
 90
       50
102
RTVSPost2010PropOp48
 70
     1
102
RTVSPost2010Prop49
280
     0
102
RTVSPost2010PropOp49
 70
     1
102
RTVSPost2010Prop50
 90
       50
102
RTVSPost2010PropOp50
 70
     1
102
RTVSPost2010Prop51ColorIndex
 90
      256
102
RTVSPost2010Prop51ColorRGB
 90
-16777216
102
RTVSPost2010PropOp51
 70
     0
102
RTVSPost2010Prop52
140
1.0
102
RTVSPost2010PropOp52
 70
     0
102
RTVSPost2010Prop53
 90
        2
102
RTVSPost2010PropOp53
 70
     1
102
RTVSPost2010Prop54
  1
strokes_ogs.tif
102
RTVSPost2010PropOp54
 70
     1
102
RTVSPost2010Prop55
280
     0
102
RTVSPost2010PropOp55
 70
     1
102
RTVSPost2010Prop56
140
1.0
102
RTVSPost2010PropOp56
 70
     1
102
RTVSPost2010Prop57
140
1.0
102
RTVSPost2010PropOp57
 70
     1
  0
XRECORD
  5
16F
102
{ACAD_REACTORS
330
16E
102
}
330
16E
100
AcDbXrecord
280
     1
102
RTVSPost2010Prop28
280
     0
102
RTVSPost2010PropOp28
 70
     1
102
RTVSPost2010Prop29
280
     1
102
RTVSPost2010PropOp29
 70
     1
102
RTVSPost2010Prop30
280
     1
102
RTVSPost2010PropOp30
 70
     1
102
RTVSPost2010Prop31
280
     0
102
RTVSPost2010PropOp31
 70
     1
102
RTVSPost2010Prop32
280
     0
102
RTVSPost2010PropOp32
 70
     1
102
RTVSPost2010Prop33
280
     0
102
RTVSPost2010PropOp33
 70
     1
102
RTVSPost2010Prop34
280
     0
102
RTVSPost2010PropOp34
 70
     1
102
RTVSPost2010Prop35
280
     0
102
RTVSPost2010PropOp35
 70
     1
102
RTVSPost2010Prop36
280
     0
102
RTVSPost2010PropOp36
 70
     1
102
RTVSPost2010Prop37
 90
       50
102
RTVSPost2010PropOp37
 70
     1
102
RTVSPost2010Prop38
140
0.0
102
RTVSPost2010PropOp38
 70
     1
102
RTVSPost2010Prop39
140
1.0
102
RTVSPost2010PropOp39
 70
     1
102
RTVSPost2010Prop40
 90
        0
102
RTVSPost2010PropOp40
 70
     1
102
RTVSPost2010Prop41ColorIndex
 90
       18
102
RTVSPost2010Prop41ColorRGB
 90
        0
102
RTVSPost2010PropOp41
 70
     1
102
RTVSPost2010Prop42
 90
       50
102
RTVSPost2010PropOp42
 70
     1
102
RTVSPost2010Prop43
 90
        3
102
RTVSPost2010PropOp43
 70
     1
102
RTVSPost2010Prop44ColorIndex
 90
        5
102
RTVSPost2010Prop44ColorRGB
 90
      255
102
RTVSPost2010PropOp44
 70
     1
102
RTVSPost2010Prop45
280
     0
102
RTVSPost2010PropOp45
 70
     1
102
RTVSPost2010Prop46
 90
       50
102
RTVSPost2010PropOp46
 70
     1
102
RTVSPost2010Prop47
 90
       50
102
RTVSPost2010PropOp47
 70
     1
102
RTVSPost2010Prop48
 90
       50
102
RTVSPost2010PropOp48
 70
     1
102
RTVSPost2010Prop49
280
     0
102
RTVSPost2010PropOp49
 70
     1
102
RTVSPost2010Prop50
 90
       50
102
RTVSPost2010PropOp50
 70
     1
102
RTVSPost2010Prop51ColorIndex
 90
      256
102
RTVSPost2010Prop51ColorRGB
 90
-16777216
102
RTVSPost2010PropOp51
 70
     0
102
RTVSPost2010Prop52
140
1.0
102
RTVSPost2010PropOp52
 70
     0
102
RTVSPost2010Prop53
 90
        2
102
RTVSPost2010PropOp53
 70
     1
102
RTVSPost2010Prop54
  1
strokes_ogs.tif
102
RTVSPost2010PropOp54
 70
     1
102
RTVSPost2010Prop55
280
     0
102
RTVSPost2010PropOp55
 70
     1
102
RTVSPost2010Prop56
140
1.0
102
RTVSPost2010PropOp56
 70
     1
102
RTVSPost2010Prop57
140
1.0
102
RTVSPost2010PropOp57
 70
     1
  0
XRECORD
  5
177
102
{ACAD_REACTORS
330
176
102
}
330
176
100
AcDbXrecord
280
     1
102
RTVSPost2010Prop28
280
     0
102
RTVSPost2010PropOp28
 70
     1
102
RTVSPost2010Prop29
280
     1
102
RTVSPost2010PropOp29
 70
     1
102
RTVSPost2010Prop30
280
     1
102
RTVSPost2010PropOp30
 70
     1
102
RTVSPost2010Prop31
280
     0
102
RTVSPost2010PropOp31
 70
     1
102
RTVSPost2010Prop32
280
     0
102
RTVSPost2010PropOp32
 70
     1
102
RTVSPost2010Prop33
280
     0
102
RTVSPost2010PropOp33
 70
     1
102
RTVSPost2010Prop34
280
     0
102
RTVSPost2010PropOp34
 70
     1
102
RTVSPost2010Prop35
280
     0
102
RTVSPost2010PropOp35
 70
     1
102
RTVSPost2010Prop36
280
     0
102
RTVSPost2010PropOp36
 70
     1
102
RTVSPost2010Prop37
 90
       50
102
RTVSPost2010PropOp37
 70
     1
102
RTVSPost2010Prop38
140
0.0
102
RTVSPost2010PropOp38
 70
     1
102
RTVSPost2010Prop39
140
1.0
102
RTVSPost2010PropOp39
 70
     1
102
RTVSPost2010Prop40
 90
        0
102
RTVSPost2010PropOp40
 70
     1
102
RTVSPost2010Prop41ColorIndex
 90
       18
102
RTVSPost2010Prop41ColorRGB
 90
        0
102
RTVSPost2010PropOp41
 70
     1
102
RTVSPost2010Prop42
 90
       50
102
RTVSPost2010PropOp42
 70
     1
102
RTVSPost2010Prop43
 90
        3
102
RTVSPost2010PropOp43
 70
     1
102
RTVSPost2010Prop44ColorIndex
 90
        5
102
RTVSPost2010Prop44ColorRGB
 90
      255
102
RTVSPost2010PropOp44
 70
     1
102
RTVSPost2010Prop45
280
     0
102
RTVSPost2010PropOp45
 70
     1
102
RTVSPost2010Prop46
 90
       50
102
RTVSPost2010PropOp46
 70
     1
102
RTVSPost2010Prop47
 90
       50
102
RTVSPost2010PropOp47
 70
     1
102
RTVSPost2010Prop48
 90
       50
102
RTVSPost2010PropOp48
 70
     1
102
RTVSPost2010Prop49
280
     0
102
RTVSPost2010PropOp49
 70
     1
102
RTVSPost2010Prop50
 90
       50
102
RTVSPost2010PropOp50
 70
     1
102
RTVSPost2010Prop51ColorIndex
 90
      256
102
RTVSPost2010Prop51ColorRGB
 90
-16777216
102
RTVSPost2010PropOp51
 70
     0
102
RTVSPost2010Prop52
140
1.0
102
RTVSPost2010PropOp52
 70
     0
102
RTVSPost2010Prop53
 90
        2
102
RTVSPost2010PropOp53
 70
     1
102
RTVSPost2010Prop54
  1
strokes_ogs.tif
102
RTVSPost2010PropOp54
 70
     1
102
RTVSPost2010Prop55
280
     0
102
RTVSPost2010PropOp55
 70
     1
102
RTVSPost2010Prop56
140
1.0
102
RTVSPost2010PropOp56
 70
     1
102
RTVSPost2010Prop57
140
1.0
102
RTVSPost2010PropOp57
 70
     1
  0
XRECORD
  5
16B
102
{ACAD_REACTORS
330
16A
102
}
330
16A
100
AcDbXrecord
280
     1
102
RTVSPost2010Prop28
280
     0
102
RTVSPost2010PropOp28
 70
     1
102
RTVSPost2010Prop29
280
     1
102
RTVSPost2010PropOp29
 70
     1
102
RTVSPost2010Prop30
280
     1
102
RTVSPost2010PropOp30
 70
     1
102
RTVSPost2010Prop31
280
     0
102
RTVSPost2010PropOp31
 70
     1
102
RTVSPost2010Prop32
280
     0
102
RTVSPost2010PropOp32
 70
     1
102
RTVSPost2010Prop33
280
     0
102
RTVSPost2010PropOp33
 70
     1
102
RTVSPost2010Prop34
280
     0
102
RTVSPost2010PropOp34
 70
     1
102
RTVSPost2010Prop35
280
     0
102
RTVSPost2010PropOp35
 70
     1
102
RTVSPost2010Prop36
280
     0
102
RTVSPost2010PropOp36
 70
     1
102
RTVSPost2010Prop37
 90
       50
102
RTVSPost2010PropOp37
 70
     1
102
RTVSPost2010Prop38
140
0.0
102
RTVSPost2010PropOp38
 70
     1
102
RTVSPost2010Prop39
140
1.0
102
RTVSPost2010PropOp39
 70
     1
102
RTVSPost2010Prop40
 90
        0
102
RTVSPost2010PropOp40
 70
     1
102
RTVSPost2010Prop41ColorIndex
 90
       18
102
RTVSPost2010Prop41ColorRGB
 90
        0
102
RTVSPost2010PropOp41
 70
     1
102
RTVSPost2010Prop42
 90
       50
102
RTVSPost2010PropOp42
 70
     1
102
RTVSPost2010Prop43
 90
        3
102
RTVSPost2010PropOp43
 70
     1
102
RTVSPost2010Prop44ColorIndex
 90
        5
102
RTVSPost2010Prop44ColorRGB
 90
      255
102
RTVSPost2010PropOp44
 70
     1
102
RTVSPost2010Prop45
280
     0
102
RTVSPost2010PropOp45
 70
     1
102
RTVSPost2010Prop46
 90
       50
102
RTVSPost2010PropOp46
 70
     1
102
RTVSPost2010Prop47
 90
       50
102
RTVSPost2010PropOp47
 70
     1
102
RTVSPost2010Prop48
 90
       50
102
RTVSPost2010PropOp48
 70
     1
102
RTVSPost2010Prop49
280
     0
102
RTVSPost2010PropOp49
 70
     1
102
RTVSPost2010Prop50
 90
       50
102
RTVSPost2010PropOp50
 70
     1
102
RTVSPost2010Prop51ColorIndex
 90
      256
102
RTVSPost2010Prop51ColorRGB
 90
-16777216
102
RTVSPost2010PropOp51
 70
     0
102
RTVSPost2010Prop52
140
1.0
102
RTVSPost2010PropOp52
 70
     0
102
RTVSPost2010Prop53
 90
        2
102
RTVSPost2010PropOp53
 70
     1
102
RTVSPost2010Prop54
  1
strokes_ogs.tif
102
RTVSPost2010PropOp54
 70
     1
102
RTVSPost2010Prop55
280
     0
102
RTVSPost2010PropOp55
 70
     1
102
RTVSPost2010Prop56
140
1.0
102
RTVSPost2010PropOp56
 70
     1
102
RTVSPost2010Prop57
140
1.0
102
RTVSPost2010PropOp57
 70
     1
  0
XRECORD
  5
16D
102
{ACAD_REACTORS
330
16C
102
}
330
16C
100
AcDbXrecord
280
     1
102
RTVSPost2010Prop28
280
     0
102
RTVSPost2010PropOp28
 70
     1
102
RTVSPost2010Prop29
280
     1
102
RTVSPost2010PropOp29
 70
     1
102
RTVSPost2010Prop30
280
     1
102
RTVSPost2010PropOp30
 70
     1
102
RTVSPost2010Prop31
280
     0
102
RTVSPost2010PropOp31
 70
     1
102
RTVSPost2010Prop32
280
     0
102
RTVSPost2010PropOp32
 70
     1
102
RTVSPost2010Prop33
280
     0
102
RTVSPost2010PropOp33
 70
     1
102
RTVSPost2010Prop34
280
     0
102
RTVSPost2010PropOp34
 70
     1
102
RTVSPost2010Prop35
280
     0
102
RTVSPost2010PropOp35
 70
     1
102
RTVSPost2010Prop36
280
     0
102
RTVSPost2010PropOp36
 70
     1
102
RTVSPost2010Prop37
 90
       50
102
RTVSPost2010PropOp37
 70
     1
102
RTVSPost2010Prop38
140
0.0
102
RTVSPost2010PropOp38
 70
     1
102
RTVSPost2010Prop39
140
1.0
102
RTVSPost2010PropOp39
 70
     1
102
RTVSPost2010Prop40
 90
        0
102
RTVSPost2010PropOp40
 70
     1
102
RTVSPost2010Prop41ColorIndex
 90
       18
102
RTVSPost2010Prop41ColorRGB
 90
        0
102
RTVSPost2010PropOp41
 70
     1
102
RTVSPost2010Prop42
 90
       50
102
RTVSPost2010PropOp42
 70
     1
102
RTVSPost2010Prop43
 90
        3
102
RTVSPost2010PropOp43
 70
     1
102
RTVSPost2010Prop44ColorIndex
 90
        5
102
RTVSPost2010Prop44ColorRGB
 90
      255
102
RTVSPost2010PropOp44
 70
     1
102
RTVSPost2010Prop45
280
     0
102
RTVSPost2010PropOp45
 70
     1
102
RTVSPost2010Prop46
 90
       50
102
RTVSPost2010PropOp46
 70
     1
102
RTVSPost2010Prop47
 90
       50
102
RTVSPost2010PropOp47
 70
     1
102
RTVSPost2010Prop48
 90
       50
102
RTVSPost2010PropOp48
 70
     1
102
RTVSPost2010Prop49
280
     0
102
RTVSPost2010PropOp49
 70
     1
102
RTVSPost2010Prop50
 90
       50
102
RTVSPost2010PropOp50
 70
     1
102
RTVSPost2010Prop51ColorIndex
 90
      256
102
RTVSPost2010Prop51ColorRGB
 90
-16777216
102
RTVSPost2010PropOp51
 70
     0
102
RTVSPost2010Prop52
140
1.0
102
RTVSPost2010PropOp52
 70
     0
102
RTVSPost2010Prop53
 90
        2
102
RTVSPost2010PropOp53
 70
     1
102
RTVSPost2010Prop54
  1
strokes_ogs.tif
102
RTVSPost2010PropOp54
 70
     1
102
RTVSPost2010Prop55
280
     0
102
RTVSPost2010PropOp55
 70
     1
102
RTVSPost2010Prop56
140
1.0
102
RTVSPost2010PropOp56
 70
     1
102
RTVSPost2010Prop57
140
1.0
102
RTVSPost2010PropOp57
 70
     1
  0
XRECORD
  5
17D
102
{ACAD_REACTORS
330
17C
102
}
330
17C
100
AcDbXrecord
280
     1
102
RTVSPost2010Prop28
280
     0
102
RTVSPost2010PropOp28
 70
     0
102
RTVSPost2010Prop29
280
     1
102
RTVSPost2010PropOp29
 70
     0
102
RTVSPost2010Prop30
280
     1
102
RTVSPost2010PropOp30
 70
     0
102
RTVSPost2010Prop31
280
     0
102
RTVSPost2010PropOp31
 70
     0
102
RTVSPost2010Prop32
280
     0
102
RTVSPost2010PropOp32
 70
     0
102
RTVSPost2010Prop33
280
     0
102
RTVSPost2010PropOp33
 70
     0
102
RTVSPost2010Prop34
280
     0
102
RTVSPost2010PropOp34
 70
     0
102
RTVSPost2010Prop35
280
     0
102
RTVSPost2010PropOp35
 70
     0
102
RTVSPost2010Prop36
280
     0
102
RTVSPost2010PropOp36
 70
     0
102
RTVSPost2010Prop37
 90
       50
102
RTVSPost2010PropOp37
 70
     0
102
RTVSPost2010Prop38
140
0.0
102
RTVSPost2010PropOp38
 70
     0
102
RTVSPost2010Prop39
140
1.0
102
RTVSPost2010PropOp39
 70
     0
102
RTVSPost2010Prop40
 90
        0
102
RTVSPost2010PropOp40
 70
     0
102
RTVSPost2010Prop41ColorIndex
 90
       18
102
RTVSPost2010Prop41ColorRGB
 90
        0
102
RTVSPost2010PropOp41
 70
     0
102
RTVSPost2010Prop42
 90
       50
102
RTVSPost2010PropOp42
 70
     0
102
RTVSPost2010Prop43
 90
        3
102
RTVSPost2010PropOp43
 70
     0
102
RTVSPost2010Prop44ColorIndex
 90
        5
102
RTVSPost2010Prop44ColorRGB
 90
      255
102
RTVSPost2010PropOp44
 70
     0
102
RTVSPost2010Prop45
280
     0
102
RTVSPost2010PropOp45
 70
     0
102
RTVSPost2010Prop46
 90
       50
102
RTVSPost2010PropOp46
 70
     0
102
RTVSPost2010Prop47
 90
       50
102
RTVSPost2010PropOp47
 70
     0
102
RTVSPost2010Prop48
 90
       50
102
RTVSPost2010PropOp48
 70
     0
102
RTVSPost2010Prop49
280
     0
102
RTVSPost2010PropOp49
 70
     0
102
RTVSPost2010Prop50
 90
       50
102
RTVSPost2010PropOp50
 70
     0
102
RTVSPost2010Prop51ColorIndex
 90
      256
102
RTVSPost2010Prop51ColorRGB
 90
-16777216
102
RTVSPost2010PropOp51
 70
     0
102
RTVSPost2010Prop52
140
1.0
102
RTVSPost2010PropOp52
 70
     0
102
RTVSPost2010Prop53
 90
        2
102
RTVSPost2010PropOp53
 70
     0
102
RTVSPost2010Prop54
  1
strokes_ogs.tif
102
RTVSPost2010PropOp54
 70
     0
102
RTVSPost2010Prop55
280
     0
102
RTVSPost2010PropOp55
 70
     0
102
RTVSPost2010Prop56
140
1.0
102
RTVSPost2010PropOp56
 70
     0
102
RTVSPost2010Prop57
140
1.0
102
RTVSPost2010PropOp57
 70
     0
  0
XRECORD
  5
175
102
{ACAD_REACTORS
330
174
102
}
330
174
100
AcDbXrecord
280
     1
102
RTVSPost2010Prop28
280
     0
102
RTVSPost2010PropOp28
 70
     1
102
RTVSPost2010Prop29
280
     1
102
RTVSPost2010PropOp29
 70
     1
102
RTVSPost2010Prop30
280
     1
102
RTVSPost2010PropOp30
 70
     1
102
RTVSPost2010Prop31
280
     0
102
RTVSPost2010PropOp31
 70
     1
102
RTVSPost2010Prop32
280
     0
102
RTVSPost2010PropOp32
 70
     1
102
RTVSPost2010Prop33
280
     0
102
RTVSPost2010PropOp33
 70
     1
102
RTVSPost2010Prop34
280
     0
102
RTVSPost2010PropOp34
 70
     1
102
RTVSPost2010Prop35
280
     0
102
RTVSPost2010PropOp35
 70
     1
102
RTVSPost2010Prop36
280
     0
102
RTVSPost2010PropOp36
 70
     1
102
RTVSPost2010Prop37
 90
       50
102
RTVSPost2010PropOp37
 70
     1
102
RTVSPost2010Prop38
140
0.0
102
RTVSPost2010PropOp38
 70
     1
102
RTVSPost2010Prop39
140
1.0
102
RTVSPost2010PropOp39
 70
     1
102
RTVSPost2010Prop40
 90
        0
102
RTVSPost2010PropOp40
 70
     1
102
RTVSPost2010Prop41ColorIndex
 90
       18
102
RTVSPost2010Prop41ColorRGB
 90
        0
102
RTVSPost2010PropOp41
 70
     1
102
RTVSPost2010Prop42
 90
       50
102
RTVSPost2010PropOp42
 70
     1
102
RTVSPost2010Prop43
 90
        3
102
RTVSPost2010PropOp43
 70
     1
102
RTVSPost2010Prop44ColorIndex
 90
        5
102
RTVSPost2010Prop44ColorRGB
 90
      255
102
RTVSPost2010PropOp44
 70
     1
102
RTVSPost2010Prop45
280
     0
102
RTVSPost2010PropOp45
 70
     1
102
RTVSPost2010Prop46
 90
       50
102
RTVSPost2010PropOp46
 70
     1
102
RTVSPost2010Prop47
 90
       50
102
RTVSPost2010PropOp47
 70
     1
102
RTVSPost2010Prop48
 90
       50
102
RTVSPost2010PropOp48
 70
     1
102
RTVSPost2010Prop49
280
     0
102
RTVSPost2010PropOp49
 70
     1
102
RTVSPost2010Prop50
 90
       50
102
RTVSPost2010PropOp50
 70
     1
102
RTVSPost2010Prop51ColorIndex
 90
      256
102
RTVSPost2010Prop51ColorRGB
 90
-16777216
102
RTVSPost2010PropOp51
 70
     0
102
RTVSPost2010Prop52
140
1.0
102
RTVSPost2010PropOp52
 70
     0
102
RTVSPost2010Prop53
 90
        2
102
RTVSPost2010PropOp53
 70
     1
102
RTVSPost2010Prop54
  1
strokes_ogs.tif
102
RTVSPost2010PropOp54
 70
     1
102
RTVSPost2010Prop55
280
     0
102
RTVSPost2010PropOp55
 70
     1
102
RTVSPost2010Prop56
140
1.0
102
RTVSPost2010PropOp56
 70
     1
102
RTVSPost2010Prop57
140
1.0
102
RTVSPost2010PropOp57
 70
     1
  0
XRECORD
  5
159
102
{ACAD_REACTORS
330
158
102
}
330
158
100
AcDbXrecord
280
     1
102
RTVSPost2010Prop28
280
     0
102
RTVSPost2010PropOp28
 70
     1
102
RTVSPost2010Prop29
280
     1
102
RTVSPost2010PropOp29
 70
     1
102
RTVSPost2010Prop30
280
     1
102
RTVSPost2010PropOp30
 70
     1
102
RTVSPost2010Prop31
280
     0
102
RTVSPost2010PropOp31
 70
     1
102
RTVSPost2010Prop32
280
     0
102
RTVSPost2010PropOp32
 70
     1
102
RTVSPost2010Prop33
280
     0
102
RTVSPost2010PropOp33
 70
     1
102
RTVSPost2010Prop34
280
     0
102
RTVSPost2010PropOp34
 70
     1
102
RTVSPost2010Prop35
280
     0
102
RTVSPost2010PropOp35
 70
     1
102
RTVSPost2010Prop36
280
     0
102
RTVSPost2010PropOp36
 70
     1
102
RTVSPost2010Prop37
 90
       50
102
RTVSPost2010PropOp37
 70
     1
102
RTVSPost2010Prop38
140
0.0
102
RTVSPost2010PropOp38
 70
     1
102
RTVSPost2010Prop39
140
1.0
102
RTVSPost2010PropOp39
 70
     1
102
RTVSPost2010Prop40
 90
        0
102
RTVSPost2010PropOp40
 70
     1
102
RTVSPost2010Prop41ColorIndex
 90
       18
102
RTVSPost2010Prop41ColorRGB
 90
        0
102
RTVSPost2010PropOp41
 70
     1
102
RTVSPost2010Prop42
 90
       50
102
RTVSPost2010PropOp42
 70
     1
102
RTVSPost2010Prop43
 90
        3
102
RTVSPost2010PropOp43
 70
     1
102
RTVSPost2010Prop44ColorIndex
 90
        5
102
RTVSPost2010Prop44ColorRGB
 90
      255
102
RTVSPost2010PropOp44
 70
     1
102
RTVSPost2010Prop45
280
     0
102
RTVSPost2010PropOp45
 70
     1
102
RTVSPost2010Prop46
 90
       50
102
RTVSPost2010PropOp46
 70
     1
102
RTVSPost2010Prop47
 90
       50
102
RTVSPost2010PropOp47
 70
     1
102
RTVSPost2010Prop48
 90
       50
102
RTVSPost2010PropOp48
 70
     1
102
RTVSPost2010Prop49
280
     0
102
RTVSPost2010PropOp49
 70
     1
102
RTVSPost2010Prop50
 90
       50
102
RTVSPost2010PropOp50
 70
     1
102
RTVSPost2010Prop51ColorIndex
 90
      256
102
RTVSPost2010Prop51ColorRGB
 90
-16777216
102
RTVSPost2010PropOp51
 70
     0
102
RTVSPost2010Prop52
140
1.0
102
RTVSPost2010PropOp52
 70
     0
102
RTVSPost2010Prop53
 90
        2
102
RTVSPost2010PropOp53
 70
     1
102
RTVSPost2010Prop54
  1
strokes_ogs.tif
102
RTVSPost2010PropOp54
 70
     1
102
RTVSPost2010Prop55
280
     0
102
RTVSPost2010PropOp55
 70
     1
102
RTVSPost2010Prop56
140
1.0
102
RTVSPost2010PropOp56
 70
     1
102
RTVSPost2010Prop57
140
1.0
102
RTVSPost2010PropOp57
 70
     1
  0
XRECORD
  5
15B
102
{ACAD_REACTORS
330
15A
102
}
330
15A
100
AcDbXrecord
280
     1
102
RTVSPost2010Prop28
280
     0
102
RTVSPost2010PropOp28
 70
     1
102
RTVSPost2010Prop29
280
     1
102
RTVSPost2010PropOp29
 70
     1
102
RTVSPost2010Prop30
280
     1
102
RTVSPost2010PropOp30
 70
     1
102
RTVSPost2010Prop31
280
     0
102
RTVSPost2010PropOp31
 70
     1
102
RTVSPost2010Prop32
280
     0
102
RTVSPost2010PropOp32
 70
     1
102
RTVSPost2010Prop33
280
     0
102
RTVSPost2010PropOp33
 70
     1
102
RTVSPost2010Prop34
280
     0
102
RTVSPost2010PropOp34
 70
     1
102
RTVSPost2010Prop35
280
     0
102
RTVSPost2010PropOp35
 70
     1
102
RTVSPost2010Prop36
280
     0
102
RTVSPost2010PropOp36
 70
     1
102
RTVSPost2010Prop37
 90
       50
102
RTVSPost2010PropOp37
 70
     1
102
RTVSPost2010Prop38
140
0.0
102
RTVSPost2010PropOp38
 70
     1
102
RTVSPost2010Prop39
140
1.0
102
RTVSPost2010PropOp39
 70
     1
102
RTVSPost2010Prop40
 90
        0
102
RTVSPost2010PropOp40
 70
     1
102
RTVSPost2010Prop41ColorIndex
 90
       18
102
RTVSPost2010Prop41ColorRGB
 90
        0
102
RTVSPost2010PropOp41
 70
     1
102
RTVSPost2010Prop42
 90
       50
102
RTVSPost2010PropOp42
 70
     1
102
RTVSPost2010Prop43
 90
        3
102
RTVSPost2010PropOp43
 70
     1
102
RTVSPost2010Prop44ColorIndex
 90
        5
102
RTVSPost2010Prop44ColorRGB
 90
      255
102
RTVSPost2010PropOp44
 70
     1
102
RTVSPost2010Prop45
280
     0
102
RTVSPost2010PropOp45
 70
     1
102
RTVSPost2010Prop46
 90
       50
102
RTVSPost2010PropOp46
 70
     1
102
RTVSPost2010Prop47
 90
       50
102
RTVSPost2010PropOp47
 70
     1
102
RTVSPost2010Prop48
 90
       50
102
RTVSPost2010PropOp48
 70
     1
102
RTVSPost2010Prop49
280
     0
102
RTVSPost2010PropOp49
 70
     1
102
RTVSPost2010Prop50
 90
       50
102
RTVSPost2010PropOp50
 70
     1
102
RTVSPost2010Prop51ColorIndex
 90
      256
102
RTVSPost2010Prop51ColorRGB
 90
-16777216
102
RTVSPost2010PropOp51
 70
     0
102
RTVSPost2010Prop52
140
1.0
102
RTVSPost2010PropOp52
 70
     0
102
RTVSPost2010Prop53
 90
        2
102
RTVSPost2010PropOp53
 70
     1
102
RTVSPost2010Prop54
  1
strokes_ogs.tif
102
RTVSPost2010PropOp54
 70
     1
102
RTVSPost2010Prop55
280
     0
102
RTVSPost2010PropOp55
 70
     1
102
RTVSPost2010Prop56
140
1.0
102
RTVSPost2010PropOp56
 70
     1
102
RTVSPost2010Prop57
140
1.0
102
RTVSPost2010PropOp57
 70
     1
  0
XRECORD
  5
15D
102
{ACAD_REACTORS
330
15C
102
}
330
15C
100
AcDbXrecord
280
     1
102
RTVSPost2010Prop28
280
     0
102
RTVSPost2010PropOp28
 70
     1
102
RTVSPost2010Prop29
280
     1
102
RTVSPost2010PropOp29
 70
     1
102
RTVSPost2010Prop30
280
     1
102
RTVSPost2010PropOp30
 70
     1
102
RTVSPost2010Prop31
280
     0
102
RTVSPost2010PropOp31
 70
     1
102
RTVSPost2010Prop32
280
     0
102
RTVSPost2010PropOp32
 70
     1
102
RTVSPost2010Prop33
280
     0
102
RTVSPost2010PropOp33
 70
     1
102
RTVSPost2010Prop34
280
     0
102
RTVSPost2010PropOp34
 70
     1
102
RTVSPost2010Prop35
280
     0
102
RTVSPost2010PropOp35
 70
     1
102
RTVSPost2010Prop36
280
     0
102
RTVSPost2010PropOp36
 70
     1
102
RTVSPost2010Prop37
 90
       50
102
RTVSPost2010PropOp37
 70
     1
102
RTVSPost2010Prop38
140
0.0
102
RTVSPost2010PropOp38
 70
     1
102
RTVSPost2010Prop39
140
1.0
102
RTVSPost2010PropOp39
 70
     1
102
RTVSPost2010Prop40
 90
        0
102
RTVSPost2010PropOp40
 70
     1
102
RTVSPost2010Prop41ColorIndex
 90
       18
102
RTVSPost2010Prop41ColorRGB
 90
        0
102
RTVSPost2010PropOp41
 70
     1
102
RTVSPost2010Prop42
 90
       50
102
RTVSPost2010PropOp42
 70
     1
102
RTVSPost2010Prop43
 90
        3
102
RTVSPost2010PropOp43
 70
     1
102
RTVSPost2010Prop44ColorIndex
 90
        5
102
RTVSPost2010Prop44ColorRGB
 90
      255
102
RTVSPost2010PropOp44
 70
     1
102
RTVSPost2010Prop45
280
     0
102
RTVSPost2010PropOp45
 70
     1
102
RTVSPost2010Prop46
 90
       50
102
RTVSPost2010PropOp46
 70
     1
102
RTVSPost2010Prop47
 90
       50
102
RTVSPost2010PropOp47
 70
     1
102
RTVSPost2010Prop48
 90
       50
102
RTVSPost2010PropOp48
 70
     1
102
RTVSPost2010Prop49
280
     0
102
RTVSPost2010PropOp49
 70
     1
102
RTVSPost2010Prop50
 90
       50
102
RTVSPost2010PropOp50
 70
     1
102
RTVSPost2010Prop51ColorIndex
 90
      256
102
RTVSPost2010Prop51ColorRGB
 90
-16777216
102
RTVSPost2010PropOp51
 70
     0
102
RTVSPost2010Prop52
140
1.0
102
RTVSPost2010PropOp52
 70
     0
102
RTVSPost2010Prop53
 90
        2
102
RTVSPost2010PropOp53
 70
     1
102
RTVSPost2010Prop54
  1
strokes_ogs.tif
102
RTVSPost2010PropOp54
 70
     1
102
RTVSPost2010Prop55
280
     0
102
RTVSPost2010PropOp55
 70
     1
102
RTVSPost2010Prop56
140
1.0
102
RTVSPost2010PropOp56
 70
     1
102
RTVSPost2010Prop57
140
1.0
102
RTVSPost2010PropOp57
 70
     1
  0
XRECORD
  5
15F
102
{ACAD_REACTORS
330
15E
102
}
330
15E
100
AcDbXrecord
280
     1
102
RTVSPost2010Prop28
280
     0
102
RTVSPost2010PropOp28
 70
     1
102
RTVSPost2010Prop29
280
     1
102
RTVSPost2010PropOp29
 70
     1
102
RTVSPost2010Prop30
280
     1
102
RTVSPost2010PropOp30
 70
     1
102
RTVSPost2010Prop31
280
     0
102
RTVSPost2010PropOp31
 70
     1
102
RTVSPost2010Prop32
280
     0
102
RTVSPost2010PropOp32
 70
     1
102
RTVSPost2010Prop33
280
     0
102
RTVSPost2010PropOp33
 70
     1
102
RTVSPost2010Prop34
280
     0
102
RTVSPost2010PropOp34
 70
     1
102
RTVSPost2010Prop35
280
     0
102
RTVSPost2010PropOp35
 70
     1
102
RTVSPost2010Prop36
280
     0
102
RTVSPost2010PropOp36
 70
     1
102
RTVSPost2010Prop37
 90
       50
102
RTVSPost2010PropOp37
 70
     1
102
RTVSPost2010Prop38
140
0.0
102
RTVSPost2010PropOp38
 70
     1
102
RTVSPost2010Prop39
140
1.0
102
RTVSPost2010PropOp39
 70
     1
102
RTVSPost2010Prop40
 90
        0
102
RTVSPost2010PropOp40
 70
     1
102
RTVSPost2010Prop41ColorIndex
 90
       18
102
RTVSPost2010Prop41ColorRGB
 90
        0
102
RTVSPost2010PropOp41
 70
     1
102
RTVSPost2010Prop42
 90
       50
102
RTVSPost2010PropOp42
 70
     1
102
RTVSPost2010Prop43
 90
        3
102
RTVSPost2010PropOp43
 70
     1
102
RTVSPost2010Prop44ColorIndex
 90
        5
102
RTVSPost2010Prop44ColorRGB
 90
      255
102
RTVSPost2010PropOp44
 70
     1
102
RTVSPost2010Prop45
280
     0
102
RTVSPost2010PropOp45
 70
     1
102
RTVSPost2010Prop46
 90
       50
102
RTVSPost2010PropOp46
 70
     1
102
RTVSPost2010Prop47
 90
       50
102
RTVSPost2010PropOp47
 70
     1
102
RTVSPost2010Prop48
 90
       50
102
RTVSPost2010PropOp48
 70
     1
102
RTVSPost2010Prop49
280
     0
102
RTVSPost2010PropOp49
 70
     1
102
RTVSPost2010Prop50
 90
       50
102
RTVSPost2010PropOp50
 70
     1
102
RTVSPost2010Prop51ColorIndex
 90
      256
102
RTVSPost2010Prop51ColorRGB
 90
-16777216
102
RTVSPost2010PropOp51
 70
     0
102
RTVSPost2010Prop52
140
1.0
102
RTVSPost2010PropOp52
 70
     0
102
RTVSPost2010Prop53
 90
        2
102
RTVSPost2010PropOp53
 70
     1
102
RTVSPost2010Prop54
  1
strokes_ogs.tif
102
RTVSPost2010PropOp54
 70
     1
102
RTVSPost2010Prop55
280
     0
102
RTVSPost2010PropOp55
 70
     1
102
RTVSPost2010Prop56
140
1.0
102
RTVSPost2010PropOp56
 70
     1
102
RTVSPost2010Prop57
140
1.0
102
RTVSPost2010PropOp57
 70
     1
  0
XRECORD
  5
165
102
{ACAD_REACTORS
330
164
102
}
330
164
100
AcDbXrecord
280
     1
102
RTVSPost2010Prop28
280
     0
102
RTVSPost2010PropOp28
 70
     1
102
RTVSPost2010Prop29
280
     1
102
RTVSPost2010PropOp29
 70
     1
102
RTVSPost2010Prop30
280
     1
102
RTVSPost2010PropOp30
 70
     1
102
RTVSPost2010Prop31
280
     0
102
RTVSPost2010PropOp31
 70
     1
102
RTVSPost2010Prop32
280
     0
102
RTVSPost2010PropOp32
 70
     1
102
RTVSPost2010Prop33
280
     0
102
RTVSPost2010PropOp33
 70
     1
102
RTVSPost2010Prop34
280
     0
102
RTVSPost2010PropOp34
 70
     1
102
RTVSPost2010Prop35
280
     0
102
RTVSPost2010PropOp35
 70
     1
102
RTVSPost2010Prop36
280
     0
102
RTVSPost2010PropOp36
 70
     1
102
RTVSPost2010Prop37
 90
       50
102
RTVSPost2010PropOp37
 70
     1
102
RTVSPost2010Prop38
140
0.0
102
RTVSPost2010PropOp38
 70
     1
102
RTVSPost2010Prop39
140
1.0
102
RTVSPost2010PropOp39
 70
     1
102
RTVSPost2010Prop40
 90
        0
102
RTVSPost2010PropOp40
 70
     1
102
RTVSPost2010Prop41ColorIndex
 90
       18
102
RTVSPost2010Prop41ColorRGB
 90
        0
102
RTVSPost2010PropOp41
 70
     1
102
RTVSPost2010Prop42
 90
       50
102
RTVSPost2010PropOp42
 70
     1
102
RTVSPost2010Prop43
 90
        3
102
RTVSPost2010PropOp43
 70
     1
102
RTVSPost2010Prop44ColorIndex
 90
        5
102
RTVSPost2010Prop44ColorRGB
 90
      255
102
RTVSPost2010PropOp44
 70
     1
102
RTVSPost2010Prop45
280
     0
102
RTVSPost2010PropOp45
 70
     1
102
RTVSPost2010Prop46
 90
       50
102
RTVSPost2010PropOp46
 70
     1
102
RTVSPost2010Prop47
 90
       50
102
RTVSPost2010PropOp47
 70
     1
102
RTVSPost2010Prop48
 90
       50
102
RTVSPost2010PropOp48
 70
     1
102
RTVSPost2010Prop49
280
     0
102
RTVSPost2010PropOp49
 70
     1
102
RTVSPost2010Prop50
 90
       50
102
RTVSPost2010PropOp50
 70
     1
102
RTVSPost2010Prop51ColorIndex
 90
      256
102
RTVSPost2010Prop51ColorRGB
 90
-16777216
102
RTVSPost2010PropOp51
 70
     0
102
RTVSPost2010Prop52
140
1.0
102
RTVSPost2010PropOp52
 70
     0
102
RTVSPost2010Prop53
 90
        2
102
RTVSPost2010PropOp53
 70
     1
102
RTVSPost2010Prop54
  1
strokes_ogs.tif
102
RTVSPost2010PropOp54
 70
     1
102
RTVSPost2010Prop55
280
     0
102
RTVSPost2010PropOp55
 70
     1
102
RTVSPost2010Prop56
140
1.0
102
RTVSPost2010PropOp56
 70
     1
102
RTVSPost2010Prop57
140
1.0
102
RTVSPost2010PropOp57
 70
     1
  0
XRECORD
  5
179
102
{ACAD_REACTORS
330
178
102
}
330
178
100
AcDbXrecord
280
     1
102
RTVSPost2010Prop28
280
     0
102
RTVSPost2010PropOp28
 70
     0
102
RTVSPost2010Prop29
280
     1
102
RTVSPost2010PropOp29
 70
     0
102
RTVSPost2010Prop30
280
     1
102
RTVSPost2010PropOp30
 70
     0
102
RTVSPost2010Prop31
280
     0
102
RTVSPost2010PropOp31
 70
     0
102
RTVSPost2010Prop32
280
     0
102
RTVSPost2010PropOp32
 70
     0
102
RTVSPost2010Prop33
280
     0
102
RTVSPost2010PropOp33
 70
     0
102
RTVSPost2010Prop34
280
     0
102
RTVSPost2010PropOp34
 70
     0
102
RTVSPost2010Prop35
280
     0
102
RTVSPost2010PropOp35
 70
     0
102
RTVSPost2010Prop36
280
     0
102
RTVSPost2010PropOp36
 70
     0
102
RTVSPost2010Prop37
 90
       50
102
RTVSPost2010PropOp37
 70
     0
102
RTVSPost2010Prop38
140
0.0
102
RTVSPost2010PropOp38
 70
     0
102
RTVSPost2010Prop39
140
1.0
102
RTVSPost2010PropOp39
 70
     0
102
RTVSPost2010Prop40
 90
        0
102
RTVSPost2010PropOp40
 70
     0
102
RTVSPost2010Prop41ColorIndex
 90
       18
102
RTVSPost2010Prop41ColorRGB
 90
        0
102
RTVSPost2010PropOp41
 70
     0
102
RTVSPost2010Prop42
 90
       50
102
RTVSPost2010PropOp42
 70
     0
102
RTVSPost2010Prop43
 90
        3
102
RTVSPost2010PropOp43
 70
     0
102
RTVSPost2010Prop44ColorIndex
 90
        5
102
RTVSPost2010Prop44ColorRGB
 90
      255
102
RTVSPost2010PropOp44
 70
     0
102
RTVSPost2010Prop45
280
     0
102
RTVSPost2010PropOp45
 70
     0
102
RTVSPost2010Prop46
 90
       50
102
RTVSPost2010PropOp46
 70
     0
102
RTVSPost2010Prop47
 90
       50
102
RTVSPost2010PropOp47
 70
     0
102
RTVSPost2010Prop48
 90
       50
102
RTVSPost2010PropOp48
 70
     0
102
RTVSPost2010Prop49
280
     0
102
RTVSPost2010PropOp49
 70
     0
102
RTVSPost2010Prop50
 90
       50
102
RTVSPost2010PropOp50
 70
     0
102
RTVSPost2010Prop51ColorIndex
 90
      256
102
RTVSPost2010Prop51ColorRGB
 90
-16777216
102
RTVSPost2010PropOp51
 70
     0
102
RTVSPost2010Prop52
140
1.0
102
RTVSPost2010PropOp52
 70
     0
102
RTVSPost2010Prop53
 90
        2
102
RTVSPost2010PropOp53
 70
     0
102
RTVSPost2010Prop54
  1
strokes_ogs.tif
102
RTVSPost2010PropOp54
 70
     0
102
RTVSPost2010Prop55
280
     0
102
RTVSPost2010PropOp55
 70
     0
102
RTVSPost2010Prop56
140
1.0
102
RTVSPost2010PropOp56
 70
     0
102
RTVSPost2010Prop57
140
1.0
102
RTVSPost2010PropOp57
 70
     0
  0
XRECORD
  5
173
102
{ACAD_REACTORS
330
172
102
}
330
172
100
AcDbXrecord
280
     1
102
RTVSPost2010Prop28
280
     0
102
RTVSPost2010PropOp28
 70
     1
102
RTVSPost2010Prop29
280
     1
102
RTVSPost2010PropOp29
 70
     1
102
RTVSPost2010Prop30
280
     1
102
RTVSPost2010PropOp30
 70
     1
102
RTVSPost2010Prop31
280
     0
102
RTVSPost2010PropOp31
 70
     1
102
RTVSPost2010Prop32
280
     0
102
RTVSPost2010PropOp32
 70
     1
102
RTVSPost2010Prop33
280
     0
102
RTVSPost2010PropOp33
 70
     1
102
RTVSPost2010Prop34
280
     0
102
RTVSPost2010PropOp34
 70
     1
102
RTVSPost2010Prop35
280
     0
102
RTVSPost2010PropOp35
 70
     1
102
RTVSPost2010Prop36
280
     0
102
RTVSPost2010PropOp36
 70
     1
102
RTVSPost2010Prop37
 90
       50
102
RTVSPost2010PropOp37
 70
     1
102
RTVSPost2010Prop38
140
0.0
102
RTVSPost2010PropOp38
 70
     1
102
RTVSPost2010Prop39
140
1.0
102
RTVSPost2010PropOp39
 70
     1
102
RTVSPost2010Prop40
 90
        0
102
RTVSPost2010PropOp40
 70
     1
102
RTVSPost2010Prop41ColorIndex
 90
       18
102
RTVSPost2010Prop41ColorRGB
 90
        0
102
RTVSPost2010PropOp41
 70
     1
102
RTVSPost2010Prop42
 90
       50
102
RTVSPost2010PropOp42
 70
     1
102
RTVSPost2010Prop43
 90
        3
102
RTVSPost2010PropOp43
 70
     1
102
RTVSPost2010Prop44ColorIndex
 90
        5
102
RTVSPost2010Prop44ColorRGB
 90
      255
102
RTVSPost2010PropOp44
 70
     1
102
RTVSPost2010Prop45
280
     0
102
RTVSPost2010PropOp45
 70
     1
102
RTVSPost2010Prop46
 90
       50
102
RTVSPost2010PropOp46
 70
     1
102
RTVSPost2010Prop47
 90
       50
102
RTVSPost2010PropOp47
 70
     1
102
RTVSPost2010Prop48
 90
       50
102
RTVSPost2010PropOp48
 70
     1
102
RTVSPost2010Prop49
280
     0
102
RTVSPost2010PropOp49
 70
     1
102
RTVSPost2010Prop50
 90
       50
102
RTVSPost2010PropOp50
 70
     1
102
RTVSPost2010Prop51ColorIndex
 90
      256
102
RTVSPost2010Prop51ColorRGB
 90
-16777216
102
RTVSPost2010PropOp51
 70
     0
102
RTVSPost2010Prop52
140
1.0
102
RTVSPost2010PropOp52
 70
     0
102
RTVSPost2010Prop53
 90
        2
102
RTVSPost2010PropOp53
 70
     1
102
RTVSPost2010Prop54
  1
strokes_ogs.tif
102
RTVSPost2010PropOp54
 70
     1
102
RTVSPost2010Prop55
280
     0
102
RTVSPost2010PropOp55
 70
     1
102
RTVSPost2010Prop56
140
1.0
102
RTVSPost2010PropOp56
 70
     1
102
RTVSPost2010Prop57
140
1.0
102
RTVSPost2010PropOp57
 70
     1
  0
XRECORD
  5
17B
102
{ACAD_REACTORS
330
17A
102
}
330
17A
100
AcDbXrecord
280
     1
102
RTVSPost2010Prop28
280
     0
102
RTVSPost2010PropOp28
 70
     0
102
RTVSPost2010Prop29
280
     1
102
RTVSPost2010PropOp29
 70
     0
102
RTVSPost2010Prop30
280
     1
102
RTVSPost2010PropOp30
 70
     0
102
RTVSPost2010Prop31
280
     0
102
RTVSPost2010PropOp31
 70
     0
102
RTVSPost2010Prop32
280
     0
102
RTVSPost2010PropOp32
 70
     0
102
RTVSPost2010Prop33
280
     0
102
RTVSPost2010PropOp33
 70
     0
102
RTVSPost2010Prop34
280
     0
102
RTVSPost2010PropOp34
 70
     0
102
RTVSPost2010Prop35
280
     0
102
RTVSPost2010PropOp35
 70
     0
102
RTVSPost2010Prop36
280
     0
102
RTVSPost2010PropOp36
 70
     0
102
RTVSPost2010Prop37
 90
       50
102
RTVSPost2010PropOp37
 70
     0
102
RTVSPost2010Prop38
140
0.0
102
RTVSPost2010PropOp38
 70
     0
102
RTVSPost2010Prop39
140
1.0
102
RTVSPost2010PropOp39
 70
     0
102
RTVSPost2010Prop40
 90
        0
102
RTVSPost2010PropOp40
 70
     0
102
RTVSPost2010Prop41ColorIndex
 90
       18
102
RTVSPost2010Prop41ColorRGB
 90
        0
102
RTVSPost2010PropOp41
 70
     0
102
RTVSPost2010Prop42
 90
       50
102
RTVSPost2010PropOp42
 70
     0
102
RTVSPost2010Prop43
 90
        3
102
RTVSPost2010PropOp43
 70
     0
102
RTVSPost2010Prop44ColorIndex
 90
        5
102
RTVSPost2010Prop44ColorRGB
 90
      255
102
RTVSPost2010PropOp44
 70
     0
102
RTVSPost2010Prop45
280
     0
102
RTVSPost2010PropOp45
 70
     0
102
RTVSPost2010Prop46
 90
       50
102
RTVSPost2010PropOp46
 70
     0
102
RTVSPost2010Prop47
 90
       50
102
RTVSPost2010PropOp47
 70
     0
102
RTVSPost2010Prop48
 90
       50
102
RTVSPost2010PropOp48
 70
     0
102
RTVSPost2010Prop49
280
     0
102
RTVSPost2010PropOp49
 70
     0
102
RTVSPost2010Prop50
 90
       50
102
RTVSPost2010PropOp50
 70
     0
102
RTVSPost2010Prop51ColorIndex
 90
      256
102
RTVSPost2010Prop51ColorRGB
 90
-16777216
102
RTVSPost2010PropOp51
 70
     0
102
RTVSPost2010Prop52
140
1.0
102
RTVSPost2010PropOp52
 70
     0
102
RTVSPost2010Prop53
 90
        2
102
RTVSPost2010PropOp53
 70
     0
102
RTVSPost2010Prop54
  1
strokes_ogs.tif
102
RTVSPost2010PropOp54
 70
     0
102
RTVSPost2010Prop55
280
     0
102
RTVSPost2010PropOp55
 70
     0
102
RTVSPost2010Prop56
140
1.0
102
RTVSPost2010PropOp56
 70
     0
102
RTVSPost2010Prop57
140
1.0
102
RTVSPost2010PropOp57
 70
     0
  0
XRECORD
  5
169
102
{ACAD_REACTORS
330
168
102
}
330
168
100
AcDbXrecord
280
     1
102
RTVSPost2010Prop28
280
     0
102
RTVSPost2010PropOp28
 70
     1
102
RTVSPost2010Prop29
280
     1
102
RTVSPost2010PropOp29
 70
     1
102
RTVSPost2010Prop30
280
     1
102
RTVSPost2010PropOp30
 70
     1
102
RTVSPost2010Prop31
280
     0
102
RTVSPost2010PropOp31
 70
     1
102
RTVSPost2010Prop32
280
     0
102
RTVSPost2010PropOp32
 70
     1
102
RTVSPost2010Prop33
280
     0
102
RTVSPost2010PropOp33
 70
     1
102
RTVSPost2010Prop34
280
     0
102
RTVSPost2010PropOp34
 70
     1
102
RTVSPost2010Prop35
280
     0
102
RTVSPost2010PropOp35
 70
     1
102
RTVSPost2010Prop36
280
     0
102
RTVSPost2010PropOp36
 70
     1
102
RTVSPost2010Prop37
 90
       50
102
RTVSPost2010PropOp37
 70
     1
102
RTVSPost2010Prop38
140
0.0
102
RTVSPost2010PropOp38
 70
     1
102
RTVSPost2010Prop39
140
1.0
102
RTVSPost2010PropOp39
 70
     1
102
RTVSPost2010Prop40
 90
        0
102
RTVSPost2010PropOp40
 70
     1
102
RTVSPost2010Prop41ColorIndex
 90
       18
102
RTVSPost2010Prop41ColorRGB
 90
        0
102
RTVSPost2010PropOp41
 70
     1
102
RTVSPost2010Prop42
 90
       50
102
RTVSPost2010PropOp42
 70
     1
102
RTVSPost2010Prop43
 90
        3
102
RTVSPost2010PropOp43
 70
     1
102
RTVSPost2010Prop44ColorIndex
 90
        5
102
RTVSPost2010Prop44ColorRGB
 90
      255
102
RTVSPost2010PropOp44
 70
     1
102
RTVSPost2010Prop45
280
     0
102
RTVSPost2010PropOp45
 70
     1
102
RTVSPost2010Prop46
 90
       50
102
RTVSPost2010PropOp46
 70
     1
102
RTVSPost2010Prop47
 90
       50
102
RTVSPost2010PropOp47
 70
     1
102
RTVSPost2010Prop48
 90
       50
102
RTVSPost2010PropOp48
 70
     1
102
RTVSPost2010Prop49
280
     0
102
RTVSPost2010PropOp49
 70
     1
102
RTVSPost2010Prop50
 90
       50
102
RTVSPost2010PropOp50
 70
     1
102
RTVSPost2010Prop51ColorIndex
 90
      256
102
RTVSPost2010Prop51ColorRGB
 90
-16777216
102
RTVSPost2010PropOp51
 70
     0
102
RTVSPost2010Prop52
140
1.0
102
RTVSPost2010PropOp52
 70
     0
102
RTVSPost2010Prop53
 90
        2
102
RTVSPost2010PropOp53
 70
     1
102
RTVSPost2010Prop54
  1
strokes_ogs.tif
102
RTVSPost2010PropOp54
 70
     1
102
RTVSPost2010Prop55
280
     0
102
RTVSPost2010PropOp55
 70
     1
102
RTVSPost2010Prop56
140
1.0
102
RTVSPost2010PropOp56
 70
     1
102
RTVSPost2010Prop57
140
1.0
102
RTVSPost2010PropOp57
 70
     1
  0
XRECORD
  5
187
102
{ACAD_REACTORS
330
186
102
}
330
186
100
AcDbXrecord
280
     1
102
RTVSPost2010Prop28
280
     0
102
RTVSPost2010PropOp28
 70
     1
102
RTVSPost2010Prop29
280
     1
102
RTVSPost2010PropOp29
 70
     1
102
RTVSPost2010Prop30
280
     1
102
RTVSPost2010PropOp30
 70
     1
102
RTVSPost2010Prop31
280
     0
102
RTVSPost2010PropOp31
 70
     1
102
RTVSPost2010Prop32
280
     0
102
RTVSPost2010PropOp32
 70
     1
102
RTVSPost2010Prop33
280
     0
102
RTVSPost2010PropOp33
 70
     1
102
RTVSPost2010Prop34
280
     0
102
RTVSPost2010PropOp34
 70
     1
102
RTVSPost2010Prop35
280
     0
102
RTVSPost2010PropOp35
 70
     1
102
RTVSPost2010Prop36
280
     0
102
RTVSPost2010PropOp36
 70
     1
102
RTVSPost2010Prop37
 90
       50
102
RTVSPost2010PropOp37
 70
     1
102
RTVSPost2010Prop38
140
0.0
102
RTVSPost2010PropOp38
 70
     1
102
RTVSPost2010Prop39
140
1.0
102
RTVSPost2010PropOp39
 70
     1
102
RTVSPost2010Prop40
 90
        0
102
RTVSPost2010PropOp40
 70
     1
102
RTVSPost2010Prop41ColorIndex
 90
       18
102
RTVSPost2010Prop41ColorRGB
 90
        0
102
RTVSPost2010PropOp41
 70
     1
102
RTVSPost2010Prop42
 90
       50
102
RTVSPost2010PropOp42
 70
     1
102
RTVSPost2010Prop43
 90
        3
102
RTVSPost2010PropOp43
 70
     1
102
RTVSPost2010Prop44ColorIndex
 90
        5
102
RTVSPost2010Prop44ColorRGB
 90
      255
102
RTVSPost2010PropOp44
 70
     1
102
RTVSPost2010Prop45
280
     0
102
RTVSPost2010PropOp45
 70
     1
102
RTVSPost2010Prop46
 90
       50
102
RTVSPost2010PropOp46
 70
     1
102
RTVSPost2010Prop47
 90
       50
102
RTVSPost2010PropOp47
 70
     1
102
RTVSPost2010Prop48
 90
       50
102
RTVSPost2010PropOp48
 70
     1
102
RTVSPost2010Prop49
280
     0
102
RTVSPost2010PropOp49
 70
     1
102
RTVSPost2010Prop50
 90
       50
102
RTVSPost2010PropOp50
 70
     1
102
RTVSPost2010Prop51ColorIndex
 90
      256
102
RTVSPost2010Prop51ColorRGB
 90
-16777216
102
RTVSPost2010PropOp51
 70
     0
102
RTVSPost2010Prop52
140
1.0
102
RTVSPost2010PropOp52
 70
     0
102
RTVSPost2010Prop53
 90
        2
102
RTVSPost2010PropOp53
 70
     1
102
RTVSPost2010Prop54
  1
strokes_ogs.tif
102
RTVSPost2010PropOp54
 70
     1
102
RTVSPost2010Prop55
280
     0
102
RTVSPost2010PropOp55
 70
     1
102
RTVSPost2010Prop56
140
1.0
102
RTVSPost2010PropOp56
 70
     1
102
RTVSPost2010Prop57
140
1.0
102
RTVSPost2010PropOp57
 70
     1
  0
XRECORD
  5
185
102
{ACAD_REACTORS
330
184
102
}
330
184
100
AcDbXrecord
280
     1
102
RTVSPost2010Prop28
280
     0
102
RTVSPost2010PropOp28
 70
     1
102
RTVSPost2010Prop29
280
     1
102
RTVSPost2010PropOp29
 70
     1
102
RTVSPost2010Prop30
280
     1
102
RTVSPost2010PropOp30
 70
     1
102
RTVSPost2010Prop31
280
     0
102
RTVSPost2010PropOp31
 70
     1
102
RTVSPost2010Prop32
280
     0
102
RTVSPost2010PropOp32
 70
     1
102
RTVSPost2010Prop33
280
     0
102
RTVSPost2010PropOp33
 70
     1
102
RTVSPost2010Prop34
280
     0
102
RTVSPost2010PropOp34
 70
     1
102
RTVSPost2010Prop35
280
     0
102
RTVSPost2010PropOp35
 70
     1
102
RTVSPost2010Prop36
280
     0
102
RTVSPost2010PropOp36
 70
     1
102
RTVSPost2010Prop37
 90
       50
102
RTVSPost2010PropOp37
 70
     1
102
RTVSPost2010Prop38
140
0.0
102
RTVSPost2010PropOp38
 70
     1
102
RTVSPost2010Prop39
140
1.0
102
RTVSPost2010PropOp39
 70
     1
102
RTVSPost2010Prop40
 90
        0
102
RTVSPost2010PropOp40
 70
     1
102
RTVSPost2010Prop41ColorIndex
 90
       18
102
RTVSPost2010Prop41ColorRGB
 90
        0
102
RTVSPost2010PropOp41
 70
     1
102
RTVSPost2010Prop42
 90
       50
102
RTVSPost2010PropOp42
 70
     1
102
RTVSPost2010Prop43
 90
        3
102
RTVSPost2010PropOp43
 70
     1
102
RTVSPost2010Prop44ColorIndex
 90
        5
102
RTVSPost2010Prop44ColorRGB
 90
      255
102
RTVSPost2010PropOp44
 70
     1
102
RTVSPost2010Prop45
280
     0
102
RTVSPost2010PropOp45
 70
     1
102
RTVSPost2010Prop46
 90
       50
102
RTVSPost2010PropOp46
 70
     1
102
RTVSPost2010Prop47
 90
       50
102
RTVSPost2010PropOp47
 70
     1
102
RTVSPost2010Prop48
 90
       50
102
RTVSPost2010PropOp48
 70
     1
102
RTVSPost2010Prop49
280
     0
102
RTVSPost2010PropOp49
 70
     1
102
RTVSPost2010Prop50
 90
       50
102
RTVSPost2010PropOp50
 70
     1
102
RTVSPost2010Prop51ColorIndex
 90
      256
102
RTVSPost2010Prop51ColorRGB
 90
-16777216
102
RTVSPost2010PropOp51
 70
     0
102
RTVSPost2010Prop52
140
1.0
102
RTVSPost2010PropOp52
 70
     0
102
RTVSPost2010Prop53
 90
        2
102
RTVSPost2010PropOp53
 70
     1
102
RTVSPost2010Prop54
  1
strokes_ogs.tif
102
RTVSPost2010PropOp54
 70
     1
102
RTVSPost2010Prop55
280
     0
102
RTVSPost2010PropOp55
 70
     1
102
RTVSPost2010Prop56
140
1.0
102
RTVSPost2010PropOp56
 70
     1
102
RTVSPost2010Prop57
140
1.0
102
RTVSPost2010PropOp57
 70
     1
  0
XRECORD
  5
17F
102
{ACAD_REACTORS
330
17E
102
}
330
17E
100
AcDbXrecord
280
     1
102
RTVSPost2010Prop28
280
     0
102
RTVSPost2010PropOp28
 70
     1
102
RTVSPost2010Prop29
280
     1
102
RTVSPost2010PropOp29
 70
     1
102
RTVSPost2010Prop30
280
     1
102
RTVSPost2010PropOp30
 70
     1
102
RTVSPost2010Prop31
280
     0
102
RTVSPost2010PropOp31
 70
     1
102
RTVSPost2010Prop32
280
     0
102
RTVSPost2010PropOp32
 70
     1
102
RTVSPost2010Prop33
280
     0
102
RTVSPost2010PropOp33
 70
     1
102
RTVSPost2010Prop34
280
     0
102
RTVSPost2010PropOp34
 70
     1
102
RTVSPost2010Prop35
280
     0
102
RTVSPost2010PropOp35
 70
     1
102
RTVSPost2010Prop36
280
     0
102
RTVSPost2010PropOp36
 70
     1
102
RTVSPost2010Prop37
 90
       50
102
RTVSPost2010PropOp37
 70
     1
102
RTVSPost2010Prop38
140
0.0
102
RTVSPost2010PropOp38
 70
     1
102
RTVSPost2010Prop39
140
1.0
102
RTVSPost2010PropOp39
 70
     1
102
RTVSPost2010Prop40
 90
        0
102
RTVSPost2010PropOp40
 70
     1
102
RTVSPost2010Prop41ColorIndex
 90
       18
102
RTVSPost2010Prop41ColorRGB
 90
        0
102
RTVSPost2010PropOp41
 70
     1
102
RTVSPost2010Prop42
 90
       50
102
RTVSPost2010PropOp42
 70
     1
102
RTVSPost2010Prop43
 90
        3
102
RTVSPost2010PropOp43
 70
     1
102
RTVSPost2010Prop44ColorIndex
 90
        5
102
RTVSPost2010Prop44ColorRGB
 90
      255
102
RTVSPost2010PropOp44
 70
     1
102
RTVSPost2010Prop45
280
     0
102
RTVSPost2010PropOp45
 70
     1
102
RTVSPost2010Prop46
 90
       50
102
RTVSPost2010PropOp46
 70
     1
102
RTVSPost2010Prop47
 90
       50
102
RTVSPost2010PropOp47
 70
     1
102
RTVSPost2010Prop48
 90
       50
102
RTVSPost2010PropOp48
 70
     1
102
RTVSPost2010Prop49
280
     0
102
RTVSPost2010PropOp49
 70
     1
102
RTVSPost2010Prop50
 90
       50
102
RTVSPost2010PropOp50
 70
     1
102
RTVSPost2010Prop51ColorIndex
 90
      256
102
RTVSPost2010Prop51ColorRGB
 90
-16777216
102
RTVSPost2010PropOp51
 70
     0
102
RTVSPost2010Prop52
140
1.0
102
RTVSPost2010PropOp52
 70
     0
102
RTVSPost2010Prop53
 90
        2
102
RTVSPost2010PropOp53
 70
     1
102
RTVSPost2010Prop54
  1
strokes_ogs.tif
102
RTVSPost2010PropOp54
 70
     1
102
RTVSPost2010Prop55
280
     0
102
RTVSPost2010PropOp55
 70
     1
102
RTVSPost2010Prop56
140
1.0
102
RTVSPost2010PropOp56
 70
     1
102
RTVSPost2010Prop57
140
1.0
102
RTVSPost2010PropOp57
 70
     1
  0
XRECORD
  5
181
102
{ACAD_REACTORS
330
180
102
}
330
180
100
AcDbXrecord
280
     1
102
RTVSPost2010Prop28
280
     0
102
RTVSPost2010PropOp28
 70
     1
102
RTVSPost2010Prop29
280
     1
102
RTVSPost2010PropOp29
 70
     1
102
RTVSPost2010Prop30
280
     1
102
RTVSPost2010PropOp30
 70
     1
102
RTVSPost2010Prop31
280
     0
102
RTVSPost2010PropOp31
 70
     1
102
RTVSPost2010Prop32
280
     0
102
RTVSPost2010PropOp32
 70
     1
102
RTVSPost2010Prop33
280
     0
102
RTVSPost2010PropOp33
 70
     1
102
RTVSPost2010Prop34
280
     0
102
RTVSPost2010PropOp34
 70
     1
102
RTVSPost2010Prop35
280
     0
102
RTVSPost2010PropOp35
 70
     1
102
RTVSPost2010Prop36
280
     0
102
RTVSPost2010PropOp36
 70
     1
102
RTVSPost2010Prop37
 90
       50
102
RTVSPost2010PropOp37
 70
     1
102
RTVSPost2010Prop38
140
0.0
102
RTVSPost2010PropOp38
 70
     1
102
RTVSPost2010Prop39
140
1.0
102
RTVSPost2010PropOp39
 70
     1
102
RTVSPost2010Prop40
 90
        0
102
RTVSPost2010PropOp40
 70
     1
102
RTVSPost2010Prop41ColorIndex
 90
       18
102
RTVSPost2010Prop41ColorRGB
 90
        0
102
RTVSPost2010PropOp41
 70
     1
102
RTVSPost2010Prop42
 90
       50
102
RTVSPost2010PropOp42
 70
     1
102
RTVSPost2010Prop43
 90
        3
102
RTVSPost2010PropOp43
 70
     1
102
RTVSPost2010Prop44ColorIndex
 90
        5
102
RTVSPost2010Prop44ColorRGB
 90
      255
102
RTVSPost2010PropOp44
 70
     1
102
RTVSPost2010Prop45
280
     0
102
RTVSPost2010PropOp45
 70
     1
102
RTVSPost2010Prop46
 90
       50
102
RTVSPost2010PropOp46
 70
     1
102
RTVSPost2010Prop47
 90
       50
102
RTVSPost2010PropOp47
 70
     1
102
RTVSPost2010Prop48
 90
       50
102
RTVSPost2010PropOp48
 70
     1
102
RTVSPost2010Prop49
280
     0
102
RTVSPost2010PropOp49
 70
     1
102
RTVSPost2010Prop50
 90
       50
102
RTVSPost2010PropOp50
 70
     1
102
RTVSPost2010Prop51ColorIndex
 90
      256
102
RTVSPost2010Prop51ColorRGB
 90
-16777216
102
RTVSPost2010PropOp51
 70
     0
102
RTVSPost2010Prop52
140
1.0
102
RTVSPost2010PropOp52
 70
     0
102
RTVSPost2010Prop53
 90
        2
102
RTVSPost2010PropOp53
 70
     1
102
RTVSPost2010Prop54
  1
strokes_ogs.tif
102
RTVSPost2010PropOp54
 70
     1
102
RTVSPost2010Prop55
280
     0
102
RTVSPost2010PropOp55
 70
     1
102
RTVSPost2010Prop56
140
1.0
102
RTVSPost2010PropOp56
 70
     1
102
RTVSPost2010Prop57
140
1.0
102
RTVSPost2010PropOp57
 70
     1
  0
XRECORD
  5
171
102
{ACAD_REACTORS
330
170
102
}
330
170
100
AcDbXrecord
280
     1
102
RTVSPost2010Prop28
280
     0
102
RTVSPost2010PropOp28
 70
     1
102
RTVSPost2010Prop29
280
     1
102
RTVSPost2010PropOp29
 70
     1
102
RTVSPost2010Prop30
280
     1
102
RTVSPost2010PropOp30
 70
     1
102
RTVSPost2010Prop31
280
     0
102
RTVSPost2010PropOp31
 70
     1
102
RTVSPost2010Prop32
280
     0
102
RTVSPost2010PropOp32
 70
     1
102
RTVSPost2010Prop33
280
     0
102
RTVSPost2010PropOp33
 70
     1
102
RTVSPost2010Prop34
280
     0
102
RTVSPost2010PropOp34
 70
     1
102
RTVSPost2010Prop35
280
     0
102
RTVSPost2010PropOp35
 70
     1
102
RTVSPost2010Prop36
280
     0
102
RTVSPost2010PropOp36
 70
     1
102
RTVSPost2010Prop37
 90
       50
102
RTVSPost2010PropOp37
 70
     1
102
RTVSPost2010Prop38
140
0.0
102
RTVSPost2010PropOp38
 70
     1
102
RTVSPost2010Prop39
140
1.0
102
RTVSPost2010PropOp39
 70
     1
102
RTVSPost2010Prop40
 90
        0
102
RTVSPost2010PropOp40
 70
     1
102
RTVSPost2010Prop41ColorIndex
 90
       18
102
RTVSPost2010Prop41ColorRGB
 90
        0
102
RTVSPost2010PropOp41
 70
     1
102
RTVSPost2010Prop42
 90
       50
102
RTVSPost2010PropOp42
 70
     1
102
RTVSPost2010Prop43
 90
        3
102
RTVSPost2010PropOp43
 70
     1
102
RTVSPost2010Prop44ColorIndex
 90
        5
102
RTVSPost2010Prop44ColorRGB
 90
      255
102
RTVSPost2010PropOp44
 70
     1
102
RTVSPost2010Prop45
280
     0
102
RTVSPost2010PropOp45
 70
     1
102
RTVSPost2010Prop46
 90
       50
102
RTVSPost2010PropOp46
 70
     1
102
RTVSPost2010Prop47
 90
       50
102
RTVSPost2010PropOp47
 70
     1
102
RTVSPost2010Prop48
 90
       50
102
RTVSPost2010PropOp48
 70
     1
102
RTVSPost2010Prop49
280
     0
102
RTVSPost2010PropOp49
 70
     1
102
RTVSPost2010Prop50
 90
       50
102
RTVSPost2010PropOp50
 70
     1
102
RTVSPost2010Prop51ColorIndex
 90
      256
102
RTVSPost2010Prop51ColorRGB
 90
-16777216
102
RTVSPost2010PropOp51
 70
     0
102
RTVSPost2010Prop52
140
1.0
102
RTVSPost2010PropOp52
 70
     0
102
RTVSPost2010Prop53
 90
        2
102
RTVSPost2010PropOp53
 70
     1
102
RTVSPost2010Prop54
  1
strokes_ogs.tif
102
RTVSPost2010PropOp54
 70
     1
102
RTVSPost2010Prop55
280
     0
102
RTVSPost2010PropOp55
 70
     1
102
RTVSPost2010Prop56
140
1.0
102
RTVSPost2010PropOp56
 70
     1
102
RTVSPost2010Prop57
140
1.0
102
RTVSPost2010PropOp57
 70
     1
  0
XRECORD
  5
163
102
{ACAD_REACTORS
330
162
102
}
330
162
100
AcDbXrecord
280
     1
102
RTVSPost2010Prop28
280
     0
102
RTVSPost2010PropOp28
 70
     1
102
RTVSPost2010Prop29
280
     1
102
RTVSPost2010PropOp29
 70
     1
102
RTVSPost2010Prop30
280
     1
102
RTVSPost2010PropOp30
 70
     1
102
RTVSPost2010Prop31
280
     0
102
RTVSPost2010PropOp31
 70
     1
102
RTVSPost2010Prop32
280
     0
102
RTVSPost2010PropOp32
 70
     1
102
RTVSPost2010Prop33
280
     0
102
RTVSPost2010PropOp33
 70
     1
102
RTVSPost2010Prop34
280
     0
102
RTVSPost2010PropOp34
 70
     1
102
RTVSPost2010Prop35
280
     0
102
RTVSPost2010PropOp35
 70
     1
102
RTVSPost2010Prop36
280
     0
102
RTVSPost2010PropOp36
 70
     1
102
RTVSPost2010Prop37
 90
       50
102
RTVSPost2010PropOp37
 70
     1
102
RTVSPost2010Prop38
140
0.0
102
RTVSPost2010PropOp38
 70
     1
102
RTVSPost2010Prop39
140
1.0
102
RTVSPost2010PropOp39
 70
     1
102
RTVSPost2010Prop40
 90
        0
102
RTVSPost2010PropOp40
 70
     1
102
RTVSPost2010Prop41ColorIndex
 90
       18
102
RTVSPost2010Prop41ColorRGB
 90
        0
102
RTVSPost2010PropOp41
 70
     1
102
RTVSPost2010Prop42
 90
       50
102
RTVSPost2010PropOp42
 70
     1
102
RTVSPost2010Prop43
 90
        3
102
RTVSPost2010PropOp43
 70
     1
102
RTVSPost2010Prop44ColorIndex
 90
        5
102
RTVSPost2010Prop44ColorRGB
 90
      255
102
RTVSPost2010PropOp44
 70
     1
102
RTVSPost2010Prop45
280
     0
102
RTVSPost2010PropOp45
 70
     1
102
RTVSPost2010Prop46
 90
       50
102
RTVSPost2010PropOp46
 70
     1
102
RTVSPost2010Prop47
 90
       50
102
RTVSPost2010PropOp47
 70
     1
102
RTVSPost2010Prop48
 90
       50
102
RTVSPost2010PropOp48
 70
     1
102
RTVSPost2010Prop49
280
     0
102
RTVSPost2010PropOp49
 70
     1
102
RTVSPost2010Prop50
 90
       50
102
RTVSPost2010PropOp50
 70
     1
102
RTVSPost2010Prop51ColorIndex
 90
      256
102
RTVSPost2010Prop51ColorRGB
 90
-16777216
102
RTVSPost2010PropOp51
 70
     0
102
RTVSPost2010Prop52
140
1.0
102
RTVSPost2010PropOp52
 70
     0
102
RTVSPost2010Prop53
 90
        2
102
RTVSPost2010PropOp53
 70
     1
102
RTVSPost2010Prop54
  1
strokes_ogs.tif
102
RTVSPost2010PropOp54
 70
     1
102
RTVSPost2010Prop55
280
     0
102
RTVSPost2010PropOp55
 70
     1
102
RTVSPost2010Prop56
140
1.0
102
RTVSPost2010PropOp56
 70
     1
102
RTVSPost2010Prop57
140
1.0
102
RTVSPost2010PropOp57
 70
     1
  0
XRECORD
  5
183
102
{ACAD_REACTORS
330
182
102
}
330
182
100
AcDbXrecord
280
     1
102
RTVSPost2010Prop28
280
     0
102
RTVSPost2010PropOp28
 70
     1
102
RTVSPost2010Prop29
280
     1
102
RTVSPost2010PropOp29
 70
     1
102
RTVSPost2010Prop30
280
     1
102
RTVSPost2010PropOp30
 70
     1
102
RTVSPost2010Prop31
280
     0
102
RTVSPost2010PropOp31
 70
     1
102
RTVSPost2010Prop32
280
     0
102
RTVSPost2010PropOp32
 70
     1
102
RTVSPost2010Prop33
280
     0
102
RTVSPost2010PropOp33
 70
     1
102
RTVSPost2010Prop34
280
     0
102
RTVSPost2010PropOp34
 70
     1
102
RTVSPost2010Prop35
280
     0
102
RTVSPost2010PropOp35
 70
     1
102
RTVSPost2010Prop36
280
     0
102
RTVSPost2010PropOp36
 70
     1
102
RTVSPost2010Prop37
 90
       50
102
RTVSPost2010PropOp37
 70
     1
102
RTVSPost2010Prop38
140
0.0
102
RTVSPost2010PropOp38
 70
     1
102
RTVSPost2010Prop39
140
1.0
102
RTVSPost2010PropOp39
 70
     1
102
RTVSPost2010Prop40
 90
        0
102
RTVSPost2010PropOp40
 70
     1
102
RTVSPost2010Prop41ColorIndex
 90
       18
102
RTVSPost2010Prop41ColorRGB
 90
        0
102
RTVSPost2010PropOp41
 70
     1
102
RTVSPost2010Prop42
 90
       50
102
RTVSPost2010PropOp42
 70
     1
102
RTVSPost2010Prop43
 90
        3
102
RTVSPost2010PropOp43
 70
     1
102
RTVSPost2010Prop44ColorIndex
 90
        5
102
RTVSPost2010Prop44ColorRGB
 90
      255
102
RTVSPost2010PropOp44
 70
     1
102
RTVSPost2010Prop45
280
     0
102
RTVSPost2010PropOp45
 70
     1
102
RTVSPost2010Prop46
 90
       50
102
RTVSPost2010PropOp46
 70
     1
102
RTVSPost2010Prop47
 90
       50
102
RTVSPost2010PropOp47
 70
     1
102
RTVSPost2010Prop48
 90
       50
102
RTVSPost2010PropOp48
 70
     1
102
RTVSPost2010Prop49
280
     0
102
RTVSPost2010PropOp49
 70
     1
102
RTVSPost2010Prop50
 90
       50
102
RTVSPost2010PropOp50
 70
     1
102
RTVSPost2010Prop51ColorIndex
 90
      256
102
RTVSPost2010Prop51ColorRGB
 90
-16777216
102
RTVSPost2010PropOp51
 70
     0
102
RTVSPost2010Prop52
140
1.0
102
RTVSPost2010PropOp52
 70
     0
102
RTVSPost2010Prop53
 90
        2
102
RTVSPost2010PropOp53
 70
     1
102
RTVSPost2010Prop54
  1
strokes_ogs.tif
102
RTVSPost2010PropOp54
 70
     1
102
RTVSPost2010Prop55
280
     0
102
RTVSPost2010PropOp55
 70
     1
102
RTVSPost2010Prop56
140
1.0
102
RTVSPost2010PropOp56
 70
     1
102
RTVSPost2010Prop57
140
1.0
102
RTVSPost2010PropOp57
 70
     1
  0
ENDSEC
  0
EOF
