  0
SECTION
  2
HEADER
  9
$ACADVER
  1
AC1024
  9
$ACADMAINTVER
 70
     6
  9
$DWGCODEPAGE
  3
ANSI_1252
  9
$INSBASE
 10
0.0
 20
0.0
 30
0.0
  9
$EXTMIN
 10
1.000000E+20
 20
1.000000E+20
 30
1.000000E+20
  9
$EXTMAX
 10
-1.000000E+20
 20
-1.000000E+20
 30
-1.000000E+20
  9
$LIMMIN
 10
0.0
 20
0.0
  9
$LIMMAX
 10
420.0
 20
297.0
  9
$ORTHOMODE
 70
     0
  9
$REGENMODE
 70
     1
  9
$FILLMODE
 70
     1
  9
$QTEXTMODE
 70
     0
  9
$MIRRTEXT
 70
     1
  9
$LTSCALE
 40
1.0
  9
$ATTMODE
 70
     1
  9
$TEXTSIZE
 40
2.5
  9
$TRACEWID
 40
1.0
  9
$TEXTSTYLE
  7
Standard
  9
$CLAYER
  8
0
  9
$CELTYPE
  6
ByLayer
  9
$CECOLOR
 62
   256
  9
$CELTSCALE
 40
1.0
  9
$DISPSILH
 70
     0
  9
$DIMSCALE
 40
1.0
  9
$DIMASZ
 40
2.5
  9
$DIMEXO
 40
0.625
  9
$DIMDLI
 40
3.75
  9
$DIMRND
 40
0.0
  9
$DIMDLE
 40
0.0
  9
$DIMEXE
 40
1.25
  9
$DIMTP
 40
0.0
  9
$DIMTM
 40
0.0
  9
$DIMTXT
 40
2.5
  9
$DIMCEN
 40
2.5
  9
$DIMTSZ
 40
0.0
  9
$DIMTOL
 70
     0
  9
$DIMLIM
 70
     0
  9
$DIMTIH
 70
     0
  9
$DIMTOH
 70
     0
  9
$DIMSE1
 70
     0
  9
$DIMSE2
 70
     0
  9
$DIMTAD
 70
     1
  9
$DIMZIN
 70
     8
  9
$DIMBLK
  1

  9
$DIMASO
 70
     1
  9
$DIMSHO
 70
     1
  9
$DIMPOST
  1

  9
$DIMAPOST
  1

  9
$DIMALT
 70
     0
  9
$DIMALTD
 70
     3
  9
$DIMALTF
 40
0.03937
  9
$DIMLFAC
 40
1.0
  9
$DIMTOFL
 70
     1
  9
$DIMTVP
 40
0.0
  9
$DIMTIX
 70
     0
  9
$DIMSOXD
 70
     0
  9
$DIMSAH
 70
     0
  9
$DIMBLK1
  1

  9
$DIMBLK2
  1

  9
$DIMSTYLE
  2
ISO-25
  9
$DIMCLRD
 70
     0
  9
$DIMCLRE
 70
     0
  9
$DIMCLRT
 70
     0
  9
$DIMTFAC
 40
1.0
  9
$DIMGAP
 40
0.625
  9
$DIMJUST
 70
     0
  9
$DIMSD1
 70
     0
  9
$DIMSD2
 70
     0
  9
$DIMTOLJ
 70
     0
  9
$DIMTZIN
 70
     8
  9
$DIMALTZ
 70
     0
  9
$DIMALTTZ
 70
     0
  9
$DIMUPT
 70
     0
  9
$DIMDEC
 70
     2
  9
$DIMTDEC
 70
     2
  9
$DIMALTU
 70
     2
  9
$DIMALTTD
 70
     3
  9
$DIMTXSTY
  7
Standard
  9
$DIMAUNIT
 70
     0
  9
$DIMADEC
 70
     0
  9
$DIMALTRND
 40
0.0
  9
$DIMAZIN
 70
     0
  9
$DIMDSEP
 70
    44
  9
$DIMATFIT
 70
     3
  9
$DIMFRAC
 70
     0
  9
$DIMLDRBLK
  1

  9
$DIMLUNIT
 70
     2
  9
$DIMLWD
 70
    -2
  9
$DIMLWE
 70
    -2
  9
$DIMTMOVE
 70
     0
  9
$DIMFXL
 40
1.0
  9
$DIMFXLON
 70
     0
  9
$DIMJOGANG
 40
0.785398
  9
$DIMTFILL
 70
     0
  9
$DIMTFILLCLR
 70
     0
  9
$DIMARCSYM
 70
     0
  9
$DIMLTYPE
  6

  9
$DIMLTEX1
  6

  9
$DIMLTEX2
  6

  9
$DIMTXTDIRECTION
 70
     0
  9
$LUNITS
 70
     2
  9
$LUPREC
 70
     4
  9
$SKETCHINC
 40
1.0
  9
$FILLETRAD
 40
10.0
  9
$AUNITS
 70
     0
  9
$AUPREC
 70
     0
  9
$MENU
  1
.
  9
$ELEVATION
 40
0.0
  9
$PELEVATION
 40
0.0
  9
$THICKNESS
 40
0.0
  9
$LIMCHECK
 70
     0
  9
$CHAMFERA
 40
0.0
  9
$CHAMFERB
 40
0.0
  9
$CHAMFERC
 40
0.0
  9
$CHAMFERD
 40
0.0
  9
$SKPOLY
 70
     0
  9
$TDCREATE
 40
2457819.643829884
  9
$TDUCREATE
 40
2457819.602163217
  9
$TDUPDATE
 40
2457819.643830602
  9
$TDUUPDATE
 40
2457819.602163935
  9
$TDINDWG
 40
0.0000000116
  9
$TDUSRTIMER
 40
0.0000000116
  9
$USRTIMER
 70
     1
  9
$ANGBASE
 50
0.0
  9
$ANGDIR
 70
     0
  9
$PDMODE
 70
     0
  9
$PDSIZE
 40
0.0
  9
$PLINEWID
 40
0.0
  9
$SPLFRAME
 70
     0
  9
$SPLINETYPE
 70
     6
  9
$SPLINESEGS
 70
     8
  9
$HANDSEED
  5
21F
  9
$SURFTAB1
 70
     6
  9
$SURFTAB2
 70
     6
  9
$SURFTYPE
 70
     6
  9
$SURFU
 70
     6
  9
$SURFV
 70
     6
  9
$UCSBASE
  2

  9
$UCSNAME
  2

  9
$UCSORG
 10
0.0
 20
0.0
 30
0.0
  9
$UCSXDIR
 10
1.0
 20
0.0
 30
0.0
  9
$UCSYDIR
 10
0.0
 20
1.0
 30
0.0
  9
$UCSORTHOREF
  2

  9
$UCSORTHOVIEW
 70
     0
  9
$UCSORGTOP
 10
0.0
 20
0.0
 30
0.0
  9
$UCSORGBOTTOM
 10
0.0
 20
0.0
 30
0.0
  9
$UCSORGLEFT
 10
0.0
 20
0.0
 30
0.0
  9
$UCSORGRIGHT
 10
0.0
 20
0.0
 30
0.0
  9
$UCSORGFRONT
 10
0.0
 20
0.0
 30
0.0
  9
$UCSORGBACK
 10
0.0
 20
0.0
 30
0.0
  9
$PUCSBASE
  2

  9
$PUCSNAME
  2

  9
$PUCSORG
 10
0.0
 20
0.0
 30
0.0
  9
$PUCSXDIR
 10
1.0
 20
0.0
 30
0.0
  9
$PUCSYDIR
 10
0.0
 20
1.0
 30
0.0
  9
$PUCSORTHOREF
  2

  9
$PUCSORTHOVIEW
 70
     0
  9
$PUCSORGTOP
 10
0.0
 20
0.0
 30
0.0
  9
$PUCSORGBOTTOM
 10
0.0
 20
0.0
 30
0.0
  9
$PUCSORGLEFT
 10
0.0
 20
0.0
 30
0.0
  9
$PUCSORGRIGHT
 10
0.0
 20
0.0
 30
0.0
  9
$PUCSORGFRONT
 10
0.0
 20
0.0
 30
0.0
  9
$PUCSORGBACK
 10
0.0
 20
0.0
 30
0.0
  9
$USERI1
 70
     0
  9
$USERI2
 70
     0
  9
$USERI3
 70
     0
  9
$USERI4
 70
     0
  9
$USERI5
 70
     0
  9
$USERR1
 40
0.0
  9
$USERR2
 40
0.0
  9
$USERR3
 40
0.0
  9
$USERR4
 40
0.0
  9
$USERR5
 40
0.0
  9
$WORLDVIEW
 70
     1
  9
$SHADEDGE
 70
     3
  9
$SHADEDIF
 70
    70
  9
$TILEMODE
 70
     1
  9
$MAXACTVP
 70
    64
  9
$PINSBASE
 10
0.0
 20
0.0
 30
0.0
  9
$PLIMCHECK
 70
     0
  9
$PEXTMIN
 10
1.000000E+20
 20
1.000000E+20
 30
1.000000E+20
  9
$PEXTMAX
 10
-1.000000E+20
 20
-1.000000E+20
 30
-1.000000E+20
  9
$PLIMMIN
 10
0.0
 20
0.0
  9
$PLIMMAX
 10
420.0
 20
297.0
  9
$UNITMODE
 70
     0
  9
$VISRETAIN
 70
     1
  9
$PLINEGEN
 70
     0
  9
$PSLTSCALE
 70
     1
  9
$TREEDEPTH
 70
  3020
  9
$CMLSTYLE
  2
Standard
  9
$CMLJUST
 70
     0
  9
$CMLSCALE
 40
20.0
  9
$PROXYGRAPHICS
 70
     1
  9
$MEASUREMENT
 70
     1
  9
$CELWEIGHT
370
    -1
  9
$ENDCAPS
280
     0
  9
$JOINSTYLE
280
     0
  9
$LWDISPLAY
290
     0
  9
$INSUNITS
 70
     4
  9
$HYPERLINKBASE
  1

  9
$STYLESHEET
  1

  9
$XEDIT
290
     1
  9
$CEPSNTYPE
380
     0
  9
$PSTYLEMODE
290
     1
  9
$FINGERPRINTGUID
  2
{15B43A71-71C0-4703-A0E8-6333847BC4EB}
  9
$VERSIONGUID
  2
{FAEB1C32-E019-11D5-929B-00C0DF256EC4}
  9
$EXTNAMES
290
     1
  9
$PSVPSCALE
 40
0.0
  9
$OLESTARTUP
290
     0
  9
$SORTENTS
280
   127
  9
$INDEXCTL
280
     0
  9
$HIDETEXT
280
     1
  9
$XCLIPFRAME
280
     2
  9
$HALOGAP
280
     0
  9
$OBSCOLOR
 70
   257
  9
$OBSLTYPE
280
     0
  9
$INTERSECTIONDISPLAY
280
     0
  9
$INTERSECTIONCOLOR
 70
   257
  9
$DIMASSOC
280
     2
  9
$PROJECTNAME
  1

  9
$CAMERADISPLAY
290
     0
  9
$LENSLENGTH
 40
50.0
  9
$CAMERAHEIGHT
 40
0.0
  9
$STEPSPERSEC
 40
2.0
  9
$STEPSIZE
 40
6.0
  9
$3DDWFPREC
 40
2.0
  9
$PSOLWIDTH
 40
5.0
  9
$PSOLHEIGHT
 40
80.0
  9
$LOFTANG1
 40
1.570796
  9
$LOFTANG2
 40
1.570796
  9
$LOFTMAG1
 40
0.0
  9
$LOFTMAG2
 40
0.0
  9
$LOFTPARAM
 70
     7
  9
$LOFTNORMALS
280
     1
  9
$LATITUDE
 40
37.795
  9
$LONGITUDE
 40
-122.394
  9
$NORTHDIRECTION
 40
0.0
  9
$TIMEZONE
 70
 -8000
  9
$LIGHTGLYPHDISPLAY
280
     1
  9
$TILEMODELIGHTSYNCH
280
     1
  9
$CMATERIAL
347
44
  9
$SOLIDHIST
280
     0
  9
$SHOWHIST
280
     1
  9
$DWFFRAME
280
     2
  9
$DGNFRAME
280
     2
  9
$REALWORLDSCALE
290
     1
  9
$INTERFERECOLOR
 62
   256
  9
$CSHADOW
280
     0
  9
$SHADOWPLANELOCATION
 40
0.0
  0
ENDSEC
  0
SECTION
  2
CLASSES
  0
CLASS
  1
ACDBDICTIONARYWDFLT
  2
AcDbDictionaryWithDefault
  3
ObjectDBX Classes
 90
        0
 91
        4
280
     0
281
     0
  0
CLASS
  1
VISUALSTYLE
  2
AcDbVisualStyle
  3
ObjectDBX Classes
 90
     4095
 91
        4
280
     0
281
     0
  0
CLASS
  1
MATERIAL
  2
AcDbMaterial
  3
ObjectDBX Classes
 90
     1153
 91
        4
280
     0
281
     0
  0
CLASS
  1
SCALE
  2
AcDbScale
  3
ObjectDBX Classes
 90
     1153
 91
        4
280
     0
281
     0
  0
CLASS
  1
TABLESTYLE
  2
AcDbTableStyle
  3
ObjectDBX Classes
 90
     4095
 91
        4
280
     0
281
     0
  0
CLASS
  1
MLEADERSTYLE
  2
AcDbMLeaderStyle
  3
ACDB_MLEADERSTYLE_CLASS
 90
     4095
 91
        4
280
     0
281
     0
  0
CLASS
  1
SUN
  2
AcDbSun
  3
SCENEOE
 90
     1153
 91
        4
280
     0
281
     0
  0
CLASS
  1
DICTIONARYVAR
  2
AcDbDictionaryVar
  3
ObjectDBX Classes
 90
        0
 91
        4
280
     0
281
     0
  0
CLASS
  1
CELLSTYLEMAP
  2
AcDbCellStyleMap
  3
ObjectDBX Classes
 90
     1152
 91
        4
280
     0
281
     0
  0
ENDSEC
  0
SECTION
  2
TABLES
  0
TABLE
  2
VPORT
  5
8
330
0
100
AcDbSymbolTable
 70
     1
  0
VPORT
  5
29
330
8
100
AcDbSymbolTableRecord
100
AcDbViewportTableRecord
  2
*Active
 70
     0
 10
0.0
 20
0.0
 11
1.0
 21
1.0
 12
344.186916
 22
148.5
 13
0.0
 23
0.0
 14
10.0
 24
10.0
 15
10.0
 25
10.0
 16
0.0
 26
0.0
 36
1.0
 17
0.0
 27
0.0
 37
0.0
 40
297.0
 41
1.972973
 42
50.0
 43
0.0
 44
0.0
 50
0.0
 51
0.0
 71
     0
 72
   100
 73
     1
 74
     3
 75
     0
 76
     0
 77
     0
 78
     0
281
     0
 65
     1
110
0.0
120
0.0
130
0.0
111
1.0
121
0.0
131
0.0
112
0.0
122
1.0
132
0.0
 79
     0
146
0.0
348
2F
 60
     3
 61
     5
292
     1
282
     1
141
0.0
142
0.0
 63
   250
361
6D
  0
ENDTAB
  0
TABLE
  2
LTYPE
  5
5
330
0
100
AcDbSymbolTable
 70
     1
  0
LTYPE
  5
14
330
5
100
AcDbSymbolTableRecord
100
AcDbLinetypeTableRecord
  2
ByBlock
 70
     0
  3

 72
    65
 73
     0
 40
0.0
  0
LTYPE
  5
15
330
5
100
AcDbSymbolTableRecord
100
AcDbLinetypeTableRecord
  2
ByLayer
 70
     0
  3

 72
    65
 73
     0
 40
0.0
  0
LTYPE
  5
16
330
5
100
AcDbSymbolTableRecord
100
AcDbLinetypeTableRecord
  2
Continuous
 70
     0
  3
Solid line
 72
    65
 73
     0
 40
0.0
  0
ENDTAB
  0
TABLE
  2
LAYER
  5
2
330
0
100
AcDbSymbolTable
 70
     1
  0
LAYER
  5
10
330
2
100
AcDbSymbolTableRecord
100
AcDbLayerTableRecord
  2
0
 70
     0
 62
   106
  6
Continuous
370
     0
390
F
347
46
  0
ENDTAB
  0
TABLE
  2
STYLE
  5
3
330
0
100
AcDbSymbolTable
 70
     4
  0
STYLE
  5
11
330
3
100
AcDbSymbolTableRecord
100
AcDbTextStyleTableRecord
  2
Standard
 70
     0
 40
0.0
 41
1.0
 50
0.0
 71
     0
 42
2.5
  3
txt
  4

  0
STYLE
  5
6E
330
3
100
AcDbSymbolTableRecord
100
AcDbTextStyleTableRecord
  2
Default
 70
     0
 40
0.0
 41
1.0
 50
0.0
 71
     0
 42
2.5
  3

  4

1001
ACAD
1000
txt
1071
        0
  0
STYLE
  5
6F
330
3
100
AcDbSymbolTableRecord
100
AcDbTextStyleTableRecord
  2
ISO
 70
     0
 40
0.0
 41
1.0
 50
0.0
 71
     0
 42
2.5
  3

  4

1001
ACAD
1000
txt
1071
        0
  0
STYLE
  5
70
330
3
100
AcDbSymbolTableRecord
100
AcDbTextStyleTableRecord
  2
zucchetti
 70
     0
 40
0.0
 41
1.0
 50
0.0
 71
     0
 42
2.5
  3

  4

1001
ACAD
1000
Arial
1071
        0
  0
ENDTAB
  0
TABLE
  2
VIEW
  5
6
330
0
100
AcDbSymbolTable
 70
     0
  0
ENDTAB
  0
TABLE
  2
UCS
  5
7
330
0
100
AcDbSymbolTable
 70
     0
  0
ENDTAB
  0
TABLE
  2
APPID
  5
9
330
0
100
AcDbSymbolTable
 70
     1
  0
APPID
  5
12
330
9
100
AcDbSymbolTableRecord
100
AcDbRegAppTableRecord
  2
ACAD
 70
     0
  0
ENDTAB
  0
TABLE
  2
DIMSTYLE
  5
A
330
0
100
AcDbSymbolTable
 70
     4
100
AcDbDimStyleTable
  0
DIMSTYLE
105
27
330
A
100
AcDbSymbolTableRecord
100
AcDbDimStyleTableRecord
  2
ISO-25
 70
     0
 41
2.5
 42
0.625
 43
3.75
 44
1.25
 73
     0
 74
     0
 77
     1
 78
     8
140
2.5
141
2.5
143
0.03937
147
0.625
171
     3
172
     1
178
     0
271
     2
272
     2
274
     3
278
    44
283
     0
284
     8
340
11
  0
DIMSTYLE
105
71
330
A
100
AcDbSymbolTableRecord
100
AcDbDimStyleTableRecord
  2
Default
 70
     0
  3
<>
 41
4.375
 42
1.05
 44
2.1
 49
10.01
 73
     0
 74
     0
 77
     1
 78
     8
140
3.5
146
0.4
147
1.75
172
     1
271
     2
178
     3
271
     2
272
     3
284
     8
340
6E
341
72
342
72
  0
DIMSTYLE
105
79
330
A
100
AcDbSymbolTableRecord
100
AcDbDimStyleTableRecord
  2
ISO
 70
     0
  3
<>
 41
4.375
 42
1.05
 44
2.1
 49
10.01
 73
     0
 74
     0
 77
     1
 78
     8
140
3.5
146
0.4
147
1.75
172
     1
271
     2
178
     3
271
     2
272
     3
284
     8
340
6F
341
72
342
72
  0
DIMSTYLE
105
7A
330
A
100
AcDbSymbolTableRecord
100
AcDbDimStyleTableRecord
  2
zucchetti
 70
     0
  3
<>
 41
3.0
 42
0.9
 44
1.8
 49
8.58
 73
     0
 74
     0
 77
     1
 78
     8
140
3.0
146
0.6
147
1.5
172
     1
176
     3
177
     3
271
     2
178
     3
271
     2
272
     2
284
     8
340
70
  0
ENDTAB
  0
TABLE
  2
BLOCK_RECORD
  5
1
330
0
100
AcDbSymbolTable
 70
     7
  0
BLOCK_RECORD
  5
1F
330
1
100
AcDbSymbolTableRecord
100
AcDbBlockTableRecord
  2
*Model_Space
340
22
 70
     0
280
     1
281
     0
  0
BLOCK_RECORD
  5
1B
330
1
100
AcDbSymbolTableRecord
100
AcDbBlockTableRecord
  2
*Paper_Space
340
1E
 70
     0
280
     1
281
     0
  0
BLOCK_RECORD
  5
23
330
1
100
AcDbSymbolTableRecord
100
AcDbBlockTableRecord
  2
*Paper_Space0
340
26
 70
     0
280
     1
281
     0
  0
BLOCK_RECORD
  5
72
330
1
100
AcDbSymbolTableRecord
100
AcDbBlockTableRecord
  2
_CLOSED
340
0
 70
     0
280
     1
281
     0
  0
BLOCK_RECORD
  5
7B
330
1
100
AcDbSymbolTableRecord
100
AcDbBlockTableRecord
  2
a
340
0
102
{BLKREFS
331
B8
102
}
 70
     0
280
     1
281
     0
  0
BLOCK_RECORD
  5
B9
330
1
100
AcDbSymbolTableRecord
100
AcDbBlockTableRecord
  2
b
340
0
102
{BLKREFS
331
FF
102
}
 70
     0
280
     1
281
     0
  0
BLOCK_RECORD
  5
100
330
1
100
AcDbSymbolTableRecord
100
AcDbBlockTableRecord
  2
c
340
0
102
{BLKREFS
331
12F
102
}
 70
     0
280
     1
281
     0
  0
BLOCK_RECORD
  5
130
330
1
100
AcDbSymbolTableRecord
100
AcDbBlockTableRecord
  2
d
340
0
102
{BLKREFS
331
181
102
}
 70
     0
280
     1
281
     0
  0
BLOCK_RECORD
  5
182
330
1
100
AcDbSymbolTableRecord
100
AcDbBlockTableRecord
  2
e
340
0
102
{BLKREFS
331
1E5
102
}
 70
     0
280
     1
281
     0
  0
ENDTAB
  0
ENDSEC
  0
SECTION
  2
BLOCKS
  0
BLOCK
  5
20
330
1F
100
AcDbEntity
  8
0
100
AcDbBlockBegin
  2
*Model_Space
 70
     0
 10
0.0
 20
0.0
 30
0.0
  3
*Model_Space
  1

  0
ENDBLK
  5
21
330
1F
100
AcDbEntity
  8
0
100
AcDbBlockEnd
  0
BLOCK
  5
1C
330
1B
100
AcDbEntity
 67
     1
  8
0
100
AcDbBlockBegin
  2
*Paper_Space
 70
     0
 10
0.0
 20
0.0
 30
0.0
  3
*Paper_Space
  1

  0
ENDBLK
  5
1D
330
1B
100
AcDbEntity
 67
     1
  8
0
100
AcDbBlockEnd
  0
BLOCK
  5
24
330
23
100
AcDbEntity
  8
0
100
AcDbBlockBegin
  2
*Paper_Space0
 70
     0
 10
0.0
 20
0.0
 30
0.0
  3
*Paper_Space0
  1

  0
ENDBLK
  5
25
330
23
100
AcDbEntity
  8
0
100
AcDbBlockEnd
  0
BLOCK
  5
73
330
72
100
AcDbEntity
  8
0
100
AcDbBlockBegin
  2
_CLOSED
 70
     0
 10
0.0
 20
0.0
 30
0.0
  3
_CLOSED
  1

  0
LINE
  5
75
330
72
100
AcDbEntity
  8
0
  6
ByBlock
 62
     0
370
    -2
100
AcDbLine
 10
-1.0
 20
0.166667
 30
0.0
 11
0.0
 21
0.0
 31
0.0
  0
LINE
  5
76
330
72
100
AcDbEntity
  8
0
  6
ByBlock
 62
     0
370
    -2
100
AcDbLine
 10
0.0
 20
0.0
 30
0.0
 11
-1.0
 21
-0.166667
 31
0.0
  0
LINE
  5
77
330
72
100
AcDbEntity
  8
0
  6
ByBlock
 62
     0
370
    -2
100
AcDbLine
 10
-1.0
 20
0.166667
 30
0.0
 11
-1.0
 21
-0.166667
 31
0.0
  0
LINE
  5
78
330
72
100
AcDbEntity
  8
0
  6
ByBlock
 62
     0
370
    -2
100
AcDbLine
 10
0.0
 20
0.0
 30
0.0
 11
-1.0
 21
0.0
 31
0.0
  0
ENDBLK
  5
74
330
72
100
AcDbEntity
  8
0
100
AcDbBlockEnd
  0
BLOCK
  5
B6
330
7B
100
AcDbEntity
  8
0
100
AcDbBlockBegin
  2
a
 70
     0
 10
126.517059
 20
111.566544
 30
0.0
  3
a
  1

  0
LINE
  5
7C
330
7B
100
AcDbEntity
  8
0
  6
Continuous
 62
     0
370
    30
100
AcDbLine
 10
155.495411
 20
292.210098
 30
0.0
 11
155.495411
 21
289.210096
 31
0.0
  0
LINE
  5
7D
330
7B
100
AcDbEntity
  8
0
  6
Continuous
 62
     0
370
    30
100
AcDbLine
 10
155.495411
 20
289.210096
 30
0.0
 11
223.495411
 21
289.210096
 31
0.0
  0
LINE
  5
7E
330
7B
100
AcDbEntity
  8
0
  6
Continuous
 62
     0
370
    30
100
AcDbLine
 10
223.495411
 20
289.210096
 30
0.0
 11
223.495411
 21
292.210098
 31
0.0
  0
LINE
  5
7F
330
7B
100
AcDbEntity
  8
0
  6
Continuous
 62
     0
370
    30
100
AcDbLine
 10
223.495411
 20
292.210098
 30
0.0
 11
155.495411
 21
292.210098
 31
0.0
  0
LINE
  5
80
330
7B
100
AcDbEntity
  8
0
  6
Continuous
 62
     0
370
    30
100
AcDbLine
 10
184.700312
 20
323.954215
 30
0.0
 11
182.714117
 21
323.954215
 31
0.0
  0
LINE
  5
81
330
7B
100
AcDbEntity
  8
0
  6
Continuous
 62
     0
370
    30
100
AcDbLine
 10
194.29051
 20
323.954215
 30
0.0
 11
184.700312
 21
323.954215
 31
0.0
  0
LINE
  5
82
330
7B
100
AcDbEntity
  8
0
  6
Continuous
 62
     0
370
    30
100
AcDbLine
 10
196.276705
 20
323.954215
 30
0.0
 11
194.29051
 21
323.954215
 31
0.0
  0
ARC
  5
83
330
7B
100
AcDbEntity
  8
0
  6
Continuous
 62
     0
370
    30
100
AcDbCircle
 10
182.98368
 20
323.938847
 30
0.0
 40
0.27
100
AcDbArc
 50
90.0
 51
176.737068
  0
LINE
  5
84
330
7B
100
AcDbEntity
  8
0
  6
Continuous
 62
     0
370
    30
100
AcDbLine
 10
182.98368
 20
324.208847
 30
0.0
 11
196.007142
 21
324.208847
 31
0.0
  0
LWPOLYLINE
  5
85
330
7B
100
AcDbEntity
  8
0
  6
Continuous
 62
     0
370
    30
100
AcDbPolyline
 90
      145
 70
     0
 43
0.0
 10
184.700317
 20
323.954224
 10
184.530502
 20
322.91449
 10
184.386932
 20
322.268341
 10
184.256943
 20
321.782959
 10
184.135605
 20
321.379242
 10
184.019669
 20
321.026001
 10
183.906143
 20
320.705872
 10
183.792343
 20
320.406616
 10
183.676071
 20
320.119415
 10
183.555908
 20
319.837982
 10
183.431137
 20
319.558472
 10
183.301758
 20
319.279053
 10
183.168289
 20
318.999542
 10
183.031601
 20
318.720917
 10
182.892731
 20
318.444794
 10
182.752716
 20
318.172974
 10
182.612549
 20
317.907104
 10
182.473007
 20
317.648499
 10
182.334747
 20
317.398041
 10
182.198227
 20
317.156189
 10
182.063736
 20
316.923126
 10
181.931519
 20
316.69873
 10
181.801727
 20
316.482788
 10
181.674454
 20
316.274933
 10
181.549789
 20
316.07489
 10
181.427872
 20
315.882355
 10
181.308777
 20
315.697083
 10
181.192657
 20
315.51889
 10
181.079651
 20
315.347626
 10
180.969879
 20
315.183228
 10
180.863525
 20
315.025604
 10
180.760681
 20
314.874725
 10
180.661499
 20
314.730499
 10
180.56604
 20
314.592896
 10
180.474365
 20
314.461761
 10
180.386505
 20
314.337006
 10
180.302399
 20
314.218445
 10
180.221985
 20
314.105835
 10
180.145172
 20
313.998901
 10
180.071762
 20
313.897369
 10
180.001572
 20
313.800873
 10
179.934387
 20
313.709015
 10
179.869934
 20
313.621429
 10
179.807922
 20
313.537689
 10
179.748032
 20
313.457306
 10
179.689941
 20
313.379883
 10
179.633301
 20
313.304901
 10
179.577713
 20
313.231964
 10
179.522781
 20
313.160553
 10
179.468124
 20
313.09021
 10
179.413284
 20
313.020416
 10
179.357803
 20
312.950745
 10
179.301208
 20
312.880676
 10
179.243027
 20
312.809692
 10
179.182739
 20
312.737305
 10
179.119812
 20
312.663025
 10
179.053741
 20
312.586334
 10
178.983978
 20
312.506775
 10
178.910019
 20
312.423828
 10
178.831345
 20
312.337036
 10
178.747482
 20
312.246002
 10
178.657974
 20
312.150299
 10
178.562439
 20
312.049591
 10
178.460495
 20
311.943542
 10
178.351868
 20
311.83197
 10
178.236313
 20
311.714661
 10
178.113708
 20
311.591522
 10
177.983932
 20
311.462463
 10
177.847
 20
311.327576
 10
177.702972
 20
311.18689
 10
177.552002
 20
311.040619
 10
177.394287
 20
310.888947
 10
177.230103
 20
310.732178
 10
177.059769
 20
310.570618
 10
176.883667
 20
310.404663
 10
176.702179
 20
310.23468
 10
176.515747
 20
310.061066
 10
176.324829
 20
309.884308
 10
176.129868
 20
309.704773
 10
175.93132
 20
309.522919
 10
175.729614
 20
309.339111
 10
175.525177
 20
309.153778
 10
175.318405
 20
308.967224
 10
175.10965
 20
308.779816
 10
174.899231
 20
308.591797
 10
174.687454
 20
308.403412
 10
174.474548
 20
308.214874
 10
174.260712
 20
308.026337
 10
174.046097
 20
307.837921
 10
173.830856
 20
307.649719
 10
173.615067
 20
307.461731
 10
173.398743
 20
307.273987
 10
173.181946
 20
307.086487
 10
172.964615
 20
306.899139
 10
172.74675
 20
306.711884
 10
172.528275
 20
306.524658
 10
172.309097
 20
306.337311
 10
172.089127
 20
306.14975
 10
171.868256
 20
305.961823
 10
171.646362
 20
305.773376
 10
171.423309
 20
305.58432
 10
171.19899
 20
305.39444
 10
170.973236
 20
305.203613
 10
170.745911
 20
305.011719
 10
170.516891
 20
304.818542
 10
170.286011
 20
304.624023
 10
170.053116
 20
304.427917
 10
169.818085
 20
304.230164
 10
169.58075
 20
304.030579
 10
169.340973
 20
303.82901
 10
169.098572
 20
303.625336
 10
168.853409
 20
303.419373
 10
168.605316
 20
303.211029
 10
168.354111
 20
303.000092
 10
168.099625
 20
302.786438
 10
167.841675
 20
302.569916
 10
167.580048
 20
302.350311
 10
167.314514
 20
302.127472
 10
167.044876
 20
301.901184
 10
166.770874
 20
301.671234
 10
166.492218
 20
301.437408
 10
166.208618
 20
301.199432
 10
165.919754
 20
300.957031
 10
165.625259
 20
300.7099
 10
165.324707
 20
300.457703
 10
165.017654
 20
300.200043
 10
164.703568
 20
299.936493
 10
164.381851
 20
299.666565
 10
164.051849
 20
299.389648
 10
163.712753
 20
299.105103
 10
163.363678
 20
298.812195
 10
163.003555
 20
298.51001
 10
162.631119
 20
298.19751
 10
162.244873
 20
297.873413
 10
161.842911
 20
297.536102
 10
161.422791
 20
297.183594
 10
160.981277
 20
296.81311
 10
160.513931
 20
296.420959
 10
160.014511
 20
296.001923
 10
159.474258
 20
295.548584
 10
158.880737
 20
295.050568
 10
158.216339
 20
294.493073
 10
157.45639
 20
293.855408
 10
156.566528
 20
293.108704
 10
155.495605
 20
292.210083
  0
LWPOLYLINE
  5
86
330
7B
100
AcDbEntity
  8
0
  6
Continuous
 62
     0
370
    30
100
AcDbPolyline
 90
      145
 70
     0
 43
0.0
 10
194.290512
 20
323.954224
 10
194.476379
 20
322.91449
 10
194.630554
 20
322.268341
 10
194.768539
 20
321.782959
 10
194.896271
 20
321.379242
 10
195.017441
 20
321.026001
 10
195.1353
 20
320.705872
 10
195.252777
 20
320.406616
 10
195.372147
 20
320.119415
 10
195.494949
 20
319.837982
 10
195.621948
 20
319.558472
 10
195.753174
 20
319.279053
 10
195.888153
 20
318.999542
 10
196.025986
 20
318.720917
 10
196.165665
 20
318.444794
 10
196.306122
 20
318.172974
 10
196.446396
 20
317.907104
 10
196.585709
 20
317.648499
 10
196.723465
 20
317.398041
 10
196.859192
 20
317.156189
 10
196.99263
 20
316.923126
 10
197.123581
 20
316.69873
 10
197.251938
 20
316.482788
 10
197.377594
 20
316.274933
 10
197.500519
 20
316.07489
 10
197.620605
 20
315.882355
 10
197.737778
 20
315.697083
 10
197.851929
 20
315.51889
 10
197.962936
 20
315.347626
 10
198.070679
 20
315.183228
 10
198.175034
 20
315.025604
 10
198.275864
 20
314.874725
 10
198.373077
 20
314.730499
 10
198.466599
 20
314.592896
 10
198.556381
 20
314.461761
 10
198.642426
 20
314.337006
 10
198.724762
 20
314.218445
 10
198.803467
 20
314.105835
 10
198.878662
 20
313.998901
 10
198.9505
 20
313.897369
 10
199.019196
 20
313.800873
 10
199.084976
 20
313.709015
 10
199.148087
 20
313.621429
 10
199.208832
 20
313.537689
 10
199.267517
 20
313.457306
 10
199.324478
 20
313.379883
 10
199.380051
 20
313.304901
 10
199.434616
 20
313.231964
 10
199.488571
 20
313.160553
 10
199.542313
 20
313.09021
 10
199.596283
 20
313.020416
 10
199.65094
 20
312.950745
 10
199.706726
 20
312.880676
 10
199.764145
 20
312.809692
 10
199.8237
 20
312.737305
 10
199.885925
 20
312.663025
 10
199.951309
 20
312.586334
 10
200.020416
 20
312.506775
 10
200.093735
 20
312.423828
 10
200.171783
 20
312.337036
 10
200.255035
 20
312.246002
 10
200.343948
 20
312.150299
 10
200.438904
 20
312.049591
 10
200.540283
 20
311.943542
 10
200.648361
 20
311.83197
 10
200.763367
 20
311.714661
 10
200.885452
 20
311.591522
 10
201.014709
 20
311.462463
 10
201.151154
 20
311.327576
 10
201.294693
 20
311.18689
 10
201.44519
 20
311.040619
 10
201.602463
 20
310.888947
 10
201.766205
 20
310.732178
 10
201.936127
 20
310.570618
 10
202.111832
 20
310.404663
 10
202.292938
 20
310.23468
 10
202.479004
 20
310.061066
 10
202.669586
 20
309.884308
 10
202.864212
 20
309.704773
 10
203.062454
 20
309.522919
 10
203.26387
 20
309.339111
 10
203.468048
 20
309.153778
 10
203.674561
 20
308.967224
 10
203.883087
 20
308.779816
 10
204.093292
 20
308.591797
 10
204.304886
 20
308.403412
 10
204.517624
 20
308.214874
 10
204.731293
 20
308.026337
 10
204.94574
 20
307.837921
 10
205.160858
 20
307.649719
 10
205.376526
 20
307.461731
 10
205.592743
 20
307.273987
 10
205.809448
 20
307.086487
 10
206.026688
 20
306.899139
 10
206.244476
 20
306.711884
 10
206.462891
 20
306.524658
 10
206.682007
 20
306.337311
 10
206.901932
 20
306.14975
 10
207.122757
 20
305.961823
 10
207.344604
 20
305.773376
 10
207.567627
 20
305.58432
 10
207.791916
 20
305.39444
 10
208.017654
 20
305.203613
 10
208.244949
 20
305.011719
 10
208.473969
 20
304.818542
 10
208.704834
 20
304.624023
 10
208.937698
 20
304.427917
 10
209.172729
 20
304.230164
 10
209.410049
 20
304.030579
 10
209.649826
 20
303.82901
 10
209.892227
 20
303.625336
 10
210.137375
 20
303.419373
 10
210.385468
 20
303.211029
 10
210.636673
 20
303.000092
 10
210.891144
 20
302.786438
 10
211.149109
 20
302.569916
 10
211.410736
 20
302.350311
 10
211.676254
 20
302.127472
 10
211.945892
 20
301.901184
 10
212.219894
 20
301.671234
 10
212.49855
 20
301.437408
 10
212.782135
 20
301.199432
 10
213.070999
 20
300.957031
 10
213.365509
 20
300.7099
 10
213.666046
 20
300.457703
 10
213.973099
 20
300.200043
 10
214.287186
 20
299.936493
 10
214.608902
 20
299.666565
 10
214.938904
 20
299.389648
 10
215.278
 20
299.105103
 10
215.627075
 20
298.812195
 10
215.987198
 20
298.51001
 10
216.359619
 20
298.19751
 10
216.745865
 20
297.873413
 10
217.147827
 20
297.536102
 10
217.567947
 20
297.183594
 10
218.00946
 20
296.813141
 10
218.476807
 20
296.420959
 10
218.976212
 20
296.001923
 10
219.516464
 20
295.548584
 10
220.109985
 20
295.050568
 10
220.774368
 20
294.493073
 10
221.534332
 20
293.855408
 10
222.424179
 20
293.108704
 10
223.495102
 20
292.210083
  0
LWPOLYLINE
  5
87
330
7B
100
AcDbEntity
  8
0
  6
Continuous
 62
     0
370
    30
100
AcDbPolyline
 90
       38
 70
     0
 43
0.0
 10
223.435944
 20
292.263092
 10
222.578201
 20
293.029907
 10
221.720474
 20
293.796692
 10
220.862778
 20
294.563507
 10
220.005081
 20
295.330322
 10
219.1474
 20
296.097107
 10
218.289719
 20
296.863922
 10
217.432022
 20
297.630737
 10
216.574341
 20
298.397552
 10
215.716629
 20
299.164398
 10
214.858902
 20
299.931244
 10
214.00116
 20
300.69809
 10
213.143372
 20
301.464966
 10
212.285568
 20
302.231873
 10
211.427719
 20
302.998779
 10
210.569885
 20
303.765747
 10
209.712677
 20
304.533417
 10
208.857056
 20
305.302704
 10
208.003967
 20
306.074554
 10
207.154404
 20
306.849884
 10
206.309479
 20
307.630035
 10
205.470596
 20
308.416992
 10
204.639252
 20
309.21286
 10
203.817032
 20
310.019775
 10
203.009506
 20
310.842041
 10
202.226288
 20
311.685913
 10
201.477112
 20
312.557922
 10
200.771729
 20
313.464386
 10
200.115128
 20
314.407654
 10
199.503708
 20
315.38266
 10
198.932968
 20
316.383575
 10
198.398453
 20
317.40451
 10
197.900681
 20
318.442627
 10
197.4487
 20
319.5
 10
197.052444
 20
320.579285
 10
196.721115
 20
321.681702
 10
196.461243
 20
322.803192
 10
196.276703
 20
323.954224
  0
LWPOLYLINE
  5
88
330
7B
100
AcDbEntity
  8
0
  6
Continuous
 62
     0
370
    30
100
AcDbPolyline
 90
       38
 70
     0
 43
0.0
 10
155.554886
 20
292.263092
 10
156.412628
 20
293.029907
 10
157.27034
 20
293.796692
 10
158.128052
 20
294.563507
 10
158.985733
 20
295.330322
 10
159.84343
 20
296.097107
 10
160.701111
 20
296.863922
 10
161.558792
 20
297.630737
 10
162.416489
 20
298.397552
 10
163.2742
 20
299.164398
 10
164.131912
 20
299.931244
 10
164.98967
 20
300.69809
 10
165.847443
 20
301.464966
 10
166.705246
 20
302.231873
 10
167.563095
 20
302.998779
 10
168.420944
 20
303.765747
 10
169.278152
 20
304.533417
 10
170.133774
 20
305.302704
 10
170.986847
 20
306.074554
 10
171.836411
 20
306.849884
 10
172.681351
 20
307.630035
 10
173.520218
 20
308.416992
 10
174.351578
 20
309.21286
 10
175.173798
 20
310.019775
 10
175.981308
 20
310.842041
 10
176.764542
 20
311.685913
 10
177.513702
 20
312.557922
 10
178.219101
 20
313.464386
 10
178.875702
 20
314.407654
 10
179.487106
 20
315.38266
 10
180.057861
 20
316.383575
 10
180.592377
 20
317.40451
 10
181.090149
 20
318.442627
 10
181.542114
 20
319.5
 10
181.938385
 20
320.579285
 10
182.269699
 20
321.681702
 10
182.529572
 20
322.803192
 10
182.714111
 20
323.954224
  0
LINE
  5
89
330
7B
100
AcDbEntity
  8
0
  6
Continuous
 62
     0
370
     0
100
AcDbLine
 10
273.819805
 20
341.315883
 30
0.0
 11
273.318611
 21
341.328062
 31
0.0
  0
LWPOLYLINE
  5
8A
330
7B
100
AcDbEntity
  8
0
  6
Continuous
 62
     0
370
    30
100
AcDbPolyline
 90
       12
 70
     0
 43
0.0
 10
270.935242
 20
357.543793
 10
271.459656
 20
356.142151
 10
271.933075
 20
354.722687
 10
272.354919
 20
353.287323
 10
272.724701
 20
351.837799
 10
273.041901
 20
350.376068
 10
273.30603
 20
348.90387
 10
273.516815
 20
347.423157
 10
273.674011
 20
345.935822
 10
273.777557
 20
344.443787
 10
273.82724
 20
342.949005
 10
273.819794
 20
341.315887
  0
LINE
  5
8B
330
7B
100
AcDbEntity
  8
0
  6
Continuous
 62
     0
370
     0
100
AcDbLine
 10
270.442224
 20
357.323892
 30
0.0
 11
270.935244
 21
357.543807
 31
0.0
  0
LWPOLYLINE
  5
8C
330
7B
100
AcDbEntity
  8
0
  6
Continuous
 62
     0
370
     0
100
AcDbPolyline
 90
       11
 70
     0
 43
0.0
 10
273.317841
 20
341.296387
 10
273.32254
 20
342.92926
 10
273.262024
 20
344.560974
 10
273.137573
 20
346.189087
 10
272.947968
 20
347.810852
 10
272.691925
 20
349.424011
 10
272.372528
 20
351.025726
 10
271.989502
 20
352.613373
 10
271.542664
 20
354.184662
 10
271.033417
 20
355.737335
 10
270.44223
 20
357.323883
  0
LINE
  5
8D
330
7B
100
AcDbEntity
  8
0
  6
Continuous
 62
     0
370
     0
100
AcDbLine
 10
194.924678
 20
342.227847
 30
0.0
 11
195.075198
 21
342.227808
 31
0.0
  0
LWPOLYLINE
  5
8E
330
7B
100
AcDbEntity
  8
0
  6
Continuous
 62
     0
370
    30
100
AcDbPolyline
 90
       27
 70
     0
 43
0.0
 10
178.635681
 20
342.228363
 10
178.669586
 20
342.228394
 10
178.775436
 20
342.228424
 10
178.949615
 20
342.228424
 10
179.191833
 20
342.228455
 10
179.500504
 20
342.228455
 10
179.873749
 20
342.228455
 10
180.309052
 20
342.228455
 10
180.803864
 20
342.228485
 10
181.355057
 20
342.228485
 10
181.958893
 20
342.228455
 10
182.611435
 20
342.228455
 10
183.308563
 20
342.228455
 10
184.045517
 20
342.228455
 10
184.817505
 20
342.228424
 10
185.620407
 20
342.228424
 10
186.449783
 20
342.228394
 10
187.299728
 20
342.228363
 10
188.164124
 20
342.228363
 10
189.036804
 20
342.228333
 10
189.912064
 20
342.228302
 10
190.784729
 20
342.228241
 10
191.649658
 20
342.22818
 10
192.501617
 20
342.228119
 10
193.33403
 20
342.228058
 10
194.139648
 20
342.227966
 10
194.925034
 20
342.227844
  0
ELLIPSE
  5
8F
330
7B
100
AcDbEntity
  8
0
  6
Continuous
 62
     0
370
     0
100
AcDbEllipse
 10
194.925442
 20
341.97785
 30
0.0
 11
-4.151551520006763E-5
 21
-0.249999996552919
 31
0.0
210
0.0
220
0.0
230
1.0
 40
0.500026
 41
1.364051324484801
 42
3.145140247781695
  0
LINE
  5
90
330
7B
100
AcDbEntity
  8
0
  6
Continuous
 62
     0
370
    30
100
AcDbLine
 10
178.635677
 20
342.22837
 30
0.0
 11
178.390557
 21
341.927049
 31
0.0
  0
LWPOLYLINE
  5
91
330
7B
100
AcDbEntity
  8
0
  6
Continuous
 62
     0
370
     0
100
AcDbPolyline
 90
       26
 70
     0
 43
0.0
 10
178.390564
 20
341.927063
 10
178.429596
 20
341.927063
 10
178.546112
 20
341.927094
 10
178.739166
 20
341.927124
 10
179.00766
 20
341.927124
 10
179.349564
 20
341.927155
 10
179.762451
 20
341.927155
 10
180.243759
 20
341.927155
 10
180.789978
 20
341.927155
 10
181.396957
 20
341.927155
 10
182.060547
 20
341.927155
 10
182.776367
 20
341.927155
 10
183.539322
 20
341.927124
 10
184.344025
 20
341.927124
 10
185.18483
 20
341.927094
 10
186.055832
 20
341.927094
 10
186.950912
 20
341.927063
 10
187.863876
 20
341.927032
 10
188.788254
 20
341.927002
 10
189.717514
 20
341.926971
 10
190.645096
 20
341.926941
 10
191.564636
 20
341.92688
 10
192.469772
 20
341.926819
 10
193.354141
 20
341.926727
 10
194.211548
 20
341.926636
 10
195.047775
 20
341.926514
  0
LWPOLYLINE
  5
92
330
7B
100
AcDbEntity
  8
0
  6
Continuous
 62
     0
370
    30
100
AcDbPolyline
 90
       27
 70
     0
 43
0.0
 10
195.075195
 20
342.227814
 10
195.442169
 20
342.227112
 10
195.79718
 20
342.22644
 10
196.140167
 20
342.225708
 10
196.470825
 20
342.225067
 10
196.788132
 20
342.224548
 10
197.086044
 20
342.223999
 10
197.366684
 20
342.224854
 10
197.654114
 20
342.229248
 10
197.960251
 20
342.23587
 10
198.27713
 20
342.244476
 10
198.602005
 20
342.255127
 10
198.936478
 20
342.268066
 10
199.28067
 20
342.283417
 10
199.634186
 20
342.301392
 10
199.996582
 20
342.322083
 10
200.367462
 20
342.345734
 10
200.746445
 20
342.372437
 10
201.133179
 20
342.402344
 10
201.527328
 20
342.435669
 10
201.928528
 20
342.472504
 10
202.336441
 20
342.513062
 10
202.750687
 20
342.557495
 10
203.170883
 20
342.605957
 10
203.59613
 20
342.658539
 10
204.025223
 20
342.71524
 10
204.460114
 20
342.77655
  0
LINE
  5
93
330
7B
100
AcDbEntity
  8
0
  6
Continuous
 62
     0
370
     0
100
AcDbLine
 10
195.205487
 20
341.924968
 30
0.0
 11
195.047304
 21
341.924924
 31
0.0
  0
LINE
  5
94
330
7B
100
AcDbEntity
  8
0
  6
Continuous
 62
     0
370
     0
100
AcDbLine
 10
195.075198
 20
342.227808
 30
0.0
 11
195.205487
 21
341.924968
 31
0.0
  0
LINE
  5
95
330
7B
100
AcDbEntity
  8
0
  6
Continuous
 62
     0
370
    30
100
AcDbLine
 10
195.205487
 20
341.924968
 30
0.0
 11
198.93551
 21
341.98788
 31
0.0
  0
LINE
  5
96
330
7B
100
AcDbEntity
  8
0
  6
Continuous
 62
     0
370
    30
100
AcDbLine
 10
198.93551
 20
341.98788
 30
0.0
 11
204.45609
 21
342.522603
 31
0.0
  0
LINE
  5
97
330
7B
100
AcDbEntity
  8
0
  6
Continuous
 62
     0
370
    30
100
AcDbLine
 10
204.45609
 20
342.522603
 30
0.0
 11
204.454764
 21
342.775727
 31
0.0
  0
LWPOLYLINE
  5
98
330
7B
100
AcDbEntity
  8
0
  6
Continuous
 62
     0
370
     0
100
AcDbPolyline
 90
       35
 70
     0
 43
0.0
 10
204.460236
 20
333.650238
 10
206.423325
 20
334.129272
 10
208.401428
 20
334.542114
 10
210.392105
 20
334.889282
 10
212.393509
 20
335.16803
 10
214.400833
 20
335.401611
 10
216.408783
 20
335.62915
 10
218.417068
 20
335.854004
 10
220.425598
 20
336.076447
 10
222.434525
 20
336.295319
 10
224.443756
 20
336.511414
 10
226.453323
 20
336.724396
 10
228.463211
 20
336.934296
 10
230.473419
 20
337.141174
 10
232.483932
 20
337.345062
 10
234.494736
 20
337.545898
 10
236.505859
 20
337.743744
 10
238.517258
 20
337.938568
 10
240.528946
 20
338.130402
 10
242.540924
 20
338.319244
 10
244.553162
 20
338.505127
 10
246.565674
 20
338.68808
 10
248.578461
 20
338.868073
 10
250.591507
 20
339.045135
 10
252.604797
 20
339.21933
 10
254.618347
 20
339.390625
 10
256.632141
 20
339.559082
 10
258.646149
 20
339.724731
 10
260.6604
 20
339.887543
 10
262.674835
 20
340.047485
 10
264.689453
 20
340.204865
 10
266.704285
 20
340.359131
 10
268.719147
 20
340.511902
 10
270.734039
 20
340.660767
 10
272.810577
 20
340.808777
  0
LINE
  5
99
330
7B
100
AcDbEntity
  8
0
  6
Continuous
 62
     0
370
     0
100
AcDbLine
 10
272.810579
 20
340.808778
 30
0.0
 11
269.819406
 21
357.887394
 31
0.0
  0
LWPOLYLINE
  5
9A
330
7B
100
AcDbEntity
  8
0
  6
Continuous
 62
     0
370
     0
100
AcDbPolyline
 90
       36
 70
     0
 43
0.0
 10
269.819397
 20
357.88739
 10
267.95401
 20
357.443237
 10
266.088715
 20
357.001617
 10
264.223785
 20
356.558014
 10
262.358795
 20
356.114288
 10
260.493561
 20
355.671082
 10
258.628265
 20
355.227722
 10
256.762848
 20
354.784363
 10
254.897339
 20
354.341064
 10
253.031708
 20
353.897736
 10
251.16597
 20
353.454437
 10
249.300156
 20
353.011108
 10
247.43425
 20
352.567719
 10
245.568268
 20
352.124329
 10
243.702209
 20
351.680908
 10
241.83609
 20
351.237427
 10
239.969925
 20
350.793945
 10
238.103699
 20
350.350372
 10
236.237442
 20
349.906738
 10
234.37117
 20
349.463013
 10
232.504868
 20
349.019196
 10
230.63855
 20
348.575287
 10
228.772217
 20
348.131317
 10
226.905853
 20
347.687378
 10
225.039474
 20
347.243439
 10
223.173096
 20
346.799438
 10
221.306732
 20
346.355316
 10
219.44043
 20
345.911011
 10
217.574188
 20
345.4664
 10
215.708054
 20
345.021393
 10
213.841873
 20
344.576691
 10
211.975464
 20
344.132965
 10
210.109756
 20
343.686554
 10
208.242157
 20
343.247864
 10
206.365494
 20
342.85025
 10
204.460114
 20
342.523224
  0
LINE
  5
9B
330
7B
100
AcDbEntity
  8
0
  6
Continuous
 62
     0
370
    30
100
AcDbLine
 10
204.46011
 20
342.522603
 30
0.0
 11
204.460242
 21
333.650244
 31
0.0
  0
LWPOLYLINE
  5
9C
330
7B
100
AcDbEntity
  8
0
  6
Continuous
 62
     0
370
    30
100
AcDbPolyline
 90
       34
 70
     0
 43
0.0
 10
204.460052
 20
333.133881
 10
206.48468
 20
333.630096
 10
208.525421
 20
334.055573
 10
210.57962
 20
334.410461
 10
212.645157
 20
334.691925
 10
214.716141
 20
334.931488
 10
216.78775
 20
335.164825
 10
218.859573
 20
335.396423
 10
220.931763
 20
335.624878
 10
223.004288
 20
335.850128
 10
225.077133
 20
336.072388
 10
227.150314
 20
336.291565
 10
229.223816
 20
336.507629
 10
231.297638
 20
336.720673
 10
233.371765
 20
336.930634
 10
235.446198
 20
337.137543
 10
237.52095
 20
337.34137
 10
239.595978
 20
337.542145
 10
241.67131
 20
337.739838
 10
243.746933
 20
337.934479
 10
245.82283
 20
338.126038
 10
247.899017
 20
338.314545
 10
249.975479
 20
338.499969
 10
252.052216
 20
338.682343
 10
254.129227
 20
338.861664
 10
256.206482
 20
339.037933
 10
258.284027
 20
339.211151
 10
260.361786
 20
339.381317
 10
262.439789
 20
339.548462
 10
264.517975
 20
339.712524
 10
266.596375
 20
339.873566
 10
268.674957
 20
340.031586
 10
270.75351
 20
340.186554
 10
272.892181
 20
340.342773
  0
LINE
  5
9D
330
7B
100
AcDbEntity
  8
0
  6
Continuous
 62
     0
370
     0
100
AcDbLine
 10
269.815631
 20
357.886505
 30
0.0
 11
269.754762
 21
358.144873
 31
0.0
  0
LWPOLYLINE
  5
9E
330
7B
100
AcDbEntity
  8
0
  6
Continuous
 62
     0
370
    30
100
AcDbPolyline
 90
       37
 70
     0
 43
0.0
 10
269.754761
 20
358.144867
 10
267.941345
 20
357.714081
 10
266.13031
 20
357.282867
 10
264.319397
 20
356.851715
 10
262.508667
 20
356.420593
 10
260.697845
 20
355.989471
 10
258.886749
 20
355.558289
 10
257.075409
 20
355.127014
 10
255.263855
 20
354.695709
 10
253.452103
 20
354.264374
 10
251.640198
 20
353.832977
 10
249.828186
 20
353.40155
 10
248.016068
 20
352.970123
 10
246.203888
 20
352.538666
 10
244.391678
 20
352.107208
 10
242.579483
 20
351.675751
 10
240.767334
 20
351.244293
 10
238.9552
 20
350.812836
 10
237.143066
 20
350.381409
 10
235.330902
 20
349.949951
 10
233.518707
 20
349.518494
 10
231.706421
 20
349.087006
 10
229.894058
 20
348.655518
 10
228.081573
 20
348.223999
 10
226.268936
 20
347.792419
 10
224.456131
 20
347.36084
 10
222.643158
 20
346.929169
 10
220.829956
 20
346.497467
 10
219.016602
 20
346.065735
 10
217.203369
 20
345.633972
 10
215.390518
 20
345.202362
 10
213.578323
 20
344.770935
 10
211.767105
 20
344.339722
 10
209.957458
 20
343.90744
 10
208.147812
 20
343.481842
 10
206.330872
 20
343.097809
 10
204.460205
 20
342.77655
  0
ARC
  5
9F
330
7B
100
AcDbEntity
  8
0
  6
Continuous
 62
     0
370
    30
100
AcDbCircle
 10
269.821683
 20
357.26397
 30
0.0
 40
0.6234279473844304
100
AcDbArc
 50
5.515547
 51
90.209212
  0
LINE
  5
A0
330
7B
100
AcDbEntity
  8
0
  6
Continuous
 62
     0
370
    30
100
AcDbLine
 10
270.224812
 20
358.152694
 30
0.0
 11
269.773601
 21
358.149158
 31
0.0
  0
LWPOLYLINE
  5
A1
330
7B
100
AcDbEntity
  8
0
  6
Continuous
 62
     0
370
     0
100
AcDbPolyline
 90
       13
 70
     0
 43
0.0
 10
272.892181
 20
340.342773
 10
272.877625
 20
340.345551
 10
272.870575
 20
340.356628
 10
272.866577
 20
340.37561
 10
272.862183
 20
340.401947
 10
272.857452
 20
340.435211
 10
272.852295
 20
340.474915
 10
272.847015
 20
340.520447
 10
272.841919
 20
340.571075
 10
272.837128
 20
340.625977
 10
272.831696
 20
340.684235
 10
272.823456
 20
340.744751
 10
272.810577
 20
340.808777
  0
ARC
  5
A2
330
7B
100
AcDbEntity
  8
0
  6
Continuous
 62
     0
370
    30
100
AcDbCircle
 10
272.820062
 20
341.340213
 30
0.0
 40
1.000039813348081
100
AcDbArc
 50
274.136442
 51
358.605934
  0
ARC
  5
A3
330
7B
100
AcDbEntity
  8
0
  6
Continuous
 62
     0
370
     0
100
AcDbCircle
 10
272.820556
 20
341.30696
 30
0.0
 40
0.4973979843893251
100
AcDbArc
 50
268.853553
 51
358.783238
  0
LINE
  5
A4
330
7B
100
AcDbEntity
  8
0
  6
Continuous
 62
     0
370
    30
100
AcDbLine
 10
204.460046
 20
333.133893
 30
0.0
 11
204.460201
 21
333.650232
 31
0.0
  0
LWPOLYLINE
  5
A5
330
7B
100
AcDbEntity
  8
0
  6
Continuous
 62
     0
370
    30
100
AcDbPolyline
 90
       45
 70
     0
 43
0.0
 10
178.390564
 20
341.927063
 10
178.467651
 20
341.588928
 10
178.570053
 20
341.188049
 10
178.695267
 20
340.735168
 10
178.840775
 20
340.240967
 10
179.004089
 20
339.716125
 10
179.182693
 20
339.171387
 10
179.374084
 20
338.617401
 10
179.57576
 20
338.06427
 10
179.785141
 20
337.516602
 10
179.999664
 20
336.976288
 10
180.216721
 20
336.44516
 10
180.433746
 20
335.925079
 10
180.648163
 20
335.417877
 10
180.857361
 20
334.925415
 10
181.058777
 20
334.449554
 10
181.249817
 20
333.992096
 10
181.427887
 20
333.554962
 10
181.590546
 20
333.139832
 10
181.73735
 20
332.746521
 10
181.869568
 20
332.37326
 10
181.988495
 20
332.018127
 10
182.095459
 20
331.679321
 10
182.191757
 20
331.35498
 10
182.278702
 20
331.043274
 10
182.357605
 20
330.74231
 10
182.429779
 20
330.450226
 10
182.496262
 20
330.163635
 10
182.557739
 20
329.876678
 10
182.614822
 20
329.583405
 10
182.668152
 20
329.277832
 10
182.718323
 20
328.95462
 10
182.765427
 20
328.615326
 10
182.809235
 20
328.265381
 10
182.849487
 20
327.911041
 10
182.884796
 20
327.568481
 10
182.913071
 20
327.259552
 10
182.935791
 20
326.96463
 10
182.957687
 20
326.624207
 10
182.977234
 20
326.238434
 10
182.990402
 20
325.832703
 10
182.99498
 20
325.429688
 10
182.996002
 20
325.060822
 10
182.998535
 20
324.678131
 10
182.995438
 20
324.208862
  0
LINE
  5
A6
330
7B
100
AcDbEntity
  8
0
  6
Continuous
 62
     0
370
     0
100
AcDbLine
 10
195.015377
 20
341.639448
 30
0.0
 11
195.047778
 21
341.926511
 31
0.0
  0
LWPOLYLINE
  5
A7
330
7B
100
AcDbEntity
  8
0
  6
Continuous
 62
     0
370
    30
100
AcDbPolyline
 90
        6
 70
     0
 43
0.0
 10
192.585037
 20
324.21051
 10
192.561996
 20
325.458405
 10
192.557007
 20
326.705414
 10
192.582733
 20
327.948547
 10
192.634689
 20
329.18576
 10
192.750092
 20
330.635773
  0
LWPOLYLINE
  5
A8
330
7B
100
AcDbEntity
  8
0
  6
Continuous
 62
     0
370
    30
100
AcDbPolyline
 90
        9
 70
     0
 43
0.0
 10
192.750092
 20
330.635773
 10
192.922348
 20
332.027008
 10
193.150711
 20
333.388031
 10
193.421036
 20
334.726166
 10
193.713837
 20
336.058136
 10
194.018066
 20
337.397339
 10
194.33136
 20
338.750916
 10
194.653168
 20
340.121307
 10
194.999161
 20
341.639435
  0
ARC
  5
A9
330
7B
100
AcDbEntity
  8
0
  6
Continuous
 62
     0
370
    30
100
AcDbCircle
 10
207.738151
 20
316.358272
 30
0.0
 40
17.09290520733304
100
AcDbArc
 50
101.056778
 51
125.470509
  0
ARC
  5
AA
330
7B
100
AcDbEntity
  8
0
  6
Continuous
 62
     0
370
     0
100
AcDbCircle
 10
202.632549
 20
324.850466
 30
0.0
 40
7.254999209750073
100
AcDbArc
 50
131.561465
 51
185.073701
  0
LINE
  5
AB
330
7B
100
AcDbEntity
  8
0
  6
Continuous
 62
     0
370
    30
100
AcDbLine
 10
197.957006
 20
331.904251
 30
0.0
 11
197.819416
 21
330.278978
 31
0.0
  0
ARC
  5
AC
330
7B
100
AcDbEntity
  8
0
  6
Continuous
 62
     0
370
    30
100
AcDbCircle
 10
205.661251
 20
320.803001
 30
0.0
 40
13.512703253627
100
AcDbArc
 50
124.76057
 51
165.401007
  0
ARC
  5
AD
330
7B
100
AcDbEntity
  8
0
  6
Continuous
 62
     0
370
    30
100
AcDbCircle
 10
204.035638
 20
322.247274
 30
0.0
 40
11.41082635405959
100
AcDbArc
 50
87.868486
 51
122.188568
  0
LINE
  5
AE
330
7B
100
AcDbEntity
  8
0
  6
Continuous
 62
     0
370
     0
100
AcDbLine
 10
197.957006
 20
331.904251
 30
0.0
 11
198.93551
 21
341.98788
 31
0.0
  0
LINE
  5
AF
330
7B
100
AcDbEntity
  8
0
  6
Continuous
 62
     0
370
    30
100
AcDbLine
 10
204.46184
 20
333.132219
 30
0.0
 11
204.303833
 21
333.087652
 31
0.0
  0
LWPOLYLINE
  5
B0
330
7B
100
AcDbEntity
  8
0
  6
Continuous
 62
     0
370
    30
100
AcDbPolyline
 90
       21
 70
     0
 43
0.0
 10
195.995407
 20
324.208862
 10
195.919647
 20
324.888214
 10
195.918564
 20
325.573059
 10
195.993011
 20
326.252716
 10
196.140015
 20
326.919739
 10
196.352692
 20
327.569946
 10
196.623962
 20
328.199402
 10
196.94754
 20
328.803711
 10
197.323654
 20
329.375122
 10
197.755768
 20
329.904175
 10
198.242874
 20
330.384216
 10
198.776184
 20
330.813354
 10
199.346283
 20
331.191162
 10
199.944351
 20
331.523407
 10
200.561905
 20
331.818115
 10
201.192749
 20
332.082397
 10
201.83345
 20
332.322205
 10
202.480911
 20
332.542999
 10
203.132996
 20
332.748749
 10
203.789688
 20
332.943481
 10
204.460052
 20
333.133881
  0
LINE
  5
B1
330
7B
100
AcDbEntity
  8
0
  6
Continuous
 62
     0
370
    30
100
AcDbLine
 10
269.754762
 20
358.144873
 30
0.0
 11
270.224812
 21
358.152694
 31
0.0
  0
LINE
  5
B2
330
7B
100
AcDbEntity
  8
0
  6
Continuous
 62
     0
370
    30
100
AcDbLine
 10
195.552038
 20
342.226917
 30
0.0
 11
195.394017
 21
342.227213
 31
0.0
  0
LINE
  5
B3
330
7B
100
AcDbEntity
  8
0
  6
Continuous
 62
     0
370
    30
100
AcDbLine
 10
204.454764
 20
342.775727
 30
0.0
 11
202.359414
 21
342.515459
 31
0.0
  0
LINE
  5
B4
330
7B
100
AcDbEntity
  8
0
  6
Continuous
 62
     0
370
    30
100
AcDbLine
 10
194.256949
 20
342.227942
 30
0.0
 11
193.685
 21
342.22802
 31
0.0
  0
LINE
  5
B5
330
7B
100
AcDbEntity
  8
0
  6
Continuous
 62
     0
370
    30
100
AcDbLine
 10
270.935249
 20
357.543804
 30
0.0
 11
271.006533
 21
357.361114
 31
0.0
  0
ENDBLK
  5
B7
330
7B
100
AcDbEntity
  8
0
100
AcDbBlockEnd
  0
BLOCK
  5
FD
330
B9
100
AcDbEntity
  8
0
100
AcDbBlockBegin
  2
b
 70
     0
 10
126.517059
 20
111.566544
 30
0.0
  3
b
  1

  0
LINE
  5
BA
330
B9
100
AcDbEntity
  8
0
  6
Continuous
 62
     0
370
    30
100
AcDbLine
 10
223.495419
 20
114.847308
 30
0.0
 11
155.495419
 21
114.847308
 31
0.0
  0
LINE
  5
BB
330
B9
100
AcDbEntity
  8
0
  6
Continuous
 62
     0
370
    30
100
AcDbLine
 10
223.495225
 20
145.466235
 30
0.0
 11
223.495225
 21
114.847308
 31
0.0
  0
LINE
  5
BC
330
B9
100
AcDbEntity
  8
0
  6
Continuous
 62
     0
370
    30
100
AcDbLine
 10
223.495225
 20
182.847113
 30
0.0
 11
223.495225
 21
152.227984
 31
0.0
  0
LINE
  5
BD
330
B9
100
AcDbEntity
  8
0
  6
Continuous
 62
     0
370
    30
100
AcDbLine
 10
155.495419
 20
182.846919
 30
0.0
 11
223.495225
 21
182.846919
 31
0.0
  0
LINE
  5
BE
330
B9
100
AcDbEntity
  8
0
  6
Continuous
 62
     0
370
    30
100
AcDbLine
 10
155.495613
 20
114.847308
 30
0.0
 11
155.495613
 21
182.846919
 31
0.0
  0
LINE
  5
BF
330
B9
100
AcDbEntity
  8
0
  6
Continuous
 62
     0
370
    30
100
AcDbLine
 10
223.495292
 20
182.846919
 30
0.0
 11
197.232553
 21
156.646551
 31
0.0
  0
LINE
  5
C0
330
B9
100
AcDbEntity
  8
0
  6
Continuous
 62
     0
370
    30
100
AcDbLine
 10
181.784723
 20
156.494433
 30
0.0
 11
155.495727
 21
182.846919
 31
0.0
  0
LINE
  5
C1
330
B9
100
AcDbEntity
  8
0
  6
Continuous
 62
     0
370
    30
100
AcDbLine
 10
181.848073
 20
141.136392
 30
0.0
 11
155.495613
 21
114.847422
 31
0.0
  0
LINE
  5
C2
330
B9
100
AcDbEntity
  8
0
  6
Continuous
 62
     0
370
    30
100
AcDbLine
 10
197.292023
 20
141.112848
 30
0.0
 11
223.49511
 21
114.847308
 31
0.0
  0
LWPOLYLINE
  5
C3
330
B9
100
AcDbEntity
  8
0
  6
Continuous
 62
     0
370
     0
100
AcDbPolyline
 90
       12
 70
     0
 43
0.0
 10
270.935242
 20
144.955124
 10
271.459137
 20
145.034073
 10
271.932129
 20
145.117661
 10
272.353638
 20
145.205078
 10
272.723236
 20
145.295471
 10
273.040344
 20
145.388016
 10
273.304535
 20
145.481903
 10
273.515442
 20
145.576538
 10
273.672913
 20
145.67157
 10
273.776825
 20
145.766678
 10
273.826996
 20
145.861496
 10
273.819824
 20
145.965439
  0
ARC
  5
C4
330
B9
100
AcDbEntity
  8
0
  6
Continuous
 62
     0
370
     0
100
AcDbCircle
 10
270.466541
 20
144.926191
 30
0.0
 40
0.4696019339378226
100
AcDbArc
 50
267.032708
 51
3.532168
  0
ARC
  5
C5
330
B9
100
AcDbEntity
  8
0
  6
Continuous
 62
     0
370
     0
100
AcDbCircle
 10
270.466541
 20
152.768025
 30
0.0
 40
0.4696019537296274
100
AcDbArc
 50
356.467832
 51
92.967289
  0
LWPOLYLINE
  5
C6
330
B9
100
AcDbEntity
  8
0
  6
Continuous
 62
     0
370
     0
100
AcDbPolyline
 90
       12
 70
     0
 43
0.0
 10
270.935242
 20
152.73909
 10
271.459137
 20
152.660141
 10
271.932129
 20
152.576553
 10
272.353638
 20
152.489136
 10
272.723236
 20
152.398743
 10
273.040344
 20
152.306198
 10
273.304535
 20
152.212311
 10
273.515442
 20
152.117676
 10
273.672913
 20
152.022644
 10
273.776825
 20
151.927551
 10
273.826996
 20
151.832718
 10
273.819824
 20
151.728775
  0
LINE
  5
C7
330
B9
100
AcDbEntity
  8
0
  6
Continuous
 62
     0
370
     0
100
AcDbLine
 10
270.935251
 20
144.955122
 30
0.0
 11
270.935251
 21
148.847108
 31
0.0
  0
LINE
  5
C8
330
B9
100
AcDbEntity
  8
0
  6
Continuous
 62
     0
370
     0
100
AcDbLine
 10
270.935251
 20
148.847109
 30
0.0
 11
273.832042
 21
148.847109
 31
0.0
  0
LINE
  5
C9
330
B9
100
AcDbEntity
  8
0
  6
Continuous
 62
     0
370
     0
100
AcDbLine
 10
270.935251
 20
152.739094
 30
0.0
 11
270.935251
 21
148.847108
 31
0.0
  0
LINE
  5
CA
330
B9
100
AcDbEntity
  8
0
  6
Continuous
 62
     0
370
     0
100
AcDbLine
 10
194.925047
 20
158.251434
 30
0.0
 11
195.075206
 21
158.158062
 31
0.0
  0
LWPOLYLINE
  5
CB
330
B9
100
AcDbEntity
  8
0
  6
Continuous
 62
     0
370
     0
100
AcDbPolyline
 90
       27
 70
     0
 43
0.0
 10
178.635696
 20
148.847107
 10
178.670868
 20
149.718674
 10
178.775223
 20
150.584717
 10
178.949432
 20
151.439529
 10
179.191772
 20
152.277725
 10
179.500305
 20
153.093796
 10
179.873611
 20
153.882584
 10
180.30925
 20
154.639297
 10
180.80426
 20
155.358612
 10
181.355408
 20
156.035736
 10
181.959167
 20
156.666397
 10
182.611664
 20
157.246536
 10
183.308762
 20
157.772354
 10
184.045685
 20
158.240494
 10
184.817612
 20
158.647934
 10
185.620438
 20
158.991989
 10
186.449738
 20
159.27034
 10
187.299606
 20
159.481552
 10
188.163925
 20
159.624313
 10
189.036545
 20
159.697311
 10
189.911774
 20
159.699829
 10
190.784393
 20
159.63179
 10
191.649261
 20
159.493195
 10
192.501099
 20
159.28418
 10
193.333389
 20
159.00676
 10
194.13887
 20
158.664032
 10
194.925049
 20
158.251434
  0
LINE
  5
CC
330
B9
100
AcDbEntity
  8
0
  6
Continuous
 62
     0
370
     0
100
AcDbLine
 10
195.075154
 20
148.847109
 30
0.0
 11
178.635685
 21
148.847109
 31
0.0
  0
LINE
  5
CD
330
B9
100
AcDbEntity
  8
0
  6
Continuous
 62
     0
370
     0
100
AcDbLine
 10
195.075206
 20
158.158062
 30
0.0
 11
195.075154
 21
148.847109
 31
0.0
  0
LINE
  5
CE
330
B9
100
AcDbEntity
  8
0
  6
Continuous
 62
     0
370
     0
100
AcDbLine
 10
194.924685
 20
139.443372
 30
0.0
 11
195.075206
 21
139.535911
 31
0.0
  0
LINE
  5
CF
330
B9
100
AcDbEntity
  8
0
  6
Continuous
 62
     0
370
     0
100
AcDbLine
 10
195.075206
 20
139.535911
 30
0.0
 11
195.075154
 21
148.847109
 31
0.0
  0
LWPOLYLINE
  5
D0
330
B9
100
AcDbEntity
  8
0
  6
Continuous
 62
     0
370
     0
100
AcDbPolyline
 90
       27
 70
     0
 43
0.0
 10
178.635681
 20
148.847107
 10
178.669586
 20
147.975296
 10
178.775467
 20
147.109222
 10
178.949646
 20
146.254318
 10
179.191895
 20
145.415985
 10
179.50061
 20
144.599808
 10
179.873886
 20
143.811066
 10
180.309235
 20
143.054855
 10
180.804092
 20
142.335846
 10
181.355347
 20
141.658508
 10
181.959244
 20
141.02771
 10
182.611847
 20
140.447556
 10
183.309036
 20
139.921707
 10
184.046066
 20
139.453491
 10
184.818115
 20
139.046036
 10
185.621078
 20
138.701996
 10
186.450516
 20
138.42363
 10
187.300537
 20
138.212448
 10
188.164978
 20
138.069809
 10
189.03772
 20
137.997025
 10
189.913025
 20
137.994843
 10
190.785736
 20
138.063232
 10
191.650711
 20
138.202072
 10
192.502686
 20
138.411133
 10
193.335129
 20
138.688477
 10
194.140732
 20
139.031158
 10
194.925049
 20
139.44278
  0
LINE
  5
D1
330
B9
100
AcDbEntity
  8
0
  6
Continuous
 62
     0
370
     0
100
AcDbLine
 10
195.050456
 20
139.225513
 30
0.0
 11
194.925016
 21
139.442765
 31
0.0
  0
LINE
  5
D2
330
B9
100
AcDbEntity
  8
0
  6
Continuous
 62
     0
370
     0
100
AcDbLine
 10
178.635685
 20
148.847109
 30
0.0
 11
178.390565
 21
148.847109
 31
0.0
  0
LINE
  5
D3
330
B9
100
AcDbEntity
  8
0
  6
Continuous
 62
     0
370
     0
100
AcDbLine
 10
195.050456
 20
158.468705
 30
0.0
 11
194.925016
 21
158.251452
 31
0.0
  0
LINE
  5
D4
330
B9
100
AcDbEntity
  8
0
  6
Continuous
 62
     0
370
     0
100
AcDbLine
 10
204.460114
 20
152.023872
 30
0.0
 11
204.460114
 21
148.847109
 31
0.0
  0
LWPOLYLINE
  5
D5
330
B9
100
AcDbEntity
  8
0
  6
Continuous
 62
     0
370
     0
100
AcDbPolyline
 90
       31
 70
     0
 43
0.0
 10
195.075317
 20
158.158234
 10
195.393845
 20
157.94725
 10
195.7034
 20
157.723053
 10
196.003967
 20
157.487015
 10
196.295395
 20
157.239899
 10
196.577393
 20
156.982117
 10
196.848602
 20
156.713074
 10
197.104507
 20
156.429428
 10
197.347504
 20
156.134842
 10
197.593521
 20
155.842606
 10
197.854919
 20
155.564056
 10
198.126495
 20
155.295395
 10
198.403946
 20
155.032852
 10
198.687912
 20
154.77739
 10
198.979248
 20
154.530289
 10
199.277847
 20
154.291962
 10
199.58345
 20
154.062698
 10
199.895752
 20
153.842758
 10
200.214493
 20
153.632431
 10
200.539413
 20
153.432083
 10
200.870316
 20
153.242111
 10
201.20694
 20
153.062897
 10
201.549072
 20
152.894836
 10
201.8965
 20
152.738449
 10
202.248962
 20
152.59436
 10
202.606232
 20
152.463181
 10
202.968109
 20
152.345535
 10
203.334152
 20
152.242111
 10
203.703644
 20
152.153732
 10
204.075806
 20
152.081207
 10
204.460114
 20
152.023865
  0
LINE
  5
D6
330
B9
100
AcDbEntity
  8
0
  6
Continuous
 62
     0
370
     0
100
AcDbLine
 10
204.460114
 20
148.847109
 30
0.0
 11
195.075154
 21
148.847109
 31
0.0
  0
LWPOLYLINE
  5
D7
330
B9
100
AcDbEntity
  8
0
  6
Continuous
 62
     0
370
     0
100
AcDbPolyline
 90
       31
 70
     0
 43
0.0
 10
195.075211
 20
139.535904
 10
195.393738
 20
139.746887
 10
195.703293
 20
139.971085
 10
196.003876
 20
140.207108
 10
196.295303
 20
140.454239
 10
196.577301
 20
140.712006
 10
196.848511
 20
140.981064
 10
197.104416
 20
141.264694
 10
197.347427
 20
141.55928
 10
197.59343
 20
141.851517
 10
197.854828
 20
142.130066
 10
198.126404
 20
142.398727
 10
198.403854
 20
142.661285
 10
198.68782
 20
142.916733
 10
198.979156
 20
143.163849
 10
199.277756
 20
143.402176
 10
199.583344
 20
143.631454
 10
199.895645
 20
143.851395
 10
200.214386
 20
144.061722
 10
200.539307
 20
144.26207
 10
200.870209
 20
144.452057
 10
201.206833
 20
144.631271
 10
201.548965
 20
144.799332
 10
201.896378
 20
144.955719
 10
202.24884
 20
145.099808
 10
202.606125
 20
145.231003
 10
202.967987
 20
145.348648
 10
203.33403
 20
145.452072
 10
203.703522
 20
145.540451
 10
204.075684
 20
145.612991
 10
204.460114
 20
145.670349
  0
LINE
  5
D8
330
B9
100
AcDbEntity
  8
0
  6
Continuous
 62
     0
370
     0
100
AcDbLine
 10
204.460114
 20
145.670346
 30
0.0
 11
204.460114
 21
148.847109
 31
0.0
  0
LINE
  5
D9
330
B9
100
AcDbEntity
  8
0
  6
Continuous
 62
     0
370
     0
100
AcDbLine
 10
195.075206
 20
139.535911
 30
0.0
 11
195.205494
 21
139.32839
 31
0.0
  0
LINE
  5
DA
330
B9
100
AcDbEntity
  8
0
  6
Continuous
 62
     0
370
     0
100
AcDbLine
 10
195.075157
 20
158.158093
 30
0.0
 11
195.208914
 21
158.370348
 31
0.0
  0
ARC
  5
DB
330
B9
100
AcDbEntity
  8
0
  6
Continuous
 62
     0
370
    30
100
AcDbCircle
 10
206.203743
 20
134.609624
 30
0.0
 40
10.94422420485771
100
AcDbArc
 50
99.1887
 51
131.614479
  0
LINE
  5
DC
330
B9
100
AcDbEntity
  8
0
  6
Continuous
 62
     0
370
    30
100
AcDbLine
 10
204.456098
 20
145.41341
 30
0.0
 11
204.454772
 21
145.663995
 31
0.0
  0
LINE
  5
DD
330
B9
100
AcDbEntity
  8
0
  6
Continuous
 62
     0
370
    30
100
AcDbLine
 10
204.456098
 20
152.280808
 30
0.0
 11
204.454772
 21
152.030222
 31
0.0
  0
ARC
  5
DE
330
B9
100
AcDbEntity
  8
0
  6
Continuous
 62
     0
370
    30
100
AcDbCircle
 10
206.203743
 20
163.084593
 30
0.0
 40
10.94422444566625
100
AcDbArc
 50
228.385521
 51
260.811299
  0
LWPOLYLINE
  5
DF
330
B9
100
AcDbEntity
  8
0
  6
Continuous
 62
     0
370
     0
100
AcDbPolyline
 90
       17
 70
     0
 43
0.0
 10
269.754761
 20
153.002121
 10
265.691711
 20
152.849274
 10
261.631592
 20
152.689606
 10
257.57077
 20
152.542603
 10
253.508774
 20
152.409012
 10
249.445999
 20
152.290222
 10
245.382812
 20
152.187103
 10
241.31955
 20
152.100021
 10
237.256424
 20
152.028976
 10
233.193176
 20
151.973663
 10
229.129547
 20
151.934021
 10
225.065277
 20
151.910217
 10
221.000092
 20
151.902252
 10
216.934402
 20
151.909851
 10
212.87085
 20
151.932922
 10
208.812881
 20
151.97142
 10
204.460205
 20
152.030136
  0
LINE
  5
E0
330
B9
100
AcDbEntity
  8
0
  6
Continuous
 62
     0
370
     0
100
AcDbLine
 10
269.81609
 20
153.252089
 30
0.0
 11
269.812083
 21
153.001206
 31
0.0
  0
LWPOLYLINE
  5
E1
330
B9
100
AcDbEntity
  8
0
  6
Continuous
 62
     0
370
     0
100
AcDbPolyline
 90
       17
 70
     0
 43
0.0
 10
204.460114
 20
152.280746
 10
208.55925
 20
152.225021
 10
212.627487
 20
152.185333
 10
216.694305
 20
152.161041
 10
220.760757
 20
152.152283
 10
224.827057
 20
152.15918
 10
228.893417
 20
152.182022
 10
232.959839
 20
152.220688
 10
237.026169
 20
152.274933
 10
241.0923
 20
152.344666
 10
245.158218
 20
152.430145
 10
249.223801
 20
152.53154
 10
253.28894
 20
152.648773
 10
257.353638
 20
152.781616
 10
261.417908
 20
152.929138
 10
265.483429
 20
153.09024
 10
269.819427
 20
153.251617
  0
LWPOLYLINE
  5
E2
330
B9
100
AcDbEntity
  8
0
  6
Continuous
 62
     0
370
     0
100
AcDbPolyline
 90
       17
 70
     0
 43
0.0
 10
269.819427
 20
144.442596
 10
265.743073
 20
144.593323
 10
261.66745
 20
144.755585
 10
257.591125
 20
144.904373
 10
253.514313
 20
145.038483
 10
249.437012
 20
145.157013
 10
245.359299
 20
145.259476
 10
241.281265
 20
145.345932
 10
237.202972
 20
145.41658
 10
233.124527
 20
145.471634
 10
229.046005
 20
145.511032
 10
224.967361
 20
145.5345
 10
220.888733
 20
145.541977
 10
216.810364
 20
145.53363
 10
212.73201
 20
145.509705
 10
208.653549
 20
145.470367
 10
204.460114
 20
145.413467
  0
LINE
  5
E3
330
B9
100
AcDbEntity
  8
0
  6
Continuous
 62
     0
370
     0
100
AcDbLine
 10
269.81609
 20
144.442127
 30
0.0
 11
269.812083
 21
144.69301
 31
0.0
  0
LWPOLYLINE
  5
E4
330
B9
100
AcDbEntity
  8
0
  6
Continuous
 62
     0
370
     0
100
AcDbPolyline
 90
       17
 70
     0
 43
0.0
 10
269.754761
 20
144.692093
 10
265.691711
 20
144.84494
 10
261.631592
 20
145.004608
 10
257.57077
 20
145.151611
 10
253.508774
 20
145.285202
 10
249.445999
 20
145.403992
 10
245.382812
 20
145.507126
 10
241.31955
 20
145.594193
 10
237.256424
 20
145.665253
 10
233.193176
 20
145.720551
 10
229.129547
 20
145.760193
 10
225.065277
 20
145.784012
 10
221.000092
 20
145.791962
 10
216.934402
 20
145.784363
 10
212.87085
 20
145.761292
 10
208.812881
 20
145.722809
 10
204.460205
 20
145.664078
  0
LINE
  5
E5
330
B9
100
AcDbEntity
  8
0
  6
Continuous
 62
     0
370
     0
100
AcDbLine
 10
269.773544
 20
144.692419
 30
0.0
 11
269.769392
 21
148.847108
 31
0.0
  0
LINE
  5
E6
330
B9
100
AcDbEntity
  8
0
  6
Continuous
 62
     0
370
     0
100
AcDbLine
 10
269.769392
 20
148.847108
 30
0.0
 11
204.460114
 21
148.847109
 31
0.0
  0
LINE
  5
E7
330
B9
100
AcDbEntity
  8
0
  6
Continuous
 62
     0
370
     0
100
AcDbLine
 10
269.773544
 20
153.001797
 30
0.0
 11
269.769392
 21
148.847108
 31
0.0
  0
LINE
  5
E8
330
B9
100
AcDbEntity
  8
0
  6
Continuous
 62
     0
370
    30
100
AcDbLine
 10
269.819414
 20
144.442602
 30
0.0
 11
270.442232
 21
144.457218
 31
0.0
  0
LINE
  5
E9
330
B9
100
AcDbEntity
  8
0
  6
Continuous
 62
     0
370
    30
100
AcDbLine
 10
270.935251
 20
144.955122
 30
0.0
 11
269.773609
 21
144.696989
 31
0.0
  0
LINE
  5
EA
330
B9
100
AcDbEntity
  8
0
  6
Continuous
 62
     0
370
    30
100
AcDbLine
 10
270.935251
 20
152.739094
 30
0.0
 11
269.773609
 21
152.997227
 31
0.0
  0
LINE
  5
EB
330
B9
100
AcDbEntity
  8
0
  6
Continuous
 62
     0
370
    30
100
AcDbLine
 10
269.819414
 20
153.251614
 30
0.0
 11
270.442232
 21
153.236998
 31
0.0
  0
LINE
  5
EC
330
B9
100
AcDbEntity
  8
0
  6
Continuous
 62
     0
370
     0
100
AcDbLine
 10
270.935251
 20
148.847108
 30
0.0
 11
269.769617
 21
148.847108
 31
0.0
  0
LINE
  5
ED
330
B9
100
AcDbEntity
  8
0
  6
Continuous
 62
     0
370
    30
100
AcDbLine
 10
203.12144
 20
145.123449
 30
0.0
 11
203.312111
 21
145.177657
 31
0.0
  0
LINE
  5
EE
330
B9
100
AcDbEntity
  8
0
  6
Continuous
 62
     0
370
    30
100
AcDbLine
 10
203.12144
 20
152.570768
 30
0.0
 11
203.312165
 21
152.516546
 31
0.0
  0
LINE
  5
EF
330
B9
100
AcDbEntity
  8
0
  6
Continuous
 62
     0
370
    30
100
AcDbLine
 10
269.816026
 20
144.442134
 30
0.0
 11
268.193298
 21
144.490127
 31
0.0
  0
LINE
  5
F0
330
B9
100
AcDbEntity
  8
0
  6
Continuous
 62
     0
370
    30
100
AcDbLine
 10
269.816026
 20
153.252082
 30
0.0
 11
268.193298
 21
153.204089
 31
0.0
  0
ARC
  5
F1
330
B9
100
AcDbEntity
  8
0
  6
Continuous
 62
     0
370
    30
100
AcDbCircle
 10
187.502742
 20
147.105446
 30
0.0
 40
13.64855824855001
100
AcDbArc
 50
38.535036
 51
55.624352
  0
LINE
  5
F2
330
B9
100
AcDbEntity
  8
0
  6
Continuous
 62
     0
370
    30
100
AcDbLine
 10
201.792079
 20
153.065121
 30
0.0
 11
200.572882
 21
153.714178
 31
0.0
  0
ARC
  5
F3
330
B9
100
AcDbEntity
  8
0
  6
Continuous
 62
     0
370
    30
100
AcDbCircle
 10
187.505293
 20
150.585913
 30
0.0
 40
13.64474239839057
100
AcDbArc
 50
304.371777
 51
321.466112
  0
LINE
  5
F4
330
B9
100
AcDbEntity
  8
0
  6
Continuous
 62
     0
370
    30
100
AcDbLine
 10
201.792079
 20
144.629096
 30
0.0
 11
200.572868
 21
143.980031
 31
0.0
  0
LINE
  5
F5
330
B9
100
AcDbEntity
  8
0
  6
Continuous
 62
     0
370
    30
100
AcDbLine
 10
178.385294
 20
148.847116
 30
0.0
 11
178.409567
 21
149.580848
 31
0.0
  0
LINE
  5
F6
330
B9
100
AcDbEntity
  8
0
  6
Continuous
 62
     0
370
    30
100
AcDbLine
 10
195.050429
 20
158.468658
 30
0.0
 11
194.40268
 21
158.814375
 31
0.0
  0
LINE
  5
F7
330
B9
100
AcDbEntity
  8
0
  6
Continuous
 62
     0
370
    30
100
AcDbLine
 10
195.050429
 20
139.225558
 30
0.0
 11
194.402586
 21
138.879695
 31
0.0
  0
LINE
  5
F8
330
B9
100
AcDbEntity
  8
0
  6
Continuous
 62
     0
370
    30
100
AcDbLine
 10
178.385293
 20
148.84711
 30
0.0
 11
178.409053
 21
148.122219
 31
0.0
  0
LINE
  5
F9
330
B9
100
AcDbEntity
  8
0
  6
Continuous
 62
     0
370
    30
100
AcDbLine
 10
273.832042
 20
148.847109
 30
0.0
 11
273.832042
 21
151.792113
 31
0.0
  0
LINE
  5
FA
330
B9
100
AcDbEntity
  8
0
  6
Continuous
 62
     0
370
    30
100
AcDbLine
 10
273.832042
 20
145.902104
 30
0.0
 11
273.832042
 21
148.847109
 31
0.0
  0
LWPOLYLINE
  5
FB
330
B9
100
AcDbEntity
  8
0
  6
Continuous
 62
     0
370
    30
100
AcDbPolyline
 90
       17
 70
     0
 43
0.0
 10
270.540222
 20
153.234085
 10
270.88562
 20
153.182068
 10
271.214905
 20
153.127319
 10
271.526611
 20
153.07019
 10
271.819244
 20
153.010956
 10
272.091248
 20
152.949951
 10
272.341278
 20
152.887451
 10
272.56955
 20
152.823334
 10
272.777496
 20
152.757172
 10
272.966583
 20
152.688538
 10
273.138306
 20
152.616806
 10
273.29483
 20
152.538727
 10
273.438812
 20
152.449234
 10
273.572815
 20
152.343079
 10
273.694244
 20
152.207077
 10
273.790619
 20
152.020035
 10
273.83194
 20
151.791946
  0
LWPOLYLINE
  5
FC
330
B9
100
AcDbEntity
  8
0
  6
Continuous
 62
     0
370
    30
100
AcDbPolyline
 90
       17
 70
     0
 43
0.0
 10
270.540222
 20
144.460129
 10
270.88562
 20
144.512161
 10
271.214905
 20
144.566895
 10
271.526611
 20
144.624023
 10
271.819244
 20
144.683258
 10
272.091248
 20
144.744263
 10
272.341278
 20
144.806763
 10
272.56955
 20
144.87088
 10
272.777496
 20
144.937042
 10
272.966583
 20
145.005676
 10
273.138306
 20
145.077408
 10
273.29483
 20
145.155487
 10
273.438812
 20
145.244995
 10
273.572815
 20
145.351151
 10
273.694244
 20
145.487137
 10
273.790619
 20
145.674179
 10
273.83194
 20
145.902267
  0
ENDBLK
  5
FE
330
B9
100
AcDbEntity
  8
0
100
AcDbBlockEnd
  0
BLOCK
  5
12D
330
100
100
AcDbEntity
  8
0
100
AcDbBlockBegin
  2
c
 70
     0
 10
126.517059
 20
111.566544
 30
0.0
  3
c
  1

  0
LINE
  5
101
330
100
100
AcDbEntity
  8
0
  6
Continuous
 62
     0
370
    30
100
AcDbLine
 10
396.050093
 20
292.210098
 30
0.0
 11
396.052593
 21
289.210096
 31
0.0
  0
LINE
  5
102
330
100
100
AcDbEntity
  8
0
  6
Continuous
 62
     0
370
    30
100
AcDbLine
 10
328.047981
 20
289.210096
 30
0.0
 11
328.050481
 21
292.210098
 31
0.0
  0
LINE
  5
103
330
100
100
AcDbEntity
  8
0
  6
Continuous
 62
     0
370
    30
100
AcDbLine
 10
328.047981
 20
289.210096
 30
0.0
 11
396.052593
 21
289.210096
 31
0.0
  0
LINE
  5
104
330
100
100
AcDbEntity
  8
0
  6
Continuous
 62
     0
370
    30
100
AcDbLine
 10
396.050093
 20
292.210098
 30
0.0
 11
328.050481
 21
292.210098
 31
0.0
  0
LINE
  5
105
330
100
100
AcDbEntity
  8
0
  6
Continuous
 62
     0
370
    30
100
AcDbLine
 10
366.845385
 20
323.954215
 30
0.0
 11
362.050287
 21
323.954215
 31
0.0
  0
LINE
  5
106
330
100
100
AcDbEntity
  8
0
  6
Continuous
 62
     0
370
    30
100
AcDbLine
 10
368.831579
 20
323.954215
 30
0.0
 11
366.845385
 21
323.954215
 31
0.0
  0
LINE
  5
107
330
100
100
AcDbEntity
  8
0
  6
Continuous
 62
     0
370
    30
100
AcDbLine
 10
357.255187
 20
323.954215
 30
0.0
 11
355.268992
 21
323.954215
 31
0.0
  0
LINE
  5
108
330
100
100
AcDbEntity
  8
0
  6
Continuous
 62
     0
370
    30
100
AcDbLine
 10
362.050287
 20
323.954215
 30
0.0
 11
357.255187
 21
323.954215
 31
0.0
  0
LINE
  5
109
330
100
100
AcDbEntity
  8
0
  6
Continuous
 62
     0
370
    30
100
AcDbLine
 10
355.538554
 20
324.208847
 30
0.0
 11
362.050286
 21
324.208847
 31
0.0
  0
LINE
  5
10A
330
100
100
AcDbEntity
  8
0
  6
Continuous
 62
     0
370
    30
100
AcDbLine
 10
362.050286
 20
324.208847
 30
0.0
 11
368.562017
 21
324.208847
 31
0.0
  0
LWPOLYLINE
  5
10B
330
100
100
AcDbEntity
  8
0
  6
Continuous
 62
     0
370
    30
100
AcDbPolyline
 90
      145
 70
     0
 43
0.0
 10
357.255188
 20
323.954224
 10
357.085388
 20
322.91449
 10
356.941803
 20
322.268341
 10
356.811829
 20
321.782959
 10
356.69046
 20
321.379242
 10
356.574554
 20
321.026001
 10
356.461029
 20
320.705872
 10
356.347198
 20
320.406616
 10
356.230957
 20
320.119415
 10
356.110779
 20
319.837982
 10
355.986023
 20
319.558472
 10
355.856628
 20
319.279053
 10
355.723175
 20
318.999542
 10
355.586487
 20
318.720917
 10
355.447601
 20
318.444794
 10
355.307587
 20
318.172974
 10
355.167419
 20
317.907104
 10
355.027893
 20
317.648499
 10
354.889618
 20
317.398041
 10
354.753082
 20
317.156189
 10
354.618622
 20
316.923126
 10
354.486389
 20
316.69873
 10
354.356598
 20
316.482788
 10
354.229309
 20
316.274933
 10
354.104675
 20
316.07489
 10
353.982758
 20
315.882355
 10
353.863647
 20
315.697083
 10
353.747528
 20
315.51889
 10
353.634521
 20
315.347626
 10
353.52475
 20
315.183228
 10
353.418396
 20
315.025604
 10
353.315552
 20
314.874725
 10
353.21637
 20
314.730499
 10
353.120911
 20
314.592896
 10
353.029236
 20
314.461761
 10
352.941376
 20
314.337006
 10
352.857269
 20
314.218445
 10
352.776855
 20
314.105835
 10
352.700043
 20
313.998901
 10
352.626648
 20
313.897369
 10
352.556458
 20
313.800873
 10
352.489258
 20
313.709015
 10
352.424805
 20
313.621429
 10
352.362793
 20
313.537689
 10
352.302917
 20
313.457306
 10
352.244812
 20
313.379883
 10
352.188171
 20
313.304901
 10
352.132568
 20
313.231964
 10
352.077667
 20
313.160553
 10
352.02301
 20
313.09021
 10
351.96814
 20
313.020416
 10
351.912689
 20
312.950745
 10
351.856079
 20
312.880676
 10
351.797913
 20
312.809692
 10
351.73761
 20
312.737305
 10
351.674683
 20
312.663025
 10
351.608612
 20
312.586334
 10
351.538849
 20
312.506775
 10
351.464905
 20
312.423828
 10
351.38623
 20
312.337036
 10
351.302368
 20
312.246002
 10
351.21286
 20
312.150299
 10
351.11731
 20
312.049591
 10
351.015381
 20
311.943542
 10
350.906738
 20
311.83197
 10
350.791199
 20
311.714661
 10
350.668579
 20
311.591522
 10
350.538818
 20
311.462463
 10
350.401886
 20
311.327576
 10
350.257843
 20
311.18689
 10
350.106873
 20
311.040619
 10
349.949158
 20
310.888947
 10
349.784973
 20
310.732178
 10
349.614655
 20
310.570618
 10
349.438538
 20
310.404663
 10
349.25705
 20
310.23468
 10
349.070618
 20
310.061066
 10
348.8797
 20
309.884308
 10
348.684753
 20
309.704773
 10
348.486206
 20
309.522919
 10
348.284485
 20
309.339111
 10
348.080048
 20
309.153778
 10
347.873291
 20
308.967224
 10
347.66452
 20
308.779816
 10
347.454102
 20
308.591797
 10
347.24234
 20
308.403412
 10
347.029419
 20
308.214874
 10
346.815582
 20
308.026337
 10
346.600983
 20
307.837921
 10
346.385742
 20
307.649719
 10
346.169922
 20
307.461731
 10
345.953613
 20
307.273987
 10
345.736816
 20
307.086487
 10
345.519501
 20
306.899139
 10
345.301636
 20
306.711884
 10
345.08313
 20
306.524658
 10
344.863983
 20
306.337311
 10
344.644012
 20
306.14975
 10
344.423126
 20
305.961823
 10
344.201233
 20
305.773376
 10
343.97818
 20
305.58432
 10
343.753876
 20
305.39444
 10
343.528107
 20
305.203613
 10
343.300781
 20
305.011719
 10
343.071777
 20
304.818542
 10
342.840881
 20
304.624023
 10
342.608002
 20
304.427917
 10
342.372955
 20
304.230164
 10
342.13562
 20
304.030579
 10
341.895844
 20
303.82901
 10
341.653442
 20
303.625336
 10
341.408295
 20
303.419373
 10
341.160187
 20
303.211029
 10
340.908997
 20
303.000092
 10
340.65451
 20
302.786438
 10
340.396545
 20
302.569916
 10
340.134918
 20
302.350311
 10
339.869385
 20
302.127472
 10
339.599762
 20
301.901184
 10
339.325745
 20
301.671234
 10
339.047089
 20
301.437408
 10
338.763489
 20
301.199432
 10
338.47464
 20
300.957031
 10
338.180145
 20
300.7099
 10
337.879578
 20
300.457703
 10
337.57254
 20
300.200043
 10
337.258453
 20
299.936493
 10
336.936737
 20
299.666565
 10
336.60672
 20
299.389648
 10
336.267639
 20
299.105103
 10
335.918549
 20
298.812195
 10
335.558411
 20
298.51001
 10
335.186005
 20
298.19751
 10
334.799744
 20
297.873413
 10
334.397797
 20
297.536102
 10
333.977661
 20
297.183594
 10
333.536163
 20
296.813141
 10
333.068787
 20
296.420959
 10
332.569397
 20
296.001923
 10
332.029144
 20
295.548584
 10
331.435608
 20
295.050568
 10
330.77121
 20
294.493073
 10
330.011261
 20
293.855408
 10
329.121399
 20
293.108704
 10
328.050476
 20
292.210083
  0
LWPOLYLINE
  5
10C
330
100
100
AcDbEntity
  8
0
  6
Continuous
 62
     0
370
    30
100
AcDbPolyline
 90
      145
 70
     0
 43
0.0
 10
366.845398
 20
323.954224
 10
367.03125
 20
322.91449
 10
367.185425
 20
322.268341
 10
367.323425
 20
321.782959
 10
367.451141
 20
321.379242
 10
367.572296
 20
321.026001
 10
367.690186
 20
320.705872
 10
367.807648
 20
320.406616
 10
367.927032
 20
320.119415
 10
368.049835
 20
319.837982
 10
368.176819
 20
319.558472
 10
368.308044
 20
319.279053
 10
368.443024
 20
318.999542
 10
368.580872
 20
318.720917
 10
368.72052
 20
318.444794
 10
368.860992
 20
318.172974
 10
369.001282
 20
317.907104
 10
369.140594
 20
317.648499
 10
369.27832
 20
317.398041
 10
369.414062
 20
317.156189
 10
369.547516
 20
316.923126
 10
369.678467
 20
316.69873
 10
369.806793
 20
316.482788
 10
369.932465
 20
316.274933
 10
370.055389
 20
316.07489
 10
370.175476
 20
315.882355
 10
370.292664
 20
315.697083
 10
370.406799
 20
315.51889
 10
370.517822
 20
315.347626
 10
370.625549
 20
315.183228
 10
370.729889
 20
315.025604
 10
370.83075
 20
314.874725
 10
370.927948
 20
314.730499
 10
371.021484
 20
314.592896
 10
371.111267
 20
314.461761
 10
371.197296
 20
314.337006
 10
371.279633
 20
314.218445
 10
371.358337
 20
314.105835
 10
371.433533
 20
313.998901
 10
371.505371
 20
313.897369
 10
371.574066
 20
313.800873
 10
371.639862
 20
313.709015
 10
371.702972
 20
313.621429
 10
371.763702
 20
313.537689
 10
371.822388
 20
313.457306
 10
371.879333
 20
313.379883
 10
371.934937
 20
313.304901
 10
371.989502
 20
313.231964
 10
372.043457
 20
313.160553
 10
372.097198
 20
313.09021
 10
372.151154
 20
313.020416
 10
372.205811
 20
312.950745
 10
372.261597
 20
312.880676
 10
372.319031
 20
312.809692
 10
372.378571
 20
312.737305
 10
372.440796
 20
312.663025
 10
372.506195
 20
312.586334
 10
372.575287
 20
312.506775
 10
372.648621
 20
312.423828
 10
372.726654
 20
312.337036
 10
372.809906
 20
312.246002
 10
372.898804
 20
312.150299
 10
372.993774
 20
312.049591
 10
373.095154
 20
311.943542
 10
373.203247
 20
311.83197
 10
373.318237
 20
311.714661
 10
373.440338
 20
311.591522
 10
373.56958
 20
311.462463
 10
373.706024
 20
311.327576
 10
373.849548
 20
311.18689
 10
374.000061
 20
311.040619
 10
374.157318
 20
310.888947
 10
374.321075
 20
310.732178
 10
374.490997
 20
310.570618
 10
374.666718
 20
310.404663
 10
374.847809
 20
310.23468
 10
375.033875
 20
310.061066
 10
375.224457
 20
309.884308
 10
375.419098
 20
309.704773
 10
375.61734
 20
309.522919
 10
375.818756
 20
309.339111
 10
376.022919
 20
309.153778
 10
376.229431
 20
308.967224
 10
376.437958
 20
308.779816
 10
376.648163
 20
308.591797
 10
376.859772
 20
308.403412
 10
377.072479
 20
308.214874
 10
377.286163
 20
308.026337
 10
377.50061
 20
307.837921
 10
377.715729
 20
307.649719
 10
377.931396
 20
307.461731
 10
378.147614
 20
307.273987
 10
378.364319
 20
307.086487
 10
378.581543
 20
306.899139
 10
378.799347
 20
306.711884
 10
379.017761
 20
306.524658
 10
379.236877
 20
306.337311
 10
379.456818
 20
306.14975
 10
379.677643
 20
305.961823
 10
379.899475
 20
305.773376
 10
380.122498
 20
305.58432
 10
380.346802
 20
305.39444
 10
380.57254
 20
305.203613
 10
380.799835
 20
305.011719
 10
381.028839
 20
304.818542
 10
381.259705
 20
304.624023
 10
381.492584
 20
304.427917
 10
381.7276
 20
304.230164
 10
381.964935
 20
304.030579
 10
382.204712
 20
303.82901
 10
382.447083
 20
303.625336
 10
382.692261
 20
303.419373
 10
382.940338
 20
303.211029
 10
383.191528
 20
303.000092
 10
383.446014
 20
302.786438
 10
383.703979
 20
302.569916
 10
383.965607
 20
302.350311
 10
384.23111
 20
302.127472
 10
384.500763
 20
301.901184
 10
384.77478
 20
301.671234
 10
385.053436
 20
301.437408
 10
385.337006
 20
301.199432
 10
385.625885
 20
300.957031
 10
385.92038
 20
300.7099
 10
386.220917
 20
300.457703
 10
386.527985
 20
300.200043
 10
386.842072
 20
299.936493
 10
387.163757
 20
299.666565
 10
387.493774
 20
299.389648
 10
387.832855
 20
299.105103
 10
388.181946
 20
298.812195
 10
388.542084
 20
298.51001
 10
388.91449
 20
298.19751
 10
389.300751
 20
297.873413
 10
389.702698
 20
297.536102
 10
390.122833
 20
297.183594
 10
390.564331
 20
296.813141
 10
391.031677
 20
296.420959
 10
391.531097
 20
296.001923
 10
392.07135
 20
295.548584
 10
392.664856
 20
295.050568
 10
393.329254
 20
294.493073
 10
394.089203
 20
293.855408
 10
394.979065
 20
293.108704
 10
396.049988
 20
292.210083
  0
LWPOLYLINE
  5
10D
330
100
100
AcDbEntity
  8
0
  6
Continuous
 62
     0
370
    30
100
AcDbPolyline
 90
       38
 70
     0
 43
0.0
 10
395.990814
 20
292.263092
 10
395.133057
 20
293.029907
 10
394.27536
 20
293.796692
 10
393.417633
 20
294.563507
 10
392.559967
 20
295.330322
 10
391.702271
 20
296.097107
 10
390.844574
 20
296.863922
 10
389.986908
 20
297.630737
 10
389.129211
 20
298.397552
 10
388.271515
 20
299.164398
 10
387.413788
 20
299.931244
 10
386.55603
 20
300.69809
 10
385.698242
 20
301.464966
 10
384.840454
 20
302.231873
 10
383.982605
 20
302.998779
 10
383.124756
 20
303.765747
 10
382.267548
 20
304.533417
 10
381.411926
 20
305.302704
 10
380.558838
 20
306.074554
 10
379.70929
 20
306.849884
 10
378.864349
 20
307.630035
 10
378.025482
 20
308.416992
 10
377.194122
 20
309.21286
 10
376.371918
 20
310.019775
 10
375.564392
 20
310.842041
 10
374.781158
 20
311.685913
 10
374.031982
 20
312.557922
 10
373.326599
 20
313.464386
 10
372.670013
 20
314.407654
 10
372.058594
 20
315.38266
 10
371.487854
 20
316.383575
 10
370.953339
 20
317.40451
 10
370.455536
 20
318.442627
 10
370.003571
 20
319.5
 10
369.60733
 20
320.579285
 10
369.276001
 20
321.681702
 10
369.016113
 20
322.803192
 10
368.831573
 20
323.954224
  0
LWPOLYLINE
  5
10E
330
100
100
AcDbEntity
  8
0
  6
Continuous
 62
     0
370
    30
100
AcDbPolyline
 90
       38
 70
     0
 43
0.0
 10
328.109772
 20
292.263092
 10
328.967499
 20
293.029907
 10
329.825226
 20
293.796692
 10
330.682922
 20
294.563507
 10
331.540619
 20
295.330322
 10
332.398285
 20
296.097107
 10
333.255981
 20
296.863922
 10
334.113678
 20
297.630737
 10
334.971375
 20
298.397552
 10
335.829071
 20
299.164398
 10
336.686798
 20
299.931244
 10
337.544556
 20
300.69809
 10
338.402313
 20
301.464966
 10
339.260132
 20
302.231873
 10
340.117981
 20
302.998779
 10
340.9758
 20
303.765747
 10
341.833008
 20
304.533417
 10
342.68866
 20
305.302704
 10
343.541718
 20
306.074554
 10
344.391296
 20
306.849884
 10
345.236206
 20
307.630035
 10
346.075104
 20
308.416992
 10
346.906464
 20
309.21286
 10
347.728668
 20
310.019775
 10
348.536194
 20
310.842041
 10
349.319427
 20
311.685913
 10
350.068573
 20
312.557922
 10
350.773956
 20
313.464386
 10
351.430573
 20
314.407654
 10
352.041992
 20
315.38266
 10
352.612732
 20
316.383575
 10
353.147247
 20
317.40451
 10
353.64502
 20
318.442627
 10
354.096985
 20
319.5
 10
354.493256
 20
320.579285
 10
354.824585
 20
321.681702
 10
355.084442
 20
322.803192
 10
355.268982
 20
323.954224
  0
LWPOLYLINE
  5
10F
330
100
100
AcDbEntity
  8
0
  6
Continuous
 62
     0
370
     0
100
AcDbPolyline
 90
       25
 70
     0
 43
0.0
 10
362.050293
 20
342.228363
 10
361.137665
 20
342.228394
 10
360.231476
 20
342.228424
 10
359.338074
 20
342.228424
 10
358.463745
 20
342.228455
 10
357.614868
 20
342.228455
 10
356.797058
 20
342.228455
 10
356.016083
 20
342.228455
 10
355.277954
 20
342.228485
 10
354.587891
 20
342.228455
 10
353.950684
 20
342.228455
 10
353.370911
 20
342.228455
 10
352.852661
 20
342.228455
 10
352.399567
 20
342.228424
 10
352.014893
 20
342.228424
 10
351.701477
 20
342.228394
 10
351.461304
 20
342.228394
 10
351.295837
 20
342.228363
 10
351.206573
 20
342.228333
 10
351.19455
 20
342.228302
 10
351.259918
 20
342.228241
 10
351.402649
 20
342.22821
 10
351.622589
 20
342.228119
 10
351.917419
 20
342.228058
 10
352.290222
 20
342.227936
  0
LWPOLYLINE
  5
110
330
100
100
AcDbEntity
  8
0
  6
Continuous
 62
     0
370
     0
100
AcDbPolyline
 90
       25
 70
     0
 43
0.0
 10
362.050293
 20
342.228363
 10
362.963074
 20
342.228394
 10
363.869293
 20
342.228424
 10
364.762726
 20
342.228424
 10
365.637085
 20
342.228455
 10
366.486053
 20
342.228455
 10
367.303619
 20
342.228455
 10
368.083984
 20
342.228455
 10
368.821991
 20
342.228485
 10
369.512299
 20
342.228455
 10
370.149536
 20
342.228455
 10
370.72934
 20
342.228455
 10
371.247681
 20
342.228455
 10
371.700836
 20
342.228424
 10
372.085571
 20
342.228424
 10
372.399017
 20
342.228394
 10
372.639252
 20
342.228394
 10
372.804718
 20
342.228363
 10
372.89386
 20
342.228333
 10
372.90564
 20
342.228302
 10
372.840027
 20
342.228241
 10
372.697174
 20
342.22818
 10
372.477325
 20
342.228119
 10
372.182739
 20
342.228058
 10
371.810303
 20
342.227936
  0
LINE
  5
111
330
100
100
AcDbEntity
  8
0
  6
Continuous
 62
     0
370
     0
100
AcDbLine
 10
362.050288
 20
342.22837
 30
0.0
 11
362.050288
 21
341.927049
 31
0.0
  0
LINE
  5
112
330
100
100
AcDbEntity
  8
0
  6
Continuous
 62
     0
370
     0
100
AcDbLine
 10
362.050288
 20
341.927049
 30
0.0
 11
373.155124
 21
341.92698
 31
0.0
  0
LINE
  5
113
330
100
100
AcDbEntity
  8
0
  6
Continuous
 62
     0
370
     0
100
AcDbLine
 10
362.05028
 20
341.927048
 30
0.0
 11
350.945796
 21
341.927046
 31
0.0
  0
LINE
  5
114
330
100
100
AcDbEntity
  8
0
  6
Continuous
 62
     0
370
     0
100
AcDbLine
 10
358.873524
 20
342.776539
 30
0.0
 11
362.050287
 21
342.776539
 31
0.0
  0
LWPOLYLINE
  5
115
330
100
100
AcDbEntity
  8
0
  6
Continuous
 62
     0
370
    30
100
AcDbPolyline
 90
        8
 70
     0
 43
0.0
 10
356.837921
 20
342.298889
 10
357.262543
 20
342.335419
 10
357.648254
 20
342.380737
 10
357.992096
 20
342.435638
 10
358.290527
 20
342.500854
 10
358.538849
 20
342.577271
 10
358.731995
 20
342.665527
 10
358.873535
 20
342.77655
  0
LINE
  5
116
330
100
100
AcDbEntity
  8
0
  6
Continuous
 62
     0
370
     0
100
AcDbLine
 10
362.050287
 20
342.776539
 30
0.0
 11
362.050288
 21
342.225167
 31
0.0
  0
LWPOLYLINE
  5
117
330
100
100
AcDbEntity
  8
0
  6
Continuous
 62
     0
370
    30
100
AcDbPolyline
 90
        8
 70
     0
 43
0.0
 10
367.262695
 20
342.298889
 10
366.838074
 20
342.335419
 10
366.452332
 20
342.380737
 10
366.10849
 20
342.435608
 10
365.810059
 20
342.500854
 10
365.561737
 20
342.577271
 10
365.368591
 20
342.665527
 10
365.227051
 20
342.77655
  0
LINE
  5
118
330
100
100
AcDbEntity
  8
0
  6
Continuous
 62
     0
370
     0
100
AcDbLine
 10
365.22705
 20
342.776539
 30
0.0
 11
362.050287
 21
342.776539
 31
0.0
  0
LINE
  5
119
330
100
100
AcDbEntity
  8
0
  6
Continuous
 62
     0
370
    30
100
AcDbLine
 10
365.483986
 20
342.522603
 30
0.0
 11
365.233401
 21
342.775727
 31
0.0
  0
LINE
  5
11A
330
100
100
AcDbEntity
  8
0
  6
Continuous
 62
     0
370
    30
100
AcDbLine
 10
358.616588
 20
342.522603
 30
0.0
 11
358.867174
 21
342.775727
 31
0.0
  0
LWPOLYLINE
  5
11B
330
100
100
AcDbEntity
  8
0
  6
Continuous
 62
     0
370
     0
100
AcDbPolyline
 90
       36
 70
     0
 43
0.0
 10
357.895264
 20
358.144867
 10
357.954865
 20
357.701477
 10
358.034393
 20
357.25769
 10
358.109924
 20
356.813965
 10
358.182526
 20
356.37027
 10
358.252441
 20
355.926544
 10
358.319824
 20
355.482758
 10
358.38443
 20
355.03891
 10
358.446136
 20
354.595001
 10
358.504822
 20
354.151062
 10
358.560333
 20
353.707092
 10
358.61261
 20
353.263062
 10
358.66156
 20
352.819031
 10
358.707153
 20
352.374969
 10
358.749359
 20
351.930939
 10
358.788177
 20
351.486877
 10
358.823608
 20
351.042847
 10
358.855682
 20
350.598816
 10
358.88443
 20
350.154785
 10
358.909882
 20
349.710724
 10
358.932037
 20
349.266663
 10
358.950897
 20
348.822601
 10
358.966431
 20
348.378479
 10
358.978607
 20
347.934326
 10
358.987427
 20
347.490143
 10
358.99292
 20
347.045929
 10
358.995087
 20
346.601624
 10
358.994019
 20
346.157288
 10
358.989655
 20
345.712952
 10
358.982025
 20
345.268707
 10
358.97113
 20
344.824646
 10
358.957001
 20
344.380859
 10
358.939667
 20
343.936066
 10
358.918976
 20
343.49707
 10
358.894806
 20
343.100555
 10
358.867249
 20
342.77655
  0
ARC
  5
11C
330
100
100
AcDbEntity
  8
0
  6
Continuous
 62
     0
370
     0
100
AcDbCircle
 10
357.895271
 20
357.901535
 30
0.0
 40
0.25
100
AcDbArc
 50
89.702619
 51
183.243838
  0
LWPOLYLINE
  5
11D
330
100
100
AcDbEntity
  8
0
  6
Continuous
 62
     0
370
     0
100
AcDbPolyline
 90
       35
 70
     0
 43
0.0
 10
358.616638
 20
342.523224
 10
358.644958
 20
342.857758
 10
358.669708
 20
343.268341
 10
358.690826
 20
343.722321
 10
358.708435
 20
344.180634
 10
358.722626
 20
344.637756
 10
358.733398
 20
345.095642
 10
358.740692
 20
345.553558
 10
358.744537
 20
346.011078
 10
358.744873
 20
346.468292
 10
358.741699
 20
346.925232
 10
358.735016
 20
347.382111
 10
358.724731
 20
347.838989
 10
358.710907
 20
348.295868
 10
358.693542
 20
348.752747
 10
358.672699
 20
349.209564
 10
358.648376
 20
349.66626
 10
358.620636
 20
350.122864
 10
358.589417
 20
350.579376
 10
358.554718
 20
351.035828
 10
358.51651
 20
351.492218
 10
358.474762
 20
351.948578
 10
358.429443
 20
352.404907
 10
358.380615
 20
352.861206
 10
358.328217
 20
353.317444
 10
358.272308
 20
353.773682
 10
358.212891
 20
354.229889
 10
358.150024
 20
354.686096
 10
358.083771
 20
355.142395
 10
358.014343
 20
355.598724
 10
357.941833
 20
356.054779
 10
357.866333
 20
356.511292
 10
357.787903
 20
356.968597
 10
357.707886
 20
357.422119
 10
357.645782
 20
357.88739
  0
LINE
  5
11E
330
100
100
AcDbEntity
  8
0
  6
Continuous
 62
     0
370
     0
100
AcDbLine
 10
365.509694
 20
342.597524
 30
0.0
 11
366.344016
 21
356.095267
 31
0.0
  0
LWPOLYLINE
  5
11F
330
100
100
AcDbEntity
  8
0
  6
Continuous
 62
     0
370
     0
100
AcDbPolyline
 90
       36
 70
     0
 43
0.0
 10
366.454803
 20
357.88739
 10
366.396545
 20
357.443359
 10
366.31839
 20
357.001862
 10
366.242188
 20
356.55838
 10
366.168488
 20
356.114777
 10
366.097626
 20
355.671692
 10
366.029663
 20
355.228485
 10
365.964661
 20
354.785217
 10
365.902832
 20
354.342041
 10
365.844177
 20
353.898865
 10
365.788849
 20
353.455658
 10
365.736847
 20
353.012451
 10
365.688202
 20
352.569214
 10
365.642914
 20
352.125946
 10
365.601013
 20
351.682617
 10
365.562439
 20
351.239288
 10
365.527191
 20
350.795898
 10
365.495209
 20
350.352478
 10
365.466522
 20
349.908966
 10
365.441071
 20
349.465332
 10
365.418884
 20
349.021637
 10
365.399963
 20
348.577881
 10
365.384369
 20
348.134033
 10
365.372101
 20
347.690216
 10
365.36322
 20
347.246399
 10
365.357666
 20
346.802521
 10
365.355469
 20
346.358521
 10
365.356567
 20
345.914337
 10
365.360962
 20
345.469879
 10
365.368622
 20
345.024994
 10
365.379547
 20
344.580383
 10
365.393677
 20
344.13681
 10
365.411102
 20
343.690521
 10
365.43161
 20
343.251801
 10
365.456116
 20
342.853699
 10
365.483917
 20
342.523224
  0
ARC
  5
120
330
100
100
AcDbEntity
  8
0
  6
Continuous
 62
     0
370
     0
100
AcDbCircle
 10
366.205298
 20
357.901535
 30
0.0
 40
0.25
100
AcDbArc
 50
356.756162
 51
90.297381
  0
LWPOLYLINE
  5
121
330
100
100
AcDbEntity
  8
0
  6
Continuous
 62
     0
370
     0
100
AcDbPolyline
 90
       36
 70
     0
 43
0.0
 10
366.205292
 20
358.144867
 10
366.145691
 20
357.701477
 10
366.066193
 20
357.25769
 10
365.990631
 20
356.813965
 10
365.91806
 20
356.37027
 10
365.848114
 20
355.926544
 10
365.780762
 20
355.482758
 10
365.716125
 20
355.03891
 10
365.654419
 20
354.595001
 10
365.595764
 20
354.151062
 10
365.540222
 20
353.707092
 10
365.487976
 20
353.263062
 10
365.438995
 20
352.819031
 10
365.393402
 20
352.374969
 10
365.351196
 20
351.930939
 10
365.312378
 20
351.486877
 10
365.276947
 20
351.042847
 10
365.244873
 20
350.598816
 10
365.216125
 20
350.154785
 10
365.190674
 20
349.710724
 10
365.168549
 20
349.266663
 10
365.149689
 20
348.822601
 10
365.134155
 20
348.378479
 10
365.121948
 20
347.934326
 10
365.113129
 20
347.490143
 10
365.107635
 20
347.045929
 10
365.105469
 20
346.601624
 10
365.106567
 20
346.157288
 10
365.110931
 20
345.712952
 10
365.118561
 20
345.268707
 10
365.129425
 20
344.824646
 10
365.143555
 20
344.380859
 10
365.160919
 20
343.936066
 10
365.18161
 20
343.49707
 10
365.20575
 20
343.100555
 10
365.233307
 20
342.77655
  0
LINE
  5
122
330
100
100
AcDbEntity
  8
0
  6
Continuous
 62
     0
370
     0
100
AcDbLine
 10
366.204974
 20
358.149295
 30
0.0
 11
362.050284
 21
358.149282
 31
0.0
  0
LINE
  5
123
330
100
100
AcDbEntity
  8
0
  6
Continuous
 62
     0
370
     0
100
AcDbLine
 10
362.050284
 20
358.149282
 30
0.0
 11
362.050287
 21
342.776539
 31
0.0
  0
LINE
  5
124
330
100
100
AcDbEntity
  8
0
  6
Continuous
 62
     0
370
     0
100
AcDbLine
 10
357.895595
 20
358.149295
 30
0.0
 11
362.050284
 21
358.149282
 31
0.0
  0
LINE
  5
125
330
100
100
AcDbEntity
  8
0
  6
Continuous
 62
     0
370
     0
100
AcDbLine
 10
358.590875
 20
342.597524
 30
0.0
 11
357.756553
 21
356.095267
 31
0.0
  0
LINE
  5
126
330
100
100
AcDbEntity
  8
0
  6
Continuous
 62
     0
370
    30
100
AcDbLine
 10
362.050288
 20
324.208855
 30
0.0
 11
355.550321
 21
324.208855
 31
0.0
  0
LINE
  5
127
330
100
100
AcDbEntity
  8
0
  6
Continuous
 62
     0
370
     0
100
AcDbLine
 10
362.050288
 20
341.927049
 30
0.0
 11
362.050288
 21
324.208855
 31
0.0
  0
LINE
  5
128
330
100
100
AcDbEntity
  8
0
  6
Continuous
 62
     0
370
    30
100
AcDbLine
 10
362.050288
 20
324.208855
 30
0.0
 11
368.550255
 21
324.208855
 31
0.0
  0
LWPOLYLINE
  5
129
330
100
100
AcDbEntity
  8
0
  6
Continuous
 62
     0
370
    30
100
AcDbPolyline
 90
       17
 70
     0
 43
0.0
 10
373.155121
 20
341.926971
 10
372.877411
 20
340.807892
 10
372.539032
 20
339.704346
 10
372.168091
 20
338.611633
 10
371.766937
 20
337.530487
 10
371.336517
 20
336.460388
 10
370.888916
 20
335.396881
 10
370.437744
 20
334.334808
 10
370.003876
 20
333.266083
 10
369.611115
 20
332.18158
 10
369.276245
 20
331.077728
 10
369.008331
 20
329.956268
 10
368.806427
 20
328.820801
 10
368.66626
 20
327.675476
 10
368.583527
 20
326.524597
 10
368.550385
 20
325.371582
 10
368.550262
 20
324.208862
  0
LWPOLYLINE
  5
12A
330
100
100
AcDbEntity
  8
0
  6
Continuous
 62
     0
370
    30
100
AcDbPolyline
 90
       17
 70
     0
 43
0.0
 10
350.945526
 20
341.926636
 10
351.223267
 20
340.807617
 10
351.561646
 20
339.704102
 10
351.932556
 20
338.61142
 10
352.33371
 20
337.530304
 10
352.764099
 20
336.460266
 10
353.2117
 20
335.396759
 10
353.662872
 20
334.334747
 10
354.096741
 20
333.266052
 10
354.489471
 20
332.181549
 10
354.82431
 20
331.077759
 10
355.092255
 20
329.95636
 10
355.294189
 20
328.820892
 10
355.434357
 20
327.675629
 10
355.516968
 20
326.52478
 10
355.549957
 20
325.371796
 10
355.550323
 20
324.208862
  0
LINE
  5
12B
330
100
100
AcDbEntity
  8
0
  6
Continuous
 62
     0
370
    30
100
AcDbLine
 10
357.756553
 20
356.095267
 30
0.0
 11
357.646314
 21
357.813005
 31
0.0
  0
LINE
  5
12C
330
100
100
AcDbEntity
  8
0
  6
Continuous
 62
     0
370
    30
100
AcDbLine
 10
366.344016
 20
356.095267
 30
0.0
 11
366.454254
 21
357.812998
 31
0.0
  0
ENDBLK
  5
12E
330
100
100
AcDbEntity
  8
0
100
AcDbBlockEnd
  0
BLOCK
  5
17F
330
130
100
AcDbEntity
  8
0
100
AcDbBlockBegin
  2
d
 70
     0
 10
126.517059
 20
111.566544
 30
0.0
  3
d
  1

  0
LINE
  5
131
330
130
100
AcDbEntity
  8
0
  6
Continuous
 62
     0
370
    30
100
AcDbLine
 10
376.547848
 20
124.211443
 30
0.0
 11
376.549616
 21
121.760931
 31
0.0
  0
LINE
  5
132
330
130
100
AcDbEntity
  8
0
  6
Continuous
 62
     0
370
    30
100
AcDbLine
 10
376.549616
 20
121.760931
 30
0.0
 11
424.632877
 21
149.521815
 31
0.0
  0
LINE
  5
133
330
130
100
AcDbEntity
  8
0
  6
Continuous
 62
     0
370
    30
100
AcDbLine
 10
424.632877
 20
149.521815
 30
0.0
 11
424.631109
 21
151.972327
 31
0.0
  0
LINE
  5
134
330
130
100
AcDbEntity
  8
0
  6
Continuous
 62
     0
370
    30
100
AcDbLine
 10
424.631109
 20
151.972327
 30
0.0
 11
376.547848
 21
124.211443
 31
0.0
  0
LINE
  5
135
330
130
100
AcDbEntity
  8
0
  6
Continuous
 62
     0
370
    30
100
AcDbLine
 10
385.028763
 20
174.836593
 30
0.0
 11
424.630972
 21
151.972247
 31
0.0
  0
LINE
  5
136
330
130
100
AcDbEntity
  8
0
  6
Continuous
 62
     0
370
    30
100
AcDbLine
 10
328.463094
 20
149.523698
 30
0.0
 11
328.464862
 21
151.972168
 31
0.0
  0
LINE
  5
137
330
130
100
AcDbEntity
  8
0
  6
Continuous
 62
     0
370
    30
100
AcDbLine
 10
328.464862
 20
151.972168
 30
0.0
 11
368.106154
 21
174.859079
 31
0.0
  0
LINE
  5
138
330
130
100
AcDbEntity
  8
0
  6
Continuous
 62
     0
370
    30
100
AcDbLine
 10
328.461463
 20
149.522756
 30
0.0
 11
376.547985
 21
121.75999
 31
0.0
  0
LINE
  5
139
330
130
100
AcDbEntity
  8
0
  6
Continuous
 62
     0
370
    30
100
AcDbLine
 10
376.547985
 20
124.211522
 30
0.0
 11
328.464999
 21
151.972247
 31
0.0
  0
ELLIPSE
  5
13A
330
130
100
AcDbEntity
  8
0
  6
Continuous
 62
     0
370
    30
100
AcDbEllipse
 10
376.547985
 20
177.89121
 30
0.0
 11
6.781293581063298
 21
3.604000805086796E-8
 31
0.0
210
0.0
220
0.0
230
-1.0
 40
0.57735
 41
1.570796312252068
 42
2.356194406887237
  0
ELLIPSE
  5
13B
330
130
100
AcDbEntity
  8
0
  6
Continuous
 62
     0
370
    30
100
AcDbEllipse
 10
376.547985
 20
177.89121
 30
0.0
 11
6.781293581063298
 21
3.604000805086796E-8
 31
0.0
210
0.0
220
0.0
230
-1.0
 40
0.57735
 41
-0.000000075401541
 42
1.570796312252068
  0
ELLIPSE
  5
13C
330
130
100
AcDbEntity
  8
0
  6
Continuous
 62
     0
370
    30
100
AcDbEllipse
 10
376.547985
 20
177.89121
 30
0.0
 11
6.781293581063298
 21
3.604000805086796E-8
 31
0.0
210
0.0
220
0.0
230
-1.0
 40
0.57735
 41
3.181916398125198
 42
3.43048068715715
  0
ELLIPSE
  5
13D
330
130
100
AcDbEntity
  8
0
  6
Continuous
 62
     0
370
    30
100
AcDbEllipse
 10
376.547985
 20
177.89121
 30
0.0
 11
6.781293581063298
 21
3.604000805086796E-8
 31
0.0
210
0.0
220
0.0
230
-1.0
 40
0.57735
 41
2.356194406887237
 42
3.141592627659329
  0
ELLIPSE
  5
13E
330
130
100
AcDbEntity
  8
0
  6
Continuous
 62
     0
370
     0
100
AcDbEllipse
 10
376.547985
 20
178.099117
 30
0.0
 11
-6.511731284527824
 21
-3.460738649847299E-8
 31
0.0
210
0.0
220
0.0
230
1.0
 40
0.57735
 41
6.219197628205355
 42
7.068583510713383
  0
ELLIPSE
  5
13F
330
130
100
AcDbEntity
  8
0
  6
Continuous
 62
     0
370
     0
100
AcDbEllipse
 10
376.547985
 20
178.099117
 30
0.0
 11
-6.511731284527824
 21
-3.460738649847299E-8
 31
0.0
210
0.0
220
0.0
230
1.0
 40
0.57735
 41
0.7853982035337976
 42
3.175785969550977
  0
LWPOLYLINE
  5
140
330
130
100
AcDbEntity
  8
0
  6
Continuous
 62
     0
370
    30
100
AcDbPolyline
 90
      159
 70
     0
 43
0.0
 10
369.766693
 20
177.891205
 10
369.535339
 20
177.093964
 10
369.340118
 20
176.585358
 10
369.164001
 20
176.202301
 10
369.000275
 20
175.884033
 10
368.84491
 20
175.606079
 10
368.694519
 20
175.355453
 10
368.545837
 20
175.123322
 10
368.396149
 20
174.90303
 10
368.243286
 20
174.689651
 10
368.085846
 20
174.479675
 10
367.923187
 20
174.270889
 10
367.755341
 20
174.062256
 10
367.582825
 20
173.853668
 10
367.406555
 20
173.64566
 10
367.227631
 20
173.439163
 10
367.04718
 20
173.235321
 10
366.866302
 20
173.035187
 10
366.685913
 20
172.839676
 10
366.506775
 20
172.64949
 10
366.329498
 20
172.465042
 10
366.154541
 20
172.286591
 10
365.982147
 20
172.114166
 10
365.812561
 20
171.947708
 10
365.645935
 20
171.787018
 10
365.482361
 20
171.631927
 10
365.321899
 20
171.482224
 10
365.164673
 20
171.337692
 10
365.010773
 20
171.198181
 10
364.860321
 20
171.063553
 10
364.71344
 20
170.933685
 10
364.570312
 20
170.808517
 10
364.43103
 20
170.687988
 10
364.295776
 20
170.572052
 10
364.164673
 20
170.460678
 10
364.037811
 20
170.353806
 10
363.915344
 20
170.251419
 10
363.797272
 20
170.153427
 10
363.683624
 20
170.059769
 10
363.574371
 20
169.970322
 10
363.469513
 20
169.884979
 10
363.368866
 20
169.803558
 10
363.272339
 20
169.725922
 10
363.179718
 20
169.65184
 10
363.09079
 20
169.5811
 10
363.00531
 20
169.513474
 10
362.922974
 20
169.4487
 10
362.843536
 20
169.38652
 10
362.766602
 20
169.326675
 10
362.691833
 20
169.26886
 10
362.618866
 20
169.21283
 10
362.547302
 20
169.158264
 10
362.476746
 20
169.104889
 10
362.406738
 20
169.052429
 10
362.336853
 20
169.000565
 10
362.266632
 20
168.949005
 10
362.195587
 20
168.897446
 10
362.123169
 20
168.845596
 10
362.048889
 20
168.793152
 10
361.972229
 20
168.739777
 10
361.892578
 20
168.685196
 10
361.809418
 20
168.629074
 10
361.722137
 20
168.571121
 10
361.630249
 20
168.511032
 10
361.533112
 20
168.448517
 10
361.430298
 20
168.383301
 10
361.321198
 20
168.315125
 10
361.205414
 20
168.243744
 10
361.082489
 20
168.168945
 10
360.952057
 20
168.09053
 10
360.813782
 20
168.008377
 10
360.667419
 20
167.922348
 10
360.512787
 20
167.832367
 10
360.349792
 20
167.738388
 10
360.178345
 20
167.640411
 10
359.998505
 20
167.538483
 10
359.810394
 20
167.432678
 10
359.614136
 20
167.32309
 10
359.410004
 20
167.209869
 10
359.198303
 20
167.093201
 10
358.97937
 20
166.973297
 10
358.753601
 20
166.850357
 10
358.521423
 20
166.72464
 10
358.283264
 20
166.59639
 10
358.039642
 20
166.465866
 10
357.791046
 20
166.333359
 10
357.537933
 20
166.199097
 10
357.280792
 20
166.063354
 10
357.02005
 20
165.926376
 10
356.756226
 20
165.788391
 10
356.489685
 20
165.649612
 10
356.220795
 20
165.510239
 10
355.949951
 20
165.370453
 10
355.677429
 20
165.230377
 10
355.403503
 20
165.090164
 10
355.128387
 20
164.949921
 10
354.852325
 20
164.809723
 10
354.575439
 20
164.669617
 10
354.297821
 20
164.529663
 10
354.019562
 20
164.389877
 10
353.740723
 20
164.250244
 10
353.461273
 20
164.110764
 10
353.181213
 20
163.971375
 10
352.900513
 20
163.832077
 10
352.61908
 20
163.692764
 10
352.336884
 20
163.553406
 10
352.053772
 20
163.413925
 10
351.769653
 20
163.274216
 10
351.484375
 20
163.134216
 10
351.197845
 20
162.993835
 10
350.909912
 20
162.852982
 10
350.620422
 20
162.711563
 10
350.329224
 20
162.569489
 10
350.036194
 20
162.426666
 10
349.74115
 20
162.28299
 10
349.443909
 20
162.138382
 10
349.144379
 20
161.992752
 10
348.842377
 20
161.846008
 10
348.53772
 20
161.698059
 10
348.230255
 20
161.548813
 10
347.919861
 20
161.398178
 10
347.606293
 20
161.246078
 10
347.289459
 20
161.092422
 10
346.969116
 20
160.937103
 10
346.645111
 20
160.780029
 10
346.31723
 20
160.621109
 10
345.985321
 20
160.460251
 10
345.649109
 20
160.297318
 10
345.308411
 20
160.132233
 10
344.962952
 20
159.964844
 10
344.612488
 20
159.795044
 10
344.256744
 20
159.622681
 10
343.895447
 20
159.447617
 10
343.528198
 20
159.269699
 10
343.154663
 20
159.088745
 10
342.774475
 20
158.904541
 10
342.387146
 20
158.716904
 10
341.992188
 20
158.525558
 10
341.589081
 20
158.330276
 10
341.177185
 20
158.130737
 10
340.755829
 20
157.92659
 10
340.324158
 20
157.717484
 10
339.881317
 20
157.502945
 10
339.42627
 20
157.282486
 10
338.957764
 20
157.055511
 10
338.474426
 20
156.82135
 10
337.974548
 20
156.579193
 10
337.456055
 20
156.328003
 10
336.916351
 20
156.066544
 10
336.35199
 20
155.793152
 10
335.758545
 20
155.50563
 10
335.129822
 20
155.201065
 10
334.45755
 20
154.875366
 10
333.730225
 20
154.523026
 10
332.932159
 20
154.136383
 10
332.041748
 20
153.705017
 10
331.029755
 20
153.214767
 10
329.856812
 20
152.646515
 10
328.465088
 20
151.97229
  0
LINE
  5
141
330
130
100
AcDbEntity
  8
0
  6
Continuous
 62
     0
370
    30
100
AcDbLine
 10
376.547985
 20
173.976028
 30
0.0
 11
376.547904
 21
124.211569
 31
0.0
  0
LWPOLYLINE
  5
142
330
130
100
AcDbEntity
  8
0
  6
Continuous
 62
     0
370
    30
100
AcDbPolyline
 90
      159
 70
     0
 43
0.0
 10
383.329285
 20
177.891205
 10
383.560608
 20
177.10614
 10
383.755859
 20
176.605789
 10
383.931976
 20
176.229019
 10
384.095703
 20
175.915817
 10
384.251068
 20
175.642075
 10
384.401459
 20
175.394989
 10
384.55011
 20
175.165863
 10
384.699829
 20
174.948151
 10
384.852692
 20
174.736984
 10
385.010132
 20
174.528915
 10
385.172791
 20
174.321777
 10
385.340637
 20
174.114532
 10
385.513123
 20
173.907074
 10
385.689392
 20
173.699966
 10
385.868317
 20
173.494156
 10
386.048767
 20
173.290741
 10
386.229675
 20
173.09079
 10
386.410065
 20
172.895264
 10
386.589203
 20
172.704819
 10
386.766449
 20
172.519943
 10
386.941437
 20
172.340851
 10
387.113831
 20
172.167648
 10
387.283386
 20
172.000229
 10
387.450043
 20
171.838486
 10
387.613617
 20
171.682205
 10
387.774078
 20
171.531235
 10
387.931305
 20
171.385361
 10
388.085205
 20
171.244446
 10
388.235657
 20
171.108368
 10
388.382507
 20
170.977036
 10
388.525665
 20
170.850372
 10
388.664948
 20
170.728333
 10
388.800201
 20
170.610901
 10
388.931305
 20
170.498032
 10
389.058136
 20
170.389694
 10
389.180634
 20
170.285858
 10
389.298706
 20
170.186447
 10
389.412354
 20
170.091415
 10
389.521576
 20
170.000641
 10
389.626465
 20
169.914001
 10
389.727112
 20
169.831345
 10
389.823639
 20
169.752502
 10
389.91626
 20
169.677277
 10
390.005188
 20
169.605438
 10
390.090668
 20
169.536758
 10
390.172974
 20
169.470993
 10
390.252441
 20
169.407867
 10
390.329376
 20
169.347107
 10
390.404144
 20
169.288437
 10
390.477112
 20
169.231583
 10
390.548676
 20
169.176254
 10
390.619232
 20
169.122131
 10
390.68924
 20
169.068954
 10
390.759094
 20
169.016418
 10
390.829315
 20
168.964218
 10
390.900391
 20
168.912048
 10
390.972809
 20
168.859604
 10
391.047058
 20
168.80658
 10
391.123749
 20
168.75267
 10
391.2034
 20
168.697556
 10
391.28656
 20
168.64093
 10
391.37381
 20
168.582474
 10
391.465729
 20
168.521896
 10
391.562836
 20
168.458908
 10
391.66568
 20
168.393234
 10
391.77478
 20
168.3246
 10
391.890564
 20
168.252777
 10
392.013489
 20
168.177536
 10
392.143921
 20
168.098724
 10
392.282196
 20
168.016144
 10
392.428528
 20
167.929718
 10
392.58316
 20
167.83934
 10
392.746185
 20
167.74498
 10
392.917633
 20
167.646622
 10
393.097473
 20
167.544327
 10
393.285583
 20
167.438156
 10
393.481842
 20
167.328217
 10
393.685944
 20
167.214676
 10
393.897644
 20
167.097687
 10
394.116608
 20
166.977463
 10
394.342377
 20
166.854233
 10
394.574554
 20
166.728226
 10
394.812683
 20
166.599701
 10
395.056305
 20
166.468918
 10
395.304932
 20
166.336151
 10
395.558044
 20
166.20166
 10
395.815186
 20
166.065704
 10
396.075897
 20
165.928513
 10
396.339752
 20
165.790329
 10
396.606293
 20
165.651367
 10
396.875183
 20
165.511826
 10
397.146027
 20
165.371872
 10
397.418549
 20
165.231659
 10
397.692474
 20
165.091309
 10
397.96756
 20
164.950928
 10
398.243652
 20
164.810623
 10
398.520538
 20
164.67041
 10
398.798157
 20
164.530365
 10
399.076416
 20
164.390488
 10
399.355255
 20
164.250778
 10
399.634705
 20
164.111221
 10
399.914764
 20
163.971771
 10
400.195465
 20
163.832413
 10
400.476868
 20
163.693054
 10
400.759094
 20
163.55365
 10
401.042206
 20
163.414124
 10
401.326324
 20
163.274384
 10
401.611603
 20
163.134354
 10
401.898132
 20
162.993958
 10
402.186066
 20
162.853073
 10
402.475555
 20
162.711639
 10
402.766724
 20
162.569534
 10
403.059784
 20
162.426697
 10
403.354828
 20
162.283005
 10
403.652039
 20
162.138397
 10
403.951599
 20
161.992752
 10
404.253601
 20
161.845993
 10
404.558258
 20
161.698044
 10
404.865692
 20
161.548798
 10
405.176117
 20
161.398163
 10
405.489655
 20
161.246063
 10
405.806519
 20
161.092392
 10
406.126862
 20
160.937073
 10
406.450867
 20
160.779999
 10
406.778717
 20
160.621078
 10
407.110657
 20
160.460205
 10
407.446869
 20
160.297287
 10
407.787567
 20
160.132187
 10
408.133026
 20
159.964798
 10
408.483459
 20
159.794998
 10
408.839203
 20
159.622635
 10
409.200531
 20
159.447571
 10
409.56778
 20
159.269653
 10
409.941315
 20
159.088684
 10
410.321503
 20
158.904495
 10
410.708832
 20
158.716843
 10
411.10379
 20
158.525513
 10
411.506866
 20
158.330231
 10
411.918762
 20
158.130676
 10
412.340149
 20
157.926544
 10
412.77179
 20
157.717422
 10
413.214661
 20
157.502884
 10
413.669708
 20
157.282425
 10
414.138214
 20
157.05545
 10
414.621552
 20
156.821289
 10
415.121429
 20
156.579132
 10
415.639923
 20
156.327942
 10
416.179626
 20
156.066467
 10
416.743958
 20
155.793076
 10
417.337433
 20
155.505569
 10
417.966156
 20
155.200989
 10
418.638428
 20
154.87529
 10
419.365723
 20
154.522949
 10
420.163818
 20
154.136307
 10
421.05423
 20
153.704941
 10
422.066193
 20
153.214676
 10
423.239166
 20
152.646423
 10
424.63089
 20
151.972198
  0
LWPOLYLINE
  5
143
330
130
100
AcDbEntity
  8
0
  6
Continuous
 62
     0
370
    30
100
AcDbPolyline
 90
       58
 70
     0
 43
0.0
 10
387.268219
 20
172.015091
 10
387.357056
 20
171.958664
 10
387.447021
 20
171.900604
 10
387.538361
 20
171.840805
 10
387.628265
 20
171.781174
 10
387.713379
 20
171.724014
 10
387.790283
 20
171.671585
 10
387.85733
 20
171.625061
 10
387.916107
 20
171.583603
 10
387.968445
 20
171.546082
 10
388.016266
 20
171.511414
 10
388.06134
 20
171.478394
 10
388.105316
 20
171.445587
 10
388.14975
 20
171.411591
 10
388.196228
 20
171.374939
 10
388.246063
 20
171.334473
 10
388.295624
 20
171.293427
 10
388.337036
 20
171.258774
 10
388.362335
 20
171.237625
 10
388.363525
 20
171.237061
 10
388.328918
 20
171.268021
 10
388.238037
 20
171.350983
 10
388.090637
 20
171.48793
 10
387.908661
 20
171.659042
 10
387.726868
 20
171.831589
 10
387.561798
 20
171.990158
 10
387.411469
 20
172.136948
 10
387.261688
 20
172.286438
 10
387.097931
 20
172.4534
 10
386.922943
 20
172.634735
 10
386.743561
 20
172.823242
 10
386.565399
 20
173.013
 10
386.391785
 20
173.200714
 10
386.2258
 20
173.383453
 10
386.067841
 20
173.560989
 10
385.914398
 20
173.737564
 10
385.761444
 20
173.917816
 10
385.606201
 20
174.10495
 10
385.450012
 20
174.297287
 10
385.295044
 20
174.49202
 10
385.143555
 20
174.68634
 10
384.997345
 20
174.878204
 10
384.857574
 20
175.066589
 10
384.725311
 20
175.250565
 10
384.601532
 20
175.429367
 10
384.485596
 20
175.60466
 10
384.375671
 20
175.779785
 10
384.269897
 20
175.958084
 10
384.166565
 20
176.142639
 10
384.06543
 20
176.333664
 10
383.967102
 20
176.529663
 10
383.872162
 20
176.729111
 10
383.781219
 20
176.930527
 10
383.694885
 20
177.132355
 10
383.61377
 20
177.333115
 10
383.538452
 20
177.531281
 10
383.469543
 20
177.725342
 10
383.407104
 20
177.915634
  0
LWPOLYLINE
  5
144
330
130
100
AcDbEntity
  8
0
  6
Continuous
 62
     0
370
    30
100
AcDbPolyline
 90
       65
 70
     0
 43
0.0
 10
365.896271
 20
172.056305
 10
365.910339
 20
172.064987
 10
365.94281
 20
172.085068
 10
365.961304
 20
172.096405
 10
365.931519
 20
172.07756
 10
365.853607
 20
172.028412
 10
365.765533
 20
171.972198
 10
365.678558
 20
171.915787
 10
365.592285
 20
171.859116
 10
365.508392
 20
171.803284
 10
365.42865
 20
171.749573
 10
365.35495
 20
171.699265
 10
365.289001
 20
171.653549
 10
365.230927
 20
171.612595
 10
365.179169
 20
171.575455
 10
365.132233
 20
171.541183
 10
365.088531
 20
171.50885
 10
365.046539
 20
171.477509
 10
365.005096
 20
171.446121
 10
364.963165
 20
171.413651
 10
364.919769
 20
171.379074
 10
364.873993
 20
171.3414
 10
364.829346
 20
171.303741
 10
364.796112
 20
171.275452
 10
364.785095
 20
171.266449
 10
364.80719
 20
171.286606
 10
364.87384
 20
171.346817
 10
364.993866
 20
171.457275
 10
365.157532
 20
171.610001
 10
365.334381
 20
171.77655
 10
365.501556
 20
171.935486
 10
365.651306
 20
172.079865
 10
365.792419
 20
172.218567
 10
365.936035
 20
172.362701
 10
366.090179
 20
172.520401
 10
366.25647
 20
172.693298
 10
366.428619
 20
172.874771
 10
366.599792
 20
173.057678
 10
366.763245
 20
173.234955
 10
366.916779
 20
173.40448
 10
367.064575
 20
173.571228
 10
367.210144
 20
173.739304
 10
367.355316
 20
173.910843
 10
367.501678
 20
174.087799
 10
367.649506
 20
174.270355
 10
367.796722
 20
174.455917
 10
367.941071
 20
174.641586
 10
368.080475
 20
174.824844
 10
368.213989
 20
175.004791
 10
368.340881
 20
175.180969
 10
368.460449
 20
175.352905
 10
368.572632
 20
175.521103
 10
368.678864
 20
175.688324
 10
368.780914
 20
175.857697
 10
368.880463
 20
176.032333
 10
368.978577
 20
176.214111
 10
369.074677
 20
176.40152
 10
369.167816
 20
176.592438
 10
369.257141
 20
176.784775
 10
369.341675
 20
176.97641
 10
369.420929
 20
177.166046
 10
369.494995
 20
177.354065
 10
369.564087
 20
177.540985
 10
369.628448
 20
177.727386
 10
369.688751
 20
177.915283
  0
LINE
  5
145
330
130
100
AcDbEntity
  8
0
  6
Continuous
 62
     0
370
    30
100
AcDbLine
 10
383.126408
 20
178.866015
 30
0.0
 11
383.323767
 21
178.049034
 31
0.0
  0
LINE
  5
146
330
130
100
AcDbEntity
  8
0
  6
Continuous
 62
     0
370
    30
100
AcDbLine
 10
369.772204
 20
178.049041
 30
0.0
 11
370.047542
 21
179.036517
 31
0.0
  0
ARC
  5
147
330
130
100
AcDbEntity
  8
0
  6
Continuous
 62
     0
370
     0
100
AcDbCircle
 10
436.696601
 20
236.682587
 30
0.0
 40
0.3494183158738223
100
AcDbArc
 50
303.635825
 51
57.041798
  0
LWPOLYLINE
  5
148
330
130
100
AcDbEntity
  8
0
  6
Continuous
 62
     0
370
     0
100
AcDbPolyline
 90
       11
 70
     0
 43
0.0
 10
438.209869
 20
224.891251
 10
438.286957
 20
226.18222
 10
438.318604
 20
227.445343
 10
438.305237
 20
228.679443
 10
438.245575
 20
229.88205
 10
438.138336
 20
231.05101
 10
437.985413
 20
232.18544
 10
437.786224
 20
233.28331
 10
437.54007
 20
234.343018
 10
437.247192
 20
235.363739
 10
436.890137
 20
236.391663
  0
LINE
  5
149
330
130
100
AcDbEntity
  8
0
  6
Continuous
 62
     0
370
     0
100
AcDbLine
 10
373.737452
 20
198.867505
 30
0.0
 11
373.909654
 21
198.890655
 31
0.0
  0
LWPOLYLINE
  5
14A
330
130
100
AcDbEntity
  8
0
  6
Continuous
 62
     0
370
     0
100
AcDbPolyline
 90
       26
 70
     0
 43
0.0
 10
368.868988
 20
188.378525
 10
368.255219
 20
188.763931
 10
367.698914
 20
189.177383
 10
367.204498
 20
189.616333
 10
366.77533
 20
190.077713
 10
366.414154
 20
190.558029
 10
366.123718
 20
191.054306
 10
365.905823
 20
191.56308
 10
365.762329
 20
192.080536
 10
365.694183
 20
192.603058
 10
365.701843
 20
193.12706
 10
365.785309
 20
193.64888
 10
365.944
 20
194.164841
 10
366.176544
 20
194.671265
 10
366.481628
 20
195.164749
 10
366.858063
 20
195.642273
 10
367.303009
 20
196.100601
 10
367.812683
 20
196.536285
 10
368.383209
 20
196.945923
 10
369.010681
 20
197.326355
 10
369.691071
 20
197.675064
 10
370.420288
 20
197.989685
 10
371.194122
 20
198.267853
 10
372.006287
 20
198.507446
 10
372.848572
 20
198.706543
 10
373.737457
 20
198.867508
  0
LINE
  5
14B
330
130
100
AcDbEntity
  8
0
  6
Continuous
 62
     0
370
     0
100
AcDbLine
 10
380.493455
 20
195.065746
 30
0.0
 11
368.868995
 21
188.378527
 31
0.0
  0
LINE
  5
14C
330
130
100
AcDbEntity
  8
0
  6
Continuous
 62
     0
370
     0
100
AcDbLine
 10
373.909654
 20
198.890655
 30
0.0
 11
380.493455
 21
195.065746
 31
0.0
  0
LINE
  5
14D
330
130
100
AcDbEntity
  8
0
  6
Continuous
 62
     0
370
     0
100
AcDbLine
 10
387.036504
 20
191.188997
 30
0.0
 11
387.077504
 21
191.288194
 31
0.0
  0
LINE
  5
14E
330
130
100
AcDbEntity
  8
0
  6
Continuous
 62
     0
370
     0
100
AcDbLine
 10
387.077504
 20
191.288194
 30
0.0
 11
380.493455
 21
195.065746
 31
0.0
  0
LWPOLYLINE
  5
14F
330
130
100
AcDbEntity
  8
0
  6
Continuous
 62
     0
370
     0
100
AcDbPolyline
 90
       26
 70
     0
 43
0.0
 10
368.868988
 20
188.378525
 10
369.535278
 20
188.023804
 10
370.251831
 20
187.703354
 10
371.011658
 20
187.418076
 10
371.81015
 20
187.170303
 10
372.641602
 20
186.961823
 10
373.500305
 20
186.794113
 10
374.380188
 20
186.668335
 10
375.275665
 20
186.585342
 10
376.180298
 20
186.545715
 10
377.087402
 20
186.549866
 10
377.990723
 20
186.597748
 10
378.884033
 20
186.688965
 10
379.760864
 20
186.822769
 10
380.615356
 20
186.998444
 10
381.442322
 20
187.215256
 10
382.236115
 20
187.471619
 10
382.990784
 20
187.76532
 10
383.700409
 20
188.094162
 10
384.359406
 20
188.455933
 10
384.963623
 20
188.848236
 10
385.509003
 20
189.268677
 10
385.991547
 20
189.714813
 10
386.407593
 20
190.183044
 10
386.753662
 20
190.668701
 10
387.03717
 20
191.188904
  0
ARC
  5
150
330
130
100
AcDbEntity
  8
0
  6
Continuous
 62
     0
370
     0
100
AcDbCircle
 10
387.017315
 20
190.931409
 30
0.0
 40
0.2582617172205134
100
AcDbArc
 50
354.388192
 51
85.589274
  0
LINE
  5
151
330
130
100
AcDbEntity
  8
0
  6
Continuous
 62
     0
370
     0
100
AcDbLine
 10
368.868995
 20
188.378527
 30
0.0
 11
368.69567
 21
188.03243
 31
0.0
  0
LWPOLYLINE
  5
152
330
130
100
AcDbEntity
  8
0
  6
Continuous
 62
     0
370
     0
100
AcDbPolyline
 90
       26
 70
     0
 43
0.0
 10
368.695679
 20
188.032425
 10
369.379456
 20
187.669495
 10
370.113525
 20
187.340698
 10
370.892456
 20
187.048386
 10
371.710815
 20
186.794846
 10
372.562836
 20
186.581711
 10
373.442657
 20
186.4104
 10
374.34436
 20
186.282257
 10
375.261658
 20
186.198059
 10
376.187988
 20
186.158188
 10
377.116791
 20
186.163055
 10
378.041565
 20
186.212875
 10
378.955933
 20
186.307175
 10
379.853485
 20
186.445251
 10
380.727875
 20
186.62616
 10
381.573029
 20
186.848633
 10
382.383087
 20
187.111038
 10
383.152283
 20
187.411682
 10
383.875275
 20
187.748367
 10
384.546997
 20
188.118683
 10
385.162567
 20
188.520142
 10
385.717987
 20
188.949829
 10
386.20932
 20
189.404816
 10
386.632996
 20
189.882034
 10
386.986206
 20
190.378021
 10
387.274353
 20
190.906158
  0
LWPOLYLINE
  5
153
330
130
100
AcDbEntity
  8
0
  6
Continuous
 62
     0
370
     0
100
AcDbPolyline
 90
        9
 70
     0
 43
0.0
 10
368.695679
 20
188.032425
 10
368.097076
 20
188.406693
 10
367.551788
 20
188.80719
 10
367.063293
 20
189.231445
 10
366.634644
 20
189.676773
 10
366.268585
 20
190.140335
 10
365.967499
 20
190.619247
 10
365.733093
 20
191.110458
 10
365.557648
 20
191.647522
  0
LINE
  5
154
330
130
100
AcDbEntity
  8
0
  6
Continuous
 62
     0
370
     0
100
AcDbLine
 10
384.883314
 20
200.665792
 30
0.0
 11
387.129624
 21
199.368883
 31
0.0
  0
LWPOLYLINE
  5
155
330
130
100
AcDbEntity
  8
0
  6
Continuous
 62
     0
370
     0
100
AcDbPolyline
 90
       22
 70
     0
 43
0.0
 10
373.909607
 20
198.890778
 10
374.445435
 20
198.949997
 10
374.986542
 20
198.991211
 10
375.53064
 20
199.015533
 10
376.076172
 20
199.022949
 10
376.621338
 20
199.008347
 10
377.164124
 20
198.978638
 10
377.70932
 20
198.971039
 10
378.254974
 20
198.982468
 10
378.800079
 20
199.006958
 10
379.343842
 20
199.047089
 10
379.885223
 20
199.103714
 10
380.423035
 20
199.177063
 10
380.956146
 20
199.26741
 10
381.483246
 20
199.375168
 10
382.003113
 20
199.500763
 10
382.514404
 20
199.644684
 10
383.015381
 20
199.807587
 10
383.504333
 20
199.990204
 10
383.979279
 20
200.193146
 10
384.437164
 20
200.416656
 10
384.883301
 20
200.665787
  0
ARC
  5
156
330
130
100
AcDbEntity
  8
0
  6
Continuous
 62
     0
370
     0
100
AcDbCircle
 10
352.868111
 20
244.937341
 30
0.0
 40
57.01171469909661
100
AcDbArc
 50
298.983359
 51
306.938373
  0
LWPOLYLINE
  5
157
330
130
100
AcDbEntity
  8
0
  6
Continuous
 62
     0
370
     0
100
AcDbPolyline
 90
       31
 70
     0
 43
0.0
 10
387.077515
 20
191.288193
 10
387.153564
 20
191.50386
 10
387.213898
 20
191.721268
 10
387.259552
 20
191.939819
 10
387.290894
 20
192.15918
 10
387.308014
 20
192.379089
 10
387.30954
 20
192.599258
 10
387.289948
 20
192.819122
 10
387.25351
 20
193.039124
 10
387.220795
 20
193.261719
 10
387.208649
 20
193.486404
 10
387.210693
 20
193.712463
 10
387.221222
 20
193.939636
 10
387.241364
 20
194.167877
 10
387.272644
 20
194.397141
 10
387.315247
 20
194.627289
 10
387.369171
 20
194.858185
 10
387.434479
 20
195.089691
 10
387.511108
 20
195.32164
 10
387.599182
 20
195.553909
 10
387.698792
 20
195.786285
 10
387.810059
 20
196.018631
 10
387.933136
 20
196.250748
 10
388.068176
 20
196.482437
 10
388.215454
 20
196.713425
 10
388.375305
 20
196.943466
 10
388.547943
 20
197.172287
 10
388.733612
 20
197.399506
 10
388.932343
 20
197.624527
 10
389.144165
 20
197.846695
 10
389.375946
 20
198.071976
  0
LINE
  5
158
330
130
100
AcDbEntity
  8
0
  6
Continuous
 62
     0
370
     0
100
AcDbLine
 10
389.375935
 20
198.071976
 30
0.0
 11
387.129624
 21
199.368883
 31
0.0
  0
LINE
  5
159
330
130
100
AcDbEntity
  8
0
  6
Continuous
 62
     0
370
     0
100
AcDbLine
 10
387.316371
 20
191.009396
 30
0.0
 11
387.273424
 21
190.905
 31
0.0
  0
LINE
  5
15A
330
130
100
AcDbEntity
  8
0
  6
Continuous
 62
     0
370
     0
100
AcDbLine
 10
387.077504
 20
191.288194
 30
0.0
 11
387.316371
 21
191.009396
 31
0.0
  0
LWPOLYLINE
  5
15B
330
130
100
AcDbEntity
  8
0
  6
Continuous
 62
     0
370
    30
100
AcDbPolyline
 90
        8
 70
     0
 43
0.0
 10
387.316376
 20
191.009399
 10
387.448029
 20
191.414398
 10
387.525055
 20
191.824631
 10
387.544312
 20
192.237869
 10
387.519043
 20
192.653809
 10
387.482147
 20
193.07373
 10
387.468658
 20
193.498734
 10
387.504852
 20
193.997498
  0
ARC
  5
15C
330
130
100
AcDbEntity
  8
0
  6
Continuous
 62
     0
370
    30
100
AcDbCircle
 10
393.841254
 20
192.982514
 30
0.0
 40
6.41717578772692
100
AcDbArc
 50
131.910536
 51
170.899538
  0
LINE
  5
15D
330
130
100
AcDbEntity
  8
0
  6
Continuous
 62
     0
370
    30
100
AcDbLine
 10
389.554777
 20
197.758104
 30
0.0
 11
389.376648
 21
198.066539
 31
0.0
  0
LWPOLYLINE
  5
15E
330
130
100
AcDbEntity
  8
0
  6
Continuous
 62
     0
370
     0
100
AcDbPolyline
 90
       32
 70
     0
 43
0.0
 10
430.361877
 20
240.269791
 10
428.921906
 20
238.972519
 10
427.49704
 20
237.66832
 10
426.069
 20
236.36618
 10
424.638458
 20
235.065521
 10
423.205383
 20
233.766037
 10
421.769623
 20
232.467743
 10
420.331116
 20
231.170746
 10
418.889679
 20
229.875183
 10
417.445251
 20
228.581146
 10
415.997772
 20
227.288712
 10
414.547241
 20
225.997955
 10
413.093658
 20
224.708923
 10
411.636993
 20
223.421661
 10
410.177307
 20
222.136185
 10
408.71463
 20
220.852478
 10
407.248932
 20
219.570496
 10
405.780243
 20
218.290207
 10
404.308502
 20
217.011566
 10
402.833679
 20
215.734573
 10
401.355774
 20
214.459229
 10
399.874695
 20
213.185486
 10
398.390411
 20
211.913361
 10
396.902954
 20
210.642776
 10
395.412384
 20
209.373749
 10
393.918945
 20
208.106461
 10
392.422943
 20
206.841232
 10
390.924713
 20
205.578308
 10
389.424652
 20
204.317581
 10
387.922882
 20
203.060013
 10
386.413391
 20
201.834137
 10
384.878937
 20
200.668396
  0
LWPOLYLINE
  5
15F
330
130
100
AcDbEntity
  8
0
  6
Continuous
 62
     0
370
     0
100
AcDbPolyline
 90
       30
 70
     0
 43
0.0
 10
389.560486
 20
190.513962
 10
391.176819
 20
191.915482
 10
392.810455
 20
193.249634
 10
394.458557
 20
194.51387
 10
396.117432
 20
195.712646
 10
397.779907
 20
196.894913
 10
399.444275
 20
198.072815
 10
401.109924
 20
199.247589
 10
402.776581
 20
200.418518
 10
404.443756
 20
201.586182
 10
406.111145
 20
202.750626
 10
407.778381
 20
203.912064
 10
409.445282
 20
205.070694
 10
411.111694
 20
206.226547
 10
412.777527
 20
207.379654
 10
414.442871
 20
208.530029
 10
416.107819
 20
209.677582
 10
417.772644
 20
210.822189
 10
419.437653
 20
211.963684
 10
421.10321
 20
213.101837
 10
422.769867
 20
214.236389
 10
424.43808
 20
215.367065
 10
426.10849
 20
216.493561
 10
427.781647
 20
217.61554
 10
429.458252
 20
218.73259
 10
431.138947
 20
219.844376
 10
432.824341
 20
220.950623
 10
434.514923
 20
222.050842
 10
436.183868
 20
223.161469
 10
437.828705
 20
224.299011
  0
LINE
  5
160
330
130
100
AcDbEntity
  8
0
  6
Continuous
 62
     0
370
     0
100
AcDbLine
 10
437.828697
 20
224.299017
 30
0.0
 11
436.460085
 21
236.591536
 31
0.0
  0
LWPOLYLINE
  5
161
330
130
100
AcDbEntity
  8
0
  6
Continuous
 62
     0
370
     0
100
AcDbPolyline
 90
       31
 70
     0
 43
0.0
 10
436.460083
 20
236.591537
 10
434.871887
 20
235.310547
 10
433.270233
 20
234.038849
 10
431.670868
 20
232.764603
 10
430.073914
 20
231.489166
 10
428.479584
 20
230.212158
 10
426.888031
 20
228.933365
 10
425.299377
 20
227.652817
 10
423.713715
 20
226.370422
 10
422.131165
 20
225.086136
 10
420.551758
 20
223.799896
 10
418.975494
 20
222.511719
 10
417.402405
 20
221.221588
 10
415.832458
 20
219.929535
 10
414.265625
 20
218.635574
 10
412.701935
 20
217.339691
 10
411.141357
 20
216.041885
 10
409.583862
 20
214.742157
 10
408.02951
 20
213.440506
 10
406.478333
 20
212.136963
 10
404.930328
 20
210.831558
 10
403.385559
 20
209.524246
 10
401.844025
 20
208.215012
 10
400.305695
 20
206.903763
 10
398.770599
 20
205.590408
 10
397.23877
 20
204.274872
 10
395.70993
 20
202.958099
 10
394.184296
 20
201.639297
 10
392.661682
 20
200.318985
 10
391.136566
 20
199.023346
 10
389.557587
 20
197.760269
  0
LINE
  5
162
330
130
100
AcDbEntity
  8
0
  6
Continuous
 62
     0
370
    30
100
AcDbLine
 10
389.557576
 20
197.759771
 30
0.0
 11
389.560471
 21
190.513957
 31
0.0
  0
ELLIPSE
  5
163
330
130
100
AcDbEntity
  8
0
  6
Continuous
 62
     0
370
     0
100
AcDbEllipse
 10
436.278494
 20
236.701949
 30
0.0
 11
0.1643641784677601
 21
-0.1883730788531587
 31
0.0
210
0.0
220
0.0
230
1.0
 40
0.438492
 41
0.6260703298529515
 42
2.258672589904316
  0
LWPOLYLINE
  5
164
330
130
100
AcDbEntity
  8
0
  6
Continuous
 62
     0
370
     0
100
AcDbPolyline
 90
       31
 70
     0
 43
0.0
 10
436.237946
 20
236.877228
 10
434.647034
 20
235.596008
 10
433.044922
 20
234.323074
 10
431.446411
 20
233.048309
 10
429.850586
 20
231.771973
 10
428.256989
 20
230.494019
 10
426.665741
 20
229.214325
 10
425.077087
 20
227.932846
 10
423.49118
 20
226.649506
 10
421.908203
 20
225.364273
 10
420.328308
 20
224.077148
 10
418.751556
 20
222.788101
 10
417.17804
 20
221.497162
 10
415.607819
 20
220.204346
 10
414.040863
 20
218.909698
 10
412.477142
 20
217.613174
 10
410.916595
 20
216.314804
 10
409.359161
 20
215.014557
 10
407.80484
 20
213.712402
 10
406.253571
 20
212.40831
 10
404.705383
 20
211.102234
 10
403.160278
 20
209.794159
 10
401.618134
 20
208.484055
 10
400.078979
 20
207.171951
 10
398.542969
 20
205.858002
 10
397.010437
 20
204.542557
 10
395.48172
 20
203.225922
 10
393.957184
 20
201.908157
 10
392.437256
 20
200.589462
 10
390.91629
 20
199.297974
 10
389.380432
 20
198.069473
  0
LINE
  5
165
330
130
100
AcDbEntity
  8
0
  6
Continuous
 62
     0
370
     0
100
AcDbLine
 10
436.251003
 20
236.888638
 30
0.0
 11
433.310258
 21
238.583077
 31
0.0
  0
ARC
  5
166
330
130
100
AcDbEntity
  8
0
  6
Continuous
 62
     0
370
     0
100
AcDbCircle
 10
-4999.470627
 20
6589.703457
 30
0.0
 40
8357.741214929685
100
AcDbArc
 50
310.128521
 51
310.543849
  0
LINE
  5
167
330
130
100
AcDbEntity
  8
0
  6
Continuous
 62
     0
370
     0
100
AcDbLine
 10
430.375385
 20
240.280927
 30
0.0
 11
433.310258
 21
238.583077
 31
0.0
  0
ARC
  5
168
330
130
100
AcDbEntity
  8
0
  6
Continuous
 62
     0
370
    30
100
AcDbCircle
 10
436.635954
 20
236.407335
 30
0.0
 40
0.2546761727894611
100
AcDbArc
 50
356.473426
 51
133.674514
  0
ARC
  5
169
330
130
100
AcDbEntity
  8
0
  6
Continuous
 62
     0
370
    30
100
AcDbCircle
 10
436.64089
 20
236.714869
 30
0.0
 40
0.4304927430139981
100
AcDbArc
 50
65.810497
 51
155.934119
  0
LINE
  5
16A
330
130
100
AcDbEntity
  8
0
  6
Continuous
 62
     0
370
     0
100
AcDbLine
 10
437.828753
 20
224.299727
 30
0.0
 11
438.209884
 21
224.891258
 31
0.0
  0
ARC
  5
16B
330
130
100
AcDbEntity
  8
0
  6
Continuous
 62
     0
370
    30
100
AcDbCircle
 10
430.849899
 20
239.669465
 30
0.0
 40
0.7704341320064743
100
AcDbArc
 50
64.383514
 51
127.708999
  0
ELLIPSE
  5
16C
330
130
100
AcDbEntity
  8
0
  6
Continuous
 62
     0
370
     0
100
AcDbEllipse
 10
433.476969
 20
237.885043
 30
0.0
 11
0.5000000000000002
 21
0.8660254037844386
 31
0.0
210
0.0
220
0.0
230
1.0
 40
0.57735
 41
-0.0000000228501511
 42
1.023171708334143
  0
LWPOLYLINE
  5
16D
330
130
100
AcDbEntity
  8
0
  6
Continuous
 62
     0
370
     0
100
AcDbPolyline
 90
       41
 70
     0
 43
0.0
 10
368.695679
 20
188.032425
 10
368.756622
 20
187.761078
 10
368.83902
 20
187.441208
 10
368.94046
 20
187.083115
 10
369.058655
 20
186.697021
 10
369.191193
 20
186.293198
 10
369.335724
 20
185.881897
 10
369.489929
 20
185.473267
 10
369.651398
 20
185.073395
 10
369.817719
 20
184.683167
 10
369.98642
 20
184.303238
 10
370.15509
 20
183.934174
 10
370.32135
 20
183.576599
 10
370.482697
 20
183.23111
 10
370.636719
 20
182.898315
 10
370.781006
 20
182.578827
 10
370.913147
 20
182.273239
 10
371.031586
 20
181.981674
 10
371.137207
 20
181.703049
 10
371.231232
 20
181.436035
 10
371.314911
 20
181.179352
 10
371.389465
 20
180.931686
 10
371.456146
 20
180.691757
 10
371.516144
 20
180.458252
 10
371.570679
 20
180.229645
 10
371.620605
 20
180.001617
 10
371.666504
 20
179.768036
 10
371.708984
 20
179.522736
 10
371.748596
 20
179.259735
 10
371.785614
 20
178.978485
 10
371.819824
 20
178.684525
 10
371.851013
 20
178.384583
 10
371.877777
 20
178.095764
 10
371.898438
 20
177.837296
 10
371.915649
 20
177.572739
 10
371.932251
 20
177.255981
 10
371.945099
 20
176.905167
 10
371.950989
 20
176.54306
 10
371.952026
 20
176.20343
 10
371.953796
 20
175.86821
 10
371.951813
 20
175.445526
  0
LWPOLYLINE
  5
16E
330
130
100
AcDbEntity
  8
0
  6
Continuous
 62
     0
370
    30
100
AcDbPolyline
 90
        7
 70
     0
 43
0.0
 10
382.776428
 20
177.027161
 10
382.77002
 20
177.893234
 10
382.785706
 20
178.754364
 10
382.849854
 20
179.604935
 10
382.954865
 20
180.445343
 10
383.103271
 20
181.273758
 10
383.320038
 20
182.094254
  0
LWPOLYLINE
  5
16F
330
130
100
AcDbEntity
  8
0
  6
Continuous
 62
     0
370
    30
100
AcDbPolyline
 90
       11
 70
     0
 43
0.0
 10
383.320038
 20
182.094254
 10
383.614288
 20
182.947647
 10
383.971344
 20
183.779129
 10
384.378235
 20
184.59314
 10
384.813324
 20
185.399887
 10
385.25473
 20
186.211563
 10
385.688324
 20
187.037552
 10
386.104767
 20
187.885361
 10
386.495148
 20
188.761734
 10
386.857574
 20
189.666763
 10
387.206879
 20
190.671021
  0
ARC
  5
170
330
130
100
AcDbEntity
  8
0
  6
Continuous
 62
     0
370
    30
100
AcDbCircle
 10
385.031427
 20
185.782929
 30
0.0
 40
0.7103777097628136
100
AcDbArc
 50
287.80507
 51
18.085988
  0
ARC
  5
171
330
130
100
AcDbEntity
  8
0
  6
Continuous
 62
     0
370
    30
100
AcDbCircle
 10
408.939868
 20
173.453025
 30
0.0
 40
26.40631167261133
100
AcDbArc
 50
151.622308
 51
172.224228
  0
ARC
  5
172
330
130
100
AcDbEntity
  8
0
  6
Continuous
 62
     0
370
    30
100
AcDbCircle
 10
396.422224
 20
180.749637
 30
0.0
 40
11.93419415216792
100
AcDbArc
 50
125.097979
 51
153.881265
  0
LINE
  5
173
330
130
100
AcDbEntity
  8
0
  6
Continuous
 62
     0
370
     0
100
AcDbLine
 10
385.706706
 20
186.003461
 30
0.0
 11
386.08092
 21
187.834757
 31
0.0
  0
ARC
  5
174
330
130
100
AcDbEntity
  8
0
  6
Continuous
 62
     0
370
    30
100
AcDbCircle
 10
400.030907
 20
178.032144
 30
0.0
 40
16.17594900121711
100
AcDbArc
 50
130.672722
 51
153.224074
  0
LWPOLYLINE
  5
175
330
130
100
AcDbEntity
  8
0
  6
Continuous
 62
     0
370
    30
100
AcDbPolyline
 90
       22
 70
     0
 43
0.0
 10
385.574799
 20
185.293671
 10
385.380524
 20
184.964172
 10
385.193176
 20
184.625397
 10
385.012665
 20
184.27829
 10
384.838928
 20
183.923782
 10
384.671844
 20
183.562836
 10
384.511169
 20
183.196594
 10
384.356415
 20
182.826584
 10
384.207123
 20
182.454269
 10
384.063293
 20
182.080521
 10
383.925262
 20
181.705887
 10
383.793304
 20
181.330917
 10
383.667816
 20
180.956284
 10
383.549683
 20
180.583237
 10
383.43988
 20
180.213211
 10
383.339722
 20
179.84787
 10
383.251099
 20
179.489319
 10
383.176117
 20
179.141006
 10
383.119171
 20
178.820297
 10
383.08136
 20
178.533676
 10
383.058258
 20
178.26474
 10
383.04718
 20
178.039658
  0
LWPOLYLINE
  5
176
330
130
100
AcDbEntity
  8
0
  6
Continuous
 62
     0
370
    30
100
AcDbPolyline
 90
       25
 70
     0
 43
0.0
 10
365.56601
 20
191.614792
 10
365.787598
 20
190.867065
 10
366.032959
 20
190.160507
 10
366.290131
 20
189.485657
 10
366.563965
 20
188.822495
 10
366.856506
 20
188.165207
 10
367.16217
 20
187.523773
 10
367.473236
 20
186.90834
 10
367.78418
 20
186.318298
 10
368.089722
 20
185.752899
 10
368.384247
 20
185.212845
 10
368.656372
 20
184.707245
 10
368.892853
 20
184.247437
 10
369.097809
 20
183.815475
 10
369.280334
 20
183.385178
 10
369.446136
 20
182.936493
 10
369.597046
 20
182.461761
 10
369.716919
 20
182.009537
 10
369.814026
 20
181.531464
 10
369.89978
 20
180.986572
 10
369.970459
 20
180.431503
 10
370.01944
 20
179.898178
 10
370.043945
 20
179.345779
 10
370.048706
 20
178.762253
 10
370.048157
 20
178.123108
  0
LWPOLYLINE
  5
177
330
130
100
AcDbEntity
  8
0
  6
Continuous
 62
     0
370
    30
100
AcDbPolyline
 90
       30
 70
     0
 43
0.0
 10
389.483032
 20
190.29393
 10
391.090912
 20
191.698242
 10
392.724274
 20
193.030182
 10
394.373627
 20
194.292648
 10
396.031097
 20
195.496399
 10
397.693207
 20
196.671936
 10
399.357635
 20
197.845016
 10
401.023621
 20
199.018585
 10
402.690643
 20
200.191467
 10
404.358185
 20
201.362457
 10
406.025757
 20
202.53038
 10
407.692993
 20
203.694489
 10
409.359863
 20
204.854935
 10
411.026367
 20
206.011948
 10
412.692566
 20
207.165756
 10
414.358398
 20
208.316589
 10
416.023895
 20
209.464661
 10
417.689056
 20
210.610229
 10
419.354095
 20
211.753296
 10
421.019684
 20
212.893311
 10
422.686676
 20
214.029633
 10
424.355743
 20
215.161636
 10
426.0271
 20
216.28923
 10
427.700439
 20
217.412704
 10
429.375458
 20
218.532379
 10
431.053772
 20
219.647217
 10
432.744049
 20
220.751266
 10
434.43924
 20
221.84935
 10
436.101715
 20
222.967102
 10
437.763519
 20
224.118073
  0
LINE
  5
178
330
130
100
AcDbEntity
  8
0
  6
Continuous
 62
     0
370
    30
100
AcDbLine
 10
431.166304
 20
240.373807
 30
0.0
 11
433.976969
 21
238.751069
 31
0.0
  0
LINE
  5
179
330
130
100
AcDbEntity
  8
0
  6
Continuous
 62
     0
370
    30
100
AcDbLine
 10
433.976969
 20
238.751069
 30
0.0
 11
436.787633
 21
237.128331
 31
0.0
  0
LINE
  5
17A
330
130
100
AcDbEntity
  8
0
  6
Continuous
 62
     0
370
    30
100
AcDbLine
 10
438.152993
 20
224.510594
 30
0.0
 11
437.757167
 21
224.114014
 31
0.0
  0
LINE
  5
17B
330
130
100
AcDbEntity
  8
0
  6
Continuous
 62
     0
370
    30
100
AcDbLine
 10
437.025926
 20
236.811768
 30
0.0
 11
436.813208
 21
237.111016
 31
0.0
  0
LINE
  5
17C
330
130
100
AcDbEntity
  8
0
  6
Continuous
 62
     0
370
    30
100
AcDbLine
 10
387.472591
 20
191.516302
 30
0.0
 11
387.474598
 21
193.671244
 31
0.0
  0
LINE
  5
17D
330
130
100
AcDbEntity
  8
0
  6
Continuous
 62
     0
370
    30
100
AcDbLine
 10
365.557686
 20
191.647513
 30
0.0
 11
365.506777
 21
191.878996
 31
0.0
  0
ARC
  5
17E
330
130
100
AcDbEntity
  8
0
  6
Continuous
 62
     0
370
    30
100
AcDbCircle
 10
411.10754
 20
227.930316
 30
0.0
 40
27.3978502006174
100
AcDbArc
 50
354.034765
 51
18.915785
  0
ENDBLK
  5
180
330
130
100
AcDbEntity
  8
0
100
AcDbBlockEnd
  0
BLOCK
  5
1E3
330
182
100
AcDbEntity
  8
0
100
AcDbBlockBegin
  2
e
 70
     0
 10
110.235245
 20
0.0
 30
0.0
  3
e
  1

  0
LINE
  5
183
330
182
100
AcDbEntity
  8
0
  6
Continuous
 62
     0
370
    30
100
AcDbLine
 10
18.837956
 20
289.210081
 30
0.0
 11
18.840456
 21
292.210082
 31
0.0
  0
LINE
  5
184
330
182
100
AcDbEntity
  8
0
  6
Continuous
 62
     0
370
    30
100
AcDbLine
 10
18.837956
 20
289.210081
 30
0.0
 11
86.840262
 21
289.210081
 31
0.0
  0
LINE
  5
185
330
182
100
AcDbEntity
  8
0
  6
Continuous
 62
     0
370
    30
100
AcDbLine
 10
86.840262
 20
289.210081
 30
0.0
 11
86.840262
 21
292.210082
 31
0.0
  0
LINE
  5
186
330
182
100
AcDbEntity
  8
0
  6
Continuous
 62
     0
370
    30
100
AcDbLine
 10
86.840262
 20
292.210082
 30
0.0
 11
18.840456
 21
292.210082
 31
0.0
  0
LINE
  5
187
330
182
100
AcDbEntity
  8
0
  6
Continuous
 62
     0
370
    30
100
AcDbLine
 10
48.045165
 20
323.9542
 30
0.0
 11
46.058969
 21
323.9542
 31
0.0
  0
LINE
  5
188
330
182
100
AcDbEntity
  8
0
  6
Continuous
 62
     0
370
    30
100
AcDbLine
 10
57.635362
 20
323.9542
 30
0.0
 11
48.045165
 21
323.9542
 31
0.0
  0
LINE
  5
189
330
182
100
AcDbEntity
  8
0
  6
Continuous
 62
     0
370
    30
100
AcDbLine
 10
59.621557
 20
323.9542
 30
0.0
 11
57.635362
 21
323.9542
 31
0.0
  0
LINE
  5
18A
330
182
100
AcDbEntity
  8
0
  6
Continuous
 62
     0
370
    30
100
AcDbLine
 10
52.840263
 20
324.208832
 30
0.0
 11
59.351994
 21
324.208832
 31
0.0
  0
LINE
  5
18B
330
182
100
AcDbEntity
  8
0
  6
Continuous
 62
     0
370
    30
100
AcDbLine
 10
46.328532
 20
324.208832
 30
0.0
 11
52.840263
 21
324.208832
 31
0.0
  0
LWPOLYLINE
  5
18C
330
182
100
AcDbEntity
  8
0
  6
Continuous
 62
     0
370
    30
100
AcDbPolyline
 90
      145
 70
     0
 43
0.0
 10
86.840065
 20
292.210083
 10
85.772339
 20
293.105957
 10
84.881958
 20
293.853058
 10
84.121628
 20
294.491058
 10
83.456955
 20
295.048767
 10
82.863228
 20
295.546967
 10
82.322823
 20
296.000427
 10
81.823288
 20
296.419586
 10
81.355843
 20
296.811829
 10
80.914253
 20
297.182373
 10
80.494072
 20
297.534943
 10
80.092056
 20
297.872284
 10
79.705757
 20
298.196411
 10
79.333282
 20
298.508972
 10
78.973122
 20
298.811188
 10
78.624001
 20
299.104126
 10
78.284882
 20
299.388672
 10
77.954842
 20
299.665619
 10
77.63311
 20
299.935577
 10
77.319
 20
300.199158
 10
77.011925
 20
300.456818
 10
76.711357
 20
300.709045
 10
76.416832
 20
300.956177
 10
76.127953
 20
301.198608
 10
75.844345
 20
301.436584
 10
75.565674
 20
301.670441
 10
75.291649
 20
301.900391
 10
75.022003
 20
302.126709
 10
74.75647
 20
302.349548
 10
74.494827
 20
302.569153
 10
74.236862
 20
302.785706
 10
73.982368
 20
302.999359
 10
73.731163
 20
303.210297
 10
73.483063
 20
303.418671
 10
73.237892
 20
303.624634
 10
72.995491
 20
303.828308
 10
72.755707
 20
304.029877
 10
72.518372
 20
304.229492
 10
72.28334
 20
304.427246
 10
72.050461
 20
304.623352
 10
71.819588
 20
304.817902
 10
71.590569
 20
305.011047
 10
71.363266
 20
305.202972
 10
71.137527
 20
305.393768
 10
70.913223
 20
305.583649
 10
70.690208
 20
305.772736
 10
70.468346
 20
305.961182
 10
70.24752
 20
306.149109
 10
70.027596
 20
306.33667
 10
69.808479
 20
306.524017
 10
69.590057
 20
306.711243
 10
69.372261
 20
306.898499
 10
69.155029
 20
307.085846
 10
68.938309
 20
307.273346
 10
68.722107
 20
307.46109
 10
68.506424
 20
307.649048
 10
68.291313
 20
307.83728
 10
68.076859
 20
308.025696
 10
67.863182
 20
308.214233
 10
67.650444
 20
308.402771
 10
67.43885
 20
308.591125
 10
67.228645
 20
308.779144
 10
67.020111
 20
308.966583
 10
66.813576
 20
309.153137
 10
66.609406
 20
309.33847
 10
66.407982
 20
309.522278
 10
66.209724
 20
309.704163
 10
66.015076
 20
309.883698
 10
65.824486
 20
310.060486
 10
65.638405
 20
310.23407
 10
65.457283
 20
310.404083
 10
65.281555
 20
310.570068
 10
65.111618
 20
310.731628
 10
64.947845
 20
310.888428
 10
64.790558
 20
311.0401
 10
64.64003
 20
311.186401
 10
64.496468
 20
311.327087
 10
64.360008
 20
311.462036
 10
64.230728
 20
311.591095
 10
64.108612
 20
311.714264
 10
63.993584
 20
311.831573
 10
63.885483
 20
311.943176
 10
63.784088
 20
312.049225
 10
63.689102
 20
312.149933
 10
63.600174
 20
312.245667
 10
63.516899
 20
312.336731
 10
63.438835
 20
312.423523
 10
63.365501
 20
312.50647
 10
63.296391
 20
312.58606
 10
63.230988
 20
312.66275
 10
63.168762
 20
312.737061
 10
63.109196
 20
312.809448
 10
63.051765
 20
312.880432
 10
62.995972
 20
312.9505
 10
62.941322
 20
313.020172
 10
62.887352
 20
313.089966
 10
62.833603
 20
313.160309
 10
62.779652
 20
313.23172
 10
62.725086
 20
313.304657
 10
62.669514
 20
313.379608
 10
62.612564
 20
313.457031
 10
62.55389
 20
313.537384
 10
62.493153
 20
313.621124
 10
62.430042
 20
313.70871
 10
62.364277
 20
313.800537
 10
62.295589
 20
313.897034
 10
62.223755
 20
313.998535
 10
62.148571
 20
314.105438
 10
62.069878
 20
314.218048
 10
61.987553
 20
314.336578
 10
61.901524
 20
314.461334
 10
61.811752
 20
314.592407
 10
61.718243
 20
314.730011
 10
61.62104
 20
314.874207
 10
61.520222
 20
315.025085
 10
61.415886
 20
315.182678
 10
61.308155
 20
315.347046
 10
61.197155
 20
315.51828
 10
61.083012
 20
315.696472
 10
60.965851
 20
315.881714
 10
60.845772
 20
316.074219
 10
60.722866
 20
316.274231
 10
60.597206
 20
316.482056
 10
60.468864
 20
316.697998
 10
60.337921
 20
316.922363
 10
60.204494
 20
317.155396
 10
60.068768
 20
317.397217
 10
59.93103
 20
317.647644
 10
59.791714
 20
317.906219
 10
59.651436
 20
318.172058
 10
59.510979
 20
318.443848
 10
59.3713
 20
318.719971
 10
59.233452
 20
318.998596
 10
59.098476
 20
319.278107
 10
58.967228
 20
319.557526
 10
58.840221
 20
319.837036
 10
58.7174
 20
320.118469
 10
58.598022
 20
320.40564
 10
58.480549
 20
320.704803
 10
58.362682
 20
321.024872
 10
58.241531
 20
321.377991
 10
58.113827
 20
321.781494
 10
57.975887
 20
322.26651
 10
57.821777
 20
322.911865
 10
57.635361
 20
323.954193
  0
LWPOLYLINE
  5
18D
330
182
100
AcDbEntity
  8
0
  6
Continuous
 62
     0
370
    30
100
AcDbPolyline
 90
      145
 70
     0
 43
0.0
 10
48.045166
 20
323.954193
 10
47.875355
 20
322.91449
 10
47.731785
 20
322.268311
 10
47.601795
 20
321.782959
 10
47.48045
 20
321.379242
 10
47.364517
 20
321.026001
 10
47.251003
 20
320.705841
 10
47.137192
 20
320.406616
 10
47.020924
 20
320.119415
 10
46.900757
 20
319.837982
 10
46.775993
 20
319.558472
 10
46.646618
 20
319.279022
 10
46.513149
 20
318.999512
 10
46.376453
 20
318.720886
 10
46.237576
 20
318.444763
 10
46.097569
 20
318.172943
 10
45.957394
 20
317.907104
 10
45.817863
 20
317.648499
 10
45.6796
 20
317.39801
 10
45.543072
 20
317.156189
 10
45.408592
 20
316.923126
 10
45.276379
 20
316.69873
 10
45.146576
 20
316.482758
 10
45.019302
 20
316.274933
 10
44.89465
 20
316.07489
 10
44.77272
 20
315.882324
 10
44.653633
 20
315.697052
 10
44.537514
 20
315.51886
 10
44.424496
 20
315.347626
 10
44.314735
 20
315.183197
 10
44.20837
 20
315.025604
 10
44.105537
 20
314.874695
 10
44.006348
 20
314.730499
 10
43.910892
 20
314.592865
 10
43.819221
 20
314.461761
 10
43.73135
 20
314.337006
 10
43.647251
 20
314.218414
 10
43.566845
 20
314.105804
 10
43.490017
 20
313.998901
 10
43.416611
 20
313.897339
 10
43.346432
 20
313.800842
 10
43.279243
 20
313.709015
 10
43.214787
 20
313.621429
 10
43.152775
 20
313.537659
 10
43.092888
 20
313.457306
 10
43.034798
 20
313.379852
 10
42.978146
 20
313.304901
 10
42.922558
 20
313.231964
 10
42.867638
 20
313.160553
 10
42.812973
 20
313.090179
 10
42.758129
 20
313.020416
 10
42.702652
 20
312.950745
 10
42.646069
 20
312.880646
 10
42.587883
 20
312.809662
 10
42.527592
 20
312.737305
 10
42.464672
 20
312.663025
 10
42.398594
 20
312.586334
 10
42.328835
 20
312.506744
 10
42.254871
 20
312.423798
 10
42.176201
 20
312.337036
 10
42.092335
 20
312.245972
 10
42.002834
 20
312.150269
 10
41.907288
 20
312.049561
 10
41.805347
 20
311.943542
 10
41.696716
 20
311.83197
 10
41.581173
 20
311.714661
 10
41.458553
 20
311.591492
 10
41.328785
 20
311.462463
 10
41.191853
 20
311.327545
 10
41.047829
 20
311.18689
 10
40.896858
 20
311.040588
 10
40.739143
 20
310.888947
 10
40.574959
 20
310.732178
 10
40.404625
 20
310.570618
 10
40.228512
 20
310.404633
 10
40.047028
 20
310.23465
 10
39.8606
 20
310.061066
 10
39.669682
 20
309.884277
 10
39.47472
 20
309.704742
 10
39.276173
 20
309.522888
 10
39.074471
 20
309.339081
 10
38.870037
 20
309.153748
 10
38.663261
 20
308.967194
 10
38.454502
 20
308.779785
 10
38.244091
 20
308.591766
 10
38.032307
 20
308.403381
 10
37.819393
 20
308.214844
 10
37.605556
 20
308.026337
 10
37.390957
 20
307.837921
 10
37.175713
 20
307.649689
 10
36.959911
 20
307.4617
 10
36.743599
 20
307.273987
 10
36.526791
 20
307.086456
 10
36.309471
 20
306.899109
 10
36.091602
 20
306.711884
 10
35.873119
 20
306.524628
 10
35.653946
 20
306.337311
 10
35.433975
 20
306.149719
 10
35.213104
 20
305.961792
 10
34.991211
 20
305.773376
 10
34.768169
 20
305.58429
 10
34.543839
 20
305.394409
 10
34.318085
 20
305.203613
 10
34.090767
 20
305.011688
 10
33.86174
 20
304.818542
 10
33.630859
 20
304.623993
 10
33.397972
 20
304.427917
 10
33.162941
 20
304.230133
 10
32.925606
 20
304.030548
 10
32.685818
 20
303.828979
 10
32.443424
 20
303.625305
 10
32.198261
 20
303.419373
 10
31.950165
 20
303.210999
 10
31.698965
 20
303.000092
 10
31.444481
 20
302.786438
 10
31.186523
 20
302.569885
 10
30.924892
 20
302.350311
 10
30.659372
 20
302.127441
 10
30.389732
 20
301.901154
 10
30.115723
 20
301.671204
 10
29.83707
 20
301.437378
 10
29.553476
 20
301.199402
 10
29.26461
 20
300.957001
 10
28.970108
 20
300.709869
 10
28.669558
 20
300.457672
 10
28.362501
 20
300.200043
 10
28.048416
 20
299.936493
 10
27.726707
 20
299.666534
 10
27.3967
 20
299.389618
 10
27.057608
 20
299.105103
 10
26.708527
 20
298.812164
 10
26.3484
 20
298.51001
 10
25.975971
 20
298.197479
 10
25.589722
 20
297.873383
 10
25.187757
 20
297.536102
 10
24.767643
 20
297.183594
 10
24.326132
 20
296.81311
 10
23.858774
 20
296.420959
 10
23.359362
 20
296.001892
 10
22.819115
 20
295.548584
 10
22.22559
 20
295.050537
 10
21.561197
 20
294.493042
 10
20.801243
 20
293.855377
 10
19.911383
 20
293.108704
 10
18.840456
 20
292.210083
  0
LWPOLYLINE
  5
18E
330
182
100
AcDbEntity
  8
0
  6
Continuous
 62
     0
370
    30
100
AcDbPolyline
 90
       38
 70
     0
 43
0.0
 10
18.899736
 20
292.263062
 10
19.757479
 20
293.029877
 10
20.615198
 20
293.796692
 10
21.472902
 20
294.563507
 10
22.330593
 20
295.330292
 10
23.188278
 20
296.097107
 10
24.045959
 20
296.863922
 10
24.903646
 20
297.630737
 10
25.761339
 20
298.397552
 10
26.619047
 20
299.164368
 10
27.476772
 20
299.931213
 10
28.33452
 20
300.69809
 10
29.192295
 20
301.464966
 10
30.050106
 20
302.231842
 10
30.907953
 20
302.998749
 10
31.765789
 20
303.765747
 10
32.622997
 20
304.533417
 10
33.478622
 20
305.302704
 10
34.331699
 20
306.074524
 10
35.181267
 20
306.849854
 10
36.026199
 20
307.630005
 10
36.865074
 20
308.416962
 10
37.69643
 20
309.21283
 10
38.518642
 20
310.019775
 10
39.32616
 20
310.84201
 10
40.10939
 20
311.685913
 10
40.858562
 20
312.557892
 10
41.56395
 20
313.464355
 10
42.220551
 20
314.407623
 10
42.831966
 20
315.38266
 10
43.402706
 20
316.383545
 10
43.937225
 20
317.40451
 10
44.435001
 20
318.442596
 10
44.886971
 20
319.499969
 10
45.28323
 20
320.579254
 10
45.614555
 20
321.681671
 10
45.874424
 20
322.803162
 10
46.058971
 20
323.954193
  0
LWPOLYLINE
  5
18F
330
182
100
AcDbEntity
  8
0
  6
Continuous
 62
     0
370
    30
100
AcDbPolyline
 90
       38
 70
     0
 43
0.0
 10
86.780792
 20
292.263062
 10
85.92305
 20
293.029877
 10
85.065331
 20
293.796692
 10
84.207626
 20
294.563507
 10
83.349937
 20
295.330292
 10
82.492249
 20
296.097107
 10
81.634567
 20
296.863922
 10
80.776878
 20
297.630737
 10
79.919189
 20
298.397552
 10
79.061478
 20
299.164368
 10
78.203758
 20
299.931213
 10
77.346008
 20
300.69809
 10
76.488228
 20
301.464966
 10
75.630424
 20
302.231842
 10
74.772575
 20
302.998749
 10
73.914734
 20
303.765747
 10
73.057526
 20
304.533417
 10
72.201904
 20
305.302704
 10
71.348824
 20
306.074524
 10
70.49926
 20
306.849854
 10
69.654327
 20
307.630005
 10
68.815453
 20
308.416962
 10
67.9841
 20
309.21283
 10
67.16188
 20
310.019775
 10
66.354362
 20
310.84201
 10
65.571136
 20
311.685913
 10
64.821968
 20
312.557892
 10
64.116577
 20
313.464355
 10
63.459976
 20
314.407623
 10
62.84856
 20
315.38266
 10
62.277821
 20
316.383545
 10
61.743301
 20
317.40451
 10
61.245525
 20
318.442596
 10
60.793556
 20
319.499969
 10
60.397297
 20
320.579254
 10
60.065971
 20
321.681671
 10
59.806103
 20
322.803162
 10
59.621555
 20
323.954193
  0
LINE
  5
190
330
182
100
AcDbEntity
  8
0
  6
Continuous
 62
     0
370
     0
100
AcDbLine
 10
49.957823
 20
341.327965
 30
0.0
 11
49.459596
 21
341.296331
 31
0.0
  0
LINE
  5
191
330
182
100
AcDbEntity
  8
0
  6
Continuous
 62
     0
370
     0
100
AcDbLine
 10
48.948272
 20
357.543792
 30
0.0
 11
49.958591
 21
341.315868
 31
0.0
  0
LINE
  5
192
330
182
100
AcDbEntity
  8
0
  6
Continuous
 62
     0
370
     0
100
AcDbLine
 10
48.450368
 20
357.323876
 30
0.0
 11
48.948272
 21
357.543792
 31
0.0
  0
LINE
  5
193
330
182
100
AcDbEntity
  8
0
  6
Continuous
 62
     0
370
     0
100
AcDbLine
 10
49.459597
 20
341.296383
 30
0.0
 11
48.450368
 21
357.323876
 31
0.0
  0
LINE
  5
194
330
182
100
AcDbEntity
  8
0
  6
Continuous
 62
     0
370
     0
100
AcDbLine
 10
56.220917
 20
341.296383
 30
0.0
 11
57.230147
 21
357.323876
 31
0.0
  0
LINE
  5
195
330
182
100
AcDbEntity
  8
0
  6
Continuous
 62
     0
370
     0
100
AcDbLine
 10
57.230147
 20
357.323876
 30
0.0
 11
56.732243
 21
357.543792
 31
0.0
  0
LINE
  5
196
330
182
100
AcDbEntity
  8
0
  6
Continuous
 62
     0
370
     0
100
AcDbLine
 10
56.732243
 20
357.543792
 30
0.0
 11
55.721923
 21
341.315868
 31
0.0
  0
LINE
  5
197
330
182
100
AcDbEntity
  8
0
  6
Continuous
 62
     0
370
     0
100
AcDbLine
 10
55.722691
 20
341.327965
 30
0.0
 11
56.220918
 21
341.296331
 31
0.0
  0
LINE
  5
198
330
182
100
AcDbEntity
  8
0
  6
Continuous
 62
     0
370
     0
100
AcDbLine
 10
48.948272
 20
357.543792
 30
0.0
 11
52.840257
 21
357.543792
 31
0.0
  0
LINE
  5
199
330
182
100
AcDbEntity
  8
0
  6
Continuous
 62
     0
370
     0
100
AcDbLine
 10
52.840257
 20
341.315868
 30
0.0
 11
49.958591
 21
341.315868
 31
0.0
  0
LINE
  5
19A
330
182
100
AcDbEntity
  8
0
  6
Continuous
 62
     0
370
     0
100
AcDbLine
 10
52.840259
 20
357.543792
 30
0.0
 11
52.840259
 21
341.315868
 31
0.0
  0
LINE
  5
19B
330
182
100
AcDbEntity
  8
0
  6
Continuous
 62
     0
370
     0
100
AcDbLine
 10
52.840257
 20
341.315868
 30
0.0
 11
55.721923
 21
341.315868
 31
0.0
  0
LINE
  5
19C
330
182
100
AcDbEntity
  8
0
  6
Continuous
 62
     0
370
     0
100
AcDbLine
 10
56.732243
 20
357.543792
 30
0.0
 11
52.840257
 21
357.543792
 31
0.0
  0
LWPOLYLINE
  5
19D
330
182
100
AcDbEntity
  8
0
  6
Continuous
 62
     0
370
     0
100
AcDbPolyline
 90
       13
 70
     0
 43
0.0
 10
62.719582
 20
342.228424
 10
63.042789
 20
342.228394
 10
63.303059
 20
342.228394
 10
63.499111
 20
342.228363
 10
63.629726
 20
342.228333
 10
63.693722
 20
342.228302
 10
63.690491
 20
342.228271
 10
63.619999
 20
342.228241
 10
63.482231
 20
342.22818
 10
63.277355
 20
342.228119
 10
63.007259
 20
342.228058
 10
62.674839
 20
342.227966
 10
62.244587
 20
342.227844
  0
LINE
  5
19E
330
182
100
AcDbEntity
  8
0
  6
Continuous
 62
     0
370
     0
100
AcDbLine
 10
43.529062
 20
342.227793
 30
0.0
 11
43.722399
 21
342.22719
 31
0.0
  0
LWPOLYLINE
  5
19F
330
182
100
AcDbEntity
  8
0
  6
Continuous
 62
     0
370
     0
100
AcDbPolyline
 90
       13
 70
     0
 43
0.0
 10
42.960941
 20
342.228424
 10
42.637726
 20
342.228394
 10
42.37743
 20
342.228394
 10
42.181374
 20
342.228363
 10
42.050819
 20
342.228333
 10
41.986992
 20
342.228302
 10
41.990471
 20
342.228271
 10
42.061192
 20
342.228241
 10
42.199078
 20
342.22818
 10
42.403877
 20
342.228119
 10
42.673763
 20
342.228058
 10
43.006008
 20
342.227966
 10
43.435936
 20
342.227844
  0
LWPOLYLINE
  5
1A0
330
182
100
AcDbEntity
  8
0
  6
Continuous
 62
     0
370
     0
100
AcDbPolyline
 90
        8
 70
     0
 43
0.0
 10
41.735424
 20
341.926971
 10
41.765198
 20
341.926941
 10
41.85416
 20
341.92688
 10
42.001743
 20
341.926849
 10
42.207363
 20
341.926788
 10
42.470009
 20
341.926697
 10
42.78801
 20
341.926605
 10
43.223274
 20
341.926483
  0
LINE
  5
1A1
330
182
100
AcDbEntity
  8
0
  6
Continuous
 62
     0
370
     0
100
AcDbLine
 10
63.944753
 20
341.92703
 30
0.0
 11
62.457246
 21
341.926496
 31
0.0
  0
LINE
  5
1A2
330
182
100
AcDbEntity
  8
0
  6
Continuous
 62
     0
370
    30
100
AcDbLine
 10
62.151389
 20
342.227793
 30
0.0
 11
57.46495
 21
342.352895
 31
0.0
  0
LINE
  5
1A3
330
182
100
AcDbEntity
  8
0
  6
Continuous
 62
     0
370
    30
100
AcDbLine
 10
43.529062
 20
342.227793
 30
0.0
 11
48.215557
 21
342.352893
 31
0.0
  0
LINE
  5
1A4
330
182
100
AcDbEntity
  8
0
  6
Continuous
 62
     0
370
     0
100
AcDbLine
 10
43.529062
 20
342.227793
 30
0.0
 11
43.321542
 21
341.924953
 31
0.0
  0
ARC
  5
1A5
330
182
100
AcDbEntity
  8
0
  6
Continuous
 62
     0
370
     0
100
AcDbCircle
 10
62.124723
 20
341.987123
 30
0.0
 40
0.2421228923660697
100
AcDbArc
 50
345.121445
 51
83.71859
  0
LINE
  5
1A6
330
182
100
AcDbEntity
  8
0
  6
Continuous
 62
     0
370
    30
100
AcDbLine
 10
43.321542
 20
341.924953
 30
0.0
 11
46.785009
 21
341.987865
 31
0.0
  0
ARC
  5
1A7
330
182
100
AcDbEntity
  8
0
  6
Continuous
 62
     0
370
    30
100
AcDbCircle
 10
46.960004
 20
348.288384
 30
0.0
 40
6.302948792119858
100
AcDbArc
 50
268.409034
 51
291.922698
  0
ARC
  5
1A8
330
182
100
AcDbEntity
  8
0
  6
Continuous
 62
     0
370
    30
100
AcDbCircle
 10
58.720516
 20
348.288387
 30
0.0
 40
6.302951567012691
100
AcDbArc
 50
248.077307
 51
271.590964
  0
LINE
  5
1A9
330
182
100
AcDbEntity
  8
0
  6
Continuous
 62
     0
370
    30
100
AcDbLine
 10
62.358728
 20
341.924952
 30
0.0
 11
58.895511
 21
341.987865
 31
0.0
  0
ARC
  5
1AA
330
182
100
AcDbEntity
  8
0
  6
Continuous
 62
     0
370
     0
100
AcDbCircle
 10
56.995271
 20
357.901519
 30
0.0
 40
0.25
100
AcDbArc
 50
356.756162
 51
90.297381
  0
LINE
  5
1AB
330
182
100
AcDbEntity
  8
0
  6
Continuous
 62
     0
370
     0
100
AcDbLine
 10
49.40266
 20
333.650229
 30
0.0
 11
49.408513
 21
340.569911
 31
0.0
  0
LINE
  5
1AC
330
182
100
AcDbEntity
  8
0
  6
Continuous
 62
     0
370
     0
100
AcDbLine
 10
49.991837
 20
340.342763
 30
0.0
 11
52.840257
 21
340.342763
 31
0.0
  0
LINE
  5
1AD
330
182
100
AcDbEntity
  8
0
  6
Continuous
 62
     0
370
     0
100
AcDbLine
 10
49.900347
 20
333.133877
 30
0.0
 11
49.991837
 21
340.342763
 31
0.0
  0
LINE
  5
1AE
330
182
100
AcDbEntity
  8
0
  6
Continuous
 62
     0
370
     0
100
AcDbLine
 10
52.84026
 20
333.133877
 30
0.0
 11
49.900347
 21
333.133877
 31
0.0
  0
LINE
  5
1AF
330
182
100
AcDbEntity
  8
0
  6
Continuous
 62
     0
370
     0
100
AcDbLine
 10
52.840257
 20
340.342763
 30
0.0
 11
52.84026
 21
333.133877
 31
0.0
  0
ARC
  5
1B0
330
182
100
AcDbEntity
  8
0
  6
Continuous
 62
     0
370
     0
100
AcDbCircle
 10
48.685244
 20
357.901519
 30
0.0
 40
0.25
100
AcDbArc
 50
89.702619
 51
183.243838
  0
ARC
  5
1B1
330
182
100
AcDbEntity
  8
0
  6
Continuous
 62
     0
370
    30
100
AcDbCircle
 10
55.771801
 20
333.639822
 30
0.0
 40
0.5060139042258035
100
AcDbArc
 50
270.947998
 51
1.177027
  0
LINE
  5
1B2
330
182
100
AcDbEntity
  8
0
  6
Continuous
 62
     0
370
     0
100
AcDbLine
 10
56.277708
 20
333.650228
 30
0.0
 11
56.271753
 21
340.569952
 31
0.0
  0
ARC
  5
1B3
330
182
100
AcDbEntity
  8
0
  6
Continuous
 62
     0
370
     0
100
AcDbCircle
 10
55.693523
 20
340.83925
 30
0.0
 40
0.4965137203568283
100
AcDbArc
 50
269.440914
 51
356.479619
  0
LINE
  5
1B4
330
182
100
AcDbEntity
  8
0
  6
Continuous
 62
     0
370
     0
100
AcDbLine
 10
55.688679
 20
340.34276
 30
0.0
 11
55.780173
 21
333.133877
 31
0.0
  0
LINE
  5
1B5
330
182
100
AcDbEntity
  8
0
  6
Continuous
 62
     0
370
     0
100
AcDbLine
 10
52.84026
 20
333.133877
 30
0.0
 11
55.780173
 21
333.133877
 31
0.0
  0
LINE
  5
1B6
330
182
100
AcDbEntity
  8
0
  6
Continuous
 62
     0
370
     0
100
AcDbLine
 10
55.688678
 20
340.342763
 30
0.0
 11
52.840257
 21
340.342763
 31
0.0
  0
LWPOLYLINE
  5
1B7
330
182
100
AcDbEntity
  8
0
  6
Continuous
 62
     0
370
    30
100
AcDbPolyline
 90
        6
 70
     0
 43
0.0
 10
48.435753
 20
357.88739
 10
48.429459
 20
357.876862
 10
48.428684
 20
357.796326
 10
48.433075
 20
357.662445
 10
48.440636
 20
357.50235
 10
48.450367
 20
357.323883
  0
ARC
  5
1B8
330
182
100
AcDbEntity
  8
0
  6
Continuous
 62
     0
370
    30
100
AcDbCircle
 10
48.476206
 20
357.700206
 30
0.0
 40
0.4973044517679721
100
AcDbArc
 50
341.667908
 51
64.520762
  0
ARC
  5
1B9
330
182
100
AcDbEntity
  8
0
  6
Continuous
 62
     0
370
     0
100
AcDbCircle
 10
49.986969
 20
340.839242
 30
0.0
 40
0.4964901691906267
100
AcDbArc
 50
183.51956
 51
270.385065
  0
LINE
  5
1BA
330
182
100
AcDbEntity
  8
0
  6
Continuous
 62
     0
370
     0
100
AcDbLine
 10
49.958591
 20
341.315868
 30
0.0
 11
49.990305
 21
340.342763
 31
0.0
  0
LWPOLYLINE
  5
1BB
330
182
100
AcDbEntity
  8
0
  6
Continuous
 62
     0
370
    30
100
AcDbPolyline
 90
        6
 70
     0
 43
0.0
 10
49.49136
 20
340.809662
 10
49.490059
 20
340.82782
 10
49.486053
 20
340.887939
 10
49.479671
 20
340.985138
 10
49.471554
 20
341.109985
 10
49.459599
 20
341.296387
  0
LWPOLYLINE
  5
1BC
330
182
100
AcDbEntity
  8
0
  6
Continuous
 62
     0
370
    30
100
AcDbPolyline
 90
        6
 70
     0
 43
0.0
 10
56.189156
 20
340.809662
 10
56.190456
 20
340.82782
 10
56.194462
 20
340.887939
 10
56.200844
 20
340.985138
 10
56.208961
 20
341.109985
 10
56.220917
 20
341.296387
  0
LINE
  5
1BD
330
182
100
AcDbEntity
  8
0
  6
Continuous
 62
     0
370
     0
100
AcDbLine
 10
55.721923
 20
341.315868
 30
0.0
 11
55.690209
 21
340.342763
 31
0.0
  0
ARC
  5
1BE
330
182
100
AcDbEntity
  8
0
  6
Continuous
 62
     0
370
    30
100
AcDbCircle
 10
57.204309
 20
357.700206
 30
0.0
 40
0.4973043982630377
100
AcDbArc
 50
115.479221
 51
198.332092
  0
LWPOLYLINE
  5
1BF
330
182
100
AcDbEntity
  8
0
  6
Continuous
 62
     0
370
    30
100
AcDbPolyline
 90
        6
 70
     0
 43
0.0
 10
57.244762
 20
357.88739
 10
57.251057
 20
357.876862
 10
57.251831
 20
357.796326
 10
57.24744
 20
357.662445
 10
57.23988
 20
357.50235
 10
57.230148
 20
357.323883
  0
LINE
  5
1C0
330
182
100
AcDbEntity
  8
0
  6
Continuous
 62
     0
370
     0
100
AcDbLine
 10
52.840257
 20
341.315868
 30
0.0
 11
52.840257
 21
340.34016
 31
0.0
  0
LINE
  5
1C1
330
182
100
AcDbEntity
  8
0
  6
Continuous
 62
     0
370
     0
100
AcDbLine
 10
52.840257
 20
357.543792
 30
0.0
 11
52.840257
 21
358.176471
 31
0.0
  0
ARC
  5
1C2
330
182
100
AcDbEntity
  8
0
  6
Continuous
 62
     0
370
    30
100
AcDbCircle
 10
49.908719
 20
333.639822
 30
0.0
 40
0.5060139041824749
100
AcDbArc
 50
178.822973
 51
269.052002
  0
LWPOLYLINE
  5
1C3
330
182
100
AcDbEntity
  8
0
  6
Continuous
 62
     0
370
    30
100
AcDbPolyline
 90
        7
 70
     0
 43
0.0
 10
59.142975
 20
330.641266
 10
58.939236
 20
329.598267
 10
58.791496
 20
328.543518
 10
58.675858
 20
327.483978
 10
58.593124
 20
326.42099
 10
58.547409
 20
325.355591
 10
58.531647
 20
324.222992
  0
LWPOLYLINE
  5
1C4
330
182
100
AcDbEntity
  8
0
  6
Continuous
 62
     0
370
    30
100
AcDbPolyline
 90
       11
 70
     0
 43
0.0
 10
62.409771
 20
341.639618
 10
62.204956
 20
340.527161
 10
61.958157
 20
339.42514
 10
61.660778
 20
338.335205
 10
61.322361
 20
337.255737
 10
60.955853
 20
336.183655
 10
60.57156
 20
335.11618
 10
60.179535
 20
334.049408
 10
59.801514
 20
332.973663
 10
59.461277
 20
331.879761
 10
59.142975
 20
330.641266
  0
LINE
  5
1C5
330
182
100
AcDbEntity
  8
0
  6
Continuous
 62
     0
370
     0
100
AcDbLine
 10
62.456747
 20
341.926621
 30
0.0
 11
62.409771
 21
341.639624
 31
0.0
  0
LWPOLYLINE
  5
1C6
330
182
100
AcDbEntity
  8
0
  6
Continuous
 62
     0
370
     0
100
AcDbPolyline
 90
       10
 70
     0
 43
0.0
 10
57.331051
 20
331.904236
 10
57.475811
 20
333.026093
 10
57.655918
 20
334.141724
 10
57.86412
 20
335.251068
 10
58.084682
 20
336.356812
 10
58.296326
 20
337.464233
 10
58.492897
 20
338.575226
 10
58.664883
 20
339.691376
 10
58.800507
 20
340.812775
 10
58.895512
 20
341.987854
  0
LWPOLYLINE
  5
1C7
330
182
100
AcDbEntity
  8
0
  6
Continuous
 62
     0
370
    30
100
AcDbPolyline
 90
       11
 70
     0
 43
0.0
 10
58.531647
 20
324.222992
 10
58.399837
 20
325.146912
 10
58.283382
 20
326.041199
 10
58.189449
 20
326.906738
 10
58.105789
 20
327.744293
 10
58.019638
 20
328.553192
 10
57.92271
 20
329.328583
 10
57.808113
 20
330.062408
 10
57.670181
 20
330.743011
 10
57.509109
 20
331.357422
 10
57.331051
 20
331.904236
  0
LWPOLYLINE
  5
1C8
330
182
100
AcDbEntity
  8
0
  6
Continuous
 62
     0
370
    30
100
AcDbPolyline
 90
       11
 70
     0
 43
0.0
 10
57.330826
 20
331.903442
 10
57.197353
 20
332.223267
 10
57.067711
 20
332.521698
 10
56.943031
 20
332.796387
 10
56.824074
 20
333.044281
 10
56.711807
 20
333.262909
 10
56.606636
 20
333.440674
 10
56.509781
 20
333.56424
 10
56.423203
 20
333.64267
 10
56.347027
 20
333.670044
 10
56.277878
 20
333.650177
  0
ARC
  5
1C9
330
182
100
AcDbEntity
  8
0
  6
Continuous
 62
     0
370
    30
100
AcDbCircle
 10
55.914844
 20
331.685112
 30
0.0
 40
1.433057333963829
100
AcDbArc
 50
258.879295
 51
8.795391
  0
LINE
  5
1CA
330
182
100
AcDbEntity
  8
0
  6
Continuous
 62
     0
370
    30
100
AcDbLine
 10
55.638441
 20
330.278963
 30
0.0
 11
55.780173
 21
333.133877
 31
0.0
  0
LINE
  5
1CB
330
182
100
AcDbEntity
  8
0
  6
Continuous
 62
     0
370
     0
100
AcDbLine
 10
55.638441
 20
330.278963
 30
0.0
 11
55.544907
 21
324.20884
 31
0.0
  0
LINE
  5
1CC
330
182
100
AcDbEntity
  8
0
  6
Continuous
 62
     0
370
     0
100
AcDbLine
 10
43.279395
 20
341.639432
 30
0.0
 11
43.223275
 21
341.926496
 31
0.0
  0
ARC
  5
1CD
330
182
100
AcDbEntity
  8
0
  6
Continuous
 62
     0
370
    30
100
AcDbCircle
 10
18.443715
 20
324.756817
 30
0.0
 40
28.68304224326537
100
AcDbArc
 50
358.908646
 51
11.827274
  0
LWPOLYLINE
  5
1CE
330
182
100
AcDbEntity
  8
0
  6
Continuous
 62
     0
370
    30
100
AcDbPolyline
 90
       10
 70
     0
 43
0.0
 10
46.517815
 20
330.635742
 10
46.20031
 20
331.880157
 10
45.819958
 20
333.100372
 10
45.397423
 20
334.299988
 10
44.961552
 20
335.490082
 10
44.538906
 20
336.682465
 10
44.147045
 20
337.883606
 10
43.803234
 20
339.097748
 10
43.515125
 20
340.324738
 10
43.270054
 20
341.639435
  0
LINE
  5
1CF
330
182
100
AcDbEntity
  8
0
  6
Continuous
 62
     0
370
    30
100
AcDbLine
 10
49.900347
 20
333.133877
 30
0.0
 11
50.04208
 21
330.278964
 31
0.0
  0
LINE
  5
1D0
330
182
100
AcDbEntity
  8
0
  6
Continuous
 62
     0
370
     0
100
AcDbLine
 10
50.04208
 20
330.278964
 30
0.0
 11
50.135601
 21
324.20884
 31
0.0
  0
ARC
  5
1D1
330
182
100
AcDbEntity
  8
0
  6
Continuous
 62
     0
370
    30
100
AcDbCircle
 10
49.765704
 20
331.68514
 30
0.0
 40
1.433079608232782
100
AcDbArc
 50
171.205879
 51
281.119435
  0
LWPOLYLINE
  5
1D2
330
182
100
AcDbEntity
  8
0
  6
Continuous
 62
     0
370
    30
100
AcDbPolyline
 90
       12
 70
     0
 43
0.0
 10
47.121426
 20
324.208893
 10
47.240948
 20
325.049286
 10
47.353153
 20
325.863586
 10
47.44413
 20
326.654724
 10
47.524254
 20
327.423523
 10
47.603294
 20
328.169586
 10
47.688175
 20
328.890442
 10
47.783554
 20
329.583679
 10
47.893288
 20
330.244904
 10
48.0257
 20
330.85202
 10
48.179752
 20
331.394531
 10
48.349472
 20
331.904236
  0
ARC
  5
1D3
330
182
100
AcDbEntity
  8
0
  6
Continuous
 62
     0
370
    30
100
AcDbCircle
 10
50.857806
 20
331.581809
 30
0.0
 40
2.52897296471007
100
AcDbArc
 50
125.127454
 51
172.675245
  0
LWPOLYLINE
  5
1D4
330
182
100
AcDbEntity
  8
0
  6
Continuous
 62
     0
370
     0
100
AcDbPolyline
 90
       10
 70
     0
 43
0.0
 10
48.349472
 20
331.904236
 10
48.204708
 20
333.026093
 10
48.024601
 20
334.141724
 10
47.816402
 20
335.251068
 10
47.595837
 20
336.356812
 10
47.384197
 20
337.464233
 10
47.187622
 20
338.575226
 10
47.01564
 20
339.691376
 10
46.880013
 20
340.812775
 10
46.785007
 20
341.987854
  0
LWPOLYLINE
  5
1D5
330
182
100
AcDbEntity
  8
0
  6
Continuous
 62
     0
370
    30
100
AcDbPolyline
 90
       17
 70
     0
 43
0.0
 10
41.735428
 20
341.926941
 10
42.013134
 20
340.807861
 10
42.351521
 20
339.704315
 10
42.722469
 20
338.611633
 10
43.123615
 20
337.530457
 10
43.554024
 20
336.460388
 10
44.001629
 20
335.396851
 10
44.452808
 20
334.334808
 10
44.886681
 20
333.266083
 10
45.279449
 20
332.181549
 10
45.614307
 20
331.077728
 10
45.882217
 20
329.956268
 10
46.08411
 20
328.82077
 10
46.224274
 20
327.675476
 10
46.307007
 20
326.524567
 10
46.340153
 20
325.371582
 10
46.340294
 20
324.208832
  0
LWPOLYLINE
  5
1D6
330
182
100
AcDbEntity
  8
0
  6
Continuous
 62
     0
370
    30
100
AcDbPolyline
 90
       17
 70
     0
 43
0.0
 10
63.945026
 20
341.926636
 10
63.667297
 20
340.807587
 10
63.328915
 20
339.704071
 10
62.957981
 20
338.61142
 10
62.556839
 20
337.530304
 10
62.126442
 20
336.460236
 10
61.678844
 20
335.396759
 10
61.227673
 20
334.334717
 10
60.793819
 20
333.266052
 10
60.401081
 20
332.181549
 10
60.066227
 20
331.077759
 10
59.798283
 20
329.956329
 10
59.596348
 20
328.820862
 10
59.456188
 20
327.675598
 10
59.373581
 20
326.52475
 10
59.34058
 20
325.371796
 10
59.340229
 20
324.208832
  0
LINE
  5
1D7
330
182
100
AcDbEntity
  8
0
  6
Continuous
 62
     0
370
    30
100
AcDbLine
 10
56.990384
 20
358.176471
 30
0.0
 11
52.840257
 21
358.176471
 31
0.0
  0
LINE
  5
1D8
330
182
100
AcDbEntity
  8
0
  6
Continuous
 62
     0
370
    30
100
AcDbLine
 10
52.840257
 20
358.176471
 30
0.0
 11
48.741036
 21
358.176471
 31
0.0
  0
LINE
  5
1D9
330
182
100
AcDbEntity
  8
0
  6
Continuous
 62
     0
370
    30
100
AcDbLine
 10
56.9366
 20
358.176401
 30
0.0
 11
57.043328
 21
358.165185
 31
0.0
  0
LINE
  5
1DA
330
182
100
AcDbEntity
  8
0
  6
Continuous
 62
     0
370
    30
100
AcDbLine
 10
48.743915
 20
358.176401
 30
0.0
 11
48.637187
 21
358.165185
 31
0.0
  0
LINE
  5
1DB
330
182
100
AcDbEntity
  8
0
  6
Continuous
 62
     0
370
    30
100
AcDbLine
 10
60.202651
 20
342.226792
 30
0.0
 11
59.190832
 21
342.24364
 31
0.0
  0
LINE
  5
1DC
330
182
100
AcDbEntity
  8
0
  6
Continuous
 62
     0
370
    30
100
AcDbLine
 10
56.374858
 20
342.59082
 30
0.0
 11
57.465227
 21
342.355323
 31
0.0
  0
LINE
  5
1DD
330
182
100
AcDbEntity
  8
0
  6
Continuous
 62
     0
370
    30
100
AcDbLine
 10
45.477856
 20
342.226792
 30
0.0
 11
46.489687
 21
342.24364
 31
0.0
  0
LINE
  5
1DE
330
182
100
AcDbEntity
  8
0
  6
Continuous
 62
     0
370
    30
100
AcDbLine
 10
49.305662
 20
342.59082
 30
0.0
 11
48.21528
 21
342.355321
 31
0.0
  0
LINE
  5
1DF
330
182
100
AcDbEntity
  8
0
  6
Continuous
 62
     0
370
    30
100
AcDbLine
 10
62.436524
 20
342.227888
 30
0.0
 11
62.723759
 21
342.227968
 31
0.0
  0
LINE
  5
1E0
330
182
100
AcDbEntity
  8
0
  6
Continuous
 62
     0
370
    30
100
AcDbLine
 10
43.244017
 20
342.227888
 30
0.0
 11
42.872247
 21
342.22799
 31
0.0
  0
LINE
  5
1E1
330
182
100
AcDbEntity
  8
0
  6
Continuous
 62
     0
370
    30
100
AcDbLine
 10
56.220918
 20
341.296333
 30
0.0
 11
56.254098
 21
341.81416
 31
0.0
  0
LINE
  5
1E2
330
182
100
AcDbEntity
  8
0
  6
Continuous
 62
     0
370
    30
100
AcDbLine
 10
49.459596
 20
341.296333
 30
0.0
 11
49.426416
 21
341.81416
 31
0.0
  0
ENDBLK
  5
1E4
330
182
100
AcDbEntity
  8
0
100
AcDbBlockEnd
  0
ENDSEC
  0
SECTION
  2
ENTITIES
  0
INSERT
  5
B8
330
1F
100
AcDbEntity
  8
0
  6
Continuous
 62
     7
420
 16250871
370
     0
100
AcDbBlockReference
  2
a
 10
126.517059
 20
111.566544
 30
0.0
  0
INSERT
  5
FF
330
1F
100
AcDbEntity
  8
0
  6
Continuous
 62
     7
420
 16250871
370
     0
100
AcDbBlockReference
  2
b
 10
126.517059
 20
111.566544
 30
0.0
  0
INSERT
  5
12F
330
1F
100
AcDbEntity
  8
0
  6
Continuous
 62
     7
420
 16250871
370
     0
100
AcDbBlockReference
  2
c
 10
126.517059
 20
111.566544
 30
0.0
  0
INSERT
  5
181
330
1F
100
AcDbEntity
  8
0
  6
Continuous
 62
     7
420
 16250871
370
     0
100
AcDbBlockReference
  2
d
 10
126.517059
 20
111.566544
 30
0.0
  0
INSERT
  5
1E5
330
1F
100
AcDbEntity
  8
0
  6
Continuous
 62
     7
420
 16250871
370
     0
100
AcDbBlockReference
  2
e
 10
110.235245
 20
0.0
 30
0.0
  0
ENDSEC
  0
SECTION
  2
OBJECTS
  0
DICTIONARY
  5
C
330
0
100
AcDbDictionary
281
     1
  3
ACAD_DETAILVIEWSTYLE
350
21D
  3
ACAD_GROUP
350
D
  3
ACAD_LAYOUT
350
1A
  3
ACAD_MATERIAL
350
43
  3
ACAD_MLEADERSTYLE
350
6B
  3
ACAD_MLINESTYLE
350
17
  3
ACAD_PLOTSETTINGS
350
19
  3
ACAD_PLOTSTYLENAME
350
E
  3
ACAD_SCALELIST
350
47
  3
ACAD_SECTIONVIEWSTYLE
350
21E
  3
ACAD_TABLESTYLE
350
69
  3
ACAD_VISUALSTYLE
350
2A
  3
ACDB_RECOMPOSE_DATA
350
21A
  3
AcDbVariableDictionary
350
1E6
  0
SUN
  5
6D
330
29
100
AcDbSun
 90
        1
290
     0
 63
     7
421
 16777215
 40
1.0
291
     1
 91
  2455826
 92
 54000000
292
     0
 70
     2
 71
   256
280
     1
  0
DICTIONARY
  5
21D
102
{ACAD_REACTORS
330
C
102
}
330
C
100
AcDbDictionary
281
     1
  0
DICTIONARY
  5
D
102
{ACAD_REACTORS
330
C
102
}
330
C
100
AcDbDictionary
281
     1
  0
DICTIONARY
  5
1A
102
{ACAD_REACTORS
330
C
102
}
330
C
100
AcDbDictionary
281
     1
  3
Layout1
350
1E
  3
Layout2
350
26
  3
Model
350
22
  0
DICTIONARY
  5
43
102
{ACAD_REACTORS
330
C
102
}
330
C
100
AcDbDictionary
281
     1
  3
ByBlock
350
45
  3
ByLayer
350
44
  3
Global
350
46
  0
DICTIONARY
  5
6B
102
{ACAD_REACTORS
330
C
102
}
330
C
100
AcDbDictionary
281
     1
  3
Standard
350
6C
  0
DICTIONARY
  5
17
102
{ACAD_REACTORS
330
C
102
}
330
C
100
AcDbDictionary
281
     1
  3
Standard
350
18
  0
DICTIONARY
  5
19
102
{ACAD_REACTORS
330
C
102
}
330
C
100
AcDbDictionary
281
     1
  0
ACDBDICTIONARYWDFLT
  5
E
102
{ACAD_REACTORS
330
C
102
}
330
C
100
AcDbDictionary
281
     1
  3
Normal
350
F
100
AcDbDictionaryWithDefault
340
F
  0
DICTIONARY
  5
47
102
{ACAD_REACTORS
330
C
102
}
330
C
100
AcDbDictionary
281
     1
  3
A0
350
48
  3
A1
350
49
  3
A2
350
4A
  3
A3
350
4B
  3
A4
350
4C
  3
A5
350
4D
  3
A6
350
4E
  3
A7
350
4F
  3
A8
350
50
  3
A9
350
51
  3
B0
350
52
  3
B1
350
53
  3
B2
350
54
  3
B3
350
55
  3
B4
350
56
  3
B5
350
57
  3
B6
350
58
  3
B7
350
59
  3
B8
350
5A
  3
B9
350
5B
  3
C0
350
5C
  3
C1
350
5D
  3
C2
350
5E
  3
C3
350
5F
  3
C4
350
60
  3
C5
350
61
  3
C6
350
62
  3
C7
350
63
  3
C8
350
64
  3
C9
350
65
  3
D0
350
66
  3
D1
350
67
  3
D2
350
68
  0
DICTIONARY
  5
21E
102
{ACAD_REACTORS
330
C
102
}
330
C
100
AcDbDictionary
281
     1
  0
DICTIONARY
  5
69
102
{ACAD_REACTORS
330
C
102
}
330
C
100
AcDbDictionary
281
     1
  3
Standard
350
6A
  0
DICTIONARY
  5
2A
102
{ACAD_REACTORS
330
C
102
}
330
C
100
AcDbDictionary
281
     1
  3
2dWireframe
350
2F
  3
Basic
350
32
  3
Brighten
350
36
  3
ColorChange
350
3A
  3
Conceptual
350
34
  3
Dim
350
35
  3
EdgeColorOff
350
3D
  3
Facepattern
350
39
  3
Flat
350
2B
  3
FlatWithEdges
350
2C
  3
Gouraud
350
2D
  3
GouraudWithEdges
350
2E
  3
Hidden
350
31
  3
JitterOff
350
3B
  3
Linepattern
350
38
  3
OverhangOff
350
3C
  3
Realistic
350
33
  3
Shaded
350
42
  3
Shaded with edges
350
41
  3
Shades of Gray
350
3E
  3
Sketchy
350
3F
  3
Thicken
350
37
  3
Wireframe
350
30
  3
X-Ray
350
40
  0
XRECORD
  5
21A
102
{ACAD_REACTORS
330
C
102
}
330
C
100
AcDbXrecord
280
     1
 90
        1
330
6A
  0
DICTIONARY
  5
1E6
102
{ACAD_REACTORS
330
C
102
}
330
C
100
AcDbDictionary
281
     1
  3
CANNOSCALE
350
1E7
  3
CMLEADERSTYLE
350
21C
  3
CTABLESTYLE
350
21B
  0
LAYOUT
  5
1E
102
{ACAD_REACTORS
330
1A
102
}
330
1A
100
AcDbPlotSettings
  1

  2
none_device
  4

  6

 40
0.0
 41
0.0
 42
0.0
 43
0.0
 44
0.0
 45
0.0
 46
0.0
 47
0.0
 48
0.0
 49
0.0
140
0.0
141
0.0
142
1.0
143
1.0
 70
   688
 72
     1
 73
     0
 74
     5
  7

 75
    16
 76
     0
 77
     2
 78
   300
147
1.0
148
0.0
149
0.0
100
AcDbLayout
  1
Layout1
 70
     1
 71
     1
 10
0.0
 20
0.0
 11
420.0
 21
297.0
 12
0.0
 22
0.0
 32
0.0
 14
1.000000E+20
 24
1.000000E+20
 34
1.000000E+20
 15
-1.000000E+20
 25
-1.000000E+20
 35
-1.000000E+20
146
0.0
 13
0.0
 23
0.0
 33
0.0
 16
1.0
 26
0.0
 36
0.0
 17
0.0
 27
1.0
 37
0.0
 76
     0
330
1B
  0
LAYOUT
  5
26
102
{ACAD_REACTORS
330
1A
102
}
330
1A
100
AcDbPlotSettings
  1

  2
none_device
  4

  6

 40
0.0
 41
0.0
 42
0.0
 43
0.0
 44
0.0
 45
0.0
 46
0.0
 47
0.0
 48
0.0
 49
0.0
140
0.0
141
0.0
142
1.0
143
1.0
 70
   688
 72
     1
 73
     0
 74
     5
  7

 75
    16
 76
     0
 77
     2
 78
   300
147
1.0
148
0.0
149
0.0
100
AcDbLayout
  1
Layout2
 70
     1
 71
     2
 10
0.0
 20
0.0
 11
0.0
 21
0.0
 12
0.0
 22
0.0
 32
0.0
 14
0.0
 24
0.0
 34
0.0
 15
0.0
 25
0.0
 35
0.0
146
0.0
 13
0.0
 23
0.0
 33
0.0
 16
1.0
 26
0.0
 36
0.0
 17
0.0
 27
1.0
 37
0.0
 76
     0
330
23
  0
LAYOUT
  5
22
102
{ACAD_REACTORS
330
1A
102
}
330
1A
100
AcDbPlotSettings
  1

  2
none_device
  4
Letter_(8.50_x_11.00_Inches)
  6

 40
6.35
 41
6.35
 42
6.350005
 43
6.350005
 44
215.9
 45
279.4
 46
0.0
 47
0.0
 48
0.0
 49
0.0
140
0.0
141
0.0
142
1.0
143
1.0
 70
  1712
 72
     1
 73
     0
 74
     0
  7

 75
     0
 76
     0
 77
     2
 78
   300
147
1.0
148
0.0
149
0.0
100
AcDbLayout
  1
Model
 70
     1
 71
     0
 10
0.0
 20
0.0
 11
420.0
 21
297.0
 12
0.0
 22
0.0
 32
0.0
 14
1.000000E+20
 24
1.000000E+20
 34
1.000000E+20
 15
-1.000000E+20
 25
-1.000000E+20
 35
-1.000000E+20
146
0.0
 13
0.0
 23
0.0
 33
0.0
 16
1.0
 26
0.0
 36
0.0
 17
0.0
 27
1.0
 37
0.0
 76
     0
330
1F
331
29
  0
MATERIAL
  5
45
102
{ACAD_REACTORS
330
43
102
}
330
43
100
AcDbMaterial
  1
ByBlock
 72
     1
 94
      127
  0
MATERIAL
  5
44
102
{ACAD_REACTORS
330
43
102
}
330
43
100
AcDbMaterial
  1
ByLayer
 72
     1
 94
      127
  0
MATERIAL
  5
46
102
{ACAD_REACTORS
330
43
102
}
330
43
100
AcDbMaterial
  1
Global
 72
     1
 94
      127
  0
MLEADERSTYLE
  5
6C
102
{ACAD_REACTORS
330
6B
102
}
330
6B
100
AcDbMLeaderStyle
179
     2
170
     2
171
     1
172
     0
 90
        2
 40
0.0
 41
0.0
173
     1
 91
-1056964608
340
14
 92
       -2
290
     1
 42
2.0
291
     1
 43
8.0
  3
Standard
341
0
 44
4.0
300

342
11
174
     1
178
     6
175
     1
176
     0
 93
-1056964608
 45
4.0
292
     0
297
     0
 46
4.0
343
0
 94
-1056964608
 47
1.0
 49
1.0
140
1.0
293
     1
141
0.0
294
     1
177
     0
142
1.0
295
     0
296
     0
143
3.75
271
     0
272
     9
273
     9
  0
MLINESTYLE
  5
18
102
{ACAD_REACTORS
330
17
102
}
330
17
100
AcDbMlineStyle
  2
Standard
 70
     0
  3

 62
   256
 51
90.0
 52
90.0
 71
     2
 49
0.5
 62
   256
  6
BYLAYER
 49
-0.5
 62
   256
  6
BYLAYER
  0
ACDBPLACEHOLDER
  5
F
102
{ACAD_REACTORS
330
E
102
}
330
E
  0
SCALE
  5
48
102
{ACAD_REACTORS
330
47
102
}
330
47
100
AcDbScale
 70
     0
300
1:1
140
1.0
141
1.0
290
     1
  0
SCALE
  5
49
102
{ACAD_REACTORS
330
47
102
}
330
47
100
AcDbScale
 70
     0
300
1:2
140
1.0
141
2.0
290
     0
  0
SCALE
  5
4A
102
{ACAD_REACTORS
330
47
102
}
330
47
100
AcDbScale
 70
     0
300
1:4
140
1.0
141
4.0
290
     0
  0
SCALE
  5
4B
102
{ACAD_REACTORS
330
47
102
}
330
47
100
AcDbScale
 70
     0
300
1:5
140
1.0
141
5.0
290
     0
  0
SCALE
  5
4C
102
{ACAD_REACTORS
330
47
102
}
330
47
100
AcDbScale
 70
     0
300
1:8
140
1.0
141
8.0
290
     0
  0
SCALE
  5
4D
102
{ACAD_REACTORS
330
47
102
}
330
47
100
AcDbScale
 70
     0
300
1:10
140
1.0
141
10.0
290
     0
  0
SCALE
  5
4E
102
{ACAD_REACTORS
330
47
102
}
330
47
100
AcDbScale
 70
     0
300
1:16
140
1.0
141
16.0
290
     0
  0
SCALE
  5
4F
102
{ACAD_REACTORS
330
47
102
}
330
47
100
AcDbScale
 70
     0
300
1:20
140
1.0
141
20.0
290
     0
  0
SCALE
  5
50
102
{ACAD_REACTORS
330
47
102
}
330
47
100
AcDbScale
 70
     0
300
1:30
140
1.0
141
30.0
290
     0
  0
SCALE
  5
51
102
{ACAD_REACTORS
330
47
102
}
330
47
100
AcDbScale
 70
     0
300
1:40
140
1.0
141
40.0
290
     0
  0
SCALE
  5
52
102
{ACAD_REACTORS
330
47
102
}
330
47
100
AcDbScale
 70
     0
300
1:50
140
1.0
141
50.0
290
     0
  0
SCALE
  5
53
102
{ACAD_REACTORS
330
47
102
}
330
47
100
AcDbScale
 70
     0
300
1:100
140
1.0
141
100.0
290
     0
  0
SCALE
  5
54
102
{ACAD_REACTORS
330
47
102
}
330
47
100
AcDbScale
 70
     0
300
2:1
140
2.0
141
1.0
290
     0
  0
SCALE
  5
55
102
{ACAD_REACTORS
330
47
102
}
330
47
100
AcDbScale
 70
     0
300
4:1
140
4.0
141
1.0
290
     0
  0
SCALE
  5
56
102
{ACAD_REACTORS
330
47
102
}
330
47
100
AcDbScale
 70
     0
300
8:1
140
8.0
141
1.0
290
     0
  0
SCALE
  5
57
102
{ACAD_REACTORS
330
47
102
}
330
47
100
AcDbScale
 70
     0
300
10:1
140
10.0
141
1.0
290
     0
  0
SCALE
  5
58
102
{ACAD_REACTORS
330
47
102
}
330
47
100
AcDbScale
 70
     0
300
100:1
140
100.0
141
1.0
290
     0
  0
SCALE
  5
59
102
{ACAD_REACTORS
330
47
102
}
330
47
100
AcDbScale
 70
     0
300
1/128" = 1'-0"
140
0.007812
141
12.0
290
     0
  0
SCALE
  5
5A
102
{ACAD_REACTORS
330
47
102
}
330
47
100
AcDbScale
 70
     0
300
1/64" = 1'-0"
140
0.015625
141
12.0
290
     0
  0
SCALE
  5
5B
102
{ACAD_REACTORS
330
47
102
}
330
47
100
AcDbScale
 70
     0
300
1/32" = 1'-0"
140
0.03125
141
12.0
290
     0
  0
SCALE
  5
5C
102
{ACAD_REACTORS
330
47
102
}
330
47
100
AcDbScale
 70
     0
300
1/16" = 1'-0"
140
0.0625
141
12.0
290
     0
  0
SCALE
  5
5D
102
{ACAD_REACTORS
330
47
102
}
330
47
100
AcDbScale
 70
     0
300
3/32" = 1'-0"
140
0.09375
141
12.0
290
     0
  0
SCALE
  5
5E
102
{ACAD_REACTORS
330
47
102
}
330
47
100
AcDbScale
 70
     0
300
1/8" = 1'-0"
140
0.125
141
12.0
290
     0
  0
SCALE
  5
5F
102
{ACAD_REACTORS
330
47
102
}
330
47
100
AcDbScale
 70
     0
300
3/16" = 1'-0"
140
0.1875
141
12.0
290
     0
  0
SCALE
  5
60
102
{ACAD_REACTORS
330
47
102
}
330
47
100
AcDbScale
 70
     0
300
1/4" = 1'-0"
140
0.25
141
12.0
290
     0
  0
SCALE
  5
61
102
{ACAD_REACTORS
330
47
102
}
330
47
100
AcDbScale
 70
     0
300
3/8" = 1'-0"
140
0.375
141
12.0
290
     0
  0
SCALE
  5
62
102
{ACAD_REACTORS
330
47
102
}
330
47
100
AcDbScale
 70
     0
300
1/2" = 1'-0"
140
0.5
141
12.0
290
     0
  0
SCALE
  5
63
102
{ACAD_REACTORS
330
47
102
}
330
47
100
AcDbScale
 70
     0
300
3/4" = 1'-0"
140
0.75
141
12.0
290
     0
  0
SCALE
  5
64
102
{ACAD_REACTORS
330
47
102
}
330
47
100
AcDbScale
 70
     0
300
1" = 1'-0"
140
1.0
141
12.0
290
     0
  0
SCALE
  5
65
102
{ACAD_REACTORS
330
47
102
}
330
47
100
AcDbScale
 70
     0
300
1-1/2" = 1'-0"
140
1.5
141
12.0
290
     0
  0
SCALE
  5
66
102
{ACAD_REACTORS
330
47
102
}
330
47
100
AcDbScale
 70
     0
300
3" = 1'-0"
140
3.0
141
12.0
290
     0
  0
SCALE
  5
67
102
{ACAD_REACTORS
330
47
102
}
330
47
100
AcDbScale
 70
     0
300
6" = 1'-0"
140
6.0
141
12.0
290
     0
  0
SCALE
  5
68
102
{ACAD_REACTORS
330
47
102
}
330
47
100
AcDbScale
 70
     0
300
1'-0" = 1'-0"
140
12.0
141
12.0
290
     0
  0
TABLESTYLE
  5
6A
102
{ACAD_REACTORS
330
69
102
}
102
{ACAD_XDICTIONARY
360
218
102
}
330
69
100
AcDbTableStyle
  3
Standard
 70
     0
 71
     0
 40
0.06
 41
0.06
280
     0
281
     0
  7
Standard
140
4.5
170
     2
 62
     0
 63
   257
283
     0
 90
        4
 91
        0
  1

274
    -2
284
     1
 64
     0
275
    -2
285
     1
 65
     0
276
    -2
286
     1
 66
     0
277
    -2
287
     1
 67
     0
278
    -2
288
     1
 68
     0
279
    -2
289
     1
 69
     0
  7
Standard
140
6.0
170
     5
 62
     0
 63
   257
283
     0
 90
        4
 91
        0
  1

274
    -2
284
     1
 64
     0
275
    -2
285
     1
 65
     0
276
    -2
286
     1
 66
     0
277
    -2
287
     1
 67
     0
278
    -2
288
     1
 68
     0
279
    -2
289
     1
 69
     0
  7
Standard
140
4.5
170
     5
 62
     0
 63
   257
283
     0
 90
        4
 91
        0
  1

274
    -2
284
     1
 64
     0
275
    -2
285
     1
 65
     0
276
    -2
286
     1
 66
     0
277
    -2
287
     1
 67
     0
278
    -2
288
     1
 68
     0
279
    -2
289
     1
 69
     0
  0
VISUALSTYLE
  5
2F
102
{ACAD_REACTORS
330
2A
102
}
102
{ACAD_XDICTIONARY
360
1F0
102
}
330
2A
100
AcDbVisualStyle
  2
2dWireframe
 70
     4
177
     2
291
     0
 71
     0
176
     1
 72
     2
176
     1
 73
     0
176
     1
 90
        0
176
     1
 40
0.6
176
     1
 41
30.0
176
     1
 62
     5
 63
     7
421
 16777215
176
     1
 74
     1
176
     1
 91
        4
176
     1
 64
     7
176
     1
 65
   257
176
     1
 75
     1
176
     1
175
     1
176
     1
 42
1.0
176
     1
 92
        0
176
     1
 66
   257
176
     1
 43
1.0
176
     1
 76
     1
176
     1
 77
     6
176
     1
 78
     2
176
     1
 67
     7
176
     1
 79
     5
176
     1
170
     0
176
     1
171
     0
176
     1
290
     0
176
     1
 93
        1
176
     1
 44
0.0
176
     1
173
     0
176
     1
  0
VISUALSTYLE
  5
32
102
{ACAD_REACTORS
330
2A
102
}
102
{ACAD_XDICTIONARY
360
1F6
102
}
330
2A
100
AcDbVisualStyle
  2
Basic
 70
     7
177
     2
291
     1
 71
     1
176
     1
 72
     0
176
     1
 73
     1
176
     1
 90
        0
176
     1
 40
0.6
176
     1
 41
30.0
176
     1
 62
     5
 63
     7
421
 16777215
176
     1
 74
     0
176
     1
 91
        4
176
     1
 64
     7
176
     1
 65
   257
176
     1
 75
     1
176
     1
175
     1
176
     1
 42
1.0
176
     1
 92
        8
176
     1
 66
     7
176
     1
 43
1.0
176
     1
 76
     1
176
     1
 77
     6
176
     1
 78
     2
176
     1
 67
     7
176
     1
 79
     5
176
     1
170
     0
176
     1
171
     0
176
     1
290
     0
176
     1
 93
        1
176
     1
 44
0.0
176
     1
173
     0
176
     1
  0
VISUALSTYLE
  5
36
102
{ACAD_REACTORS
330
2A
102
}
102
{ACAD_XDICTIONARY
360
1FE
102
}
330
2A
100
AcDbVisualStyle
  2
Brighten
 70
    12
177
     2
291
     1
 71
     2
176
     1
 72
     2
176
     1
 73
     0
176
     1
 90
        0
176
     1
 40
0.6
176
     1
 41
30.0
176
     1
 62
     5
 63
     7
421
 16777215
176
     1
 74
     1
176
     1
 91
        4
176
     1
 64
     7
176
     1
 65
   257
176
     1
 75
     1
176
     1
175
     1
176
     1
 42
1.0
176
     1
 92
        8
176
     1
 66
     7
176
     1
 43
1.0
176
     1
 76
     1
176
     1
 77
     6
176
     1
 78
     2
176
     1
 67
     7
176
     1
 79
     5
176
     1
170
     0
176
     1
171
     0
176
     1
290
     0
176
     1
 93
        1
176
     1
 44
50.0
176
     1
173
     0
176
     1
  0
VISUALSTYLE
  5
3A
102
{ACAD_REACTORS
330
2A
102
}
102
{ACAD_XDICTIONARY
360
206
102
}
330
2A
100
AcDbVisualStyle
  2
ColorChange
 70
    16
177
     2
291
     1
 71
     2
176
     1
 72
     2
176
     1
 73
     3
176
     1
 90
        0
176
     1
 40
0.6
176
     1
 41
30.0
176
     1
 62
     5
 63
     8
421
  8421504
176
     1
 74
     1
176
     1
 91
        4
176
     1
 64
     7
176
     1
 65
   257
176
     1
 75
     1
176
     1
175
     1
176
     1
 42
1.0
176
     1
 92
        8
176
     1
 66
     8
424
  8421504
176
     1
 43
1.0
176
     1
 76
     1
176
     1
 77
     6
176
     1
 78
     2
176
     1
 67
     7
176
     1
 79
     5
176
     1
170
     0
176
     1
171
     0
176
     1
290
     0
176
     1
 93
        1
176
     1
 44
0.0
176
     1
173
     0
176
     1
  0
VISUALSTYLE
  5
34
102
{ACAD_REACTORS
330
2A
102
}
102
{ACAD_XDICTIONARY
360
1FA
102
}
330
2A
100
AcDbVisualStyle
  2
Conceptual
 70
     9
177
     2
291
     0
 71
     3
176
     1
 72
     2
176
     1
 73
     0
176
     1
 90
        0
176
     1
 40
0.6
176
     1
 41
30.0
176
     1
 62
     5
 63
     7
421
 16777215
176
     1
 74
     2
176
     1
 91
        2
176
     1
 64
     7
176
     1
 65
   257
176
     1
 75
     1
176
     1
175
     1
176
     1
 42
179.0
176
     1
 92
        8
176
     1
 66
     7
176
     1
 43
1.0
176
     1
 76
     1
176
     1
 77
     6
176
     1
 78
     2
176
     1
 67
     7
176
     1
 79
     3
176
     1
170
     0
176
     1
171
     0
176
     1
290
     0
176
     1
 93
        1
176
     1
 44
0.0
176
     1
173
     0
176
     1
  0
VISUALSTYLE
  5
35
102
{ACAD_REACTORS
330
2A
102
}
102
{ACAD_XDICTIONARY
360
1FC
102
}
330
2A
100
AcDbVisualStyle
  2
Dim
 70
    11
177
     2
291
     1
 71
     2
176
     1
 72
     2
176
     1
 73
     0
176
     1
 90
        0
176
     1
 40
0.6
176
     1
 41
30.0
176
     1
 62
     5
 63
     7
421
 16777215
176
     1
 74
     1
176
     1
 91
        4
176
     1
 64
     7
176
     1
 65
   257
176
     1
 75
     1
176
     1
175
     1
176
     1
 42
1.0
176
     1
 92
        8
176
     1
 66
     7
176
     1
 43
1.0
176
     1
 76
     1
176
     1
 77
     6
176
     1
 78
     2
176
     1
 67
     7
176
     1
 79
     5
176
     1
170
     0
176
     1
171
     0
176
     1
290
     0
176
     1
 93
        1
176
     1
 44
-50.0
176
     1
173
     0
176
     1
  0
VISUALSTYLE
  5
3D
102
{ACAD_REACTORS
330
2A
102
}
102
{ACAD_XDICTIONARY
360
20C
102
}
330
2A
100
AcDbVisualStyle
  2
EdgeColorOff
 70
    22
177
     2
291
     1
 71
     2
176
     0
 72
     2
176
     0
 73
     0
176
     0
 90
        0
176
     0
 40
0.6
176
     0
 41
30.0
176
     0
 62
     5
 63
     7
421
 16777215
176
     0
 74
     1
176
     0
 91
        4
176
     0
 64
     7
176
     0
 65
   257
176
     0
 75
     1
176
     0
175
     1
176
     0
 42
1.0
176
     0
 92
        8
176
     2
 66
     7
176
     0
 43
1.0
176
     0
 76
     1
176
     0
 77
     6
176
     0
 78
     2
176
     0
 67
     7
176
     0
 79
     5
176
     0
170
     0
176
     0
171
     0
176
     0
290
     0
176
     0
 93
        1
176
     0
 44
0.0
176
     0
173
     0
176
     0
  0
VISUALSTYLE
  5
39
102
{ACAD_REACTORS
330
2A
102
}
102
{ACAD_XDICTIONARY
360
204
102
}
330
2A
100
AcDbVisualStyle
  2
Facepattern
 70
    15
177
     2
291
     1
 71
     2
176
     1
 72
     2
176
     1
 73
     0
176
     1
 90
        0
176
     1
 40
0.6
176
     1
 41
30.0
176
     1
 62
     5
 63
     7
421
 16777215
176
     1
 74
     1
176
     1
 91
        4
176
     1
 64
     7
176
     1
 65
   257
176
     1
 75
     1
176
     1
175
     1
176
     1
 42
1.0
176
     1
 92
        8
176
     1
 66
     7
176
     1
 43
1.0
176
     1
 76
     1
176
     1
 77
     6
176
     1
 78
     2
176
     1
 67
     7
176
     1
 79
     5
176
     1
170
     0
176
     1
171
     0
176
     1
290
     0
176
     1
 93
        1
176
     1
 44
0.0
176
     1
173
     0
176
     1
  0
VISUALSTYLE
  5
2B
102
{ACAD_REACTORS
330
2A
102
}
102
{ACAD_XDICTIONARY
360
1E8
102
}
330
2A
100
AcDbVisualStyle
  2
Flat
 70
     0
177
     2
291
     1
 71
     2
176
     1
 72
     1
176
     1
 73
     1
176
     1
 90
        2
176
     1
 40
0.6
176
     1
 41
30.0
176
     1
 62
     5
 63
     7
421
 16777215
176
     1
 74
     0
176
     1
 91
        0
176
     1
 64
     7
176
     1
 65
   257
176
     1
 75
     1
176
     1
175
     1
176
     1
 42
1.0
176
     1
 92
        8
176
     1
 66
     7
176
     1
 43
1.0
176
     1
 76
     1
176
     1
 77
     6
176
     1
 78
     2
176
     1
 67
     7
176
     1
 79
     5
176
     1
170
     0
176
     1
171
     0
176
     1
290
     0
176
     1
 93
       13
176
     1
 44
0.0
176
     1
173
     0
176
     1
  0
VISUALSTYLE
  5
2C
102
{ACAD_REACTORS
330
2A
102
}
102
{ACAD_XDICTIONARY
360
1EA
102
}
330
2A
100
AcDbVisualStyle
  2
FlatWithEdges
 70
     1
177
     2
291
     1
 71
     2
176
     1
 72
     1
176
     1
 73
     1
176
     1
 90
        2
176
     1
 40
0.6
176
     1
 41
30.0
176
     1
 62
     5
 63
     7
421
 16777215
176
     1
 74
     1
176
     1
 91
        0
176
     1
 64
     7
176
     1
 65
   257
176
     1
 75
     1
176
     1
175
     1
176
     1
 42
1.0
176
     1
 92
        0
176
     1
 66
   257
176
     1
 43
1.0
176
     1
 76
     1
176
     1
 77
     6
176
     1
 78
     2
176
     1
 67
     7
176
     1
 79
     5
176
     1
170
     0
176
     1
171
     0
176
     1
290
     0
176
     1
 93
       13
176
     1
 44
0.0
176
     1
173
     0
176
     1
  0
VISUALSTYLE
  5
2D
102
{ACAD_REACTORS
330
2A
102
}
102
{ACAD_XDICTIONARY
360
1EC
102
}
330
2A
100
AcDbVisualStyle
  2
Gouraud
 70
     2
177
     2
291
     1
 71
     2
176
     1
 72
     2
176
     1
 73
     1
176
     1
 90
        2
176
     1
 40
0.6
176
     1
 41
30.0
176
     1
 62
     5
 63
     7
421
 16777215
176
     1
 74
     0
176
     1
 91
        0
176
     1
 64
     7
176
     1
 65
   257
176
     1
 75
     1
176
     1
175
     1
176
     1
 42
1.0
176
     1
 92
        0
176
     1
 66
     7
176
     1
 43
1.0
176
     1
 76
     1
176
     1
 77
     6
176
     1
 78
     2
176
     1
 67
     7
176
     1
 79
     5
176
     1
170
     0
176
     1
171
     0
176
     1
290
     0
176
     1
 93
       13
176
     1
 44
0.0
176
     1
173
     0
176
     1
  0
VISUALSTYLE
  5
2E
102
{ACAD_REACTORS
330
2A
102
}
102
{ACAD_XDICTIONARY
360
1EE
102
}
330
2A
100
AcDbVisualStyle
  2
GouraudWithEdges
 70
     3
177
     2
291
     1
 71
     2
176
     1
 72
     2
176
     1
 73
     1
176
     1
 90
        2
176
     1
 40
0.6
176
     1
 41
30.0
176
     1
 62
     5
 63
     7
421
 16777215
176
     1
 74
     1
176
     1
 91
        0
176
     1
 64
     7
176
     1
 65
   257
176
     1
 75
     1
176
     1
175
     1
176
     1
 42
1.0
176
     1
 92
        0
176
     1
 66
   257
176
     1
 43
1.0
176
     1
 76
     1
176
     1
 77
     6
176
     1
 78
     2
176
     1
 67
     7
176
     1
 79
     5
176
     1
170
     0
176
     1
171
     0
176
     1
290
     0
176
     1
 93
       13
176
     1
 44
0.0
176
     1
173
     0
176
     1
  0
VISUALSTYLE
  5
31
102
{ACAD_REACTORS
330
2A
102
}
102
{ACAD_XDICTIONARY
360
1F4
102
}
330
2A
100
AcDbVisualStyle
  2
Hidden
 70
     6
177
     2
291
     0
 71
     1
176
     1
 72
     2
176
     1
 73
     2
176
     1
 90
        0
176
     1
 40
0.6
176
     1
 41
30.0
176
     1
 62
     5
 63
     7
421
 16777215
176
     1
 74
     2
176
     1
 91
        2
176
     1
 64
     7
176
     1
 65
   257
176
     1
 75
     2
176
     1
175
     1
176
     1
 42
40.0
176
     1
 92
        0
176
     1
 66
   257
176
     1
 43
1.0
176
     1
 76
     1
176
     1
 77
     6
176
     1
 78
     2
176
     1
 67
     7
176
     1
 79
     3
176
     1
170
     0
176
     1
171
     0
176
     1
290
     0
176
     1
 93
        1
176
     1
 44
0.0
176
     1
173
     0
176
     1
  0
VISUALSTYLE
  5
3B
102
{ACAD_REACTORS
330
2A
102
}
102
{ACAD_XDICTIONARY
360
208
102
}
330
2A
100
AcDbVisualStyle
  2
JitterOff
 70
    20
177
     2
291
     1
 71
     2
176
     0
 72
     2
176
     0
 73
     0
176
     0
 90
        0
176
     0
 40
0.6
176
     0
 41
30.0
176
     0
 62
     5
 63
     7
421
 16777215
176
     0
 74
     1
176
     0
 91
        4
176
     0
 64
     7
176
     0
 65
   257
176
     0
 75
     1
176
     0
175
     1
176
     0
 42
1.0
176
     0
 92
       10
176
     2
 66
     7
176
     0
 43
1.0
176
     0
 76
     1
176
     0
 77
     6
176
     0
 78
     2
176
     0
 67
     7
176
     0
 79
     5
176
     0
170
     0
176
     0
171
     0
176
     0
290
     0
176
     0
 93
        1
176
     0
 44
0.0
176
     0
173
     0
176
     0
  0
VISUALSTYLE
  5
38
102
{ACAD_REACTORS
330
2A
102
}
102
{ACAD_XDICTIONARY
360
202
102
}
330
2A
100
AcDbVisualStyle
  2
Linepattern
 70
    14
177
     2
291
     1
 71
     2
176
     1
 72
     2
176
     1
 73
     0
176
     1
 90
        0
176
     1
 40
0.6
176
     1
 41
30.0
176
     1
 62
     5
 63
     7
421
 16777215
176
     1
 74
     1
176
     1
 91
        4
176
     1
 64
     7
176
     1
 65
   257
176
     1
 75
     7
176
     1
175
     7
176
     1
 42
1.0
176
     1
 92
        8
176
     1
 66
     7
176
     1
 43
1.0
176
     1
 76
     1
176
     1
 77
     6
176
     1
 78
     2
176
     1
 67
     7
176
     1
 79
     5
176
     1
170
     0
176
     1
171
     0
176
     1
290
     0
176
     1
 93
        1
176
     1
 44
0.0
176
     1
173
     0
176
     1
  0
VISUALSTYLE
  5
3C
102
{ACAD_REACTORS
330
2A
102
}
102
{ACAD_XDICTIONARY
360
20A
102
}
330
2A
100
AcDbVisualStyle
  2
OverhangOff
 70
    21
177
     2
291
     1
 71
     2
176
     0
 72
     2
176
     0
 73
     0
176
     0
 90
        0
176
     0
 40
0.6
176
     0
 41
30.0
176
     0
 62
     5
 63
     7
421
 16777215
176
     0
 74
     1
176
     0
 91
        4
176
     0
 64
     7
176
     0
 65
   257
176
     0
 75
     1
176
     0
175
     1
176
     0
 42
1.0
176
     0
 92
        9
176
     2
 66
     7
176
     0
 43
1.0
176
     0
 76
     1
176
     0
 77
     6
176
     0
 78
     2
176
     0
 67
     7
176
     0
 79
     5
176
     0
170
     0
176
     0
171
     0
176
     0
290
     0
176
     0
 93
        1
176
     0
 44
0.0
176
     0
173
     0
176
     0
  0
VISUALSTYLE
  5
33
102
{ACAD_REACTORS
330
2A
102
}
102
{ACAD_XDICTIONARY
360
1F8
102
}
330
2A
100
AcDbVisualStyle
  2
Realistic
 70
     8
177
     2
291
     0
 71
     2
176
     1
 72
     3
176
     1
 73
     0
176
     1
 90
        2
176
     1
 40
0.6
176
     1
 41
30.0
176
     1
 62
     5
 63
     7
421
 16777215
176
     1
 74
     0
176
     1
 91
        0
176
     1
 64
     7
176
     1
 65
   257
176
     1
 75
     1
176
     1
175
     1
176
     1
 42
1.0
176
     1
 92
        8
176
     1
 66
   257
176
     1
 43
1.0
176
     1
 76
     1
176
     1
 77
     6
176
     1
 78
     2
176
     1
 67
     7
176
     1
 79
     3
176
     1
170
     0
176
     1
171
     0
176
     1
290
     0
176
     1
 93
       13
176
     1
 44
0.0
176
     1
173
     0
176
     1
  0
VISUALSTYLE
  5
42
102
{ACAD_REACTORS
330
2A
102
}
102
{ACAD_XDICTIONARY
360
216
102
}
330
2A
100
AcDbVisualStyle
  2
Shaded
 70
    27
177
     2
291
     0
 71
     2
176
     1
 72
     2
176
     1
 73
     1
176
     1
 90
        2
176
     1
 40
0.6
176
     1
 41
30.0
176
     1
 62
     5
 63
     7
421
 16777215
176
     1
 74
     0
176
     1
 91
        4
176
     1
 64
     7
176
     1
 65
   257
176
     1
 75
     1
176
     1
175
     1
176
     1
 42
1.0
176
     1
 92
        8
176
     1
 66
   257
176
     1
 43
1.0
176
     1
 76
     1
176
     1
 77
     6
176
     1
 78
     2
176
     1
 67
     8
425
  7895160
176
     1
 79
     3
176
     1
170
     0
176
     1
171
     0
176
     1
290
     0
176
     1
 93
        5
176
     1
 44
0.0
176
     1
173
     0
176
     1
  0
VISUALSTYLE
  5
41
102
{ACAD_REACTORS
330
2A
102
}
102
{ACAD_XDICTIONARY
360
214
102
}
330
2A
100
AcDbVisualStyle
  2
Shaded with edges
 70
    26
177
     2
291
     0
 71
     2
176
     1
 72
     2
176
     1
 73
     1
176
     1
 90
        2
176
     1
 40
0.6
176
     1
 41
30.0
176
     1
 62
     5
 63
     7
421
 16777215
176
     1
 74
     1
176
     1
 91
       10
176
     1
 64
     7
176
     1
 65
   257
176
     1
 75
     2
176
     1
175
     1
176
     1
 42
1.0
176
     1
 92
        8
176
     1
 66
   257
176
     1
 43
1.0
176
     1
 76
     1
176
     1
 77
     6
176
     1
 78
     2
176
     1
 67
     7
176
     1
 79
     3
176
     1
170
     0
176
     1
171
     0
176
     1
290
     0
176
     1
 93
        5
176
     1
 44
0.0
176
     1
173
     0
176
     1
  0
VISUALSTYLE
  5
3E
102
{ACAD_REACTORS
330
2A
102
}
102
{ACAD_XDICTIONARY
360
20E
102
}
330
2A
100
AcDbVisualStyle
  2
Shades of Gray
 70
    23
177
     2
291
     0
 71
     2
176
     1
 72
     2
176
     1
 73
     3
176
     1
 90
        0
176
     1
 40
0.6
176
     1
 41
30.0
176
     1
 62
     5
 63
     7
421
 16777215
176
     1
 74
     2
176
     1
 91
        2
176
     1
 64
     7
176
     1
 65
     7
176
     1
 75
     1
176
     1
175
     1
176
     1
 42
40.0
176
     1
 92
        8
176
     1
 66
     7
176
     1
 43
1.0
176
     1
 76
     1
176
     1
 77
     6
176
     1
 78
     2
176
     1
 67
     7
176
     1
 79
     3
176
     1
170
     0
176
     1
171
     0
176
     1
290
     0
176
     1
 93
        1
176
     1
 44
0.0
176
     1
173
     0
176
     1
  0
VISUALSTYLE
  5
3F
102
{ACAD_REACTORS
330
2A
102
}
102
{ACAD_XDICTIONARY
360
210
102
}
330
2A
100
AcDbVisualStyle
  2
Sketchy
 70
    24
177
     2
291
     0
 71
     1
176
     1
 72
     2
176
     1
 73
     2
176
     1
 90
        0
176
     1
 40
0.6
176
     1
 41
30.0
176
     1
 62
     5
 63
     7
421
 16777215
176
     1
 74
     2
176
     1
 91
        2
176
     1
 64
     7
176
     1
 65
     7
176
     1
 75
     1
176
     1
175
     1
176
     1
 42
40.0
176
     1
 92
       11
176
     1
 66
     7
176
     1
 43
1.0
176
     1
 76
     1
176
     1
 77
     6
176
     1
 78
     2
176
     1
 67
     7
176
     1
 79
     6
176
     1
170
     0
176
     1
171
     0
176
     1
290
     0
176
     1
 93
        1
176
     1
 44
0.0
176
     1
173
     0
176
     1
  0
VISUALSTYLE
  5
37
102
{ACAD_REACTORS
330
2A
102
}
102
{ACAD_XDICTIONARY
360
200
102
}
330
2A
100
AcDbVisualStyle
  2
Thicken
 70
    13
177
     2
291
     1
 71
     2
176
     1
 72
     2
176
     1
 73
     0
176
     1
 90
        0
176
     1
 40
0.6
176
     1
 41
30.0
176
     1
 62
     5
 63
     7
421
 16777215
176
     1
 74
     1
176
     1
 91
        4
176
     1
 64
     7
176
     1
 65
   257
176
     1
 75
     1
176
     1
175
     1
176
     1
 42
1.0
176
     1
 92
       12
176
     1
 66
     7
176
     1
 43
1.0
176
     1
 76
     1
176
     1
 77
     6
176
     1
 78
     2
176
     1
 67
     7
176
     1
 79
     5
176
     1
170
     0
176
     1
171
     0
176
     1
290
     0
176
     1
 93
        1
176
     1
 44
0.0
176
     1
173
     0
176
     1
  0
VISUALSTYLE
  5
30
102
{ACAD_REACTORS
330
2A
102
}
102
{ACAD_XDICTIONARY
360
1F2
102
}
330
2A
100
AcDbVisualStyle
  2
Wireframe
 70
     5
177
     2
291
     0
 71
     0
176
     1
 72
     2
176
     1
 73
     0
176
     1
 90
        0
176
     1
 40
0.6
176
     1
 41
30.0
176
     1
 62
     5
 63
     7
421
 16777215
176
     1
 74
     1
176
     1
 91
        4
176
     1
 64
     7
176
     1
 65
   257
176
     1
 75
     1
176
     1
175
     1
176
     1
 42
1.0
176
     1
 92
        0
176
     1
 66
   257
176
     1
 43
1.0
176
     1
 76
     1
176
     1
 77
     6
176
     1
 78
     2
176
     1
 67
     7
176
     1
 79
     3
176
     1
170
     0
176
     1
171
     0
176
     1
290
     0
176
     1
 93
        1
176
     1
 44
0.0
176
     1
173
     0
176
     1
  0
VISUALSTYLE
  5
40
102
{ACAD_REACTORS
330
2A
102
}
102
{ACAD_XDICTIONARY
360
212
102
}
330
2A
100
AcDbVisualStyle
  2
X-Ray
 70
    25
177
     2
291
     0
 71
     2
176
     1
 72
     2
176
     1
 73
     1
176
     1
 90
        1
176
     1
 40
0.5
176
     1
 41
30.0
176
     1
 62
     5
 63
     7
421
 16777215
176
     1
 74
     1
176
     1
 91
        0
176
     1
 64
     7
176
     1
 65
   257
176
     1
 75
     1
176
     1
175
     1
176
     1
 42
1.0
176
     1
 92
        8
176
     1
 66
     7
176
     1
 43
1.0
176
     1
 76
     1
176
     1
 77
     6
176
     1
 78
     2
176
     1
 67
     7
176
     1
 79
     3
176
     1
170
     0
176
     1
171
     0
176
     1
290
     0
176
     1
 93
       13
176
     1
 44
0.0
176
     1
173
     0
176
     1
  0
DICTIONARYVAR
  5
1E7
102
{ACAD_REACTORS
330
1E6
102
}
330
1E6
100
DictionaryVariables
280
     0
  1
1:1
  0
DICTIONARYVAR
  5
21C
102
{ACAD_REACTORS
330
1E6
102
}
330
1E6
100
DictionaryVariables
280
     0
  1
Standard
  0
DICTIONARYVAR
  5
21B
102
{ACAD_REACTORS
330
1E6
102
}
330
1E6
100
DictionaryVariables
280
     0
  1
Standard
  0
DICTIONARY
  5
218
330
6A
100
AcDbDictionary
280
     1
281
     1
  3
ACAD_ROUNDTRIP_2008_TABLESTYLE_CELLSTYLEMAP
360
219
  0
DICTIONARY
  5
1F0
330
2F
100
AcDbDictionary
280
     1
281
     1
  3
ACAD_XREC_ROUNDTRIP
360
1F1
  0
DICTIONARY
  5
1F6
330
32
100
AcDbDictionary
280
     1
281
     1
  3
ACAD_XREC_ROUNDTRIP
360
1F7
  0
DICTIONARY
  5
1FE
330
36
100
AcDbDictionary
280
     1
281
     1
  3
ACAD_XREC_ROUNDTRIP
360
1FF
  0
DICTIONARY
  5
206
330
3A
100
AcDbDictionary
280
     1
281
     1
  3
ACAD_XREC_ROUNDTRIP
360
207
  0
DICTIONARY
  5
1FA
330
34
100
AcDbDictionary
280
     1
281
     1
  3
ACAD_XREC_ROUNDTRIP
360
1FB
  0
DICTIONARY
  5
1FC
330
35
100
AcDbDictionary
280
     1
281
     1
  3
ACAD_XREC_ROUNDTRIP
360
1FD
  0
DICTIONARY
  5
20C
330
3D
100
AcDbDictionary
280
     1
281
     1
  3
ACAD_XREC_ROUNDTRIP
360
20D
  0
DICTIONARY
  5
204
330
39
100
AcDbDictionary
280
     1
281
     1
  3
ACAD_XREC_ROUNDTRIP
360
205
  0
DICTIONARY
  5
1E8
330
2B
100
AcDbDictionary
280
     1
281
     1
  3
ACAD_XREC_ROUNDTRIP
360
1E9
  0
DICTIONARY
  5
1EA
330
2C
100
AcDbDictionary
280
     1
281
     1
  3
ACAD_XREC_ROUNDTRIP
360
1EB
  0
DICTIONARY
  5
1EC
330
2D
100
AcDbDictionary
280
     1
281
     1
  3
ACAD_XREC_ROUNDTRIP
360
1ED
  0
DICTIONARY
  5
1EE
330
2E
100
AcDbDictionary
280
     1
281
     1
  3
ACAD_XREC_ROUNDTRIP
360
1EF
  0
DICTIONARY
  5
1F4
330
31
100
AcDbDictionary
280
     1
281
     1
  3
ACAD_XREC_ROUNDTRIP
360
1F5
  0
DICTIONARY
  5
208
330
3B
100
AcDbDictionary
280
     1
281
     1
  3
ACAD_XREC_ROUNDTRIP
360
209
  0
DICTIONARY
  5
202
330
38
100
AcDbDictionary
280
     1
281
     1
  3
ACAD_XREC_ROUNDTRIP
360
203
  0
DICTIONARY
  5
20A
330
3C
100
AcDbDictionary
280
     1
281
     1
  3
ACAD_XREC_ROUNDTRIP
360
20B
  0
DICTIONARY
  5
1F8
330
33
100
AcDbDictionary
280
     1
281
     1
  3
ACAD_XREC_ROUNDTRIP
360
1F9
  0
DICTIONARY
  5
216
330
42
100
AcDbDictionary
280
     1
281
     1
  3
ACAD_XREC_ROUNDTRIP
360
217
  0
DICTIONARY
  5
214
330
41
100
AcDbDictionary
280
     1
281
     1
  3
ACAD_XREC_ROUNDTRIP
360
215
  0
DICTIONARY
  5
20E
330
3E
100
AcDbDictionary
280
     1
281
     1
  3
ACAD_XREC_ROUNDTRIP
360
20F
  0
DICTIONARY
  5
210
330
3F
100
AcDbDictionary
280
     1
281
     1
  3
ACAD_XREC_ROUNDTRIP
360
211
  0
DICTIONARY
  5
200
330
37
100
AcDbDictionary
280
     1
281
     1
  3
ACAD_XREC_ROUNDTRIP
360
201
  0
DICTIONARY
  5
1F2
330
30
100
AcDbDictionary
280
     1
281
     1
  3
ACAD_XREC_ROUNDTRIP
360
1F3
  0
DICTIONARY
  5
212
330
40
100
AcDbDictionary
280
     1
281
     1
  3
ACAD_XREC_ROUNDTRIP
360
213
  0
CELLSTYLEMAP
  5
219
102
{ACAD_REACTORS
330
218
102
}
330
218
100
AcDbCellStyleMap
 90
        3
300
CELLSTYLE
  1
TABLEFORMAT_BEGIN
 90
        5
170
     1
 91
        0
 92
    32768
 62
   257
 93
        1
300
CONTENTFORMAT
  1
CONTENTFORMAT_BEGIN
 90
        0
 91
        0
 92
        4
 93
        0
300

 40
0.0
140
1.0
 94
        5
 62
     0
340
11
144
6.0
309
CONTENTFORMAT_END
171
     1
301
MARGIN
  1
CELLMARGIN_BEGIN
 40
1.5
 40
1.5
 40
1.5
 40
1.5
 40
1.5
 40
1.5
309
CELLMARGIN_END
 94
        6
 95
        1
302
GRIDFORMAT
  1
GRIDFORMAT_BEGIN
 90
        0
 91
        1
 62
     0
 92
       -2
340
14
 93
        0
 40
0.045
309
GRIDFORMAT_END
 95
        2
302
GRIDFORMAT
  1
GRIDFORMAT_BEGIN
 90
        0
 91
        1
 62
     0
 92
       -2
340
14
 93
        0
 40
0.045
309
GRIDFORMAT_END
 95
        4
302
GRIDFORMAT
  1
GRIDFORMAT_BEGIN
 90
        0
 91
        1
 62
     0
 92
       -2
340
14
 93
        0
 40
0.045
309
GRIDFORMAT_END
 95
        8
302
GRIDFORMAT
  1
GRIDFORMAT_BEGIN
 90
        0
 91
        1
 62
     0
 92
       -2
340
14
 93
        0
 40
0.045
309
GRIDFORMAT_END
 95
       16
302
GRIDFORMAT
  1
GRIDFORMAT_BEGIN
 90
        0
 91
        1
 62
     0
 92
       -2
340
14
 93
        0
 40
0.045
309
GRIDFORMAT_END
 95
       32
302
GRIDFORMAT
  1
GRIDFORMAT_BEGIN
 90
        0
 91
        1
 62
     0
 92
       -2
340
14
 93
        0
 40
0.045
309
GRIDFORMAT_END
309
TABLEFORMAT_END
  1
CELLSTYLE_BEGIN
 90
        1
 91
        1
300
_TITLE
309
CELLSTYLE_END
300
CELLSTYLE
  1
TABLEFORMAT_BEGIN
 90
        5
170
     1
 91
        0
 92
        0
 62
   257
 93
        1
300
CONTENTFORMAT
  1
CONTENTFORMAT_BEGIN
 90
        0
 91
        0
 92
        4
 93
        0
300

 40
0.0
140
1.0
 94
        5
 62
     0
340
11
144
4.5
309
CONTENTFORMAT_END
171
     1
301
MARGIN
  1
CELLMARGIN_BEGIN
 40
1.5
 40
1.5
 40
1.5
 40
1.5
 40
1.5
 40
1.5
309
CELLMARGIN_END
 94
        6
 95
        1
302
GRIDFORMAT
  1
GRIDFORMAT_BEGIN
 90
        0
 91
        1
 62
     0
 92
       -2
340
14
 93
        0
 40
0.045
309
GRIDFORMAT_END
 95
        2
302
GRIDFORMAT
  1
GRIDFORMAT_BEGIN
 90
        0
 91
        1
 62
     0
 92
       -2
340
14
 93
        0
 40
0.045
309
GRIDFORMAT_END
 95
        4
302
GRIDFORMAT
  1
GRIDFORMAT_BEGIN
 90
        0
 91
        1
 62
     0
 92
       -2
340
14
 93
        0
 40
0.045
309
GRIDFORMAT_END
 95
        8
302
GRIDFORMAT
  1
GRIDFORMAT_BEGIN
 90
        0
 91
        1
 62
     0
 92
       -2
340
14
 93
        0
 40
0.045
309
GRIDFORMAT_END
 95
       16
302
GRIDFORMAT
  1
GRIDFORMAT_BEGIN
 90
        0
 91
        1
 62
     0
 92
       -2
340
14
 93
        0
 40
0.045
309
GRIDFORMAT_END
 95
       32
302
GRIDFORMAT
  1
GRIDFORMAT_BEGIN
 90
        0
 91
        1
 62
     0
 92
       -2
340
14
 93
        0
 40
0.045
309
GRIDFORMAT_END
309
TABLEFORMAT_END
  1
CELLSTYLE_BEGIN
 90
        2
 91
        1
300
_HEADER
309
CELLSTYLE_END
300
CELLSTYLE
  1
TABLEFORMAT_BEGIN
 90
        5
170
     1
 91
        0
 92
        0
 62
   257
 93
        1
300
CONTENTFORMAT
  1
CONTENTFORMAT_BEGIN
 90
        0
 91
        0
 92
        4
 93
        0
300

 40
0.0
140
1.0
 94
        2
 62
     0
340
11
144
4.5
309
CONTENTFORMAT_END
171
     1
301
MARGIN
  1
CELLMARGIN_BEGIN
 40
1.5
 40
1.5
 40
1.5
 40
1.5
 40
1.5
 40
1.5
309
CELLMARGIN_END
 94
        6
 95
        1
302
GRIDFORMAT
  1
GRIDFORMAT_BEGIN
 90
        0
 91
        1
 62
     0
 92
       -2
340
14
 93
        0
 40
0.045
309
GRIDFORMAT_END
 95
        2
302
GRIDFORMAT
  1
GRIDFORMAT_BEGIN
 90
        0
 91
        1
 62
     0
 92
       -2
340
14
 93
        0
 40
0.045
309
GRIDFORMAT_END
 95
        4
302
GRIDFORMAT
  1
GRIDFORMAT_BEGIN
 90
        0
 91
        1
 62
     0
 92
       -2
340
14
 93
        0
 40
0.045
309
GRIDFORMAT_END
 95
        8
302
GRIDFORMAT
  1
GRIDFORMAT_BEGIN
 90
        0
 91
        1
 62
     0
 92
       -2
340
14
 93
        0
 40
0.045
309
GRIDFORMAT_END
 95
       16
302
GRIDFORMAT
  1
GRIDFORMAT_BEGIN
 90
        0
 91
        1
 62
     0
 92
       -2
340
14
 93
        0
 40
0.045
309
GRIDFORMAT_END
 95
       32
302
GRIDFORMAT
  1
GRIDFORMAT_BEGIN
 90
        0
 91
        1
 62
     0
 92
       -2
340
14
 93
        0
 40
0.045
309
GRIDFORMAT_END
309
TABLEFORMAT_END
  1
CELLSTYLE_BEGIN
 90
        3
 91
        2
300
_DATA
309
CELLSTYLE_END
  0
XRECORD
  5
1F1
102
{ACAD_REACTORS
330
1F0
102
}
330
1F0
100
AcDbXrecord
280
     1
102
RTVSPost2010Prop28
280
     1
102
RTVSPost2010PropOp28
 70
     1
102
RTVSPost2010Prop29
280
     1
102
RTVSPost2010PropOp29
 70
     1
102
RTVSPost2010Prop30
280
     0
102
RTVSPost2010PropOp30
 70
     1
102
RTVSPost2010Prop31
280
     0
102
RTVSPost2010PropOp31
 70
     1
102
RTVSPost2010Prop32
280
     0
102
RTVSPost2010PropOp32
 70
     1
102
RTVSPost2010Prop33
280
     0
102
RTVSPost2010PropOp33
 70
     1
102
RTVSPost2010Prop34
280
     0
102
RTVSPost2010PropOp34
 70
     1
102
RTVSPost2010Prop35
280
     0
102
RTVSPost2010PropOp35
 70
     1
102
RTVSPost2010Prop36
280
     0
102
RTVSPost2010PropOp36
 70
     1
102
RTVSPost2010Prop37
 90
       50
102
RTVSPost2010PropOp37
 70
     1
102
RTVSPost2010Prop38
140
0.0
102
RTVSPost2010PropOp38
 70
     1
102
RTVSPost2010Prop39
140
1.0
102
RTVSPost2010PropOp39
 70
     1
102
RTVSPost2010Prop40
 90
        0
102
RTVSPost2010PropOp40
 70
     1
102
RTVSPost2010Prop41ColorIndex
 90
       18
102
RTVSPost2010Prop41ColorRGB
 90
        0
102
RTVSPost2010PropOp41
 70
     1
102
RTVSPost2010Prop42
 90
       50
102
RTVSPost2010PropOp42
 70
     1
102
RTVSPost2010Prop43
 90
        3
102
RTVSPost2010PropOp43
 70
     1
102
RTVSPost2010Prop44ColorIndex
 90
        5
102
RTVSPost2010Prop44ColorRGB
 90
      255
102
RTVSPost2010PropOp44
 70
     1
102
RTVSPost2010Prop45
280
     0
102
RTVSPost2010PropOp45
 70
     1
102
RTVSPost2010Prop46
 90
       50
102
RTVSPost2010PropOp46
 70
     1
102
RTVSPost2010Prop47
 90
       50
102
RTVSPost2010PropOp47
 70
     1
102
RTVSPost2010Prop48
 90
       50
102
RTVSPost2010PropOp48
 70
     1
102
RTVSPost2010Prop49
280
     0
102
RTVSPost2010PropOp49
 70
     1
102
RTVSPost2010Prop50
 90
       50
102
RTVSPost2010PropOp50
 70
     1
102
RTVSPost2010Prop51ColorIndex
 90
      256
102
RTVSPost2010Prop51ColorRGB
 90
-16777216
102
RTVSPost2010PropOp51
 70
     0
102
RTVSPost2010Prop52
140
1.0
102
RTVSPost2010PropOp52
 70
     0
102
RTVSPost2010Prop53
 90
        2
102
RTVSPost2010PropOp53
 70
     1
102
RTVSPost2010Prop54
  1
strokes_ogs.tif
102
RTVSPost2010PropOp54
 70
     1
102
RTVSPost2010Prop55
280
     0
102
RTVSPost2010PropOp55
 70
     1
102
RTVSPost2010Prop56
140
1.0
102
RTVSPost2010PropOp56
 70
     1
102
RTVSPost2010Prop57
140
1.0
102
RTVSPost2010PropOp57
 70
     1
  0
XRECORD
  5
1F7
102
{ACAD_REACTORS
330
1F6
102
}
330
1F6
100
AcDbXrecord
280
     1
102
RTVSPost2010Prop28
280
     0
102
RTVSPost2010PropOp28
 70
     1
102
RTVSPost2010Prop29
280
     1
102
RTVSPost2010PropOp29
 70
     1
102
RTVSPost2010Prop30
280
     1
102
RTVSPost2010PropOp30
 70
     1
102
RTVSPost2010Prop31
280
     0
102
RTVSPost2010PropOp31
 70
     1
102
RTVSPost2010Prop32
280
     0
102
RTVSPost2010PropOp32
 70
     1
102
RTVSPost2010Prop33
280
     0
102
RTVSPost2010PropOp33
 70
     1
102
RTVSPost2010Prop34
280
     0
102
RTVSPost2010PropOp34
 70
     1
102
RTVSPost2010Prop35
280
     0
102
RTVSPost2010PropOp35
 70
     1
102
RTVSPost2010Prop36
280
     0
102
RTVSPost2010PropOp36
 70
     1
102
RTVSPost2010Prop37
 90
       50
102
RTVSPost2010PropOp37
 70
     1
102
RTVSPost2010Prop38
140
0.0
102
RTVSPost2010PropOp38
 70
     1
102
RTVSPost2010Prop39
140
1.0
102
RTVSPost2010PropOp39
 70
     1
102
RTVSPost2010Prop40
 90
        0
102
RTVSPost2010PropOp40
 70
     1
102
RTVSPost2010Prop41ColorIndex
 90
       18
102
RTVSPost2010Prop41ColorRGB
 90
        0
102
RTVSPost2010PropOp41
 70
     1
102
RTVSPost2010Prop42
 90
       50
102
RTVSPost2010PropOp42
 70
     1
102
RTVSPost2010Prop43
 90
        3
102
RTVSPost2010PropOp43
 70
     1
102
RTVSPost2010Prop44ColorIndex
 90
        5
102
RTVSPost2010Prop44ColorRGB
 90
      255
102
RTVSPost2010PropOp44
 70
     1
102
RTVSPost2010Prop45
280
     0
102
RTVSPost2010PropOp45
 70
     1
102
RTVSPost2010Prop46
 90
       50
102
RTVSPost2010PropOp46
 70
     1
102
RTVSPost2010Prop47
 90
       50
102
RTVSPost2010PropOp47
 70
     1
102
RTVSPost2010Prop48
 90
       50
102
RTVSPost2010PropOp48
 70
     1
102
RTVSPost2010Prop49
280
     0
102
RTVSPost2010PropOp49
 70
     1
102
RTVSPost2010Prop50
 90
       50
102
RTVSPost2010PropOp50
 70
     1
102
RTVSPost2010Prop51ColorIndex
 90
      256
102
RTVSPost2010Prop51ColorRGB
 90
-16777216
102
RTVSPost2010PropOp51
 70
     0
102
RTVSPost2010Prop52
140
1.0
102
RTVSPost2010PropOp52
 70
     0
102
RTVSPost2010Prop53
 90
        2
102
RTVSPost2010PropOp53
 70
     1
102
RTVSPost2010Prop54
  1
strokes_ogs.tif
102
RTVSPost2010PropOp54
 70
     1
102
RTVSPost2010Prop55
280
     0
102
RTVSPost2010PropOp55
 70
     1
102
RTVSPost2010Prop56
140
1.0
102
RTVSPost2010PropOp56
 70
     1
102
RTVSPost2010Prop57
140
1.0
102
RTVSPost2010PropOp57
 70
     1
  0
XRECORD
  5
1FF
102
{ACAD_REACTORS
330
1FE
102
}
330
1FE
100
AcDbXrecord
280
     1
102
RTVSPost2010Prop28
280
     0
102
RTVSPost2010PropOp28
 70
     1
102
RTVSPost2010Prop29
280
     1
102
RTVSPost2010PropOp29
 70
     1
102
RTVSPost2010Prop30
280
     1
102
RTVSPost2010PropOp30
 70
     1
102
RTVSPost2010Prop31
280
     0
102
RTVSPost2010PropOp31
 70
     1
102
RTVSPost2010Prop32
280
     0
102
RTVSPost2010PropOp32
 70
     1
102
RTVSPost2010Prop33
280
     0
102
RTVSPost2010PropOp33
 70
     1
102
RTVSPost2010Prop34
280
     0
102
RTVSPost2010PropOp34
 70
     1
102
RTVSPost2010Prop35
280
     0
102
RTVSPost2010PropOp35
 70
     1
102
RTVSPost2010Prop36
280
     0
102
RTVSPost2010PropOp36
 70
     1
102
RTVSPost2010Prop37
 90
       50
102
RTVSPost2010PropOp37
 70
     1
102
RTVSPost2010Prop38
140
0.0
102
RTVSPost2010PropOp38
 70
     1
102
RTVSPost2010Prop39
140
1.0
102
RTVSPost2010PropOp39
 70
     1
102
RTVSPost2010Prop40
 90
        0
102
RTVSPost2010PropOp40
 70
     1
102
RTVSPost2010Prop41ColorIndex
 90
       18
102
RTVSPost2010Prop41ColorRGB
 90
        0
102
RTVSPost2010PropOp41
 70
     1
102
RTVSPost2010Prop42
 90
       50
102
RTVSPost2010PropOp42
 70
     1
102
RTVSPost2010Prop43
 90
        3
102
RTVSPost2010PropOp43
 70
     1
102
RTVSPost2010Prop44ColorIndex
 90
        5
102
RTVSPost2010Prop44ColorRGB
 90
      255
102
RTVSPost2010PropOp44
 70
     1
102
RTVSPost2010Prop45
280
     0
102
RTVSPost2010PropOp45
 70
     1
102
RTVSPost2010Prop46
 90
       50
102
RTVSPost2010PropOp46
 70
     1
102
RTVSPost2010Prop47
 90
       50
102
RTVSPost2010PropOp47
 70
     1
102
RTVSPost2010Prop48
 90
       50
102
RTVSPost2010PropOp48
 70
     1
102
RTVSPost2010Prop49
280
     0
102
RTVSPost2010PropOp49
 70
     1
102
RTVSPost2010Prop50
 90
       50
102
RTVSPost2010PropOp50
 70
     1
102
RTVSPost2010Prop51ColorIndex
 90
      256
102
RTVSPost2010Prop51ColorRGB
 90
-16777216
102
RTVSPost2010PropOp51
 70
     0
102
RTVSPost2010Prop52
140
1.0
102
RTVSPost2010PropOp52
 70
     0
102
RTVSPost2010Prop53
 90
        2
102
RTVSPost2010PropOp53
 70
     1
102
RTVSPost2010Prop54
  1
strokes_ogs.tif
102
RTVSPost2010PropOp54
 70
     1
102
RTVSPost2010Prop55
280
     0
102
RTVSPost2010PropOp55
 70
     1
102
RTVSPost2010Prop56
140
1.0
102
RTVSPost2010PropOp56
 70
     1
102
RTVSPost2010Prop57
140
1.0
102
RTVSPost2010PropOp57
 70
     1
  0
XRECORD
  5
207
102
{ACAD_REACTORS
330
206
102
}
330
206
100
AcDbXrecord
280
     1
102
RTVSPost2010Prop28
280
     0
102
RTVSPost2010PropOp28
 70
     1
102
RTVSPost2010Prop29
280
     1
102
RTVSPost2010PropOp29
 70
     1
102
RTVSPost2010Prop30
280
     1
102
RTVSPost2010PropOp30
 70
     1
102
RTVSPost2010Prop31
280
     0
102
RTVSPost2010PropOp31
 70
     1
102
RTVSPost2010Prop32
280
     0
102
RTVSPost2010PropOp32
 70
     1
102
RTVSPost2010Prop33
280
     0
102
RTVSPost2010PropOp33
 70
     1
102
RTVSPost2010Prop34
280
     0
102
RTVSPost2010PropOp34
 70
     1
102
RTVSPost2010Prop35
280
     0
102
RTVSPost2010PropOp35
 70
     1
102
RTVSPost2010Prop36
280
     0
102
RTVSPost2010PropOp36
 70
     1
102
RTVSPost2010Prop37
 90
       50
102
RTVSPost2010PropOp37
 70
     1
102
RTVSPost2010Prop38
140
0.0
102
RTVSPost2010PropOp38
 70
     1
102
RTVSPost2010Prop39
140
1.0
102
RTVSPost2010PropOp39
 70
     1
102
RTVSPost2010Prop40
 90
        0
102
RTVSPost2010PropOp40
 70
     1
102
RTVSPost2010Prop41ColorIndex
 90
       18
102
RTVSPost2010Prop41ColorRGB
 90
        0
102
RTVSPost2010PropOp41
 70
     1
102
RTVSPost2010Prop42
 90
       50
102
RTVSPost2010PropOp42
 70
     1
102
RTVSPost2010Prop43
 90
        3
102
RTVSPost2010PropOp43
 70
     1
102
RTVSPost2010Prop44ColorIndex
 90
        5
102
RTVSPost2010Prop44ColorRGB
 90
      255
102
RTVSPost2010PropOp44
 70
     1
102
RTVSPost2010Prop45
280
     0
102
RTVSPost2010PropOp45
 70
     1
102
RTVSPost2010Prop46
 90
       50
102
RTVSPost2010PropOp46
 70
     1
102
RTVSPost2010Prop47
 90
       50
102
RTVSPost2010PropOp47
 70
     1
102
RTVSPost2010Prop48
 90
       50
102
RTVSPost2010PropOp48
 70
     1
102
RTVSPost2010Prop49
280
     0
102
RTVSPost2010PropOp49
 70
     1
102
RTVSPost2010Prop50
 90
       50
102
RTVSPost2010PropOp50
 70
     1
102
RTVSPost2010Prop51ColorIndex
 90
      256
102
RTVSPost2010Prop51ColorRGB
 90
-16777216
102
RTVSPost2010PropOp51
 70
     0
102
RTVSPost2010Prop52
140
1.0
102
RTVSPost2010PropOp52
 70
     0
102
RTVSPost2010Prop53
 90
        2
102
RTVSPost2010PropOp53
 70
     1
102
RTVSPost2010Prop54
  1
strokes_ogs.tif
102
RTVSPost2010PropOp54
 70
     1
102
RTVSPost2010Prop55
280
     0
102
RTVSPost2010PropOp55
 70
     1
102
RTVSPost2010Prop56
140
1.0
102
RTVSPost2010PropOp56
 70
     1
102
RTVSPost2010Prop57
140
1.0
102
RTVSPost2010PropOp57
 70
     1
  0
XRECORD
  5
1FB
102
{ACAD_REACTORS
330
1FA
102
}
330
1FA
100
AcDbXrecord
280
     1
102
RTVSPost2010Prop28
280
     0
102
RTVSPost2010PropOp28
 70
     1
102
RTVSPost2010Prop29
280
     1
102
RTVSPost2010PropOp29
 70
     1
102
RTVSPost2010Prop30
280
     1
102
RTVSPost2010PropOp30
 70
     1
102
RTVSPost2010Prop31
280
     0
102
RTVSPost2010PropOp31
 70
     1
102
RTVSPost2010Prop32
280
     0
102
RTVSPost2010PropOp32
 70
     1
102
RTVSPost2010Prop33
280
     0
102
RTVSPost2010PropOp33
 70
     1
102
RTVSPost2010Prop34
280
     0
102
RTVSPost2010PropOp34
 70
     1
102
RTVSPost2010Prop35
280
     0
102
RTVSPost2010PropOp35
 70
     1
102
RTVSPost2010Prop36
280
     0
102
RTVSPost2010PropOp36
 70
     1
102
RTVSPost2010Prop37
 90
       50
102
RTVSPost2010PropOp37
 70
     1
102
RTVSPost2010Prop38
140
0.0
102
RTVSPost2010PropOp38
 70
     1
102
RTVSPost2010Prop39
140
1.0
102
RTVSPost2010PropOp39
 70
     1
102
RTVSPost2010Prop40
 90
        0
102
RTVSPost2010PropOp40
 70
     1
102
RTVSPost2010Prop41ColorIndex
 90
       18
102
RTVSPost2010Prop41ColorRGB
 90
        0
102
RTVSPost2010PropOp41
 70
     1
102
RTVSPost2010Prop42
 90
       50
102
RTVSPost2010PropOp42
 70
     1
102
RTVSPost2010Prop43
 90
        3
102
RTVSPost2010PropOp43
 70
     1
102
RTVSPost2010Prop44ColorIndex
 90
        5
102
RTVSPost2010Prop44ColorRGB
 90
      255
102
RTVSPost2010PropOp44
 70
     1
102
RTVSPost2010Prop45
280
     0
102
RTVSPost2010PropOp45
 70
     1
102
RTVSPost2010Prop46
 90
       50
102
RTVSPost2010PropOp46
 70
     1
102
RTVSPost2010Prop47
 90
       50
102
RTVSPost2010PropOp47
 70
     1
102
RTVSPost2010Prop48
 90
       50
102
RTVSPost2010PropOp48
 70
     1
102
RTVSPost2010Prop49
280
     0
102
RTVSPost2010PropOp49
 70
     1
102
RTVSPost2010Prop50
 90
       50
102
RTVSPost2010PropOp50
 70
     1
102
RTVSPost2010Prop51ColorIndex
 90
      256
102
RTVSPost2010Prop51ColorRGB
 90
-16777216
102
RTVSPost2010PropOp51
 70
     0
102
RTVSPost2010Prop52
140
1.0
102
RTVSPost2010PropOp52
 70
     0
102
RTVSPost2010Prop53
 90
        2
102
RTVSPost2010PropOp53
 70
     1
102
RTVSPost2010Prop54
  1
strokes_ogs.tif
102
RTVSPost2010PropOp54
 70
     1
102
RTVSPost2010Prop55
280
     0
102
RTVSPost2010PropOp55
 70
     1
102
RTVSPost2010Prop56
140
1.0
102
RTVSPost2010PropOp56
 70
     1
102
RTVSPost2010Prop57
140
1.0
102
RTVSPost2010PropOp57
 70
     1
  0
XRECORD
  5
1FD
102
{ACAD_REACTORS
330
1FC
102
}
330
1FC
100
AcDbXrecord
280
     1
102
RTVSPost2010Prop28
280
     0
102
RTVSPost2010PropOp28
 70
     1
102
RTVSPost2010Prop29
280
     1
102
RTVSPost2010PropOp29
 70
     1
102
RTVSPost2010Prop30
280
     1
102
RTVSPost2010PropOp30
 70
     1
102
RTVSPost2010Prop31
280
     0
102
RTVSPost2010PropOp31
 70
     1
102
RTVSPost2010Prop32
280
     0
102
RTVSPost2010PropOp32
 70
     1
102
RTVSPost2010Prop33
280
     0
102
RTVSPost2010PropOp33
 70
     1
102
RTVSPost2010Prop34
280
     0
102
RTVSPost2010PropOp34
 70
     1
102
RTVSPost2010Prop35
280
     0
102
RTVSPost2010PropOp35
 70
     1
102
RTVSPost2010Prop36
280
     0
102
RTVSPost2010PropOp36
 70
     1
102
RTVSPost2010Prop37
 90
       50
102
RTVSPost2010PropOp37
 70
     1
102
RTVSPost2010Prop38
140
0.0
102
RTVSPost2010PropOp38
 70
     1
102
RTVSPost2010Prop39
140
1.0
102
RTVSPost2010PropOp39
 70
     1
102
RTVSPost2010Prop40
 90
        0
102
RTVSPost2010PropOp40
 70
     1
102
RTVSPost2010Prop41ColorIndex
 90
       18
102
RTVSPost2010Prop41ColorRGB
 90
        0
102
RTVSPost2010PropOp41
 70
     1
102
RTVSPost2010Prop42
 90
       50
102
RTVSPost2010PropOp42
 70
     1
102
RTVSPost2010Prop43
 90
        3
102
RTVSPost2010PropOp43
 70
     1
102
RTVSPost2010Prop44ColorIndex
 90
        5
102
RTVSPost2010Prop44ColorRGB
 90
      255
102
RTVSPost2010PropOp44
 70
     1
102
RTVSPost2010Prop45
280
     0
102
RTVSPost2010PropOp45
 70
     1
102
RTVSPost2010Prop46
 90
       50
102
RTVSPost2010PropOp46
 70
     1
102
RTVSPost2010Prop47
 90
       50
102
RTVSPost2010PropOp47
 70
     1
102
RTVSPost2010Prop48
 90
       50
102
RTVSPost2010PropOp48
 70
     1
102
RTVSPost2010Prop49
280
     0
102
RTVSPost2010PropOp49
 70
     1
102
RTVSPost2010Prop50
 90
       50
102
RTVSPost2010PropOp50
 70
     1
102
RTVSPost2010Prop51ColorIndex
 90
      256
102
RTVSPost2010Prop51ColorRGB
 90
-16777216
102
RTVSPost2010PropOp51
 70
     0
102
RTVSPost2010Prop52
140
1.0
102
RTVSPost2010PropOp52
 70
     0
102
RTVSPost2010Prop53
 90
        2
102
RTVSPost2010PropOp53
 70
     1
102
RTVSPost2010Prop54
  1
strokes_ogs.tif
102
RTVSPost2010PropOp54
 70
     1
102
RTVSPost2010Prop55
280
     0
102
RTVSPost2010PropOp55
 70
     1
102
RTVSPost2010Prop56
140
1.0
102
RTVSPost2010PropOp56
 70
     1
102
RTVSPost2010Prop57
140
1.0
102
RTVSPost2010PropOp57
 70
     1
  0
XRECORD
  5
20D
102
{ACAD_REACTORS
330
20C
102
}
330
20C
100
AcDbXrecord
280
     1
102
RTVSPost2010Prop28
280
     0
102
RTVSPost2010PropOp28
 70
     0
102
RTVSPost2010Prop29
280
     1
102
RTVSPost2010PropOp29
 70
     0
102
RTVSPost2010Prop30
280
     1
102
RTVSPost2010PropOp30
 70
     0
102
RTVSPost2010Prop31
280
     0
102
RTVSPost2010PropOp31
 70
     0
102
RTVSPost2010Prop32
280
     0
102
RTVSPost2010PropOp32
 70
     0
102
RTVSPost2010Prop33
280
     0
102
RTVSPost2010PropOp33
 70
     0
102
RTVSPost2010Prop34
280
     0
102
RTVSPost2010PropOp34
 70
     0
102
RTVSPost2010Prop35
280
     0
102
RTVSPost2010PropOp35
 70
     0
102
RTVSPost2010Prop36
280
     0
102
RTVSPost2010PropOp36
 70
     0
102
RTVSPost2010Prop37
 90
       50
102
RTVSPost2010PropOp37
 70
     0
102
RTVSPost2010Prop38
140
0.0
102
RTVSPost2010PropOp38
 70
     0
102
RTVSPost2010Prop39
140
1.0
102
RTVSPost2010PropOp39
 70
     0
102
RTVSPost2010Prop40
 90
        0
102
RTVSPost2010PropOp40
 70
     0
102
RTVSPost2010Prop41ColorIndex
 90
       18
102
RTVSPost2010Prop41ColorRGB
 90
        0
102
RTVSPost2010PropOp41
 70
     0
102
RTVSPost2010Prop42
 90
       50
102
RTVSPost2010PropOp42
 70
     0
102
RTVSPost2010Prop43
 90
        3
102
RTVSPost2010PropOp43
 70
     0
102
RTVSPost2010Prop44ColorIndex
 90
        5
102
RTVSPost2010Prop44ColorRGB
 90
      255
102
RTVSPost2010PropOp44
 70
     0
102
RTVSPost2010Prop45
280
     0
102
RTVSPost2010PropOp45
 70
     0
102
RTVSPost2010Prop46
 90
       50
102
RTVSPost2010PropOp46
 70
     0
102
RTVSPost2010Prop47
 90
       50
102
RTVSPost2010PropOp47
 70
     0
102
RTVSPost2010Prop48
 90
       50
102
RTVSPost2010PropOp48
 70
     0
102
RTVSPost2010Prop49
280
     0
102
RTVSPost2010PropOp49
 70
     0
102
RTVSPost2010Prop50
 90
       50
102
RTVSPost2010PropOp50
 70
     0
102
RTVSPost2010Prop51ColorIndex
 90
      256
102
RTVSPost2010Prop51ColorRGB
 90
-16777216
102
RTVSPost2010PropOp51
 70
     0
102
RTVSPost2010Prop52
140
1.0
102
RTVSPost2010PropOp52
 70
     0
102
RTVSPost2010Prop53
 90
        2
102
RTVSPost2010PropOp53
 70
     0
102
RTVSPost2010Prop54
  1
strokes_ogs.tif
102
RTVSPost2010PropOp54
 70
     0
102
RTVSPost2010Prop55
280
     0
102
RTVSPost2010PropOp55
 70
     0
102
RTVSPost2010Prop56
140
1.0
102
RTVSPost2010PropOp56
 70
     0
102
RTVSPost2010Prop57
140
1.0
102
RTVSPost2010PropOp57
 70
     0
  0
XRECORD
  5
205
102
{ACAD_REACTORS
330
204
102
}
330
204
100
AcDbXrecord
280
     1
102
RTVSPost2010Prop28
280
     0
102
RTVSPost2010PropOp28
 70
     1
102
RTVSPost2010Prop29
280
     1
102
RTVSPost2010PropOp29
 70
     1
102
RTVSPost2010Prop30
280
     1
102
RTVSPost2010PropOp30
 70
     1
102
RTVSPost2010Prop31
280
     0
102
RTVSPost2010PropOp31
 70
     1
102
RTVSPost2010Prop32
280
     0
102
RTVSPost2010PropOp32
 70
     1
102
RTVSPost2010Prop33
280
     0
102
RTVSPost2010PropOp33
 70
     1
102
RTVSPost2010Prop34
280
     0
102
RTVSPost2010PropOp34
 70
     1
102
RTVSPost2010Prop35
280
     0
102
RTVSPost2010PropOp35
 70
     1
102
RTVSPost2010Prop36
280
     0
102
RTVSPost2010PropOp36
 70
     1
102
RTVSPost2010Prop37
 90
       50
102
RTVSPost2010PropOp37
 70
     1
102
RTVSPost2010Prop38
140
0.0
102
RTVSPost2010PropOp38
 70
     1
102
RTVSPost2010Prop39
140
1.0
102
RTVSPost2010PropOp39
 70
     1
102
RTVSPost2010Prop40
 90
        0
102
RTVSPost2010PropOp40
 70
     1
102
RTVSPost2010Prop41ColorIndex
 90
       18
102
RTVSPost2010Prop41ColorRGB
 90
        0
102
RTVSPost2010PropOp41
 70
     1
102
RTVSPost2010Prop42
 90
       50
102
RTVSPost2010PropOp42
 70
     1
102
RTVSPost2010Prop43
 90
        3
102
RTVSPost2010PropOp43
 70
     1
102
RTVSPost2010Prop44ColorIndex
 90
        5
102
RTVSPost2010Prop44ColorRGB
 90
      255
102
RTVSPost2010PropOp44
 70
     1
102
RTVSPost2010Prop45
280
     0
102
RTVSPost2010PropOp45
 70
     1
102
RTVSPost2010Prop46
 90
       50
102
RTVSPost2010PropOp46
 70
     1
102
RTVSPost2010Prop47
 90
       50
102
RTVSPost2010PropOp47
 70
     1
102
RTVSPost2010Prop48
 90
       50
102
RTVSPost2010PropOp48
 70
     1
102
RTVSPost2010Prop49
280
     0
102
RTVSPost2010PropOp49
 70
     1
102
RTVSPost2010Prop50
 90
       50
102
RTVSPost2010PropOp50
 70
     1
102
RTVSPost2010Prop51ColorIndex
 90
      256
102
RTVSPost2010Prop51ColorRGB
 90
-16777216
102
RTVSPost2010PropOp51
 70
     0
102
RTVSPost2010Prop52
140
1.0
102
RTVSPost2010PropOp52
 70
     0
102
RTVSPost2010Prop53
 90
        2
102
RTVSPost2010PropOp53
 70
     1
102
RTVSPost2010Prop54
  1
strokes_ogs.tif
102
RTVSPost2010PropOp54
 70
     1
102
RTVSPost2010Prop55
280
     0
102
RTVSPost2010PropOp55
 70
     1
102
RTVSPost2010Prop56
140
1.0
102
RTVSPost2010PropOp56
 70
     1
102
RTVSPost2010Prop57
140
1.0
102
RTVSPost2010PropOp57
 70
     1
  0
XRECORD
  5
1E9
102
{ACAD_REACTORS
330
1E8
102
}
330
1E8
100
AcDbXrecord
280
     1
102
RTVSPost2010Prop28
280
     0
102
RTVSPost2010PropOp28
 70
     1
102
RTVSPost2010Prop29
280
     1
102
RTVSPost2010PropOp29
 70
     1
102
RTVSPost2010Prop30
280
     1
102
RTVSPost2010PropOp30
 70
     1
102
RTVSPost2010Prop31
280
     0
102
RTVSPost2010PropOp31
 70
     1
102
RTVSPost2010Prop32
280
     0
102
RTVSPost2010PropOp32
 70
     1
102
RTVSPost2010Prop33
280
     0
102
RTVSPost2010PropOp33
 70
     1
102
RTVSPost2010Prop34
280
     0
102
RTVSPost2010PropOp34
 70
     1
102
RTVSPost2010Prop35
280
     0
102
RTVSPost2010PropOp35
 70
     1
102
RTVSPost2010Prop36
280
     0
102
RTVSPost2010PropOp36
 70
     1
102
RTVSPost2010Prop37
 90
       50
102
RTVSPost2010PropOp37
 70
     1
102
RTVSPost2010Prop38
140
0.0
102
RTVSPost2010PropOp38
 70
     1
102
RTVSPost2010Prop39
140
1.0
102
RTVSPost2010PropOp39
 70
     1
102
RTVSPost2010Prop40
 90
        0
102
RTVSPost2010PropOp40
 70
     1
102
RTVSPost2010Prop41ColorIndex
 90
       18
102
RTVSPost2010Prop41ColorRGB
 90
        0
102
RTVSPost2010PropOp41
 70
     1
102
RTVSPost2010Prop42
 90
       50
102
RTVSPost2010PropOp42
 70
     1
102
RTVSPost2010Prop43
 90
        3
102
RTVSPost2010PropOp43
 70
     1
102
RTVSPost2010Prop44ColorIndex
 90
        5
102
RTVSPost2010Prop44ColorRGB
 90
      255
102
RTVSPost2010PropOp44
 70
     1
102
RTVSPost2010Prop45
280
     0
102
RTVSPost2010PropOp45
 70
     1
102
RTVSPost2010Prop46
 90
       50
102
RTVSPost2010PropOp46
 70
     1
102
RTVSPost2010Prop47
 90
       50
102
RTVSPost2010PropOp47
 70
     1
102
RTVSPost2010Prop48
 90
       50
102
RTVSPost2010PropOp48
 70
     1
102
RTVSPost2010Prop49
280
     0
102
RTVSPost2010PropOp49
 70
     1
102
RTVSPost2010Prop50
 90
       50
102
RTVSPost2010PropOp50
 70
     1
102
RTVSPost2010Prop51ColorIndex
 90
      256
102
RTVSPost2010Prop51ColorRGB
 90
-16777216
102
RTVSPost2010PropOp51
 70
     0
102
RTVSPost2010Prop52
140
1.0
102
RTVSPost2010PropOp52
 70
     0
102
RTVSPost2010Prop53
 90
        2
102
RTVSPost2010PropOp53
 70
     1
102
RTVSPost2010Prop54
  1
strokes_ogs.tif
102
RTVSPost2010PropOp54
 70
     1
102
RTVSPost2010Prop55
280
     0
102
RTVSPost2010PropOp55
 70
     1
102
RTVSPost2010Prop56
140
1.0
102
RTVSPost2010PropOp56
 70
     1
102
RTVSPost2010Prop57
140
1.0
102
RTVSPost2010PropOp57
 70
     1
  0
XRECORD
  5
1EB
102
{ACAD_REACTORS
330
1EA
102
}
330
1EA
100
AcDbXrecord
280
     1
102
RTVSPost2010Prop28
280
     0
102
RTVSPost2010PropOp28
 70
     1
102
RTVSPost2010Prop29
280
     1
102
RTVSPost2010PropOp29
 70
     1
102
RTVSPost2010Prop30
280
     1
102
RTVSPost2010PropOp30
 70
     1
102
RTVSPost2010Prop31
280
     0
102
RTVSPost2010PropOp31
 70
     1
102
RTVSPost2010Prop32
280
     0
102
RTVSPost2010PropOp32
 70
     1
102
RTVSPost2010Prop33
280
     0
102
RTVSPost2010PropOp33
 70
     1
102
RTVSPost2010Prop34
280
     0
102
RTVSPost2010PropOp34
 70
     1
102
RTVSPost2010Prop35
280
     0
102
RTVSPost2010PropOp35
 70
     1
102
RTVSPost2010Prop36
280
     0
102
RTVSPost2010PropOp36
 70
     1
102
RTVSPost2010Prop37
 90
       50
102
RTVSPost2010PropOp37
 70
     1
102
RTVSPost2010Prop38
140
0.0
102
RTVSPost2010PropOp38
 70
     1
102
RTVSPost2010Prop39
140
1.0
102
RTVSPost2010PropOp39
 70
     1
102
RTVSPost2010Prop40
 90
        0
102
RTVSPost2010PropOp40
 70
     1
102
RTVSPost2010Prop41ColorIndex
 90
       18
102
RTVSPost2010Prop41ColorRGB
 90
        0
102
RTVSPost2010PropOp41
 70
     1
102
RTVSPost2010Prop42
 90
       50
102
RTVSPost2010PropOp42
 70
     1
102
RTVSPost2010Prop43
 90
        3
102
RTVSPost2010PropOp43
 70
     1
102
RTVSPost2010Prop44ColorIndex
 90
        5
102
RTVSPost2010Prop44ColorRGB
 90
      255
102
RTVSPost2010PropOp44
 70
     1
102
RTVSPost2010Prop45
280
     0
102
RTVSPost2010PropOp45
 70
     1
102
RTVSPost2010Prop46
 90
       50
102
RTVSPost2010PropOp46
 70
     1
102
RTVSPost2010Prop47
 90
       50
102
RTVSPost2010PropOp47
 70
     1
102
RTVSPost2010Prop48
 90
       50
102
RTVSPost2010PropOp48
 70
     1
102
RTVSPost2010Prop49
280
     0
102
RTVSPost2010PropOp49
 70
     1
102
RTVSPost2010Prop50
 90
       50
102
RTVSPost2010PropOp50
 70
     1
102
RTVSPost2010Prop51ColorIndex
 90
      256
102
RTVSPost2010Prop51ColorRGB
 90
-16777216
102
RTVSPost2010PropOp51
 70
     0
102
RTVSPost2010Prop52
140
1.0
102
RTVSPost2010PropOp52
 70
     0
102
RTVSPost2010Prop53
 90
        2
102
RTVSPost2010PropOp53
 70
     1
102
RTVSPost2010Prop54
  1
strokes_ogs.tif
102
RTVSPost2010PropOp54
 70
     1
102
RTVSPost2010Prop55
280
     0
102
RTVSPost2010PropOp55
 70
     1
102
RTVSPost2010Prop56
140
1.0
102
RTVSPost2010PropOp56
 70
     1
102
RTVSPost2010Prop57
140
1.0
102
RTVSPost2010PropOp57
 70
     1
  0
XRECORD
  5
1ED
102
{ACAD_REACTORS
330
1EC
102
}
330
1EC
100
AcDbXrecord
280
     1
102
RTVSPost2010Prop28
280
     0
102
RTVSPost2010PropOp28
 70
     1
102
RTVSPost2010Prop29
280
     1
102
RTVSPost2010PropOp29
 70
     1
102
RTVSPost2010Prop30
280
     1
102
RTVSPost2010PropOp30
 70
     1
102
RTVSPost2010Prop31
280
     0
102
RTVSPost2010PropOp31
 70
     1
102
RTVSPost2010Prop32
280
     0
102
RTVSPost2010PropOp32
 70
     1
102
RTVSPost2010Prop33
280
     0
102
RTVSPost2010PropOp33
 70
     1
102
RTVSPost2010Prop34
280
     0
102
RTVSPost2010PropOp34
 70
     1
102
RTVSPost2010Prop35
280
     0
102
RTVSPost2010PropOp35
 70
     1
102
RTVSPost2010Prop36
280
     0
102
RTVSPost2010PropOp36
 70
     1
102
RTVSPost2010Prop37
 90
       50
102
RTVSPost2010PropOp37
 70
     1
102
RTVSPost2010Prop38
140
0.0
102
RTVSPost2010PropOp38
 70
     1
102
RTVSPost2010Prop39
140
1.0
102
RTVSPost2010PropOp39
 70
     1
102
RTVSPost2010Prop40
 90
        0
102
RTVSPost2010PropOp40
 70
     1
102
RTVSPost2010Prop41ColorIndex
 90
       18
102
RTVSPost2010Prop41ColorRGB
 90
        0
102
RTVSPost2010PropOp41
 70
     1
102
RTVSPost2010Prop42
 90
       50
102
RTVSPost2010PropOp42
 70
     1
102
RTVSPost2010Prop43
 90
        3
102
RTVSPost2010PropOp43
 70
     1
102
RTVSPost2010Prop44ColorIndex
 90
        5
102
RTVSPost2010Prop44ColorRGB
 90
      255
102
RTVSPost2010PropOp44
 70
     1
102
RTVSPost2010Prop45
280
     0
102
RTVSPost2010PropOp45
 70
     1
102
RTVSPost2010Prop46
 90
       50
102
RTVSPost2010PropOp46
 70
     1
102
RTVSPost2010Prop47
 90
       50
102
RTVSPost2010PropOp47
 70
     1
102
RTVSPost2010Prop48
 90
       50
102
RTVSPost2010PropOp48
 70
     1
102
RTVSPost2010Prop49
280
     0
102
RTVSPost2010PropOp49
 70
     1
102
RTVSPost2010Prop50
 90
       50
102
RTVSPost2010PropOp50
 70
     1
102
RTVSPost2010Prop51ColorIndex
 90
      256
102
RTVSPost2010Prop51ColorRGB
 90
-16777216
102
RTVSPost2010PropOp51
 70
     0
102
RTVSPost2010Prop52
140
1.0
102
RTVSPost2010PropOp52
 70
     0
102
RTVSPost2010Prop53
 90
        2
102
RTVSPost2010PropOp53
 70
     1
102
RTVSPost2010Prop54
  1
strokes_ogs.tif
102
RTVSPost2010PropOp54
 70
     1
102
RTVSPost2010Prop55
280
     0
102
RTVSPost2010PropOp55
 70
     1
102
RTVSPost2010Prop56
140
1.0
102
RTVSPost2010PropOp56
 70
     1
102
RTVSPost2010Prop57
140
1.0
102
RTVSPost2010PropOp57
 70
     1
  0
XRECORD
  5
1EF
102
{ACAD_REACTORS
330
1EE
102
}
330
1EE
100
AcDbXrecord
280
     1
102
RTVSPost2010Prop28
280
     0
102
RTVSPost2010PropOp28
 70
     1
102
RTVSPost2010Prop29
280
     1
102
RTVSPost2010PropOp29
 70
     1
102
RTVSPost2010Prop30
280
     1
102
RTVSPost2010PropOp30
 70
     1
102
RTVSPost2010Prop31
280
     0
102
RTVSPost2010PropOp31
 70
     1
102
RTVSPost2010Prop32
280
     0
102
RTVSPost2010PropOp32
 70
     1
102
RTVSPost2010Prop33
280
     0
102
RTVSPost2010PropOp33
 70
     1
102
RTVSPost2010Prop34
280
     0
102
RTVSPost2010PropOp34
 70
     1
102
RTVSPost2010Prop35
280
     0
102
RTVSPost2010PropOp35
 70
     1
102
RTVSPost2010Prop36
280
     0
102
RTVSPost2010PropOp36
 70
     1
102
RTVSPost2010Prop37
 90
       50
102
RTVSPost2010PropOp37
 70
     1
102
RTVSPost2010Prop38
140
0.0
102
RTVSPost2010PropOp38
 70
     1
102
RTVSPost2010Prop39
140
1.0
102
RTVSPost2010PropOp39
 70
     1
102
RTVSPost2010Prop40
 90
        0
102
RTVSPost2010PropOp40
 70
     1
102
RTVSPost2010Prop41ColorIndex
 90
       18
102
RTVSPost2010Prop41ColorRGB
 90
        0
102
RTVSPost2010PropOp41
 70
     1
102
RTVSPost2010Prop42
 90
       50
102
RTVSPost2010PropOp42
 70
     1
102
RTVSPost2010Prop43
 90
        3
102
RTVSPost2010PropOp43
 70
     1
102
RTVSPost2010Prop44ColorIndex
 90
        5
102
RTVSPost2010Prop44ColorRGB
 90
      255
102
RTVSPost2010PropOp44
 70
     1
102
RTVSPost2010Prop45
280
     0
102
RTVSPost2010PropOp45
 70
     1
102
RTVSPost2010Prop46
 90
       50
102
RTVSPost2010PropOp46
 70
     1
102
RTVSPost2010Prop47
 90
       50
102
RTVSPost2010PropOp47
 70
     1
102
RTVSPost2010Prop48
 90
       50
102
RTVSPost2010PropOp48
 70
     1
102
RTVSPost2010Prop49
280
     0
102
RTVSPost2010PropOp49
 70
     1
102
RTVSPost2010Prop50
 90
       50
102
RTVSPost2010PropOp50
 70
     1
102
RTVSPost2010Prop51ColorIndex
 90
      256
102
RTVSPost2010Prop51ColorRGB
 90
-16777216
102
RTVSPost2010PropOp51
 70
     0
102
RTVSPost2010Prop52
140
1.0
102
RTVSPost2010PropOp52
 70
     0
102
RTVSPost2010Prop53
 90
        2
102
RTVSPost2010PropOp53
 70
     1
102
RTVSPost2010Prop54
  1
strokes_ogs.tif
102
RTVSPost2010PropOp54
 70
     1
102
RTVSPost2010Prop55
280
     0
102
RTVSPost2010PropOp55
 70
     1
102
RTVSPost2010Prop56
140
1.0
102
RTVSPost2010PropOp56
 70
     1
102
RTVSPost2010Prop57
140
1.0
102
RTVSPost2010PropOp57
 70
     1
  0
XRECORD
  5
1F5
102
{ACAD_REACTORS
330
1F4
102
}
330
1F4
100
AcDbXrecord
280
     1
102
RTVSPost2010Prop28
280
     0
102
RTVSPost2010PropOp28
 70
     1
102
RTVSPost2010Prop29
280
     1
102
RTVSPost2010PropOp29
 70
     1
102
RTVSPost2010Prop30
280
     1
102
RTVSPost2010PropOp30
 70
     1
102
RTVSPost2010Prop31
280
     0
102
RTVSPost2010PropOp31
 70
     1
102
RTVSPost2010Prop32
280
     0
102
RTVSPost2010PropOp32
 70
     1
102
RTVSPost2010Prop33
280
     0
102
RTVSPost2010PropOp33
 70
     1
102
RTVSPost2010Prop34
280
     0
102
RTVSPost2010PropOp34
 70
     1
102
RTVSPost2010Prop35
280
     0
102
RTVSPost2010PropOp35
 70
     1
102
RTVSPost2010Prop36
280
     0
102
RTVSPost2010PropOp36
 70
     1
102
RTVSPost2010Prop37
 90
       50
102
RTVSPost2010PropOp37
 70
     1
102
RTVSPost2010Prop38
140
0.0
102
RTVSPost2010PropOp38
 70
     1
102
RTVSPost2010Prop39
140
1.0
102
RTVSPost2010PropOp39
 70
     1
102
RTVSPost2010Prop40
 90
        0
102
RTVSPost2010PropOp40
 70
     1
102
RTVSPost2010Prop41ColorIndex
 90
       18
102
RTVSPost2010Prop41ColorRGB
 90
        0
102
RTVSPost2010PropOp41
 70
     1
102
RTVSPost2010Prop42
 90
       50
102
RTVSPost2010PropOp42
 70
     1
102
RTVSPost2010Prop43
 90
        3
102
RTVSPost2010PropOp43
 70
     1
102
RTVSPost2010Prop44ColorIndex
 90
        5
102
RTVSPost2010Prop44ColorRGB
 90
      255
102
RTVSPost2010PropOp44
 70
     1
102
RTVSPost2010Prop45
280
     0
102
RTVSPost2010PropOp45
 70
     1
102
RTVSPost2010Prop46
 90
       50
102
RTVSPost2010PropOp46
 70
     1
102
RTVSPost2010Prop47
 90
       50
102
RTVSPost2010PropOp47
 70
     1
102
RTVSPost2010Prop48
 90
       50
102
RTVSPost2010PropOp48
 70
     1
102
RTVSPost2010Prop49
280
     0
102
RTVSPost2010PropOp49
 70
     1
102
RTVSPost2010Prop50
 90
       50
102
RTVSPost2010PropOp50
 70
     1
102
RTVSPost2010Prop51ColorIndex
 90
      256
102
RTVSPost2010Prop51ColorRGB
 90
-16777216
102
RTVSPost2010PropOp51
 70
     0
102
RTVSPost2010Prop52
140
1.0
102
RTVSPost2010PropOp52
 70
     0
102
RTVSPost2010Prop53
 90
        2
102
RTVSPost2010PropOp53
 70
     1
102
RTVSPost2010Prop54
  1
strokes_ogs.tif
102
RTVSPost2010PropOp54
 70
     1
102
RTVSPost2010Prop55
280
     0
102
RTVSPost2010PropOp55
 70
     1
102
RTVSPost2010Prop56
140
1.0
102
RTVSPost2010PropOp56
 70
     1
102
RTVSPost2010Prop57
140
1.0
102
RTVSPost2010PropOp57
 70
     1
  0
XRECORD
  5
209
102
{ACAD_REACTORS
330
208
102
}
330
208
100
AcDbXrecord
280
     1
102
RTVSPost2010Prop28
280
     0
102
RTVSPost2010PropOp28
 70
     0
102
RTVSPost2010Prop29
280
     1
102
RTVSPost2010PropOp29
 70
     0
102
RTVSPost2010Prop30
280
     1
102
RTVSPost2010PropOp30
 70
     0
102
RTVSPost2010Prop31
280
     0
102
RTVSPost2010PropOp31
 70
     0
102
RTVSPost2010Prop32
280
     0
102
RTVSPost2010PropOp32
 70
     0
102
RTVSPost2010Prop33
280
     0
102
RTVSPost2010PropOp33
 70
     0
102
RTVSPost2010Prop34
280
     0
102
RTVSPost2010PropOp34
 70
     0
102
RTVSPost2010Prop35
280
     0
102
RTVSPost2010PropOp35
 70
     0
102
RTVSPost2010Prop36
280
     0
102
RTVSPost2010PropOp36
 70
     0
102
RTVSPost2010Prop37
 90
       50
102
RTVSPost2010PropOp37
 70
     0
102
RTVSPost2010Prop38
140
0.0
102
RTVSPost2010PropOp38
 70
     0
102
RTVSPost2010Prop39
140
1.0
102
RTVSPost2010PropOp39
 70
     0
102
RTVSPost2010Prop40
 90
        0
102
RTVSPost2010PropOp40
 70
     0
102
RTVSPost2010Prop41ColorIndex
 90
       18
102
RTVSPost2010Prop41ColorRGB
 90
        0
102
RTVSPost2010PropOp41
 70
     0
102
RTVSPost2010Prop42
 90
       50
102
RTVSPost2010PropOp42
 70
     0
102
RTVSPost2010Prop43
 90
        3
102
RTVSPost2010PropOp43
 70
     0
102
RTVSPost2010Prop44ColorIndex
 90
        5
102
RTVSPost2010Prop44ColorRGB
 90
      255
102
RTVSPost2010PropOp44
 70
     0
102
RTVSPost2010Prop45
280
     0
102
RTVSPost2010PropOp45
 70
     0
102
RTVSPost2010Prop46
 90
       50
102
RTVSPost2010PropOp46
 70
     0
102
RTVSPost2010Prop47
 90
       50
102
RTVSPost2010PropOp47
 70
     0
102
RTVSPost2010Prop48
 90
       50
102
RTVSPost2010PropOp48
 70
     0
102
RTVSPost2010Prop49
280
     0
102
RTVSPost2010PropOp49
 70
     0
102
RTVSPost2010Prop50
 90
       50
102
RTVSPost2010PropOp50
 70
     0
102
RTVSPost2010Prop51ColorIndex
 90
      256
102
RTVSPost2010Prop51ColorRGB
 90
-16777216
102
RTVSPost2010PropOp51
 70
     0
102
RTVSPost2010Prop52
140
1.0
102
RTVSPost2010PropOp52
 70
     0
102
RTVSPost2010Prop53
 90
        2
102
RTVSPost2010PropOp53
 70
     0
102
RTVSPost2010Prop54
  1
strokes_ogs.tif
102
RTVSPost2010PropOp54
 70
     0
102
RTVSPost2010Prop55
280
     0
102
RTVSPost2010PropOp55
 70
     0
102
RTVSPost2010Prop56
140
1.0
102
RTVSPost2010PropOp56
 70
     0
102
RTVSPost2010Prop57
140
1.0
102
RTVSPost2010PropOp57
 70
     0
  0
XRECORD
  5
203
102
{ACAD_REACTORS
330
202
102
}
330
202
100
AcDbXrecord
280
     1
102
RTVSPost2010Prop28
280
     0
102
RTVSPost2010PropOp28
 70
     1
102
RTVSPost2010Prop29
280
     1
102
RTVSPost2010PropOp29
 70
     1
102
RTVSPost2010Prop30
280
     1
102
RTVSPost2010PropOp30
 70
     1
102
RTVSPost2010Prop31
280
     0
102
RTVSPost2010PropOp31
 70
     1
102
RTVSPost2010Prop32
280
     0
102
RTVSPost2010PropOp32
 70
     1
102
RTVSPost2010Prop33
280
     0
102
RTVSPost2010PropOp33
 70
     1
102
RTVSPost2010Prop34
280
     0
102
RTVSPost2010PropOp34
 70
     1
102
RTVSPost2010Prop35
280
     0
102
RTVSPost2010PropOp35
 70
     1
102
RTVSPost2010Prop36
280
     0
102
RTVSPost2010PropOp36
 70
     1
102
RTVSPost2010Prop37
 90
       50
102
RTVSPost2010PropOp37
 70
     1
102
RTVSPost2010Prop38
140
0.0
102
RTVSPost2010PropOp38
 70
     1
102
RTVSPost2010Prop39
140
1.0
102
RTVSPost2010PropOp39
 70
     1
102
RTVSPost2010Prop40
 90
        0
102
RTVSPost2010PropOp40
 70
     1
102
RTVSPost2010Prop41ColorIndex
 90
       18
102
RTVSPost2010Prop41ColorRGB
 90
        0
102
RTVSPost2010PropOp41
 70
     1
102
RTVSPost2010Prop42
 90
       50
102
RTVSPost2010PropOp42
 70
     1
102
RTVSPost2010Prop43
 90
        3
102
RTVSPost2010PropOp43
 70
     1
102
RTVSPost2010Prop44ColorIndex
 90
        5
102
RTVSPost2010Prop44ColorRGB
 90
      255
102
RTVSPost2010PropOp44
 70
     1
102
RTVSPost2010Prop45
280
     0
102
RTVSPost2010PropOp45
 70
     1
102
RTVSPost2010Prop46
 90
       50
102
RTVSPost2010PropOp46
 70
     1
102
RTVSPost2010Prop47
 90
       50
102
RTVSPost2010PropOp47
 70
     1
102
RTVSPost2010Prop48
 90
       50
102
RTVSPost2010PropOp48
 70
     1
102
RTVSPost2010Prop49
280
     0
102
RTVSPost2010PropOp49
 70
     1
102
RTVSPost2010Prop50
 90
       50
102
RTVSPost2010PropOp50
 70
     1
102
RTVSPost2010Prop51ColorIndex
 90
      256
102
RTVSPost2010Prop51ColorRGB
 90
-16777216
102
RTVSPost2010PropOp51
 70
     0
102
RTVSPost2010Prop52
140
1.0
102
RTVSPost2010PropOp52
 70
     0
102
RTVSPost2010Prop53
 90
        2
102
RTVSPost2010PropOp53
 70
     1
102
RTVSPost2010Prop54
  1
strokes_ogs.tif
102
RTVSPost2010PropOp54
 70
     1
102
RTVSPost2010Prop55
280
     0
102
RTVSPost2010PropOp55
 70
     1
102
RTVSPost2010Prop56
140
1.0
102
RTVSPost2010PropOp56
 70
     1
102
RTVSPost2010Prop57
140
1.0
102
RTVSPost2010PropOp57
 70
     1
  0
XRECORD
  5
20B
102
{ACAD_REACTORS
330
20A
102
}
330
20A
100
AcDbXrecord
280
     1
102
RTVSPost2010Prop28
280
     0
102
RTVSPost2010PropOp28
 70
     0
102
RTVSPost2010Prop29
280
     1
102
RTVSPost2010PropOp29
 70
     0
102
RTVSPost2010Prop30
280
     1
102
RTVSPost2010PropOp30
 70
     0
102
RTVSPost2010Prop31
280
     0
102
RTVSPost2010PropOp31
 70
     0
102
RTVSPost2010Prop32
280
     0
102
RTVSPost2010PropOp32
 70
     0
102
RTVSPost2010Prop33
280
     0
102
RTVSPost2010PropOp33
 70
     0
102
RTVSPost2010Prop34
280
     0
102
RTVSPost2010PropOp34
 70
     0
102
RTVSPost2010Prop35
280
     0
102
RTVSPost2010PropOp35
 70
     0
102
RTVSPost2010Prop36
280
     0
102
RTVSPost2010PropOp36
 70
     0
102
RTVSPost2010Prop37
 90
       50
102
RTVSPost2010PropOp37
 70
     0
102
RTVSPost2010Prop38
140
0.0
102
RTVSPost2010PropOp38
 70
     0
102
RTVSPost2010Prop39
140
1.0
102
RTVSPost2010PropOp39
 70
     0
102
RTVSPost2010Prop40
 90
        0
102
RTVSPost2010PropOp40
 70
     0
102
RTVSPost2010Prop41ColorIndex
 90
       18
102
RTVSPost2010Prop41ColorRGB
 90
        0
102
RTVSPost2010PropOp41
 70
     0
102
RTVSPost2010Prop42
 90
       50
102
RTVSPost2010PropOp42
 70
     0
102
RTVSPost2010Prop43
 90
        3
102
RTVSPost2010PropOp43
 70
     0
102
RTVSPost2010Prop44ColorIndex
 90
        5
102
RTVSPost2010Prop44ColorRGB
 90
      255
102
RTVSPost2010PropOp44
 70
     0
102
RTVSPost2010Prop45
280
     0
102
RTVSPost2010PropOp45
 70
     0
102
RTVSPost2010Prop46
 90
       50
102
RTVSPost2010PropOp46
 70
     0
102
RTVSPost2010Prop47
 90
       50
102
RTVSPost2010PropOp47
 70
     0
102
RTVSPost2010Prop48
 90
       50
102
RTVSPost2010PropOp48
 70
     0
102
RTVSPost2010Prop49
280
     0
102
RTVSPost2010PropOp49
 70
     0
102
RTVSPost2010Prop50
 90
       50
102
RTVSPost2010PropOp50
 70
     0
102
RTVSPost2010Prop51ColorIndex
 90
      256
102
RTVSPost2010Prop51ColorRGB
 90
-16777216
102
RTVSPost2010PropOp51
 70
     0
102
RTVSPost2010Prop52
140
1.0
102
RTVSPost2010PropOp52
 70
     0
102
RTVSPost2010Prop53
 90
        2
102
RTVSPost2010PropOp53
 70
     0
102
RTVSPost2010Prop54
  1
strokes_ogs.tif
102
RTVSPost2010PropOp54
 70
     0
102
RTVSPost2010Prop55
280
     0
102
RTVSPost2010PropOp55
 70
     0
102
RTVSPost2010Prop56
140
1.0
102
RTVSPost2010PropOp56
 70
     0
102
RTVSPost2010Prop57
140
1.0
102
RTVSPost2010PropOp57
 70
     0
  0
XRECORD
  5
1F9
102
{ACAD_REACTORS
330
1F8
102
}
330
1F8
100
AcDbXrecord
280
     1
102
RTVSPost2010Prop28
280
     0
102
RTVSPost2010PropOp28
 70
     1
102
RTVSPost2010Prop29
280
     1
102
RTVSPost2010PropOp29
 70
     1
102
RTVSPost2010Prop30
280
     1
102
RTVSPost2010PropOp30
 70
     1
102
RTVSPost2010Prop31
280
     0
102
RTVSPost2010PropOp31
 70
     1
102
RTVSPost2010Prop32
280
     0
102
RTVSPost2010PropOp32
 70
     1
102
RTVSPost2010Prop33
280
     0
102
RTVSPost2010PropOp33
 70
     1
102
RTVSPost2010Prop34
280
     0
102
RTVSPost2010PropOp34
 70
     1
102
RTVSPost2010Prop35
280
     0
102
RTVSPost2010PropOp35
 70
     1
102
RTVSPost2010Prop36
280
     0
102
RTVSPost2010PropOp36
 70
     1
102
RTVSPost2010Prop37
 90
       50
102
RTVSPost2010PropOp37
 70
     1
102
RTVSPost2010Prop38
140
0.0
102
RTVSPost2010PropOp38
 70
     1
102
RTVSPost2010Prop39
140
1.0
102
RTVSPost2010PropOp39
 70
     1
102
RTVSPost2010Prop40
 90
        0
102
RTVSPost2010PropOp40
 70
     1
102
RTVSPost2010Prop41ColorIndex
 90
       18
102
RTVSPost2010Prop41ColorRGB
 90
        0
102
RTVSPost2010PropOp41
 70
     1
102
RTVSPost2010Prop42
 90
       50
102
RTVSPost2010PropOp42
 70
     1
102
RTVSPost2010Prop43
 90
        3
102
RTVSPost2010PropOp43
 70
     1
102
RTVSPost2010Prop44ColorIndex
 90
        5
102
RTVSPost2010Prop44ColorRGB
 90
      255
102
RTVSPost2010PropOp44
 70
     1
102
RTVSPost2010Prop45
280
     0
102
RTVSPost2010PropOp45
 70
     1
102
RTVSPost2010Prop46
 90
       50
102
RTVSPost2010PropOp46
 70
     1
102
RTVSPost2010Prop47
 90
       50
102
RTVSPost2010PropOp47
 70
     1
102
RTVSPost2010Prop48
 90
       50
102
RTVSPost2010PropOp48
 70
     1
102
RTVSPost2010Prop49
280
     0
102
RTVSPost2010PropOp49
 70
     1
102
RTVSPost2010Prop50
 90
       50
102
RTVSPost2010PropOp50
 70
     1
102
RTVSPost2010Prop51ColorIndex
 90
      256
102
RTVSPost2010Prop51ColorRGB
 90
-16777216
102
RTVSPost2010PropOp51
 70
     0
102
RTVSPost2010Prop52
140
1.0
102
RTVSPost2010PropOp52
 70
     0
102
RTVSPost2010Prop53
 90
        2
102
RTVSPost2010PropOp53
 70
     1
102
RTVSPost2010Prop54
  1
strokes_ogs.tif
102
RTVSPost2010PropOp54
 70
     1
102
RTVSPost2010Prop55
280
     0
102
RTVSPost2010PropOp55
 70
     1
102
RTVSPost2010Prop56
140
1.0
102
RTVSPost2010PropOp56
 70
     1
102
RTVSPost2010Prop57
140
1.0
102
RTVSPost2010PropOp57
 70
     1
  0
XRECORD
  5
217
102
{ACAD_REACTORS
330
216
102
}
330
216
100
AcDbXrecord
280
     1
102
RTVSPost2010Prop28
280
     0
102
RTVSPost2010PropOp28
 70
     1
102
RTVSPost2010Prop29
280
     1
102
RTVSPost2010PropOp29
 70
     1
102
RTVSPost2010Prop30
280
     1
102
RTVSPost2010PropOp30
 70
     1
102
RTVSPost2010Prop31
280
     0
102
RTVSPost2010PropOp31
 70
     1
102
RTVSPost2010Prop32
280
     0
102
RTVSPost2010PropOp32
 70
     1
102
RTVSPost2010Prop33
280
     0
102
RTVSPost2010PropOp33
 70
     1
102
RTVSPost2010Prop34
280
     0
102
RTVSPost2010PropOp34
 70
     1
102
RTVSPost2010Prop35
280
     0
102
RTVSPost2010PropOp35
 70
     1
102
RTVSPost2010Prop36
280
     0
102
RTVSPost2010PropOp36
 70
     1
102
RTVSPost2010Prop37
 90
       50
102
RTVSPost2010PropOp37
 70
     1
102
RTVSPost2010Prop38
140
0.0
102
RTVSPost2010PropOp38
 70
     1
102
RTVSPost2010Prop39
140
1.0
102
RTVSPost2010PropOp39
 70
     1
102
RTVSPost2010Prop40
 90
        0
102
RTVSPost2010PropOp40
 70
     1
102
RTVSPost2010Prop41ColorIndex
 90
       18
102
RTVSPost2010Prop41ColorRGB
 90
        0
102
RTVSPost2010PropOp41
 70
     1
102
RTVSPost2010Prop42
 90
       50
102
RTVSPost2010PropOp42
 70
     1
102
RTVSPost2010Prop43
 90
        3
102
RTVSPost2010PropOp43
 70
     1
102
RTVSPost2010Prop44ColorIndex
 90
        5
102
RTVSPost2010Prop44ColorRGB
 90
      255
102
RTVSPost2010PropOp44
 70
     1
102
RTVSPost2010Prop45
280
     0
102
RTVSPost2010PropOp45
 70
     1
102
RTVSPost2010Prop46
 90
       50
102
RTVSPost2010PropOp46
 70
     1
102
RTVSPost2010Prop47
 90
       50
102
RTVSPost2010PropOp47
 70
     1
102
RTVSPost2010Prop48
 90
       50
102
RTVSPost2010PropOp48
 70
     1
102
RTVSPost2010Prop49
280
     0
102
RTVSPost2010PropOp49
 70
     1
102
RTVSPost2010Prop50
 90
       50
102
RTVSPost2010PropOp50
 70
     1
102
RTVSPost2010Prop51ColorIndex
 90
      256
102
RTVSPost2010Prop51ColorRGB
 90
-16777216
102
RTVSPost2010PropOp51
 70
     0
102
RTVSPost2010Prop52
140
1.0
102
RTVSPost2010PropOp52
 70
     0
102
RTVSPost2010Prop53
 90
        2
102
RTVSPost2010PropOp53
 70
     1
102
RTVSPost2010Prop54
  1
strokes_ogs.tif
102
RTVSPost2010PropOp54
 70
     1
102
RTVSPost2010Prop55
280
     0
102
RTVSPost2010PropOp55
 70
     1
102
RTVSPost2010Prop56
140
1.0
102
RTVSPost2010PropOp56
 70
     1
102
RTVSPost2010Prop57
140
1.0
102
RTVSPost2010PropOp57
 70
     1
  0
XRECORD
  5
215
102
{ACAD_REACTORS
330
214
102
}
330
214
100
AcDbXrecord
280
     1
102
RTVSPost2010Prop28
280
     0
102
RTVSPost2010PropOp28
 70
     1
102
RTVSPost2010Prop29
280
     1
102
RTVSPost2010PropOp29
 70
     1
102
RTVSPost2010Prop30
280
     1
102
RTVSPost2010PropOp30
 70
     1
102
RTVSPost2010Prop31
280
     0
102
RTVSPost2010PropOp31
 70
     1
102
RTVSPost2010Prop32
280
     0
102
RTVSPost2010PropOp32
 70
     1
102
RTVSPost2010Prop33
280
     0
102
RTVSPost2010PropOp33
 70
     1
102
RTVSPost2010Prop34
280
     0
102
RTVSPost2010PropOp34
 70
     1
102
RTVSPost2010Prop35
280
     0
102
RTVSPost2010PropOp35
 70
     1
102
RTVSPost2010Prop36
280
     0
102
RTVSPost2010PropOp36
 70
     1
102
RTVSPost2010Prop37
 90
       50
102
RTVSPost2010PropOp37
 70
     1
102
RTVSPost2010Prop38
140
0.0
102
RTVSPost2010PropOp38
 70
     1
102
RTVSPost2010Prop39
140
1.0
102
RTVSPost2010PropOp39
 70
     1
102
RTVSPost2010Prop40
 90
        0
102
RTVSPost2010PropOp40
 70
     1
102
RTVSPost2010Prop41ColorIndex
 90
       18
102
RTVSPost2010Prop41ColorRGB
 90
        0
102
RTVSPost2010PropOp41
 70
     1
102
RTVSPost2010Prop42
 90
       50
102
RTVSPost2010PropOp42
 70
     1
102
RTVSPost2010Prop43
 90
        3
102
RTVSPost2010PropOp43
 70
     1
102
RTVSPost2010Prop44ColorIndex
 90
        5
102
RTVSPost2010Prop44ColorRGB
 90
      255
102
RTVSPost2010PropOp44
 70
     1
102
RTVSPost2010Prop45
280
     0
102
RTVSPost2010PropOp45
 70
     1
102
RTVSPost2010Prop46
 90
       50
102
RTVSPost2010PropOp46
 70
     1
102
RTVSPost2010Prop47
 90
       50
102
RTVSPost2010PropOp47
 70
     1
102
RTVSPost2010Prop48
 90
       50
102
RTVSPost2010PropOp48
 70
     1
102
RTVSPost2010Prop49
280
     0
102
RTVSPost2010PropOp49
 70
     1
102
RTVSPost2010Prop50
 90
       50
102
RTVSPost2010PropOp50
 70
     1
102
RTVSPost2010Prop51ColorIndex
 90
      256
102
RTVSPost2010Prop51ColorRGB
 90
-16777216
102
RTVSPost2010PropOp51
 70
     0
102
RTVSPost2010Prop52
140
1.0
102
RTVSPost2010PropOp52
 70
     0
102
RTVSPost2010Prop53
 90
        2
102
RTVSPost2010PropOp53
 70
     1
102
RTVSPost2010Prop54
  1
strokes_ogs.tif
102
RTVSPost2010PropOp54
 70
     1
102
RTVSPost2010Prop55
280
     0
102
RTVSPost2010PropOp55
 70
     1
102
RTVSPost2010Prop56
140
1.0
102
RTVSPost2010PropOp56
 70
     1
102
RTVSPost2010Prop57
140
1.0
102
RTVSPost2010PropOp57
 70
     1
  0
XRECORD
  5
20F
102
{ACAD_REACTORS
330
20E
102
}
330
20E
100
AcDbXrecord
280
     1
102
RTVSPost2010Prop28
280
     0
102
RTVSPost2010PropOp28
 70
     1
102
RTVSPost2010Prop29
280
     1
102
RTVSPost2010PropOp29
 70
     1
102
RTVSPost2010Prop30
280
     1
102
RTVSPost2010PropOp30
 70
     1
102
RTVSPost2010Prop31
280
     0
102
RTVSPost2010PropOp31
 70
     1
102
RTVSPost2010Prop32
280
     0
102
RTVSPost2010PropOp32
 70
     1
102
RTVSPost2010Prop33
280
     0
102
RTVSPost2010PropOp33
 70
     1
102
RTVSPost2010Prop34
280
     0
102
RTVSPost2010PropOp34
 70
     1
102
RTVSPost2010Prop35
280
     0
102
RTVSPost2010PropOp35
 70
     1
102
RTVSPost2010Prop36
280
     0
102
RTVSPost2010PropOp36
 70
     1
102
RTVSPost2010Prop37
 90
       50
102
RTVSPost2010PropOp37
 70
     1
102
RTVSPost2010Prop38
140
0.0
102
RTVSPost2010PropOp38
 70
     1
102
RTVSPost2010Prop39
140
1.0
102
RTVSPost2010PropOp39
 70
     1
102
RTVSPost2010Prop40
 90
        0
102
RTVSPost2010PropOp40
 70
     1
102
RTVSPost2010Prop41ColorIndex
 90
       18
102
RTVSPost2010Prop41ColorRGB
 90
        0
102
RTVSPost2010PropOp41
 70
     1
102
RTVSPost2010Prop42
 90
       50
102
RTVSPost2010PropOp42
 70
     1
102
RTVSPost2010Prop43
 90
        3
102
RTVSPost2010PropOp43
 70
     1
102
RTVSPost2010Prop44ColorIndex
 90
        5
102
RTVSPost2010Prop44ColorRGB
 90
      255
102
RTVSPost2010PropOp44
 70
     1
102
RTVSPost2010Prop45
280
     0
102
RTVSPost2010PropOp45
 70
     1
102
RTVSPost2010Prop46
 90
       50
102
RTVSPost2010PropOp46
 70
     1
102
RTVSPost2010Prop47
 90
       50
102
RTVSPost2010PropOp47
 70
     1
102
RTVSPost2010Prop48
 90
       50
102
RTVSPost2010PropOp48
 70
     1
102
RTVSPost2010Prop49
280
     0
102
RTVSPost2010PropOp49
 70
     1
102
RTVSPost2010Prop50
 90
       50
102
RTVSPost2010PropOp50
 70
     1
102
RTVSPost2010Prop51ColorIndex
 90
      256
102
RTVSPost2010Prop51ColorRGB
 90
-16777216
102
RTVSPost2010PropOp51
 70
     0
102
RTVSPost2010Prop52
140
1.0
102
RTVSPost2010PropOp52
 70
     0
102
RTVSPost2010Prop53
 90
        2
102
RTVSPost2010PropOp53
 70
     1
102
RTVSPost2010Prop54
  1
strokes_ogs.tif
102
RTVSPost2010PropOp54
 70
     1
102
RTVSPost2010Prop55
280
     0
102
RTVSPost2010PropOp55
 70
     1
102
RTVSPost2010Prop56
140
1.0
102
RTVSPost2010PropOp56
 70
     1
102
RTVSPost2010Prop57
140
1.0
102
RTVSPost2010PropOp57
 70
     1
  0
XRECORD
  5
211
102
{ACAD_REACTORS
330
210
102
}
330
210
100
AcDbXrecord
280
     1
102
RTVSPost2010Prop28
280
     0
102
RTVSPost2010PropOp28
 70
     1
102
RTVSPost2010Prop29
280
     1
102
RTVSPost2010PropOp29
 70
     1
102
RTVSPost2010Prop30
280
     1
102
RTVSPost2010PropOp30
 70
     1
102
RTVSPost2010Prop31
280
     0
102
RTVSPost2010PropOp31
 70
     1
102
RTVSPost2010Prop32
280
     0
102
RTVSPost2010PropOp32
 70
     1
102
RTVSPost2010Prop33
280
     0
102
RTVSPost2010PropOp33
 70
     1
102
RTVSPost2010Prop34
280
     0
102
RTVSPost2010PropOp34
 70
     1
102
RTVSPost2010Prop35
280
     0
102
RTVSPost2010PropOp35
 70
     1
102
RTVSPost2010Prop36
280
     0
102
RTVSPost2010PropOp36
 70
     1
102
RTVSPost2010Prop37
 90
       50
102
RTVSPost2010PropOp37
 70
     1
102
RTVSPost2010Prop38
140
0.0
102
RTVSPost2010PropOp38
 70
     1
102
RTVSPost2010Prop39
140
1.0
102
RTVSPost2010PropOp39
 70
     1
102
RTVSPost2010Prop40
 90
        0
102
RTVSPost2010PropOp40
 70
     1
102
RTVSPost2010Prop41ColorIndex
 90
       18
102
RTVSPost2010Prop41ColorRGB
 90
        0
102
RTVSPost2010PropOp41
 70
     1
102
RTVSPost2010Prop42
 90
       50
102
RTVSPost2010PropOp42
 70
     1
102
RTVSPost2010Prop43
 90
        3
102
RTVSPost2010PropOp43
 70
     1
102
RTVSPost2010Prop44ColorIndex
 90
        5
102
RTVSPost2010Prop44ColorRGB
 90
      255
102
RTVSPost2010PropOp44
 70
     1
102
RTVSPost2010Prop45
280
     0
102
RTVSPost2010PropOp45
 70
     1
102
RTVSPost2010Prop46
 90
       50
102
RTVSPost2010PropOp46
 70
     1
102
RTVSPost2010Prop47
 90
       50
102
RTVSPost2010PropOp47
 70
     1
102
RTVSPost2010Prop48
 90
       50
102
RTVSPost2010PropOp48
 70
     1
102
RTVSPost2010Prop49
280
     0
102
RTVSPost2010PropOp49
 70
     1
102
RTVSPost2010Prop50
 90
       50
102
RTVSPost2010PropOp50
 70
     1
102
RTVSPost2010Prop51ColorIndex
 90
      256
102
RTVSPost2010Prop51ColorRGB
 90
-16777216
102
RTVSPost2010PropOp51
 70
     0
102
RTVSPost2010Prop52
140
1.0
102
RTVSPost2010PropOp52
 70
     0
102
RTVSPost2010Prop53
 90
        2
102
RTVSPost2010PropOp53
 70
     1
102
RTVSPost2010Prop54
  1
strokes_ogs.tif
102
RTVSPost2010PropOp54
 70
     1
102
RTVSPost2010Prop55
280
     0
102
RTVSPost2010PropOp55
 70
     1
102
RTVSPost2010Prop56
140
1.0
102
RTVSPost2010PropOp56
 70
     1
102
RTVSPost2010Prop57
140
1.0
102
RTVSPost2010PropOp57
 70
     1
  0
XRECORD
  5
201
102
{ACAD_REACTORS
330
200
102
}
330
200
100
AcDbXrecord
280
     1
102
RTVSPost2010Prop28
280
     0
102
RTVSPost2010PropOp28
 70
     1
102
RTVSPost2010Prop29
280
     1
102
RTVSPost2010PropOp29
 70
     1
102
RTVSPost2010Prop30
280
     1
102
RTVSPost2010PropOp30
 70
     1
102
RTVSPost2010Prop31
280
     0
102
RTVSPost2010PropOp31
 70
     1
102
RTVSPost2010Prop32
280
     0
102
RTVSPost2010PropOp32
 70
     1
102
RTVSPost2010Prop33
280
     0
102
RTVSPost2010PropOp33
 70
     1
102
RTVSPost2010Prop34
280
     0
102
RTVSPost2010PropOp34
 70
     1
102
RTVSPost2010Prop35
280
     0
102
RTVSPost2010PropOp35
 70
     1
102
RTVSPost2010Prop36
280
     0
102
RTVSPost2010PropOp36
 70
     1
102
RTVSPost2010Prop37
 90
       50
102
RTVSPost2010PropOp37
 70
     1
102
RTVSPost2010Prop38
140
0.0
102
RTVSPost2010PropOp38
 70
     1
102
RTVSPost2010Prop39
140
1.0
102
RTVSPost2010PropOp39
 70
     1
102
RTVSPost2010Prop40
 90
        0
102
RTVSPost2010PropOp40
 70
     1
102
RTVSPost2010Prop41ColorIndex
 90
       18
102
RTVSPost2010Prop41ColorRGB
 90
        0
102
RTVSPost2010PropOp41
 70
     1
102
RTVSPost2010Prop42
 90
       50
102
RTVSPost2010PropOp42
 70
     1
102
RTVSPost2010Prop43
 90
        3
102
RTVSPost2010PropOp43
 70
     1
102
RTVSPost2010Prop44ColorIndex
 90
        5
102
RTVSPost2010Prop44ColorRGB
 90
      255
102
RTVSPost2010PropOp44
 70
     1
102
RTVSPost2010Prop45
280
     0
102
RTVSPost2010PropOp45
 70
     1
102
RTVSPost2010Prop46
 90
       50
102
RTVSPost2010PropOp46
 70
     1
102
RTVSPost2010Prop47
 90
       50
102
RTVSPost2010PropOp47
 70
     1
102
RTVSPost2010Prop48
 90
       50
102
RTVSPost2010PropOp48
 70
     1
102
RTVSPost2010Prop49
280
     0
102
RTVSPost2010PropOp49
 70
     1
102
RTVSPost2010Prop50
 90
       50
102
RTVSPost2010PropOp50
 70
     1
102
RTVSPost2010Prop51ColorIndex
 90
      256
102
RTVSPost2010Prop51ColorRGB
 90
-16777216
102
RTVSPost2010PropOp51
 70
     0
102
RTVSPost2010Prop52
140
1.0
102
RTVSPost2010PropOp52
 70
     0
102
RTVSPost2010Prop53
 90
        2
102
RTVSPost2010PropOp53
 70
     1
102
RTVSPost2010Prop54
  1
strokes_ogs.tif
102
RTVSPost2010PropOp54
 70
     1
102
RTVSPost2010Prop55
280
     0
102
RTVSPost2010PropOp55
 70
     1
102
RTVSPost2010Prop56
140
1.0
102
RTVSPost2010PropOp56
 70
     1
102
RTVSPost2010Prop57
140
1.0
102
RTVSPost2010PropOp57
 70
     1
  0
XRECORD
  5
1F3
102
{ACAD_REACTORS
330
1F2
102
}
330
1F2
100
AcDbXrecord
280
     1
102
RTVSPost2010Prop28
280
     0
102
RTVSPost2010PropOp28
 70
     1
102
RTVSPost2010Prop29
280
     1
102
RTVSPost2010PropOp29
 70
     1
102
RTVSPost2010Prop30
280
     1
102
RTVSPost2010PropOp30
 70
     1
102
RTVSPost2010Prop31
280
     0
102
RTVSPost2010PropOp31
 70
     1
102
RTVSPost2010Prop32
280
     0
102
RTVSPost2010PropOp32
 70
     1
102
RTVSPost2010Prop33
280
     0
102
RTVSPost2010PropOp33
 70
     1
102
RTVSPost2010Prop34
280
     0
102
RTVSPost2010PropOp34
 70
     1
102
RTVSPost2010Prop35
280
     0
102
RTVSPost2010PropOp35
 70
     1
102
RTVSPost2010Prop36
280
     0
102
RTVSPost2010PropOp36
 70
     1
102
RTVSPost2010Prop37
 90
       50
102
RTVSPost2010PropOp37
 70
     1
102
RTVSPost2010Prop38
140
0.0
102
RTVSPost2010PropOp38
 70
     1
102
RTVSPost2010Prop39
140
1.0
102
RTVSPost2010PropOp39
 70
     1
102
RTVSPost2010Prop40
 90
        0
102
RTVSPost2010PropOp40
 70
     1
102
RTVSPost2010Prop41ColorIndex
 90
       18
102
RTVSPost2010Prop41ColorRGB
 90
        0
102
RTVSPost2010PropOp41
 70
     1
102
RTVSPost2010Prop42
 90
       50
102
RTVSPost2010PropOp42
 70
     1
102
RTVSPost2010Prop43
 90
        3
102
RTVSPost2010PropOp43
 70
     1
102
RTVSPost2010Prop44ColorIndex
 90
        5
102
RTVSPost2010Prop44ColorRGB
 90
      255
102
RTVSPost2010PropOp44
 70
     1
102
RTVSPost2010Prop45
280
     0
102
RTVSPost2010PropOp45
 70
     1
102
RTVSPost2010Prop46
 90
       50
102
RTVSPost2010PropOp46
 70
     1
102
RTVSPost2010Prop47
 90
       50
102
RTVSPost2010PropOp47
 70
     1
102
RTVSPost2010Prop48
 90
       50
102
RTVSPost2010PropOp48
 70
     1
102
RTVSPost2010Prop49
280
     0
102
RTVSPost2010PropOp49
 70
     1
102
RTVSPost2010Prop50
 90
       50
102
RTVSPost2010PropOp50
 70
     1
102
RTVSPost2010Prop51ColorIndex
 90
      256
102
RTVSPost2010Prop51ColorRGB
 90
-16777216
102
RTVSPost2010PropOp51
 70
     0
102
RTVSPost2010Prop52
140
1.0
102
RTVSPost2010PropOp52
 70
     0
102
RTVSPost2010Prop53
 90
        2
102
RTVSPost2010PropOp53
 70
     1
102
RTVSPost2010Prop54
  1
strokes_ogs.tif
102
RTVSPost2010PropOp54
 70
     1
102
RTVSPost2010Prop55
280
     0
102
RTVSPost2010PropOp55
 70
     1
102
RTVSPost2010Prop56
140
1.0
102
RTVSPost2010PropOp56
 70
     1
102
RTVSPost2010Prop57
140
1.0
102
RTVSPost2010PropOp57
 70
     1
  0
XRECORD
  5
213
102
{ACAD_REACTORS
330
212
102
}
330
212
100
AcDbXrecord
280
     1
102
RTVSPost2010Prop28
280
     0
102
RTVSPost2010PropOp28
 70
     1
102
RTVSPost2010Prop29
280
     1
102
RTVSPost2010PropOp29
 70
     1
102
RTVSPost2010Prop30
280
     1
102
RTVSPost2010PropOp30
 70
     1
102
RTVSPost2010Prop31
280
     0
102
RTVSPost2010PropOp31
 70
     1
102
RTVSPost2010Prop32
280
     0
102
RTVSPost2010PropOp32
 70
     1
102
RTVSPost2010Prop33
280
     0
102
RTVSPost2010PropOp33
 70
     1
102
RTVSPost2010Prop34
280
     0
102
RTVSPost2010PropOp34
 70
     1
102
RTVSPost2010Prop35
280
     0
102
RTVSPost2010PropOp35
 70
     1
102
RTVSPost2010Prop36
280
     0
102
RTVSPost2010PropOp36
 70
     1
102
RTVSPost2010Prop37
 90
       50
102
RTVSPost2010PropOp37
 70
     1
102
RTVSPost2010Prop38
140
0.0
102
RTVSPost2010PropOp38
 70
     1
102
RTVSPost2010Prop39
140
1.0
102
RTVSPost2010PropOp39
 70
     1
102
RTVSPost2010Prop40
 90
        0
102
RTVSPost2010PropOp40
 70
     1
102
RTVSPost2010Prop41ColorIndex
 90
       18
102
RTVSPost2010Prop41ColorRGB
 90
        0
102
RTVSPost2010PropOp41
 70
     1
102
RTVSPost2010Prop42
 90
       50
102
RTVSPost2010PropOp42
 70
     1
102
RTVSPost2010Prop43
 90
        3
102
RTVSPost2010PropOp43
 70
     1
102
RTVSPost2010Prop44ColorIndex
 90
        5
102
RTVSPost2010Prop44ColorRGB
 90
      255
102
RTVSPost2010PropOp44
 70
     1
102
RTVSPost2010Prop45
280
     0
102
RTVSPost2010PropOp45
 70
     1
102
RTVSPost2010Prop46
 90
       50
102
RTVSPost2010PropOp46
 70
     1
102
RTVSPost2010Prop47
 90
       50
102
RTVSPost2010PropOp47
 70
     1
102
RTVSPost2010Prop48
 90
       50
102
RTVSPost2010PropOp48
 70
     1
102
RTVSPost2010Prop49
280
     0
102
RTVSPost2010PropOp49
 70
     1
102
RTVSPost2010Prop50
 90
       50
102
RTVSPost2010PropOp50
 70
     1
102
RTVSPost2010Prop51ColorIndex
 90
      256
102
RTVSPost2010Prop51ColorRGB
 90
-16777216
102
RTVSPost2010PropOp51
 70
     0
102
RTVSPost2010Prop52
140
1.0
102
RTVSPost2010PropOp52
 70
     0
102
RTVSPost2010Prop53
 90
        2
102
RTVSPost2010PropOp53
 70
     1
102
RTVSPost2010Prop54
  1
strokes_ogs.tif
102
RTVSPost2010PropOp54
 70
     1
102
RTVSPost2010Prop55
280
     0
102
RTVSPost2010PropOp55
 70
     1
102
RTVSPost2010Prop56
140
1.0
102
RTVSPost2010PropOp56
 70
     1
102
RTVSPost2010Prop57
140
1.0
102
RTVSPost2010PropOp57
 70
     1
  0
ENDSEC
  0
EOF
