  0
SECTION
  2
HEADER
  9
$ACADVER
  1
AC1024
  9
$ACADMAINTVER
 70
     6
  9
$DWGCODEPAGE
  3
ANSI_1252
  9
$INSBASE
 10
0.0
 20
0.0
 30
0.0
  9
$EXTMIN
 10
1.000000E+20
 20
1.000000E+20
 30
1.000000E+20
  9
$EXTMAX
 10
-1.000000E+20
 20
-1.000000E+20
 30
-1.000000E+20
  9
$LIMMIN
 10
0.0
 20
0.0
  9
$LIMMAX
 10
420.0
 20
297.0
  9
$ORTHOMODE
 70
     0
  9
$REGENMODE
 70
     1
  9
$FILLMODE
 70
     1
  9
$QTEXTMODE
 70
     0
  9
$MIRRTEXT
 70
     1
  9
$LTSCALE
 40
1.0
  9
$ATTMODE
 70
     1
  9
$TEXTSIZE
 40
2.5
  9
$TRACEWID
 40
1.0
  9
$TEXTSTYLE
  7
Standard
  9
$CLAYER
  8
0
  9
$CELTYPE
  6
ByLayer
  9
$CECOLOR
 62
   256
  9
$CELTSCALE
 40
1.0
  9
$DISPSILH
 70
     0
  9
$DIMSCALE
 40
1.0
  9
$DIMASZ
 40
2.5
  9
$DIMEXO
 40
0.625
  9
$DIMDLI
 40
3.75
  9
$DIMRND
 40
0.0
  9
$DIMDLE
 40
0.0
  9
$DIMEXE
 40
1.25
  9
$DIMTP
 40
0.0
  9
$DIMTM
 40
0.0
  9
$DIMTXT
 40
2.5
  9
$DIMCEN
 40
2.5
  9
$DIMTSZ
 40
0.0
  9
$DIMTOL
 70
     0
  9
$DIMLIM
 70
     0
  9
$DIMTIH
 70
     0
  9
$DIMTOH
 70
     0
  9
$DIMSE1
 70
     0
  9
$DIMSE2
 70
     0
  9
$DIMTAD
 70
     1
  9
$DIMZIN
 70
     8
  9
$DIMBLK
  1

  9
$DIMASO
 70
     1
  9
$DIMSHO
 70
     1
  9
$DIMPOST
  1

  9
$DIMAPOST
  1

  9
$DIMALT
 70
     0
  9
$DIMALTD
 70
     3
  9
$DIMALTF
 40
0.03937
  9
$DIMLFAC
 40
1.0
  9
$DIMTOFL
 70
     1
  9
$DIMTVP
 40
0.0
  9
$DIMTIX
 70
     0
  9
$DIMSOXD
 70
     0
  9
$DIMSAH
 70
     0
  9
$DIMBLK1
  1

  9
$DIMBLK2
  1

  9
$DIMSTYLE
  2
ISO-25
  9
$DIMCLRD
 70
     0
  9
$DIMCLRE
 70
     0
  9
$DIMCLRT
 70
     0
  9
$DIMTFAC
 40
1.0
  9
$DIMGAP
 40
0.625
  9
$DIMJUST
 70
     0
  9
$DIMSD1
 70
     0
  9
$DIMSD2
 70
     0
  9
$DIMTOLJ
 70
     0
  9
$DIMTZIN
 70
     8
  9
$DIMALTZ
 70
     0
  9
$DIMALTTZ
 70
     0
  9
$DIMUPT
 70
     0
  9
$DIMDEC
 70
     2
  9
$DIMTDEC
 70
     2
  9
$DIMALTU
 70
     2
  9
$DIMALTTD
 70
     3
  9
$DIMTXSTY
  7
Standard
  9
$DIMAUNIT
 70
     0
  9
$DIMADEC
 70
     0
  9
$DIMALTRND
 40
0.0
  9
$DIMAZIN
 70
     0
  9
$DIMDSEP
 70
    44
  9
$DIMATFIT
 70
     3
  9
$DIMFRAC
 70
     0
  9
$DIMLDRBLK
  1

  9
$DIMLUNIT
 70
     2
  9
$DIMLWD
 70
    -2
  9
$DIMLWE
 70
    -2
  9
$DIMTMOVE
 70
     0
  9
$DIMFXL
 40
1.0
  9
$DIMFXLON
 70
     0
  9
$DIMJOGANG
 40
0.785398
  9
$DIMTFILL
 70
     0
  9
$DIMTFILLCLR
 70
     0
  9
$DIMARCSYM
 70
     0
  9
$DIMLTYPE
  6

  9
$DIMLTEX1
  6

  9
$DIMLTEX2
  6

  9
$DIMTXTDIRECTION
 70
     0
  9
$LUNITS
 70
     2
  9
$LUPREC
 70
     4
  9
$SKETCHINC
 40
1.0
  9
$FILLETRAD
 40
10.0
  9
$AUNITS
 70
     0
  9
$AUPREC
 70
     0
  9
$MENU
  1
.
  9
$ELEVATION
 40
0.0
  9
$PELEVATION
 40
0.0
  9
$THICKNESS
 40
0.0
  9
$LIMCHECK
 70
     0
  9
$CHAMFERA
 40
0.0
  9
$CHAMFERB
 40
0.0
  9
$CHAMFERC
 40
0.0
  9
$CHAMFERD
 40
0.0
  9
$SKPOLY
 70
     0
  9
$TDCREATE
 40
2458676.357896759
  9
$TDUCREATE
 40
2458676.274563426
  9
$TDUPDATE
 40
2458676.357904988
  9
$TDUUPDATE
 40
2458676.274571655
  9
$TDINDWG
 40
0.0000000116
  9
$TDUSRTIMER
 40
0.0000000116
  9
$USRTIMER
 70
     1
  9
$ANGBASE
 50
0.0
  9
$ANGDIR
 70
     0
  9
$PDMODE
 70
     0
  9
$PDSIZE
 40
0.0
  9
$PLINEWID
 40
0.0
  9
$SPLFRAME
 70
     0
  9
$SPLINETYPE
 70
     6
  9
$SPLINESEGS
 70
     8
  9
$HANDSEED
  5
2E0
  9
$SURFTAB1
 70
     6
  9
$SURFTAB2
 70
     6
  9
$SURFTYPE
 70
     6
  9
$SURFU
 70
     6
  9
$SURFV
 70
     6
  9
$UCSBASE
  2

  9
$UCSNAME
  2

  9
$UCSORG
 10
0.0
 20
0.0
 30
0.0
  9
$UCSXDIR
 10
1.0
 20
0.0
 30
0.0
  9
$UCSYDIR
 10
0.0
 20
1.0
 30
0.0
  9
$UCSORTHOREF
  2

  9
$UCSORTHOVIEW
 70
     0
  9
$UCSORGTOP
 10
0.0
 20
0.0
 30
0.0
  9
$UCSORGBOTTOM
 10
0.0
 20
0.0
 30
0.0
  9
$UCSORGLEFT
 10
0.0
 20
0.0
 30
0.0
  9
$UCSORGRIGHT
 10
0.0
 20
0.0
 30
0.0
  9
$UCSORGFRONT
 10
0.0
 20
0.0
 30
0.0
  9
$UCSORGBACK
 10
0.0
 20
0.0
 30
0.0
  9
$PUCSBASE
  2

  9
$PUCSNAME
  2

  9
$PUCSORG
 10
0.0
 20
0.0
 30
0.0
  9
$PUCSXDIR
 10
1.0
 20
0.0
 30
0.0
  9
$PUCSYDIR
 10
0.0
 20
1.0
 30
0.0
  9
$PUCSORTHOREF
  2

  9
$PUCSORTHOVIEW
 70
     0
  9
$PUCSORGTOP
 10
0.0
 20
0.0
 30
0.0
  9
$PUCSORGBOTTOM
 10
0.0
 20
0.0
 30
0.0
  9
$PUCSORGLEFT
 10
0.0
 20
0.0
 30
0.0
  9
$PUCSORGRIGHT
 10
0.0
 20
0.0
 30
0.0
  9
$PUCSORGFRONT
 10
0.0
 20
0.0
 30
0.0
  9
$PUCSORGBACK
 10
0.0
 20
0.0
 30
0.0
  9
$USERI1
 70
     0
  9
$USERI2
 70
     0
  9
$USERI3
 70
     0
  9
$USERI4
 70
     0
  9
$USERI5
 70
     0
  9
$USERR1
 40
0.0
  9
$USERR2
 40
0.0
  9
$USERR3
 40
0.0
  9
$USERR4
 40
0.0
  9
$USERR5
 40
0.0
  9
$WORLDVIEW
 70
     1
  9
$SHADEDGE
 70
     3
  9
$SHADEDIF
 70
    70
  9
$TILEMODE
 70
     1
  9
$MAXACTVP
 70
    64
  9
$PINSBASE
 10
0.0
 20
0.0
 30
0.0
  9
$PLIMCHECK
 70
     0
  9
$PEXTMIN
 10
1.000000E+20
 20
1.000000E+20
 30
1.000000E+20
  9
$PEXTMAX
 10
-1.000000E+20
 20
-1.000000E+20
 30
-1.000000E+20
  9
$PLIMMIN
 10
0.0
 20
0.0
  9
$PLIMMAX
 10
420.0
 20
297.0
  9
$UNITMODE
 70
     0
  9
$VISRETAIN
 70
     1
  9
$PLINEGEN
 70
     0
  9
$PSLTSCALE
 70
     1
  9
$TREEDEPTH
 70
  3020
  9
$CMLSTYLE
  2
Standard
  9
$CMLJUST
 70
     0
  9
$CMLSCALE
 40
20.0
  9
$PROXYGRAPHICS
 70
     1
  9
$MEASUREMENT
 70
     1
  9
$CELWEIGHT
370
    -1
  9
$ENDCAPS
280
     0
  9
$JOINSTYLE
280
     0
  9
$LWDISPLAY
290
     0
  9
$INSUNITS
 70
     4
  9
$HYPERLINKBASE
  1

  9
$STYLESHEET
  1

  9
$XEDIT
290
     1
  9
$CEPSNTYPE
380
     0
  9
$PSTYLEMODE
290
     1
  9
$FINGERPRINTGUID
  2
{4DE4DC6C-2A60-4667-B080-30F9D20323A0}
  9
$VERSIONGUID
  2
{FAEB1C32-E019-11D5-929B-00C0DF256EC4}
  9
$EXTNAMES
290
     1
  9
$PSVPSCALE
 40
0.0
  9
$OLESTARTUP
290
     0
  9
$SORTENTS
280
   127
  9
$INDEXCTL
280
     0
  9
$HIDETEXT
280
     1
  9
$XCLIPFRAME
280
     2
  9
$HALOGAP
280
     0
  9
$OBSCOLOR
 70
   257
  9
$OBSLTYPE
280
     0
  9
$INTERSECTIONDISPLAY
280
     0
  9
$INTERSECTIONCOLOR
 70
   257
  9
$DIMASSOC
280
     2
  9
$PROJECTNAME
  1

  9
$CAMERADISPLAY
290
     0
  9
$LENSLENGTH
 40
50.0
  9
$CAMERAHEIGHT
 40
0.0
  9
$STEPSPERSEC
 40
2.0
  9
$STEPSIZE
 40
6.0
  9
$3DDWFPREC
 40
2.0
  9
$PSOLWIDTH
 40
5.0
  9
$PSOLHEIGHT
 40
80.0
  9
$LOFTANG1
 40
1.570796
  9
$LOFTANG2
 40
1.570796
  9
$LOFTMAG1
 40
0.0
  9
$LOFTMAG2
 40
0.0
  9
$LOFTPARAM
 70
     7
  9
$LOFTNORMALS
280
     1
  9
$LATITUDE
 40
37.795
  9
$LONGITUDE
 40
-122.394
  9
$NORTHDIRECTION
 40
0.0
  9
$TIMEZONE
 70
 -8000
  9
$LIGHTGLYPHDISPLAY
280
     1
  9
$TILEMODELIGHTSYNCH
280
     1
  9
$CMATERIAL
347
44
  9
$SOLIDHIST
280
     0
  9
$SHOWHIST
280
     1
  9
$DWFFRAME
280
     2
  9
$DGNFRAME
280
     2
  9
$REALWORLDSCALE
290
     1
  9
$INTERFERECOLOR
 62
   256
  9
$CSHADOW
280
     0
  9
$SHADOWPLANELOCATION
 40
0.0
  0
ENDSEC
  0
SECTION
  2
CLASSES
  0
CLASS
  1
ACDBDICTIONARYWDFLT
  2
AcDbDictionaryWithDefault
  3
ObjectDBX Classes
 90
        0
 91
        4
280
     0
281
     0
  0
CLASS
  1
VISUALSTYLE
  2
AcDbVisualStyle
  3
ObjectDBX Classes
 90
     4095
 91
        4
280
     0
281
     0
  0
CLASS
  1
MATERIAL
  2
AcDbMaterial
  3
ObjectDBX Classes
 90
     1153
 91
        4
280
     0
281
     0
  0
CLASS
  1
SCALE
  2
AcDbScale
  3
ObjectDBX Classes
 90
     1153
 91
        4
280
     0
281
     0
  0
CLASS
  1
TABLESTYLE
  2
AcDbTableStyle
  3
ObjectDBX Classes
 90
     4095
 91
        4
280
     0
281
     0
  0
CLASS
  1
MLEADERSTYLE
  2
AcDbMLeaderStyle
  3
ACDB_MLEADERSTYLE_CLASS
 90
     4095
 91
        4
280
     0
281
     0
  0
CLASS
  1
SUN
  2
AcDbSun
  3
SCENEOE
 90
     1153
 91
        4
280
     0
281
     0
  0
CLASS
  1
DICTIONARYVAR
  2
AcDbDictionaryVar
  3
ObjectDBX Classes
 90
        0
 91
        4
280
     0
281
     0
  0
CLASS
  1
CELLSTYLEMAP
  2
AcDbCellStyleMap
  3
ObjectDBX Classes
 90
     1152
 91
        4
280
     0
281
     0
  0
ENDSEC
  0
SECTION
  2
TABLES
  0
TABLE
  2
VPORT
  5
8
330
0
100
AcDbSymbolTable
 70
     1
  0
VPORT
  5
29
330
8
100
AcDbSymbolTableRecord
100
AcDbViewportTableRecord
  2
*Active
 70
     0
 10
0.0
 20
0.0
 11
1.0
 21
1.0
 12
344.186916
 22
148.5
 13
0.0
 23
0.0
 14
10.0
 24
10.0
 15
10.0
 25
10.0
 16
0.0
 26
0.0
 36
1.0
 17
0.0
 27
0.0
 37
0.0
 40
297.0
 41
1.972973
 42
50.0
 43
0.0
 44
0.0
 50
0.0
 51
0.0
 71
     0
 72
   100
 73
     1
 74
     3
 75
     0
 76
     0
 77
     0
 78
     0
281
     0
 65
     1
110
0.0
120
0.0
130
0.0
111
1.0
121
0.0
131
0.0
112
0.0
122
1.0
132
0.0
 79
     0
146
0.0
348
2F
 60
     3
 61
     5
292
     1
282
     1
141
0.0
142
0.0
 63
   250
361
6D
  0
ENDTAB
  0
TABLE
  2
LTYPE
  5
5
330
0
100
AcDbSymbolTable
 70
     1
  0
LTYPE
  5
14
330
5
100
AcDbSymbolTableRecord
100
AcDbLinetypeTableRecord
  2
ByBlock
 70
     0
  3

 72
    65
 73
     0
 40
0.0
  0
LTYPE
  5
15
330
5
100
AcDbSymbolTableRecord
100
AcDbLinetypeTableRecord
  2
ByLayer
 70
     0
  3

 72
    65
 73
     0
 40
0.0
  0
LTYPE
  5
16
330
5
100
AcDbSymbolTableRecord
100
AcDbLinetypeTableRecord
  2
Continuous
 70
     0
  3
Solid line
 72
    65
 73
     0
 40
0.0
  0
ENDTAB
  0
TABLE
  2
LAYER
  5
2
330
0
100
AcDbSymbolTable
 70
     1
  0
LAYER
  5
10
330
2
100
AcDbSymbolTableRecord
100
AcDbLayerTableRecord
  2
0
 70
     0
 62
   106
  6
Continuous
370
     0
390
F
347
46
  0
ENDTAB
  0
TABLE
  2
STYLE
  5
3
330
0
100
AcDbSymbolTable
 70
     4
  0
STYLE
  5
11
330
3
100
AcDbSymbolTableRecord
100
AcDbTextStyleTableRecord
  2
Standard
 70
     0
 40
0.0
 41
1.0
 50
0.0
 71
     0
 42
2.5
  3
txt
  4

  0
STYLE
  5
6E
330
3
100
AcDbSymbolTableRecord
100
AcDbTextStyleTableRecord
  2
Default
 70
     0
 40
0.0
 41
1.0
 50
0.0
 71
     0
 42
2.5
  3

  4

1001
ACAD
1000
txt
1071
        0
  0
STYLE
  5
6F
330
3
100
AcDbSymbolTableRecord
100
AcDbTextStyleTableRecord
  2
ISO
 70
     0
 40
0.0
 41
1.0
 50
0.0
 71
     0
 42
2.5
  3

  4

1001
ACAD
1000
txt
1071
        0
  0
STYLE
  5
70
330
3
100
AcDbSymbolTableRecord
100
AcDbTextStyleTableRecord
  2
zucchetti
 70
     0
 40
0.0
 41
1.0
 50
0.0
 71
     0
 42
2.5
  3

  4

1001
ACAD
1000
Arial
1071
        0
  0
ENDTAB
  0
TABLE
  2
VIEW
  5
6
330
0
100
AcDbSymbolTable
 70
     0
  0
ENDTAB
  0
TABLE
  2
UCS
  5
7
330
0
100
AcDbSymbolTable
 70
     0
  0
ENDTAB
  0
TABLE
  2
APPID
  5
9
330
0
100
AcDbSymbolTable
 70
     1
  0
APPID
  5
12
330
9
100
AcDbSymbolTableRecord
100
AcDbRegAppTableRecord
  2
ACAD
 70
     0
  0
ENDTAB
  0
TABLE
  2
DIMSTYLE
  5
A
330
0
100
AcDbSymbolTable
 70
     4
100
AcDbDimStyleTable
  0
DIMSTYLE
105
27
330
A
100
AcDbSymbolTableRecord
100
AcDbDimStyleTableRecord
  2
ISO-25
 70
     0
 41
2.5
 42
0.625
 43
3.75
 44
1.25
 73
     0
 74
     0
 77
     1
 78
     8
140
2.5
141
2.5
143
0.03937
147
0.625
171
     3
172
     1
178
     0
271
     2
272
     2
274
     3
278
    44
283
     0
284
     8
340
11
  0
DIMSTYLE
105
71
330
A
100
AcDbSymbolTableRecord
100
AcDbDimStyleTableRecord
  2
Default
 70
     0
  3
<>
 41
4.375
 42
1.05
 44
2.1
 49
10.01
 73
     0
 74
     0
 77
     1
 78
     8
140
3.5
146
0.4
147
1.75
172
     1
271
     2
178
     3
271
     2
272
     3
284
     8
340
6E
341
72
342
72
  0
DIMSTYLE
105
79
330
A
100
AcDbSymbolTableRecord
100
AcDbDimStyleTableRecord
  2
ISO
 70
     0
  3
<>
 41
4.375
 42
1.05
 44
2.1
 49
10.01
 73
     0
 74
     0
 77
     1
 78
     8
140
3.5
146
0.4
147
1.75
172
     1
271
     2
178
     3
271
     2
272
     3
284
     8
340
6F
341
72
342
72
  0
DIMSTYLE
105
7A
330
A
100
AcDbSymbolTableRecord
100
AcDbDimStyleTableRecord
  2
zucchetti
 70
     0
  3
<>
 41
3.0
 42
0.9
 44
1.8
 49
8.58
 73
     0
 74
     0
 77
     1
 78
     8
140
3.0
146
0.6
147
1.5
172
     1
176
     3
177
     3
271
     2
178
     3
271
     2
272
     2
284
     8
340
70
  0
ENDTAB
  0
TABLE
  2
BLOCK_RECORD
  5
1
330
0
100
AcDbSymbolTable
 70
     6
  0
BLOCK_RECORD
  5
1F
330
1
100
AcDbSymbolTableRecord
100
AcDbBlockTableRecord
  2
*Model_Space
340
22
 70
     0
280
     1
281
     0
  0
BLOCK_RECORD
  5
1B
330
1
100
AcDbSymbolTableRecord
100
AcDbBlockTableRecord
  2
*Paper_Space
340
1E
 70
     0
280
     1
281
     0
  0
BLOCK_RECORD
  5
23
330
1
100
AcDbSymbolTableRecord
100
AcDbBlockTableRecord
  2
*Paper_Space0
340
26
 70
     0
280
     1
281
     0
  0
BLOCK_RECORD
  5
72
330
1
100
AcDbSymbolTableRecord
100
AcDbBlockTableRecord
  2
_CLOSED
340
0
 70
     0
280
     1
281
     0
  0
BLOCK_RECORD
  5
7B
330
1
100
AcDbSymbolTableRecord
100
AcDbBlockTableRecord
  2
a
340
0
102
{BLKREFS
331
110
102
}
 70
     0
280
     1
281
     0
  0
BLOCK_RECORD
  5
111
330
1
100
AcDbSymbolTableRecord
100
AcDbBlockTableRecord
  2
b
340
0
102
{BLKREFS
331
160
102
}
 70
     0
280
     1
281
     0
  0
BLOCK_RECORD
  5
161
330
1
100
AcDbSymbolTableRecord
100
AcDbBlockTableRecord
  2
c
340
0
102
{BLKREFS
331
208
102
}
 70
     0
280
     1
281
     0
  0
BLOCK_RECORD
  5
209
330
1
100
AcDbSymbolTableRecord
100
AcDbBlockTableRecord
  2
d
340
0
102
{BLKREFS
331
2A6
102
}
 70
     0
280
     1
281
     0
  0
ENDTAB
  0
ENDSEC
  0
SECTION
  2
BLOCKS
  0
BLOCK
  5
20
330
1F
100
AcDbEntity
  8
0
100
AcDbBlockBegin
  2
*Model_Space
 70
     0
 10
0.0
 20
0.0
 30
0.0
  3
*Model_Space
  1

  0
ENDBLK
  5
21
330
1F
100
AcDbEntity
  8
0
100
AcDbBlockEnd
  0
BLOCK
  5
1C
330
1B
100
AcDbEntity
 67
     1
  8
0
100
AcDbBlockBegin
  2
*Paper_Space
 70
     0
 10
0.0
 20
0.0
 30
0.0
  3
*Paper_Space
  1

  0
ENDBLK
  5
1D
330
1B
100
AcDbEntity
 67
     1
  8
0
100
AcDbBlockEnd
  0
BLOCK
  5
24
330
23
100
AcDbEntity
  8
0
100
AcDbBlockBegin
  2
*Paper_Space0
 70
     0
 10
0.0
 20
0.0
 30
0.0
  3
*Paper_Space0
  1

  0
ENDBLK
  5
25
330
23
100
AcDbEntity
  8
0
100
AcDbBlockEnd
  0
BLOCK
  5
73
330
72
100
AcDbEntity
  8
0
100
AcDbBlockBegin
  2
_CLOSED
 70
     0
 10
0.0
 20
0.0
 30
0.0
  3
_CLOSED
  1

  0
LINE
  5
75
330
72
100
AcDbEntity
  8
0
  6
ByBlock
 62
     0
370
    -2
100
AcDbLine
 10
-1.0
 20
0.166667
 30
0.0
 11
0.0
 21
0.0
 31
0.0
  0
LINE
  5
76
330
72
100
AcDbEntity
  8
0
  6
ByBlock
 62
     0
370
    -2
100
AcDbLine
 10
0.0
 20
0.0
 30
0.0
 11
-1.0
 21
-0.166667
 31
0.0
  0
LINE
  5
77
330
72
100
AcDbEntity
  8
0
  6
ByBlock
 62
     0
370
    -2
100
AcDbLine
 10
-1.0
 20
0.166667
 30
0.0
 11
-1.0
 21
-0.166667
 31
0.0
  0
LINE
  5
78
330
72
100
AcDbEntity
  8
0
  6
ByBlock
 62
     0
370
    -2
100
AcDbLine
 10
0.0
 20
0.0
 30
0.0
 11
-1.0
 21
0.0
 31
0.0
  0
ENDBLK
  5
74
330
72
100
AcDbEntity
  8
0
100
AcDbBlockEnd
  0
BLOCK
  5
10E
330
7B
100
AcDbEntity
  8
0
100
AcDbBlockBegin
  2
a
 70
     0
 10
438.267578
 20
113.967461
 30
0.0
  3
a
  1

  0
LINE
  5
7C
330
7B
100
AcDbEntity
  8
0
  6
Continuous
 62
     0
370
    30
100
AcDbLine
 10
547.087162
 20
686.275566
 30
0.0
 11
547.087162
 21
626.275566
 31
0.0
  0
LINE
  5
7D
330
7B
100
AcDbEntity
  8
0
  6
Continuous
 62
     0
370
    30
100
AcDbLine
 10
487.087162
 20
686.275566
 30
0.0
 11
547.087162
 21
686.275566
 31
0.0
  0
LINE
  5
7E
330
7B
100
AcDbEntity
  8
0
  6
Continuous
 62
     0
370
    30
100
AcDbLine
 10
487.087162
 20
626.275566
 30
0.0
 11
487.087162
 21
686.275566
 31
0.0
  0
LINE
  5
7F
330
7B
100
AcDbEntity
  8
0
  6
Continuous
 62
     0
370
    30
100
AcDbLine
 10
512.537007
 20
626.275566
 30
0.0
 11
487.087162
 21
626.275566
 31
0.0
  0
LINE
  5
80
330
7B
100
AcDbEntity
  8
0
  6
Continuous
 62
     0
370
    30
100
AcDbLine
 10
547.087162
 20
626.275566
 30
0.0
 11
521.585611
 21
626.275566
 31
0.0
  0
LWPOLYLINE
  5
81
330
7B
100
AcDbEntity
  8
0
  6
Continuous
 62
     0
370
     0
100
AcDbPolyline
 90
        2
 70
     0
 43
0.0
 10
517.098816
 20
669.859619
 10
517.098816
 20
669.822937
  0
LWPOLYLINE
  5
82
330
7B
100
AcDbEntity
  8
0
  6
Continuous
 62
     0
370
    30
100
AcDbPolyline
 90
       40
 70
     0
 43
0.0
 10
517.098816
 20
669.822937
 10
516.124573
 20
669.784546
 10
515.154724
 20
669.669373
 10
514.195984
 20
669.479919
 10
513.2547
 20
669.218689
 10
512.335999
 20
668.888428
 10
511.444733
 20
668.491821
 10
510.585571
 20
668.031433
 10
509.762695
 20
667.509521
 10
508.98053
 20
666.92804
 10
508.244171
 20
666.289551
 10
507.558594
 20
665.596985
 10
506.927582
 20
664.854309
 10
506.352783
 20
664.066467
 10
505.835724
 20
663.23877
 10
505.37793
 20
662.376343
 10
504.980988
 20
661.484558
 10
504.646423
 20
660.567871
 10
504.375732
 20
659.630371
 10
504.170349
 20
658.676208
 10
504.032104
 20
657.7099
 10
503.963013
 20
656.73645
 10
503.964966
 20
655.76062
 10
504.037903
 20
654.787354
 10
504.17981
 20
653.821655
 10
504.388733
 20
652.868286
 10
504.662903
 20
651.931763
 10
505.000854
 20
651.016296
 10
505.401093
 20
650.125916
 10
505.862091
 20
649.265259
 10
506.382355
 20
648.439575
 10
506.960266
 20
647.654114
 10
507.59436
 20
646.914124
 10
508.282898
 20
646.224487
 10
509.021942
 20
645.589111
 10
509.806488
 20
645.010864
 10
510.63147
 20
644.49231
 10
511.492523
 20
644.035339
 10
512.385437
 20
643.642273
 10
513.326843
 20
643.309082
  0
LWPOLYLINE
  5
83
330
7B
100
AcDbEntity
  8
0
  6
Continuous
 62
     0
370
    30
100
AcDbPolyline
 90
       40
 70
     0
 43
0.0
 10
517.098816
 20
669.822937
 10
518.073059
 20
669.782837
 10
519.042664
 20
669.666016
 10
520.001099
 20
669.474915
 10
520.941895
 20
669.212097
 10
521.860046
 20
668.880249
 10
522.75061
 20
668.482056
 10
523.608948
 20
668.020264
 10
524.430969
 20
667.496887
 10
525.212097
 20
666.914124
 10
525.947388
 20
666.274292
 10
526.631775
 20
665.580566
 10
527.261475
 20
664.836792
 10
527.8349
 20
664.048035
 10
528.350586
 20
663.21936
 10
528.806885
 20
662.356201
 10
529.202271
 20
661.463684
 10
529.535278
 20
660.546448
 10
529.804382
 20
659.608459
 10
530.008118
 20
658.653931
 10
530.144653
 20
657.687439
 10
530.212097
 20
656.713867
 10
530.208435
 20
655.738037
 10
530.13385
 20
654.764954
 10
529.990234
 20
653.799438
 10
529.779724
 20
652.846436
 10
529.503906
 20
651.9104
 10
529.164429
 20
650.995483
 10
528.762634
 20
650.105835
 10
528.30011
 20
649.245972
 10
527.778442
 20
648.421204
 10
527.199219
 20
647.636719
 10
526.563843
 20
646.897827
 10
525.874084
 20
646.209351
 10
525.133972
 20
645.575195
 10
524.34845
 20
644.998352
 10
523.522583
 20
644.481201
 10
522.660706
 20
644.025757
 10
521.767151
 20
643.634216
 10
520.825195
 20
643.302673
  0
LINE
  5
84
330
7B
100
AcDbEntity
  8
0
  6
Continuous
 62
     0
370
     0
100
AcDbLine
 10
517.095278
 20
665.709294
 30
0.0
 11
517.098814
 21
669.822929
 31
0.0
  0
LWPOLYLINE
  5
85
330
7B
100
AcDbEntity
  8
0
  6
Continuous
 62
     0
370
    30
100
AcDbPolyline
 90
       13
 70
     0
 43
0.0
 10
521.529846
 20
627.473511
 10
521.631958
 20
625.278015
 10
521.733398
 20
623.08313
 10
521.834412
 20
620.888916
 10
521.936218
 20
618.69519
 10
522.039734
 20
616.502075
 10
522.144775
 20
614.309265
 10
522.250977
 20
612.11676
 10
522.357239
 20
609.924255
 10
522.470337
 20
607.733459
 10
522.575867
 20
605.541565
 10
522.670227
 20
603.345581
 10
522.810303
 20
600.973816
  0
LWPOLYLINE
  5
86
330
7B
100
AcDbEntity
  8
0
  6
Continuous
 62
     0
370
    30
100
AcDbPolyline
 90
        7
 70
     0
 43
0.0
 10
520.831787
 20
643.022461
 10
520.838196
 20
642.693237
 10
520.845398
 20
642.374023
 10
520.859314
 20
642.050049
 10
520.882812
 20
641.60437
 10
520.992676
 20
639.553772
 10
521.106628
 20
636.782654
  0
LINE
  5
87
330
7B
100
AcDbEntity
  8
0
  6
Continuous
 62
     0
370
     0
100
AcDbLine
 10
517.09528
 20
665.709294
 30
0.0
 11
517.094818
 21
665.172097
 31
0.0
  0
LWPOLYLINE
  5
88
330
7B
100
AcDbEntity
  8
0
  6
Continuous
 62
     0
370
    30
100
AcDbPolyline
 90
       23
 70
     0
 43
0.0
 10
517.094788
 20
665.172119
 10
517.868713
 20
665.133179
 10
518.637573
 20
665.017578
 10
519.393127
 20
664.829041
 10
520.126587
 20
664.571777
 10
520.831787
 20
664.24884
 10
521.50354
 20
663.862671
 10
522.136658
 20
663.416077
 10
522.725769
 20
662.912842
 10
523.265747
 20
662.357727
 10
523.751282
 20
661.755371
 10
524.179688
 20
661.111328
 10
524.549866
 20
660.431763
 10
524.861023
 20
659.7229
 10
525.111755
 20
658.990601
 10
525.30011
 20
658.240295
 10
525.424255
 20
657.477417
 10
525.482056
 20
656.707092
 10
525.471436
 20
655.934448
 10
525.392517
 20
655.165405
 10
525.247009
 20
654.406006
 10
525.037964
 20
653.660828
 10
524.760742
 20
652.926086
  0
ARC
  5
89
330
7B
100
AcDbEntity
  8
0
  6
Continuous
 62
     0
370
    30
100
AcDbCircle
 10
516.641733
 20
656.360439
 30
0.0
 40
8.815473480455116
100
AcDbArc
 50
321.214036
 51
337.071565
  0
ARC
  5
8A
330
7B
100
AcDbEntity
  8
0
  6
Continuous
 62
     0
370
    30
100
AcDbCircle
 10
528.038778
 20
656.732018
 30
0.0
 40
7.430715894096133
100
AcDbArc
 50
232.481283
 51
235.927004
  0
ARC
  5
8B
330
7B
100
AcDbEntity
  8
0
  6
Continuous
 62
     0
370
    30
100
AcDbCircle
 10
506.136348
 20
656.750866
 30
0.0
 40
7.430715870794934
100
AcDbArc
 50
303.974384
 51
307.420105
  0
ARC
  5
8C
330
7B
100
AcDbEntity
  8
0
  6
Continuous
 62
     0
370
    30
100
AcDbCircle
 10
517.532822
 20
656.35973
 30
0.0
 40
8.815576211333028
100
AcDbArc
 50
202.826247
 51
218.687297
  0
LWPOLYLINE
  5
8D
330
7B
100
AcDbEntity
  8
0
  6
Continuous
 62
     0
370
    30
100
AcDbPolyline
 90
       23
 70
     0
 43
0.0
 10
517.094788
 20
665.172119
 10
516.320862
 20
665.134521
 10
515.551819
 20
665.020264
 10
514.796021
 20
664.833008
 10
514.062134
 20
664.577026
 10
513.356384
 20
664.25531
 10
512.68396
 20
663.870361
 10
512.05011
 20
663.424866
 10
511.460114
 20
662.922729
 10
510.91922
 20
662.36853
 10
510.432617
 20
661.76709
 10
510.003143
 20
661.123779
 10
509.631744
 20
660.444885
 10
509.319366
 20
659.736633
 10
509.067383
 20
659.004822
 10
508.877686
 20
658.254822
 10
508.752228
 20
657.492188
 10
508.693054
 20
656.722046
 10
508.702271
 20
655.949341
 10
508.779846
 20
655.180237
 10
508.923981
 20
654.420593
 10
509.131653
 20
653.675049
 10
509.407623
 20
652.939819
  0
LWPOLYLINE
  5
8E
330
7B
100
AcDbEntity
  8
0
  6
Continuous
 62
     0
370
    30
100
AcDbPolyline
 90
       13
 70
     0
 43
0.0
 10
523.513306
 20
650.838318
 10
523.034241
 20
650.291504
 10
522.549194
 20
649.750061
 10
522.085388
 20
649.190979
 10
521.661682
 20
648.600586
 10
521.290344
 20
647.974915
 10
520.978882
 20
647.316467
 10
520.730957
 20
646.631409
 10
520.546936
 20
645.927063
 10
520.42395
 20
645.210205
 10
520.354919
 20
644.486328
 10
520.328979
 20
643.759583
 10
520.332703
 20
642.978088
  0
LWPOLYLINE
  5
8F
330
7B
100
AcDbEntity
  8
0
  6
Continuous
 62
     0
370
     0
100
AcDbPolyline
 90
        5
 70
     0
 43
0.0
 10
520.332703
 20
642.978088
 10
520.524109
 20
642.981506
 10
520.685669
 20
642.991089
 10
520.794006
 20
643.005432
 10
520.832581
 20
643.022461
  0
LWPOLYLINE
  5
90
330
7B
100
AcDbEntity
  8
0
  6
Continuous
 62
     0
370
     0
100
AcDbPolyline
 90
       20
 70
     0
 43
0.0
 10
520.332703
 20
642.978088
 10
520.429871
 20
640.769531
 10
520.528748
 20
638.563965
 10
520.629089
 20
636.356445
 10
520.728333
 20
634.148071
 10
520.827454
 20
631.940063
 10
520.928162
 20
629.733154
 10
521.030212
 20
627.527527
 10
521.132874
 20
625.322937
 10
521.235535
 20
623.118958
 10
521.338257
 20
620.9151
 10
521.441284
 20
618.71106
 10
521.545166
 20
616.507019
 10
521.650208
 20
614.303345
 10
521.756165
 20
612.100952
 10
521.862671
 20
609.900269
 10
521.969421
 20
607.701233
 10
522.080383
 20
605.501343
 10
522.187744
 20
603.295044
 10
522.317322
 20
600.988098
  0
LWPOLYLINE
  5
91
330
7B
100
AcDbEntity
  8
0
  6
Continuous
 62
     0
370
     0
100
AcDbPolyline
 90
        5
 70
     0
 43
0.0
 10
522.317322
 20
600.988098
 10
522.494202
 20
600.993103
 10
522.647644
 20
600.993713
 10
522.75769
 20
600.989868
 10
522.81189
 20
600.981079
  0
LINE
  5
92
330
7B
100
AcDbEntity
  8
0
  6
Continuous
 62
     0
370
     0
100
AcDbLine
 10
511.770944
 20
600.993894
 30
0.0
 11
522.317298
 21
600.988089
 31
0.0
  0
LINE
  5
93
330
7B
100
AcDbEntity
  8
0
  6
Continuous
 62
     0
370
     0
100
AcDbLine
 10
524.760713
 20
652.926099
 30
0.0
 11
509.407635
 21
652.939836
 31
0.0
  0
LWPOLYLINE
  5
94
330
7B
100
AcDbEntity
  8
0
  6
Continuous
 62
     0
370
    30
100
AcDbPolyline
 90
       13
 70
     0
 43
0.0
 10
510.651642
 20
650.849365
 10
511.134735
 20
650.296082
 10
511.614258
 20
649.758911
 10
512.077637
 20
649.198364
 10
512.500549
 20
648.606812
 10
512.870361
 20
647.980835
 10
513.180054
 20
647.323059
 10
513.426392
 20
646.638977
 10
513.609131
 20
645.935181
 10
513.731079
 20
645.218201
 10
513.799011
 20
644.494019
 10
513.823608
 20
643.766968
 10
513.818481
 20
642.983704
  0
LWPOLYLINE
  5
95
330
7B
100
AcDbEntity
  8
0
  6
Continuous
 62
     0
370
     0
100
AcDbPolyline
 90
       25
 70
     0
 43
0.0
 10
513.818481
 20
642.983704
 10
513.768311
 20
641.232849
 10
513.679382
 20
639.483276
 10
513.584106
 20
637.733948
 10
513.494629
 20
635.984375
 10
513.411255
 20
634.234619
 10
513.330383
 20
632.484985
 10
513.249634
 20
630.735657
 10
513.167542
 20
628.986755
 10
513.084229
 20
627.238281
 10
513.000122
 20
625.490234
 10
512.915527
 20
623.742676
 10
512.830933
 20
621.995544
 10
512.746704
 20
620.248779
 10
512.662476
 20
618.502319
 10
512.578003
 20
616.756165
 10
512.493225
 20
615.010254
 10
512.407898
 20
613.264465
 10
512.321594
 20
611.518799
 10
512.231201
 20
609.773315
 10
512.136353
 20
608.028015
 10
512.052368
 20
606.281982
 10
511.985504
 20
604.534973
 10
511.891266
 20
602.789001
 10
511.770935
 20
600.993896
  0
LWPOLYLINE
  5
96
330
7B
100
AcDbEntity
  8
0
  6
Continuous
 62
     0
370
     0
100
AcDbPolyline
 90
        5
 70
     0
 43
0.0
 10
511.26828
 20
600.985229
 10
511.306458
 20
600.994568
 10
511.414307
 20
600.999573
 10
511.576447
 20
600.99939
 10
511.770905
 20
600.993896
  0
LWPOLYLINE
  5
97
330
7B
100
AcDbEntity
  8
0
  6
Continuous
 62
     0
370
     0
100
AcDbPolyline
 90
        6
 70
     0
 43
0.0
 10
511.770782
 20
600.993896
 10
511.770569
 20
600.830627
 10
511.770081
 20
600.681519
 10
511.769348
 20
600.562805
 10
511.768433
 20
600.488037
 10
511.767365
 20
600.465881
  0
ARC
  5
98
330
7B
100
AcDbEntity
  8
0
  6
Continuous
 62
     0
370
     0
100
AcDbCircle
 10
502.22697
 20
600.853888
 30
0.0
 40
20.09012155103722
100
AcDbArc
 50
358.87678
 51
0.382668
  0
ARC
  5
99
330
7B
100
AcDbEntity
  8
0
  6
Continuous
 62
     0
370
    30
100
AcDbCircle
 10
522.313719
 20
600.959542
 30
0.0
 40
0.4999244188732186
100
AcDbArc
 50
269.964686
 51
1.887148
  0
LINE
  5
9A
330
7B
100
AcDbEntity
  8
0
  6
Continuous
 62
     0
370
    30
100
AcDbLine
 10
522.313387
 20
600.459374
 30
0.0
 11
511.767519
 21
600.46521
 31
0.0
  0
ARC
  5
9B
330
7B
100
AcDbEntity
  8
0
  6
Continuous
 62
     0
370
    30
100
AcDbCircle
 10
511.767346
 20
600.964999
 30
0.0
 40
0.4995453475329569
100
AcDbArc
 50
177.678231
 51
270.022625
  0
LWPOLYLINE
  5
9C
330
7B
100
AcDbEntity
  8
0
  6
Continuous
 62
     0
370
    30
100
AcDbPolyline
 90
       17
 70
     0
 43
0.0
 10
511.26828
 20
600.985291
 10
511.425751
 20
603.602844
 10
511.545013
 20
606.22168
 10
511.672821
 20
608.839783
 10
511.813263
 20
611.457092
 10
511.9487
 20
614.074524
 10
512.077637
 20
616.692505
 10
512.203064
 20
619.311035
 10
512.327759
 20
621.930298
 10
512.453613
 20
624.550354
 10
512.580261
 20
627.171326
 10
512.706116
 20
629.793274
 10
512.829529
 20
632.416199
 10
512.950134
 20
635.039917
 10
513.070923
 20
637.664062
 10
513.197266
 20
640.288086
 10
513.318909
 20
643.028809
  0
LWPOLYLINE
  5
9D
330
7B
100
AcDbEntity
  8
0
  6
Continuous
 62
     0
370
    30
100
AcDbPolyline
 90
       15
 70
     0
 43
0.0
 10
510.288788
 20
650.58844
 10
510.685913
 20
650.135925
 10
511.092133
 20
649.691101
 10
511.489136
 20
649.237915
 10
511.863922
 20
648.766174
 10
512.206238
 20
648.270325
 10
512.508118
 20
647.748657
 10
512.764893
 20
647.203369
 10
512.973572
 20
646.637939
 10
513.132812
 20
646.05658
 10
513.243164
 20
645.464355
 10
513.307312
 20
644.868469
 10
513.334229
 20
644.266663
 10
513.334412
 20
643.664124
 10
513.31897
 20
643.028931
  0
LWPOLYLINE
  5
9E
330
7B
100
AcDbEntity
  8
0
  6
Continuous
 62
     0
370
    30
100
AcDbPolyline
 90
       24
 70
     0
 43
0.0
 10
521.735229
 20
623.025024
 10
521.694458
 20
623.893433
 10
521.654053
 20
624.761902
 10
521.613953
 20
625.630554
 10
521.574158
 20
626.499268
 10
521.534607
 20
627.368164
 10
521.495361
 20
628.237122
 10
521.45636
 20
629.10614
 10
521.417419
 20
629.975342
 10
521.378418
 20
630.844604
 10
521.339172
 20
631.713928
 10
521.299561
 20
632.583313
 10
521.259583
 20
633.45282
 10
521.219299
 20
634.322327
 10
521.178894
 20
635.191833
 10
521.139038
 20
636.061462
 10
521.10083
 20
636.931213
 10
521.065125
 20
637.801025
 10
521.030396
 20
638.670898
 10
520.993835
 20
639.54071
 10
520.951111
 20
640.410156
 10
520.902161
 20
641.279297
 10
520.85553
 20
642.14856
 10
520.832581
 20
643.022461
  0
LWPOLYLINE
  5
9F
330
7B
100
AcDbEntity
  8
0
  6
Continuous
 62
     0
370
    30
100
AcDbPolyline
 90
       16
 70
     0
 43
0.0
 10
520.832581
 20
643.022461
 10
520.819336
 20
643.584534
 10
520.817505
 20
644.146606
 10
520.837036
 20
644.708252
 10
520.886902
 20
645.267273
 10
520.974792
 20
645.819885
 10
521.104675
 20
646.366943
 10
521.277649
 20
646.901978
 10
521.493408
 20
647.421204
 10
521.750061
 20
647.92157
 10
522.044678
 20
648.40033
 10
522.372925
 20
648.856567
 10
522.727722
 20
649.292542
 10
523.100281
 20
649.713379
 10
523.480347
 20
650.127319
 10
523.875732
 20
650.576782
  0
LWPOLYLINE
  5
A0
330
7B
100
AcDbEntity
  8
0
  6
Continuous
 62
     0
370
    30
100
AcDbPolyline
 90
       16
 70
     0
 43
0.0
 10
517.095276
 20
665.70929
 10
516.418396
 20
665.6698
 10
515.747009
 20
665.573181
 10
515.086365
 20
665.421814
 10
514.440186
 20
665.218201
 10
513.812073
 20
664.965088
 10
513.205505
 20
664.664429
 10
512.624023
 20
664.318237
 10
512.070984
 20
663.928467
 10
511.549988
 20
663.496948
 10
511.064178
 20
663.026245
 10
510.616211
 20
662.519348
 10
510.207825
 20
661.979919
 10
509.839905
 20
661.41156
 10
509.512726
 20
660.818115
 10
509.219055
 20
660.185669
  0
LWPOLYLINE
  5
A1
330
7B
100
AcDbEntity
  8
0
  6
Continuous
 62
     0
370
    30
100
AcDbPolyline
 90
       14
 70
     0
 43
0.0
 10
510.288788
 20
650.588501
 10
509.851501
 20
651.225769
 10
509.471436
 20
651.898682
 10
509.149139
 20
652.600769
 10
508.884766
 20
653.326477
 10
508.678864
 20
654.070679
 10
508.532471
 20
654.828552
 10
508.446625
 20
655.595581
 10
508.422028
 20
656.366943
 10
508.458771
 20
657.137939
 10
508.555847
 20
657.903992
 10
508.712372
 20
658.661865
 10
508.926666
 20
659.406494
 10
509.219116
 20
660.185669
  0
LWPOLYLINE
  5
A2
330
7B
100
AcDbEntity
  8
0
  6
Continuous
 62
     0
370
    30
100
AcDbPolyline
 90
       16
 70
     0
 43
0.0
 10
517.095276
 20
665.70929
 10
517.772095
 20
665.66864
 10
518.443298
 20
665.570862
 10
519.103699
 20
665.418335
 10
519.749512
 20
665.213623
 10
520.377197
 20
664.959412
 10
520.983215
 20
664.657715
 10
521.564148
 20
664.310547
 10
522.116516
 20
663.9198
 10
522.636719
 20
663.487366
 10
523.121765
 20
663.015869
 10
523.568848
 20
662.50824
 10
523.976318
 20
661.968018
 10
524.343262
 20
661.399109
 10
524.669434
 20
660.805115
 10
524.961975
 20
660.172119
  0
LWPOLYLINE
  5
A3
330
7B
100
AcDbEntity
  8
0
  6
Continuous
 62
     0
370
    30
100
AcDbPolyline
 90
       14
 70
     0
 43
0.0
 10
523.875732
 20
650.576782
 10
524.314087
 20
651.213318
 10
524.695374
 20
651.88562
 10
525.01886
 20
652.587158
 10
525.284485
 20
653.312378
 10
525.491638
 20
654.056213
 10
525.639343
 20
654.813843
 10
525.726501
 20
655.580688
 10
525.752441
 20
656.35199
 10
525.717041
 20
657.123047
 10
525.621277
 20
657.889282
 10
525.466003
 20
658.647461
 10
525.253052
 20
659.392456
 10
524.961914
 20
660.172119
  0
LWPOLYLINE
  5
A4
330
7B
100
AcDbEntity
  8
0
  6
Continuous
 62
     0
370
    30
100
AcDbPolyline
 90
        3
 70
     0
 43
0.0
 10
513.644958
 20
638.853149
 10
513.685669
 20
639.786377
 10
513.810547
 20
642.576538
  0
LWPOLYLINE
  5
A5
330
7B
100
AcDbEntity
  8
0
  6
Continuous
 62
     0
370
    30
100
AcDbPolyline
 90
        8
 70
     0
 43
0.0
 10
522.982666
 20
668.365112
 10
522.210266
 20
668.734192
 10
521.416321
 20
669.054871
 10
520.60321
 20
669.324768
 10
519.773804
 20
669.541016
 10
518.932007
 20
669.702881
 10
518.081482
 20
669.809204
 10
517.098877
 20
669.859619
  0
LWPOLYLINE
  5
A6
330
7B
100
AcDbEntity
  8
0
  6
Continuous
 62
     0
370
    30
100
AcDbPolyline
 90
        4
 70
     0
 43
0.0
 10
522.963501
 20
644.176636
 10
522.384888
 20
643.895813
 10
521.793701
 20
643.642029
 10
520.825378
 20
643.294861
  0
LWPOLYLINE
  5
A7
330
7B
100
AcDbEntity
  8
0
  6
Continuous
 62
     0
370
    30
100
AcDbPolyline
 90
        8
 70
     0
 43
0.0
 10
511.212494
 20
668.375244
 10
511.985504
 20
668.742981
 10
512.780029
 20
669.062317
 10
513.593628
 20
669.33075
 10
514.423401
 20
669.545654
 10
515.265442
 20
669.706055
 10
516.11615
 20
669.810913
 10
517.098816
 20
669.859619
  0
LWPOLYLINE
  5
A8
330
7B
100
AcDbEntity
  8
0
  6
Continuous
 62
     0
370
    30
100
AcDbPolyline
 90
        4
 70
     0
 43
0.0
 10
511.190002
 20
644.186768
 10
511.768158
 20
643.904907
 10
512.358887
 20
643.650146
 10
513.326599
 20
643.301331
  0
LWPOLYLINE
  5
A9
330
7B
100
AcDbEntity
  8
0
  6
Continuous
 62
     0
370
     0
100
AcDbPolyline
 90
       55
 70
     0
 43
0.0
 10
517.087158
 20
476.986176
 10
516.602234
 20
476.98645
 10
516.351624
 20
476.986847
 10
516.168335
 20
476.987244
 10
516.019897
 20
476.987671
 10
515.894226
 20
476.988068
 10
515.785034
 20
476.988495
 10
515.688599
 20
476.988922
 10
515.602478
 20
476.989319
 10
515.525024
 20
476.989746
 10
515.455078
 20
476.990173
 10
515.391724
 20
476.99057
 10
515.334167
 20
476.990997
 10
515.282043
 20
476.991425
 10
515.234741
 20
476.991821
 10
515.192017
 20
476.992249
 10
515.153503
 20
476.992676
 10
515.119019
 20
476.993103
 10
515.088257
 20
476.9935
 10
515.061157
 20
476.993927
 10
515.037537
 20
476.994354
 10
515.017273
 20
476.994781
 10
515.000305
 20
476.995178
 10
514.986511
 20
476.995605
 10
514.97583
 20
476.996033
 10
514.968201
 20
476.99646
 10
514.963684
 20
476.996857
 10
514.962158
 20
476.997284
 10
514.963623
 20
476.997711
 10
514.968201
 20
476.998138
 10
514.975769
 20
476.998535
 10
514.986389
 20
476.998962
 10
515.000183
 20
476.99939
 10
515.017151
 20
476.999817
 10
515.037415
 20
477.000214
 10
515.060974
 20
477.000641
 10
515.088074
 20
477.001068
 10
515.118774
 20
477.001495
 10
515.153259
 20
477.001892
 10
515.191711
 20
477.002319
 10
515.234436
 20
477.002747
 10
515.281677
 20
477.003143
 10
515.333801
 20
477.003571
 10
515.391235
 20
477.003998
 10
515.45459
 20
477.004425
 10
515.524475
 20
477.004822
 10
515.601868
 20
477.005249
 10
515.687927
 20
477.005676
 10
515.784302
 20
477.006073
 10
515.893372
 20
477.0065
 10
516.018921
 20
477.006897
 10
516.167114
 20
477.007324
 10
516.350098
 20
477.007721
 10
516.599915
 20
477.008118
 10
517.087158
 20
477.008423
  0
LWPOLYLINE
  5
AA
330
7B
100
AcDbEntity
  8
0
  6
Continuous
 62
     0
370
     0
100
AcDbPolyline
 90
       55
 70
     0
 43
0.0
 10
517.087158
 20
477.008423
 10
517.572083
 20
477.008118
 10
517.822632
 20
477.007721
 10
518.00592
 20
477.007324
 10
518.154358
 20
477.006897
 10
518.280029
 20
477.0065
 10
518.389221
 20
477.006073
 10
518.485657
 20
477.005676
 10
518.571777
 20
477.005249
 10
518.649231
 20
477.004822
 10
518.719177
 20
477.004425
 10
518.782593
 20
477.003998
 10
518.840088
 20
477.003571
 10
518.892273
 20
477.003174
 10
518.939514
 20
477.002747
 10
518.9823
 20
477.002319
 10
519.020752
 20
477.001892
 10
519.055298
 20
477.001495
 10
519.085999
 20
477.001068
 10
519.113098
 20
477.000641
 10
519.136719
 20
477.000214
 10
519.156982
 20
476.999817
 10
519.174011
 20
476.99939
 10
519.187805
 20
476.998962
 10
519.198486
 20
476.998535
 10
519.206055
 20
476.998138
 10
519.210632
 20
476.997711
 10
519.212158
 20
476.997284
 10
519.210632
 20
476.996857
 10
519.206116
 20
476.99646
 10
519.198547
 20
476.996033
 10
519.187866
 20
476.995605
 10
519.174133
 20
476.995178
 10
519.157166
 20
476.994781
 10
519.136902
 20
476.994354
 10
519.113281
 20
476.993927
 10
519.086243
 20
476.9935
 10
519.055542
 20
476.993103
 10
519.021057
 20
476.992676
 10
518.982605
 20
476.992249
 10
518.93988
 20
476.991852
 10
518.892639
 20
476.991425
 10
518.840515
 20
476.990997
 10
518.78302
 20
476.99057
 10
518.719727
 20
476.990173
 10
518.64978
 20
476.989746
 10
518.572449
 20
476.989319
 10
518.486389
 20
476.988922
 10
518.390015
 20
476.988495
 10
518.280884
 20
476.988098
 10
518.155396
 20
476.987671
 10
518.007202
 20
476.987244
 10
517.824219
 20
476.986847
 10
517.574402
 20
476.98645
 10
517.087158
 20
476.986176
  0
ARC
  5
AB
330
7B
100
AcDbEntity
  8
0
  6
Continuous
 62
     0
370
     0
100
AcDbCircle
 10
567.140775
 20
477.72193
 30
0.0
 40
0.7000135584188999
100
AcDbArc
 50
270.001896
 51
359.998104
  0
LINE
  5
AC
330
7B
100
AcDbEntity
  8
0
  6
Continuous
 62
     0
370
     0
100
AcDbLine
 10
567.140798
 20
477.021917
 30
0.0
 11
567.194225
 21
476.96849
 31
0.0
  0
ARC
  5
AD
330
7B
100
AcDbEntity
  8
0
  6
Continuous
 62
     0
370
    30
100
AcDbCircle
 10
567.194822
 20
477.667883
 30
0.0
 40
0.69939370017768
100
AcDbArc
 50
269.951097
 51
0.048903
  0
LINE
  5
AE
330
7B
100
AcDbEntity
  8
0
  6
Continuous
 62
     0
370
     0
100
AcDbLine
 10
567.894215
 20
477.66848
 30
0.0
 11
567.840788
 21
477.721907
 31
0.0
  0
LINE
  5
AF
330
7B
100
AcDbEntity
  8
0
  6
Continuous
 62
     0
370
     0
100
AcDbLine
 10
467.033487
 20
477.721907
 30
0.0
 11
467.033487
 21
477.021917
 31
0.0
  0
LINE
  5
B0
330
7B
100
AcDbEntity
  8
0
  6
Continuous
 62
     0
370
     0
100
AcDbLine
 10
467.033487
 20
477.021917
 30
0.0
 11
567.140798
 21
477.021917
 31
0.0
  0
LINE
  5
B1
330
7B
100
AcDbEntity
  8
0
  6
Continuous
 62
     0
370
     0
100
AcDbLine
 10
567.140798
 20
477.021917
 30
0.0
 11
567.140798
 21
477.721907
 31
0.0
  0
LINE
  5
B2
330
7B
100
AcDbEntity
  8
0
  6
Continuous
 62
     0
370
     0
100
AcDbLine
 10
567.140798
 20
477.721907
 30
0.0
 11
467.033487
 21
477.721907
 31
0.0
  0
LINE
  5
B3
330
7B
100
AcDbEntity
  8
0
  6
Continuous
 62
     0
370
     0
100
AcDbLine
 10
567.140798
 20
594.829218
 30
0.0
 11
567.140798
 21
477.721907
 31
0.0
  0
LINE
  5
B4
330
7B
100
AcDbEntity
  8
0
  6
Continuous
 62
     0
370
     0
100
AcDbLine
 10
567.140798
 20
477.721907
 30
0.0
 11
567.840788
 21
477.721907
 31
0.0
  0
LINE
  5
B5
330
7B
100
AcDbEntity
  8
0
  6
Continuous
 62
     0
370
     0
100
AcDbLine
 10
567.840788
 20
477.721907
 30
0.0
 11
567.840788
 21
594.829218
 31
0.0
  0
LINE
  5
B6
330
7B
100
AcDbEntity
  8
0
  6
Continuous
 62
     0
370
     0
100
AcDbLine
 10
567.840788
 20
594.829218
 30
0.0
 11
567.140798
 21
594.829218
 31
0.0
  0
LINE
  5
B7
330
7B
100
AcDbEntity
  8
0
  6
Continuous
 62
     0
370
     0
100
AcDbLine
 10
567.840788
 20
594.829218
 30
0.0
 11
567.894215
 21
594.882645
 31
0.0
  0
ARC
  5
B8
330
7B
100
AcDbEntity
  8
0
  6
Continuous
 62
     0
370
    30
100
AcDbCircle
 10
567.194822
 20
594.883242
 30
0.0
 40
0.6993937000961012
100
AcDbArc
 50
359.951097
 51
90.048903
  0
LINE
  5
B9
330
7B
100
AcDbEntity
  8
0
  6
Continuous
 62
     0
370
     0
100
AcDbLine
 10
567.194225
 20
595.582635
 30
0.0
 11
567.140798
 21
595.529209
 31
0.0
  0
ARC
  5
BA
330
7B
100
AcDbEntity
  8
0
  6
Continuous
 62
     0
370
     0
100
AcDbCircle
 10
567.140775
 20
594.829195
 30
0.0
 40
0.7000135584167291
100
AcDbArc
 50
0.001896
 51
89.998104
  0
LINE
  5
BB
330
7B
100
AcDbEntity
  8
0
  6
Continuous
 62
     0
370
     0
100
AcDbLine
 10
467.033487
 20
594.829218
 30
0.0
 11
567.140798
 21
594.829218
 31
0.0
  0
LINE
  5
BC
330
7B
100
AcDbEntity
  8
0
  6
Continuous
 62
     0
370
     0
100
AcDbLine
 10
567.140798
 20
594.829218
 30
0.0
 11
567.140798
 21
595.529209
 31
0.0
  0
LINE
  5
BD
330
7B
100
AcDbEntity
  8
0
  6
Continuous
 62
     0
370
     0
100
AcDbLine
 10
567.140798
 20
595.529209
 30
0.0
 11
467.033487
 21
595.529209
 31
0.0
  0
LINE
  5
BE
330
7B
100
AcDbEntity
  8
0
  6
Continuous
 62
     0
370
     0
100
AcDbLine
 10
467.033487
 20
595.529209
 30
0.0
 11
467.033487
 21
594.829218
 31
0.0
  0
LINE
  5
BF
330
7B
100
AcDbEntity
  8
0
  6
Continuous
 62
     0
370
     0
100
AcDbLine
 10
466.333496
 20
477.721907
 30
0.0
 11
466.280069
 21
477.66848
 31
0.0
  0
ARC
  5
C0
330
7B
100
AcDbEntity
  8
0
  6
Continuous
 62
     0
370
    30
100
AcDbCircle
 10
466.979463
 20
477.667883
 30
0.0
 40
0.6993937000954198
100
AcDbArc
 50
179.951097
 51
270.048903
  0
LINE
  5
C1
330
7B
100
AcDbEntity
  8
0
  6
Continuous
 62
     0
370
     0
100
AcDbLine
 10
466.98006
 20
476.96849
 30
0.0
 11
467.033487
 21
477.021917
 31
0.0
  0
ARC
  5
C2
330
7B
100
AcDbEntity
  8
0
  6
Continuous
 62
     0
370
     0
100
AcDbCircle
 10
467.03351
 20
477.72193
 30
0.0
 40
0.700013558418129
100
AcDbArc
 50
180.001896
 51
269.998104
  0
LINE
  5
C3
330
7B
100
AcDbEntity
  8
0
  6
Continuous
 62
     0
370
     0
100
AcDbLine
 10
467.033487
 20
594.829218
 30
0.0
 11
466.333496
 21
594.829218
 31
0.0
  0
LINE
  5
C4
330
7B
100
AcDbEntity
  8
0
  6
Continuous
 62
     0
370
     0
100
AcDbLine
 10
466.333496
 20
594.829218
 30
0.0
 11
466.333496
 21
477.721907
 31
0.0
  0
LINE
  5
C5
330
7B
100
AcDbEntity
  8
0
  6
Continuous
 62
     0
370
     0
100
AcDbLine
 10
466.333496
 20
477.721907
 30
0.0
 11
467.033487
 21
477.721907
 31
0.0
  0
LINE
  5
C6
330
7B
100
AcDbEntity
  8
0
  6
Continuous
 62
     0
370
     0
100
AcDbLine
 10
467.033487
 20
477.721907
 30
0.0
 11
467.033487
 21
594.829218
 31
0.0
  0
ARC
  5
C7
330
7B
100
AcDbEntity
  8
0
  6
Continuous
 62
     0
370
     0
100
AcDbCircle
 10
467.03351
 20
594.829195
 30
0.0
 40
0.7000135584178269
100
AcDbArc
 50
90.001896
 51
179.998104
  0
LINE
  5
C8
330
7B
100
AcDbEntity
  8
0
  6
Continuous
 62
     0
370
     0
100
AcDbLine
 10
467.033487
 20
595.529209
 30
0.0
 11
466.98006
 21
595.582635
 31
0.0
  0
ARC
  5
C9
330
7B
100
AcDbEntity
  8
0
  6
Continuous
 62
     0
370
    30
100
AcDbCircle
 10
466.979463
 20
594.883242
 30
0.0
 40
0.6993937001772541
100
AcDbArc
 50
89.951097
 51
180.048903
  0
LINE
  5
CA
330
7B
100
AcDbEntity
  8
0
  6
Continuous
 62
     0
370
     0
100
AcDbLine
 10
466.280069
 20
594.882645
 30
0.0
 11
466.333496
 21
594.829218
 31
0.0
  0
LINE
  5
CB
330
7B
100
AcDbEntity
  8
0
  6
Continuous
 62
     0
370
    30
100
AcDbLine
 10
567.894215
 20
477.66848
 30
0.0
 11
567.894215
 21
594.882645
 31
0.0
  0
LINE
  5
CC
330
7B
100
AcDbEntity
  8
0
  6
Continuous
 62
     0
370
    30
100
AcDbLine
 10
567.194225
 20
595.582635
 30
0.0
 11
466.98006
 21
595.582635
 31
0.0
  0
LINE
  5
CD
330
7B
100
AcDbEntity
  8
0
  6
Continuous
 62
     0
370
    30
100
AcDbLine
 10
466.98006
 20
476.96849
 30
0.0
 11
567.194225
 21
476.96849
 31
0.0
  0
LINE
  5
CE
330
7B
100
AcDbEntity
  8
0
  6
Continuous
 62
     0
370
    30
100
AcDbLine
 10
466.280069
 20
594.882645
 30
0.0
 11
466.280069
 21
477.66848
 31
0.0
  0
ARC
  5
CF
330
7B
100
AcDbEntity
  8
0
  6
Continuous
 62
     0
370
    30
100
AcDbCircle
 10
517.087162
 20
536.275566
 30
0.0
 40
21.99999999999997
100
AcDbArc
 50
100.739738
 51
134.276041
  0
ARC
  5
D0
330
7B
100
AcDbEntity
  8
0
  6
Continuous
 62
     0
370
    30
100
AcDbCircle
 10
517.087162
 20
536.275566
 30
0.0
 40
22.00000000000009
100
AcDbArc
 50
45.724
 51
79.26029
  0
ARC
  5
D1
330
7B
100
AcDbEntity
  8
0
  6
Continuous
 62
     0
370
    30
100
AcDbCircle
 10
517.087458
 20
536.275566
 30
0.0
 40
21.50000000203893
100
AcDbArc
 50
269.999211
 51
90.000789
  0
ARC
  5
D2
330
7B
100
AcDbEntity
  8
0
  6
Continuous
 62
     0
370
    30
100
AcDbCircle
 10
517.086869
 20
536.275566
 30
0.0
 40
21.50000000199058
100
AcDbArc
 50
89.99922
 51
270.00078
  0
LWPOLYLINE
  5
D3
330
7B
100
AcDbEntity
  8
0
  6
Continuous
 62
     0
370
    30
100
AcDbPolyline
 90
       54
 70
     0
 43
0.0
 10
517.087158
 20
514.275574
 10
518.388
 20
514.315125
 10
519.686218
 20
514.432434
 10
520.976868
 20
514.626282
 10
522.25415
 20
514.895386
 10
523.512451
 20
515.238647
 10
524.747803
 20
515.655029
 10
525.956055
 20
516.143738
 10
527.133301
 20
516.703796
 10
528.27533
 20
517.333374
 10
529.378052
 20
518.029541
 10
530.437256
 20
518.789368
 10
531.448792
 20
519.609863
 10
532.409058
 20
520.488464
 10
533.315063
 20
521.422607
 10
534.164429
 20
522.409302
 10
534.954834
 20
523.445129
 10
535.683533
 20
524.526306
 10
536.347473
 20
525.648743
 10
536.943787
 20
526.808533
 10
537.469727
 20
528.001587
 10
537.923828
 20
529.223694
 10
538.304932
 20
530.47052
 10
538.611816
 20
531.737671
 10
538.843323
 20
533.020813
 10
538.998596
 20
534.315369
 10
539.076843
 20
535.61676
 10
539.077209
 20
536.920471
 10
538.999695
 20
538.221924
 10
538.845215
 20
539.516602
 10
538.614502
 20
540.799866
 10
538.308472
 20
542.0672
 10
537.928223
 20
543.31427
 10
537.474976
 20
544.536743
 10
536.94989
 20
545.730164
 10
536.354492
 20
546.890442
 10
535.691345
 20
548.013367
 10
534.963379
 20
549.094971
 10
534.173584
 20
550.131287
 10
533.324707
 20
551.118408
 10
532.419006
 20
552.052917
 10
531.458923
 20
552.931702
 10
530.447693
 20
553.752563
 10
529.388855
 20
554.512817
 10
528.286621
 20
555.209656
 10
527.145081
 20
555.840149
 10
525.968445
 20
556.401489
 10
524.760742
 20
556.891724
 10
523.52594
 20
557.309631
 10
522.267944
 20
557.654053
 10
520.990906
 20
557.923828
 10
519.700195
 20
558.118042
 10
518.401978
 20
558.235535
 10
517.087158
 20
558.275574
  0
LWPOLYLINE
  5
D4
330
7B
100
AcDbEntity
  8
0
  6
Continuous
 62
     0
370
    30
100
AcDbPolyline
 90
       54
 70
     0
 43
0.0
 10
517.087158
 20
558.275574
 10
515.786316
 20
558.236389
 10
514.488037
 20
558.11969
 10
513.197266
 20
557.926331
 10
511.920013
 20
557.657349
 10
510.661804
 20
557.313721
 10
509.426727
 20
556.896606
 10
508.218719
 20
556.407166
 10
507.041718
 20
555.846558
 10
505.89978
 20
555.216797
 10
504.797058
 20
554.52063
 10
503.737762
 20
553.761047
 10
502.725983
 20
552.940857
 10
501.765381
 20
552.062622
 10
500.85907
 20
551.128723
 10
500.009552
 20
550.142151
 10
499.219116
 20
549.106384
 10
498.490479
 20
548.025208
 10
497.826599
 20
546.90271
 10
497.230469
 20
545.742859
 10
496.704651
 20
544.549683
 10
496.25061
 20
543.327576
 10
495.869537
 20
542.08075
 10
495.562714
 20
540.813599
 10
495.331207
 20
539.530457
 10
495.175873
 20
538.235901
 10
495.097565
 20
536.934509
 10
495.097076
 20
535.630798
 10
495.1745
 20
534.329346
 10
495.328949
 20
533.034668
 10
495.559631
 20
531.751404
 10
495.865662
 20
530.484009
 10
496.246002
 20
529.237
 10
496.699341
 20
528.014587
 10
497.224548
 20
526.821167
 10
497.820068
 20
525.661011
 10
498.483337
 20
524.538147
 10
499.211334
 20
523.456543
 10
500.001068
 20
522.420227
 10
500.849792
 20
521.432922
 10
501.755249
 20
520.498169
 10
502.714966
 20
519.619019
 10
503.725922
 20
518.797852
 10
504.784637
 20
518.037354
 10
505.886902
 20
517.340454
 10
507.028564
 20
516.710205
 10
508.205444
 20
516.149353
 10
509.413391
 20
515.659912
 10
510.648438
 20
515.242737
 10
511.906586
 20
514.898682
 10
513.183594
 20
514.628784
 10
514.474182
 20
514.434143
 10
515.772339
 20
514.315979
 10
517.087158
 20
514.275574
  0
LWPOLYLINE
  5
D5
330
7B
100
AcDbEntity
  8
0
  6
Continuous
 62
     0
370
    30
100
AcDbPolyline
 90
       14
 70
     0
 43
0.0
 10
512.337463
 20
514.794434
 10
512.372498
 20
514.786682
 10
512.476074
 20
514.76416
 10
512.64563
 20
514.728455
 10
512.87854
 20
514.681824
 10
513.172058
 20
514.62677
 10
513.52124
 20
514.566467
 10
513.920715
 20
514.504578
 10
514.367188
 20
514.444397
 10
514.854431
 20
514.38916
 10
515.372681
 20
514.342468
 10
515.91925
 20
514.306702
 10
516.483948
 20
514.283875
 10
517.087158
 20
514.275574
  0
LWPOLYLINE
  5
D6
330
7B
100
AcDbEntity
  8
0
  6
Continuous
 62
     0
370
    30
100
AcDbPolyline
 90
       14
 70
     0
 43
0.0
 10
517.087158
 20
514.275574
 10
517.657898
 20
514.28302
 10
518.223206
 20
514.305054
 10
518.771118
 20
514.340088
 10
519.291077
 20
514.38623
 10
519.780334
 20
514.44104
 10
520.22937
 20
514.501099
 10
520.631592
 20
514.562988
 10
520.983765
 20
514.623413
 10
521.28064
 20
514.678894
 10
521.51709
 20
514.726013
 10
521.690369
 20
514.762451
 10
521.797729
 20
514.785828
 10
521.836914
 20
514.794434
  0
LWPOLYLINE
  5
D7
330
7B
100
AcDbEntity
  8
0
  6
Continuous
 62
     0
370
    30
100
AcDbPolyline
 90
       13
 70
     0
 43
0.0
 10
521.186829
 20
557.890198
 10
521.151428
 20
557.896912
 10
521.046875
 20
557.916382
 10
520.875916
 20
557.94696
 10
520.641418
 20
557.986572
 10
520.346741
 20
558.032715
 10
519.998047
 20
558.082153
 10
519.60022
 20
558.131592
 10
519.157654
 20
558.177917
 10
518.681091
 20
558.217773
 10
518.175354
 20
558.248535
 10
517.649231
 20
558.268372
 10
517.087219
 20
558.275574
  0
LWPOLYLINE
  5
D8
330
7B
100
AcDbEntity
  8
0
  6
Continuous
 62
     0
370
    30
100
AcDbPolyline
 90
       13
 70
     0
 43
0.0
 10
517.087219
 20
558.275574
 10
516.554077
 20
558.269043
 10
516.027283
 20
558.249939
 10
515.52002
 20
558.219727
 10
515.04187
 20
558.180298
 10
514.597107
 20
558.134216
 10
514.196716
 20
558.0849
 10
513.845215
 20
558.0354
 10
513.547485
 20
557.988953
 10
513.30957
 20
557.948914
 10
513.135132
 20
557.917786
 10
513.026917
 20
557.897644
 10
512.987488
 20
557.890198
  0
LINE
  5
D9
330
7B
100
AcDbEntity
  8
0
  6
Continuous
 62
     0
370
    30
100
AcDbLine
 10
517.087162
 20
565.605566
 30
0.0
 11
513.137162
 21
565.605566
 31
0.0
  0
LINE
  5
DA
330
7B
100
AcDbEntity
  8
0
  6
Continuous
 62
     0
370
    30
100
AcDbLine
 10
521.037162
 20
565.605566
 30
0.0
 11
517.087162
 21
565.605566
 31
0.0
  0
LINE
  5
DB
330
7B
100
AcDbEntity
  8
0
  6
Continuous
 62
     0
370
    30
100
AcDbLine
 10
517.087162
 20
566.105566
 30
0.0
 11
520.537209
 21
566.105566
 31
0.0
  0
LINE
  5
DC
330
7B
100
AcDbEntity
  8
0
  6
Continuous
 62
     0
370
    30
100
AcDbLine
 10
513.637115
 20
566.105566
 30
0.0
 11
517.087162
 21
566.105566
 31
0.0
  0
LINE
  5
DD
330
7B
100
AcDbEntity
  8
0
  6
Continuous
 62
     0
370
    30
100
AcDbLine
 10
513.637235
 20
566.105658
 30
0.0
 11
513.137104
 21
565.60553
 31
0.0
  0
LINE
  5
DE
330
7B
100
AcDbEntity
  8
0
  6
Continuous
 62
     0
370
    30
100
AcDbLine
 10
520.537089
 20
566.105658
 30
0.0
 11
521.03722
 21
565.60553
 31
0.0
  0
LINE
  5
DF
330
7B
100
AcDbEntity
  8
0
  6
Continuous
 62
     0
370
    30
100
AcDbLine
 10
513.137162
 20
565.605566
 30
0.0
 11
513.137162
 21
557.918386
 31
0.0
  0
LINE
  5
E0
330
7B
100
AcDbEntity
  8
0
  6
Continuous
 62
     0
370
    30
100
AcDbLine
 10
521.037162
 20
565.605566
 30
0.0
 11
521.037162
 21
557.91838
 31
0.0
  0
LINE
  5
E1
330
7B
100
AcDbEntity
  8
0
  6
Continuous
 62
     0
370
    30
100
AcDbLine
 10
547.087162
 20
786.275566
 30
0.0
 11
547.087162
 21
726.275566
 31
0.0
  0
LINE
  5
E2
330
7B
100
AcDbEntity
  8
0
  6
Continuous
 62
     0
370
    30
100
AcDbLine
 10
487.087162
 20
786.275566
 30
0.0
 11
547.087162
 21
786.275566
 31
0.0
  0
LINE
  5
E3
330
7B
100
AcDbEntity
  8
0
  6
Continuous
 62
     0
370
    30
100
AcDbLine
 10
487.087162
 20
726.275566
 30
0.0
 11
487.087162
 21
786.275566
 31
0.0
  0
LINE
  5
E4
330
7B
100
AcDbEntity
  8
0
  6
Continuous
 62
     0
370
    30
100
AcDbLine
 10
512.537007
 20
726.275566
 30
0.0
 11
487.087162
 21
726.275566
 31
0.0
  0
LINE
  5
E5
330
7B
100
AcDbEntity
  8
0
  6
Continuous
 62
     0
370
    30
100
AcDbLine
 10
547.087162
 20
726.275566
 30
0.0
 11
521.585611
 21
726.275566
 31
0.0
  0
LWPOLYLINE
  5
E6
330
7B
100
AcDbEntity
  8
0
  6
Continuous
 62
     0
370
     0
100
AcDbPolyline
 90
        2
 70
     0
 43
0.0
 10
517.098816
 20
769.859619
 10
517.098816
 20
769.822937
  0
LWPOLYLINE
  5
E7
330
7B
100
AcDbEntity
  8
0
  6
Continuous
 62
     0
370
    30
100
AcDbPolyline
 90
       40
 70
     0
 43
0.0
 10
517.098816
 20
769.822937
 10
516.124573
 20
769.784546
 10
515.154724
 20
769.669373
 10
514.195984
 20
769.479919
 10
513.2547
 20
769.218689
 10
512.335999
 20
768.888428
 10
511.444733
 20
768.491821
 10
510.585571
 20
768.031433
 10
509.762695
 20
767.509521
 10
508.98053
 20
766.92804
 10
508.244171
 20
766.289551
 10
507.558594
 20
765.596985
 10
506.927582
 20
764.854309
 10
506.352783
 20
764.066467
 10
505.835724
 20
763.23877
 10
505.37793
 20
762.376343
 10
504.980988
 20
761.484558
 10
504.646423
 20
760.567871
 10
504.375732
 20
759.630371
 10
504.170349
 20
758.676208
 10
504.032104
 20
757.7099
 10
503.963013
 20
756.73645
 10
503.964966
 20
755.76062
 10
504.037903
 20
754.787354
 10
504.17981
 20
753.821655
 10
504.388733
 20
752.868286
 10
504.662903
 20
751.931763
 10
505.000854
 20
751.016296
 10
505.401093
 20
750.125916
 10
505.862091
 20
749.265259
 10
506.382355
 20
748.439575
 10
506.960266
 20
747.654114
 10
507.59436
 20
746.914124
 10
508.282898
 20
746.224487
 10
509.021942
 20
745.589111
 10
509.806488
 20
745.010864
 10
510.63147
 20
744.49231
 10
511.492523
 20
744.035339
 10
512.385437
 20
743.642273
 10
513.326843
 20
743.309082
  0
LWPOLYLINE
  5
E8
330
7B
100
AcDbEntity
  8
0
  6
Continuous
 62
     0
370
    30
100
AcDbPolyline
 90
       40
 70
     0
 43
0.0
 10
517.098816
 20
769.822937
 10
518.073059
 20
769.782837
 10
519.042664
 20
769.666016
 10
520.001099
 20
769.474915
 10
520.941895
 20
769.212097
 10
521.860046
 20
768.880249
 10
522.75061
 20
768.482056
 10
523.608948
 20
768.020264
 10
524.430969
 20
767.496887
 10
525.212097
 20
766.914124
 10
525.947388
 20
766.274292
 10
526.631775
 20
765.580566
 10
527.261475
 20
764.836792
 10
527.8349
 20
764.048035
 10
528.350586
 20
763.21936
 10
528.806885
 20
762.356201
 10
529.202271
 20
761.463684
 10
529.535278
 20
760.546448
 10
529.804382
 20
759.608459
 10
530.008118
 20
758.653931
 10
530.144653
 20
757.687439
 10
530.212097
 20
756.713867
 10
530.208435
 20
755.738037
 10
530.13385
 20
754.764954
 10
529.990234
 20
753.799438
 10
529.779724
 20
752.846436
 10
529.503906
 20
751.9104
 10
529.164429
 20
750.995483
 10
528.762634
 20
750.105835
 10
528.30011
 20
749.245972
 10
527.778442
 20
748.421204
 10
527.199219
 20
747.636719
 10
526.563843
 20
746.897827
 10
525.874084
 20
746.209351
 10
525.133972
 20
745.575195
 10
524.34845
 20
744.998352
 10
523.522583
 20
744.481201
 10
522.660706
 20
744.025757
 10
521.767151
 20
743.634216
 10
520.825195
 20
743.302673
  0
LINE
  5
E9
330
7B
100
AcDbEntity
  8
0
  6
Continuous
 62
     0
370
     0
100
AcDbLine
 10
517.095278
 20
765.709294
 30
0.0
 11
517.098814
 21
769.822929
 31
0.0
  0
LWPOLYLINE
  5
EA
330
7B
100
AcDbEntity
  8
0
  6
Continuous
 62
     0
370
    30
100
AcDbPolyline
 90
       13
 70
     0
 43
0.0
 10
521.529846
 20
727.473511
 10
521.631958
 20
725.278015
 10
521.733398
 20
723.08313
 10
521.834412
 20
720.888916
 10
521.936218
 20
718.69519
 10
522.039734
 20
716.502075
 10
522.144775
 20
714.309265
 10
522.250977
 20
712.11676
 10
522.357239
 20
709.924255
 10
522.470337
 20
707.733459
 10
522.575867
 20
705.541565
 10
522.670227
 20
703.345581
 10
522.810303
 20
700.973816
  0
LWPOLYLINE
  5
EB
330
7B
100
AcDbEntity
  8
0
  6
Continuous
 62
     0
370
    30
100
AcDbPolyline
 90
        7
 70
     0
 43
0.0
 10
520.831787
 20
743.022461
 10
520.838196
 20
742.693237
 10
520.845398
 20
742.374023
 10
520.859314
 20
742.050049
 10
520.882812
 20
741.60437
 10
520.992676
 20
739.553772
 10
521.106628
 20
736.782654
  0
LINE
  5
EC
330
7B
100
AcDbEntity
  8
0
  6
Continuous
 62
     0
370
     0
100
AcDbLine
 10
517.09528
 20
765.709294
 30
0.0
 11
517.094818
 21
765.172097
 31
0.0
  0
LWPOLYLINE
  5
ED
330
7B
100
AcDbEntity
  8
0
  6
Continuous
 62
     0
370
    30
100
AcDbPolyline
 90
       23
 70
     0
 43
0.0
 10
517.094788
 20
765.172119
 10
517.868713
 20
765.133179
 10
518.637573
 20
765.017578
 10
519.393127
 20
764.829041
 10
520.126587
 20
764.571777
 10
520.831787
 20
764.24884
 10
521.50354
 20
763.862671
 10
522.136658
 20
763.416077
 10
522.725769
 20
762.912842
 10
523.265747
 20
762.357727
 10
523.751282
 20
761.755371
 10
524.179688
 20
761.111328
 10
524.549866
 20
760.431763
 10
524.861023
 20
759.7229
 10
525.111755
 20
758.990601
 10
525.30011
 20
758.240295
 10
525.424255
 20
757.477417
 10
525.482056
 20
756.707092
 10
525.471436
 20
755.934448
 10
525.392517
 20
755.165405
 10
525.247009
 20
754.406006
 10
525.037964
 20
753.660828
 10
524.760742
 20
752.926086
  0
ARC
  5
EE
330
7B
100
AcDbEntity
  8
0
  6
Continuous
 62
     0
370
    30
100
AcDbCircle
 10
516.641733
 20
756.360439
 30
0.0
 40
8.815473480407185
100
AcDbArc
 50
321.214036
 51
337.071565
  0
ARC
  5
EF
330
7B
100
AcDbEntity
  8
0
  6
Continuous
 62
     0
370
    30
100
AcDbCircle
 10
528.038778
 20
756.732018
 30
0.0
 40
7.430715894008305
100
AcDbArc
 50
232.481283
 51
235.927004
  0
ARC
  5
F0
330
7B
100
AcDbEntity
  8
0
  6
Continuous
 62
     0
370
    30
100
AcDbCircle
 10
506.136348
 20
756.750866
 30
0.0
 40
7.430715871324578
100
AcDbArc
 50
303.974384
 51
307.420105
  0
ARC
  5
F1
330
7B
100
AcDbEntity
  8
0
  6
Continuous
 62
     0
370
    30
100
AcDbCircle
 10
517.532822
 20
756.35973
 30
0.0
 40
8.815576211305457
100
AcDbArc
 50
202.826247
 51
218.687297
  0
LWPOLYLINE
  5
F2
330
7B
100
AcDbEntity
  8
0
  6
Continuous
 62
     0
370
    30
100
AcDbPolyline
 90
       23
 70
     0
 43
0.0
 10
517.094788
 20
765.172119
 10
516.320862
 20
765.134521
 10
515.551819
 20
765.020264
 10
514.796021
 20
764.833008
 10
514.062134
 20
764.577026
 10
513.356384
 20
764.25531
 10
512.68396
 20
763.870361
 10
512.05011
 20
763.424866
 10
511.460114
 20
762.922729
 10
510.91922
 20
762.36853
 10
510.432617
 20
761.76709
 10
510.003143
 20
761.123779
 10
509.631744
 20
760.444885
 10
509.319366
 20
759.736633
 10
509.067383
 20
759.004822
 10
508.877686
 20
758.254822
 10
508.752228
 20
757.492188
 10
508.693054
 20
756.722046
 10
508.702271
 20
755.949341
 10
508.779846
 20
755.180237
 10
508.923981
 20
754.420593
 10
509.131653
 20
753.675049
 10
509.407623
 20
752.939819
  0
LWPOLYLINE
  5
F3
330
7B
100
AcDbEntity
  8
0
  6
Continuous
 62
     0
370
    30
100
AcDbPolyline
 90
       13
 70
     0
 43
0.0
 10
523.513306
 20
750.838318
 10
523.034241
 20
750.291504
 10
522.549194
 20
749.750061
 10
522.085388
 20
749.190979
 10
521.661682
 20
748.600586
 10
521.290344
 20
747.974915
 10
520.978882
 20
747.316467
 10
520.730957
 20
746.631409
 10
520.546936
 20
745.927063
 10
520.42395
 20
745.210205
 10
520.354919
 20
744.486328
 10
520.328979
 20
743.759583
 10
520.332703
 20
742.978088
  0
LWPOLYLINE
  5
F4
330
7B
100
AcDbEntity
  8
0
  6
Continuous
 62
     0
370
     0
100
AcDbPolyline
 90
        5
 70
     0
 43
0.0
 10
520.332703
 20
742.978088
 10
520.524109
 20
742.981506
 10
520.685669
 20
742.991089
 10
520.794006
 20
743.005432
 10
520.832581
 20
743.022461
  0
LWPOLYLINE
  5
F5
330
7B
100
AcDbEntity
  8
0
  6
Continuous
 62
     0
370
     0
100
AcDbPolyline
 90
       20
 70
     0
 43
0.0
 10
520.332703
 20
742.978088
 10
520.429871
 20
740.769531
 10
520.528748
 20
738.563965
 10
520.629089
 20
736.356445
 10
520.728333
 20
734.148071
 10
520.827454
 20
731.940063
 10
520.928162
 20
729.733154
 10
521.030212
 20
727.527527
 10
521.132874
 20
725.322937
 10
521.235535
 20
723.118958
 10
521.338257
 20
720.9151
 10
521.441284
 20
718.71106
 10
521.545166
 20
716.507019
 10
521.650208
 20
714.303345
 10
521.756165
 20
712.100952
 10
521.862671
 20
709.900269
 10
521.969421
 20
707.701233
 10
522.080383
 20
705.501343
 10
522.187744
 20
703.295044
 10
522.317322
 20
700.988098
  0
LWPOLYLINE
  5
F6
330
7B
100
AcDbEntity
  8
0
  6
Continuous
 62
     0
370
     0
100
AcDbPolyline
 90
        5
 70
     0
 43
0.0
 10
522.317322
 20
700.988098
 10
522.494202
 20
700.993103
 10
522.647644
 20
700.993713
 10
522.75769
 20
700.989868
 10
522.81189
 20
700.981079
  0
LINE
  5
F7
330
7B
100
AcDbEntity
  8
0
  6
Continuous
 62
     0
370
     0
100
AcDbLine
 10
511.770944
 20
700.993894
 30
0.0
 11
522.317298
 21
700.988089
 31
0.0
  0
LINE
  5
F8
330
7B
100
AcDbEntity
  8
0
  6
Continuous
 62
     0
370
     0
100
AcDbLine
 10
524.760713
 20
752.926099
 30
0.0
 11
509.407635
 21
752.939836
 31
0.0
  0
LWPOLYLINE
  5
F9
330
7B
100
AcDbEntity
  8
0
  6
Continuous
 62
     0
370
    30
100
AcDbPolyline
 90
       13
 70
     0
 43
0.0
 10
510.651642
 20
750.849365
 10
511.134735
 20
750.296082
 10
511.614258
 20
749.758911
 10
512.077637
 20
749.198364
 10
512.500549
 20
748.606812
 10
512.870361
 20
747.980835
 10
513.180054
 20
747.323059
 10
513.426392
 20
746.638977
 10
513.609131
 20
745.935181
 10
513.731079
 20
745.218201
 10
513.799011
 20
744.494019
 10
513.823608
 20
743.766968
 10
513.818481
 20
742.983704
  0
LWPOLYLINE
  5
FA
330
7B
100
AcDbEntity
  8
0
  6
Continuous
 62
     0
370
     0
100
AcDbPolyline
 90
       25
 70
     0
 43
0.0
 10
513.818481
 20
742.983704
 10
513.768311
 20
741.232849
 10
513.679382
 20
739.483276
 10
513.584106
 20
737.733948
 10
513.494629
 20
735.984375
 10
513.411255
 20
734.234619
 10
513.330383
 20
732.484985
 10
513.249634
 20
730.735657
 10
513.167542
 20
728.986755
 10
513.084229
 20
727.238281
 10
513.000122
 20
725.490234
 10
512.915527
 20
723.742676
 10
512.830933
 20
721.995544
 10
512.746704
 20
720.248779
 10
512.662476
 20
718.502319
 10
512.578003
 20
716.756165
 10
512.493225
 20
715.010254
 10
512.407898
 20
713.264465
 10
512.321594
 20
711.518799
 10
512.231201
 20
709.773315
 10
512.136353
 20
708.028015
 10
512.052368
 20
706.281982
 10
511.985504
 20
704.534973
 10
511.891266
 20
702.789001
 10
511.770935
 20
700.993896
  0
LWPOLYLINE
  5
FB
330
7B
100
AcDbEntity
  8
0
  6
Continuous
 62
     0
370
     0
100
AcDbPolyline
 90
        5
 70
     0
 43
0.0
 10
511.26828
 20
700.985229
 10
511.306458
 20
700.994568
 10
511.414307
 20
700.999573
 10
511.576447
 20
700.99939
 10
511.770905
 20
700.993896
  0
LWPOLYLINE
  5
FC
330
7B
100
AcDbEntity
  8
0
  6
Continuous
 62
     0
370
     0
100
AcDbPolyline
 90
        6
 70
     0
 43
0.0
 10
511.770782
 20
700.993896
 10
511.770569
 20
700.830627
 10
511.770081
 20
700.681519
 10
511.769348
 20
700.562805
 10
511.768433
 20
700.488037
 10
511.767365
 20
700.465881
  0
ARC
  5
FD
330
7B
100
AcDbEntity
  8
0
  6
Continuous
 62
     0
370
     0
100
AcDbCircle
 10
502.22697
 20
700.853888
 30
0.0
 40
20.09012155068073
100
AcDbArc
 50
358.87678
 51
0.382668
  0
ARC
  5
FE
330
7B
100
AcDbEntity
  8
0
  6
Continuous
 62
     0
370
    30
100
AcDbCircle
 10
522.313719
 20
700.959542
 30
0.0
 40
0.4999244188712841
100
AcDbArc
 50
269.964686
 51
1.887148
  0
LINE
  5
FF
330
7B
100
AcDbEntity
  8
0
  6
Continuous
 62
     0
370
    30
100
AcDbLine
 10
522.313387
 20
700.459374
 30
0.0
 11
511.767519
 21
700.46521
 31
0.0
  0
ARC
  5
100
330
7B
100
AcDbEntity
  8
0
  6
Continuous
 62
     0
370
    30
100
AcDbCircle
 10
511.767346
 20
700.964999
 30
0.0
 40
0.499545347533362
100
AcDbArc
 50
177.678231
 51
270.022625
  0
LWPOLYLINE
  5
101
330
7B
100
AcDbEntity
  8
0
  6
Continuous
 62
     0
370
    30
100
AcDbPolyline
 90
       17
 70
     0
 43
0.0
 10
511.26828
 20
700.985291
 10
511.425751
 20
703.602844
 10
511.545013
 20
706.22168
 10
511.672821
 20
708.839783
 10
511.813263
 20
711.457092
 10
511.9487
 20
714.074524
 10
512.077637
 20
716.692505
 10
512.203064
 20
719.311035
 10
512.327759
 20
721.930298
 10
512.453613
 20
724.550354
 10
512.580261
 20
727.171326
 10
512.706116
 20
729.793274
 10
512.829529
 20
732.416199
 10
512.950134
 20
735.039917
 10
513.070923
 20
737.664062
 10
513.197266
 20
740.288086
 10
513.318909
 20
743.028809
  0
LWPOLYLINE
  5
102
330
7B
100
AcDbEntity
  8
0
  6
Continuous
 62
     0
370
    30
100
AcDbPolyline
 90
       15
 70
     0
 43
0.0
 10
510.288788
 20
750.58844
 10
510.685913
 20
750.135925
 10
511.092133
 20
749.691101
 10
511.489136
 20
749.237915
 10
511.863922
 20
748.766174
 10
512.206238
 20
748.270325
 10
512.508118
 20
747.748657
 10
512.764893
 20
747.203369
 10
512.973572
 20
746.637939
 10
513.132812
 20
746.05658
 10
513.243164
 20
745.464355
 10
513.307312
 20
744.868469
 10
513.334229
 20
744.266663
 10
513.334412
 20
743.664124
 10
513.31897
 20
743.028931
  0
LWPOLYLINE
  5
103
330
7B
100
AcDbEntity
  8
0
  6
Continuous
 62
     0
370
    30
100
AcDbPolyline
 90
       24
 70
     0
 43
0.0
 10
521.735229
 20
723.025024
 10
521.694458
 20
723.893433
 10
521.654053
 20
724.761902
 10
521.613953
 20
725.630554
 10
521.574158
 20
726.499268
 10
521.534607
 20
727.368164
 10
521.495361
 20
728.237122
 10
521.45636
 20
729.10614
 10
521.417419
 20
729.975342
 10
521.378418
 20
730.844604
 10
521.339172
 20
731.713928
 10
521.299561
 20
732.583313
 10
521.259583
 20
733.45282
 10
521.219299
 20
734.322327
 10
521.178894
 20
735.191833
 10
521.139038
 20
736.061462
 10
521.10083
 20
736.931213
 10
521.065125
 20
737.801025
 10
521.030396
 20
738.670898
 10
520.993835
 20
739.54071
 10
520.951111
 20
740.410156
 10
520.902161
 20
741.279297
 10
520.85553
 20
742.14856
 10
520.832581
 20
743.022461
  0
LWPOLYLINE
  5
104
330
7B
100
AcDbEntity
  8
0
  6
Continuous
 62
     0
370
    30
100
AcDbPolyline
 90
       16
 70
     0
 43
0.0
 10
520.832581
 20
743.022461
 10
520.819336
 20
743.584534
 10
520.817505
 20
744.146606
 10
520.837036
 20
744.708252
 10
520.886902
 20
745.267273
 10
520.974792
 20
745.819885
 10
521.104675
 20
746.366943
 10
521.277649
 20
746.901978
 10
521.493408
 20
747.421204
 10
521.750061
 20
747.92157
 10
522.044678
 20
748.40033
 10
522.372925
 20
748.856567
 10
522.727722
 20
749.292542
 10
523.100281
 20
749.713379
 10
523.480347
 20
750.127319
 10
523.875732
 20
750.576782
  0
LWPOLYLINE
  5
105
330
7B
100
AcDbEntity
  8
0
  6
Continuous
 62
     0
370
    30
100
AcDbPolyline
 90
       16
 70
     0
 43
0.0
 10
517.095276
 20
765.70929
 10
516.418396
 20
765.6698
 10
515.747009
 20
765.573181
 10
515.086365
 20
765.421814
 10
514.440186
 20
765.218201
 10
513.812073
 20
764.965088
 10
513.205505
 20
764.664429
 10
512.624023
 20
764.318237
 10
512.070984
 20
763.928467
 10
511.549988
 20
763.496948
 10
511.064178
 20
763.026245
 10
510.616211
 20
762.519348
 10
510.207825
 20
761.979919
 10
509.839905
 20
761.41156
 10
509.512726
 20
760.818115
 10
509.219055
 20
760.185669
  0
LWPOLYLINE
  5
106
330
7B
100
AcDbEntity
  8
0
  6
Continuous
 62
     0
370
    30
100
AcDbPolyline
 90
       14
 70
     0
 43
0.0
 10
510.288788
 20
750.588501
 10
509.851501
 20
751.225769
 10
509.471436
 20
751.898682
 10
509.149139
 20
752.600769
 10
508.884766
 20
753.326477
 10
508.678864
 20
754.070679
 10
508.532471
 20
754.828552
 10
508.446625
 20
755.595581
 10
508.422028
 20
756.366943
 10
508.458771
 20
757.137939
 10
508.555847
 20
757.903992
 10
508.712372
 20
758.661865
 10
508.926666
 20
759.406494
 10
509.219116
 20
760.185669
  0
LWPOLYLINE
  5
107
330
7B
100
AcDbEntity
  8
0
  6
Continuous
 62
     0
370
    30
100
AcDbPolyline
 90
       16
 70
     0
 43
0.0
 10
517.095276
 20
765.70929
 10
517.772095
 20
765.66864
 10
518.443298
 20
765.570862
 10
519.103699
 20
765.418335
 10
519.749512
 20
765.213623
 10
520.377197
 20
764.959412
 10
520.983215
 20
764.657715
 10
521.564148
 20
764.310547
 10
522.116516
 20
763.9198
 10
522.636719
 20
763.487366
 10
523.121765
 20
763.015869
 10
523.568848
 20
762.50824
 10
523.976318
 20
761.968018
 10
524.343262
 20
761.399109
 10
524.669434
 20
760.805115
 10
524.961975
 20
760.172119
  0
LWPOLYLINE
  5
108
330
7B
100
AcDbEntity
  8
0
  6
Continuous
 62
     0
370
    30
100
AcDbPolyline
 90
       14
 70
     0
 43
0.0
 10
523.875732
 20
750.576782
 10
524.314087
 20
751.213318
 10
524.695374
 20
751.88562
 10
525.01886
 20
752.587158
 10
525.284485
 20
753.312378
 10
525.491638
 20
754.056213
 10
525.639343
 20
754.813843
 10
525.726501
 20
755.580688
 10
525.752441
 20
756.35199
 10
525.717041
 20
757.123047
 10
525.621277
 20
757.889282
 10
525.466003
 20
758.647461
 10
525.253052
 20
759.392456
 10
524.961914
 20
760.172119
  0
LWPOLYLINE
  5
109
330
7B
100
AcDbEntity
  8
0
  6
Continuous
 62
     0
370
    30
100
AcDbPolyline
 90
        3
 70
     0
 43
0.0
 10
513.644958
 20
738.853149
 10
513.685669
 20
739.786377
 10
513.810547
 20
742.576538
  0
LWPOLYLINE
  5
10A
330
7B
100
AcDbEntity
  8
0
  6
Continuous
 62
     0
370
    30
100
AcDbPolyline
 90
        8
 70
     0
 43
0.0
 10
522.982666
 20
768.365112
 10
522.210266
 20
768.734192
 10
521.416321
 20
769.054871
 10
520.60321
 20
769.324768
 10
519.773804
 20
769.541016
 10
518.932007
 20
769.702881
 10
518.081482
 20
769.809204
 10
517.098877
 20
769.859619
  0
LWPOLYLINE
  5
10B
330
7B
100
AcDbEntity
  8
0
  6
Continuous
 62
     0
370
    30
100
AcDbPolyline
 90
        4
 70
     0
 43
0.0
 10
522.963501
 20
744.176636
 10
522.384888
 20
743.895813
 10
521.793701
 20
743.642029
 10
520.825378
 20
743.294861
  0
LWPOLYLINE
  5
10C
330
7B
100
AcDbEntity
  8
0
  6
Continuous
 62
     0
370
    30
100
AcDbPolyline
 90
        8
 70
     0
 43
0.0
 10
511.212494
 20
768.375244
 10
511.985504
 20
768.742981
 10
512.780029
 20
769.062317
 10
513.593628
 20
769.33075
 10
514.423401
 20
769.545654
 10
515.265442
 20
769.706055
 10
516.11615
 20
769.810913
 10
517.098816
 20
769.859619
  0
LWPOLYLINE
  5
10D
330
7B
100
AcDbEntity
  8
0
  6
Continuous
 62
     0
370
    30
100
AcDbPolyline
 90
        4
 70
     0
 43
0.0
 10
511.190002
 20
744.186768
 10
511.768158
 20
743.904907
 10
512.358887
 20
743.650146
 10
513.326599
 20
743.301331
  0
ENDBLK
  5
10F
330
7B
100
AcDbEntity
  8
0
100
AcDbBlockEnd
  0
BLOCK
  5
15E
330
111
100
AcDbEntity
  8
0
100
AcDbBlockBegin
  2
b
 70
     0
 10
438.267578
 20
321.290154
 30
0.0
  3
b
  1

  0
ARC
  5
112
330
111
100
AcDbEntity
  8
0
  6
Continuous
 62
     0
370
    30
100
AcDbCircle
 10
567.140798
 20
367.967122
 30
0.0
 40
0.6999999880773531
100
AcDbArc
 50
270.0
 51
359.7
  0
LINE
  5
113
330
111
100
AcDbEntity
  8
0
  6
Continuous
 62
     0
370
    30
100
AcDbLine
 10
567.840788
 20
367.963456
 30
0.0
 11
567.894215
 21
378.167122
 31
0.0
  0
LWPOLYLINE
  5
114
330
111
100
AcDbEntity
  8
0
  6
Continuous
 62
     0
370
    30
100
AcDbPolyline
 90
        6
 70
     0
 43
0.0
 10
567.894226
 20
378.167114
 10
567.861206
 20
378.167114
 10
567.765137
 20
378.167114
 10
567.615723
 20
378.167114
 10
567.424988
 20
378.167114
 10
567.194214
 20
378.167114
  0
LINE
  5
115
330
111
100
AcDbEntity
  8
0
  6
Continuous
 62
     0
370
     0
100
AcDbLine
 10
567.194225
 20
378.167122
 30
0.0
 11
567.140798
 21
367.963456
 31
0.0
  0
ARC
  5
116
330
111
100
AcDbEntity
  8
0
  6
Continuous
 62
     0
370
     0
100
AcDbCircle
 10
567.490792
 20
401.386404
 30
0.0
 40
33.42478041240572
100
AcDbArc
 50
269.40004
 51
270.599965
  0
LINE
  5
117
330
111
100
AcDbEntity
  8
0
  6
Continuous
 62
     0
370
    30
100
AcDbLine
 10
530.034553
 20
367.267122
 30
0.0
 11
567.140798
 21
367.267122
 31
0.0
  0
LINE
  5
118
330
111
100
AcDbEntity
  8
0
  6
Continuous
 62
     0
370
    30
100
AcDbLine
 10
467.033487
 20
367.267122
 30
0.0
 11
504.139771
 21
367.267122
 31
0.0
  0
LWPOLYLINE
  5
119
330
111
100
AcDbEntity
  8
0
  6
Continuous
 62
     0
370
     0
100
AcDbPolyline
 90
        6
 70
     0
 43
0.0
 10
567.140808
 20
367.26712
 10
567.140808
 20
367.303833
 10
567.140808
 20
367.403168
 10
567.140808
 20
367.544189
 10
567.140808
 20
367.733185
 10
567.140808
 20
367.96347
  0
LINE
  5
11A
330
111
100
AcDbEntity
  8
0
  6
Continuous
 62
     0
370
     0
100
AcDbLine
 10
504.581664
 20
367.963456
 30
0.0
 11
467.033487
 21
367.963456
 31
0.0
  0
LINE
  5
11B
330
111
100
AcDbEntity
  8
0
  6
Continuous
 62
     0
370
     0
100
AcDbLine
 10
567.140798
 20
367.963456
 30
0.0
 11
529.59266
 21
367.963456
 31
0.0
  0
LINE
  5
11C
330
111
100
AcDbEntity
  8
0
  6
Continuous
 62
     0
370
     0
100
AcDbLine
 10
467.033487
 20
367.963456
 30
0.0
 11
467.033487
 21
367.267122
 31
0.0
  0
ARC
  5
11D
330
111
100
AcDbEntity
  8
0
  6
Continuous
 62
     0
370
    30
100
AcDbCircle
 10
467.033487
 20
367.967122
 30
0.0
 40
0.6999999880805984
100
AcDbArc
 50
180.3
 51
270.0
  0
ARC
  5
11E
330
111
100
AcDbEntity
  8
0
  6
Continuous
 62
     0
370
     0
100
AcDbCircle
 10
466.683493
 20
401.386404
 30
0.0
 40
33.42478041235506
100
AcDbArc
 50
269.400035
 51
270.59996
  0
LINE
  5
11F
330
111
100
AcDbEntity
  8
0
  6
Continuous
 62
     0
370
     0
100
AcDbLine
 10
467.033487
 20
367.963456
 30
0.0
 11
466.98006
 21
378.167122
 31
0.0
  0
LINE
  5
120
330
111
100
AcDbEntity
  8
0
  6
Continuous
 62
     0
370
    30
100
AcDbLine
 10
466.98006
 20
378.167122
 30
0.0
 11
466.280069
 21
378.167122
 31
0.0
  0
LINE
  5
121
330
111
100
AcDbEntity
  8
0
  6
Continuous
 62
     0
370
    30
100
AcDbLine
 10
466.280069
 20
378.167122
 30
0.0
 11
466.333496
 21
367.963456
 31
0.0
  0
LINE
  5
122
330
111
100
AcDbEntity
  8
0
  6
Continuous
 62
     0
370
    30
100
AcDbLine
 10
487.087162
 20
378.167122
 30
0.0
 11
466.98006
 21
378.167122
 31
0.0
  0
LINE
  5
123
330
111
100
AcDbEntity
  8
0
  6
Continuous
 62
     0
370
    30
100
AcDbLine
 10
567.194225
 20
378.167122
 30
0.0
 11
547.087162
 21
378.167122
 31
0.0
  0
LINE
  5
124
330
111
100
AcDbEntity
  8
0
  6
Continuous
 62
     0
370
    30
100
AcDbLine
 10
504.751754
 20
364.047122
 30
0.0
 11
495.087162
 21
364.047123
 31
0.0
  0
LINE
  5
125
330
111
100
AcDbEntity
  8
0
  6
Continuous
 62
     0
370
    30
100
AcDbLine
 10
539.087162
 20
364.047123
 30
0.0
 11
529.422582
 21
364.047122
 31
0.0
  0
LINE
  5
126
330
111
100
AcDbEntity
  8
0
  6
Continuous
 62
     0
370
    30
100
AcDbLine
 10
538.587458
 20
314.047123
 30
0.0
 11
517.087162
 21
314.047122
 31
0.0
  0
LINE
  5
127
330
111
100
AcDbEntity
  8
0
  6
Continuous
 62
     0
370
    30
100
AcDbLine
 10
517.087162
 20
314.047122
 30
0.0
 11
495.586869
 21
314.047123
 31
0.0
  0
LWPOLYLINE
  5
128
330
111
100
AcDbEntity
  8
0
  6
Continuous
 62
     0
370
    30
100
AcDbPolyline
 90
       28
 70
     0
 43
0.0
 10
539.086792
 20
314.546722
 10
539.049255
 20
314.546661
 10
538.937195
 20
314.546509
 10
538.751526
 20
314.546265
 10
538.492981
 20
314.546021
 10
538.162476
 20
314.545807
 10
537.761108
 20
314.545654
 10
537.289978
 20
314.545593
 10
536.750305
 20
314.545593
 10
536.143738
 20
314.545685
 10
535.473022
 20
314.545868
 10
534.740845
 20
314.546112
 10
533.950073
 20
314.546387
 10
533.103149
 20
314.546692
 10
532.202148
 20
314.546967
 10
531.249512
 20
314.547089
 10
530.248413
 20
314.547058
 10
529.202332
 20
314.546814
 10
528.115112
 20
314.546478
 10
526.990845
 20
314.546112
 10
525.833313
 20
314.545807
 10
524.646362
 20
314.545624
 10
523.433716
 20
314.545593
 10
522.199097
 20
314.545715
 10
520.94635
 20
314.546021
 10
519.680725
 20
314.546448
 10
518.407959
 20
314.546844
 10
517.087158
 20
314.547119
  0
LWPOLYLINE
  5
129
330
111
100
AcDbEntity
  8
0
  6
Continuous
 62
     0
370
    30
100
AcDbPolyline
 90
       28
 70
     0
 43
0.0
 10
517.087158
 20
314.547119
 10
515.811829
 20
314.546844
 10
514.538879
 20
314.546448
 10
513.272888
 20
314.546021
 10
512.019592
 20
314.545715
 10
510.78421
 20
314.545593
 10
509.57074
 20
314.545624
 10
508.382812
 20
314.545807
 10
507.224182
 20
314.546112
 10
506.098633
 20
314.546448
 10
505.010071
 20
314.546814
 10
503.962433
 20
314.547058
 10
502.959625
 20
314.547089
 10
502.005249
 20
314.546967
 10
501.102356
 20
314.546692
 10
500.253448
 20
314.546417
 10
499.460632
 20
314.546112
 10
498.726379
 20
314.545868
 10
498.053406
 20
314.545685
 10
497.444519
 20
314.545593
 10
496.902405
 20
314.545593
 10
496.428833
 20
314.545654
 10
496.024933
 20
314.545807
 10
495.691864
 20
314.546021
 10
495.430756
 20
314.546265
 10
495.242462
 20
314.546478
 10
495.127808
 20
314.546661
 10
495.087555
 20
314.546722
  0
LWPOLYLINE
  5
12A
330
111
100
AcDbEntity
  8
0
  6
Continuous
 62
     0
370
     0
100
AcDbPolyline
 90
       25
 70
     0
 43
0.0
 10
517.087158
 20
327.147125
 10
517.621826
 20
327.111572
 10
518.150146
 20
327.00531
 10
518.658691
 20
326.832123
 10
519.138062
 20
326.597504
 10
519.583618
 20
326.30423
 10
519.984497
 20
325.951691
 10
520.33606
 20
325.549896
 10
520.633423
 20
325.106628
 10
520.870422
 20
324.626038
 10
521.043518
 20
324.11731
 10
521.149902
 20
323.591095
 10
521.186768
 20
323.056976
 10
521.152466
 20
322.522705
 10
521.048584
 20
321.996033
 10
520.877808
 20
321.486511
 10
520.643005
 20
321.00473
 10
520.347778
 20
320.559998
 10
519.998108
 20
320.156586
 10
519.598999
 20
319.802002
 10
519.154968
 20
319.506439
 10
518.676758
 20
319.269623
 10
518.169189
 20
319.094116
 10
517.641296
 20
318.985443
 10
517.087219
 20
318.94751
  0
LWPOLYLINE
  5
12B
330
111
100
AcDbEntity
  8
0
  6
Continuous
 62
     0
370
     0
100
AcDbPolyline
 90
       25
 70
     0
 43
0.0
 10
517.087219
 20
318.94751
 10
516.55249
 20
318.982849
 10
516.024109
 20
319.088989
 10
515.515564
 20
319.262146
 10
515.036255
 20
319.496826
 10
514.590698
 20
319.790192
 10
514.189819
 20
320.142761
 10
513.838318
 20
320.544556
 10
513.540955
 20
320.987885
 10
513.303955
 20
321.468445
 10
513.130859
 20
321.977173
 10
513.024475
 20
322.503418
 10
512.987488
 20
323.037537
 10
513.021851
 20
323.571808
 10
513.125793
 20
324.09848
 10
513.296631
 20
324.607971
 10
513.531494
 20
325.089752
 10
513.826721
 20
325.534485
 10
514.176331
 20
325.937927
 10
514.575439
 20
326.292542
 10
515.019531
 20
326.588074
 10
515.497803
 20
326.824799
 10
516.005432
 20
327.000244
 10
516.533264
 20
327.108978
 10
517.087158
 20
327.147125
  0
LWPOLYLINE
  5
12C
330
111
100
AcDbEntity
  8
0
  6
Continuous
 62
     0
370
    30
100
AcDbPolyline
 90
       10
 70
     0
 43
0.0
 10
513.272644
 20
324.072876
 10
513.441589
 20
324.568878
 10
513.675049
 20
325.037262
 10
513.96814
 20
325.470306
 10
514.315186
 20
325.861328
 10
514.71051
 20
326.20282
 10
515.148438
 20
326.488281
 10
515.622253
 20
326.71402
 10
516.12384
 20
326.876526
 10
516.675964
 20
326.975647
  0
LWPOLYLINE
  5
12D
330
111
100
AcDbEntity
  8
0
  6
Continuous
 62
     0
370
    30
100
AcDbPolyline
 90
       10
 70
     0
 43
0.0
 10
517.500061
 20
326.975494
 10
518.015198
 20
326.885284
 10
518.513306
 20
326.729218
 10
518.984985
 20
326.510864
 10
519.421997
 20
326.233734
 10
519.817993
 20
325.901245
 10
520.167175
 20
325.519409
 10
520.464294
 20
325.095612
 10
520.703735
 20
324.636383
 10
520.890808
 20
324.112274
  0
ARC
  5
12E
330
111
100
AcDbEntity
  8
0
  6
Continuous
 62
     0
370
    30
100
AcDbCircle
 10
517.087162
 20
323.047122
 30
0.0
 40
3.950000000000013
100
AcDbArc
 50
90.0
 51
269.999997
  0
ARC
  5
12F
330
111
100
AcDbEntity
  8
0
  6
Continuous
 62
     0
370
    30
100
AcDbCircle
 10
517.087162
 20
323.047122
 30
0.0
 40
3.949999999999978
100
AcDbArc
 50
269.999997
 51
90.0
  0
ARC
  5
130
330
111
100
AcDbEntity
  8
0
  6
Continuous
 62
     0
370
    30
100
AcDbCircle
 10
517.087209
 20
323.047122
 30
0.0
 40
3.450000000319434
100
AcDbArc
 50
269.99922
 51
90.00078
  0
ARC
  5
131
330
111
100
AcDbEntity
  8
0
  6
Continuous
 62
     0
370
    30
100
AcDbCircle
 10
517.087115
 20
323.047122
 30
0.0
 40
3.450000000319427
100
AcDbArc
 50
89.99922
 51
270.00078
  0
LINE
  5
132
330
111
100
AcDbEntity
  8
0
  6
Continuous
 62
     0
370
    30
100
AcDbLine
 10
539.087162
 20
364.047123
 30
0.0
 11
539.087162
 21
314.547122
 31
0.0
  0
LINE
  5
133
330
111
100
AcDbEntity
  8
0
  6
Continuous
 62
     0
370
    30
100
AcDbLine
 10
495.087162
 20
364.047123
 30
0.0
 11
495.087162
 21
314.547122
 31
0.0
  0
LINE
  5
134
330
111
100
AcDbEntity
  8
0
  6
Continuous
 62
     0
370
    30
100
AcDbLine
 10
538.58755
 20
314.047511
 30
0.0
 11
539.086864
 21
314.546825
 31
0.0
  0
LINE
  5
135
330
111
100
AcDbEntity
  8
0
  6
Continuous
 62
     0
370
    30
100
AcDbLine
 10
495.08746
 20
314.546825
 30
0.0
 11
495.586775
 21
314.04751
 31
0.0
  0
LINE
  5
136
330
111
100
AcDbEntity
  8
0
  6
Continuous
 62
     0
370
    30
100
AcDbLine
 10
536.087143
 20
367.267124
 30
0.0
 11
536.087143
 21
364.047123
 31
0.0
  0
LINE
  5
137
330
111
100
AcDbEntity
  8
0
  6
Continuous
 62
     0
370
    30
100
AcDbLine
 10
498.087143
 20
367.267124
 30
0.0
 11
498.087143
 21
364.047123
 31
0.0
  0
LINE
  5
138
330
111
100
AcDbEntity
  8
0
  6
Continuous
 62
     0
370
    30
100
AcDbLine
 10
547.087162
 20
378.167115
 30
0.0
 11
547.087162
 21
368.167115
 31
0.0
  0
LINE
  5
139
330
111
100
AcDbEntity
  8
0
  6
Continuous
 62
     0
370
    30
100
AcDbLine
 10
547.087162
 20
378.167115
 30
0.0
 11
487.087162
 21
378.167115
 31
0.0
  0
LINE
  5
13A
330
111
100
AcDbEntity
  8
0
  6
Continuous
 62
     0
370
    30
100
AcDbLine
 10
487.087162
 20
378.167115
 30
0.0
 11
487.087162
 21
368.167115
 31
0.0
  0
LINE
  5
13B
330
111
100
AcDbEntity
  8
0
  6
Continuous
 62
     0
370
    30
100
AcDbLine
 10
487.087162
 20
368.167115
 30
0.0
 11
547.087162
 21
368.167115
 31
0.0
  0
LINE
  5
13C
330
111
100
AcDbEntity
  8
0
  6
Continuous
 62
     0
370
     0
100
AcDbLine
 10
517.097985
 20
368.167116
 30
0.0
 11
517.098814
 21
366.900835
 31
0.0
  0
LWPOLYLINE
  5
13D
330
111
100
AcDbEntity
  8
0
  6
Continuous
 62
     0
370
    30
100
AcDbPolyline
 90
       22
 70
     0
 43
0.0
 10
517.098816
 20
366.900848
 10
516.105225
 20
366.900909
 10
515.116333
 20
366.901093
 10
514.139282
 20
366.901367
 10
513.180786
 20
366.901733
 10
512.246155
 20
366.90213
 10
511.340546
 20
366.902557
 10
510.468872
 20
366.903015
 10
509.635529
 20
366.903564
 10
508.845367
 20
366.904083
 10
508.10376
 20
366.904388
 10
507.415955
 20
366.904938
 10
506.7854
 20
366.905823
 10
506.213654
 20
366.906494
 10
505.702362
 20
366.906982
 10
505.253204
 20
366.907379
 10
504.867798
 20
366.907776
 10
504.547791
 20
366.908112
 10
504.294678
 20
366.908356
 10
504.110168
 20
366.908417
 10
503.996246
 20
366.908386
 10
503.954987
 20
366.908386
  0
LWPOLYLINE
  5
13E
330
111
100
AcDbEntity
  8
0
  6
Continuous
 62
     0
370
    30
100
AcDbPolyline
 90
       22
 70
     0
 43
0.0
 10
517.098816
 20
366.900848
 10
518.092346
 20
366.900909
 10
519.080994
 20
366.901093
 10
520.057739
 20
366.901367
 10
521.015808
 20
366.901733
 10
521.949829
 20
366.90213
 10
522.854736
 20
366.902557
 10
523.725586
 20
366.903015
 10
524.557983
 20
366.903564
 10
525.347107
 20
366.904083
 10
526.087585
 20
366.904388
 10
526.774109
 20
366.904938
 10
527.403381
 20
366.905823
 10
527.973755
 20
366.906494
 10
528.483521
 20
366.906982
 10
528.931152
 20
366.907379
 10
529.315002
 20
366.907776
 10
529.633362
 20
366.908112
 10
529.884827
 20
366.908356
 10
530.067688
 20
366.908417
 10
530.179871
 20
366.908386
 10
530.219299
 20
366.908386
  0
LWPOLYLINE
  5
13F
330
111
100
AcDbEntity
  8
0
  6
Continuous
 62
     0
370
    30
100
AcDbPolyline
 90
       15
 70
     0
 43
0.0
 10
511.427216
 20
343.041443
 10
511.462433
 20
343.040314
 10
511.566925
 20
343.040253
 10
511.738068
 20
343.040619
 10
511.973206
 20
343.040924
 10
512.269958
 20
343.041199
 10
512.625977
 20
343.041443
 10
513.038879
 20
343.041595
 10
513.505615
 20
343.041504
 10
514.020081
 20
343.041443
 10
514.575256
 20
343.041473
 10
515.164368
 20
343.041565
 10
515.780029
 20
343.041595
 10
516.41272
 20
343.041504
 10
517.092163
 20
343.04129
  0
LINE
  5
140
330
111
100
AcDbEntity
  8
0
  6
Continuous
 62
     0
370
     0
100
AcDbLine
 10
517.092188
 20
343.041298
 30
0.0
 11
517.098814
 21
366.900835
 31
0.0
  0
LWPOLYLINE
  5
141
330
111
100
AcDbEntity
  8
0
  6
Continuous
 62
     0
370
    30
100
AcDbPolyline
 90
       15
 70
     0
 43
0.0
 10
522.74707
 20
343.041412
 10
522.711609
 20
343.040314
 10
522.607117
 20
343.040283
 10
522.436218
 20
343.040619
 10
522.201538
 20
343.040924
 10
521.905396
 20
343.041199
 10
521.550232
 20
343.041443
 10
521.138245
 20
343.041595
 10
520.672607
 20
343.041504
 10
520.159363
 20
343.041443
 10
519.605408
 20
343.041473
 10
519.017639
 20
343.041565
 10
518.403259
 20
343.041595
 10
517.771851
 20
343.041504
 10
517.092163
 20
343.04129
  0
LWPOLYLINE
  5
142
330
111
100
AcDbEntity
  8
0
  6
Continuous
 62
     0
370
     0
100
AcDbPolyline
 90
       14
 70
     0
 43
0.0
 10
511.448578
 20
342.644592
 10
511.487946
 20
342.644592
 10
511.605621
 20
342.644592
 10
511.800323
 20
342.644592
 10
512.070068
 20
342.644592
 10
512.412109
 20
342.644592
 10
512.822998
 20
342.644592
 10
513.298157
 20
342.644592
 10
513.831787
 20
342.644592
 10
514.416931
 20
342.644592
 10
515.045044
 20
342.644592
 10
515.706543
 20
342.644592
 10
516.390869
 20
342.644592
 10
517.092224
 20
342.644592
  0
LINE
  5
143
330
111
100
AcDbEntity
  8
0
  6
Continuous
 62
     0
370
     0
100
AcDbLine
 10
517.092236
 20
342.644602
 30
0.0
 11
517.092188
 21
343.041298
 31
0.0
  0
LWPOLYLINE
  5
144
330
111
100
AcDbEntity
  8
0
  6
Continuous
 62
     0
370
    30
100
AcDbPolyline
 90
       18
 70
     0
 43
0.0
 10
517.095276
 20
328.562927
 10
516.256226
 20
328.589142
 10
515.425903
 20
328.608643
 10
514.614563
 20
328.639496
 10
513.829529
 20
328.679657
 10
513.07782
 20
328.727448
 10
512.366577
 20
328.781921
 10
511.702515
 20
328.842346
 10
511.091431
 20
328.90799
 10
510.537964
 20
328.977936
 10
510.045624
 20
329.0513
 10
509.616913
 20
329.127045
 10
509.25354
 20
329.204193
 10
508.956696
 20
329.281708
 10
508.727203
 20
329.358612
 10
508.565979
 20
329.434021
 10
508.473938
 20
329.507172
 10
508.453217
 20
329.581604
  0
LINE
  5
145
330
111
100
AcDbEntity
  8
0
  6
Continuous
 62
     0
370
     0
100
AcDbLine
 10
517.092236
 20
342.644602
 30
0.0
 11
517.09526
 21
328.562936
 31
0.0
  0
LINE
  5
146
330
111
100
AcDbEntity
  8
0
  6
Continuous
 62
     0
370
     0
100
AcDbLine
 10
511.268826
 20
328.180272
 30
0.0
 11
511.27307
 21
328.258602
 31
0.0
  0
ARC
  5
147
330
111
100
AcDbEntity
  8
0
  6
Continuous
 62
     0
370
     0
100
AcDbCircle
 10
511.689541
 20
327.816345
 30
0.0
 40
0.5562768307074129
100
AcDbArc
 50
128.699695
 51
139.139528
  0
ARC
  5
148
330
111
100
AcDbEntity
  8
0
  6
Continuous
 62
     0
370
    30
100
AcDbCircle
 10
522.489174
 20
327.921196
 30
0.0
 40
0.4126252566843018
100
AcDbArc
 50
38.893251
 51
50.537016
  0
LINE
  5
149
330
111
100
AcDbEntity
  8
0
  6
Continuous
 62
     0
370
    30
100
AcDbLine
 10
522.810327
 20
328.180272
 30
0.0
 11
522.806953
 21
328.242652
 31
0.0
  0
LWPOLYLINE
  5
14A
330
111
100
AcDbEntity
  8
0
  6
Continuous
 62
     0
370
    30
100
AcDbPolyline
 90
       18
 70
     0
 43
0.0
 10
517.095276
 20
328.562927
 10
517.933167
 20
328.589142
 10
518.762207
 20
328.608582
 10
519.572205
 20
328.639374
 10
520.355835
 20
328.679443
 10
521.10614
 20
328.727112
 10
521.81604
 20
328.781494
 10
522.478821
 20
328.841797
 10
523.088684
 20
328.907288
 10
523.640991
 20
328.977112
 10
524.132263
 20
329.050354
 10
524.560059
 20
329.126007
 10
524.922607
 20
329.203033
 10
525.218811
 20
329.280457
 10
525.447754
 20
329.357269
 10
525.608643
 20
329.432617
 10
525.7005
 20
329.505737
 10
525.721191
 20
329.580231
  0
LWPOLYLINE
  5
14B
330
111
100
AcDbEntity
  8
0
  6
Continuous
 62
     0
370
     0
100
AcDbPolyline
 90
       14
 70
     0
 43
0.0
 10
522.726807
 20
342.64444
 10
522.68689
 20
342.644287
 10
522.568542
 20
342.64444
 10
522.373535
 20
342.644653
 10
522.104126
 20
342.644806
 10
521.762878
 20
342.644806
 10
521.3526
 20
342.644653
 10
520.877258
 20
342.644531
 10
520.342712
 20
342.644745
 10
519.757263
 20
342.645111
 10
519.130005
 20
342.644409
 10
518.470398
 20
342.639984
 10
517.78833
 20
342.635254
 10
517.092224
 20
342.644592
  0
LINE
  5
14C
330
111
100
AcDbEntity
  8
0
  6
Continuous
 62
     0
370
     0
100
AcDbLine
 10
517.09526
 20
328.562936
 30
0.0
 11
517.094818
 21
327.912816
 31
0.0
  0
LWPOLYLINE
  5
14D
330
111
100
AcDbEntity
  8
0
  6
Continuous
 62
     0
370
     0
100
AcDbPolyline
 90
        6
 70
     0
 43
0.0
 10
521.949524
 20
328.156464
 10
522.020386
 20
328.063843
 10
522.091919
 20
327.973175
 10
522.160217
 20
327.884796
 10
522.237427
 20
327.799438
 10
522.317322
 20
327.71756
  0
ARC
  5
14E
330
111
100
AcDbEntity
  8
0
  6
Continuous
 62
     0
370
     0
100
AcDbCircle
 10
522.312491
 20
328.218356
 30
0.0
 40
0.500819974237728
100
AcDbArc
 50
270.549937
 51
355.668827
  0
LINE
  5
14F
330
111
100
AcDbEntity
  8
0
  6
Continuous
 62
     0
370
     0
100
AcDbLine
 10
511.770944
 20
327.654941
 30
0.0
 11
522.317298
 21
327.717558
 31
0.0
  0
LWPOLYLINE
  5
150
330
111
100
AcDbEntity
  8
0
  6
Continuous
 62
     0
370
     0
100
AcDbPolyline
 90
        8
 70
     0
 43
0.0
 10
512.185791
 20
328.161346
 10
512.125916
 20
328.086578
 10
512.071533
 20
328.012848
 10
512.026306
 20
327.940491
 10
511.984711
 20
327.869751
 10
511.930664
 20
327.800476
 10
511.856476
 20
327.732727
 10
511.770935
 20
327.654938
  0
ARC
  5
151
330
111
100
AcDbEntity
  8
0
  6
Continuous
 62
     0
370
     0
100
AcDbCircle
 10
511.768512
 20
328.155187
 30
0.0
 40
0.5002430847142536
100
AcDbArc
 50
177.132765
 51
270.275195
  0
LWPOLYLINE
  5
152
330
111
100
AcDbEntity
  8
0
  6
Continuous
 62
     0
370
    30
100
AcDbPolyline
 90
        2
 70
     0
 43
0.0
 10
522.812317
 20
328.180511
 10
522.812927
 20
328.243835
  0
ARC
  5
153
330
111
100
AcDbEntity
  8
0
  6
Continuous
 62
     0
370
    30
100
AcDbCircle
 10
511.767546
 20
328.154073
 30
0.0
 40
0.4997452191928942
100
AcDbArc
 50
176.896006
 51
270.368499
  0
LWPOLYLINE
  5
154
330
111
100
AcDbEntity
  8
0
  6
Continuous
 62
     0
370
    30
100
AcDbPolyline
 90
       46
 70
     0
 43
0.0
 10
517.094849
 20
327.911438
 10
516.779358
 20
327.915619
 10
516.464233
 20
327.921448
 10
516.150085
 20
327.928833
 10
515.837585
 20
327.937775
 10
515.5271
 20
327.948151
 10
515.219177
 20
327.959961
 10
514.914124
 20
327.973145
 10
514.612366
 20
327.98764
 10
514.31427
 20
328.003418
 10
514.020325
 20
328.020416
 10
513.730896
 20
328.038574
 10
513.446228
 20
328.057831
 10
513.166809
 20
328.078125
 10
512.892944
 20
328.099426
 10
512.625061
 20
328.121674
 10
512.363525
 20
328.144806
 10
512.108704
 20
328.168762
 10
511.860962
 20
328.193481
 10
511.620789
 20
328.218933
 10
511.388489
 20
328.245026
 10
511.164459
 20
328.271759
 10
510.949127
 20
328.298981
 10
510.742706
 20
328.326691
 10
510.545319
 20
328.354797
 10
510.357117
 20
328.383209
 10
510.178162
 20
328.411835
 10
510.008545
 20
328.440704
 10
509.848267
 20
328.469666
 10
509.697418
 20
328.498779
 10
509.555969
 20
328.527924
 10
509.424011
 20
328.557129
 10
509.301544
 20
328.586304
 10
509.188507
 20
328.615448
 10
509.084869
 20
328.644684
 10
508.990448
 20
328.674011
 10
508.905212
 20
328.703461
 10
508.828796
 20
328.733337
 10
508.76001
 20
328.764587
 10
508.697662
 20
328.798309
 10
508.639099
 20
328.837738
 10
508.579559
 20
328.890717
 10
508.514862
 20
328.977692
 10
508.450745
 20
329.131897
 10
508.421722
 20
329.358368
 10
508.4487
 20
329.570404
  0
LWPOLYLINE
  5
155
330
111
100
AcDbEntity
  8
0
  6
Continuous
 62
     0
370
    30
100
AcDbPolyline
 90
       47
 70
     0
 43
0.0
 10
517.094849
 20
327.911438
 10
517.403076
 20
327.915497
 10
517.710938
 20
327.921143
 10
518.017883
 20
327.928284
 10
518.323242
 20
327.93689
 10
518.626709
 20
327.946899
 10
518.927795
 20
327.958252
 10
519.226135
 20
327.970947
 10
519.521362
 20
327.984894
 10
519.81311
 20
328.000061
 10
520.101074
 20
328.016388
 10
520.384766
 20
328.033875
 10
520.663879
 20
328.052399
 10
520.938171
 20
328.07196
 10
521.207153
 20
328.092468
 10
521.470581
 20
328.113892
 10
521.728088
 20
328.136169
 10
521.979309
 20
328.159271
 10
522.223816
 20
328.183136
 10
522.461304
 20
328.207703
 10
522.691406
 20
328.232941
 10
522.913818
 20
328.258759
 10
523.128052
 20
328.285126
 10
523.333862
 20
328.311981
 10
523.531128
 20
328.339233
 10
523.719604
 20
328.366821
 10
523.899353
 20
328.394684
 10
524.07019
 20
328.42276
 10
524.232117
 20
328.450989
 10
524.385132
 20
328.47934
 10
524.529114
 20
328.507812
 10
524.664062
 20
328.536316
 10
524.789978
 20
328.564819
 10
524.906799
 20
328.593323
 10
525.014648
 20
328.621826
 10
525.113647
 20
328.650391
 10
525.203735
 20
328.679108
 10
525.285156
 20
328.707947
 10
525.358276
 20
328.737335
 10
525.424316
 20
328.768219
 10
525.484619
 20
328.801575
 10
525.541626
 20
328.841156
 10
525.599792
 20
328.895172
 10
525.663574
 20
328.983246
 10
525.725586
 20
329.137726
 10
525.752563
 20
329.36087
 10
525.725708
 20
329.569
  0
LINE
  5
156
330
111
100
AcDbEntity
  8
0
  6
Continuous
 62
     0
370
    30
100
AcDbLine
 10
522.72569
 20
342.64449
 30
0.0
 11
522.747366
 21
343.038734
 31
0.0
  0
LWPOLYLINE
  5
157
330
111
100
AcDbEntity
  8
0
  6
Continuous
 62
     0
370
    30
100
AcDbPolyline
 90
        7
 70
     0
 43
0.0
 10
525.721191
 20
329.580231
 10
525.164917
 20
331.69809
 10
524.626831
 20
333.821167
 10
524.112488
 20
335.950653
 10
523.627441
 20
338.087311
 10
523.177063
 20
340.231506
 10
522.726746
 20
342.644409
  0
LWPOLYLINE
  5
158
330
111
100
AcDbEntity
  8
0
  6
Continuous
 62
     0
370
    30
100
AcDbPolyline
 90
        7
 70
     0
 43
0.0
 10
508.453217
 20
329.581604
 10
509.009552
 20
331.699249
 10
509.547729
 20
333.822174
 10
510.062073
 20
335.951477
 10
510.547089
 20
338.087982
 10
510.997406
 20
340.232025
 10
511.44751
 20
342.644623
  0
LINE
  5
159
330
111
100
AcDbEntity
  8
0
  6
Continuous
 62
     0
370
    30
100
AcDbLine
 10
511.448579
 20
342.644602
 30
0.0
 11
511.427017
 21
343.037783
 31
0.0
  0
LWPOLYLINE
  5
15A
330
111
100
AcDbEntity
  8
0
  6
Continuous
 62
     0
370
    30
100
AcDbPolyline
 90
       51
 70
     0
 43
0.0
 10
530.218689
 20
366.908539
 10
530.087585
 20
366.424988
 10
529.955811
 20
365.941589
 10
529.822693
 20
365.458588
 10
529.687683
 20
364.976105
 10
529.550903
 20
364.49411
 10
529.412598
 20
364.012543
 10
529.272827
 20
363.531403
 10
529.131714
 20
363.05069
 10
528.989197
 20
362.570343
 10
528.845398
 20
362.090393
 10
528.700317
 20
361.61084
 10
528.554016
 20
361.131653
 10
528.406555
 20
360.652832
 10
528.257874
 20
360.174377
 10
528.108154
 20
359.696259
 10
527.957275
 20
359.218475
 10
527.805359
 20
358.741058
 10
527.652405
 20
358.263947
 10
527.498474
 20
357.78714
 10
527.343628
 20
357.310669
 10
527.187866
 20
356.834473
 10
527.03125
 20
356.358551
 10
526.873779
 20
355.882904
 10
526.715515
 20
355.407532
 10
526.556519
 20
354.932404
 10
526.396851
 20
354.45752
 10
526.236511
 20
353.982849
 10
526.075562
 20
353.508392
 10
525.91394
 20
353.034119
 10
525.75177
 20
352.560089
 10
525.58905
 20
352.086212
 10
525.425842
 20
351.612518
 10
525.262146
 20
351.139008
 10
525.098022
 20
350.665619
 10
524.933533
 20
350.192383
 10
524.768677
 20
349.719238
 10
524.603638
 20
349.246185
 10
524.438293
 20
348.773224
 10
524.272705
 20
348.300385
 10
524.106689
 20
347.827637
 10
523.940247
 20
347.355072
 10
523.773621
 20
346.882568
 10
523.6073
 20
346.409943
 10
523.441772
 20
345.937073
 10
523.275269
 20
345.464539
 10
523.106384
 20
344.992828
 10
522.943176
 20
344.519135
 10
522.805054
 20
344.037628
 10
522.727112
 20
343.543274
 10
522.747131
 20
343.041382
  0
LWPOLYLINE
  5
15B
330
111
100
AcDbEntity
  8
0
  6
Continuous
 62
     0
370
    30
100
AcDbPolyline
 90
       51
 70
     0
 43
0.0
 10
503.955658
 20
366.908539
 10
504.086731
 20
366.424988
 10
504.218506
 20
365.941589
 10
504.351654
 20
365.458588
 10
504.486664
 20
364.976105
 10
504.623413
 20
364.49411
 10
504.761719
 20
364.012543
 10
504.901489
 20
363.531403
 10
505.042633
 20
363.05069
 10
505.18512
 20
362.570343
 10
505.328918
 20
362.090424
 10
505.473999
 20
361.61084
 10
505.6203
 20
361.131653
 10
505.767792
 20
360.652832
 10
505.916443
 20
360.174377
 10
506.066193
 20
359.696259
 10
506.217072
 20
359.218506
 10
506.368988
 20
358.741058
 10
506.521912
 20
358.263947
 10
506.675842
 20
357.78717
 10
506.830688
 20
357.310669
 10
506.986481
 20
356.834473
 10
507.143097
 20
356.358582
 10
507.300568
 20
355.882935
 10
507.458801
 20
355.407562
 10
507.617798
 20
354.932434
 10
507.777466
 20
354.45752
 10
507.937805
 20
353.982849
 10
508.098785
 20
353.508392
 10
508.260376
 20
353.034149
 10
508.422546
 20
352.560089
 10
508.585266
 20
352.086243
 10
508.748474
 20
351.612549
 10
508.912201
 20
351.139038
 10
509.076294
 20
350.665649
 10
509.240814
 20
350.192413
 10
509.405609
 20
349.719269
 10
509.570709
 20
349.246216
 10
509.736053
 20
348.773254
 10
509.901642
 20
348.300415
 10
510.067627
 20
347.827667
 10
510.23407
 20
347.355103
 10
510.400696
 20
346.882599
 10
510.567017
 20
346.409973
 10
510.732544
 20
345.937103
 10
510.899048
 20
345.464569
 10
511.067932
 20
344.992859
 10
511.23114
 20
344.519165
 10
511.369263
 20
344.037689
 10
511.447235
 20
343.543335
 10
511.427185
 20
343.041412
  0
LWPOLYLINE
  5
15C
330
111
100
AcDbEntity
  8
0
  6
Continuous
 62
     0
370
    30
100
AcDbPolyline
 90
       13
 70
     0
 43
0.0
 10
530.21936
 20
366.908386
 10
530.157898
 20
367.029083
 10
530.096069
 20
367.149567
 10
530.033264
 20
367.269562
 10
529.969055
 20
367.388824
 10
529.903015
 20
367.50705
 10
529.834229
 20
367.623749
 10
529.761841
 20
367.73822
 10
529.684448
 20
367.849335
 10
529.599915
 20
367.95517
 10
529.504944
 20
368.051636
 10
529.39447
 20
368.129608
 10
529.252869
 20
368.167114
  0
LWPOLYLINE
  5
15D
330
111
100
AcDbEntity
  8
0
  6
Continuous
 62
     0
370
    30
100
AcDbPolyline
 90
       13
 70
     0
 43
0.0
 10
503.954987
 20
366.908386
 10
504.016388
 20
367.029083
 10
504.078278
 20
367.149567
 10
504.141083
 20
367.269562
 10
504.205231
 20
367.388855
 10
504.271332
 20
367.50705
 10
504.340088
 20
367.623749
 10
504.412476
 20
367.73822
 10
504.489868
 20
367.849335
 10
504.574402
 20
367.9552
 10
504.669373
 20
368.051636
 10
504.779846
 20
368.129608
 10
504.921478
 20
368.167114
  0
ENDBLK
  5
15F
330
111
100
AcDbEntity
  8
0
100
AcDbBlockEnd
  0
BLOCK
  5
206
330
161
100
AcDbEntity
  8
0
100
AcDbBlockBegin
  2
c
 70
     0
 10
465.623779
 20
113.967461
 30
0.0
  3
c
  1

  0
LINE
  5
162
330
161
100
AcDbEntity
  8
0
  6
Continuous
 62
     0
370
    30
100
AcDbLine
 10
677.109323
 20
686.275597
 30
0.0
 11
687.109323
 21
686.275597
 31
0.0
  0
LINE
  5
163
330
161
100
AcDbEntity
  8
0
  6
Continuous
 62
     0
370
    30
100
AcDbLine
 10
677.109323
 20
686.275597
 30
0.0
 11
677.109323
 21
626.275597
 31
0.0
  0
LINE
  5
164
330
161
100
AcDbEntity
  8
0
  6
Continuous
 62
     0
370
    30
100
AcDbLine
 10
677.109323
 20
626.275597
 30
0.0
 11
687.109323
 21
626.275597
 31
0.0
  0
LINE
  5
165
330
161
100
AcDbEntity
  8
0
  6
Continuous
 62
     0
370
    30
100
AcDbLine
 10
687.109323
 20
626.275597
 30
0.0
 11
687.109323
 21
686.275597
 31
0.0
  0
ARC
  5
166
330
161
100
AcDbEntity
  8
0
  6
Continuous
 62
     0
370
    30
100
AcDbCircle
 10
688.109322
 20
668.859064
 30
0.0
 40
0.9999999391824794
100
AcDbArc
 50
74.556964
 51
179.999985
  0
ARC
  5
167
330
161
100
AcDbEntity
  8
0
  6
Continuous
 62
     0
370
     0
100
AcDbCircle
 10
688.109322
 20
643.692028
 30
0.0
 40
0.9999999387330365
100
AcDbArc
 50
180.000015
 51
285.443036
  0
LWPOLYLINE
  5
168
330
161
100
AcDbEntity
  8
0
  6
Continuous
 62
     0
370
    30
100
AcDbPolyline
 90
       43
 70
     0
 43
0.0
 10
688.37561
 20
669.822937
 10
688.375549
 20
669.782837
 10
688.375366
 20
669.662659
 10
688.375061
 20
669.464966
 10
688.374695
 20
669.192627
 10
688.374329
 20
668.848328
 10
688.373901
 20
668.43512
 10
688.373413
 20
667.955688
 10
688.372864
 20
667.412231
 10
688.372375
 20
666.807068
 10
688.37207
 20
666.142883
 10
688.37146
 20
665.423096
 10
688.370605
 20
664.6521
 10
688.369934
 20
663.835449
 10
688.369446
 20
662.978638
 10
688.369019
 20
662.087341
 10
688.368652
 20
661.166992
 10
688.368347
 20
660.222168
 10
688.368103
 20
659.257202
 10
688.368042
 20
658.276611
 10
688.368042
 20
657.285522
 10
688.368042
 20
656.289124
 10
688.368042
 20
655.292603
 10
688.368042
 20
654.30127
 10
688.368103
 20
653.320312
 10
688.368286
 20
652.354858
 10
688.368652
 20
651.409363
 10
688.369019
 20
650.48822
 10
688.369446
 20
649.596008
 10
688.369934
 20
648.738159
 10
688.370605
 20
647.920349
 10
688.37146
 20
647.148071
 10
688.37207
 20
646.42688
 10
688.372375
 20
645.761108
 10
688.372864
 20
645.154358
 10
688.373413
 20
644.609192
 10
688.373901
 20
644.12793
 10
688.374329
 20
643.71283
 10
688.374695
 20
643.366638
 10
688.375
 20
643.092285
 10
688.375305
 20
642.892578
 10
688.375549
 20
642.770325
 10
688.37561
 20
642.728149
  0
LWPOLYLINE
  5
169
330
161
100
AcDbEntity
  8
0
  6
Continuous
 62
     0
370
    30
100
AcDbPolyline
 90
       52
 70
     0
 43
0.0
 10
688.37561
 20
642.728149
 10
688.849548
 20
642.86084
 10
689.323303
 20
642.994141
 10
689.796692
 20
643.128723
 10
690.269592
 20
643.265198
 10
690.741943
 20
643.403442
 10
691.213928
 20
643.543274
 10
691.685425
 20
643.68457
 10
692.156555
 20
643.827209
 10
692.627319
 20
643.97113
 10
693.097717
 20
644.116333
 10
693.567688
 20
644.262756
 10
694.037354
 20
644.410461
 10
694.506592
 20
644.559326
 10
694.975464
 20
644.709412
 10
695.444031
 20
644.860596
 10
695.912231
 20
645.012878
 10
696.380127
 20
645.16626
 10
696.847717
 20
645.320618
 10
697.314941
 20
645.475952
 10
697.781921
 20
645.632202
 10
698.248535
 20
645.789429
 10
698.714966
 20
645.947449
 10
699.18103
 20
646.106323
 10
699.646912
 20
646.265991
 10
700.112488
 20
646.426453
 10
700.577881
 20
646.587524
 10
701.042969
 20
646.749329
 10
701.507935
 20
646.911804
 10
701.972595
 20
647.074829
 10
702.437134
 20
647.238464
 10
702.901428
 20
647.402649
 10
703.365601
 20
647.567383
 10
703.82959
 20
647.732544
 10
704.293396
 20
647.898193
 10
704.75708
 20
648.06427
 10
705.220703
 20
648.230652
 10
705.684143
 20
648.397339
 10
706.147522
 20
648.564392
 10
706.61084
 20
648.731628
 10
707.074036
 20
648.899109
 10
707.537109
 20
649.066956
 10
708.000061
 20
649.235107
 10
708.462952
 20
649.403442
 10
708.925964
 20
649.571594
 10
709.389221
 20
649.739258
 10
709.852112
 20
649.907532
 10
710.314087
 20
650.078125
 10
710.778748
 20
650.242432
 10
711.25177
 20
650.380615
 10
711.737427
 20
650.457397
 10
712.233948
 20
650.435669
  0
ARC
  5
16A
330
161
100
AcDbEntity
  8
0
  6
Continuous
 62
     0
370
     0
100
AcDbCircle
 10
734.78229
 20
650.70144
 30
0.0
 40
22.54990551059646
100
AcDbArc
 50
179.171026
 51
180.675319
  0
ARC
  5
16B
330
161
100
AcDbEntity
  8
0
  6
Continuous
 62
     0
370
     0
100
AcDbCircle
 10
694.121977
 20
651.18462
 30
0.0
 40
18.11344814683928
100
AcDbArc
 50
359.503591
 51
0.649836
  0
LWPOLYLINE
  5
16C
330
161
100
AcDbEntity
  8
0
  6
Continuous
 62
     0
370
     0
100
AcDbPolyline
 90
        3
 70
     0
 43
0.0
 10
712.234253
 20
651.390076
 10
712.226318
 20
651.767761
 10
712.228821
 20
652.273438
  0
LINE
  5
16D
330
161
100
AcDbEntity
  8
0
  6
Continuous
 62
     0
370
     0
100
AcDbLine
 10
712.228821
 20
652.27343
 30
0.0
 11
712.239143
 21
652.782665
 31
0.0
  0
LWPOLYLINE
  5
16E
330
161
100
AcDbEntity
  8
0
  6
Continuous
 62
     0
370
    30
100
AcDbPolyline
 90
       21
 70
     0
 43
0.0
 10
712.239136
 20
652.782654
 10
712.241333
 20
653.318298
 10
712.236389
 20
653.889526
 10
712.231384
 20
654.487976
 10
712.230835
 20
655.10553
 10
712.232971
 20
655.735413
 10
712.235291
 20
656.371216
 10
712.236206
 20
657.006287
 10
712.236145
 20
657.633484
 10
712.235779
 20
658.245728
 10
712.235474
 20
658.835876
 10
712.235229
 20
659.39679
 10
712.234985
 20
659.921326
 10
712.234863
 20
660.402039
 10
712.234924
 20
660.832092
 10
712.234985
 20
661.207031
 10
712.234924
 20
661.522705
 10
712.234863
 20
661.77533
 10
712.234863
 20
661.960815
 10
712.234924
 20
662.0755
 10
712.235168
 20
662.11554
  0
LINE
  5
16F
330
161
100
AcDbEntity
  8
0
  6
Continuous
 62
     0
370
     0
100
AcDbLine
 10
712.631836
 20
652.564581
 30
0.0
 11
712.631836
 21
662.171926
 31
0.0
  0
LINE
  5
170
330
161
100
AcDbEntity
  8
0
  6
Continuous
 62
     0
370
    30
100
AcDbLine
 10
712.631836
 20
662.171926
 30
0.0
 11
712.279942
 21
662.121914
 31
0.0
  0
LINE
  5
171
330
161
100
AcDbEntity
  8
0
  6
Continuous
 62
     0
370
     0
100
AcDbLine
 10
712.239178
 20
652.782735
 30
0.0
 11
712.631836
 21
652.564581
 31
0.0
  0
LWPOLYLINE
  5
172
330
161
100
AcDbEntity
  8
0
  6
Continuous
 62
     0
370
    30
100
AcDbPolyline
 90
       62
 70
     0
 43
0.0
 10
712.234802
 20
651.027832
 10
712.739258
 20
650.898315
 10
713.021973
 20
650.807495
 10
713.241394
 20
650.724121
 10
713.420227
 20
650.645874
 10
713.569641
 20
650.572144
 10
713.696777
 20
650.502625
 10
713.806824
 20
650.436523
 10
713.904236
 20
650.372864
 10
713.992798
 20
650.310181
 10
714.075623
 20
650.246887
 10
714.155518
 20
650.181396
 10
714.234497
 20
650.112244
 10
714.313965
 20
650.038208
 10
714.394592
 20
649.958862
 10
714.476257
 20
649.874207
 10
714.558044
 20
649.7854
 10
714.638489
 20
649.694092
 10
714.716003
 20
649.602295
 10
714.789124
 20
649.511841
 10
714.857056
 20
649.424072
 10
714.919617
 20
649.339111
 10
714.977539
 20
649.256226
 10
715.031921
 20
649.174011
 10
715.083923
 20
649.091003
 10
715.134521
 20
649.006104
 10
715.184082
 20
648.919128
 10
715.232544
 20
648.830444
 10
715.279602
 20
648.740784
 10
715.324707
 20
648.651001
 10
715.367676
 20
648.561707
 10
715.408203
 20
648.473206
 10
715.446411
 20
648.385681
 10
715.4823
 20
648.299194
 10
715.516052
 20
648.213745
 10
715.547791
 20
648.129211
 10
715.577759
 20
648.045288
 10
715.606262
 20
647.961182
 10
715.633667
 20
647.875916
 10
715.660339
 20
647.788208
 10
715.686584
 20
647.696716
 10
715.712646
 20
647.600464
 10
715.738525
 20
647.498779
 10
715.763977
 20
647.391296
 10
715.788696
 20
647.278015
 10
715.812317
 20
647.15918
 10
715.834412
 20
647.034851
 10
715.854614
 20
646.905273
 10
715.87262
 20
646.770386
 10
715.888245
 20
646.630127
 10
715.901245
 20
646.484558
 10
715.911682
 20
646.333435
 10
715.919434
 20
646.17688
 10
715.924438
 20
646.014587
 10
715.926453
 20
645.84613
 10
715.924744
 20
645.670044
 10
715.91803
 20
645.483704
 10
715.90448
 20
645.282349
 10
715.881958
 20
645.057739
 10
715.850403
 20
644.794556
 10
715.81488
 20
644.45343
 10
715.781311
 20
643.87262
  0
ARC
  5
173
330
161
100
AcDbEntity
  8
0
  6
Continuous
 62
     0
370
    30
100
AcDbCircle
 10
714.483407
 20
626.462174
 30
0.0
 40
17.4587344952978
100
AcDbArc
 50
84.192268
 51
85.736595
  0
LWPOLYLINE
  5
174
330
161
100
AcDbEntity
  8
0
  6
Continuous
 62
     0
370
    30
100
AcDbPolyline
 90
       68
 70
     0
 43
0.0
 10
716.250061
 20
643.831299
 10
716.399536
 20
644.456543
 10
716.470032
 20
644.844849
 10
716.511108
 20
645.146606
 10
716.536804
 20
645.404602
 10
716.552368
 20
645.635071
 10
716.560242
 20
645.847046
 10
716.561707
 20
646.046021
 10
716.557678
 20
646.235352
 10
716.548523
 20
646.417053
 10
716.53479
 20
646.592163
 10
716.516846
 20
646.76123
 10
716.495239
 20
646.924377
 10
716.470337
 20
647.081726
 10
716.442627
 20
647.233337
 10
716.412537
 20
647.379395
 10
716.380432
 20
647.52002
 10
716.34668
 20
647.655212
 10
716.311707
 20
647.785034
 10
716.27594
 20
647.909424
 10
716.239746
 20
648.028259
 10
716.20343
 20
648.141479
 10
716.167419
 20
648.249023
 10
716.131775
 20
648.351135
 10
716.096436
 20
648.448425
 10
716.061279
 20
648.541687
 10
716.02594
 20
648.631897
 10
715.990112
 20
648.720154
 10
715.953247
 20
648.807556
 10
715.9151
 20
648.894897
 10
715.875244
 20
648.982666
 10
715.833618
 20
649.071289
 10
715.789978
 20
649.160706
 10
715.744202
 20
649.250916
 10
715.69635
 20
649.34198
 10
715.64624
 20
649.433716
 10
715.593994
 20
649.52594
 10
715.539917
 20
649.618286
 10
715.484314
 20
649.710144
 10
715.427612
 20
649.800903
 10
715.370178
 20
649.889893
 10
715.312073
 20
649.976868
 10
715.253052
 20
650.062134
 10
715.192322
 20
650.146484
 10
715.128906
 20
650.231079
 10
715.061768
 20
650.317383
 10
714.990173
 20
650.406311
 10
714.91394
 20
650.498291
 10
714.833374
 20
650.592773
 10
714.749573
 20
650.688721
 10
714.663879
 20
650.784546
 10
714.57782
 20
650.878601
 10
714.492615
 20
650.969604
 10
714.409119
 20
651.056702
 10
714.327759
 20
651.139587
 10
714.248169
 20
651.218811
 10
714.169434
 20
651.295349
 10
714.090149
 20
651.370605
 10
714.008606
 20
651.446228
 10
713.922668
 20
651.524292
 10
713.829773
 20
651.606812
 10
713.727173
 20
651.696045
 10
713.611755
 20
651.794312
 10
713.479919
 20
651.904175
 10
713.327148
 20
652.028564
 10
713.146423
 20
652.171814
 10
712.926086
 20
652.339966
 10
712.623962
 20
652.552307
  0
LINE
  5
175
330
161
100
AcDbEntity
  8
0
  6
Continuous
 62
     0
370
    30
100
AcDbLine
 10
712.329542
 20
650.421085
 30
0.0
 11
712.233951
 21
650.43566
 31
0.0
  0
LWPOLYLINE
  5
176
330
161
100
AcDbEntity
  8
0
  6
Continuous
 62
     0
370
    30
100
AcDbPolyline
 90
       57
 70
     0
 43
0.0
 10
715.781433
 20
643.874573
 10
715.80127
 20
644.362305
 10
715.821594
 20
644.665344
 10
715.836243
 20
644.900208
 10
715.845581
 20
645.100891
 10
715.850647
 20
645.280334
 10
715.852173
 20
645.44574
 10
715.850586
 20
645.601562
 10
715.846313
 20
645.750793
 10
715.839539
 20
645.895081
 10
715.830444
 20
646.035339
 10
715.819275
 20
646.171814
 10
715.806091
 20
646.304626
 10
715.791077
 20
646.433655
 10
715.774292
 20
646.558716
 10
715.755859
 20
646.67981
 10
715.736023
 20
646.796997
 10
715.714783
 20
646.910156
 10
715.692505
 20
647.019287
 10
715.669312
 20
647.124329
 10
715.645569
 20
647.224915
 10
715.62146
 20
647.320923
 10
715.597412
 20
647.411865
 10
715.57373
 20
647.497437
 10
715.550598
 20
647.577576
 10
715.528198
 20
647.652283
 10
715.506653
 20
647.721741
 10
715.485718
 20
647.78656
 10
715.46521
 20
647.847717
 10
715.444702
 20
647.906372
 10
715.423706
 20
647.963745
 10
715.401794
 20
648.021118
 10
715.378418
 20
648.079712
 10
715.353333
 20
648.140259
 10
715.326294
 20
648.203125
 10
715.29718
 20
648.268372
 10
715.266174
 20
648.335693
 10
715.233276
 20
648.404541
 10
715.198608
 20
648.474426
 10
715.16217
 20
648.544983
 10
715.123901
 20
648.616028
 10
715.08374
 20
648.687439
 10
715.041443
 20
648.759094
 10
714.997009
 20
648.831116
 10
714.950195
 20
648.903381
 10
714.900757
 20
648.975891
 10
714.848267
 20
649.048889
 10
714.792297
 20
649.122559
 10
714.732056
 20
649.197266
 10
714.667053
 20
649.273376
 10
714.596741
 20
649.350952
 10
714.520935
 20
649.429749
 10
714.439575
 20
649.509338
 10
714.3526
 20
649.588989
 10
714.259827
 20
649.668091
 10
714.160278
 20
649.746216
 10
714.050293
 20
649.82489
  0
LWPOLYLINE
  5
177
330
161
100
AcDbEntity
  8
0
  6
Continuous
 62
     0
370
    30
100
AcDbPolyline
 90
        6
 70
     0
 43
0.0
 10
724.309509
 20
650.821655
 10
722.049194
 20
651.241089
 10
719.776489
 20
651.631897
 10
717.488892
 20
651.985229
 10
715.18512
 20
652.291992
 10
712.631836
 20
652.564575
  0
LINE
  5
178
330
161
100
AcDbEntity
  8
0
  6
Continuous
 62
     0
370
     0
100
AcDbLine
 10
725.320715
 20
650.626475
 30
0.0
 11
724.309492
 21
650.821653
 31
0.0
  0
LWPOLYLINE
  5
179
330
161
100
AcDbEntity
  8
0
  6
Continuous
 62
     0
370
    30
100
AcDbPolyline
 90
       28
 70
     0
 43
0.0
 10
726.713501
 20
665.685791
 10
726.68866
 20
665.637878
 10
726.673035
 20
665.525146
 10
726.648193
 20
665.345093
 10
726.615295
 20
665.101318
 10
726.575928
 20
664.797241
 10
726.530884
 20
664.435486
 10
726.480713
 20
664.018433
 10
726.425964
 20
663.549561
 10
726.367188
 20
663.032776
 10
726.304993
 20
662.472351
 10
726.23999
 20
661.872986
 10
726.172974
 20
661.239319
 10
726.104553
 20
660.576111
 10
726.035522
 20
659.887939
 10
725.966553
 20
659.179382
 10
725.898376
 20
658.454773
 10
725.831543
 20
657.718384
 10
725.766602
 20
656.974365
 10
725.703979
 20
656.226807
 10
725.644043
 20
655.479797
 10
725.587097
 20
654.737488
 10
725.533386
 20
654.004272
 10
725.483215
 20
653.284729
 10
725.436707
 20
652.583557
 10
725.393982
 20
651.905396
 10
725.355408
 20
651.255432
 10
725.32074
 20
650.626465
  0
ARC
  5
17A
330
161
100
AcDbEntity
  8
0
  6
Continuous
 62
     0
370
     0
100
AcDbCircle
 10
658.82751
 20
879.289729
 30
0.0
 40
224.1319669404346
100
AcDbArc
 50
287.219969
 51
287.630907
  0
ARC
  5
17B
330
161
100
AcDbEntity
  8
0
  6
Continuous
 62
     0
370
     0
100
AcDbCircle
 10
704.576495
 20
717.290145
 30
0.0
 40
55.70373920404678
100
AcDbArc
 50
278.31472
 51
279.81426
  0
LWPOLYLINE
  5
17C
330
161
100
AcDbEntity
  8
0
  6
Continuous
 62
     0
370
    30
100
AcDbPolyline
 90
        6
 70
     0
 43
0.0
 10
712.586304
 20
601.75354
 10
713.314148
 20
610.110474
 10
714.044434
 20
618.467163
 10
714.770935
 20
626.824219
 10
715.49707
 20
635.181274
 10
716.250061
 20
643.831299
  0
LINE
  5
17D
330
161
100
AcDbEntity
  8
0
  6
Continuous
 62
     0
370
     0
100
AcDbLine
 10
727.096168
 20
600.983795
 30
0.0
 11
712.586282
 21
601.753546
 31
0.0
  0
LWPOLYLINE
  5
17E
330
161
100
AcDbEntity
  8
0
  6
Continuous
 62
     0
370
     0
100
AcDbPolyline
 90
       16
 70
     0
 43
0.0
 10
725.239929
 20
643.029968
 10
725.234375
 20
642.704407
 10
725.22937
 20
642.38916
 10
725.224487
 20
642.06897
 10
725.218079
 20
641.610962
 10
725.194946
 20
637.927856
 10
725.235413
 20
634.244141
 10
725.329956
 20
630.561584
 10
725.474243
 20
626.880859
 10
725.659973
 20
623.201965
 10
725.877747
 20
619.52478
 10
726.117371
 20
615.849121
 10
726.368286
 20
612.174438
 10
726.619812
 20
608.500854
 10
726.862488
 20
604.826721
 10
727.096191
 20
600.983765
  0
LWPOLYLINE
  5
17F
330
161
100
AcDbEntity
  8
0
  6
Continuous
 62
     0
370
     0
100
AcDbPolyline
 90
       10
 70
     0
 43
0.0
 10
725.32074
 20
650.626465
 10
725.287903
 20
649.926086
 10
725.2677
 20
649.223999
 10
725.25415
 20
648.478699
 10
725.251953
 20
647.674683
 10
725.257019
 20
646.816772
 10
725.266296
 20
645.918762
 10
725.267395
 20
644.997864
 10
725.256836
 20
644.068726
 10
725.239929
 20
643.029968
  0
ARC
  5
180
330
161
100
AcDbEntity
  8
0
  6
Continuous
 62
     0
370
     0
100
AcDbCircle
 10
726.865006
 20
665.209324
 30
0.0
 40
0.5000000860550645
100
AcDbArc
 50
355.733587
 51
107.63845
  0
LWPOLYLINE
  5
181
330
161
100
AcDbEntity
  8
0
  6
Continuous
 62
     0
370
    30
100
AcDbPolyline
 90
       23
 70
     0
 43
0.0
 10
727.363647
 20
665.172119
 10
727.351013
 20
665.135925
 10
727.329529
 20
665.02832
 10
727.299927
 20
664.8526
 10
727.262939
 20
664.61261
 10
727.21936
 20
664.311157
 10
727.1698
 20
663.9505
 10
727.114868
 20
663.53302
 10
727.05542
 20
663.06189
 10
726.99231
 20
662.54126
 10
726.926575
 20
661.975281
 10
726.859131
 20
661.36853
 10
726.79071
 20
660.726501
 10
726.722168
 20
660.054749
 10
726.654175
 20
659.358765
 10
726.587402
 20
658.643494
 10
726.5224
 20
657.913818
 10
726.459717
 20
657.174561
 10
726.399902
 20
656.430298
 10
726.343384
 20
655.685669
 10
726.290222
 20
654.94635
 10
726.240845
 20
654.217224
 10
726.193726
 20
653.468323
  0
LWPOLYLINE
  5
182
330
161
100
AcDbEntity
  8
0
  6
Continuous
 62
     0
370
    30
100
AcDbPolyline
 90
        6
 70
     0
 43
0.0
 10
726.053528
 20
650.849426
 10
725.996033
 20
650.739807
 10
725.872559
 20
650.652222
 10
725.701721
 20
650.599792
 10
725.503235
 20
650.590759
 10
725.32074
 20
650.626465
  0
ARC
  5
183
330
161
100
AcDbEntity
  8
0
  6
Continuous
 62
     0
370
    30
100
AcDbCircle
 10
877.673491
 20
644.087703
 30
0.0
 40
151.7706858774816
100
AcDbArc
 50
176.656275
 51
177.446505
  0
LWPOLYLINE
  5
184
330
161
100
AcDbEntity
  8
0
  6
Continuous
 62
     0
370
    30
100
AcDbPolyline
 90
        5
 70
     0
 43
0.0
 10
726.478271
 20
657.412048
 10
726.391724
 20
656.339233
 10
726.31189
 20
655.267273
 10
726.239563
 20
654.212219
 10
726.161194
 20
652.93988
  0
LWPOLYLINE
  5
185
330
161
100
AcDbEntity
  8
0
  6
Continuous
 62
     0
370
    30
100
AcDbPolyline
 90
       10
 70
     0
 43
0.0
 10
727.363647
 20
665.172119
 10
727.351501
 20
665.13916
 10
727.330933
 20
665.038513
 10
727.302612
 20
664.873169
 10
727.267334
 20
664.64679
 10
727.225708
 20
664.362
 10
727.178345
 20
664.020813
 10
727.125793
 20
663.625488
 10
727.068787
 20
663.178589
 10
727.00354
 20
662.645325
  0
LINE
  5
186
330
161
100
AcDbEntity
  8
0
  6
Continuous
 62
     0
370
     0
100
AcDbLine
 10
725.768596
 20
642.978132
 30
0.0
 11
725.764826
 21
642.802096
 31
0.0
  0
LINE
  5
187
330
161
100
AcDbEntity
  8
0
  6
Continuous
 62
     0
370
    30
100
AcDbLine
 10
725.770437
 20
643.069692
 30
0.0
 11
725.768602
 21
642.983743
 31
0.0
  0
ARC
  5
188
330
161
100
AcDbEntity
  8
0
  6
Continuous
 62
     0
370
    30
100
AcDbCircle
 10
1034.745887
 20
635.591967
 30
0.0
 40
309.069211037398
100
AcDbArc
 50
177.170399
 51
178.208587
  0
LWPOLYLINE
  5
189
330
161
100
AcDbEntity
  8
0
  6
Continuous
 62
     0
370
     0
100
AcDbPolyline
 90
       13
 70
     0
 43
0.0
 10
725.768616
 20
642.983765
 10
725.724365
 20
639.504517
 10
725.735535
 20
636.026855
 10
725.798828
 20
632.548706
 10
725.909058
 20
629.071655
 10
726.060669
 20
625.596313
 10
726.24646
 20
622.122742
 10
726.458313
 20
618.650696
 10
726.6875
 20
615.179749
 10
726.924988
 20
611.709473
 10
727.162354
 20
608.239868
 10
727.390625
 20
604.768188
 10
727.621521
 20
600.993896
  0
LWPOLYLINE
  5
18A
330
161
100
AcDbEntity
  8
0
  6
Continuous
 62
     0
370
     0
100
AcDbPolyline
 90
        6
 70
     0
 43
0.0
 10
727.096252
 20
600.983765
 10
727.247192
 20
600.99176
 10
727.388123
 20
600.997437
 10
727.503235
 20
601.0
 10
727.582764
 20
600.99939
 10
727.62146
 20
600.993896
  0
LWPOLYLINE
  5
18B
330
161
100
AcDbEntity
  8
0
  6
Continuous
 62
     0
370
     0
100
AcDbPolyline
 90
        6
 70
     0
 43
0.0
 10
727.096008
 20
600.465942
 10
727.089172
 20
600.488953
 10
727.085327
 20
600.554932
 10
727.084839
 20
600.657715
 10
727.087769
 20
600.78833
 10
727.096252
 20
600.983765
  0
LWPOLYLINE
  5
18C
330
161
100
AcDbEntity
  8
0
  6
Continuous
 62
     0
370
     0
100
AcDbPolyline
 90
        2
 70
     0
 43
0.0
 10
727.170532
 20
600.467468
 10
727.096008
 20
600.465942
  0
LINE
  5
18D
330
161
100
AcDbEntity
  8
0
  6
Continuous
 62
     0
370
    30
100
AcDbLine
 10
727.033376
 20
600.4601
 30
0.0
 11
727.09599
 21
600.465935
 31
0.0
  0
ARC
  5
18E
330
161
100
AcDbEntity
  8
0
  6
Continuous
 62
     0
370
    30
100
AcDbCircle
 10
727.059749
 20
600.959186
 30
0.0
 40
0.4997824095517704
100
AcDbArc
 50
266.975237
 51
279.030032
  0
LINE
  5
18F
330
161
100
AcDbEntity
  8
0
  6
Continuous
 62
     0
370
    30
100
AcDbLine
 10
727.09599
 20
600.465934
 30
0.0
 11
712.586017
 21
601.230793
 31
0.0
  0
LWPOLYLINE
  5
190
330
161
100
AcDbEntity
  8
0
  6
Continuous
 62
     0
370
     0
100
AcDbPolyline
 90
        6
 70
     0
 43
0.0
 10
712.585999
 20
601.230774
 10
712.579163
 20
601.25415
 10
712.575378
 20
601.320984
 10
712.574951
 20
601.425232
 10
712.577881
 20
601.55719
 10
712.586548
 20
601.75354
  0
LINE
  5
191
330
161
100
AcDbEntity
  8
0
  6
Continuous
 62
     0
370
    30
100
AcDbLine
 10
712.114249
 20
601.773497
 30
0.0
 11
715.781321
 21
643.872597
 31
0.0
  0
LWPOLYLINE
  5
192
330
161
100
AcDbEntity
  8
0
  6
Continuous
 62
     0
370
     0
100
AcDbPolyline
 90
        5
 70
     0
 43
0.0
 10
712.586304
 20
601.75354
 10
712.407898
 20
601.767212
 10
712.256531
 20
601.775879
 10
712.154358
 20
601.778259
 10
712.114258
 20
601.773499
  0
ARC
  5
193
330
161
100
AcDbEntity
  8
0
  6
Continuous
 62
     0
370
    30
100
AcDbCircle
 10
712.612783
 20
601.730465
 30
0.0
 40
0.5003880178651103
100
AcDbArc
 50
175.067933
 51
266.933702
  0
ARC
  5
194
330
161
100
AcDbEntity
  8
0
  6
Continuous
 62
     0
370
    30
100
AcDbCircle
 10
712.612789
 20
601.722798
 30
0.0
 40
0.5004435734943065
100
AcDbArc
 50
181.765772
 51
266.933311
  0
LINE
  5
195
330
161
100
AcDbEntity
  8
0
  6
Continuous
 62
     0
370
    30
100
AcDbLine
 10
712.11281
 20
601.707384
 30
0.0
 11
712.11331
 21
601.756572
 31
0.0
  0
LINE
  5
196
330
161
100
AcDbEntity
  8
0
  6
Continuous
 62
     0
370
    30
100
AcDbLine
 10
727.106162
 20
600.461561
 30
0.0
 11
727.160918
 21
600.466665
 31
0.0
  0
LWPOLYLINE
  5
197
330
161
100
AcDbEntity
  8
0
  6
Continuous
 62
     0
370
    30
100
AcDbPolyline
 90
        7
 70
     0
 43
0.0
 10
727.621521
 20
600.994019
 10
727.612732
 20
600.867493
 10
727.572205
 20
600.747314
 10
727.502991
 20
600.641052
 10
727.40918
 20
600.555786
 10
727.296936
 20
600.496826
 10
727.170532
 20
600.467468
  0
ARC
  5
198
330
161
100
AcDbEntity
  8
0
  6
Continuous
 62
     0
370
    30
100
AcDbCircle
 10
727.172125
 20
600.657717
 30
0.0
 40
0.1898801496125077
100
AcDbArc
 50
269.505301
 51
288.200511
  0
LWPOLYLINE
  5
199
330
161
100
AcDbEntity
  8
0
  6
Continuous
 62
     0
370
    30
100
AcDbPolyline
 90
        4
 70
     0
 43
0.0
 10
727.621521
 20
600.994019
 10
727.371338
 20
605.071045
 10
727.100647
 20
609.14856
 10
726.72699
 20
614.596619
  0
ARC
  5
19A
330
161
100
AcDbEntity
  8
0
  6
Continuous
 62
     0
370
    30
100
AcDbCircle
 10
968.390033
 20
637.797462
 30
0.0
 40
242.6768773739555
100
AcDbArc
 50
178.239297
 51
178.755134
  0
LINE
  5
19B
330
161
100
AcDbEntity
  8
0
  6
Continuous
 62
     0
370
    30
100
AcDbLine
 10
726.091296
 20
651.591683
 30
0.0
 11
726.091253
 21
651.602767
 31
0.0
  0
LWPOLYLINE
  5
19C
330
161
100
AcDbEntity
  8
0
  6
Continuous
 62
     0
370
    30
100
AcDbPolyline
 90
        8
 70
     0
 43
0.0
 10
727.003479
 20
662.645325
 10
726.931885
 20
662.032166
 10
726.85791
 20
661.368469
 10
726.782837
 20
660.662781
 10
726.707703
 20
659.922241
 10
726.633423
 20
659.153442
 10
726.56073
 20
658.362549
 10
726.478333
 20
657.412048
  0
LWPOLYLINE
  5
19D
330
161
100
AcDbEntity
  8
0
  6
Continuous
 62
     0
370
    30
100
AcDbPolyline
 90
        7
 70
     0
 43
0.0
 10
714.071472
 20
662.401611
 10
715.899719
 20
662.74707
 10
717.719116
 20
663.144958
 10
719.528503
 20
663.587708
 10
721.328003
 20
664.068542
 10
723.118408
 20
664.580872
 10
725.179749
 20
665.204407
  0
LWPOLYLINE
  5
19E
330
161
100
AcDbEntity
  8
0
  6
Continuous
 62
     0
370
    30
100
AcDbPolyline
 90
        5
 70
     0
 43
0.0
 10
714.050293
 20
649.82489
 10
713.657288
 20
650.049133
 10
713.235291
 20
650.215515
 10
712.79718
 20
650.333313
 10
712.329529
 20
650.421082
  0
LINE
  5
19F
330
161
100
AcDbEntity
  8
0
  6
Continuous
 62
     0
370
    30
100
AcDbLine
 10
712.23514
 20
662.115549
 30
0.0
 11
712.279942
 21
662.121914
 31
0.0
  0
LWPOLYLINE
  5
1A0
330
161
100
AcDbEntity
  8
0
  6
Continuous
 62
     0
370
    30
100
AcDbPolyline
 90
       52
 70
     0
 43
0.0
 10
688.37561
 20
669.822937
 10
688.849854
 20
669.690186
 10
689.323914
 20
669.556824
 10
689.797607
 20
669.422058
 10
690.270813
 20
669.285461
 10
690.743469
 20
669.147156
 10
691.215698
 20
669.007263
 10
691.687439
 20
668.865967
 10
692.158813
 20
668.723267
 10
692.629822
 20
668.579285
 10
693.100342
 20
668.43396
 10
693.570557
 20
668.287354
 10
694.040344
 20
668.139587
 10
694.509766
 20
667.990601
 10
694.97876
 20
667.840515
 10
695.447449
 20
667.68927
 10
695.915833
 20
667.536926
 10
696.383789
 20
667.383545
 10
696.851501
 20
667.229187
 10
697.318848
 20
667.073792
 10
697.785828
 20
666.91748
 10
698.252563
 20
666.760254
 10
698.718994
 20
666.602173
 10
699.185181
 20
666.443298
 10
699.651062
 20
666.28363
 10
700.116638
 20
666.123169
 10
700.582031
 20
665.962036
 10
701.04718
 20
665.800232
 10
701.512146
 20
665.637756
 10
701.976868
 20
665.474731
 10
702.441345
 20
665.311096
 10
702.90564
 20
665.146851
 10
703.369812
 20
664.982178
 10
703.83374
 20
664.816956
 10
704.297546
 20
664.651306
 10
704.761169
 20
664.485229
 10
705.224731
 20
664.318848
 10
705.68811
 20
664.152161
 10
706.151489
 20
663.985229
 10
706.614746
 20
663.818054
 10
707.077881
 20
663.650574
 10
707.540833
 20
663.482727
 10
708.003723
 20
663.314453
 10
708.466492
 20
663.145996
 10
708.929443
 20
662.978027
 10
709.3927
 20
662.810791
 10
709.855408
 20
662.642212
 10
710.317383
 20
662.471558
 10
710.781738
 20
662.307495
 10
711.254456
 20
662.1698
 10
711.740479
 20
662.093384
 10
712.235168
 20
662.11554
  0
LINE
  5
1A1
330
161
100
AcDbEntity
  8
0
  6
Continuous
 62
     0
370
    30
100
AcDbLine
 10
688.375602
 20
669.822964
 30
0.0
 11
688.356172
 21
669.828125
 31
0.0
  0
ARC
  5
1A2
330
161
100
AcDbEntity
  8
0
  6
Continuous
 62
     0
370
    30
100
AcDbCircle
 10
687.309325
 20
477.721937
 30
0.0
 40
0.699999988079715
100
AcDbArc
 50
270.3
 51
360.0
  0
ARC
  5
1A3
330
161
100
AcDbEntity
  8
0
  6
Continuous
 62
     0
370
    30
100
AcDbCircle
 10
687.309325
 20
594.829249
 30
0.0
 40
0.6999999880799108
100
AcDbArc
 50
0.0
 51
89.7
  0
LINE
  5
1A4
330
161
100
AcDbEntity
  8
0
  6
Continuous
 62
     0
370
     0
100
AcDbLine
 10
687.312991
 20
477.721937
 30
0.0
 11
677.109325
 21
477.668511
 31
0.0
  0
LINE
  5
1A5
330
161
100
AcDbEntity
  8
0
  6
Continuous
 62
     0
370
    30
100
AcDbLine
 10
677.109325
 20
477.668511
 30
0.0
 11
677.109325
 21
476.96852
 31
0.0
  0
LINE
  5
1A6
330
161
100
AcDbEntity
  8
0
  6
Continuous
 62
     0
370
    30
100
AcDbLine
 10
677.109325
 20
476.96852
 30
0.0
 11
687.31299
 21
477.021947
 31
0.0
  0
ARC
  5
1A7
330
161
100
AcDbEntity
  8
0
  6
Continuous
 62
     0
370
     0
100
AcDbCircle
 10
653.890043
 20
477.371944
 30
0.0
 40
33.4247804128596
100
AcDbArc
 50
359.400035
 51
0.59996
  0
LWPOLYLINE
  5
1A8
330
161
100
AcDbEntity
  8
0
  6
Continuous
 62
     0
370
     0
100
AcDbPolyline
 90
        6
 70
     0
 43
0.0
 10
688.009338
 20
594.829224
 10
687.972656
 20
594.829224
 10
687.873291
 20
594.829224
 10
687.732239
 20
594.829224
 10
687.543274
 20
594.829224
 10
687.312988
 20
594.829224
  0
LINE
  5
1A9
330
161
100
AcDbEntity
  8
0
  6
Continuous
 62
     0
370
     0
100
AcDbLine
 10
687.312991
 20
594.829249
 30
0.0
 11
687.312991
 21
477.721937
 31
0.0
  0
LINE
  5
1AA
330
161
100
AcDbEntity
  8
0
  6
Continuous
 62
     0
370
     0
100
AcDbLine
 10
687.312991
 20
477.721937
 30
0.0
 11
688.009325
 21
477.721937
 31
0.0
  0
LINE
  5
1AB
330
161
100
AcDbEntity
  8
0
  6
Continuous
 62
     0
370
    30
100
AcDbLine
 10
688.009325
 20
477.721937
 30
0.0
 11
688.009325
 21
594.829249
 31
0.0
  0
ARC
  5
1AC
330
161
100
AcDbEntity
  8
0
  6
Continuous
 62
     0
370
     0
100
AcDbCircle
 10
653.890043
 20
595.179242
 30
0.0
 40
33.42478041241696
100
AcDbArc
 50
359.40004
 51
0.599965
  0
LINE
  5
1AD
330
161
100
AcDbEntity
  8
0
  6
Continuous
 62
     0
370
    30
100
AcDbLine
 10
687.31299
 20
595.529239
 30
0.0
 11
677.109325
 21
595.582666
 31
0.0
  0
LWPOLYLINE
  5
1AE
330
161
100
AcDbEntity
  8
0
  6
Continuous
 62
     0
370
    30
100
AcDbPolyline
 90
        6
 70
     0
 43
0.0
 10
677.109314
 20
595.582642
 10
677.109314
 20
595.549622
 10
677.109314
 20
595.453613
 10
677.109314
 20
595.304138
 10
677.109314
 20
595.113464
 10
677.109314
 20
594.88269
  0
LINE
  5
1AF
330
161
100
AcDbEntity
  8
0
  6
Continuous
 62
     0
370
     0
100
AcDbLine
 10
677.109325
 20
594.882675
 30
0.0
 11
687.312991
 21
594.829249
 31
0.0
  0
LINE
  5
1B0
330
161
100
AcDbEntity
  8
0
  6
Continuous
 62
     0
370
    30
100
AcDbLine
 10
677.109325
 20
594.882675
 30
0.0
 11
677.109325
 21
477.668511
 31
0.0
  0
LINE
  5
1B1
330
161
100
AcDbEntity
  8
0
  6
Continuous
 62
     0
370
    30
100
AcDbLine
 10
691.229324
 20
558.275597
 30
0.0
 11
691.229324
 21
514.275597
 31
0.0
  0
LWPOLYLINE
  5
1B2
330
161
100
AcDbEntity
  8
0
  6
Continuous
 62
     0
370
    30
100
AcDbPolyline
 90
       53
 70
     0
 43
0.0
 10
741.229309
 20
557.775574
 10
741.229309
 20
557.73645
 10
741.229309
 20
557.618835
 10
741.229309
 20
557.423462
 10
741.229309
 20
557.151184
 10
741.229309
 20
556.802856
 10
741.229309
 20
556.379211
 10
741.229309
 20
555.882202
 10
741.229309
 20
555.313843
 10
741.229309
 20
554.67627
 10
741.229309
 20
553.971741
 10
741.229309
 20
553.202393
 10
741.229309
 20
552.371094
 10
741.229309
 20
551.48114
 10
741.229309
 20
550.53595
 10
741.229309
 20
549.538879
 10
741.229309
 20
548.493286
 10
741.229309
 20
547.402954
 10
741.229309
 20
546.272034
 10
741.229309
 20
545.104858
 10
741.229309
 20
543.905518
 10
741.229309
 20
542.678345
 10
741.229309
 20
541.427734
 10
741.229309
 20
540.158203
 10
741.229309
 20
538.874634
 10
741.229309
 20
537.581604
 10
741.229309
 20
536.283813
 10
741.229309
 20
534.986084
 10
741.229309
 20
533.692932
 10
741.229309
 20
532.40918
 10
741.229309
 20
531.139526
 10
741.229309
 20
529.888611
 10
741.229309
 20
528.661072
 10
741.229309
 20
527.461426
 10
741.229309
 20
526.293762
 10
741.229309
 20
525.162354
 10
741.229309
 20
524.071472
 10
741.229309
 20
523.025269
 10
741.229309
 20
522.027588
 10
741.229309
 20
521.081726
 10
741.229309
 20
520.19104
 10
741.229309
 20
519.358948
 10
741.229309
 20
518.588806
 10
741.229309
 20
517.883423
 10
741.229309
 20
517.245056
 10
741.229309
 20
516.675781
 10
741.229309
 20
516.177795
 10
741.229309
 20
515.753296
 10
741.229309
 20
515.403931
 10
741.229309
 20
515.130676
 10
741.229309
 20
514.934387
 10
741.229309
 20
514.815735
 10
741.229309
 20
514.775574
  0
LINE
  5
1B3
330
161
100
AcDbEntity
  8
0
  6
Continuous
 62
     0
370
    30
100
AcDbLine
 10
741.229324
 20
514.775597
 30
0.0
 11
740.729324
 21
514.275597
 31
0.0
  0
LWPOLYLINE
  5
1B4
330
161
100
AcDbEntity
  8
0
  6
Continuous
 62
     0
370
    30
100
AcDbPolyline
 90
       54
 70
     0
 43
0.0
 10
740.729309
 20
558.275574
 10
740.729614
 20
558.23645
 10
740.730042
 20
558.119751
 10
740.730408
 20
557.926514
 10
740.730774
 20
557.657593
 10
740.730896
 20
557.314087
 10
740.730835
 20
556.897095
 10
740.730591
 20
556.407776
 10
740.730286
 20
555.847412
 10
740.729919
 20
555.217773
 10
740.729553
 20
554.521851
 10
740.72937
 20
553.762512
 10
740.72937
 20
552.942566
 10
740.729553
 20
552.064636
 10
740.729797
 20
551.130981
 10
740.730103
 20
550.144714
 10
740.730408
 20
549.109192
 10
740.730652
 20
548.028381
 10
740.730774
 20
546.906128
 10
740.730896
 20
545.746582
 10
740.730835
 20
544.553772
 10
740.730713
 20
543.331909
 10
740.73053
 20
542.085388
 10
740.730347
 20
540.818481
 10
740.730103
 20
539.535583
 10
740.729858
 20
538.241333
 10
740.729736
 20
536.940125
 10
740.729736
 20
535.636658
 10
740.729858
 20
534.335388
 10
740.730103
 20
533.040894
 10
740.730347
 20
531.757751
 10
740.730591
 20
530.49054
 10
740.730774
 20
529.243591
 10
740.730896
 20
528.02124
 10
740.730896
 20
526.82782
 10
740.730835
 20
525.667664
 10
740.730652
 20
524.544739
 10
740.730408
 20
523.463074
 10
740.730164
 20
522.426636
 10
740.729858
 20
521.439209
 10
740.729553
 20
520.504272
 10
740.72937
 20
519.624817
 10
740.72937
 20
518.803406
 10
740.729553
 20
518.042603
 10
740.729858
 20
517.345337
 10
740.730225
 20
516.714661
 10
740.73053
 20
516.153442
 10
740.730713
 20
515.663452
 10
740.730774
 20
515.245789
 10
740.730652
 20
514.901245
 10
740.730408
 20
514.630737
 10
740.72998
 20
514.435486
 10
740.729614
 20
514.31665
 10
740.729309
 20
514.275574
  0
LINE
  5
1B5
330
161
100
AcDbEntity
  8
0
  6
Continuous
 62
     0
370
    30
100
AcDbLine
 10
727.479324
 20
514.275597
 30
0.0
 11
691.229324
 21
514.275597
 31
0.0
  0
LWPOLYLINE
  5
1B6
330
161
100
AcDbEntity
  8
0
  6
Continuous
 62
     0
370
     0
100
AcDbPolyline
 90
       26
 70
     0
 43
0.0
 10
727.479309
 20
514.275574
 10
727.517395
 20
514.283691
 10
727.631409
 20
514.307678
 10
727.817444
 20
514.345642
 10
728.069885
 20
514.395386
 10
728.384583
 20
514.454041
 10
728.76355
 20
514.517456
 10
729.197937
 20
514.582031
 10
729.678223
 20
514.64386
 10
730.200256
 20
514.698792
 10
730.756531
 20
514.743652
 10
731.336243
 20
514.775574
 10
731.928589
 20
514.792297
 10
732.524963
 20
514.792358
 10
733.117371
 20
514.775818
 10
733.697205
 20
514.743958
 10
734.253784
 20
514.699219
 10
734.776123
 20
514.644348
 10
735.256775
 20
514.582581
 10
735.691589
 20
514.518066
 10
736.071106
 20
514.45459
 10
736.386353
 20
514.395874
 10
736.639282
 20
514.346069
 10
736.825928
 20
514.307922
 10
736.940613
 20
514.283875
 10
736.979309
 20
514.275574
  0
LINE
  5
1B7
330
161
100
AcDbEntity
  8
0
  6
Continuous
 62
     0
370
    30
100
AcDbLine
 10
736.979324
 20
514.275597
 30
0.0
 11
740.729324
 21
514.275597
 31
0.0
  0
LWPOLYLINE
  5
1B8
330
161
100
AcDbEntity
  8
0
  6
Continuous
 62
     0
370
     0
100
AcDbPolyline
 90
       24
 70
     0
 43
0.0
 10
736.328918
 20
558.275574
 10
736.290344
 20
558.268494
 10
736.174561
 20
558.247498
 10
735.986084
 20
558.214539
 10
735.731262
 20
558.171875
 10
735.411926
 20
558.122559
 10
735.029663
 20
558.070496
 10
734.59668
 20
558.019226
 10
734.119629
 20
557.972656
 10
733.604919
 20
557.934265
 10
733.064148
 20
557.906616
 10
732.509338
 20
557.89209
 10
731.950134
 20
557.89209
 10
731.395325
 20
557.906555
 10
730.854553
 20
557.934204
 10
730.339844
 20
557.972595
 10
729.862732
 20
558.019165
 10
729.429565
 20
558.070435
 10
729.04718
 20
558.122437
 10
728.727722
 20
558.171753
 10
728.472839
 20
558.214478
 10
728.284302
 20
558.247437
 10
728.168274
 20
558.268433
 10
728.129333
 20
558.275574
  0
LINE
  5
1B9
330
161
100
AcDbEntity
  8
0
  6
Continuous
 62
     0
370
    30
100
AcDbLine
 10
736.179324
 20
565.605597
 30
0.0
 11
728.279324
 21
565.605597
 31
0.0
  0
LINE
  5
1BA
330
161
100
AcDbEntity
  8
0
  6
Continuous
 62
     0
370
    30
100
AcDbLine
 10
736.179324
 20
565.605597
 30
0.0
 11
736.179324
 21
558.275597
 31
0.0
  0
LWPOLYLINE
  5
1BB
330
161
100
AcDbEntity
  8
0
  6
Continuous
 62
     0
370
    30
100
AcDbPolyline
 90
       22
 70
     0
 43
0.0
 10
728.779297
 20
566.105591
 10
728.81781
 20
566.105591
 10
728.932251
 20
566.105591
 10
729.1203
 20
566.105591
 10
729.377563
 20
566.105591
 10
729.698486
 20
566.105591
 10
730.075745
 20
566.105591
 10
730.501099
 20
566.105591
 10
730.964905
 20
566.105591
 10
731.456909
 20
566.105591
 10
731.966187
 20
566.105591
 10
732.481262
 20
566.105591
 10
732.990784
 20
566.105591
 10
733.483276
 20
566.105591
 10
733.947815
 20
566.105591
 10
734.374084
 20
566.105591
 10
734.752502
 20
566.105591
 10
735.074768
 20
566.105591
 10
735.333435
 20
566.105591
 10
735.523071
 20
566.105591
 10
735.63916
 20
566.105591
 10
735.679321
 20
566.105591
  0
LINE
  5
1BC
330
161
100
AcDbEntity
  8
0
  6
Continuous
 62
     0
370
    30
100
AcDbLine
 10
735.679324
 20
566.105597
 30
0.0
 11
736.179324
 21
565.605597
 31
0.0
  0
LINE
  5
1BD
330
161
100
AcDbEntity
  8
0
  6
Continuous
 62
     0
370
    30
100
AcDbLine
 10
728.779324
 20
566.105597
 30
0.0
 11
728.279324
 21
565.605597
 31
0.0
  0
LINE
  5
1BE
330
161
100
AcDbEntity
  8
0
  6
Continuous
 62
     0
370
    30
100
AcDbLine
 10
728.279324
 20
565.605597
 30
0.0
 11
728.279324
 21
558.275597
 31
0.0
  0
LINE
  5
1BF
330
161
100
AcDbEntity
  8
0
  6
Continuous
 62
     0
370
    30
100
AcDbLine
 10
736.179324
 20
558.275597
 30
0.0
 11
736.328927
 21
558.275597
 31
0.0
  0
LINE
  5
1C0
330
161
100
AcDbEntity
  8
0
  6
Continuous
 62
     0
370
    30
100
AcDbLine
 10
727.479324
 20
514.275597
 30
0.0
 11
736.979324
 21
514.275597
 31
0.0
  0
LINE
  5
1C1
330
161
100
AcDbEntity
  8
0
  6
Continuous
 62
     0
370
    30
100
AcDbLine
 10
691.229324
 20
558.275597
 30
0.0
 11
728.129324
 21
558.275597
 31
0.0
  0
LINE
  5
1C2
330
161
100
AcDbEntity
  8
0
  6
Continuous
 62
     0
370
    30
100
AcDbLine
 10
740.729325
 20
558.275597
 30
0.0
 11
736.328927
 21
558.275597
 31
0.0
  0
LINE
  5
1C3
330
161
100
AcDbEntity
  8
0
  6
Continuous
 62
     0
370
    30
100
AcDbLine
 10
741.229324
 20
557.775597
 30
0.0
 11
740.729324
 21
558.275597
 31
0.0
  0
LINE
  5
1C4
330
161
100
AcDbEntity
  8
0
  6
Continuous
 62
     0
370
    30
100
AcDbLine
 10
688.009323
 20
555.275361
 30
0.0
 11
691.229324
 21
555.275361
 31
0.0
  0
LINE
  5
1C5
330
161
100
AcDbEntity
  8
0
  6
Continuous
 62
     0
370
    30
100
AcDbLine
 10
688.009323
 20
517.275361
 30
0.0
 11
691.229324
 21
517.275361
 31
0.0
  0
LINE
  5
1C6
330
161
100
AcDbEntity
  8
0
  6
Continuous
 62
     0
370
    30
100
AcDbLine
 10
677.109323
 20
786.275597
 30
0.0
 11
687.109323
 21
786.275597
 31
0.0
  0
LINE
  5
1C7
330
161
100
AcDbEntity
  8
0
  6
Continuous
 62
     0
370
    30
100
AcDbLine
 10
677.109323
 20
786.275597
 30
0.0
 11
677.109323
 21
726.275597
 31
0.0
  0
LINE
  5
1C8
330
161
100
AcDbEntity
  8
0
  6
Continuous
 62
     0
370
    30
100
AcDbLine
 10
677.109323
 20
726.275597
 30
0.0
 11
687.109323
 21
726.275597
 31
0.0
  0
LINE
  5
1C9
330
161
100
AcDbEntity
  8
0
  6
Continuous
 62
     0
370
    30
100
AcDbLine
 10
687.109323
 20
726.275597
 30
0.0
 11
687.109323
 21
786.275597
 31
0.0
  0
ARC
  5
1CA
330
161
100
AcDbEntity
  8
0
  6
Continuous
 62
     0
370
    30
100
AcDbCircle
 10
688.109322
 20
768.859064
 30
0.0
 40
0.9999999391841956
100
AcDbArc
 50
74.556964
 51
179.999985
  0
ARC
  5
1CB
330
161
100
AcDbEntity
  8
0
  6
Continuous
 62
     0
370
     0
100
AcDbCircle
 10
688.109322
 20
743.692028
 30
0.0
 40
0.9999999387360943
100
AcDbArc
 50
180.000015
 51
285.443036
  0
LWPOLYLINE
  5
1CC
330
161
100
AcDbEntity
  8
0
  6
Continuous
 62
     0
370
    30
100
AcDbPolyline
 90
       43
 70
     0
 43
0.0
 10
688.37561
 20
769.822937
 10
688.375549
 20
769.782837
 10
688.375366
 20
769.662659
 10
688.375061
 20
769.464966
 10
688.374695
 20
769.192627
 10
688.374329
 20
768.848328
 10
688.373901
 20
768.43512
 10
688.373413
 20
767.955688
 10
688.372864
 20
767.412231
 10
688.372375
 20
766.807068
 10
688.37207
 20
766.142883
 10
688.37146
 20
765.423096
 10
688.370605
 20
764.6521
 10
688.369934
 20
763.835449
 10
688.369446
 20
762.978638
 10
688.369019
 20
762.087341
 10
688.368652
 20
761.166992
 10
688.368347
 20
760.222168
 10
688.368103
 20
759.257202
 10
688.368042
 20
758.276611
 10
688.368042
 20
757.285522
 10
688.368042
 20
756.289124
 10
688.368042
 20
755.292603
 10
688.368042
 20
754.30127
 10
688.368103
 20
753.320312
 10
688.368286
 20
752.354858
 10
688.368652
 20
751.409363
 10
688.369019
 20
750.48822
 10
688.369446
 20
749.596008
 10
688.369934
 20
748.738159
 10
688.370605
 20
747.920349
 10
688.37146
 20
747.148071
 10
688.37207
 20
746.42688
 10
688.372375
 20
745.761108
 10
688.372864
 20
745.154358
 10
688.373413
 20
744.609192
 10
688.373901
 20
744.12793
 10
688.374329
 20
743.71283
 10
688.374695
 20
743.366638
 10
688.375
 20
743.092285
 10
688.375305
 20
742.892578
 10
688.375549
 20
742.770325
 10
688.37561
 20
742.728149
  0
LWPOLYLINE
  5
1CD
330
161
100
AcDbEntity
  8
0
  6
Continuous
 62
     0
370
    30
100
AcDbPolyline
 90
       52
 70
     0
 43
0.0
 10
688.37561
 20
742.728149
 10
688.849548
 20
742.86084
 10
689.323303
 20
742.994141
 10
689.796692
 20
743.128723
 10
690.269592
 20
743.265198
 10
690.741943
 20
743.403442
 10
691.213928
 20
743.543274
 10
691.685425
 20
743.68457
 10
692.156555
 20
743.827209
 10
692.627319
 20
743.97113
 10
693.097717
 20
744.116333
 10
693.567688
 20
744.262756
 10
694.037354
 20
744.410461
 10
694.506592
 20
744.559326
 10
694.975464
 20
744.709412
 10
695.444031
 20
744.860596
 10
695.912231
 20
745.012878
 10
696.380127
 20
745.16626
 10
696.847717
 20
745.320618
 10
697.314941
 20
745.475952
 10
697.781921
 20
745.632202
 10
698.248535
 20
745.789429
 10
698.714966
 20
745.947449
 10
699.18103
 20
746.106323
 10
699.646912
 20
746.265991
 10
700.112488
 20
746.426453
 10
700.577881
 20
746.587524
 10
701.042969
 20
746.749329
 10
701.507935
 20
746.911804
 10
701.972595
 20
747.074829
 10
702.437134
 20
747.238464
 10
702.901428
 20
747.402649
 10
703.365601
 20
747.567383
 10
703.82959
 20
747.732544
 10
704.293396
 20
747.898193
 10
704.75708
 20
748.06427
 10
705.220703
 20
748.230652
 10
705.684143
 20
748.397339
 10
706.147522
 20
748.564392
 10
706.61084
 20
748.731628
 10
707.074036
 20
748.899109
 10
707.537109
 20
749.066956
 10
708.000061
 20
749.235107
 10
708.462952
 20
749.403442
 10
708.925964
 20
749.571594
 10
709.389221
 20
749.739258
 10
709.852112
 20
749.907532
 10
710.314087
 20
750.078125
 10
710.778748
 20
750.242432
 10
711.25177
 20
750.380615
 10
711.737427
 20
750.457397
 10
712.233948
 20
750.435669
  0
ARC
  5
1CE
330
161
100
AcDbEntity
  8
0
  6
Continuous
 62
     0
370
     0
100
AcDbCircle
 10
734.78229
 20
750.70144
 30
0.0
 40
22.54990551143676
100
AcDbArc
 50
179.171026
 51
180.675319
  0
ARC
  5
1CF
330
161
100
AcDbEntity
  8
0
  6
Continuous
 62
     0
370
     0
100
AcDbCircle
 10
694.121977
 20
751.18462
 30
0.0
 40
18.11344814909837
100
AcDbArc
 50
359.503591
 51
0.649836
  0
LWPOLYLINE
  5
1D0
330
161
100
AcDbEntity
  8
0
  6
Continuous
 62
     0
370
     0
100
AcDbPolyline
 90
        3
 70
     0
 43
0.0
 10
712.234253
 20
751.390076
 10
712.226318
 20
751.767761
 10
712.228821
 20
752.273438
  0
LINE
  5
1D1
330
161
100
AcDbEntity
  8
0
  6
Continuous
 62
     0
370
     0
100
AcDbLine
 10
712.228821
 20
752.27343
 30
0.0
 11
712.239143
 21
752.782665
 31
0.0
  0
LWPOLYLINE
  5
1D2
330
161
100
AcDbEntity
  8
0
  6
Continuous
 62
     0
370
    30
100
AcDbPolyline
 90
       21
 70
     0
 43
0.0
 10
712.239136
 20
752.782654
 10
712.241333
 20
753.318298
 10
712.236389
 20
753.889526
 10
712.231384
 20
754.487976
 10
712.230835
 20
755.10553
 10
712.232971
 20
755.735413
 10
712.235291
 20
756.371216
 10
712.236206
 20
757.006287
 10
712.236145
 20
757.633484
 10
712.235779
 20
758.245728
 10
712.235474
 20
758.835876
 10
712.235229
 20
759.39679
 10
712.234985
 20
759.921326
 10
712.234863
 20
760.402039
 10
712.234924
 20
760.832092
 10
712.234985
 20
761.207031
 10
712.234924
 20
761.522705
 10
712.234863
 20
761.77533
 10
712.234863
 20
761.960815
 10
712.234924
 20
762.0755
 10
712.235168
 20
762.11554
  0
LINE
  5
1D3
330
161
100
AcDbEntity
  8
0
  6
Continuous
 62
     0
370
     0
100
AcDbLine
 10
712.631836
 20
752.564581
 30
0.0
 11
712.631836
 21
762.171926
 31
0.0
  0
LINE
  5
1D4
330
161
100
AcDbEntity
  8
0
  6
Continuous
 62
     0
370
    30
100
AcDbLine
 10
712.631836
 20
762.171926
 30
0.0
 11
712.279942
 21
762.121914
 31
0.0
  0
LINE
  5
1D5
330
161
100
AcDbEntity
  8
0
  6
Continuous
 62
     0
370
     0
100
AcDbLine
 10
712.239178
 20
752.782735
 30
0.0
 11
712.631836
 21
752.564581
 31
0.0
  0
LWPOLYLINE
  5
1D6
330
161
100
AcDbEntity
  8
0
  6
Continuous
 62
     0
370
    30
100
AcDbPolyline
 90
       62
 70
     0
 43
0.0
 10
712.234802
 20
751.027832
 10
712.739258
 20
750.898315
 10
713.021973
 20
750.807495
 10
713.241394
 20
750.724121
 10
713.420227
 20
750.645874
 10
713.569641
 20
750.572144
 10
713.696777
 20
750.502625
 10
713.806824
 20
750.436523
 10
713.904236
 20
750.372864
 10
713.992798
 20
750.310181
 10
714.075623
 20
750.246887
 10
714.155518
 20
750.181396
 10
714.234497
 20
750.112244
 10
714.313965
 20
750.038208
 10
714.394592
 20
749.958862
 10
714.476257
 20
749.874207
 10
714.558044
 20
749.7854
 10
714.638489
 20
749.694092
 10
714.716003
 20
749.602295
 10
714.789124
 20
749.511841
 10
714.857056
 20
749.424072
 10
714.919617
 20
749.339111
 10
714.977539
 20
749.256226
 10
715.031921
 20
749.174011
 10
715.083923
 20
749.091003
 10
715.134521
 20
749.006104
 10
715.184082
 20
748.919128
 10
715.232544
 20
748.830444
 10
715.279602
 20
748.740784
 10
715.324707
 20
748.651001
 10
715.367676
 20
748.561707
 10
715.408203
 20
748.473206
 10
715.446411
 20
748.385681
 10
715.4823
 20
748.299194
 10
715.516052
 20
748.213745
 10
715.547791
 20
748.129211
 10
715.577759
 20
748.045288
 10
715.606262
 20
747.961182
 10
715.633667
 20
747.875916
 10
715.660339
 20
747.788208
 10
715.686584
 20
747.696716
 10
715.712646
 20
747.600464
 10
715.738525
 20
747.498779
 10
715.763977
 20
747.391296
 10
715.788696
 20
747.278015
 10
715.812317
 20
747.15918
 10
715.834412
 20
747.034851
 10
715.854614
 20
746.905273
 10
715.87262
 20
746.770386
 10
715.888245
 20
746.630127
 10
715.901245
 20
746.484558
 10
715.911682
 20
746.333435
 10
715.919434
 20
746.17688
 10
715.924438
 20
746.014587
 10
715.926453
 20
745.84613
 10
715.924744
 20
745.670044
 10
715.91803
 20
745.483704
 10
715.90448
 20
745.282349
 10
715.881958
 20
745.057739
 10
715.850403
 20
744.794556
 10
715.81488
 20
744.45343
 10
715.781311
 20
743.87262
  0
ARC
  5
1D7
330
161
100
AcDbEntity
  8
0
  6
Continuous
 62
     0
370
    30
100
AcDbCircle
 10
714.483407
 20
726.462174
 30
0.0
 40
17.45873449632466
100
AcDbArc
 50
84.192268
 51
85.736595
  0
LWPOLYLINE
  5
1D8
330
161
100
AcDbEntity
  8
0
  6
Continuous
 62
     0
370
    30
100
AcDbPolyline
 90
       68
 70
     0
 43
0.0
 10
716.250061
 20
743.831299
 10
716.399536
 20
744.456543
 10
716.470032
 20
744.844849
 10
716.511108
 20
745.146606
 10
716.536804
 20
745.404602
 10
716.552368
 20
745.635071
 10
716.560242
 20
745.847046
 10
716.561707
 20
746.046021
 10
716.557678
 20
746.235352
 10
716.548523
 20
746.417053
 10
716.53479
 20
746.592163
 10
716.516846
 20
746.76123
 10
716.495239
 20
746.924377
 10
716.470337
 20
747.081726
 10
716.442627
 20
747.233337
 10
716.412537
 20
747.379395
 10
716.380432
 20
747.52002
 10
716.34668
 20
747.655212
 10
716.311707
 20
747.785034
 10
716.27594
 20
747.909424
 10
716.239746
 20
748.028259
 10
716.20343
 20
748.141479
 10
716.167419
 20
748.249023
 10
716.131775
 20
748.351135
 10
716.096436
 20
748.448425
 10
716.061279
 20
748.541687
 10
716.02594
 20
748.631897
 10
715.990112
 20
748.720154
 10
715.953247
 20
748.807556
 10
715.9151
 20
748.894897
 10
715.875244
 20
748.982666
 10
715.833618
 20
749.071289
 10
715.789978
 20
749.160706
 10
715.744202
 20
749.250916
 10
715.69635
 20
749.34198
 10
715.64624
 20
749.433716
 10
715.593994
 20
749.52594
 10
715.539917
 20
749.618286
 10
715.484314
 20
749.710144
 10
715.427612
 20
749.800903
 10
715.370178
 20
749.889893
 10
715.312073
 20
749.976868
 10
715.253052
 20
750.062134
 10
715.192322
 20
750.146484
 10
715.128906
 20
750.231079
 10
715.061768
 20
750.317383
 10
714.990173
 20
750.406311
 10
714.91394
 20
750.498291
 10
714.833374
 20
750.592773
 10
714.749573
 20
750.688721
 10
714.663879
 20
750.784546
 10
714.57782
 20
750.878601
 10
714.492615
 20
750.969604
 10
714.409119
 20
751.056702
 10
714.327759
 20
751.139587
 10
714.248169
 20
751.218811
 10
714.169434
 20
751.295349
 10
714.090149
 20
751.370605
 10
714.008606
 20
751.446228
 10
713.922668
 20
751.524292
 10
713.829773
 20
751.606812
 10
713.727173
 20
751.696045
 10
713.611755
 20
751.794312
 10
713.479919
 20
751.904175
 10
713.327148
 20
752.028564
 10
713.146423
 20
752.171814
 10
712.926086
 20
752.339966
 10
712.623962
 20
752.552307
  0
LINE
  5
1D9
330
161
100
AcDbEntity
  8
0
  6
Continuous
 62
     0
370
    30
100
AcDbLine
 10
712.329542
 20
750.421085
 30
0.0
 11
712.233951
 21
750.43566
 31
0.0
  0
LWPOLYLINE
  5
1DA
330
161
100
AcDbEntity
  8
0
  6
Continuous
 62
     0
370
    30
100
AcDbPolyline
 90
       57
 70
     0
 43
0.0
 10
715.781433
 20
743.874573
 10
715.80127
 20
744.362305
 10
715.821594
 20
744.665344
 10
715.836243
 20
744.900208
 10
715.845581
 20
745.100891
 10
715.850647
 20
745.280334
 10
715.852173
 20
745.44574
 10
715.850586
 20
745.601562
 10
715.846313
 20
745.750793
 10
715.839539
 20
745.895081
 10
715.830444
 20
746.035339
 10
715.819275
 20
746.171814
 10
715.806091
 20
746.304626
 10
715.791077
 20
746.433655
 10
715.774292
 20
746.558716
 10
715.755859
 20
746.67981
 10
715.736023
 20
746.796997
 10
715.714783
 20
746.910156
 10
715.692505
 20
747.019287
 10
715.669312
 20
747.124329
 10
715.645569
 20
747.224915
 10
715.62146
 20
747.320923
 10
715.597412
 20
747.411865
 10
715.57373
 20
747.497437
 10
715.550598
 20
747.577576
 10
715.528198
 20
747.652283
 10
715.506653
 20
747.721741
 10
715.485718
 20
747.78656
 10
715.46521
 20
747.847717
 10
715.444702
 20
747.906372
 10
715.423706
 20
747.963745
 10
715.401794
 20
748.021118
 10
715.378418
 20
748.079712
 10
715.353333
 20
748.140259
 10
715.326294
 20
748.203125
 10
715.29718
 20
748.268372
 10
715.266174
 20
748.335693
 10
715.233276
 20
748.404541
 10
715.198608
 20
748.474426
 10
715.16217
 20
748.544983
 10
715.123901
 20
748.616028
 10
715.08374
 20
748.687439
 10
715.041443
 20
748.759094
 10
714.997009
 20
748.831116
 10
714.950195
 20
748.903381
 10
714.900757
 20
748.975891
 10
714.848267
 20
749.048889
 10
714.792297
 20
749.122559
 10
714.732056
 20
749.197266
 10
714.667053
 20
749.273376
 10
714.596741
 20
749.350952
 10
714.520935
 20
749.429749
 10
714.439575
 20
749.509338
 10
714.3526
 20
749.588989
 10
714.259827
 20
749.668091
 10
714.160278
 20
749.746216
 10
714.050293
 20
749.82489
  0
LWPOLYLINE
  5
1DB
330
161
100
AcDbEntity
  8
0
  6
Continuous
 62
     0
370
    30
100
AcDbPolyline
 90
        6
 70
     0
 43
0.0
 10
724.309509
 20
750.821655
 10
722.049194
 20
751.241089
 10
719.776489
 20
751.631897
 10
717.488892
 20
751.985229
 10
715.18512
 20
752.291992
 10
712.631836
 20
752.564575
  0
LINE
  5
1DC
330
161
100
AcDbEntity
  8
0
  6
Continuous
 62
     0
370
     0
100
AcDbLine
 10
725.320715
 20
750.626475
 30
0.0
 11
724.309492
 21
750.821653
 31
0.0
  0
LWPOLYLINE
  5
1DD
330
161
100
AcDbEntity
  8
0
  6
Continuous
 62
     0
370
    30
100
AcDbPolyline
 90
       28
 70
     0
 43
0.0
 10
726.713501
 20
765.685791
 10
726.68866
 20
765.637878
 10
726.673035
 20
765.525146
 10
726.648193
 20
765.345093
 10
726.615295
 20
765.101318
 10
726.575928
 20
764.797241
 10
726.530884
 20
764.435486
 10
726.480713
 20
764.018433
 10
726.425964
 20
763.549561
 10
726.367188
 20
763.032776
 10
726.304993
 20
762.472351
 10
726.23999
 20
761.872986
 10
726.172974
 20
761.239319
 10
726.104553
 20
760.576111
 10
726.035522
 20
759.887939
 10
725.966553
 20
759.179382
 10
725.898376
 20
758.454773
 10
725.831543
 20
757.718384
 10
725.766602
 20
756.974365
 10
725.703979
 20
756.226807
 10
725.644043
 20
755.479797
 10
725.587097
 20
754.737488
 10
725.533386
 20
754.004272
 10
725.483215
 20
753.284729
 10
725.436707
 20
752.583557
 10
725.393982
 20
751.905396
 10
725.355408
 20
751.255432
 10
725.32074
 20
750.626465
  0
ARC
  5
1DE
330
161
100
AcDbEntity
  8
0
  6
Continuous
 62
     0
370
     0
100
AcDbCircle
 10
658.82751
 20
979.289729
 30
0.0
 40
224.1319669417317
100
AcDbArc
 50
287.219969
 51
287.630907
  0
ARC
  5
1DF
330
161
100
AcDbEntity
  8
0
  6
Continuous
 62
     0
370
     0
100
AcDbCircle
 10
704.576495
 20
817.290145
 30
0.0
 40
55.70373920417946
100
AcDbArc
 50
278.31472
 51
279.81426
  0
LWPOLYLINE
  5
1E0
330
161
100
AcDbEntity
  8
0
  6
Continuous
 62
     0
370
    30
100
AcDbPolyline
 90
        6
 70
     0
 43
0.0
 10
712.586304
 20
701.75354
 10
713.314148
 20
710.110474
 10
714.044434
 20
718.467163
 10
714.770935
 20
726.824219
 10
715.49707
 20
735.181274
 10
716.250061
 20
743.831299
  0
LINE
  5
1E1
330
161
100
AcDbEntity
  8
0
  6
Continuous
 62
     0
370
     0
100
AcDbLine
 10
727.096168
 20
700.983795
 30
0.0
 11
712.586282
 21
701.753546
 31
0.0
  0
LWPOLYLINE
  5
1E2
330
161
100
AcDbEntity
  8
0
  6
Continuous
 62
     0
370
     0
100
AcDbPolyline
 90
       16
 70
     0
 43
0.0
 10
725.239929
 20
743.029968
 10
725.234375
 20
742.704407
 10
725.22937
 20
742.38916
 10
725.224487
 20
742.06897
 10
725.218079
 20
741.610962
 10
725.194946
 20
737.927856
 10
725.235413
 20
734.244141
 10
725.329956
 20
730.561584
 10
725.474243
 20
726.880859
 10
725.659973
 20
723.201965
 10
725.877747
 20
719.52478
 10
726.117371
 20
715.849121
 10
726.368286
 20
712.174438
 10
726.619812
 20
708.500854
 10
726.862488
 20
704.826721
 10
727.096191
 20
700.983765
  0
LWPOLYLINE
  5
1E3
330
161
100
AcDbEntity
  8
0
  6
Continuous
 62
     0
370
     0
100
AcDbPolyline
 90
       10
 70
     0
 43
0.0
 10
725.32074
 20
750.626465
 10
725.287903
 20
749.926086
 10
725.2677
 20
749.223999
 10
725.25415
 20
748.478699
 10
725.251953
 20
747.674683
 10
725.257019
 20
746.816772
 10
725.266296
 20
745.918762
 10
725.267395
 20
744.997864
 10
725.256836
 20
744.068726
 10
725.239929
 20
743.029968
  0
ARC
  5
1E4
330
161
100
AcDbEntity
  8
0
  6
Continuous
 62
     0
370
     0
100
AcDbCircle
 10
726.865006
 20
765.209324
 30
0.0
 40
0.500000086053308
100
AcDbArc
 50
355.733587
 51
107.63845
  0
LWPOLYLINE
  5
1E5
330
161
100
AcDbEntity
  8
0
  6
Continuous
 62
     0
370
    30
100
AcDbPolyline
 90
       23
 70
     0
 43
0.0
 10
727.363647
 20
765.172119
 10
727.351013
 20
765.135925
 10
727.329529
 20
765.02832
 10
727.299927
 20
764.8526
 10
727.262939
 20
764.61261
 10
727.21936
 20
764.311157
 10
727.1698
 20
763.9505
 10
727.114868
 20
763.53302
 10
727.05542
 20
763.06189
 10
726.99231
 20
762.54126
 10
726.926575
 20
761.975281
 10
726.859131
 20
761.36853
 10
726.79071
 20
760.726501
 10
726.722168
 20
760.054749
 10
726.654175
 20
759.358765
 10
726.587402
 20
758.643494
 10
726.5224
 20
757.913818
 10
726.459717
 20
757.174561
 10
726.399902
 20
756.430298
 10
726.343384
 20
755.685669
 10
726.290222
 20
754.94635
 10
726.240845
 20
754.217224
 10
726.193726
 20
753.468323
  0
LWPOLYLINE
  5
1E6
330
161
100
AcDbEntity
  8
0
  6
Continuous
 62
     0
370
    30
100
AcDbPolyline
 90
        6
 70
     0
 43
0.0
 10
726.053528
 20
750.849426
 10
725.996033
 20
750.739807
 10
725.872559
 20
750.652222
 10
725.701721
 20
750.599792
 10
725.503235
 20
750.590759
 10
725.32074
 20
750.626465
  0
ARC
  5
1E7
330
161
100
AcDbEntity
  8
0
  6
Continuous
 62
     0
370
    30
100
AcDbCircle
 10
877.673491
 20
744.087703
 30
0.0
 40
151.7706858770271
100
AcDbArc
 50
176.656275
 51
177.446505
  0
LWPOLYLINE
  5
1E8
330
161
100
AcDbEntity
  8
0
  6
Continuous
 62
     0
370
    30
100
AcDbPolyline
 90
        5
 70
     0
 43
0.0
 10
726.478271
 20
757.412048
 10
726.391724
 20
756.339233
 10
726.31189
 20
755.267273
 10
726.239563
 20
754.212219
 10
726.161194
 20
752.93988
  0
LWPOLYLINE
  5
1E9
330
161
100
AcDbEntity
  8
0
  6
Continuous
 62
     0
370
    30
100
AcDbPolyline
 90
       10
 70
     0
 43
0.0
 10
727.363647
 20
765.172119
 10
727.351501
 20
765.13916
 10
727.330933
 20
765.038513
 10
727.302612
 20
764.873169
 10
727.267334
 20
764.64679
 10
727.225708
 20
764.362
 10
727.178345
 20
764.020813
 10
727.125793
 20
763.625488
 10
727.068787
 20
763.178589
 10
727.00354
 20
762.645325
  0
LINE
  5
1EA
330
161
100
AcDbEntity
  8
0
  6
Continuous
 62
     0
370
     0
100
AcDbLine
 10
725.768596
 20
742.978132
 30
0.0
 11
725.764826
 21
742.802096
 31
0.0
  0
LINE
  5
1EB
330
161
100
AcDbEntity
  8
0
  6
Continuous
 62
     0
370
    30
100
AcDbLine
 10
725.770437
 20
743.069692
 30
0.0
 11
725.768602
 21
742.983743
 31
0.0
  0
ARC
  5
1EC
330
161
100
AcDbEntity
  8
0
  6
Continuous
 62
     0
370
    30
100
AcDbCircle
 10
1034.745887
 20
735.591967
 30
0.0
 40
309.0692110374662
100
AcDbArc
 50
177.170399
 51
178.208587
  0
LWPOLYLINE
  5
1ED
330
161
100
AcDbEntity
  8
0
  6
Continuous
 62
     0
370
     0
100
AcDbPolyline
 90
       13
 70
     0
 43
0.0
 10
725.768616
 20
742.983765
 10
725.724365
 20
739.504517
 10
725.735535
 20
736.026855
 10
725.798828
 20
732.548706
 10
725.909058
 20
729.071655
 10
726.060669
 20
725.596313
 10
726.24646
 20
722.122742
 10
726.458313
 20
718.650696
 10
726.6875
 20
715.179749
 10
726.924988
 20
711.709473
 10
727.162354
 20
708.239868
 10
727.390625
 20
704.768188
 10
727.621521
 20
700.993896
  0
LWPOLYLINE
  5
1EE
330
161
100
AcDbEntity
  8
0
  6
Continuous
 62
     0
370
     0
100
AcDbPolyline
 90
        6
 70
     0
 43
0.0
 10
727.096252
 20
700.983765
 10
727.247192
 20
700.99176
 10
727.388123
 20
700.997437
 10
727.503235
 20
701.0
 10
727.582764
 20
700.99939
 10
727.62146
 20
700.993896
  0
LWPOLYLINE
  5
1EF
330
161
100
AcDbEntity
  8
0
  6
Continuous
 62
     0
370
     0
100
AcDbPolyline
 90
        6
 70
     0
 43
0.0
 10
727.096008
 20
700.465942
 10
727.089172
 20
700.488953
 10
727.085327
 20
700.554932
 10
727.084839
 20
700.657715
 10
727.087769
 20
700.78833
 10
727.096252
 20
700.983765
  0
LWPOLYLINE
  5
1F0
330
161
100
AcDbEntity
  8
0
  6
Continuous
 62
     0
370
     0
100
AcDbPolyline
 90
        2
 70
     0
 43
0.0
 10
727.170532
 20
700.467468
 10
727.096008
 20
700.465942
  0
LINE
  5
1F1
330
161
100
AcDbEntity
  8
0
  6
Continuous
 62
     0
370
    30
100
AcDbLine
 10
727.033376
 20
700.4601
 30
0.0
 11
727.09599
 21
700.465935
 31
0.0
  0
ARC
  5
1F2
330
161
100
AcDbEntity
  8
0
  6
Continuous
 62
     0
370
    30
100
AcDbCircle
 10
727.059749
 20
700.959186
 30
0.0
 40
0.49978240868059
100
AcDbArc
 50
266.975237
 51
279.030032
  0
LINE
  5
1F3
330
161
100
AcDbEntity
  8
0
  6
Continuous
 62
     0
370
    30
100
AcDbLine
 10
727.09599
 20
700.465934
 30
0.0
 11
712.586017
 21
701.230793
 31
0.0
  0
LWPOLYLINE
  5
1F4
330
161
100
AcDbEntity
  8
0
  6
Continuous
 62
     0
370
     0
100
AcDbPolyline
 90
        6
 70
     0
 43
0.0
 10
712.585999
 20
701.230774
 10
712.579163
 20
701.25415
 10
712.575378
 20
701.320984
 10
712.574951
 20
701.425232
 10
712.577881
 20
701.55719
 10
712.586548
 20
701.75354
  0
LINE
  5
1F5
330
161
100
AcDbEntity
  8
0
  6
Continuous
 62
     0
370
    30
100
AcDbLine
 10
712.114249
 20
701.773497
 30
0.0
 11
715.781321
 21
743.872597
 31
0.0
  0
LWPOLYLINE
  5
1F6
330
161
100
AcDbEntity
  8
0
  6
Continuous
 62
     0
370
     0
100
AcDbPolyline
 90
        5
 70
     0
 43
0.0
 10
712.586304
 20
701.75354
 10
712.407898
 20
701.767212
 10
712.256531
 20
701.775879
 10
712.154358
 20
701.778259
 10
712.114258
 20
701.773499
  0
ARC
  5
1F7
330
161
100
AcDbEntity
  8
0
  6
Continuous
 62
     0
370
    30
100
AcDbCircle
 10
712.612783
 20
701.730465
 30
0.0
 40
0.5003880178701228
100
AcDbArc
 50
175.067933
 51
266.933702
  0
ARC
  5
1F8
330
161
100
AcDbEntity
  8
0
  6
Continuous
 62
     0
370
    30
100
AcDbCircle
 10
712.612789
 20
701.722798
 30
0.0
 40
0.5004435734907042
100
AcDbArc
 50
181.765772
 51
266.933311
  0
LINE
  5
1F9
330
161
100
AcDbEntity
  8
0
  6
Continuous
 62
     0
370
    30
100
AcDbLine
 10
712.11281
 20
701.707384
 30
0.0
 11
712.11331
 21
701.756572
 31
0.0
  0
LINE
  5
1FA
330
161
100
AcDbEntity
  8
0
  6
Continuous
 62
     0
370
    30
100
AcDbLine
 10
727.106162
 20
700.461561
 30
0.0
 11
727.160918
 21
700.466665
 31
0.0
  0
LWPOLYLINE
  5
1FB
330
161
100
AcDbEntity
  8
0
  6
Continuous
 62
     0
370
    30
100
AcDbPolyline
 90
        7
 70
     0
 43
0.0
 10
727.621521
 20
700.994019
 10
727.612732
 20
700.867493
 10
727.572205
 20
700.747314
 10
727.502991
 20
700.641052
 10
727.40918
 20
700.555786
 10
727.296936
 20
700.496826
 10
727.170532
 20
700.467468
  0
ARC
  5
1FC
330
161
100
AcDbEntity
  8
0
  6
Continuous
 62
     0
370
    30
100
AcDbCircle
 10
727.172125
 20
700.657717
 30
0.0
 40
0.1898801489656327
100
AcDbArc
 50
269.505301
 51
288.200512
  0
LWPOLYLINE
  5
1FD
330
161
100
AcDbEntity
  8
0
  6
Continuous
 62
     0
370
    30
100
AcDbPolyline
 90
        4
 70
     0
 43
0.0
 10
727.621521
 20
700.994019
 10
727.371338
 20
705.071045
 10
727.100647
 20
709.14856
 10
726.72699
 20
714.596619
  0
ARC
  5
1FE
330
161
100
AcDbEntity
  8
0
  6
Continuous
 62
     0
370
    30
100
AcDbCircle
 10
968.390033
 20
737.797462
 30
0.0
 40
242.6768773743958
100
AcDbArc
 50
178.239297
 51
178.755134
  0
LINE
  5
1FF
330
161
100
AcDbEntity
  8
0
  6
Continuous
 62
     0
370
    30
100
AcDbLine
 10
726.091296
 20
751.591683
 30
0.0
 11
726.091253
 21
751.602767
 31
0.0
  0
LWPOLYLINE
  5
200
330
161
100
AcDbEntity
  8
0
  6
Continuous
 62
     0
370
    30
100
AcDbPolyline
 90
        8
 70
     0
 43
0.0
 10
727.003479
 20
762.645325
 10
726.931885
 20
762.032166
 10
726.85791
 20
761.368469
 10
726.782837
 20
760.662781
 10
726.707703
 20
759.922241
 10
726.633423
 20
759.153442
 10
726.56073
 20
758.362549
 10
726.478333
 20
757.412048
  0
LWPOLYLINE
  5
201
330
161
100
AcDbEntity
  8
0
  6
Continuous
 62
     0
370
    30
100
AcDbPolyline
 90
        7
 70
     0
 43
0.0
 10
714.071472
 20
762.401611
 10
715.899719
 20
762.74707
 10
717.719116
 20
763.144958
 10
719.528503
 20
763.587708
 10
721.328003
 20
764.068542
 10
723.118408
 20
764.580872
 10
725.179749
 20
765.204407
  0
LWPOLYLINE
  5
202
330
161
100
AcDbEntity
  8
0
  6
Continuous
 62
     0
370
    30
100
AcDbPolyline
 90
        5
 70
     0
 43
0.0
 10
714.050293
 20
749.82489
 10
713.657288
 20
750.049133
 10
713.235291
 20
750.215515
 10
712.79718
 20
750.333313
 10
712.329529
 20
750.421082
  0
LINE
  5
203
330
161
100
AcDbEntity
  8
0
  6
Continuous
 62
     0
370
    30
100
AcDbLine
 10
712.23514
 20
762.115549
 30
0.0
 11
712.279942
 21
762.121914
 31
0.0
  0
LWPOLYLINE
  5
204
330
161
100
AcDbEntity
  8
0
  6
Continuous
 62
     0
370
    30
100
AcDbPolyline
 90
       52
 70
     0
 43
0.0
 10
688.37561
 20
769.822937
 10
688.849854
 20
769.690186
 10
689.323914
 20
769.556824
 10
689.797607
 20
769.422058
 10
690.270813
 20
769.285461
 10
690.743469
 20
769.147156
 10
691.215698
 20
769.007263
 10
691.687439
 20
768.865967
 10
692.158813
 20
768.723267
 10
692.629822
 20
768.579285
 10
693.100342
 20
768.43396
 10
693.570557
 20
768.287354
 10
694.040344
 20
768.139587
 10
694.509766
 20
767.990601
 10
694.97876
 20
767.840515
 10
695.447449
 20
767.68927
 10
695.915833
 20
767.536926
 10
696.383789
 20
767.383545
 10
696.851501
 20
767.229187
 10
697.318848
 20
767.073792
 10
697.785828
 20
766.91748
 10
698.252563
 20
766.760254
 10
698.718994
 20
766.602173
 10
699.185181
 20
766.443298
 10
699.651062
 20
766.28363
 10
700.116638
 20
766.123169
 10
700.582031
 20
765.962036
 10
701.04718
 20
765.800232
 10
701.512146
 20
765.637756
 10
701.976868
 20
765.474731
 10
702.441345
 20
765.311096
 10
702.90564
 20
765.146851
 10
703.369812
 20
764.982178
 10
703.83374
 20
764.816956
 10
704.297546
 20
764.651306
 10
704.761169
 20
764.485229
 10
705.224731
 20
764.318848
 10
705.68811
 20
764.152161
 10
706.151489
 20
763.985229
 10
706.614746
 20
763.818054
 10
707.077881
 20
763.650574
 10
707.540833
 20
763.482727
 10
708.003723
 20
763.314453
 10
708.466492
 20
763.145996
 10
708.929443
 20
762.978027
 10
709.3927
 20
762.810791
 10
709.855408
 20
762.642212
 10
710.317383
 20
762.471558
 10
710.781738
 20
762.307495
 10
711.254456
 20
762.1698
 10
711.740479
 20
762.093384
 10
712.235168
 20
762.11554
  0
LINE
  5
205
330
161
100
AcDbEntity
  8
0
  6
Continuous
 62
     0
370
    30
100
AcDbLine
 10
688.375602
 20
769.822964
 30
0.0
 11
688.356172
 21
769.828125
 31
0.0
  0
ENDBLK
  5
207
330
161
100
AcDbEntity
  8
0
100
AcDbBlockEnd
  0
BLOCK
  5
2A4
330
209
100
AcDbEntity
  8
0
100
AcDbBlockBegin
  2
d
 70
     0
 10
399.891296
 20
0.000061
 30
0.0
  3
d
  1

  0
LINE
  5
20A
330
209
100
AcDbEntity
  8
0
  6
Continuous
 62
     0
370
    30
100
AcDbLine
 10
354.957121
 20
626.275574
 30
0.0
 11
354.957121
 21
686.275574
 31
0.0
  0
LINE
  5
20B
330
209
100
AcDbEntity
  8
0
  6
Continuous
 62
     0
370
    30
100
AcDbLine
 10
354.957121
 20
686.275574
 30
0.0
 11
344.957121
 21
686.275574
 31
0.0
  0
LINE
  5
20C
330
209
100
AcDbEntity
  8
0
  6
Continuous
 62
     0
370
    30
100
AcDbLine
 10
344.957121
 20
686.275574
 30
0.0
 11
344.957121
 21
626.275574
 31
0.0
  0
LINE
  5
20D
330
209
100
AcDbEntity
  8
0
  6
Continuous
 62
     0
370
    30
100
AcDbLine
 10
344.957121
 20
626.275574
 30
0.0
 11
354.957121
 21
626.275574
 31
0.0
  0
ARC
  5
20E
330
209
100
AcDbEntity
  8
0
  6
Continuous
 62
     0
370
    30
100
AcDbCircle
 10
343.957123
 20
668.859041
 30
0.0
 40
0.9999999392637984
100
AcDbArc
 50
0.000015
 51
105.443036
  0
ARC
  5
20F
330
209
100
AcDbEntity
  8
0
  6
Continuous
 62
     0
370
     0
100
AcDbCircle
 10
343.957123
 20
643.692005
 30
0.0
 40
0.9999999386523196
100
AcDbArc
 50
254.556964
 51
359.999985
  0
LWPOLYLINE
  5
210
330
209
100
AcDbEntity
  8
0
  6
Continuous
 62
     0
370
    30
100
AcDbPolyline
 90
       43
 70
     0
 43
0.0
 10
343.690857
 20
669.822937
 10
343.690918
 20
669.781128
 10
343.691101
 20
669.65918
 10
343.691376
 20
669.459839
 10
343.691742
 20
669.185852
 10
343.692139
 20
668.839966
 10
343.692566
 20
668.425171
 10
343.693024
 20
667.944214
 10
343.693573
 20
667.399353
 10
343.694092
 20
666.792847
 10
343.694397
 20
666.12738
 10
343.694977
 20
665.406372
 10
343.695862
 20
664.634338
 10
343.696533
 20
663.81665
 10
343.697021
 20
662.958984
 10
343.697388
 20
662.066956
 10
343.697784
 20
661.145935
 10
343.69812
 20
660.200562
 10
343.698364
 20
659.235168
 10
343.698425
 20
658.254272
 10
343.698395
 20
657.262939
 10
343.698364
 20
656.266479
 10
343.698395
 20
655.270081
 10
343.698425
 20
654.278931
 10
343.698364
 20
653.298279
 10
343.69812
 20
652.333252
 10
343.697784
 20
651.388306
 10
343.697418
 20
650.467834
 10
343.697021
 20
649.576355
 10
343.696533
 20
648.719421
 10
343.695831
 20
647.902527
 10
343.694977
 20
647.131409
 10
343.694397
 20
646.411316
 10
343.694092
 20
645.746887
 10
343.693573
 20
645.141479
 10
343.693024
 20
644.597717
 10
343.692566
 20
644.117981
 10
343.692139
 20
643.704407
 10
343.691772
 20
643.359863
 10
343.691437
 20
643.087158
 10
343.691132
 20
642.88916
 10
343.690918
 20
642.768555
 10
343.690857
 20
642.728088
  0
LWPOLYLINE
  5
211
330
209
100
AcDbEntity
  8
0
  6
Continuous
 62
     0
370
    30
100
AcDbPolyline
 90
       52
 70
     0
 43
0.0
 10
319.831299
 20
662.11554
 10
320.322205
 20
662.09314
 10
320.808014
 20
662.168823
 10
321.281219
 20
662.306396
 10
321.746033
 20
662.47052
 10
322.207977
 20
662.641113
 10
322.670929
 20
662.809448
 10
323.134186
 20
662.977112
 10
323.597198
 20
663.145264
 10
324.06012
 20
663.313599
 10
324.523102
 20
663.48175
 10
324.986237
 20
663.649597
 10
325.449463
 20
663.817139
 10
325.912781
 20
663.984375
 10
326.37619
 20
664.151428
 10
326.839661
 20
664.318176
 10
327.303284
 20
664.484558
 10
327.766998
 20
664.650635
 10
328.230835
 20
664.816284
 10
328.694855
 20
664.981506
 10
329.159027
 20
665.14624
 10
329.623383
 20
665.310425
 10
330.087921
 20
665.47406
 10
330.552643
 20
665.637146
 10
331.017578
 20
665.799622
 10
331.482727
 20
665.961426
 10
331.94812
 20
666.122559
 10
332.413757
 20
666.28302
 10
332.879639
 20
666.442688
 10
333.345764
 20
666.601562
 10
333.812164
 20
666.759644
 10
334.278839
 20
666.91687
 10
334.745819
 20
667.073181
 10
335.213104
 20
667.228577
 10
335.680695
 20
667.382935
 10
336.14859
 20
667.536316
 10
336.616821
 20
667.688599
 10
337.085388
 20
667.839844
 10
337.554321
 20
667.989929
 10
338.02359
 20
668.138855
 10
338.493256
 20
668.28656
 10
338.963287
 20
668.433044
 10
339.433685
 20
668.578247
 10
339.904449
 20
668.722229
 10
340.37561
 20
668.864868
 10
340.847168
 20
669.006165
 10
341.319122
 20
669.146057
 10
341.791534
 20
669.284302
 10
342.264465
 20
669.420776
 10
342.737885
 20
669.55542
 10
343.211639
 20
669.688782
 10
343.690857
 20
669.822937
  0
LWPOLYLINE
  5
212
330
209
100
AcDbEntity
  8
0
  6
Continuous
 62
     0
370
    30
100
AcDbPolyline
 90
       21
 70
     0
 43
0.0
 10
319.827301
 20
652.77478
 10
319.825104
 20
653.309814
 10
319.830048
 20
653.880554
 10
319.835022
 20
654.478638
 10
319.835632
 20
655.095886
 10
319.833466
 20
655.725647
 10
319.831177
 20
656.361389
 10
319.830261
 20
656.996521
 10
319.830322
 20
657.623962
 10
319.830658
 20
658.236511
 10
319.830963
 20
658.827087
 10
319.831238
 20
659.388489
 10
319.831482
 20
659.913635
 10
319.831604
 20
660.395081
 10
319.831512
 20
660.825928
 10
319.831451
 20
661.201782
 10
319.831512
 20
661.518433
 10
319.831573
 20
661.772034
 10
319.831604
 20
661.958618
 10
319.831512
 20
662.074341
 10
319.831299
 20
662.11554
  0
LINE
  5
213
330
209
100
AcDbEntity
  8
0
  6
Continuous
 62
     0
370
     0
100
AcDbLine
 10
319.837623
 20
652.266317
 30
0.0
 11
319.827301
 21
652.774788
 31
0.0
  0
LWPOLYLINE
  5
214
330
209
100
AcDbEntity
  8
0
  6
Continuous
 62
     0
370
     0
100
AcDbPolyline
 90
        3
 70
     0
 43
0.0
 10
319.832184
 20
651.384583
 10
319.840118
 20
651.761841
 10
319.837616
 20
652.266296
  0
ARC
  5
215
330
209
100
AcDbEntity
  8
0
  6
Continuous
 62
     0
370
     0
100
AcDbCircle
 10
337.839443
 20
651.179903
 30
0.0
 40
18.00842321856248
100
AcDbArc
 50
179.348758
 51
180.497869
  0
ARC
  5
216
330
209
100
AcDbEntity
  8
0
  6
Continuous
 62
     0
370
     0
100
AcDbCircle
 10
297.684176
 20
650.699617
 30
0.0
 40
22.14989058244966
100
AcDbArc
 50
359.317139
 51
0.837625
  0
LINE
  5
217
330
209
100
AcDbEntity
  8
0
  6
Continuous
 62
     0
370
    30
100
AcDbLine
 10
319.434609
 20
662.171903
 30
0.0
 11
319.831305
 21
662.115524
 31
0.0
  0
LWPOLYLINE
  5
218
330
209
100
AcDbEntity
  8
0
  6
Continuous
 62
     0
370
    30
100
AcDbPolyline
 90
       57
 70
     0
 43
0.0
 10
316.285126
 20
643.870239
 10
316.265594
 20
644.355469
 10
316.245422
 20
644.657227
 10
316.230713
 20
644.890869
 10
316.221252
 20
645.090393
 10
316.216003
 20
645.268677
 10
316.214294
 20
645.432861
 10
316.215576
 20
645.587463
 10
316.219574
 20
645.735413
 10
316.226013
 20
645.878418
 10
316.23468
 20
646.017395
 10
316.245453
 20
646.15271
 10
316.258209
 20
646.284424
 10
316.272766
 20
646.412476
 10
316.289062
 20
646.536682
 10
316.306946
 20
646.657043
 10
316.326294
 20
646.773499
 10
316.346985
 20
646.886108
 10
316.368774
 20
646.994812
 10
316.391479
 20
647.099487
 10
316.414856
 20
647.200012
 10
316.438599
 20
647.295959
 10
316.462402
 20
647.387207
 10
316.485931
 20
647.473267
 10
316.508972
 20
647.554016
 10
316.531281
 20
647.629395
 10
316.552856
 20
647.699585
 10
316.5737
 20
647.765076
 10
316.594086
 20
647.82666
 10
316.614288
 20
647.885315
 10
316.634766
 20
647.942261
 10
316.656006
 20
647.99884
 10
316.678497
 20
648.056091
 10
316.702545
 20
648.11499
 10
316.728455
 20
648.176147
 10
316.756317
 20
648.239624
 10
316.786133
 20
648.305237
 10
316.81778
 20
648.37262
 10
316.851196
 20
648.441223
 10
316.886353
 20
648.510681
 10
316.923248
 20
648.580627
 10
316.961975
 20
648.65094
 10
317.002655
 20
648.721619
 10
317.04541
 20
648.792542
 10
317.090363
 20
648.86377
 10
317.137726
 20
648.935242
 10
317.187775
 20
649.00708
 10
317.240997
 20
649.079407
 10
317.297943
 20
649.152527
 10
317.359253
 20
649.226868
 10
317.425446
 20
649.302612
 10
317.496887
 20
649.3797
 10
317.573761
 20
649.457947
 10
317.656067
 20
649.536682
 10
317.743805
 20
649.615173
 10
317.837494
 20
649.692993
 10
317.939819
 20
649.771118
  0
LWPOLYLINE
  5
219
330
209
100
AcDbEntity
  8
0
  6
Continuous
 62
     0
370
    30
100
AcDbPolyline
 90
       77
 70
     0
 43
0.0
 10
319.831665
 20
651.02356
 10
319.281403
 20
650.873962
 10
318.935974
 20
650.755127
 10
318.6922
 20
650.653625
 10
318.504181
 20
650.562012
 10
318.350159
 20
650.476379
 10
318.218933
 20
650.39502
 10
318.104065
 20
650.31665
 10
318.001373
 20
650.240356
 10
317.907806
 20
650.165283
 10
317.821167
 20
650.090698
 10
317.739868
 20
650.016174
 10
317.662994
 20
649.941711
 10
317.590027
 20
649.867432
 10
317.520752
 20
649.793701
 10
317.45517
 20
649.720886
 10
317.39325
 20
649.649353
 10
317.3349
 20
649.579224
 10
317.279968
 20
649.510681
 10
317.22821
 20
649.44342
 10
317.17923
 20
649.37738
 10
317.13269
 20
649.312134
 10
317.088257
 20
649.24762
 10
317.045685
 20
649.183472
 10
317.004761
 20
649.119751
 10
316.965363
 20
649.056274
 10
316.92746
 20
648.993164
 10
316.89093
 20
648.930298
 10
316.855774
 20
648.867798
 10
316.821899
 20
648.805542
 10
316.789276
 20
648.743713
 10
316.757904
 20
648.682312
 10
316.727814
 20
648.621643
 10
316.699005
 20
648.561951
 10
316.6716
 20
648.50354
 10
316.64566
 20
648.446655
 10
316.621216
 20
648.391479
 10
316.598267
 20
648.338074
 10
316.576691
 20
648.286194
 10
316.556335
 20
648.235413
 10
316.536957
 20
648.185181
 10
316.51828
 20
648.134766
 10
316.5
 20
648.083435
 10
316.481812
 20
648.030334
 10
316.463501
 20
647.974731
 10
316.444855
 20
647.916138
 10
316.425751
 20
647.853943
 10
316.406158
 20
647.787903
 10
316.386169
 20
647.717834
 10
316.365814
 20
647.643799
 10
316.345337
 20
647.565735
 10
316.32489
 20
647.483948
 10
316.304749
 20
647.39856
 10
316.285065
 20
647.309753
 10
316.266083
 20
647.217712
 10
316.248047
 20
647.12262
 10
316.231079
 20
647.024597
 10
316.215332
 20
646.923706
 10
316.200928
 20
646.819885
 10
316.187988
 20
646.713196
 10
316.176514
 20
646.603699
 10
316.166595
 20
646.491333
 10
316.158234
 20
646.376221
 10
316.151428
 20
646.258423
 10
316.14621
 20
646.138062
 10
316.142578
 20
646.015015
 10
316.140686
 20
645.889221
 10
316.140717
 20
645.760254
 10
316.143036
 20
645.62738
 10
316.148224
 20
645.48938
 10
316.157013
 20
645.344238
 10
316.170197
 20
645.18927
 10
316.188354
 20
645.020264
 10
316.211121
 20
644.830566
 10
316.236603
 20
644.607544
 10
316.261475
 20
644.318909
 10
316.285126
 20
643.867859
  0
ARC
  5
21A
330
209
100
AcDbEntity
  8
0
  6
Continuous
 62
     0
370
     0
100
AcDbCircle
 10
322.81232
 20
647.350109
 30
0.0
 40
6.191867757937551
100
AcDbArc
 50
118.822326
 51
122.972436
  0
LWPOLYLINE
  5
21B
330
209
100
AcDbEntity
  8
0
  6
Continuous
 62
     0
370
    30
100
AcDbPolyline
 90
       68
 70
     0
 43
0.0
 10
315.816376
 20
643.825745
 10
315.666901
 20
644.450989
 10
315.596375
 20
644.839355
 10
315.555328
 20
645.141113
 10
315.529633
 20
645.399109
 10
315.514099
 20
645.629578
 10
315.506226
 20
645.841553
 10
315.50473
 20
646.040527
 10
315.508789
 20
646.229797
 10
315.517914
 20
646.411499
 10
315.531677
 20
646.586609
 10
315.549591
 20
646.755615
 10
315.571198
 20
646.918762
 10
315.5961
 20
647.076111
 10
315.623779
 20
647.227722
 10
315.6539
 20
647.373779
 10
315.686035
 20
647.514343
 10
315.719788
 20
647.649536
 10
315.75473
 20
647.779358
 10
315.790527
 20
647.903748
 10
315.826721
 20
648.022522
 10
315.862976
 20
648.135681
 10
315.899017
 20
648.243225
 10
315.934692
 20
648.345337
 10
315.970032
 20
648.442627
 10
316.005157
 20
648.535828
 10
316.040466
 20
648.626038
 10
316.076355
 20
648.714294
 10
316.11319
 20
648.801636
 10
316.151367
 20
648.888977
 10
316.191193
 20
648.976746
 10
316.232849
 20
649.065308
 10
316.276489
 20
649.154663
 10
316.322205
 20
649.244934
 10
316.370117
 20
649.335938
 10
316.420227
 20
649.427612
 10
316.472443
 20
649.519775
 10
316.52655
 20
649.612122
 10
316.582153
 20
649.703979
 10
316.638855
 20
649.794678
 10
316.696259
 20
649.883667
 10
316.754333
 20
649.970581
 10
316.813385
 20
650.055786
 10
316.874115
 20
650.140076
 10
316.937531
 20
650.224731
 10
317.004669
 20
650.310974
 10
317.076263
 20
650.399841
 10
317.152527
 20
650.49176
 10
317.233063
 20
650.586243
 10
317.316864
 20
650.682129
 10
317.402557
 20
650.777893
 10
317.488647
 20
650.871948
 10
317.573853
 20
650.962891
 10
317.657288
 20
651.049866
 10
317.738678
 20
651.132751
 10
317.818298
 20
651.211975
 10
317.897034
 20
651.288452
 10
317.976288
 20
651.363647
 10
318.057831
 20
651.43927
 10
318.143799
 20
651.517273
 10
318.236694
 20
651.599731
 10
318.339294
 20
651.688904
 10
318.454712
 20
651.787109
 10
318.586517
 20
651.896912
 10
318.739319
 20
652.02124
 10
318.920013
 20
652.164429
 10
319.140381
 20
652.332458
 10
319.442474
 20
652.544678
  0
ARC
  5
21C
330
209
100
AcDbEntity
  8
0
  6
Continuous
 62
     0
370
    30
100
AcDbCircle
 10
318.126211
 20
620.772926
 30
0.0
 40
23.16822795884733
100
AcDbArc
 50
94.557876
 51
95.721798
  0
ARC
  5
21D
330
209
100
AcDbEntity
  8
0
  6
Continuous
 62
     0
370
     0
100
AcDbCircle
 10
369.339431
 20
866.900453
 30
0.0
 40
211.1435743693305
100
AcDbArc
 50
252.359277
 51
252.939431
  0
ARC
  5
21E
330
209
100
AcDbEntity
  8
0
  6
Continuous
 62
     0
370
     0
100
AcDbCircle
 10
327.57105
 20
717.809689
 30
0.0
 40
56.22957260852965
100
AcDbArc
 50
259.851648
 51
261.68007
  0
LWPOLYLINE
  5
21F
330
209
100
AcDbEntity
  8
0
  6
Continuous
 62
     0
370
    30
100
AcDbPolyline
 90
        6
 70
     0
 43
0.0
 10
319.434601
 20
652.556946
 10
317.070618
 20
652.309143
 10
314.724487
 20
651.998779
 10
312.395294
 20
651.639343
 10
310.081085
 20
651.241821
 10
307.756897
 20
650.810547
  0
LINE
  5
220
330
209
100
AcDbEntity
  8
0
  6
Continuous
 62
     0
370
     0
100
AcDbLine
 10
307.75689
 20
650.81055
 30
0.0
 11
306.745729
 21
650.614836
 31
0.0
  0
LWPOLYLINE
  5
221
330
209
100
AcDbEntity
  8
0
  6
Continuous
 62
     0
370
     0
100
AcDbPolyline
 90
       10
 70
     0
 43
0.0
 10
306.745728
 20
650.614807
 10
306.778564
 20
649.915466
 10
306.798767
 20
649.214478
 10
306.812286
 20
648.470215
 10
306.814514
 20
647.666992
 10
306.809418
 20
646.809692
 10
306.800171
 20
645.91217
 10
306.799072
 20
644.991516
 10
306.809601
 20
644.062439
 10
306.826508
 20
643.024902
  0
LWPOLYLINE
  5
222
330
209
100
AcDbEntity
  8
0
  6
Continuous
 62
     0
370
    30
100
AcDbPolyline
 90
       17
 70
     0
 43
0.0
 10
306.826508
 20
643.024902
 10
306.826508
 20
643.023438
 10
306.832062
 20
642.697815
 10
306.837097
 20
642.382568
 10
306.841949
 20
642.062317
 10
306.848358
 20
641.60437
 10
306.871521
 20
637.920959
 10
306.831024
 20
634.237
 10
306.736481
 20
630.554138
 10
306.592224
 20
626.873108
 10
306.406464
 20
623.193909
 10
306.18869
 20
619.516479
 10
305.949036
 20
615.840515
 10
305.698151
 20
612.165527
 10
305.446655
 20
608.491577
 10
305.203949
 20
604.817139
 10
304.970276
 20
600.973816
  0
LINE
  5
223
330
209
100
AcDbEntity
  8
0
  6
Continuous
 62
     0
370
    30
100
AcDbLine
 10
304.970276
 20
600.97384
 30
0.0
 11
305.032656
 21
600.977156
 31
0.0
  0
LINE
  5
224
330
209
100
AcDbEntity
  8
0
  6
Continuous
 62
     0
370
     0
100
AcDbLine
 10
305.032656
 20
600.977156
 30
0.0
 11
319.480163
 21
601.744943
 31
0.0
  0
LINE
  5
225
330
209
100
AcDbEntity
  8
0
  6
Continuous
 62
     0
370
    30
100
AcDbLine
 10
319.480163
 20
601.744943
 30
0.0
 11
315.816389
 21
643.825633
 31
0.0
  0
LWPOLYLINE
  5
226
330
209
100
AcDbEntity
  8
0
  6
Continuous
 62
     0
370
    30
100
AcDbPolyline
 90
       28
 70
     0
 43
0.0
 10
305.352936
 20
665.685791
 10
305.377747
 20
665.636597
 10
305.393402
 20
665.522583
 10
305.418274
 20
665.341248
 10
305.451141
 20
665.096252
 10
305.490509
 20
664.791016
 10
305.535583
 20
664.428101
 10
305.585724
 20
664.01001
 10
305.640472
 20
663.5401
 10
305.699249
 20
663.0224
 10
305.761475
 20
662.461182
 10
305.826447
 20
661.861023
 10
305.893494
 20
661.226685
 10
305.961914
 20
660.562805
 10
306.030945
 20
659.874146
 10
306.099884
 20
659.165161
 10
306.16806
 20
658.440247
 10
306.234894
 20
657.703674
 10
306.299866
 20
656.959534
 10
306.362488
 20
656.211914
 10
306.422424
 20
655.464966
 10
306.47937
 20
654.722778
 10
306.533051
 20
653.989807
 10
306.583221
 20
653.270691
 10
306.62973
 20
652.569946
 10
306.672424
 20
651.892334
 10
306.71106
 20
651.243042
 10
306.745728
 20
650.614807
  0
LWPOLYLINE
  5
227
330
209
100
AcDbEntity
  8
0
  6
Continuous
 62
     0
370
     0
100
AcDbPolyline
 90
       22
 70
     0
 43
0.0
 10
319.434601
 20
652.556946
 10
319.431671
 20
653.073486
 10
319.431854
 20
653.622925
 10
319.434265
 20
654.198853
 10
319.435455
 20
654.794189
 10
319.435272
 20
655.403076
 10
319.434631
 20
656.019958
 10
319.434296
 20
656.639343
 10
319.434326
 20
657.255066
 10
319.43454
 20
657.861023
 10
319.434723
 20
658.45105
 10
319.434814
 20
659.018494
 10
319.434814
 20
659.55658
 10
319.434662
 20
660.058716
 10
319.43454
 20
660.518982
 10
319.434631
 20
660.931763
 10
319.434998
 20
661.291626
 10
319.435089
 20
661.594727
 10
319.433441
 20
661.83783
 10
319.428741
 20
662.018005
 10
319.425171
 20
662.131104
 10
319.434601
 20
662.171875
  0
ARC
  5
228
330
209
100
AcDbEntity
  8
0
  6
Continuous
 62
     0
370
     0
100
AcDbCircle
 10
305.201438
 20
665.209302
 30
0.0
 40
0.5000000860155949
100
AcDbArc
 50
72.36155
 51
184.266413
  0
LWPOLYLINE
  5
229
330
209
100
AcDbEntity
  8
0
  6
Continuous
 62
     0
370
    30
100
AcDbPolyline
 90
        5
 70
     0
 43
0.0
 10
305.589355
 20
657.383484
 10
305.675446
 20
656.315979
 10
305.754761
 20
655.249634
 10
305.826691
 20
654.200256
 10
305.905304
 20
652.926086
  0
LWPOLYLINE
  5
22A
330
209
100
AcDbEntity
  8
0
  6
Continuous
 62
     0
370
    30
100
AcDbPolyline
 90
       10
 70
     0
 43
0.0
 10
304.70282
 20
665.172119
 10
304.714905
 20
665.138062
 10
304.735352
 20
665.036743
 10
304.76355
 20
664.871155
 10
304.798676
 20
664.644836
 10
304.840118
 20
664.360413
 10
304.887238
 20
664.02002
 10
304.939545
 20
663.625793
 10
304.996307
 20
663.180298
 10
305.061493
 20
662.647156
  0
ARC
  5
22B
330
209
100
AcDbEntity
  8
0
  6
Continuous
 62
     0
370
    30
100
AcDbCircle
 10
154.41623
 20
644.068664
 30
0.0
 40
151.7477868475512
100
AcDbArc
 50
2.556884
 51
3.346228
  0
LWPOLYLINE
  5
22C
330
209
100
AcDbEntity
  8
0
  6
Continuous
 62
     0
370
    30
100
AcDbPolyline
 90
        6
 70
     0
 43
0.0
 10
306.012939
 20
650.838318
 10
306.070404
 20
650.728455
 10
306.193848
 20
650.640686
 10
306.364746
 20
650.588135
 10
306.563171
 20
650.579041
 10
306.745728
 20
650.614807
  0
ARC
  5
22D
330
209
100
AcDbEntity
  8
0
  6
Continuous
 62
     0
370
    30
100
AcDbCircle
 10
-1.054753
 20
635.637163
 30
0.0
 40
307.4437238951338
100
AcDbArc
 50
1.792155
 51
2.834071
  0
LWPOLYLINE
  5
22E
330
209
100
AcDbEntity
  8
0
  6
Continuous
 62
     0
370
     0
100
AcDbPolyline
 90
        6
 70
     0
 43
0.0
 10
306.297852
 20
642.978088
 10
306.322571
 20
642.980225
 10
306.392548
 20
642.986389
 10
306.500122
 20
642.995911
 10
306.635559
 20
643.007874
 10
306.826508
 20
643.024902
  0
LWPOLYLINE
  5
22F
330
209
100
AcDbEntity
  8
0
  6
Continuous
 62
     0
370
     0
100
AcDbPolyline
 90
       10
 70
     0
 43
0.0
 10
306.348907
 20
639.038391
 10
306.325531
 20
634.804504
 10
306.227509
 20
630.570374
 10
306.064545
 20
626.340454
 10
305.848877
 20
622.113464
 10
305.594696
 20
617.886536
 10
305.31781
 20
613.660217
 10
305.034576
 20
609.438904
 10
304.760315
 20
605.220154
 10
304.507568
 20
600.988098
  0
LWPOLYLINE
  5
230
330
209
100
AcDbEntity
  8
0
  6
Continuous
 62
     0
370
     0
100
AcDbPolyline
 90
        5
 70
     0
 43
0.0
 10
304.507568
 20
600.988098
 10
304.541748
 20
600.993103
 10
304.636475
 20
600.993713
 10
304.779388
 20
600.989868
 10
304.970551
 20
600.981079
  0
LINE
  5
231
330
209
100
AcDbEntity
  8
0
  6
Continuous
 62
     0
370
     0
100
AcDbLine
 10
304.444945
 20
600.993901
 30
0.0
 11
304.507562
 21
600.988097
 31
0.0
  0
LWPOLYLINE
  5
232
330
209
100
AcDbEntity
  8
0
  6
Continuous
 62
     0
370
     0
100
AcDbPolyline
 90
       13
 70
     0
 43
0.0
 10
306.301605
 20
642.802002
 10
306.342804
 20
639.339783
 10
306.329224
 20
635.878967
 10
306.264313
 20
632.417664
 10
306.153046
 20
628.957458
 10
306.000977
 20
625.499023
 10
305.815338
 20
622.042358
 10
305.604065
 20
618.587097
 10
305.375793
 20
615.132996
 10
305.139374
 20
611.679504
 10
304.903198
 20
608.226685
 10
304.676056
 20
604.771851
 10
304.444946
 20
600.993896
  0
LWPOLYLINE
  5
233
330
209
100
AcDbEntity
  8
0
  6
Continuous
 62
     0
370
     0
100
AcDbPolyline
 90
        6
 70
     0
 43
0.0
 10
304.444946
 20
600.993896
 10
304.459534
 20
600.842163
 10
304.519287
 20
600.70166
 10
304.619171
 20
600.585205
 10
304.749695
 20
600.504578
 10
304.928253
 20
600.465576
  0
ARC
  5
234
330
209
100
AcDbEntity
  8
0
  6
Continuous
 62
     0
370
     0
100
AcDbCircle
 10
305.007164
 20
600.959811
 30
0.0
 40
0.5004052226290451
100
AcDbArc
 50
176.762317
 51
272.967277
  0
LINE
  5
235
330
209
100
AcDbEntity
  8
0
  6
Continuous
 62
     0
370
     0
100
AcDbLine
 10
305.033068
 20
600.460077
 30
0.0
 11
319.480428
 21
601.223048
 31
0.0
  0
LINE
  5
236
330
209
100
AcDbEntity
  8
0
  6
Continuous
 62
     0
370
     0
100
AcDbLine
 10
316.285123
 20
643.867886
 30
0.0
 11
319.952196
 21
601.765752
 31
0.0
  0
ARC
  5
237
330
209
100
AcDbEntity
  8
0
  6
Continuous
 62
     0
370
    30
100
AcDbCircle
 10
319.453661
 20
601.72272
 30
0.0
 40
0.5003880178017824
100
AcDbArc
 50
273.066296
 51
4.932067
  0
LWPOLYLINE
  5
238
330
209
100
AcDbEntity
  8
0
  6
Continuous
 62
     0
370
     0
100
AcDbPolyline
 90
        5
 70
     0
 43
0.0
 10
319.480743
 20
601.740356
 10
319.658936
 20
601.755249
 10
319.81012
 20
601.765198
 10
319.91214
 20
601.768982
 10
319.952209
 20
601.765747
  0
LWPOLYLINE
  5
239
330
209
100
AcDbEntity
  8
0
  6
Continuous
 62
     0
370
     0
100
AcDbPolyline
 90
        6
 70
     0
 43
0.0
 10
319.480316
 20
601.740295
 10
319.487396
 20
601.586304
 10
319.491302
 20
601.445374
 10
319.491577
 20
601.33136
 10
319.488312
 20
601.255432
 10
319.480438
 20
601.223022
  0
LWPOLYLINE
  5
23A
330
209
100
AcDbEntity
  8
0
  6
Continuous
 62
     0
370
     0
100
AcDbPolyline
 90
        6
 70
     0
 43
0.0
 10
305.033081
 20
600.460083
 10
305.039917
 20
600.482849
 10
305.043793
 20
600.548462
 10
305.044342
 20
600.651123
 10
305.041504
 20
600.781372
 10
305.032959
 20
600.977356
  0
LINE
  5
23B
330
209
100
AcDbEntity
  8
0
  6
Continuous
 62
     0
370
    30
100
AcDbLine
 10
304.960282
 20
600.461538
 30
0.0
 11
304.897669
 21
600.467374
 31
0.0
  0
LWPOLYLINE
  5
23C
330
209
100
AcDbEntity
  8
0
  6
Continuous
 62
     0
370
    30
100
AcDbPolyline
 90
        3
 70
     0
 43
0.0
 10
304.927612
 20
600.465698
 10
304.907898
 20
600.466858
 10
304.835022
 20
600.477295
  0
LINE
  5
23D
330
209
100
AcDbEntity
  8
0
  6
Continuous
 62
     0
370
    30
100
AcDbLine
 10
305.975148
 20
651.59166
 30
0.0
 11
305.975192
 21
651.602744
 31
0.0
  0
ARC
  5
23E
330
209
100
AcDbEntity
  8
0
  6
Continuous
 62
     0
370
    30
100
AcDbCircle
 10
90.637171
 20
638.212307
 30
0.0
 40
215.7133302894884
100
AcDbArc
 50
0.21942
 51
1.265951
  0
ARC
  5
23F
330
209
100
AcDbEntity
  8
0
  6
Continuous
 62
     0
370
    30
100
AcDbCircle
 10
65.085072
 20
637.829704
 30
0.0
 40
241.2677131208707
100
AcDbArc
 50
1.222726
 51
1.762941
  0
LWPOLYLINE
  5
240
330
209
100
AcDbEntity
  8
0
  6
Continuous
 62
     0
370
    30
100
AcDbPolyline
 90
        8
 70
     0
 43
0.0
 10
305.061493
 20
662.647156
 10
305.133545
 20
662.030029
 10
305.207977
 20
661.361755
 10
305.283508
 20
660.651062
 10
305.359131
 20
659.905151
 10
305.433868
 20
659.130737
 10
305.506989
 20
658.334106
 10
305.589325
 20
657.383484
  0
LWPOLYLINE
  5
241
330
209
100
AcDbEntity
  8
0
  6
Continuous
 62
     0
370
    30
100
AcDbPolyline
 90
        6
 70
     0
 43
0.0
 10
317.663544
 20
662.459839
 10
315.59726
 20
662.865967
 10
313.542603
 20
663.336182
 10
311.500854
 20
663.860107
 10
309.471222
 20
664.427917
 10
307.393616
 20
665.048218
  0
LWPOLYLINE
  5
242
330
209
100
AcDbEntity
  8
0
  6
Continuous
 62
     0
370
    30
100
AcDbPolyline
 90
        6
 70
     0
 43
0.0
 10
317.939819
 20
649.771118
 10
318.267273
 20
649.977173
 10
318.619843
 20
650.140198
 10
318.988556
 20
650.262817
 10
319.366211
 20
650.354187
 10
319.832489
 20
650.435608
  0
LWPOLYLINE
  5
243
330
209
100
AcDbEntity
  8
0
  6
Continuous
 62
     0
370
    30
100
AcDbPolyline
 90
       52
 70
     0
 43
0.0
 10
343.690857
 20
642.728088
 10
343.216614
 20
642.86084
 10
342.742554
 20
642.994263
 10
342.26889
 20
643.128967
 10
341.795746
 20
643.265564
 10
341.32312
 20
643.40387
 10
340.850922
 20
643.543701
 10
340.379181
 20
643.684998
 10
339.907837
 20
643.827698
 10
339.43689
 20
643.97168
 10
338.966339
 20
644.117004
 10
338.496216
 20
644.26355
 10
338.026459
 20
644.411316
 10
337.557068
 20
644.560303
 10
337.088043
 20
644.710449
 10
336.619354
 20
644.861633
 10
336.151062
 20
645.013977
 10
335.683075
 20
645.167297
 10
335.215424
 20
645.321716
 10
334.748108
 20
645.477051
 10
334.281128
 20
645.633362
 10
333.814423
 20
645.790527
 10
333.348022
 20
645.948608
 10
332.881897
 20
646.107483
 10
332.416046
 20
646.267212
 10
331.950439
 20
646.427612
 10
331.485077
 20
646.588745
 10
331.019958
 20
646.750549
 10
330.555054
 20
646.912964
 10
330.090363
 20
647.075989
 10
329.625885
 20
647.239624
 10
329.161621
 20
647.403809
 10
328.69751
 20
647.568542
 10
328.233582
 20
647.733704
 10
327.769806
 20
647.899353
 10
327.306183
 20
648.06543
 10
326.842682
 20
648.231812
 10
326.379303
 20
648.398499
 10
325.915985
 20
648.56543
 10
325.452759
 20
648.732544
 10
324.989655
 20
648.900024
 10
324.526672
 20
649.067871
 10
324.063873
 20
649.236145
 10
323.601074
 20
649.404541
 10
323.138153
 20
649.57251
 10
322.674957
 20
649.739807
 10
322.21225
 20
649.908386
 10
321.750275
 20
650.078979
 10
321.28598
 20
650.243042
 10
320.813354
 20
650.380859
 10
320.327393
 20
650.45752
 10
319.832489
 20
650.435608
  0
LINE
  5
244
330
209
100
AcDbEntity
  8
0
  6
Continuous
 62
     0
370
    30
100
AcDbLine
 10
343.690843
 20
642.728105
 30
0.0
 11
343.710278
 21
642.722942
 31
0.0
  0
ARC
  5
245
330
209
100
AcDbEntity
  8
0
  6
Continuous
 62
     0
370
     0
100
AcDbCircle
 10
378.176402
 20
477.371921
 30
0.0
 40
33.42478041300868
100
AcDbArc
 50
179.40004
 51
180.599965
  0
LINE
  5
246
330
209
100
AcDbEntity
  8
0
  6
Continuous
 62
     0
370
    30
100
AcDbLine
 10
344.753454
 20
477.021924
 30
0.0
 11
354.957119
 21
476.968497
 31
0.0
  0
LWPOLYLINE
  5
247
330
209
100
AcDbEntity
  8
0
  6
Continuous
 62
     0
370
    30
100
AcDbPolyline
 90
        6
 70
     0
 43
0.0
 10
354.957123
 20
476.968506
 10
354.957123
 20
477.001526
 10
354.957123
 20
477.097565
 10
354.957123
 20
477.247009
 10
354.957123
 20
477.437744
 10
354.957123
 20
477.668488
  0
LINE
  5
248
330
209
100
AcDbEntity
  8
0
  6
Continuous
 62
     0
370
     0
100
AcDbLine
 10
354.957119
 20
477.668488
 30
0.0
 11
344.753454
 21
477.721915
 31
0.0
  0
ARC
  5
249
330
209
100
AcDbEntity
  8
0
  6
Continuous
 62
     0
370
    30
100
AcDbCircle
 10
344.757119
 20
477.721915
 30
0.0
 40
0.6999999880805412
100
AcDbArc
 50
180.0
 51
269.7
  0
LINE
  5
24A
330
209
100
AcDbEntity
  8
0
  6
Continuous
 62
     0
370
    30
100
AcDbLine
 10
344.057119
 20
594.829226
 30
0.0
 11
344.057119
 21
477.721915
 31
0.0
  0
LWPOLYLINE
  5
24B
330
209
100
AcDbEntity
  8
0
  6
Continuous
 62
     0
370
     0
100
AcDbPolyline
 90
        6
 70
     0
 43
0.0
 10
344.057129
 20
477.721924
 10
344.093811
 20
477.721924
 10
344.193146
 20
477.721924
 10
344.334167
 20
477.721924
 10
344.523193
 20
477.721924
 10
344.753448
 20
477.721924
  0
LINE
  5
24C
330
209
100
AcDbEntity
  8
0
  6
Continuous
 62
     0
370
     0
100
AcDbLine
 10
344.753454
 20
477.721915
 30
0.0
 11
344.753454
 21
594.829226
 31
0.0
  0
LINE
  5
24D
330
209
100
AcDbEntity
  8
0
  6
Continuous
 62
     0
370
     0
100
AcDbLine
 10
344.753454
 20
594.829226
 30
0.0
 11
344.057119
 21
594.829226
 31
0.0
  0
LINE
  5
24E
330
209
100
AcDbEntity
  8
0
  6
Continuous
 62
     0
370
     0
100
AcDbLine
 10
344.753454
 20
594.829226
 30
0.0
 11
354.957119
 21
594.882653
 31
0.0
  0
LINE
  5
24F
330
209
100
AcDbEntity
  8
0
  6
Continuous
 62
     0
370
    30
100
AcDbLine
 10
354.957119
 20
594.882653
 30
0.0
 11
354.957119
 21
595.582643
 31
0.0
  0
LINE
  5
250
330
209
100
AcDbEntity
  8
0
  6
Continuous
 62
     0
370
    30
100
AcDbLine
 10
354.957119
 20
595.582643
 30
0.0
 11
344.753454
 21
595.529216
 31
0.0
  0
ARC
  5
251
330
209
100
AcDbEntity
  8
0
  6
Continuous
 62
     0
370
     0
100
AcDbCircle
 10
378.176402
 20
595.17922
 30
0.0
 40
33.42478041243135
100
AcDbArc
 50
179.400035
 51
180.59996
  0
ARC
  5
252
330
209
100
AcDbEntity
  8
0
  6
Continuous
 62
     0
370
    30
100
AcDbCircle
 10
344.757119
 20
594.829226
 30
0.0
 40
0.6999999880804134
100
AcDbArc
 50
90.3
 51
180.0
  0
LINE
  5
253
330
209
100
AcDbEntity
  8
0
  6
Continuous
 62
     0
370
    30
100
AcDbLine
 10
354.957119
 20
477.668488
 30
0.0
 11
354.957119
 21
594.882653
 31
0.0
  0
LINE
  5
254
330
209
100
AcDbEntity
  8
0
  6
Continuous
 62
     0
370
    30
100
AcDbLine
 10
340.83712
 20
514.275574
 30
0.0
 11
340.83712
 21
558.275574
 31
0.0
  0
LWPOLYLINE
  5
255
330
209
100
AcDbEntity
  8
0
  6
Continuous
 62
     0
370
    30
100
AcDbPolyline
 90
       53
 70
     0
 43
0.0
 10
290.837128
 20
514.775574
 10
290.837128
 20
514.814697
 10
290.837128
 20
514.932373
 10
290.837128
 20
515.127686
 10
290.837128
 20
515.399963
 10
290.837128
 20
515.748352
 10
290.837128
 20
516.171936
 10
290.837128
 20
516.669006
 10
290.837128
 20
517.237366
 10
290.837128
 20
517.874878
 10
290.837128
 20
518.579407
 10
290.837128
 20
519.348755
 10
290.837128
 20
520.180115
 10
290.837128
 20
521.070007
 10
290.837128
 20
522.015198
 10
290.837128
 20
523.012268
 10
290.837128
 20
524.057861
 10
290.837128
 20
525.148193
 10
290.837128
 20
526.279114
 10
290.837128
 20
527.446289
 10
290.837128
 20
528.64563
 10
290.837128
 20
529.872803
 10
290.837128
 20
531.123413
 10
290.837128
 20
532.392944
 10
290.837128
 20
533.676514
 10
290.837128
 20
534.969543
 10
290.837128
 20
536.267334
 10
290.837128
 20
537.565125
 10
290.837128
 20
538.858276
 10
290.837128
 20
540.142029
 10
290.837128
 20
541.411682
 10
290.837128
 20
542.662598
 10
290.837128
 20
543.890076
 10
290.837128
 20
545.089783
 10
290.837128
 20
546.257446
 10
290.837128
 20
547.388855
 10
290.837128
 20
548.479736
 10
290.837128
 20
549.525879
 10
290.837128
 20
550.52356
 10
290.837128
 20
551.469421
 10
290.837128
 20
552.360107
 10
290.837128
 20
553.1922
 10
290.837128
 20
553.962341
 10
290.837128
 20
554.667725
 10
290.837128
 20
555.306091
 10
290.837128
 20
555.875366
 10
290.837128
 20
556.373352
 10
290.837128
 20
556.797913
 10
290.837128
 20
557.147217
 10
290.837128
 20
557.420471
 10
290.837128
 20
557.616821
 10
290.837128
 20
557.735413
 10
290.837128
 20
557.775574
  0
LINE
  5
256
330
209
100
AcDbEntity
  8
0
  6
Continuous
 62
     0
370
    30
100
AcDbLine
 10
290.83712
 20
514.775574
 30
0.0
 11
291.33712
 21
514.275574
 31
0.0
  0
LWPOLYLINE
  5
257
330
209
100
AcDbEntity
  8
0
  6
Continuous
 62
     0
370
    30
100
AcDbPolyline
 90
       54
 70
     0
 43
0.0
 10
291.337128
 20
514.275574
 10
291.336853
 20
514.315125
 10
291.336456
 20
514.432373
 10
291.33606
 20
514.62616
 10
291.335785
 20
514.895203
 10
291.335693
 20
515.238342
 10
291.335754
 20
515.654602
 10
291.335938
 20
516.143127
 10
291.336243
 20
516.703003
 10
291.336578
 20
517.332336
 10
291.336884
 20
518.02832
 10
291.337097
 20
518.787903
 10
291.337067
 20
519.608154
 10
291.336884
 20
520.486511
 10
291.336609
 20
521.42041
 10
291.336304
 20
522.406799
 10
291.336029
 20
523.442322
 10
291.335785
 20
524.523193
 10
291.335632
 20
525.645325
 10
291.335541
 20
526.80481
 10
291.335571
 20
527.997559
 10
291.335693
 20
529.219421
 10
291.335846
 20
530.465942
 10
291.33609
 20
531.732788
 10
291.336334
 20
533.015686
 10
291.336578
 20
534.309998
 10
291.3367
 20
535.611145
 10
291.336731
 20
536.914673
 10
291.336578
 20
538.215881
 10
291.336365
 20
539.510376
 10
291.336121
 20
540.793518
 10
291.335907
 20
542.060791
 10
291.335724
 20
543.307739
 10
291.335602
 20
544.53009
 10
291.335571
 20
545.723572
 10
291.335632
 20
546.883789
 10
291.335815
 20
548.006775
 10
291.336029
 20
549.088501
 10
291.336304
 20
550.124939
 10
291.336609
 20
551.112183
 10
291.336884
 20
552.046875
 10
291.337067
 20
552.925964
 10
291.337067
 20
553.747009
 10
291.336853
 20
554.507629
 10
291.336517
 20
555.204773
 10
291.336151
 20
555.835693
 10
291.335846
 20
556.397522
 10
291.335632
 20
556.888184
 10
291.335571
 20
557.30658
 10
291.335693
 20
557.65155
 10
291.335999
 20
557.921936
 10
291.336426
 20
558.116699
 10
291.336823
 20
558.234863
 10
291.337128
 20
558.275574
  0
LINE
  5
258
330
209
100
AcDbEntity
  8
0
  6
Continuous
 62
     0
370
    30
100
AcDbLine
 10
304.58712
 20
514.275574
 30
0.0
 11
340.83712
 21
514.275574
 31
0.0
  0
LINE
  5
259
330
209
100
AcDbEntity
  8
0
  6
Continuous
 62
     0
370
    30
100
AcDbLine
 10
295.08712
 20
514.275574
 30
0.0
 11
291.33712
 21
514.275574
 31
0.0
  0
LWPOLYLINE
  5
25A
330
209
100
AcDbEntity
  8
0
  6
Continuous
 62
     0
370
     0
100
AcDbPolyline
 90
       26
 70
     0
 43
0.0
 10
295.087128
 20
514.275574
 10
295.125183
 20
514.283691
 10
295.239227
 20
514.307678
 10
295.425262
 20
514.345642
 10
295.677643
 20
514.395386
 10
295.992371
 20
514.453979
 10
296.371338
 20
514.517456
 10
296.805756
 20
514.58197
 10
297.286011
 20
514.643799
 10
297.808044
 20
514.698792
 10
298.364349
 20
514.743591
 10
298.944031
 20
514.775574
 10
299.536407
 20
514.792236
 10
300.132751
 20
514.792358
 10
300.725189
 20
514.775818
 10
301.305023
 20
514.743958
 10
301.861572
 20
514.699219
 10
302.383942
 20
514.644348
 10
302.864563
 20
514.58252
 10
303.299408
 20
514.518005
 10
303.678894
 20
514.454529
 10
303.994171
 20
514.395874
 10
304.247101
 20
514.346008
 10
304.433746
 20
514.307922
 10
304.548401
 20
514.283813
 10
304.587128
 20
514.275574
  0
LWPOLYLINE
  5
25B
330
209
100
AcDbEntity
  8
0
  6
Continuous
 62
     0
370
     0
100
AcDbPolyline
 90
       24
 70
     0
 43
0.0
 10
303.937134
 20
558.275574
 10
303.898285
 20
558.268433
 10
303.782379
 20
558.247498
 10
303.593933
 20
558.214539
 10
303.339172
 20
558.171814
 10
303.019806
 20
558.122498
 10
302.637634
 20
558.070435
 10
302.20462
 20
558.019226
 10
301.72757
 20
557.972595
 10
301.21286
 20
557.934204
 10
300.672119
 20
557.906555
 10
300.117279
 20
557.89209
 10
299.558105
 20
557.89209
 10
299.003235
 20
557.906555
 10
298.462463
 20
557.934143
 10
297.947723
 20
557.972534
 10
297.470612
 20
558.019104
 10
297.037506
 20
558.070374
 10
296.655182
 20
558.122437
 10
296.335663
 20
558.171753
 10
296.080719
 20
558.214478
 10
295.89212
 20
558.247437
 10
295.776215
 20
558.268433
 10
295.737518
 20
558.275574
  0
LINE
  5
25C
330
209
100
AcDbEntity
  8
0
  6
Continuous
 62
     0
370
    30
100
AcDbLine
 10
303.78712
 20
565.605574
 30
0.0
 11
295.88712
 21
565.605574
 31
0.0
  0
LINE
  5
25D
330
209
100
AcDbEntity
  8
0
  6
Continuous
 62
     0
370
    30
100
AcDbLine
 10
295.88712
 20
565.605574
 30
0.0
 11
295.88712
 21
558.275574
 31
0.0
  0
LWPOLYLINE
  5
25E
330
209
100
AcDbEntity
  8
0
  6
Continuous
 62
     0
370
    30
100
AcDbPolyline
 90
       22
 70
     0
 43
0.0
 10
296.387115
 20
566.105591
 10
296.425598
 20
566.105591
 10
296.540039
 20
566.105591
 10
296.728119
 20
566.105591
 10
296.985352
 20
566.105591
 10
297.306274
 20
566.105591
 10
297.683563
 20
566.105591
 10
298.108887
 20
566.105591
 10
298.572723
 20
566.105591
 10
299.064728
 20
566.105591
 10
299.573975
 20
566.105591
 10
300.089081
 20
566.105591
 10
300.598572
 20
566.105591
 10
301.091064
 20
566.105591
 10
301.555634
 20
566.105591
 10
301.981903
 20
566.105591
 10
302.360321
 20
566.105591
 10
302.682556
 20
566.105591
 10
302.941223
 20
566.105591
 10
303.13089
 20
566.105591
 10
303.246948
 20
566.105591
 10
303.287109
 20
566.105591
  0
LINE
  5
25F
330
209
100
AcDbEntity
  8
0
  6
Continuous
 62
     0
370
    30
100
AcDbLine
 10
296.38712
 20
566.105574
 30
0.0
 11
295.88712
 21
565.605574
 31
0.0
  0
LINE
  5
260
330
209
100
AcDbEntity
  8
0
  6
Continuous
 62
     0
370
    30
100
AcDbLine
 10
303.28712
 20
566.105574
 30
0.0
 11
303.78712
 21
565.605574
 31
0.0
  0
LINE
  5
261
330
209
100
AcDbEntity
  8
0
  6
Continuous
 62
     0
370
    30
100
AcDbLine
 10
303.78712
 20
565.605574
 30
0.0
 11
303.78712
 21
558.275574
 31
0.0
  0
LINE
  5
262
330
209
100
AcDbEntity
  8
0
  6
Continuous
 62
     0
370
    30
100
AcDbLine
 10
295.88712
 20
558.275574
 30
0.0
 11
295.737517
 21
558.275574
 31
0.0
  0
LINE
  5
263
330
209
100
AcDbEntity
  8
0
  6
Continuous
 62
     0
370
    30
100
AcDbLine
 10
304.58712
 20
514.275574
 30
0.0
 11
295.08712
 21
514.275574
 31
0.0
  0
LINE
  5
264
330
209
100
AcDbEntity
  8
0
  6
Continuous
 62
     0
370
    30
100
AcDbLine
 10
340.837121
 20
558.275574
 30
0.0
 11
303.93712
 21
558.275574
 31
0.0
  0
LINE
  5
265
330
209
100
AcDbEntity
  8
0
  6
Continuous
 62
     0
370
    30
100
AcDbLine
 10
291.33712
 20
558.275574
 30
0.0
 11
295.737517
 21
558.275574
 31
0.0
  0
LINE
  5
266
330
209
100
AcDbEntity
  8
0
  6
Continuous
 62
     0
370
    30
100
AcDbLine
 10
290.83712
 20
557.775574
 30
0.0
 11
291.33712
 21
558.275574
 31
0.0
  0
LINE
  5
267
330
209
100
AcDbEntity
  8
0
  6
Continuous
 62
     0
370
    30
100
AcDbLine
 10
344.057121
 20
555.275338
 30
0.0
 11
340.83712
 21
555.275338
 31
0.0
  0
LINE
  5
268
330
209
100
AcDbEntity
  8
0
  6
Continuous
 62
     0
370
    30
100
AcDbLine
 10
344.057121
 20
517.275338
 30
0.0
 11
340.83712
 21
517.275338
 31
0.0
  0
LINE
  5
269
330
209
100
AcDbEntity
  8
0
  6
Continuous
 62
     0
370
    30
100
AcDbLine
 10
354.957121
 20
726.275574
 30
0.0
 11
354.957121
 21
786.275574
 31
0.0
  0
LINE
  5
26A
330
209
100
AcDbEntity
  8
0
  6
Continuous
 62
     0
370
    30
100
AcDbLine
 10
354.957121
 20
786.275574
 30
0.0
 11
344.957121
 21
786.275574
 31
0.0
  0
LINE
  5
26B
330
209
100
AcDbEntity
  8
0
  6
Continuous
 62
     0
370
    30
100
AcDbLine
 10
344.957121
 20
786.275574
 30
0.0
 11
344.957121
 21
726.275574
 31
0.0
  0
LINE
  5
26C
330
209
100
AcDbEntity
  8
0
  6
Continuous
 62
     0
370
    30
100
AcDbLine
 10
344.957121
 20
726.275574
 30
0.0
 11
354.957121
 21
726.275574
 31
0.0
  0
ARC
  5
26D
330
209
100
AcDbEntity
  8
0
  6
Continuous
 62
     0
370
    30
100
AcDbCircle
 10
343.957123
 20
768.859041
 30
0.0
 40
0.9999999392627823
100
AcDbArc
 50
0.000015
 51
105.443036
  0
ARC
  5
26E
330
209
100
AcDbEntity
  8
0
  6
Continuous
 62
     0
370
     0
100
AcDbCircle
 10
343.957123
 20
743.692005
 30
0.0
 40
0.9999999386532943
100
AcDbArc
 50
254.556964
 51
359.999985
  0
LWPOLYLINE
  5
26F
330
209
100
AcDbEntity
  8
0
  6
Continuous
 62
     0
370
    30
100
AcDbPolyline
 90
       43
 70
     0
 43
0.0
 10
343.690857
 20
769.822937
 10
343.690918
 20
769.781128
 10
343.691101
 20
769.65918
 10
343.691376
 20
769.459839
 10
343.691742
 20
769.185852
 10
343.692139
 20
768.839966
 10
343.692566
 20
768.425171
 10
343.693024
 20
767.944214
 10
343.693573
 20
767.399353
 10
343.694092
 20
766.792847
 10
343.694397
 20
766.12738
 10
343.694977
 20
765.406372
 10
343.695862
 20
764.634338
 10
343.696533
 20
763.81665
 10
343.697021
 20
762.958984
 10
343.697388
 20
762.066956
 10
343.697784
 20
761.145935
 10
343.69812
 20
760.200562
 10
343.698364
 20
759.235168
 10
343.698425
 20
758.254272
 10
343.698395
 20
757.262939
 10
343.698364
 20
756.266479
 10
343.698395
 20
755.270081
 10
343.698425
 20
754.278931
 10
343.698364
 20
753.298279
 10
343.69812
 20
752.333252
 10
343.697784
 20
751.388306
 10
343.697418
 20
750.467834
 10
343.697021
 20
749.576355
 10
343.696533
 20
748.719421
 10
343.695831
 20
747.902527
 10
343.694977
 20
747.131409
 10
343.694397
 20
746.411316
 10
343.694092
 20
745.746887
 10
343.693573
 20
745.141479
 10
343.693024
 20
744.597717
 10
343.692566
 20
744.117981
 10
343.692139
 20
743.704407
 10
343.691772
 20
743.359863
 10
343.691437
 20
743.087158
 10
343.691132
 20
742.88916
 10
343.690918
 20
742.768555
 10
343.690857
 20
742.728088
  0
LWPOLYLINE
  5
270
330
209
100
AcDbEntity
  8
0
  6
Continuous
 62
     0
370
    30
100
AcDbPolyline
 90
       52
 70
     0
 43
0.0
 10
319.831299
 20
762.11554
 10
320.322205
 20
762.09314
 10
320.808014
 20
762.168823
 10
321.281219
 20
762.306396
 10
321.746033
 20
762.47052
 10
322.207977
 20
762.641113
 10
322.670929
 20
762.809448
 10
323.134186
 20
762.977112
 10
323.597198
 20
763.145264
 10
324.06012
 20
763.313599
 10
324.523102
 20
763.48175
 10
324.986237
 20
763.649597
 10
325.449463
 20
763.817139
 10
325.912781
 20
763.984375
 10
326.37619
 20
764.151428
 10
326.839661
 20
764.318176
 10
327.303284
 20
764.484558
 10
327.766998
 20
764.650635
 10
328.230835
 20
764.816284
 10
328.694855
 20
764.981506
 10
329.159027
 20
765.14624
 10
329.623383
 20
765.310425
 10
330.087921
 20
765.47406
 10
330.552643
 20
765.637146
 10
331.017578
 20
765.799622
 10
331.482727
 20
765.961426
 10
331.94812
 20
766.122559
 10
332.413757
 20
766.28302
 10
332.879639
 20
766.442688
 10
333.345764
 20
766.601562
 10
333.812164
 20
766.759644
 10
334.278839
 20
766.91687
 10
334.745819
 20
767.073181
 10
335.213104
 20
767.228577
 10
335.680695
 20
767.382935
 10
336.14859
 20
767.536316
 10
336.616821
 20
767.688599
 10
337.085388
 20
767.839844
 10
337.554321
 20
767.989929
 10
338.02359
 20
768.138855
 10
338.493256
 20
768.28656
 10
338.963287
 20
768.433044
 10
339.433685
 20
768.578247
 10
339.904449
 20
768.722229
 10
340.37561
 20
768.864868
 10
340.847168
 20
769.006165
 10
341.319122
 20
769.146057
 10
341.791534
 20
769.284302
 10
342.264465
 20
769.420776
 10
342.737885
 20
769.55542
 10
343.211639
 20
769.688782
 10
343.690857
 20
769.822937
  0
LWPOLYLINE
  5
271
330
209
100
AcDbEntity
  8
0
  6
Continuous
 62
     0
370
    30
100
AcDbPolyline
 90
       21
 70
     0
 43
0.0
 10
319.827301
 20
752.77478
 10
319.825104
 20
753.309814
 10
319.830048
 20
753.880554
 10
319.835022
 20
754.478638
 10
319.835632
 20
755.095886
 10
319.833466
 20
755.725647
 10
319.831177
 20
756.361389
 10
319.830261
 20
756.996521
 10
319.830322
 20
757.623962
 10
319.830658
 20
758.236511
 10
319.830963
 20
758.827087
 10
319.831238
 20
759.388489
 10
319.831482
 20
759.913635
 10
319.831604
 20
760.395081
 10
319.831512
 20
760.825928
 10
319.831451
 20
761.201782
 10
319.831512
 20
761.518433
 10
319.831573
 20
761.772034
 10
319.831604
 20
761.958618
 10
319.831512
 20
762.074341
 10
319.831299
 20
762.11554
  0
LINE
  5
272
330
209
100
AcDbEntity
  8
0
  6
Continuous
 62
     0
370
     0
100
AcDbLine
 10
319.837623
 20
752.266317
 30
0.0
 11
319.827301
 21
752.774788
 31
0.0
  0
LWPOLYLINE
  5
273
330
209
100
AcDbEntity
  8
0
  6
Continuous
 62
     0
370
     0
100
AcDbPolyline
 90
        3
 70
     0
 43
0.0
 10
319.832184
 20
751.384583
 10
319.840118
 20
751.761841
 10
319.837616
 20
752.266296
  0
ARC
  5
274
330
209
100
AcDbEntity
  8
0
  6
Continuous
 62
     0
370
     0
100
AcDbCircle
 10
337.839443
 20
751.179903
 30
0.0
 40
18.00842322133448
100
AcDbArc
 50
179.348758
 51
180.497869
  0
ARC
  5
275
330
209
100
AcDbEntity
  8
0
  6
Continuous
 62
     0
370
     0
100
AcDbCircle
 10
297.684176
 20
750.699617
 30
0.0
 40
22.1498905817876
100
AcDbArc
 50
359.317139
 51
0.837625
  0
LINE
  5
276
330
209
100
AcDbEntity
  8
0
  6
Continuous
 62
     0
370
    30
100
AcDbLine
 10
319.434609
 20
762.171903
 30
0.0
 11
319.831305
 21
762.115524
 31
0.0
  0
LWPOLYLINE
  5
277
330
209
100
AcDbEntity
  8
0
  6
Continuous
 62
     0
370
    30
100
AcDbPolyline
 90
       57
 70
     0
 43
0.0
 10
316.285126
 20
743.870239
 10
316.265594
 20
744.355469
 10
316.245422
 20
744.657227
 10
316.230713
 20
744.890869
 10
316.221252
 20
745.090393
 10
316.216003
 20
745.268677
 10
316.214294
 20
745.432861
 10
316.215576
 20
745.587463
 10
316.219574
 20
745.735413
 10
316.226013
 20
745.878418
 10
316.23468
 20
746.017395
 10
316.245453
 20
746.15271
 10
316.258209
 20
746.284424
 10
316.272766
 20
746.412476
 10
316.289062
 20
746.536682
 10
316.306946
 20
746.657043
 10
316.326294
 20
746.773499
 10
316.346985
 20
746.886108
 10
316.368774
 20
746.994812
 10
316.391479
 20
747.099487
 10
316.414856
 20
747.200012
 10
316.438599
 20
747.295959
 10
316.462402
 20
747.387207
 10
316.485931
 20
747.473267
 10
316.508972
 20
747.554016
 10
316.531281
 20
747.629395
 10
316.552856
 20
747.699585
 10
316.5737
 20
747.765076
 10
316.594086
 20
747.82666
 10
316.614288
 20
747.885315
 10
316.634766
 20
747.942261
 10
316.656006
 20
747.99884
 10
316.678497
 20
748.056091
 10
316.702545
 20
748.11499
 10
316.728455
 20
748.176147
 10
316.756317
 20
748.239624
 10
316.786133
 20
748.305237
 10
316.81778
 20
748.37262
 10
316.851196
 20
748.441223
 10
316.886353
 20
748.510681
 10
316.923248
 20
748.580627
 10
316.961975
 20
748.65094
 10
317.002655
 20
748.721619
 10
317.04541
 20
748.792542
 10
317.090363
 20
748.86377
 10
317.137726
 20
748.935242
 10
317.187775
 20
749.00708
 10
317.240997
 20
749.079407
 10
317.297943
 20
749.152527
 10
317.359253
 20
749.226868
 10
317.425446
 20
749.302612
 10
317.496887
 20
749.3797
 10
317.573761
 20
749.457947
 10
317.656067
 20
749.536682
 10
317.743805
 20
749.615173
 10
317.837494
 20
749.692993
 10
317.939819
 20
749.771118
  0
LWPOLYLINE
  5
278
330
209
100
AcDbEntity
  8
0
  6
Continuous
 62
     0
370
    30
100
AcDbPolyline
 90
       77
 70
     0
 43
0.0
 10
319.831665
 20
751.02356
 10
319.281403
 20
750.873962
 10
318.935974
 20
750.755127
 10
318.6922
 20
750.653625
 10
318.504181
 20
750.562012
 10
318.350159
 20
750.476379
 10
318.218933
 20
750.39502
 10
318.104065
 20
750.31665
 10
318.001373
 20
750.240356
 10
317.907806
 20
750.165283
 10
317.821167
 20
750.090698
 10
317.739868
 20
750.016174
 10
317.662994
 20
749.941711
 10
317.590027
 20
749.867432
 10
317.520752
 20
749.793701
 10
317.45517
 20
749.720886
 10
317.39325
 20
749.649353
 10
317.3349
 20
749.579224
 10
317.279968
 20
749.510681
 10
317.22821
 20
749.44342
 10
317.17923
 20
749.37738
 10
317.13269
 20
749.312134
 10
317.088257
 20
749.24762
 10
317.045685
 20
749.183472
 10
317.004761
 20
749.119751
 10
316.965363
 20
749.056274
 10
316.92746
 20
748.993164
 10
316.89093
 20
748.930298
 10
316.855774
 20
748.867798
 10
316.821899
 20
748.805542
 10
316.789276
 20
748.743713
 10
316.757904
 20
748.682312
 10
316.727814
 20
748.621643
 10
316.699005
 20
748.561951
 10
316.6716
 20
748.50354
 10
316.64566
 20
748.446655
 10
316.621216
 20
748.391479
 10
316.598267
 20
748.338074
 10
316.576691
 20
748.286194
 10
316.556335
 20
748.235413
 10
316.536957
 20
748.185181
 10
316.51828
 20
748.134766
 10
316.5
 20
748.083435
 10
316.481812
 20
748.030334
 10
316.463501
 20
747.974731
 10
316.444855
 20
747.916138
 10
316.425751
 20
747.853943
 10
316.406158
 20
747.787903
 10
316.386169
 20
747.717834
 10
316.365814
 20
747.643799
 10
316.345337
 20
747.565735
 10
316.32489
 20
747.483948
 10
316.304749
 20
747.39856
 10
316.285065
 20
747.309753
 10
316.266083
 20
747.217712
 10
316.248047
 20
747.12262
 10
316.231079
 20
747.024597
 10
316.215332
 20
746.923706
 10
316.200928
 20
746.819885
 10
316.187988
 20
746.713196
 10
316.176514
 20
746.603699
 10
316.166595
 20
746.491333
 10
316.158234
 20
746.376221
 10
316.151428
 20
746.258423
 10
316.14621
 20
746.138062
 10
316.142578
 20
746.015015
 10
316.140686
 20
745.889221
 10
316.140717
 20
745.760254
 10
316.143036
 20
745.62738
 10
316.148224
 20
745.48938
 10
316.157013
 20
745.344238
 10
316.170197
 20
745.18927
 10
316.188354
 20
745.020264
 10
316.211121
 20
744.830566
 10
316.236603
 20
744.607544
 10
316.261475
 20
744.318909
 10
316.285126
 20
743.867859
  0
ARC
  5
279
330
209
100
AcDbEntity
  8
0
  6
Continuous
 62
     0
370
     0
100
AcDbCircle
 10
322.81232
 20
747.350109
 30
0.0
 40
6.19186775778708
100
AcDbArc
 50
118.822326
 51
122.972436
  0
LWPOLYLINE
  5
27A
330
209
100
AcDbEntity
  8
0
  6
Continuous
 62
     0
370
    30
100
AcDbPolyline
 90
       68
 70
     0
 43
0.0
 10
315.816376
 20
743.825745
 10
315.666901
 20
744.450989
 10
315.596375
 20
744.839355
 10
315.555328
 20
745.141113
 10
315.529633
 20
745.399109
 10
315.514099
 20
745.629578
 10
315.506226
 20
745.841553
 10
315.50473
 20
746.040527
 10
315.508789
 20
746.229797
 10
315.517914
 20
746.411499
 10
315.531677
 20
746.586609
 10
315.549591
 20
746.755615
 10
315.571198
 20
746.918762
 10
315.5961
 20
747.076111
 10
315.623779
 20
747.227722
 10
315.6539
 20
747.373779
 10
315.686035
 20
747.514343
 10
315.719788
 20
747.649536
 10
315.75473
 20
747.779358
 10
315.790527
 20
747.903748
 10
315.826721
 20
748.022522
 10
315.862976
 20
748.135681
 10
315.899017
 20
748.243225
 10
315.934692
 20
748.345337
 10
315.970032
 20
748.442627
 10
316.005157
 20
748.535828
 10
316.040466
 20
748.626038
 10
316.076355
 20
748.714294
 10
316.11319
 20
748.801636
 10
316.151367
 20
748.888977
 10
316.191193
 20
748.976746
 10
316.232849
 20
749.065308
 10
316.276489
 20
749.154663
 10
316.322205
 20
749.244934
 10
316.370117
 20
749.335938
 10
316.420227
 20
749.427612
 10
316.472443
 20
749.519775
 10
316.52655
 20
749.612122
 10
316.582153
 20
749.703979
 10
316.638855
 20
749.794678
 10
316.696259
 20
749.883667
 10
316.754333
 20
749.970581
 10
316.813385
 20
750.055786
 10
316.874115
 20
750.140076
 10
316.937531
 20
750.224731
 10
317.004669
 20
750.310974
 10
317.076263
 20
750.399841
 10
317.152527
 20
750.49176
 10
317.233063
 20
750.586243
 10
317.316864
 20
750.682129
 10
317.402557
 20
750.777893
 10
317.488647
 20
750.871948
 10
317.573853
 20
750.962891
 10
317.657288
 20
751.049866
 10
317.738678
 20
751.132751
 10
317.818298
 20
751.211975
 10
317.897034
 20
751.288452
 10
317.976288
 20
751.363647
 10
318.057831
 20
751.43927
 10
318.143799
 20
751.517273
 10
318.236694
 20
751.599731
 10
318.339294
 20
751.688904
 10
318.454712
 20
751.787109
 10
318.586517
 20
751.896912
 10
318.739319
 20
752.02124
 10
318.920013
 20
752.164429
 10
319.140381
 20
752.332458
 10
319.442474
 20
752.544678
  0
ARC
  5
27B
330
209
100
AcDbEntity
  8
0
  6
Continuous
 62
     0
370
    30
100
AcDbCircle
 10
318.126211
 20
720.772926
 30
0.0
 40
23.16822796218634
100
AcDbArc
 50
94.557876
 51
95.721798
  0
ARC
  5
27C
330
209
100
AcDbEntity
  8
0
  6
Continuous
 62
     0
370
     0
100
AcDbCircle
 10
369.339431
 20
966.900453
 30
0.0
 40
211.1435743692673
100
AcDbArc
 50
252.359277
 51
252.939431
  0
ARC
  5
27D
330
209
100
AcDbEntity
  8
0
  6
Continuous
 62
     0
370
     0
100
AcDbCircle
 10
327.57105
 20
817.809689
 30
0.0
 40
56.22957260871561
100
AcDbArc
 50
259.851648
 51
261.68007
  0
LWPOLYLINE
  5
27E
330
209
100
AcDbEntity
  8
0
  6
Continuous
 62
     0
370
    30
100
AcDbPolyline
 90
        6
 70
     0
 43
0.0
 10
319.434601
 20
752.556946
 10
317.070618
 20
752.309143
 10
314.724487
 20
751.998779
 10
312.395294
 20
751.639343
 10
310.081085
 20
751.241821
 10
307.756897
 20
750.810547
  0
LINE
  5
27F
330
209
100
AcDbEntity
  8
0
  6
Continuous
 62
     0
370
     0
100
AcDbLine
 10
307.75689
 20
750.81055
 30
0.0
 11
306.745729
 21
750.614836
 31
0.0
  0
LWPOLYLINE
  5
280
330
209
100
AcDbEntity
  8
0
  6
Continuous
 62
     0
370
     0
100
AcDbPolyline
 90
       10
 70
     0
 43
0.0
 10
306.745728
 20
750.614807
 10
306.778564
 20
749.915466
 10
306.798767
 20
749.214478
 10
306.812286
 20
748.470215
 10
306.814514
 20
747.666992
 10
306.809418
 20
746.809692
 10
306.800171
 20
745.91217
 10
306.799072
 20
744.991516
 10
306.809601
 20
744.062439
 10
306.826508
 20
743.024902
  0
LWPOLYLINE
  5
281
330
209
100
AcDbEntity
  8
0
  6
Continuous
 62
     0
370
    30
100
AcDbPolyline
 90
       17
 70
     0
 43
0.0
 10
306.826508
 20
743.024902
 10
306.826508
 20
743.023438
 10
306.832062
 20
742.697815
 10
306.837097
 20
742.382568
 10
306.841949
 20
742.062317
 10
306.848358
 20
741.60437
 10
306.871521
 20
737.920959
 10
306.831024
 20
734.237
 10
306.736481
 20
730.554138
 10
306.592224
 20
726.873108
 10
306.406464
 20
723.193909
 10
306.18869
 20
719.516479
 10
305.949036
 20
715.840515
 10
305.698151
 20
712.165527
 10
305.446655
 20
708.491577
 10
305.203949
 20
704.817139
 10
304.970276
 20
700.973816
  0
LINE
  5
282
330
209
100
AcDbEntity
  8
0
  6
Continuous
 62
     0
370
    30
100
AcDbLine
 10
304.970276
 20
700.97384
 30
0.0
 11
305.032656
 21
700.977156
 31
0.0
  0
LINE
  5
283
330
209
100
AcDbEntity
  8
0
  6
Continuous
 62
     0
370
     0
100
AcDbLine
 10
305.032656
 20
700.977156
 30
0.0
 11
319.480163
 21
701.744943
 31
0.0
  0
LINE
  5
284
330
209
100
AcDbEntity
  8
0
  6
Continuous
 62
     0
370
    30
100
AcDbLine
 10
319.480163
 20
701.744943
 30
0.0
 11
315.816389
 21
743.825633
 31
0.0
  0
LWPOLYLINE
  5
285
330
209
100
AcDbEntity
  8
0
  6
Continuous
 62
     0
370
    30
100
AcDbPolyline
 90
       28
 70
     0
 43
0.0
 10
305.352936
 20
765.685791
 10
305.377747
 20
765.636597
 10
305.393402
 20
765.522583
 10
305.418274
 20
765.341248
 10
305.451141
 20
765.096252
 10
305.490509
 20
764.791016
 10
305.535583
 20
764.428101
 10
305.585724
 20
764.01001
 10
305.640472
 20
763.5401
 10
305.699249
 20
763.0224
 10
305.761475
 20
762.461182
 10
305.826447
 20
761.861023
 10
305.893494
 20
761.226685
 10
305.961914
 20
760.562805
 10
306.030945
 20
759.874146
 10
306.099884
 20
759.165161
 10
306.16806
 20
758.440247
 10
306.234894
 20
757.703674
 10
306.299866
 20
756.959534
 10
306.362488
 20
756.211914
 10
306.422424
 20
755.464966
 10
306.47937
 20
754.722778
 10
306.533051
 20
753.989807
 10
306.583221
 20
753.270691
 10
306.62973
 20
752.569946
 10
306.672424
 20
751.892334
 10
306.71106
 20
751.243042
 10
306.745728
 20
750.614807
  0
LWPOLYLINE
  5
286
330
209
100
AcDbEntity
  8
0
  6
Continuous
 62
     0
370
     0
100
AcDbPolyline
 90
       22
 70
     0
 43
0.0
 10
319.434601
 20
752.556946
 10
319.431671
 20
753.073486
 10
319.431854
 20
753.622925
 10
319.434265
 20
754.198853
 10
319.435455
 20
754.794189
 10
319.435272
 20
755.403076
 10
319.434631
 20
756.019958
 10
319.434296
 20
756.639343
 10
319.434326
 20
757.255066
 10
319.43454
 20
757.861023
 10
319.434723
 20
758.45105
 10
319.434814
 20
759.018494
 10
319.434814
 20
759.55658
 10
319.434662
 20
760.058716
 10
319.43454
 20
760.518982
 10
319.434631
 20
760.931763
 10
319.434998
 20
761.291626
 10
319.435089
 20
761.594727
 10
319.433441
 20
761.83783
 10
319.428741
 20
762.018005
 10
319.425171
 20
762.131104
 10
319.434601
 20
762.171875
  0
ARC
  5
287
330
209
100
AcDbEntity
  8
0
  6
Continuous
 62
     0
370
     0
100
AcDbCircle
 10
305.201438
 20
765.209302
 30
0.0
 40
0.500000086023128
100
AcDbArc
 50
72.36155
 51
184.266413
  0
LWPOLYLINE
  5
288
330
209
100
AcDbEntity
  8
0
  6
Continuous
 62
     0
370
    30
100
AcDbPolyline
 90
        5
 70
     0
 43
0.0
 10
305.589355
 20
757.383484
 10
305.675446
 20
756.315979
 10
305.754761
 20
755.249634
 10
305.826691
 20
754.200256
 10
305.905304
 20
752.926086
  0
LWPOLYLINE
  5
289
330
209
100
AcDbEntity
  8
0
  6
Continuous
 62
     0
370
    30
100
AcDbPolyline
 90
       10
 70
     0
 43
0.0
 10
304.70282
 20
765.172119
 10
304.714905
 20
765.138062
 10
304.735352
 20
765.036743
 10
304.76355
 20
764.871155
 10
304.798676
 20
764.644836
 10
304.840118
 20
764.360413
 10
304.887238
 20
764.02002
 10
304.939545
 20
763.625793
 10
304.996307
 20
763.180298
 10
305.061493
 20
762.647156
  0
ARC
  5
28A
330
209
100
AcDbEntity
  8
0
  6
Continuous
 62
     0
370
    30
100
AcDbCircle
 10
154.41623
 20
744.068664
 30
0.0
 40
151.7477868463358
100
AcDbArc
 50
2.556884
 51
3.346228
  0
LWPOLYLINE
  5
28B
330
209
100
AcDbEntity
  8
0
  6
Continuous
 62
     0
370
    30
100
AcDbPolyline
 90
        6
 70
     0
 43
0.0
 10
306.012939
 20
750.838318
 10
306.070404
 20
750.728455
 10
306.193848
 20
750.640686
 10
306.364746
 20
750.588135
 10
306.563171
 20
750.579041
 10
306.745728
 20
750.614807
  0
ARC
  5
28C
330
209
100
AcDbEntity
  8
0
  6
Continuous
 62
     0
370
    30
100
AcDbCircle
 10
-1.054753
 20
735.637163
 30
0.0
 40
307.4437238951443
100
AcDbArc
 50
1.792155
 51
2.834071
  0
LWPOLYLINE
  5
28D
330
209
100
AcDbEntity
  8
0
  6
Continuous
 62
     0
370
     0
100
AcDbPolyline
 90
        6
 70
     0
 43
0.0
 10
306.297852
 20
742.978088
 10
306.322571
 20
742.980225
 10
306.392548
 20
742.986389
 10
306.500122
 20
742.995911
 10
306.635559
 20
743.007874
 10
306.826508
 20
743.024902
  0
LWPOLYLINE
  5
28E
330
209
100
AcDbEntity
  8
0
  6
Continuous
 62
     0
370
     0
100
AcDbPolyline
 90
       10
 70
     0
 43
0.0
 10
306.348907
 20
739.038391
 10
306.325531
 20
734.804504
 10
306.227509
 20
730.570374
 10
306.064545
 20
726.340454
 10
305.848877
 20
722.113464
 10
305.594696
 20
717.886536
 10
305.31781
 20
713.660217
 10
305.034576
 20
709.438904
 10
304.760315
 20
705.220154
 10
304.507568
 20
700.988098
  0
LWPOLYLINE
  5
28F
330
209
100
AcDbEntity
  8
0
  6
Continuous
 62
     0
370
     0
100
AcDbPolyline
 90
        5
 70
     0
 43
0.0
 10
304.507568
 20
700.988098
 10
304.541748
 20
700.993103
 10
304.636475
 20
700.993713
 10
304.779388
 20
700.989868
 10
304.970551
 20
700.981079
  0
LINE
  5
290
330
209
100
AcDbEntity
  8
0
  6
Continuous
 62
     0
370
     0
100
AcDbLine
 10
304.444945
 20
700.993901
 30
0.0
 11
304.507562
 21
700.988097
 31
0.0
  0
LWPOLYLINE
  5
291
330
209
100
AcDbEntity
  8
0
  6
Continuous
 62
     0
370
     0
100
AcDbPolyline
 90
       13
 70
     0
 43
0.0
 10
306.301605
 20
742.802002
 10
306.342804
 20
739.339783
 10
306.329224
 20
735.878967
 10
306.264313
 20
732.417664
 10
306.153046
 20
728.957458
 10
306.000977
 20
725.499023
 10
305.815338
 20
722.042358
 10
305.604065
 20
718.587097
 10
305.375793
 20
715.132996
 10
305.139374
 20
711.679504
 10
304.903198
 20
708.226685
 10
304.676056
 20
704.771851
 10
304.444946
 20
700.993896
  0
LWPOLYLINE
  5
292
330
209
100
AcDbEntity
  8
0
  6
Continuous
 62
     0
370
     0
100
AcDbPolyline
 90
        6
 70
     0
 43
0.0
 10
304.444946
 20
700.993896
 10
304.459534
 20
700.842163
 10
304.519287
 20
700.70166
 10
304.619171
 20
700.585205
 10
304.749695
 20
700.504578
 10
304.928253
 20
700.465576
  0
ARC
  5
293
330
209
100
AcDbEntity
  8
0
  6
Continuous
 62
     0
370
     0
100
AcDbCircle
 10
305.007164
 20
700.959811
 30
0.0
 40
0.5004052226339464
100
AcDbArc
 50
176.762317
 51
272.967277
  0
LINE
  5
294
330
209
100
AcDbEntity
  8
0
  6
Continuous
 62
     0
370
     0
100
AcDbLine
 10
305.033068
 20
700.460077
 30
0.0
 11
319.480428
 21
701.223048
 31
0.0
  0
LINE
  5
295
330
209
100
AcDbEntity
  8
0
  6
Continuous
 62
     0
370
     0
100
AcDbLine
 10
316.285123
 20
743.867886
 30
0.0
 11
319.952196
 21
701.765752
 31
0.0
  0
ARC
  5
296
330
209
100
AcDbEntity
  8
0
  6
Continuous
 62
     0
370
    30
100
AcDbCircle
 10
319.453661
 20
701.72272
 30
0.0
 40
0.5003880178042751
100
AcDbArc
 50
273.066296
 51
4.932067
  0
LWPOLYLINE
  5
297
330
209
100
AcDbEntity
  8
0
  6
Continuous
 62
     0
370
     0
100
AcDbPolyline
 90
        5
 70
     0
 43
0.0
 10
319.480743
 20
701.740356
 10
319.658936
 20
701.755249
 10
319.81012
 20
701.765198
 10
319.91214
 20
701.768982
 10
319.952209
 20
701.765747
  0
LWPOLYLINE
  5
298
330
209
100
AcDbEntity
  8
0
  6
Continuous
 62
     0
370
     0
100
AcDbPolyline
 90
        6
 70
     0
 43
0.0
 10
319.480316
 20
701.740295
 10
319.487396
 20
701.586304
 10
319.491302
 20
701.445374
 10
319.491577
 20
701.33136
 10
319.488312
 20
701.255432
 10
319.480438
 20
701.223022
  0
LWPOLYLINE
  5
299
330
209
100
AcDbEntity
  8
0
  6
Continuous
 62
     0
370
     0
100
AcDbPolyline
 90
        6
 70
     0
 43
0.0
 10
305.033081
 20
700.460083
 10
305.039917
 20
700.482849
 10
305.043793
 20
700.548462
 10
305.044342
 20
700.651123
 10
305.041504
 20
700.781372
 10
305.032959
 20
700.977356
  0
LINE
  5
29A
330
209
100
AcDbEntity
  8
0
  6
Continuous
 62
     0
370
    30
100
AcDbLine
 10
304.960282
 20
700.461538
 30
0.0
 11
304.897669
 21
700.467374
 31
0.0
  0
LWPOLYLINE
  5
29B
330
209
100
AcDbEntity
  8
0
  6
Continuous
 62
     0
370
    30
100
AcDbPolyline
 90
        3
 70
     0
 43
0.0
 10
304.927612
 20
700.465698
 10
304.907898
 20
700.466858
 10
304.835022
 20
700.477295
  0
LINE
  5
29C
330
209
100
AcDbEntity
  8
0
  6
Continuous
 62
     0
370
    30
100
AcDbLine
 10
305.975148
 20
751.59166
 30
0.0
 11
305.975192
 21
751.602744
 31
0.0
  0
ARC
  5
29D
330
209
100
AcDbEntity
  8
0
  6
Continuous
 62
     0
370
    30
100
AcDbCircle
 10
90.637171
 20
738.212307
 30
0.0
 40
215.7133302891655
100
AcDbArc
 50
0.21942
 51
1.265951
  0
ARC
  5
29E
330
209
100
AcDbEntity
  8
0
  6
Continuous
 62
     0
370
    30
100
AcDbCircle
 10
65.085072
 20
737.829704
 30
0.0
 40
241.2677131206077
100
AcDbArc
 50
1.222726
 51
1.762941
  0
LWPOLYLINE
  5
29F
330
209
100
AcDbEntity
  8
0
  6
Continuous
 62
     0
370
    30
100
AcDbPolyline
 90
        8
 70
     0
 43
0.0
 10
305.061493
 20
762.647156
 10
305.133545
 20
762.030029
 10
305.207977
 20
761.361755
 10
305.283508
 20
760.651062
 10
305.359131
 20
759.905151
 10
305.433868
 20
759.130737
 10
305.506989
 20
758.334106
 10
305.589325
 20
757.383484
  0
LWPOLYLINE
  5
2A0
330
209
100
AcDbEntity
  8
0
  6
Continuous
 62
     0
370
    30
100
AcDbPolyline
 90
        6
 70
     0
 43
0.0
 10
317.663544
 20
762.459839
 10
315.59726
 20
762.865967
 10
313.542603
 20
763.336182
 10
311.500854
 20
763.860107
 10
309.471222
 20
764.427917
 10
307.393616
 20
765.048218
  0
LWPOLYLINE
  5
2A1
330
209
100
AcDbEntity
  8
0
  6
Continuous
 62
     0
370
    30
100
AcDbPolyline
 90
        6
 70
     0
 43
0.0
 10
317.939819
 20
749.771118
 10
318.267273
 20
749.977173
 10
318.619843
 20
750.140198
 10
318.988556
 20
750.262817
 10
319.366211
 20
750.354187
 10
319.832489
 20
750.435608
  0
LWPOLYLINE
  5
2A2
330
209
100
AcDbEntity
  8
0
  6
Continuous
 62
     0
370
    30
100
AcDbPolyline
 90
       52
 70
     0
 43
0.0
 10
343.690857
 20
742.728088
 10
343.216614
 20
742.86084
 10
342.742554
 20
742.994263
 10
342.26889
 20
743.128967
 10
341.795746
 20
743.265564
 10
341.32312
 20
743.40387
 10
340.850922
 20
743.543701
 10
340.379181
 20
743.684998
 10
339.907837
 20
743.827698
 10
339.43689
 20
743.97168
 10
338.966339
 20
744.117004
 10
338.496216
 20
744.26355
 10
338.026459
 20
744.411316
 10
337.557068
 20
744.560303
 10
337.088043
 20
744.710449
 10
336.619354
 20
744.861633
 10
336.151062
 20
745.013977
 10
335.683075
 20
745.167297
 10
335.215424
 20
745.321716
 10
334.748108
 20
745.477051
 10
334.281128
 20
745.633362
 10
333.814423
 20
745.790527
 10
333.348022
 20
745.948608
 10
332.881897
 20
746.107483
 10
332.416046
 20
746.267212
 10
331.950439
 20
746.427612
 10
331.485077
 20
746.588745
 10
331.019958
 20
746.750549
 10
330.555054
 20
746.912964
 10
330.090363
 20
747.075989
 10
329.625885
 20
747.239624
 10
329.161621
 20
747.403809
 10
328.69751
 20
747.568542
 10
328.233582
 20
747.733704
 10
327.769806
 20
747.899353
 10
327.306183
 20
748.06543
 10
326.842682
 20
748.231812
 10
326.379303
 20
748.398499
 10
325.915985
 20
748.56543
 10
325.452759
 20
748.732544
 10
324.989655
 20
748.900024
 10
324.526672
 20
749.067871
 10
324.063873
 20
749.236145
 10
323.601074
 20
749.404541
 10
323.138153
 20
749.57251
 10
322.674957
 20
749.739807
 10
322.21225
 20
749.908386
 10
321.750275
 20
750.078979
 10
321.28598
 20
750.243042
 10
320.813354
 20
750.380859
 10
320.327393
 20
750.45752
 10
319.832489
 20
750.435608
  0
LINE
  5
2A3
330
209
100
AcDbEntity
  8
0
  6
Continuous
 62
     0
370
    30
100
AcDbLine
 10
343.690843
 20
742.728105
 30
0.0
 11
343.710278
 21
742.722942
 31
0.0
  0
ENDBLK
  5
2A5
330
209
100
AcDbEntity
  8
0
100
AcDbBlockEnd
  0
ENDSEC
  0
SECTION
  2
ENTITIES
  0
INSERT
  5
110
330
1F
100
AcDbEntity
  8
0
  6
Continuous
 62
     7
420
 16250871
370
     0
100
AcDbBlockReference
  2
a
 10
438.267578
 20
113.967461
 30
0.0
  0
INSERT
  5
160
330
1F
100
AcDbEntity
  8
0
  6
Continuous
 62
     7
420
 16250871
370
     0
100
AcDbBlockReference
  2
b
 10
438.267578
 20
321.290154
 30
0.0
  0
INSERT
  5
208
330
1F
100
AcDbEntity
  8
0
  6
Continuous
 62
     7
420
 16250871
370
     0
100
AcDbBlockReference
  2
c
 10
465.623779
 20
113.967461
 30
0.0
  0
INSERT
  5
2A6
330
1F
100
AcDbEntity
  8
0
  6
Continuous
 62
     7
420
 16250871
370
     0
100
AcDbBlockReference
  2
d
 10
399.891296
 20
0.000061
 30
0.0
  0
ENDSEC
  0
SECTION
  2
OBJECTS
  0
DICTIONARY
  5
C
330
0
100
AcDbDictionary
281
     1
  3
ACAD_DETAILVIEWSTYLE
350
2DE
  3
ACAD_GROUP
350
D
  3
ACAD_LAYOUT
350
1A
  3
ACAD_MATERIAL
350
43
  3
ACAD_MLEADERSTYLE
350
6B
  3
ACAD_MLINESTYLE
350
17
  3
ACAD_PLOTSETTINGS
350
19
  3
ACAD_PLOTSTYLENAME
350
E
  3
ACAD_SCALELIST
350
47
  3
ACAD_SECTIONVIEWSTYLE
350
2DF
  3
ACAD_TABLESTYLE
350
69
  3
ACAD_VISUALSTYLE
350
2A
  3
ACDB_RECOMPOSE_DATA
350
2DB
  3
AcDbVariableDictionary
350
2A7
  0
SUN
  5
6D
330
29
100
AcDbSun
 90
        1
290
     0
 63
     7
421
 16777215
 40
1.0
291
     1
 91
  2455826
 92
 54000000
292
     0
 70
     2
 71
   256
280
     1
  0
DICTIONARY
  5
2DE
102
{ACAD_REACTORS
330
C
102
}
330
C
100
AcDbDictionary
281
     1
  0
DICTIONARY
  5
D
102
{ACAD_REACTORS
330
C
102
}
330
C
100
AcDbDictionary
281
     1
  0
DICTIONARY
  5
1A
102
{ACAD_REACTORS
330
C
102
}
330
C
100
AcDbDictionary
281
     1
  3
Layout1
350
1E
  3
Layout2
350
26
  3
Model
350
22
  0
DICTIONARY
  5
43
102
{ACAD_REACTORS
330
C
102
}
330
C
100
AcDbDictionary
281
     1
  3
ByBlock
350
45
  3
ByLayer
350
44
  3
Global
350
46
  0
DICTIONARY
  5
6B
102
{ACAD_REACTORS
330
C
102
}
330
C
100
AcDbDictionary
281
     1
  3
Standard
350
6C
  0
DICTIONARY
  5
17
102
{ACAD_REACTORS
330
C
102
}
330
C
100
AcDbDictionary
281
     1
  3
Standard
350
18
  0
DICTIONARY
  5
19
102
{ACAD_REACTORS
330
C
102
}
330
C
100
AcDbDictionary
281
     1
  0
ACDBDICTIONARYWDFLT
  5
E
102
{ACAD_REACTORS
330
C
102
}
330
C
100
AcDbDictionary
281
     1
  3
Normal
350
F
100
AcDbDictionaryWithDefault
340
F
  0
DICTIONARY
  5
47
102
{ACAD_REACTORS
330
C
102
}
330
C
100
AcDbDictionary
281
     1
  3
A0
350
48
  3
A1
350
49
  3
A2
350
4A
  3
A3
350
4B
  3
A4
350
4C
  3
A5
350
4D
  3
A6
350
4E
  3
A7
350
4F
  3
A8
350
50
  3
A9
350
51
  3
B0
350
52
  3
B1
350
53
  3
B2
350
54
  3
B3
350
55
  3
B4
350
56
  3
B5
350
57
  3
B6
350
58
  3
B7
350
59
  3
B8
350
5A
  3
B9
350
5B
  3
C0
350
5C
  3
C1
350
5D
  3
C2
350
5E
  3
C3
350
5F
  3
C4
350
60
  3
C5
350
61
  3
C6
350
62
  3
C7
350
63
  3
C8
350
64
  3
C9
350
65
  3
D0
350
66
  3
D1
350
67
  3
D2
350
68
  0
DICTIONARY
  5
2DF
102
{ACAD_REACTORS
330
C
102
}
330
C
100
AcDbDictionary
281
     1
  0
DICTIONARY
  5
69
102
{ACAD_REACTORS
330
C
102
}
330
C
100
AcDbDictionary
281
     1
  3
Standard
350
6A
  0
DICTIONARY
  5
2A
102
{ACAD_REACTORS
330
C
102
}
330
C
100
AcDbDictionary
281
     1
  3
2dWireframe
350
2F
  3
Basic
350
32
  3
Brighten
350
36
  3
ColorChange
350
3A
  3
Conceptual
350
34
  3
Dim
350
35
  3
EdgeColorOff
350
3D
  3
Facepattern
350
39
  3
Flat
350
2B
  3
FlatWithEdges
350
2C
  3
Gouraud
350
2D
  3
GouraudWithEdges
350
2E
  3
Hidden
350
31
  3
JitterOff
350
3B
  3
Linepattern
350
38
  3
OverhangOff
350
3C
  3
Realistic
350
33
  3
Shaded
350
42
  3
Shaded with edges
350
41
  3
Shades of Gray
350
3E
  3
Sketchy
350
3F
  3
Thicken
350
37
  3
Wireframe
350
30
  3
X-Ray
350
40
  0
XRECORD
  5
2DB
102
{ACAD_REACTORS
330
C
102
}
330
C
100
AcDbXrecord
280
     1
 90
        1
330
6A
  0
DICTIONARY
  5
2A7
102
{ACAD_REACTORS
330
C
102
}
330
C
100
AcDbDictionary
281
     1
  3
CANNOSCALE
350
2A8
  3
CMLEADERSTYLE
350
2DD
  3
CTABLESTYLE
350
2DC
  0
LAYOUT
  5
1E
102
{ACAD_REACTORS
330
1A
102
}
330
1A
100
AcDbPlotSettings
  1

  2
none_device
  4

  6

 40
0.0
 41
0.0
 42
0.0
 43
0.0
 44
0.0
 45
0.0
 46
0.0
 47
0.0
 48
0.0
 49
0.0
140
0.0
141
0.0
142
1.0
143
1.0
 70
   688
 72
     1
 73
     0
 74
     5
  7

 75
    16
 76
     0
 77
     2
 78
   300
147
1.0
148
0.0
149
0.0
100
AcDbLayout
  1
Layout1
 70
     1
 71
     1
 10
0.0
 20
0.0
 11
420.0
 21
297.0
 12
0.0
 22
0.0
 32
0.0
 14
1.000000E+20
 24
1.000000E+20
 34
1.000000E+20
 15
-1.000000E+20
 25
-1.000000E+20
 35
-1.000000E+20
146
0.0
 13
0.0
 23
0.0
 33
0.0
 16
1.0
 26
0.0
 36
0.0
 17
0.0
 27
1.0
 37
0.0
 76
     0
330
1B
  0
LAYOUT
  5
26
102
{ACAD_REACTORS
330
1A
102
}
330
1A
100
AcDbPlotSettings
  1

  2
none_device
  4

  6

 40
0.0
 41
0.0
 42
0.0
 43
0.0
 44
0.0
 45
0.0
 46
0.0
 47
0.0
 48
0.0
 49
0.0
140
0.0
141
0.0
142
1.0
143
1.0
 70
   688
 72
     1
 73
     0
 74
     5
  7

 75
    16
 76
     0
 77
     2
 78
   300
147
1.0
148
0.0
149
0.0
100
AcDbLayout
  1
Layout2
 70
     1
 71
     2
 10
0.0
 20
0.0
 11
0.0
 21
0.0
 12
0.0
 22
0.0
 32
0.0
 14
0.0
 24
0.0
 34
0.0
 15
0.0
 25
0.0
 35
0.0
146
0.0
 13
0.0
 23
0.0
 33
0.0
 16
1.0
 26
0.0
 36
0.0
 17
0.0
 27
1.0
 37
0.0
 76
     0
330
23
  0
LAYOUT
  5
22
102
{ACAD_REACTORS
330
1A
102
}
330
1A
100
AcDbPlotSettings
  1

  2
none_device
  4
Letter_(8.50_x_11.00_Inches)
  6

 40
6.35
 41
6.35
 42
6.350005
 43
6.350005
 44
215.9
 45
279.4
 46
0.0
 47
0.0
 48
0.0
 49
0.0
140
0.0
141
0.0
142
1.0
143
1.0
 70
  1712
 72
     1
 73
     0
 74
     0
  7

 75
     0
 76
     0
 77
     2
 78
   300
147
1.0
148
0.0
149
0.0
100
AcDbLayout
  1
Model
 70
     1
 71
     0
 10
0.0
 20
0.0
 11
420.0
 21
297.0
 12
0.0
 22
0.0
 32
0.0
 14
1.000000E+20
 24
1.000000E+20
 34
1.000000E+20
 15
-1.000000E+20
 25
-1.000000E+20
 35
-1.000000E+20
146
0.0
 13
0.0
 23
0.0
 33
0.0
 16
1.0
 26
0.0
 36
0.0
 17
0.0
 27
1.0
 37
0.0
 76
     0
330
1F
331
29
  0
MATERIAL
  5
45
102
{ACAD_REACTORS
330
43
102
}
330
43
100
AcDbMaterial
  1
ByBlock
 72
     1
 94
      127
  0
MATERIAL
  5
44
102
{ACAD_REACTORS
330
43
102
}
330
43
100
AcDbMaterial
  1
ByLayer
 72
     1
 94
      127
  0
MATERIAL
  5
46
102
{ACAD_REACTORS
330
43
102
}
330
43
100
AcDbMaterial
  1
Global
 72
     1
 94
      127
  0
MLEADERSTYLE
  5
6C
102
{ACAD_REACTORS
330
6B
102
}
330
6B
100
AcDbMLeaderStyle
179
     2
170
     2
171
     1
172
     0
 90
        2
 40
0.0
 41
0.0
173
     1
 91
-1056964608
340
14
 92
       -2
290
     1
 42
2.0
291
     1
 43
8.0
  3
Standard
341
0
 44
4.0
300

342
11
174
     1
178
     6
175
     1
176
     0
 93
-1056964608
 45
4.0
292
     0
297
     0
 46
4.0
343
0
 94
-1056964608
 47
1.0
 49
1.0
140
1.0
293
     1
141
0.0
294
     1
177
     0
142
1.0
295
     0
296
     0
143
3.75
271
     0
272
     9
273
     9
  0
MLINESTYLE
  5
18
102
{ACAD_REACTORS
330
17
102
}
330
17
100
AcDbMlineStyle
  2
Standard
 70
     0
  3

 62
   256
 51
90.0
 52
90.0
 71
     2
 49
0.5
 62
   256
  6
BYLAYER
 49
-0.5
 62
   256
  6
BYLAYER
  0
ACDBPLACEHOLDER
  5
F
102
{ACAD_REACTORS
330
E
102
}
330
E
  0
SCALE
  5
48
102
{ACAD_REACTORS
330
47
102
}
330
47
100
AcDbScale
 70
     0
300
1:1
140
1.0
141
1.0
290
     1
  0
SCALE
  5
49
102
{ACAD_REACTORS
330
47
102
}
330
47
100
AcDbScale
 70
     0
300
1:2
140
1.0
141
2.0
290
     0
  0
SCALE
  5
4A
102
{ACAD_REACTORS
330
47
102
}
330
47
100
AcDbScale
 70
     0
300
1:4
140
1.0
141
4.0
290
     0
  0
SCALE
  5
4B
102
{ACAD_REACTORS
330
47
102
}
330
47
100
AcDbScale
 70
     0
300
1:5
140
1.0
141
5.0
290
     0
  0
SCALE
  5
4C
102
{ACAD_REACTORS
330
47
102
}
330
47
100
AcDbScale
 70
     0
300
1:8
140
1.0
141
8.0
290
     0
  0
SCALE
  5
4D
102
{ACAD_REACTORS
330
47
102
}
330
47
100
AcDbScale
 70
     0
300
1:10
140
1.0
141
10.0
290
     0
  0
SCALE
  5
4E
102
{ACAD_REACTORS
330
47
102
}
330
47
100
AcDbScale
 70
     0
300
1:16
140
1.0
141
16.0
290
     0
  0
SCALE
  5
4F
102
{ACAD_REACTORS
330
47
102
}
330
47
100
AcDbScale
 70
     0
300
1:20
140
1.0
141
20.0
290
     0
  0
SCALE
  5
50
102
{ACAD_REACTORS
330
47
102
}
330
47
100
AcDbScale
 70
     0
300
1:30
140
1.0
141
30.0
290
     0
  0
SCALE
  5
51
102
{ACAD_REACTORS
330
47
102
}
330
47
100
AcDbScale
 70
     0
300
1:40
140
1.0
141
40.0
290
     0
  0
SCALE
  5
52
102
{ACAD_REACTORS
330
47
102
}
330
47
100
AcDbScale
 70
     0
300
1:50
140
1.0
141
50.0
290
     0
  0
SCALE
  5
53
102
{ACAD_REACTORS
330
47
102
}
330
47
100
AcDbScale
 70
     0
300
1:100
140
1.0
141
100.0
290
     0
  0
SCALE
  5
54
102
{ACAD_REACTORS
330
47
102
}
330
47
100
AcDbScale
 70
     0
300
2:1
140
2.0
141
1.0
290
     0
  0
SCALE
  5
55
102
{ACAD_REACTORS
330
47
102
}
330
47
100
AcDbScale
 70
     0
300
4:1
140
4.0
141
1.0
290
     0
  0
SCALE
  5
56
102
{ACAD_REACTORS
330
47
102
}
330
47
100
AcDbScale
 70
     0
300
8:1
140
8.0
141
1.0
290
     0
  0
SCALE
  5
57
102
{ACAD_REACTORS
330
47
102
}
330
47
100
AcDbScale
 70
     0
300
10:1
140
10.0
141
1.0
290
     0
  0
SCALE
  5
58
102
{ACAD_REACTORS
330
47
102
}
330
47
100
AcDbScale
 70
     0
300
100:1
140
100.0
141
1.0
290
     0
  0
SCALE
  5
59
102
{ACAD_REACTORS
330
47
102
}
330
47
100
AcDbScale
 70
     0
300
1/128" = 1'-0"
140
0.007812
141
12.0
290
     0
  0
SCALE
  5
5A
102
{ACAD_REACTORS
330
47
102
}
330
47
100
AcDbScale
 70
     0
300
1/64" = 1'-0"
140
0.015625
141
12.0
290
     0
  0
SCALE
  5
5B
102
{ACAD_REACTORS
330
47
102
}
330
47
100
AcDbScale
 70
     0
300
1/32" = 1'-0"
140
0.03125
141
12.0
290
     0
  0
SCALE
  5
5C
102
{ACAD_REACTORS
330
47
102
}
330
47
100
AcDbScale
 70
     0
300
1/16" = 1'-0"
140
0.0625
141
12.0
290
     0
  0
SCALE
  5
5D
102
{ACAD_REACTORS
330
47
102
}
330
47
100
AcDbScale
 70
     0
300
3/32" = 1'-0"
140
0.09375
141
12.0
290
     0
  0
SCALE
  5
5E
102
{ACAD_REACTORS
330
47
102
}
330
47
100
AcDbScale
 70
     0
300
1/8" = 1'-0"
140
0.125
141
12.0
290
     0
  0
SCALE
  5
5F
102
{ACAD_REACTORS
330
47
102
}
330
47
100
AcDbScale
 70
     0
300
3/16" = 1'-0"
140
0.1875
141
12.0
290
     0
  0
SCALE
  5
60
102
{ACAD_REACTORS
330
47
102
}
330
47
100
AcDbScale
 70
     0
300
1/4" = 1'-0"
140
0.25
141
12.0
290
     0
  0
SCALE
  5
61
102
{ACAD_REACTORS
330
47
102
}
330
47
100
AcDbScale
 70
     0
300
3/8" = 1'-0"
140
0.375
141
12.0
290
     0
  0
SCALE
  5
62
102
{ACAD_REACTORS
330
47
102
}
330
47
100
AcDbScale
 70
     0
300
1/2" = 1'-0"
140
0.5
141
12.0
290
     0
  0
SCALE
  5
63
102
{ACAD_REACTORS
330
47
102
}
330
47
100
AcDbScale
 70
     0
300
3/4" = 1'-0"
140
0.75
141
12.0
290
     0
  0
SCALE
  5
64
102
{ACAD_REACTORS
330
47
102
}
330
47
100
AcDbScale
 70
     0
300
1" = 1'-0"
140
1.0
141
12.0
290
     0
  0
SCALE
  5
65
102
{ACAD_REACTORS
330
47
102
}
330
47
100
AcDbScale
 70
     0
300
1-1/2" = 1'-0"
140
1.5
141
12.0
290
     0
  0
SCALE
  5
66
102
{ACAD_REACTORS
330
47
102
}
330
47
100
AcDbScale
 70
     0
300
3" = 1'-0"
140
3.0
141
12.0
290
     0
  0
SCALE
  5
67
102
{ACAD_REACTORS
330
47
102
}
330
47
100
AcDbScale
 70
     0
300
6" = 1'-0"
140
6.0
141
12.0
290
     0
  0
SCALE
  5
68
102
{ACAD_REACTORS
330
47
102
}
330
47
100
AcDbScale
 70
     0
300
1'-0" = 1'-0"
140
12.0
141
12.0
290
     0
  0
TABLESTYLE
  5
6A
102
{ACAD_REACTORS
330
69
102
}
102
{ACAD_XDICTIONARY
360
2D9
102
}
330
69
100
AcDbTableStyle
  3
Standard
 70
     0
 71
     0
 40
0.06
 41
0.06
280
     0
281
     0
  7
Standard
140
4.5
170
     2
 62
     0
 63
   257
283
     0
 90
        4
 91
        0
  1

274
    -2
284
     1
 64
     0
275
    -2
285
     1
 65
     0
276
    -2
286
     1
 66
     0
277
    -2
287
     1
 67
     0
278
    -2
288
     1
 68
     0
279
    -2
289
     1
 69
     0
  7
Standard
140
6.0
170
     5
 62
     0
 63
   257
283
     0
 90
        4
 91
        0
  1

274
    -2
284
     1
 64
     0
275
    -2
285
     1
 65
     0
276
    -2
286
     1
 66
     0
277
    -2
287
     1
 67
     0
278
    -2
288
     1
 68
     0
279
    -2
289
     1
 69
     0
  7
Standard
140
4.5
170
     5
 62
     0
 63
   257
283
     0
 90
        4
 91
        0
  1

274
    -2
284
     1
 64
     0
275
    -2
285
     1
 65
     0
276
    -2
286
     1
 66
     0
277
    -2
287
     1
 67
     0
278
    -2
288
     1
 68
     0
279
    -2
289
     1
 69
     0
  0
VISUALSTYLE
  5
2F
102
{ACAD_REACTORS
330
2A
102
}
102
{ACAD_XDICTIONARY
360
2B1
102
}
330
2A
100
AcDbVisualStyle
  2
2dWireframe
 70
     4
177
     2
291
     0
 71
     0
176
     1
 72
     2
176
     1
 73
     0
176
     1
 90
        0
176
     1
 40
0.6
176
     1
 41
30.0
176
     1
 62
     5
 63
     7
421
 16777215
176
     1
 74
     1
176
     1
 91
        4
176
     1
 64
     7
176
     1
 65
   257
176
     1
 75
     1
176
     1
175
     1
176
     1
 42
1.0
176
     1
 92
        0
176
     1
 66
   257
176
     1
 43
1.0
176
     1
 76
     1
176
     1
 77
     6
176
     1
 78
     2
176
     1
 67
     7
176
     1
 79
     5
176
     1
170
     0
176
     1
171
     0
176
     1
290
     0
176
     1
 93
        1
176
     1
 44
0.0
176
     1
173
     0
176
     1
  0
VISUALSTYLE
  5
32
102
{ACAD_REACTORS
330
2A
102
}
102
{ACAD_XDICTIONARY
360
2B7
102
}
330
2A
100
AcDbVisualStyle
  2
Basic
 70
     7
177
     2
291
     1
 71
     1
176
     1
 72
     0
176
     1
 73
     1
176
     1
 90
        0
176
     1
 40
0.6
176
     1
 41
30.0
176
     1
 62
     5
 63
     7
421
 16777215
176
     1
 74
     0
176
     1
 91
        4
176
     1
 64
     7
176
     1
 65
   257
176
     1
 75
     1
176
     1
175
     1
176
     1
 42
1.0
176
     1
 92
        8
176
     1
 66
     7
176
     1
 43
1.0
176
     1
 76
     1
176
     1
 77
     6
176
     1
 78
     2
176
     1
 67
     7
176
     1
 79
     5
176
     1
170
     0
176
     1
171
     0
176
     1
290
     0
176
     1
 93
        1
176
     1
 44
0.0
176
     1
173
     0
176
     1
  0
VISUALSTYLE
  5
36
102
{ACAD_REACTORS
330
2A
102
}
102
{ACAD_XDICTIONARY
360
2BF
102
}
330
2A
100
AcDbVisualStyle
  2
Brighten
 70
    12
177
     2
291
     1
 71
     2
176
     1
 72
     2
176
     1
 73
     0
176
     1
 90
        0
176
     1
 40
0.6
176
     1
 41
30.0
176
     1
 62
     5
 63
     7
421
 16777215
176
     1
 74
     1
176
     1
 91
        4
176
     1
 64
     7
176
     1
 65
   257
176
     1
 75
     1
176
     1
175
     1
176
     1
 42
1.0
176
     1
 92
        8
176
     1
 66
     7
176
     1
 43
1.0
176
     1
 76
     1
176
     1
 77
     6
176
     1
 78
     2
176
     1
 67
     7
176
     1
 79
     5
176
     1
170
     0
176
     1
171
     0
176
     1
290
     0
176
     1
 93
        1
176
     1
 44
50.0
176
     1
173
     0
176
     1
  0
VISUALSTYLE
  5
3A
102
{ACAD_REACTORS
330
2A
102
}
102
{ACAD_XDICTIONARY
360
2C7
102
}
330
2A
100
AcDbVisualStyle
  2
ColorChange
 70
    16
177
     2
291
     1
 71
     2
176
     1
 72
     2
176
     1
 73
     3
176
     1
 90
        0
176
     1
 40
0.6
176
     1
 41
30.0
176
     1
 62
     5
 63
     8
421
  8421504
176
     1
 74
     1
176
     1
 91
        4
176
     1
 64
     7
176
     1
 65
   257
176
     1
 75
     1
176
     1
175
     1
176
     1
 42
1.0
176
     1
 92
        8
176
     1
 66
     8
424
  8421504
176
     1
 43
1.0
176
     1
 76
     1
176
     1
 77
     6
176
     1
 78
     2
176
     1
 67
     7
176
     1
 79
     5
176
     1
170
     0
176
     1
171
     0
176
     1
290
     0
176
     1
 93
        1
176
     1
 44
0.0
176
     1
173
     0
176
     1
  0
VISUALSTYLE
  5
34
102
{ACAD_REACTORS
330
2A
102
}
102
{ACAD_XDICTIONARY
360
2BB
102
}
330
2A
100
AcDbVisualStyle
  2
Conceptual
 70
     9
177
     2
291
     0
 71
     3
176
     1
 72
     2
176
     1
 73
     0
176
     1
 90
        0
176
     1
 40
0.6
176
     1
 41
30.0
176
     1
 62
     5
 63
     7
421
 16777215
176
     1
 74
     2
176
     1
 91
        2
176
     1
 64
     7
176
     1
 65
   257
176
     1
 75
     1
176
     1
175
     1
176
     1
 42
179.0
176
     1
 92
        8
176
     1
 66
     7
176
     1
 43
1.0
176
     1
 76
     1
176
     1
 77
     6
176
     1
 78
     2
176
     1
 67
     7
176
     1
 79
     3
176
     1
170
     0
176
     1
171
     0
176
     1
290
     0
176
     1
 93
        1
176
     1
 44
0.0
176
     1
173
     0
176
     1
  0
VISUALSTYLE
  5
35
102
{ACAD_REACTORS
330
2A
102
}
102
{ACAD_XDICTIONARY
360
2BD
102
}
330
2A
100
AcDbVisualStyle
  2
Dim
 70
    11
177
     2
291
     1
 71
     2
176
     1
 72
     2
176
     1
 73
     0
176
     1
 90
        0
176
     1
 40
0.6
176
     1
 41
30.0
176
     1
 62
     5
 63
     7
421
 16777215
176
     1
 74
     1
176
     1
 91
        4
176
     1
 64
     7
176
     1
 65
   257
176
     1
 75
     1
176
     1
175
     1
176
     1
 42
1.0
176
     1
 92
        8
176
     1
 66
     7
176
     1
 43
1.0
176
     1
 76
     1
176
     1
 77
     6
176
     1
 78
     2
176
     1
 67
     7
176
     1
 79
     5
176
     1
170
     0
176
     1
171
     0
176
     1
290
     0
176
     1
 93
        1
176
     1
 44
-50.0
176
     1
173
     0
176
     1
  0
VISUALSTYLE
  5
3D
102
{ACAD_REACTORS
330
2A
102
}
102
{ACAD_XDICTIONARY
360
2CD
102
}
330
2A
100
AcDbVisualStyle
  2
EdgeColorOff
 70
    22
177
     2
291
     1
 71
     2
176
     0
 72
     2
176
     0
 73
     0
176
     0
 90
        0
176
     0
 40
0.6
176
     0
 41
30.0
176
     0
 62
     5
 63
     7
421
 16777215
176
     0
 74
     1
176
     0
 91
        4
176
     0
 64
     7
176
     0
 65
   257
176
     0
 75
     1
176
     0
175
     1
176
     0
 42
1.0
176
     0
 92
        8
176
     2
 66
     7
176
     0
 43
1.0
176
     0
 76
     1
176
     0
 77
     6
176
     0
 78
     2
176
     0
 67
     7
176
     0
 79
     5
176
     0
170
     0
176
     0
171
     0
176
     0
290
     0
176
     0
 93
        1
176
     0
 44
0.0
176
     0
173
     0
176
     0
  0
VISUALSTYLE
  5
39
102
{ACAD_REACTORS
330
2A
102
}
102
{ACAD_XDICTIONARY
360
2C5
102
}
330
2A
100
AcDbVisualStyle
  2
Facepattern
 70
    15
177
     2
291
     1
 71
     2
176
     1
 72
     2
176
     1
 73
     0
176
     1
 90
        0
176
     1
 40
0.6
176
     1
 41
30.0
176
     1
 62
     5
 63
     7
421
 16777215
176
     1
 74
     1
176
     1
 91
        4
176
     1
 64
     7
176
     1
 65
   257
176
     1
 75
     1
176
     1
175
     1
176
     1
 42
1.0
176
     1
 92
        8
176
     1
 66
     7
176
     1
 43
1.0
176
     1
 76
     1
176
     1
 77
     6
176
     1
 78
     2
176
     1
 67
     7
176
     1
 79
     5
176
     1
170
     0
176
     1
171
     0
176
     1
290
     0
176
     1
 93
        1
176
     1
 44
0.0
176
     1
173
     0
176
     1
  0
VISUALSTYLE
  5
2B
102
{ACAD_REACTORS
330
2A
102
}
102
{ACAD_XDICTIONARY
360
2A9
102
}
330
2A
100
AcDbVisualStyle
  2
Flat
 70
     0
177
     2
291
     1
 71
     2
176
     1
 72
     1
176
     1
 73
     1
176
     1
 90
        2
176
     1
 40
0.6
176
     1
 41
30.0
176
     1
 62
     5
 63
     7
421
 16777215
176
     1
 74
     0
176
     1
 91
        0
176
     1
 64
     7
176
     1
 65
   257
176
     1
 75
     1
176
     1
175
     1
176
     1
 42
1.0
176
     1
 92
        8
176
     1
 66
     7
176
     1
 43
1.0
176
     1
 76
     1
176
     1
 77
     6
176
     1
 78
     2
176
     1
 67
     7
176
     1
 79
     5
176
     1
170
     0
176
     1
171
     0
176
     1
290
     0
176
     1
 93
       13
176
     1
 44
0.0
176
     1
173
     0
176
     1
  0
VISUALSTYLE
  5
2C
102
{ACAD_REACTORS
330
2A
102
}
102
{ACAD_XDICTIONARY
360
2AB
102
}
330
2A
100
AcDbVisualStyle
  2
FlatWithEdges
 70
     1
177
     2
291
     1
 71
     2
176
     1
 72
     1
176
     1
 73
     1
176
     1
 90
        2
176
     1
 40
0.6
176
     1
 41
30.0
176
     1
 62
     5
 63
     7
421
 16777215
176
     1
 74
     1
176
     1
 91
        0
176
     1
 64
     7
176
     1
 65
   257
176
     1
 75
     1
176
     1
175
     1
176
     1
 42
1.0
176
     1
 92
        0
176
     1
 66
   257
176
     1
 43
1.0
176
     1
 76
     1
176
     1
 77
     6
176
     1
 78
     2
176
     1
 67
     7
176
     1
 79
     5
176
     1
170
     0
176
     1
171
     0
176
     1
290
     0
176
     1
 93
       13
176
     1
 44
0.0
176
     1
173
     0
176
     1
  0
VISUALSTYLE
  5
2D
102
{ACAD_REACTORS
330
2A
102
}
102
{ACAD_XDICTIONARY
360
2AD
102
}
330
2A
100
AcDbVisualStyle
  2
Gouraud
 70
     2
177
     2
291
     1
 71
     2
176
     1
 72
     2
176
     1
 73
     1
176
     1
 90
        2
176
     1
 40
0.6
176
     1
 41
30.0
176
     1
 62
     5
 63
     7
421
 16777215
176
     1
 74
     0
176
     1
 91
        0
176
     1
 64
     7
176
     1
 65
   257
176
     1
 75
     1
176
     1
175
     1
176
     1
 42
1.0
176
     1
 92
        0
176
     1
 66
     7
176
     1
 43
1.0
176
     1
 76
     1
176
     1
 77
     6
176
     1
 78
     2
176
     1
 67
     7
176
     1
 79
     5
176
     1
170
     0
176
     1
171
     0
176
     1
290
     0
176
     1
 93
       13
176
     1
 44
0.0
176
     1
173
     0
176
     1
  0
VISUALSTYLE
  5
2E
102
{ACAD_REACTORS
330
2A
102
}
102
{ACAD_XDICTIONARY
360
2AF
102
}
330
2A
100
AcDbVisualStyle
  2
GouraudWithEdges
 70
     3
177
     2
291
     1
 71
     2
176
     1
 72
     2
176
     1
 73
     1
176
     1
 90
        2
176
     1
 40
0.6
176
     1
 41
30.0
176
     1
 62
     5
 63
     7
421
 16777215
176
     1
 74
     1
176
     1
 91
        0
176
     1
 64
     7
176
     1
 65
   257
176
     1
 75
     1
176
     1
175
     1
176
     1
 42
1.0
176
     1
 92
        0
176
     1
 66
   257
176
     1
 43
1.0
176
     1
 76
     1
176
     1
 77
     6
176
     1
 78
     2
176
     1
 67
     7
176
     1
 79
     5
176
     1
170
     0
176
     1
171
     0
176
     1
290
     0
176
     1
 93
       13
176
     1
 44
0.0
176
     1
173
     0
176
     1
  0
VISUALSTYLE
  5
31
102
{ACAD_REACTORS
330
2A
102
}
102
{ACAD_XDICTIONARY
360
2B5
102
}
330
2A
100
AcDbVisualStyle
  2
Hidden
 70
     6
177
     2
291
     0
 71
     1
176
     1
 72
     2
176
     1
 73
     2
176
     1
 90
        0
176
     1
 40
0.6
176
     1
 41
30.0
176
     1
 62
     5
 63
     7
421
 16777215
176
     1
 74
     2
176
     1
 91
        2
176
     1
 64
     7
176
     1
 65
   257
176
     1
 75
     2
176
     1
175
     1
176
     1
 42
40.0
176
     1
 92
        0
176
     1
 66
   257
176
     1
 43
1.0
176
     1
 76
     1
176
     1
 77
     6
176
     1
 78
     2
176
     1
 67
     7
176
     1
 79
     3
176
     1
170
     0
176
     1
171
     0
176
     1
290
     0
176
     1
 93
        1
176
     1
 44
0.0
176
     1
173
     0
176
     1
  0
VISUALSTYLE
  5
3B
102
{ACAD_REACTORS
330
2A
102
}
102
{ACAD_XDICTIONARY
360
2C9
102
}
330
2A
100
AcDbVisualStyle
  2
JitterOff
 70
    20
177
     2
291
     1
 71
     2
176
     0
 72
     2
176
     0
 73
     0
176
     0
 90
        0
176
     0
 40
0.6
176
     0
 41
30.0
176
     0
 62
     5
 63
     7
421
 16777215
176
     0
 74
     1
176
     0
 91
        4
176
     0
 64
     7
176
     0
 65
   257
176
     0
 75
     1
176
     0
175
     1
176
     0
 42
1.0
176
     0
 92
       10
176
     2
 66
     7
176
     0
 43
1.0
176
     0
 76
     1
176
     0
 77
     6
176
     0
 78
     2
176
     0
 67
     7
176
     0
 79
     5
176
     0
170
     0
176
     0
171
     0
176
     0
290
     0
176
     0
 93
        1
176
     0
 44
0.0
176
     0
173
     0
176
     0
  0
VISUALSTYLE
  5
38
102
{ACAD_REACTORS
330
2A
102
}
102
{ACAD_XDICTIONARY
360
2C3
102
}
330
2A
100
AcDbVisualStyle
  2
Linepattern
 70
    14
177
     2
291
     1
 71
     2
176
     1
 72
     2
176
     1
 73
     0
176
     1
 90
        0
176
     1
 40
0.6
176
     1
 41
30.0
176
     1
 62
     5
 63
     7
421
 16777215
176
     1
 74
     1
176
     1
 91
        4
176
     1
 64
     7
176
     1
 65
   257
176
     1
 75
     7
176
     1
175
     7
176
     1
 42
1.0
176
     1
 92
        8
176
     1
 66
     7
176
     1
 43
1.0
176
     1
 76
     1
176
     1
 77
     6
176
     1
 78
     2
176
     1
 67
     7
176
     1
 79
     5
176
     1
170
     0
176
     1
171
     0
176
     1
290
     0
176
     1
 93
        1
176
     1
 44
0.0
176
     1
173
     0
176
     1
  0
VISUALSTYLE
  5
3C
102
{ACAD_REACTORS
330
2A
102
}
102
{ACAD_XDICTIONARY
360
2CB
102
}
330
2A
100
AcDbVisualStyle
  2
OverhangOff
 70
    21
177
     2
291
     1
 71
     2
176
     0
 72
     2
176
     0
 73
     0
176
     0
 90
        0
176
     0
 40
0.6
176
     0
 41
30.0
176
     0
 62
     5
 63
     7
421
 16777215
176
     0
 74
     1
176
     0
 91
        4
176
     0
 64
     7
176
     0
 65
   257
176
     0
 75
     1
176
     0
175
     1
176
     0
 42
1.0
176
     0
 92
        9
176
     2
 66
     7
176
     0
 43
1.0
176
     0
 76
     1
176
     0
 77
     6
176
     0
 78
     2
176
     0
 67
     7
176
     0
 79
     5
176
     0
170
     0
176
     0
171
     0
176
     0
290
     0
176
     0
 93
        1
176
     0
 44
0.0
176
     0
173
     0
176
     0
  0
VISUALSTYLE
  5
33
102
{ACAD_REACTORS
330
2A
102
}
102
{ACAD_XDICTIONARY
360
2B9
102
}
330
2A
100
AcDbVisualStyle
  2
Realistic
 70
     8
177
     2
291
     0
 71
     2
176
     1
 72
     3
176
     1
 73
     0
176
     1
 90
        2
176
     1
 40
0.6
176
     1
 41
30.0
176
     1
 62
     5
 63
     7
421
 16777215
176
     1
 74
     0
176
     1
 91
        0
176
     1
 64
     7
176
     1
 65
   257
176
     1
 75
     1
176
     1
175
     1
176
     1
 42
1.0
176
     1
 92
        8
176
     1
 66
   257
176
     1
 43
1.0
176
     1
 76
     1
176
     1
 77
     6
176
     1
 78
     2
176
     1
 67
     7
176
     1
 79
     3
176
     1
170
     0
176
     1
171
     0
176
     1
290
     0
176
     1
 93
       13
176
     1
 44
0.0
176
     1
173
     0
176
     1
  0
VISUALSTYLE
  5
42
102
{ACAD_REACTORS
330
2A
102
}
102
{ACAD_XDICTIONARY
360
2D7
102
}
330
2A
100
AcDbVisualStyle
  2
Shaded
 70
    27
177
     2
291
     0
 71
     2
176
     1
 72
     2
176
     1
 73
     1
176
     1
 90
        2
176
     1
 40
0.6
176
     1
 41
30.0
176
     1
 62
     5
 63
     7
421
 16777215
176
     1
 74
     0
176
     1
 91
        4
176
     1
 64
     7
176
     1
 65
   257
176
     1
 75
     1
176
     1
175
     1
176
     1
 42
1.0
176
     1
 92
        8
176
     1
 66
   257
176
     1
 43
1.0
176
     1
 76
     1
176
     1
 77
     6
176
     1
 78
     2
176
     1
 67
     8
425
  7895160
176
     1
 79
     3
176
     1
170
     0
176
     1
171
     0
176
     1
290
     0
176
     1
 93
        5
176
     1
 44
0.0
176
     1
173
     0
176
     1
  0
VISUALSTYLE
  5
41
102
{ACAD_REACTORS
330
2A
102
}
102
{ACAD_XDICTIONARY
360
2D5
102
}
330
2A
100
AcDbVisualStyle
  2
Shaded with edges
 70
    26
177
     2
291
     0
 71
     2
176
     1
 72
     2
176
     1
 73
     1
176
     1
 90
        2
176
     1
 40
0.6
176
     1
 41
30.0
176
     1
 62
     5
 63
     7
421
 16777215
176
     1
 74
     1
176
     1
 91
       10
176
     1
 64
     7
176
     1
 65
   257
176
     1
 75
     2
176
     1
175
     1
176
     1
 42
1.0
176
     1
 92
        8
176
     1
 66
   257
176
     1
 43
1.0
176
     1
 76
     1
176
     1
 77
     6
176
     1
 78
     2
176
     1
 67
     7
176
     1
 79
     3
176
     1
170
     0
176
     1
171
     0
176
     1
290
     0
176
     1
 93
        5
176
     1
 44
0.0
176
     1
173
     0
176
     1
  0
VISUALSTYLE
  5
3E
102
{ACAD_REACTORS
330
2A
102
}
102
{ACAD_XDICTIONARY
360
2CF
102
}
330
2A
100
AcDbVisualStyle
  2
Shades of Gray
 70
    23
177
     2
291
     0
 71
     2
176
     1
 72
     2
176
     1
 73
     3
176
     1
 90
        0
176
     1
 40
0.6
176
     1
 41
30.0
176
     1
 62
     5
 63
     7
421
 16777215
176
     1
 74
     2
176
     1
 91
        2
176
     1
 64
     7
176
     1
 65
     7
176
     1
 75
     1
176
     1
175
     1
176
     1
 42
40.0
176
     1
 92
        8
176
     1
 66
     7
176
     1
 43
1.0
176
     1
 76
     1
176
     1
 77
     6
176
     1
 78
     2
176
     1
 67
     7
176
     1
 79
     3
176
     1
170
     0
176
     1
171
     0
176
     1
290
     0
176
     1
 93
        1
176
     1
 44
0.0
176
     1
173
     0
176
     1
  0
VISUALSTYLE
  5
3F
102
{ACAD_REACTORS
330
2A
102
}
102
{ACAD_XDICTIONARY
360
2D1
102
}
330
2A
100
AcDbVisualStyle
  2
Sketchy
 70
    24
177
     2
291
     0
 71
     1
176
     1
 72
     2
176
     1
 73
     2
176
     1
 90
        0
176
     1
 40
0.6
176
     1
 41
30.0
176
     1
 62
     5
 63
     7
421
 16777215
176
     1
 74
     2
176
     1
 91
        2
176
     1
 64
     7
176
     1
 65
     7
176
     1
 75
     1
176
     1
175
     1
176
     1
 42
40.0
176
     1
 92
       11
176
     1
 66
     7
176
     1
 43
1.0
176
     1
 76
     1
176
     1
 77
     6
176
     1
 78
     2
176
     1
 67
     7
176
     1
 79
     6
176
     1
170
     0
176
     1
171
     0
176
     1
290
     0
176
     1
 93
        1
176
     1
 44
0.0
176
     1
173
     0
176
     1
  0
VISUALSTYLE
  5
37
102
{ACAD_REACTORS
330
2A
102
}
102
{ACAD_XDICTIONARY
360
2C1
102
}
330
2A
100
AcDbVisualStyle
  2
Thicken
 70
    13
177
     2
291
     1
 71
     2
176
     1
 72
     2
176
     1
 73
     0
176
     1
 90
        0
176
     1
 40
0.6
176
     1
 41
30.0
176
     1
 62
     5
 63
     7
421
 16777215
176
     1
 74
     1
176
     1
 91
        4
176
     1
 64
     7
176
     1
 65
   257
176
     1
 75
     1
176
     1
175
     1
176
     1
 42
1.0
176
     1
 92
       12
176
     1
 66
     7
176
     1
 43
1.0
176
     1
 76
     1
176
     1
 77
     6
176
     1
 78
     2
176
     1
 67
     7
176
     1
 79
     5
176
     1
170
     0
176
     1
171
     0
176
     1
290
     0
176
     1
 93
        1
176
     1
 44
0.0
176
     1
173
     0
176
     1
  0
VISUALSTYLE
  5
30
102
{ACAD_REACTORS
330
2A
102
}
102
{ACAD_XDICTIONARY
360
2B3
102
}
330
2A
100
AcDbVisualStyle
  2
Wireframe
 70
     5
177
     2
291
     0
 71
     0
176
     1
 72
     2
176
     1
 73
     0
176
     1
 90
        0
176
     1
 40
0.6
176
     1
 41
30.0
176
     1
 62
     5
 63
     7
421
 16777215
176
     1
 74
     1
176
     1
 91
        4
176
     1
 64
     7
176
     1
 65
   257
176
     1
 75
     1
176
     1
175
     1
176
     1
 42
1.0
176
     1
 92
        0
176
     1
 66
   257
176
     1
 43
1.0
176
     1
 76
     1
176
     1
 77
     6
176
     1
 78
     2
176
     1
 67
     7
176
     1
 79
     3
176
     1
170
     0
176
     1
171
     0
176
     1
290
     0
176
     1
 93
        1
176
     1
 44
0.0
176
     1
173
     0
176
     1
  0
VISUALSTYLE
  5
40
102
{ACAD_REACTORS
330
2A
102
}
102
{ACAD_XDICTIONARY
360
2D3
102
}
330
2A
100
AcDbVisualStyle
  2
X-Ray
 70
    25
177
     2
291
     0
 71
     2
176
     1
 72
     2
176
     1
 73
     1
176
     1
 90
        1
176
     1
 40
0.5
176
     1
 41
30.0
176
     1
 62
     5
 63
     7
421
 16777215
176
     1
 74
     1
176
     1
 91
        0
176
     1
 64
     7
176
     1
 65
   257
176
     1
 75
     1
176
     1
175
     1
176
     1
 42
1.0
176
     1
 92
        8
176
     1
 66
     7
176
     1
 43
1.0
176
     1
 76
     1
176
     1
 77
     6
176
     1
 78
     2
176
     1
 67
     7
176
     1
 79
     3
176
     1
170
     0
176
     1
171
     0
176
     1
290
     0
176
     1
 93
       13
176
     1
 44
0.0
176
     1
173
     0
176
     1
  0
DICTIONARYVAR
  5
2A8
102
{ACAD_REACTORS
330
2A7
102
}
330
2A7
100
DictionaryVariables
280
     0
  1
1:1
  0
DICTIONARYVAR
  5
2DD
102
{ACAD_REACTORS
330
2A7
102
}
330
2A7
100
DictionaryVariables
280
     0
  1
Standard
  0
DICTIONARYVAR
  5
2DC
102
{ACAD_REACTORS
330
2A7
102
}
330
2A7
100
DictionaryVariables
280
     0
  1
Standard
  0
DICTIONARY
  5
2D9
330
6A
100
AcDbDictionary
280
     1
281
     1
  3
ACAD_ROUNDTRIP_2008_TABLESTYLE_CELLSTYLEMAP
360
2DA
  0
DICTIONARY
  5
2B1
330
2F
100
AcDbDictionary
280
     1
281
     1
  3
ACAD_XREC_ROUNDTRIP
360
2B2
  0
DICTIONARY
  5
2B7
330
32
100
AcDbDictionary
280
     1
281
     1
  3
ACAD_XREC_ROUNDTRIP
360
2B8
  0
DICTIONARY
  5
2BF
330
36
100
AcDbDictionary
280
     1
281
     1
  3
ACAD_XREC_ROUNDTRIP
360
2C0
  0
DICTIONARY
  5
2C7
330
3A
100
AcDbDictionary
280
     1
281
     1
  3
ACAD_XREC_ROUNDTRIP
360
2C8
  0
DICTIONARY
  5
2BB
330
34
100
AcDbDictionary
280
     1
281
     1
  3
ACAD_XREC_ROUNDTRIP
360
2BC
  0
DICTIONARY
  5
2BD
330
35
100
AcDbDictionary
280
     1
281
     1
  3
ACAD_XREC_ROUNDTRIP
360
2BE
  0
DICTIONARY
  5
2CD
330
3D
100
AcDbDictionary
280
     1
281
     1
  3
ACAD_XREC_ROUNDTRIP
360
2CE
  0
DICTIONARY
  5
2C5
330
39
100
AcDbDictionary
280
     1
281
     1
  3
ACAD_XREC_ROUNDTRIP
360
2C6
  0
DICTIONARY
  5
2A9
330
2B
100
AcDbDictionary
280
     1
281
     1
  3
ACAD_XREC_ROUNDTRIP
360
2AA
  0
DICTIONARY
  5
2AB
330
2C
100
AcDbDictionary
280
     1
281
     1
  3
ACAD_XREC_ROUNDTRIP
360
2AC
  0
DICTIONARY
  5
2AD
330
2D
100
AcDbDictionary
280
     1
281
     1
  3
ACAD_XREC_ROUNDTRIP
360
2AE
  0
DICTIONARY
  5
2AF
330
2E
100
AcDbDictionary
280
     1
281
     1
  3
ACAD_XREC_ROUNDTRIP
360
2B0
  0
DICTIONARY
  5
2B5
330
31
100
AcDbDictionary
280
     1
281
     1
  3
ACAD_XREC_ROUNDTRIP
360
2B6
  0
DICTIONARY
  5
2C9
330
3B
100
AcDbDictionary
280
     1
281
     1
  3
ACAD_XREC_ROUNDTRIP
360
2CA
  0
DICTIONARY
  5
2C3
330
38
100
AcDbDictionary
280
     1
281
     1
  3
ACAD_XREC_ROUNDTRIP
360
2C4
  0
DICTIONARY
  5
2CB
330
3C
100
AcDbDictionary
280
     1
281
     1
  3
ACAD_XREC_ROUNDTRIP
360
2CC
  0
DICTIONARY
  5
2B9
330
33
100
AcDbDictionary
280
     1
281
     1
  3
ACAD_XREC_ROUNDTRIP
360
2BA
  0
DICTIONARY
  5
2D7
330
42
100
AcDbDictionary
280
     1
281
     1
  3
ACAD_XREC_ROUNDTRIP
360
2D8
  0
DICTIONARY
  5
2D5
330
41
100
AcDbDictionary
280
     1
281
     1
  3
ACAD_XREC_ROUNDTRIP
360
2D6
  0
DICTIONARY
  5
2CF
330
3E
100
AcDbDictionary
280
     1
281
     1
  3
ACAD_XREC_ROUNDTRIP
360
2D0
  0
DICTIONARY
  5
2D1
330
3F
100
AcDbDictionary
280
     1
281
     1
  3
ACAD_XREC_ROUNDTRIP
360
2D2
  0
DICTIONARY
  5
2C1
330
37
100
AcDbDictionary
280
     1
281
     1
  3
ACAD_XREC_ROUNDTRIP
360
2C2
  0
DICTIONARY
  5
2B3
330
30
100
AcDbDictionary
280
     1
281
     1
  3
ACAD_XREC_ROUNDTRIP
360
2B4
  0
DICTIONARY
  5
2D3
330
40
100
AcDbDictionary
280
     1
281
     1
  3
ACAD_XREC_ROUNDTRIP
360
2D4
  0
CELLSTYLEMAP
  5
2DA
102
{ACAD_REACTORS
330
2D9
102
}
330
2D9
100
AcDbCellStyleMap
 90
        3
300
CELLSTYLE
  1
TABLEFORMAT_BEGIN
 90
        5
170
     1
 91
        0
 92
    32768
 62
   257
 93
        1
300
CONTENTFORMAT
  1
CONTENTFORMAT_BEGIN
 90
        0
 91
        0
 92
        4
 93
        0
300

 40
0.0
140
1.0
 94
        5
 62
     0
340
11
144
6.0
309
CONTENTFORMAT_END
171
     1
301
MARGIN
  1
CELLMARGIN_BEGIN
 40
1.5
 40
1.5
 40
1.5
 40
1.5
 40
1.5
 40
1.5
309
CELLMARGIN_END
 94
        6
 95
        1
302
GRIDFORMAT
  1
GRIDFORMAT_BEGIN
 90
        0
 91
        1
 62
     0
 92
       -2
340
14
 93
        0
 40
0.045
309
GRIDFORMAT_END
 95
        2
302
GRIDFORMAT
  1
GRIDFORMAT_BEGIN
 90
        0
 91
        1
 62
     0
 92
       -2
340
14
 93
        0
 40
0.045
309
GRIDFORMAT_END
 95
        4
302
GRIDFORMAT
  1
GRIDFORMAT_BEGIN
 90
        0
 91
        1
 62
     0
 92
       -2
340
14
 93
        0
 40
0.045
309
GRIDFORMAT_END
 95
        8
302
GRIDFORMAT
  1
GRIDFORMAT_BEGIN
 90
        0
 91
        1
 62
     0
 92
       -2
340
14
 93
        0
 40
0.045
309
GRIDFORMAT_END
 95
       16
302
GRIDFORMAT
  1
GRIDFORMAT_BEGIN
 90
        0
 91
        1
 62
     0
 92
       -2
340
14
 93
        0
 40
0.045
309
GRIDFORMAT_END
 95
       32
302
GRIDFORMAT
  1
GRIDFORMAT_BEGIN
 90
        0
 91
        1
 62
     0
 92
       -2
340
14
 93
        0
 40
0.045
309
GRIDFORMAT_END
309
TABLEFORMAT_END
  1
CELLSTYLE_BEGIN
 90
        1
 91
        1
300
_TITLE
309
CELLSTYLE_END
300
CELLSTYLE
  1
TABLEFORMAT_BEGIN
 90
        5
170
     1
 91
        0
 92
        0
 62
   257
 93
        1
300
CONTENTFORMAT
  1
CONTENTFORMAT_BEGIN
 90
        0
 91
        0
 92
        4
 93
        0
300

 40
0.0
140
1.0
 94
        5
 62
     0
340
11
144
4.5
309
CONTENTFORMAT_END
171
     1
301
MARGIN
  1
CELLMARGIN_BEGIN
 40
1.5
 40
1.5
 40
1.5
 40
1.5
 40
1.5
 40
1.5
309
CELLMARGIN_END
 94
        6
 95
        1
302
GRIDFORMAT
  1
GRIDFORMAT_BEGIN
 90
        0
 91
        1
 62
     0
 92
       -2
340
14
 93
        0
 40
0.045
309
GRIDFORMAT_END
 95
        2
302
GRIDFORMAT
  1
GRIDFORMAT_BEGIN
 90
        0
 91
        1
 62
     0
 92
       -2
340
14
 93
        0
 40
0.045
309
GRIDFORMAT_END
 95
        4
302
GRIDFORMAT
  1
GRIDFORMAT_BEGIN
 90
        0
 91
        1
 62
     0
 92
       -2
340
14
 93
        0
 40
0.045
309
GRIDFORMAT_END
 95
        8
302
GRIDFORMAT
  1
GRIDFORMAT_BEGIN
 90
        0
 91
        1
 62
     0
 92
       -2
340
14
 93
        0
 40
0.045
309
GRIDFORMAT_END
 95
       16
302
GRIDFORMAT
  1
GRIDFORMAT_BEGIN
 90
        0
 91
        1
 62
     0
 92
       -2
340
14
 93
        0
 40
0.045
309
GRIDFORMAT_END
 95
       32
302
GRIDFORMAT
  1
GRIDFORMAT_BEGIN
 90
        0
 91
        1
 62
     0
 92
       -2
340
14
 93
        0
 40
0.045
309
GRIDFORMAT_END
309
TABLEFORMAT_END
  1
CELLSTYLE_BEGIN
 90
        2
 91
        1
300
_HEADER
309
CELLSTYLE_END
300
CELLSTYLE
  1
TABLEFORMAT_BEGIN
 90
        5
170
     1
 91
        0
 92
        0
 62
   257
 93
        1
300
CONTENTFORMAT
  1
CONTENTFORMAT_BEGIN
 90
        0
 91
        0
 92
        4
 93
        0
300

 40
0.0
140
1.0
 94
        2
 62
     0
340
11
144
4.5
309
CONTENTFORMAT_END
171
     1
301
MARGIN
  1
CELLMARGIN_BEGIN
 40
1.5
 40
1.5
 40
1.5
 40
1.5
 40
1.5
 40
1.5
309
CELLMARGIN_END
 94
        6
 95
        1
302
GRIDFORMAT
  1
GRIDFORMAT_BEGIN
 90
        0
 91
        1
 62
     0
 92
       -2
340
14
 93
        0
 40
0.045
309
GRIDFORMAT_END
 95
        2
302
GRIDFORMAT
  1
GRIDFORMAT_BEGIN
 90
        0
 91
        1
 62
     0
 92
       -2
340
14
 93
        0
 40
0.045
309
GRIDFORMAT_END
 95
        4
302
GRIDFORMAT
  1
GRIDFORMAT_BEGIN
 90
        0
 91
        1
 62
     0
 92
       -2
340
14
 93
        0
 40
0.045
309
GRIDFORMAT_END
 95
        8
302
GRIDFORMAT
  1
GRIDFORMAT_BEGIN
 90
        0
 91
        1
 62
     0
 92
       -2
340
14
 93
        0
 40
0.045
309
GRIDFORMAT_END
 95
       16
302
GRIDFORMAT
  1
GRIDFORMAT_BEGIN
 90
        0
 91
        1
 62
     0
 92
       -2
340
14
 93
        0
 40
0.045
309
GRIDFORMAT_END
 95
       32
302
GRIDFORMAT
  1
GRIDFORMAT_BEGIN
 90
        0
 91
        1
 62
     0
 92
       -2
340
14
 93
        0
 40
0.045
309
GRIDFORMAT_END
309
TABLEFORMAT_END
  1
CELLSTYLE_BEGIN
 90
        3
 91
        2
300
_DATA
309
CELLSTYLE_END
  0
XRECORD
  5
2B2
102
{ACAD_REACTORS
330
2B1
102
}
330
2B1
100
AcDbXrecord
280
     1
102
RTVSPost2010Prop28
280
     1
102
RTVSPost2010PropOp28
 70
     1
102
RTVSPost2010Prop29
280
     1
102
RTVSPost2010PropOp29
 70
     1
102
RTVSPost2010Prop30
280
     0
102
RTVSPost2010PropOp30
 70
     1
102
RTVSPost2010Prop31
280
     0
102
RTVSPost2010PropOp31
 70
     1
102
RTVSPost2010Prop32
280
     0
102
RTVSPost2010PropOp32
 70
     1
102
RTVSPost2010Prop33
280
     0
102
RTVSPost2010PropOp33
 70
     1
102
RTVSPost2010Prop34
280
     0
102
RTVSPost2010PropOp34
 70
     1
102
RTVSPost2010Prop35
280
     0
102
RTVSPost2010PropOp35
 70
     1
102
RTVSPost2010Prop36
280
     0
102
RTVSPost2010PropOp36
 70
     1
102
RTVSPost2010Prop37
 90
       50
102
RTVSPost2010PropOp37
 70
     1
102
RTVSPost2010Prop38
140
0.0
102
RTVSPost2010PropOp38
 70
     1
102
RTVSPost2010Prop39
140
1.0
102
RTVSPost2010PropOp39
 70
     1
102
RTVSPost2010Prop40
 90
        0
102
RTVSPost2010PropOp40
 70
     1
102
RTVSPost2010Prop41ColorIndex
 90
       18
102
RTVSPost2010Prop41ColorRGB
 90
        0
102
RTVSPost2010PropOp41
 70
     1
102
RTVSPost2010Prop42
 90
       50
102
RTVSPost2010PropOp42
 70
     1
102
RTVSPost2010Prop43
 90
        3
102
RTVSPost2010PropOp43
 70
     1
102
RTVSPost2010Prop44ColorIndex
 90
        5
102
RTVSPost2010Prop44ColorRGB
 90
      255
102
RTVSPost2010PropOp44
 70
     1
102
RTVSPost2010Prop45
280
     0
102
RTVSPost2010PropOp45
 70
     1
102
RTVSPost2010Prop46
 90
       50
102
RTVSPost2010PropOp46
 70
     1
102
RTVSPost2010Prop47
 90
       50
102
RTVSPost2010PropOp47
 70
     1
102
RTVSPost2010Prop48
 90
       50
102
RTVSPost2010PropOp48
 70
     1
102
RTVSPost2010Prop49
280
     0
102
RTVSPost2010PropOp49
 70
     1
102
RTVSPost2010Prop50
 90
       50
102
RTVSPost2010PropOp50
 70
     1
102
RTVSPost2010Prop51ColorIndex
 90
      256
102
RTVSPost2010Prop51ColorRGB
 90
-16777216
102
RTVSPost2010PropOp51
 70
     0
102
RTVSPost2010Prop52
140
1.0
102
RTVSPost2010PropOp52
 70
     0
102
RTVSPost2010Prop53
 90
        2
102
RTVSPost2010PropOp53
 70
     1
102
RTVSPost2010Prop54
  1
strokes_ogs.tif
102
RTVSPost2010PropOp54
 70
     1
102
RTVSPost2010Prop55
280
     0
102
RTVSPost2010PropOp55
 70
     1
102
RTVSPost2010Prop56
140
1.0
102
RTVSPost2010PropOp56
 70
     1
102
RTVSPost2010Prop57
140
1.0
102
RTVSPost2010PropOp57
 70
     1
  0
XRECORD
  5
2B8
102
{ACAD_REACTORS
330
2B7
102
}
330
2B7
100
AcDbXrecord
280
     1
102
RTVSPost2010Prop28
280
     0
102
RTVSPost2010PropOp28
 70
     1
102
RTVSPost2010Prop29
280
     1
102
RTVSPost2010PropOp29
 70
     1
102
RTVSPost2010Prop30
280
     1
102
RTVSPost2010PropOp30
 70
     1
102
RTVSPost2010Prop31
280
     0
102
RTVSPost2010PropOp31
 70
     1
102
RTVSPost2010Prop32
280
     0
102
RTVSPost2010PropOp32
 70
     1
102
RTVSPost2010Prop33
280
     0
102
RTVSPost2010PropOp33
 70
     1
102
RTVSPost2010Prop34
280
     0
102
RTVSPost2010PropOp34
 70
     1
102
RTVSPost2010Prop35
280
     0
102
RTVSPost2010PropOp35
 70
     1
102
RTVSPost2010Prop36
280
     0
102
RTVSPost2010PropOp36
 70
     1
102
RTVSPost2010Prop37
 90
       50
102
RTVSPost2010PropOp37
 70
     1
102
RTVSPost2010Prop38
140
0.0
102
RTVSPost2010PropOp38
 70
     1
102
RTVSPost2010Prop39
140
1.0
102
RTVSPost2010PropOp39
 70
     1
102
RTVSPost2010Prop40
 90
        0
102
RTVSPost2010PropOp40
 70
     1
102
RTVSPost2010Prop41ColorIndex
 90
       18
102
RTVSPost2010Prop41ColorRGB
 90
        0
102
RTVSPost2010PropOp41
 70
     1
102
RTVSPost2010Prop42
 90
       50
102
RTVSPost2010PropOp42
 70
     1
102
RTVSPost2010Prop43
 90
        3
102
RTVSPost2010PropOp43
 70
     1
102
RTVSPost2010Prop44ColorIndex
 90
        5
102
RTVSPost2010Prop44ColorRGB
 90
      255
102
RTVSPost2010PropOp44
 70
     1
102
RTVSPost2010Prop45
280
     0
102
RTVSPost2010PropOp45
 70
     1
102
RTVSPost2010Prop46
 90
       50
102
RTVSPost2010PropOp46
 70
     1
102
RTVSPost2010Prop47
 90
       50
102
RTVSPost2010PropOp47
 70
     1
102
RTVSPost2010Prop48
 90
       50
102
RTVSPost2010PropOp48
 70
     1
102
RTVSPost2010Prop49
280
     0
102
RTVSPost2010PropOp49
 70
     1
102
RTVSPost2010Prop50
 90
       50
102
RTVSPost2010PropOp50
 70
     1
102
RTVSPost2010Prop51ColorIndex
 90
      256
102
RTVSPost2010Prop51ColorRGB
 90
-16777216
102
RTVSPost2010PropOp51
 70
     0
102
RTVSPost2010Prop52
140
1.0
102
RTVSPost2010PropOp52
 70
     0
102
RTVSPost2010Prop53
 90
        2
102
RTVSPost2010PropOp53
 70
     1
102
RTVSPost2010Prop54
  1
strokes_ogs.tif
102
RTVSPost2010PropOp54
 70
     1
102
RTVSPost2010Prop55
280
     0
102
RTVSPost2010PropOp55
 70
     1
102
RTVSPost2010Prop56
140
1.0
102
RTVSPost2010PropOp56
 70
     1
102
RTVSPost2010Prop57
140
1.0
102
RTVSPost2010PropOp57
 70
     1
  0
XRECORD
  5
2C0
102
{ACAD_REACTORS
330
2BF
102
}
330
2BF
100
AcDbXrecord
280
     1
102
RTVSPost2010Prop28
280
     0
102
RTVSPost2010PropOp28
 70
     1
102
RTVSPost2010Prop29
280
     1
102
RTVSPost2010PropOp29
 70
     1
102
RTVSPost2010Prop30
280
     1
102
RTVSPost2010PropOp30
 70
     1
102
RTVSPost2010Prop31
280
     0
102
RTVSPost2010PropOp31
 70
     1
102
RTVSPost2010Prop32
280
     0
102
RTVSPost2010PropOp32
 70
     1
102
RTVSPost2010Prop33
280
     0
102
RTVSPost2010PropOp33
 70
     1
102
RTVSPost2010Prop34
280
     0
102
RTVSPost2010PropOp34
 70
     1
102
RTVSPost2010Prop35
280
     0
102
RTVSPost2010PropOp35
 70
     1
102
RTVSPost2010Prop36
280
     0
102
RTVSPost2010PropOp36
 70
     1
102
RTVSPost2010Prop37
 90
       50
102
RTVSPost2010PropOp37
 70
     1
102
RTVSPost2010Prop38
140
0.0
102
RTVSPost2010PropOp38
 70
     1
102
RTVSPost2010Prop39
140
1.0
102
RTVSPost2010PropOp39
 70
     1
102
RTVSPost2010Prop40
 90
        0
102
RTVSPost2010PropOp40
 70
     1
102
RTVSPost2010Prop41ColorIndex
 90
       18
102
RTVSPost2010Prop41ColorRGB
 90
        0
102
RTVSPost2010PropOp41
 70
     1
102
RTVSPost2010Prop42
 90
       50
102
RTVSPost2010PropOp42
 70
     1
102
RTVSPost2010Prop43
 90
        3
102
RTVSPost2010PropOp43
 70
     1
102
RTVSPost2010Prop44ColorIndex
 90
        5
102
RTVSPost2010Prop44ColorRGB
 90
      255
102
RTVSPost2010PropOp44
 70
     1
102
RTVSPost2010Prop45
280
     0
102
RTVSPost2010PropOp45
 70
     1
102
RTVSPost2010Prop46
 90
       50
102
RTVSPost2010PropOp46
 70
     1
102
RTVSPost2010Prop47
 90
       50
102
RTVSPost2010PropOp47
 70
     1
102
RTVSPost2010Prop48
 90
       50
102
RTVSPost2010PropOp48
 70
     1
102
RTVSPost2010Prop49
280
     0
102
RTVSPost2010PropOp49
 70
     1
102
RTVSPost2010Prop50
 90
       50
102
RTVSPost2010PropOp50
 70
     1
102
RTVSPost2010Prop51ColorIndex
 90
      256
102
RTVSPost2010Prop51ColorRGB
 90
-16777216
102
RTVSPost2010PropOp51
 70
     0
102
RTVSPost2010Prop52
140
1.0
102
RTVSPost2010PropOp52
 70
     0
102
RTVSPost2010Prop53
 90
        2
102
RTVSPost2010PropOp53
 70
     1
102
RTVSPost2010Prop54
  1
strokes_ogs.tif
102
RTVSPost2010PropOp54
 70
     1
102
RTVSPost2010Prop55
280
     0
102
RTVSPost2010PropOp55
 70
     1
102
RTVSPost2010Prop56
140
1.0
102
RTVSPost2010PropOp56
 70
     1
102
RTVSPost2010Prop57
140
1.0
102
RTVSPost2010PropOp57
 70
     1
  0
XRECORD
  5
2C8
102
{ACAD_REACTORS
330
2C7
102
}
330
2C7
100
AcDbXrecord
280
     1
102
RTVSPost2010Prop28
280
     0
102
RTVSPost2010PropOp28
 70
     1
102
RTVSPost2010Prop29
280
     1
102
RTVSPost2010PropOp29
 70
     1
102
RTVSPost2010Prop30
280
     1
102
RTVSPost2010PropOp30
 70
     1
102
RTVSPost2010Prop31
280
     0
102
RTVSPost2010PropOp31
 70
     1
102
RTVSPost2010Prop32
280
     0
102
RTVSPost2010PropOp32
 70
     1
102
RTVSPost2010Prop33
280
     0
102
RTVSPost2010PropOp33
 70
     1
102
RTVSPost2010Prop34
280
     0
102
RTVSPost2010PropOp34
 70
     1
102
RTVSPost2010Prop35
280
     0
102
RTVSPost2010PropOp35
 70
     1
102
RTVSPost2010Prop36
280
     0
102
RTVSPost2010PropOp36
 70
     1
102
RTVSPost2010Prop37
 90
       50
102
RTVSPost2010PropOp37
 70
     1
102
RTVSPost2010Prop38
140
0.0
102
RTVSPost2010PropOp38
 70
     1
102
RTVSPost2010Prop39
140
1.0
102
RTVSPost2010PropOp39
 70
     1
102
RTVSPost2010Prop40
 90
        0
102
RTVSPost2010PropOp40
 70
     1
102
RTVSPost2010Prop41ColorIndex
 90
       18
102
RTVSPost2010Prop41ColorRGB
 90
        0
102
RTVSPost2010PropOp41
 70
     1
102
RTVSPost2010Prop42
 90
       50
102
RTVSPost2010PropOp42
 70
     1
102
RTVSPost2010Prop43
 90
        3
102
RTVSPost2010PropOp43
 70
     1
102
RTVSPost2010Prop44ColorIndex
 90
        5
102
RTVSPost2010Prop44ColorRGB
 90
      255
102
RTVSPost2010PropOp44
 70
     1
102
RTVSPost2010Prop45
280
     0
102
RTVSPost2010PropOp45
 70
     1
102
RTVSPost2010Prop46
 90
       50
102
RTVSPost2010PropOp46
 70
     1
102
RTVSPost2010Prop47
 90
       50
102
RTVSPost2010PropOp47
 70
     1
102
RTVSPost2010Prop48
 90
       50
102
RTVSPost2010PropOp48
 70
     1
102
RTVSPost2010Prop49
280
     0
102
RTVSPost2010PropOp49
 70
     1
102
RTVSPost2010Prop50
 90
       50
102
RTVSPost2010PropOp50
 70
     1
102
RTVSPost2010Prop51ColorIndex
 90
      256
102
RTVSPost2010Prop51ColorRGB
 90
-16777216
102
RTVSPost2010PropOp51
 70
     0
102
RTVSPost2010Prop52
140
1.0
102
RTVSPost2010PropOp52
 70
     0
102
RTVSPost2010Prop53
 90
        2
102
RTVSPost2010PropOp53
 70
     1
102
RTVSPost2010Prop54
  1
strokes_ogs.tif
102
RTVSPost2010PropOp54
 70
     1
102
RTVSPost2010Prop55
280
     0
102
RTVSPost2010PropOp55
 70
     1
102
RTVSPost2010Prop56
140
1.0
102
RTVSPost2010PropOp56
 70
     1
102
RTVSPost2010Prop57
140
1.0
102
RTVSPost2010PropOp57
 70
     1
  0
XRECORD
  5
2BC
102
{ACAD_REACTORS
330
2BB
102
}
330
2BB
100
AcDbXrecord
280
     1
102
RTVSPost2010Prop28
280
     0
102
RTVSPost2010PropOp28
 70
     1
102
RTVSPost2010Prop29
280
     1
102
RTVSPost2010PropOp29
 70
     1
102
RTVSPost2010Prop30
280
     1
102
RTVSPost2010PropOp30
 70
     1
102
RTVSPost2010Prop31
280
     0
102
RTVSPost2010PropOp31
 70
     1
102
RTVSPost2010Prop32
280
     0
102
RTVSPost2010PropOp32
 70
     1
102
RTVSPost2010Prop33
280
     0
102
RTVSPost2010PropOp33
 70
     1
102
RTVSPost2010Prop34
280
     0
102
RTVSPost2010PropOp34
 70
     1
102
RTVSPost2010Prop35
280
     0
102
RTVSPost2010PropOp35
 70
     1
102
RTVSPost2010Prop36
280
     0
102
RTVSPost2010PropOp36
 70
     1
102
RTVSPost2010Prop37
 90
       50
102
RTVSPost2010PropOp37
 70
     1
102
RTVSPost2010Prop38
140
0.0
102
RTVSPost2010PropOp38
 70
     1
102
RTVSPost2010Prop39
140
1.0
102
RTVSPost2010PropOp39
 70
     1
102
RTVSPost2010Prop40
 90
        0
102
RTVSPost2010PropOp40
 70
     1
102
RTVSPost2010Prop41ColorIndex
 90
       18
102
RTVSPost2010Prop41ColorRGB
 90
        0
102
RTVSPost2010PropOp41
 70
     1
102
RTVSPost2010Prop42
 90
       50
102
RTVSPost2010PropOp42
 70
     1
102
RTVSPost2010Prop43
 90
        3
102
RTVSPost2010PropOp43
 70
     1
102
RTVSPost2010Prop44ColorIndex
 90
        5
102
RTVSPost2010Prop44ColorRGB
 90
      255
102
RTVSPost2010PropOp44
 70
     1
102
RTVSPost2010Prop45
280
     0
102
RTVSPost2010PropOp45
 70
     1
102
RTVSPost2010Prop46
 90
       50
102
RTVSPost2010PropOp46
 70
     1
102
RTVSPost2010Prop47
 90
       50
102
RTVSPost2010PropOp47
 70
     1
102
RTVSPost2010Prop48
 90
       50
102
RTVSPost2010PropOp48
 70
     1
102
RTVSPost2010Prop49
280
     0
102
RTVSPost2010PropOp49
 70
     1
102
RTVSPost2010Prop50
 90
       50
102
RTVSPost2010PropOp50
 70
     1
102
RTVSPost2010Prop51ColorIndex
 90
      256
102
RTVSPost2010Prop51ColorRGB
 90
-16777216
102
RTVSPost2010PropOp51
 70
     0
102
RTVSPost2010Prop52
140
1.0
102
RTVSPost2010PropOp52
 70
     0
102
RTVSPost2010Prop53
 90
        2
102
RTVSPost2010PropOp53
 70
     1
102
RTVSPost2010Prop54
  1
strokes_ogs.tif
102
RTVSPost2010PropOp54
 70
     1
102
RTVSPost2010Prop55
280
     0
102
RTVSPost2010PropOp55
 70
     1
102
RTVSPost2010Prop56
140
1.0
102
RTVSPost2010PropOp56
 70
     1
102
RTVSPost2010Prop57
140
1.0
102
RTVSPost2010PropOp57
 70
     1
  0
XRECORD
  5
2BE
102
{ACAD_REACTORS
330
2BD
102
}
330
2BD
100
AcDbXrecord
280
     1
102
RTVSPost2010Prop28
280
     0
102
RTVSPost2010PropOp28
 70
     1
102
RTVSPost2010Prop29
280
     1
102
RTVSPost2010PropOp29
 70
     1
102
RTVSPost2010Prop30
280
     1
102
RTVSPost2010PropOp30
 70
     1
102
RTVSPost2010Prop31
280
     0
102
RTVSPost2010PropOp31
 70
     1
102
RTVSPost2010Prop32
280
     0
102
RTVSPost2010PropOp32
 70
     1
102
RTVSPost2010Prop33
280
     0
102
RTVSPost2010PropOp33
 70
     1
102
RTVSPost2010Prop34
280
     0
102
RTVSPost2010PropOp34
 70
     1
102
RTVSPost2010Prop35
280
     0
102
RTVSPost2010PropOp35
 70
     1
102
RTVSPost2010Prop36
280
     0
102
RTVSPost2010PropOp36
 70
     1
102
RTVSPost2010Prop37
 90
       50
102
RTVSPost2010PropOp37
 70
     1
102
RTVSPost2010Prop38
140
0.0
102
RTVSPost2010PropOp38
 70
     1
102
RTVSPost2010Prop39
140
1.0
102
RTVSPost2010PropOp39
 70
     1
102
RTVSPost2010Prop40
 90
        0
102
RTVSPost2010PropOp40
 70
     1
102
RTVSPost2010Prop41ColorIndex
 90
       18
102
RTVSPost2010Prop41ColorRGB
 90
        0
102
RTVSPost2010PropOp41
 70
     1
102
RTVSPost2010Prop42
 90
       50
102
RTVSPost2010PropOp42
 70
     1
102
RTVSPost2010Prop43
 90
        3
102
RTVSPost2010PropOp43
 70
     1
102
RTVSPost2010Prop44ColorIndex
 90
        5
102
RTVSPost2010Prop44ColorRGB
 90
      255
102
RTVSPost2010PropOp44
 70
     1
102
RTVSPost2010Prop45
280
     0
102
RTVSPost2010PropOp45
 70
     1
102
RTVSPost2010Prop46
 90
       50
102
RTVSPost2010PropOp46
 70
     1
102
RTVSPost2010Prop47
 90
       50
102
RTVSPost2010PropOp47
 70
     1
102
RTVSPost2010Prop48
 90
       50
102
RTVSPost2010PropOp48
 70
     1
102
RTVSPost2010Prop49
280
     0
102
RTVSPost2010PropOp49
 70
     1
102
RTVSPost2010Prop50
 90
       50
102
RTVSPost2010PropOp50
 70
     1
102
RTVSPost2010Prop51ColorIndex
 90
      256
102
RTVSPost2010Prop51ColorRGB
 90
-16777216
102
RTVSPost2010PropOp51
 70
     0
102
RTVSPost2010Prop52
140
1.0
102
RTVSPost2010PropOp52
 70
     0
102
RTVSPost2010Prop53
 90
        2
102
RTVSPost2010PropOp53
 70
     1
102
RTVSPost2010Prop54
  1
strokes_ogs.tif
102
RTVSPost2010PropOp54
 70
     1
102
RTVSPost2010Prop55
280
     0
102
RTVSPost2010PropOp55
 70
     1
102
RTVSPost2010Prop56
140
1.0
102
RTVSPost2010PropOp56
 70
     1
102
RTVSPost2010Prop57
140
1.0
102
RTVSPost2010PropOp57
 70
     1
  0
XRECORD
  5
2CE
102
{ACAD_REACTORS
330
2CD
102
}
330
2CD
100
AcDbXrecord
280
     1
102
RTVSPost2010Prop28
280
     0
102
RTVSPost2010PropOp28
 70
     0
102
RTVSPost2010Prop29
280
     1
102
RTVSPost2010PropOp29
 70
     0
102
RTVSPost2010Prop30
280
     1
102
RTVSPost2010PropOp30
 70
     0
102
RTVSPost2010Prop31
280
     0
102
RTVSPost2010PropOp31
 70
     0
102
RTVSPost2010Prop32
280
     0
102
RTVSPost2010PropOp32
 70
     0
102
RTVSPost2010Prop33
280
     0
102
RTVSPost2010PropOp33
 70
     0
102
RTVSPost2010Prop34
280
     0
102
RTVSPost2010PropOp34
 70
     0
102
RTVSPost2010Prop35
280
     0
102
RTVSPost2010PropOp35
 70
     0
102
RTVSPost2010Prop36
280
     0
102
RTVSPost2010PropOp36
 70
     0
102
RTVSPost2010Prop37
 90
       50
102
RTVSPost2010PropOp37
 70
     0
102
RTVSPost2010Prop38
140
0.0
102
RTVSPost2010PropOp38
 70
     0
102
RTVSPost2010Prop39
140
1.0
102
RTVSPost2010PropOp39
 70
     0
102
RTVSPost2010Prop40
 90
        0
102
RTVSPost2010PropOp40
 70
     0
102
RTVSPost2010Prop41ColorIndex
 90
       18
102
RTVSPost2010Prop41ColorRGB
 90
        0
102
RTVSPost2010PropOp41
 70
     0
102
RTVSPost2010Prop42
 90
       50
102
RTVSPost2010PropOp42
 70
     0
102
RTVSPost2010Prop43
 90
        3
102
RTVSPost2010PropOp43
 70
     0
102
RTVSPost2010Prop44ColorIndex
 90
        5
102
RTVSPost2010Prop44ColorRGB
 90
      255
102
RTVSPost2010PropOp44
 70
     0
102
RTVSPost2010Prop45
280
     0
102
RTVSPost2010PropOp45
 70
     0
102
RTVSPost2010Prop46
 90
       50
102
RTVSPost2010PropOp46
 70
     0
102
RTVSPost2010Prop47
 90
       50
102
RTVSPost2010PropOp47
 70
     0
102
RTVSPost2010Prop48
 90
       50
102
RTVSPost2010PropOp48
 70
     0
102
RTVSPost2010Prop49
280
     0
102
RTVSPost2010PropOp49
 70
     0
102
RTVSPost2010Prop50
 90
       50
102
RTVSPost2010PropOp50
 70
     0
102
RTVSPost2010Prop51ColorIndex
 90
      256
102
RTVSPost2010Prop51ColorRGB
 90
-16777216
102
RTVSPost2010PropOp51
 70
     0
102
RTVSPost2010Prop52
140
1.0
102
RTVSPost2010PropOp52
 70
     0
102
RTVSPost2010Prop53
 90
        2
102
RTVSPost2010PropOp53
 70
     0
102
RTVSPost2010Prop54
  1
strokes_ogs.tif
102
RTVSPost2010PropOp54
 70
     0
102
RTVSPost2010Prop55
280
     0
102
RTVSPost2010PropOp55
 70
     0
102
RTVSPost2010Prop56
140
1.0
102
RTVSPost2010PropOp56
 70
     0
102
RTVSPost2010Prop57
140
1.0
102
RTVSPost2010PropOp57
 70
     0
  0
XRECORD
  5
2C6
102
{ACAD_REACTORS
330
2C5
102
}
330
2C5
100
AcDbXrecord
280
     1
102
RTVSPost2010Prop28
280
     0
102
RTVSPost2010PropOp28
 70
     1
102
RTVSPost2010Prop29
280
     1
102
RTVSPost2010PropOp29
 70
     1
102
RTVSPost2010Prop30
280
     1
102
RTVSPost2010PropOp30
 70
     1
102
RTVSPost2010Prop31
280
     0
102
RTVSPost2010PropOp31
 70
     1
102
RTVSPost2010Prop32
280
     0
102
RTVSPost2010PropOp32
 70
     1
102
RTVSPost2010Prop33
280
     0
102
RTVSPost2010PropOp33
 70
     1
102
RTVSPost2010Prop34
280
     0
102
RTVSPost2010PropOp34
 70
     1
102
RTVSPost2010Prop35
280
     0
102
RTVSPost2010PropOp35
 70
     1
102
RTVSPost2010Prop36
280
     0
102
RTVSPost2010PropOp36
 70
     1
102
RTVSPost2010Prop37
 90
       50
102
RTVSPost2010PropOp37
 70
     1
102
RTVSPost2010Prop38
140
0.0
102
RTVSPost2010PropOp38
 70
     1
102
RTVSPost2010Prop39
140
1.0
102
RTVSPost2010PropOp39
 70
     1
102
RTVSPost2010Prop40
 90
        0
102
RTVSPost2010PropOp40
 70
     1
102
RTVSPost2010Prop41ColorIndex
 90
       18
102
RTVSPost2010Prop41ColorRGB
 90
        0
102
RTVSPost2010PropOp41
 70
     1
102
RTVSPost2010Prop42
 90
       50
102
RTVSPost2010PropOp42
 70
     1
102
RTVSPost2010Prop43
 90
        3
102
RTVSPost2010PropOp43
 70
     1
102
RTVSPost2010Prop44ColorIndex
 90
        5
102
RTVSPost2010Prop44ColorRGB
 90
      255
102
RTVSPost2010PropOp44
 70
     1
102
RTVSPost2010Prop45
280
     0
102
RTVSPost2010PropOp45
 70
     1
102
RTVSPost2010Prop46
 90
       50
102
RTVSPost2010PropOp46
 70
     1
102
RTVSPost2010Prop47
 90
       50
102
RTVSPost2010PropOp47
 70
     1
102
RTVSPost2010Prop48
 90
       50
102
RTVSPost2010PropOp48
 70
     1
102
RTVSPost2010Prop49
280
     0
102
RTVSPost2010PropOp49
 70
     1
102
RTVSPost2010Prop50
 90
       50
102
RTVSPost2010PropOp50
 70
     1
102
RTVSPost2010Prop51ColorIndex
 90
      256
102
RTVSPost2010Prop51ColorRGB
 90
-16777216
102
RTVSPost2010PropOp51
 70
     0
102
RTVSPost2010Prop52
140
1.0
102
RTVSPost2010PropOp52
 70
     0
102
RTVSPost2010Prop53
 90
        2
102
RTVSPost2010PropOp53
 70
     1
102
RTVSPost2010Prop54
  1
strokes_ogs.tif
102
RTVSPost2010PropOp54
 70
     1
102
RTVSPost2010Prop55
280
     0
102
RTVSPost2010PropOp55
 70
     1
102
RTVSPost2010Prop56
140
1.0
102
RTVSPost2010PropOp56
 70
     1
102
RTVSPost2010Prop57
140
1.0
102
RTVSPost2010PropOp57
 70
     1
  0
XRECORD
  5
2AA
102
{ACAD_REACTORS
330
2A9
102
}
330
2A9
100
AcDbXrecord
280
     1
102
RTVSPost2010Prop28
280
     0
102
RTVSPost2010PropOp28
 70
     1
102
RTVSPost2010Prop29
280
     1
102
RTVSPost2010PropOp29
 70
     1
102
RTVSPost2010Prop30
280
     1
102
RTVSPost2010PropOp30
 70
     1
102
RTVSPost2010Prop31
280
     0
102
RTVSPost2010PropOp31
 70
     1
102
RTVSPost2010Prop32
280
     0
102
RTVSPost2010PropOp32
 70
     1
102
RTVSPost2010Prop33
280
     0
102
RTVSPost2010PropOp33
 70
     1
102
RTVSPost2010Prop34
280
     0
102
RTVSPost2010PropOp34
 70
     1
102
RTVSPost2010Prop35
280
     0
102
RTVSPost2010PropOp35
 70
     1
102
RTVSPost2010Prop36
280
     0
102
RTVSPost2010PropOp36
 70
     1
102
RTVSPost2010Prop37
 90
       50
102
RTVSPost2010PropOp37
 70
     1
102
RTVSPost2010Prop38
140
0.0
102
RTVSPost2010PropOp38
 70
     1
102
RTVSPost2010Prop39
140
1.0
102
RTVSPost2010PropOp39
 70
     1
102
RTVSPost2010Prop40
 90
        0
102
RTVSPost2010PropOp40
 70
     1
102
RTVSPost2010Prop41ColorIndex
 90
       18
102
RTVSPost2010Prop41ColorRGB
 90
        0
102
RTVSPost2010PropOp41
 70
     1
102
RTVSPost2010Prop42
 90
       50
102
RTVSPost2010PropOp42
 70
     1
102
RTVSPost2010Prop43
 90
        3
102
RTVSPost2010PropOp43
 70
     1
102
RTVSPost2010Prop44ColorIndex
 90
        5
102
RTVSPost2010Prop44ColorRGB
 90
      255
102
RTVSPost2010PropOp44
 70
     1
102
RTVSPost2010Prop45
280
     0
102
RTVSPost2010PropOp45
 70
     1
102
RTVSPost2010Prop46
 90
       50
102
RTVSPost2010PropOp46
 70
     1
102
RTVSPost2010Prop47
 90
       50
102
RTVSPost2010PropOp47
 70
     1
102
RTVSPost2010Prop48
 90
       50
102
RTVSPost2010PropOp48
 70
     1
102
RTVSPost2010Prop49
280
     0
102
RTVSPost2010PropOp49
 70
     1
102
RTVSPost2010Prop50
 90
       50
102
RTVSPost2010PropOp50
 70
     1
102
RTVSPost2010Prop51ColorIndex
 90
      256
102
RTVSPost2010Prop51ColorRGB
 90
-16777216
102
RTVSPost2010PropOp51
 70
     0
102
RTVSPost2010Prop52
140
1.0
102
RTVSPost2010PropOp52
 70
     0
102
RTVSPost2010Prop53
 90
        2
102
RTVSPost2010PropOp53
 70
     1
102
RTVSPost2010Prop54
  1
strokes_ogs.tif
102
RTVSPost2010PropOp54
 70
     1
102
RTVSPost2010Prop55
280
     0
102
RTVSPost2010PropOp55
 70
     1
102
RTVSPost2010Prop56
140
1.0
102
RTVSPost2010PropOp56
 70
     1
102
RTVSPost2010Prop57
140
1.0
102
RTVSPost2010PropOp57
 70
     1
  0
XRECORD
  5
2AC
102
{ACAD_REACTORS
330
2AB
102
}
330
2AB
100
AcDbXrecord
280
     1
102
RTVSPost2010Prop28
280
     0
102
RTVSPost2010PropOp28
 70
     1
102
RTVSPost2010Prop29
280
     1
102
RTVSPost2010PropOp29
 70
     1
102
RTVSPost2010Prop30
280
     1
102
RTVSPost2010PropOp30
 70
     1
102
RTVSPost2010Prop31
280
     0
102
RTVSPost2010PropOp31
 70
     1
102
RTVSPost2010Prop32
280
     0
102
RTVSPost2010PropOp32
 70
     1
102
RTVSPost2010Prop33
280
     0
102
RTVSPost2010PropOp33
 70
     1
102
RTVSPost2010Prop34
280
     0
102
RTVSPost2010PropOp34
 70
     1
102
RTVSPost2010Prop35
280
     0
102
RTVSPost2010PropOp35
 70
     1
102
RTVSPost2010Prop36
280
     0
102
RTVSPost2010PropOp36
 70
     1
102
RTVSPost2010Prop37
 90
       50
102
RTVSPost2010PropOp37
 70
     1
102
RTVSPost2010Prop38
140
0.0
102
RTVSPost2010PropOp38
 70
     1
102
RTVSPost2010Prop39
140
1.0
102
RTVSPost2010PropOp39
 70
     1
102
RTVSPost2010Prop40
 90
        0
102
RTVSPost2010PropOp40
 70
     1
102
RTVSPost2010Prop41ColorIndex
 90
       18
102
RTVSPost2010Prop41ColorRGB
 90
        0
102
RTVSPost2010PropOp41
 70
     1
102
RTVSPost2010Prop42
 90
       50
102
RTVSPost2010PropOp42
 70
     1
102
RTVSPost2010Prop43
 90
        3
102
RTVSPost2010PropOp43
 70
     1
102
RTVSPost2010Prop44ColorIndex
 90
        5
102
RTVSPost2010Prop44ColorRGB
 90
      255
102
RTVSPost2010PropOp44
 70
     1
102
RTVSPost2010Prop45
280
     0
102
RTVSPost2010PropOp45
 70
     1
102
RTVSPost2010Prop46
 90
       50
102
RTVSPost2010PropOp46
 70
     1
102
RTVSPost2010Prop47
 90
       50
102
RTVSPost2010PropOp47
 70
     1
102
RTVSPost2010Prop48
 90
       50
102
RTVSPost2010PropOp48
 70
     1
102
RTVSPost2010Prop49
280
     0
102
RTVSPost2010PropOp49
 70
     1
102
RTVSPost2010Prop50
 90
       50
102
RTVSPost2010PropOp50
 70
     1
102
RTVSPost2010Prop51ColorIndex
 90
      256
102
RTVSPost2010Prop51ColorRGB
 90
-16777216
102
RTVSPost2010PropOp51
 70
     0
102
RTVSPost2010Prop52
140
1.0
102
RTVSPost2010PropOp52
 70
     0
102
RTVSPost2010Prop53
 90
        2
102
RTVSPost2010PropOp53
 70
     1
102
RTVSPost2010Prop54
  1
strokes_ogs.tif
102
RTVSPost2010PropOp54
 70
     1
102
RTVSPost2010Prop55
280
     0
102
RTVSPost2010PropOp55
 70
     1
102
RTVSPost2010Prop56
140
1.0
102
RTVSPost2010PropOp56
 70
     1
102
RTVSPost2010Prop57
140
1.0
102
RTVSPost2010PropOp57
 70
     1
  0
XRECORD
  5
2AE
102
{ACAD_REACTORS
330
2AD
102
}
330
2AD
100
AcDbXrecord
280
     1
102
RTVSPost2010Prop28
280
     0
102
RTVSPost2010PropOp28
 70
     1
102
RTVSPost2010Prop29
280
     1
102
RTVSPost2010PropOp29
 70
     1
102
RTVSPost2010Prop30
280
     1
102
RTVSPost2010PropOp30
 70
     1
102
RTVSPost2010Prop31
280
     0
102
RTVSPost2010PropOp31
 70
     1
102
RTVSPost2010Prop32
280
     0
102
RTVSPost2010PropOp32
 70
     1
102
RTVSPost2010Prop33
280
     0
102
RTVSPost2010PropOp33
 70
     1
102
RTVSPost2010Prop34
280
     0
102
RTVSPost2010PropOp34
 70
     1
102
RTVSPost2010Prop35
280
     0
102
RTVSPost2010PropOp35
 70
     1
102
RTVSPost2010Prop36
280
     0
102
RTVSPost2010PropOp36
 70
     1
102
RTVSPost2010Prop37
 90
       50
102
RTVSPost2010PropOp37
 70
     1
102
RTVSPost2010Prop38
140
0.0
102
RTVSPost2010PropOp38
 70
     1
102
RTVSPost2010Prop39
140
1.0
102
RTVSPost2010PropOp39
 70
     1
102
RTVSPost2010Prop40
 90
        0
102
RTVSPost2010PropOp40
 70
     1
102
RTVSPost2010Prop41ColorIndex
 90
       18
102
RTVSPost2010Prop41ColorRGB
 90
        0
102
RTVSPost2010PropOp41
 70
     1
102
RTVSPost2010Prop42
 90
       50
102
RTVSPost2010PropOp42
 70
     1
102
RTVSPost2010Prop43
 90
        3
102
RTVSPost2010PropOp43
 70
     1
102
RTVSPost2010Prop44ColorIndex
 90
        5
102
RTVSPost2010Prop44ColorRGB
 90
      255
102
RTVSPost2010PropOp44
 70
     1
102
RTVSPost2010Prop45
280
     0
102
RTVSPost2010PropOp45
 70
     1
102
RTVSPost2010Prop46
 90
       50
102
RTVSPost2010PropOp46
 70
     1
102
RTVSPost2010Prop47
 90
       50
102
RTVSPost2010PropOp47
 70
     1
102
RTVSPost2010Prop48
 90
       50
102
RTVSPost2010PropOp48
 70
     1
102
RTVSPost2010Prop49
280
     0
102
RTVSPost2010PropOp49
 70
     1
102
RTVSPost2010Prop50
 90
       50
102
RTVSPost2010PropOp50
 70
     1
102
RTVSPost2010Prop51ColorIndex
 90
      256
102
RTVSPost2010Prop51ColorRGB
 90
-16777216
102
RTVSPost2010PropOp51
 70
     0
102
RTVSPost2010Prop52
140
1.0
102
RTVSPost2010PropOp52
 70
     0
102
RTVSPost2010Prop53
 90
        2
102
RTVSPost2010PropOp53
 70
     1
102
RTVSPost2010Prop54
  1
strokes_ogs.tif
102
RTVSPost2010PropOp54
 70
     1
102
RTVSPost2010Prop55
280
     0
102
RTVSPost2010PropOp55
 70
     1
102
RTVSPost2010Prop56
140
1.0
102
RTVSPost2010PropOp56
 70
     1
102
RTVSPost2010Prop57
140
1.0
102
RTVSPost2010PropOp57
 70
     1
  0
XRECORD
  5
2B0
102
{ACAD_REACTORS
330
2AF
102
}
330
2AF
100
AcDbXrecord
280
     1
102
RTVSPost2010Prop28
280
     0
102
RTVSPost2010PropOp28
 70
     1
102
RTVSPost2010Prop29
280
     1
102
RTVSPost2010PropOp29
 70
     1
102
RTVSPost2010Prop30
280
     1
102
RTVSPost2010PropOp30
 70
     1
102
RTVSPost2010Prop31
280
     0
102
RTVSPost2010PropOp31
 70
     1
102
RTVSPost2010Prop32
280
     0
102
RTVSPost2010PropOp32
 70
     1
102
RTVSPost2010Prop33
280
     0
102
RTVSPost2010PropOp33
 70
     1
102
RTVSPost2010Prop34
280
     0
102
RTVSPost2010PropOp34
 70
     1
102
RTVSPost2010Prop35
280
     0
102
RTVSPost2010PropOp35
 70
     1
102
RTVSPost2010Prop36
280
     0
102
RTVSPost2010PropOp36
 70
     1
102
RTVSPost2010Prop37
 90
       50
102
RTVSPost2010PropOp37
 70
     1
102
RTVSPost2010Prop38
140
0.0
102
RTVSPost2010PropOp38
 70
     1
102
RTVSPost2010Prop39
140
1.0
102
RTVSPost2010PropOp39
 70
     1
102
RTVSPost2010Prop40
 90
        0
102
RTVSPost2010PropOp40
 70
     1
102
RTVSPost2010Prop41ColorIndex
 90
       18
102
RTVSPost2010Prop41ColorRGB
 90
        0
102
RTVSPost2010PropOp41
 70
     1
102
RTVSPost2010Prop42
 90
       50
102
RTVSPost2010PropOp42
 70
     1
102
RTVSPost2010Prop43
 90
        3
102
RTVSPost2010PropOp43
 70
     1
102
RTVSPost2010Prop44ColorIndex
 90
        5
102
RTVSPost2010Prop44ColorRGB
 90
      255
102
RTVSPost2010PropOp44
 70
     1
102
RTVSPost2010Prop45
280
     0
102
RTVSPost2010PropOp45
 70
     1
102
RTVSPost2010Prop46
 90
       50
102
RTVSPost2010PropOp46
 70
     1
102
RTVSPost2010Prop47
 90
       50
102
RTVSPost2010PropOp47
 70
     1
102
RTVSPost2010Prop48
 90
       50
102
RTVSPost2010PropOp48
 70
     1
102
RTVSPost2010Prop49
280
     0
102
RTVSPost2010PropOp49
 70
     1
102
RTVSPost2010Prop50
 90
       50
102
RTVSPost2010PropOp50
 70
     1
102
RTVSPost2010Prop51ColorIndex
 90
      256
102
RTVSPost2010Prop51ColorRGB
 90
-16777216
102
RTVSPost2010PropOp51
 70
     0
102
RTVSPost2010Prop52
140
1.0
102
RTVSPost2010PropOp52
 70
     0
102
RTVSPost2010Prop53
 90
        2
102
RTVSPost2010PropOp53
 70
     1
102
RTVSPost2010Prop54
  1
strokes_ogs.tif
102
RTVSPost2010PropOp54
 70
     1
102
RTVSPost2010Prop55
280
     0
102
RTVSPost2010PropOp55
 70
     1
102
RTVSPost2010Prop56
140
1.0
102
RTVSPost2010PropOp56
 70
     1
102
RTVSPost2010Prop57
140
1.0
102
RTVSPost2010PropOp57
 70
     1
  0
XRECORD
  5
2B6
102
{ACAD_REACTORS
330
2B5
102
}
330
2B5
100
AcDbXrecord
280
     1
102
RTVSPost2010Prop28
280
     0
102
RTVSPost2010PropOp28
 70
     1
102
RTVSPost2010Prop29
280
     1
102
RTVSPost2010PropOp29
 70
     1
102
RTVSPost2010Prop30
280
     1
102
RTVSPost2010PropOp30
 70
     1
102
RTVSPost2010Prop31
280
     0
102
RTVSPost2010PropOp31
 70
     1
102
RTVSPost2010Prop32
280
     0
102
RTVSPost2010PropOp32
 70
     1
102
RTVSPost2010Prop33
280
     0
102
RTVSPost2010PropOp33
 70
     1
102
RTVSPost2010Prop34
280
     0
102
RTVSPost2010PropOp34
 70
     1
102
RTVSPost2010Prop35
280
     0
102
RTVSPost2010PropOp35
 70
     1
102
RTVSPost2010Prop36
280
     0
102
RTVSPost2010PropOp36
 70
     1
102
RTVSPost2010Prop37
 90
       50
102
RTVSPost2010PropOp37
 70
     1
102
RTVSPost2010Prop38
140
0.0
102
RTVSPost2010PropOp38
 70
     1
102
RTVSPost2010Prop39
140
1.0
102
RTVSPost2010PropOp39
 70
     1
102
RTVSPost2010Prop40
 90
        0
102
RTVSPost2010PropOp40
 70
     1
102
RTVSPost2010Prop41ColorIndex
 90
       18
102
RTVSPost2010Prop41ColorRGB
 90
        0
102
RTVSPost2010PropOp41
 70
     1
102
RTVSPost2010Prop42
 90
       50
102
RTVSPost2010PropOp42
 70
     1
102
RTVSPost2010Prop43
 90
        3
102
RTVSPost2010PropOp43
 70
     1
102
RTVSPost2010Prop44ColorIndex
 90
        5
102
RTVSPost2010Prop44ColorRGB
 90
      255
102
RTVSPost2010PropOp44
 70
     1
102
RTVSPost2010Prop45
280
     0
102
RTVSPost2010PropOp45
 70
     1
102
RTVSPost2010Prop46
 90
       50
102
RTVSPost2010PropOp46
 70
     1
102
RTVSPost2010Prop47
 90
       50
102
RTVSPost2010PropOp47
 70
     1
102
RTVSPost2010Prop48
 90
       50
102
RTVSPost2010PropOp48
 70
     1
102
RTVSPost2010Prop49
280
     0
102
RTVSPost2010PropOp49
 70
     1
102
RTVSPost2010Prop50
 90
       50
102
RTVSPost2010PropOp50
 70
     1
102
RTVSPost2010Prop51ColorIndex
 90
      256
102
RTVSPost2010Prop51ColorRGB
 90
-16777216
102
RTVSPost2010PropOp51
 70
     0
102
RTVSPost2010Prop52
140
1.0
102
RTVSPost2010PropOp52
 70
     0
102
RTVSPost2010Prop53
 90
        2
102
RTVSPost2010PropOp53
 70
     1
102
RTVSPost2010Prop54
  1
strokes_ogs.tif
102
RTVSPost2010PropOp54
 70
     1
102
RTVSPost2010Prop55
280
     0
102
RTVSPost2010PropOp55
 70
     1
102
RTVSPost2010Prop56
140
1.0
102
RTVSPost2010PropOp56
 70
     1
102
RTVSPost2010Prop57
140
1.0
102
RTVSPost2010PropOp57
 70
     1
  0
XRECORD
  5
2CA
102
{ACAD_REACTORS
330
2C9
102
}
330
2C9
100
AcDbXrecord
280
     1
102
RTVSPost2010Prop28
280
     0
102
RTVSPost2010PropOp28
 70
     0
102
RTVSPost2010Prop29
280
     1
102
RTVSPost2010PropOp29
 70
     0
102
RTVSPost2010Prop30
280
     1
102
RTVSPost2010PropOp30
 70
     0
102
RTVSPost2010Prop31
280
     0
102
RTVSPost2010PropOp31
 70
     0
102
RTVSPost2010Prop32
280
     0
102
RTVSPost2010PropOp32
 70
     0
102
RTVSPost2010Prop33
280
     0
102
RTVSPost2010PropOp33
 70
     0
102
RTVSPost2010Prop34
280
     0
102
RTVSPost2010PropOp34
 70
     0
102
RTVSPost2010Prop35
280
     0
102
RTVSPost2010PropOp35
 70
     0
102
RTVSPost2010Prop36
280
     0
102
RTVSPost2010PropOp36
 70
     0
102
RTVSPost2010Prop37
 90
       50
102
RTVSPost2010PropOp37
 70
     0
102
RTVSPost2010Prop38
140
0.0
102
RTVSPost2010PropOp38
 70
     0
102
RTVSPost2010Prop39
140
1.0
102
RTVSPost2010PropOp39
 70
     0
102
RTVSPost2010Prop40
 90
        0
102
RTVSPost2010PropOp40
 70
     0
102
RTVSPost2010Prop41ColorIndex
 90
       18
102
RTVSPost2010Prop41ColorRGB
 90
        0
102
RTVSPost2010PropOp41
 70
     0
102
RTVSPost2010Prop42
 90
       50
102
RTVSPost2010PropOp42
 70
     0
102
RTVSPost2010Prop43
 90
        3
102
RTVSPost2010PropOp43
 70
     0
102
RTVSPost2010Prop44ColorIndex
 90
        5
102
RTVSPost2010Prop44ColorRGB
 90
      255
102
RTVSPost2010PropOp44
 70
     0
102
RTVSPost2010Prop45
280
     0
102
RTVSPost2010PropOp45
 70
     0
102
RTVSPost2010Prop46
 90
       50
102
RTVSPost2010PropOp46
 70
     0
102
RTVSPost2010Prop47
 90
       50
102
RTVSPost2010PropOp47
 70
     0
102
RTVSPost2010Prop48
 90
       50
102
RTVSPost2010PropOp48
 70
     0
102
RTVSPost2010Prop49
280
     0
102
RTVSPost2010PropOp49
 70
     0
102
RTVSPost2010Prop50
 90
       50
102
RTVSPost2010PropOp50
 70
     0
102
RTVSPost2010Prop51ColorIndex
 90
      256
102
RTVSPost2010Prop51ColorRGB
 90
-16777216
102
RTVSPost2010PropOp51
 70
     0
102
RTVSPost2010Prop52
140
1.0
102
RTVSPost2010PropOp52
 70
     0
102
RTVSPost2010Prop53
 90
        2
102
RTVSPost2010PropOp53
 70
     0
102
RTVSPost2010Prop54
  1
strokes_ogs.tif
102
RTVSPost2010PropOp54
 70
     0
102
RTVSPost2010Prop55
280
     0
102
RTVSPost2010PropOp55
 70
     0
102
RTVSPost2010Prop56
140
1.0
102
RTVSPost2010PropOp56
 70
     0
102
RTVSPost2010Prop57
140
1.0
102
RTVSPost2010PropOp57
 70
     0
  0
XRECORD
  5
2C4
102
{ACAD_REACTORS
330
2C3
102
}
330
2C3
100
AcDbXrecord
280
     1
102
RTVSPost2010Prop28
280
     0
102
RTVSPost2010PropOp28
 70
     1
102
RTVSPost2010Prop29
280
     1
102
RTVSPost2010PropOp29
 70
     1
102
RTVSPost2010Prop30
280
     1
102
RTVSPost2010PropOp30
 70
     1
102
RTVSPost2010Prop31
280
     0
102
RTVSPost2010PropOp31
 70
     1
102
RTVSPost2010Prop32
280
     0
102
RTVSPost2010PropOp32
 70
     1
102
RTVSPost2010Prop33
280
     0
102
RTVSPost2010PropOp33
 70
     1
102
RTVSPost2010Prop34
280
     0
102
RTVSPost2010PropOp34
 70
     1
102
RTVSPost2010Prop35
280
     0
102
RTVSPost2010PropOp35
 70
     1
102
RTVSPost2010Prop36
280
     0
102
RTVSPost2010PropOp36
 70
     1
102
RTVSPost2010Prop37
 90
       50
102
RTVSPost2010PropOp37
 70
     1
102
RTVSPost2010Prop38
140
0.0
102
RTVSPost2010PropOp38
 70
     1
102
RTVSPost2010Prop39
140
1.0
102
RTVSPost2010PropOp39
 70
     1
102
RTVSPost2010Prop40
 90
        0
102
RTVSPost2010PropOp40
 70
     1
102
RTVSPost2010Prop41ColorIndex
 90
       18
102
RTVSPost2010Prop41ColorRGB
 90
        0
102
RTVSPost2010PropOp41
 70
     1
102
RTVSPost2010Prop42
 90
       50
102
RTVSPost2010PropOp42
 70
     1
102
RTVSPost2010Prop43
 90
        3
102
RTVSPost2010PropOp43
 70
     1
102
RTVSPost2010Prop44ColorIndex
 90
        5
102
RTVSPost2010Prop44ColorRGB
 90
      255
102
RTVSPost2010PropOp44
 70
     1
102
RTVSPost2010Prop45
280
     0
102
RTVSPost2010PropOp45
 70
     1
102
RTVSPost2010Prop46
 90
       50
102
RTVSPost2010PropOp46
 70
     1
102
RTVSPost2010Prop47
 90
       50
102
RTVSPost2010PropOp47
 70
     1
102
RTVSPost2010Prop48
 90
       50
102
RTVSPost2010PropOp48
 70
     1
102
RTVSPost2010Prop49
280
     0
102
RTVSPost2010PropOp49
 70
     1
102
RTVSPost2010Prop50
 90
       50
102
RTVSPost2010PropOp50
 70
     1
102
RTVSPost2010Prop51ColorIndex
 90
      256
102
RTVSPost2010Prop51ColorRGB
 90
-16777216
102
RTVSPost2010PropOp51
 70
     0
102
RTVSPost2010Prop52
140
1.0
102
RTVSPost2010PropOp52
 70
     0
102
RTVSPost2010Prop53
 90
        2
102
RTVSPost2010PropOp53
 70
     1
102
RTVSPost2010Prop54
  1
strokes_ogs.tif
102
RTVSPost2010PropOp54
 70
     1
102
RTVSPost2010Prop55
280
     0
102
RTVSPost2010PropOp55
 70
     1
102
RTVSPost2010Prop56
140
1.0
102
RTVSPost2010PropOp56
 70
     1
102
RTVSPost2010Prop57
140
1.0
102
RTVSPost2010PropOp57
 70
     1
  0
XRECORD
  5
2CC
102
{ACAD_REACTORS
330
2CB
102
}
330
2CB
100
AcDbXrecord
280
     1
102
RTVSPost2010Prop28
280
     0
102
RTVSPost2010PropOp28
 70
     0
102
RTVSPost2010Prop29
280
     1
102
RTVSPost2010PropOp29
 70
     0
102
RTVSPost2010Prop30
280
     1
102
RTVSPost2010PropOp30
 70
     0
102
RTVSPost2010Prop31
280
     0
102
RTVSPost2010PropOp31
 70
     0
102
RTVSPost2010Prop32
280
     0
102
RTVSPost2010PropOp32
 70
     0
102
RTVSPost2010Prop33
280
     0
102
RTVSPost2010PropOp33
 70
     0
102
RTVSPost2010Prop34
280
     0
102
RTVSPost2010PropOp34
 70
     0
102
RTVSPost2010Prop35
280
     0
102
RTVSPost2010PropOp35
 70
     0
102
RTVSPost2010Prop36
280
     0
102
RTVSPost2010PropOp36
 70
     0
102
RTVSPost2010Prop37
 90
       50
102
RTVSPost2010PropOp37
 70
     0
102
RTVSPost2010Prop38
140
0.0
102
RTVSPost2010PropOp38
 70
     0
102
RTVSPost2010Prop39
140
1.0
102
RTVSPost2010PropOp39
 70
     0
102
RTVSPost2010Prop40
 90
        0
102
RTVSPost2010PropOp40
 70
     0
102
RTVSPost2010Prop41ColorIndex
 90
       18
102
RTVSPost2010Prop41ColorRGB
 90
        0
102
RTVSPost2010PropOp41
 70
     0
102
RTVSPost2010Prop42
 90
       50
102
RTVSPost2010PropOp42
 70
     0
102
RTVSPost2010Prop43
 90
        3
102
RTVSPost2010PropOp43
 70
     0
102
RTVSPost2010Prop44ColorIndex
 90
        5
102
RTVSPost2010Prop44ColorRGB
 90
      255
102
RTVSPost2010PropOp44
 70
     0
102
RTVSPost2010Prop45
280
     0
102
RTVSPost2010PropOp45
 70
     0
102
RTVSPost2010Prop46
 90
       50
102
RTVSPost2010PropOp46
 70
     0
102
RTVSPost2010Prop47
 90
       50
102
RTVSPost2010PropOp47
 70
     0
102
RTVSPost2010Prop48
 90
       50
102
RTVSPost2010PropOp48
 70
     0
102
RTVSPost2010Prop49
280
     0
102
RTVSPost2010PropOp49
 70
     0
102
RTVSPost2010Prop50
 90
       50
102
RTVSPost2010PropOp50
 70
     0
102
RTVSPost2010Prop51ColorIndex
 90
      256
102
RTVSPost2010Prop51ColorRGB
 90
-16777216
102
RTVSPost2010PropOp51
 70
     0
102
RTVSPost2010Prop52
140
1.0
102
RTVSPost2010PropOp52
 70
     0
102
RTVSPost2010Prop53
 90
        2
102
RTVSPost2010PropOp53
 70
     0
102
RTVSPost2010Prop54
  1
strokes_ogs.tif
102
RTVSPost2010PropOp54
 70
     0
102
RTVSPost2010Prop55
280
     0
102
RTVSPost2010PropOp55
 70
     0
102
RTVSPost2010Prop56
140
1.0
102
RTVSPost2010PropOp56
 70
     0
102
RTVSPost2010Prop57
140
1.0
102
RTVSPost2010PropOp57
 70
     0
  0
XRECORD
  5
2BA
102
{ACAD_REACTORS
330
2B9
102
}
330
2B9
100
AcDbXrecord
280
     1
102
RTVSPost2010Prop28
280
     0
102
RTVSPost2010PropOp28
 70
     1
102
RTVSPost2010Prop29
280
     1
102
RTVSPost2010PropOp29
 70
     1
102
RTVSPost2010Prop30
280
     1
102
RTVSPost2010PropOp30
 70
     1
102
RTVSPost2010Prop31
280
     0
102
RTVSPost2010PropOp31
 70
     1
102
RTVSPost2010Prop32
280
     0
102
RTVSPost2010PropOp32
 70
     1
102
RTVSPost2010Prop33
280
     0
102
RTVSPost2010PropOp33
 70
     1
102
RTVSPost2010Prop34
280
     0
102
RTVSPost2010PropOp34
 70
     1
102
RTVSPost2010Prop35
280
     0
102
RTVSPost2010PropOp35
 70
     1
102
RTVSPost2010Prop36
280
     0
102
RTVSPost2010PropOp36
 70
     1
102
RTVSPost2010Prop37
 90
       50
102
RTVSPost2010PropOp37
 70
     1
102
RTVSPost2010Prop38
140
0.0
102
RTVSPost2010PropOp38
 70
     1
102
RTVSPost2010Prop39
140
1.0
102
RTVSPost2010PropOp39
 70
     1
102
RTVSPost2010Prop40
 90
        0
102
RTVSPost2010PropOp40
 70
     1
102
RTVSPost2010Prop41ColorIndex
 90
       18
102
RTVSPost2010Prop41ColorRGB
 90
        0
102
RTVSPost2010PropOp41
 70
     1
102
RTVSPost2010Prop42
 90
       50
102
RTVSPost2010PropOp42
 70
     1
102
RTVSPost2010Prop43
 90
        3
102
RTVSPost2010PropOp43
 70
     1
102
RTVSPost2010Prop44ColorIndex
 90
        5
102
RTVSPost2010Prop44ColorRGB
 90
      255
102
RTVSPost2010PropOp44
 70
     1
102
RTVSPost2010Prop45
280
     0
102
RTVSPost2010PropOp45
 70
     1
102
RTVSPost2010Prop46
 90
       50
102
RTVSPost2010PropOp46
 70
     1
102
RTVSPost2010Prop47
 90
       50
102
RTVSPost2010PropOp47
 70
     1
102
RTVSPost2010Prop48
 90
       50
102
RTVSPost2010PropOp48
 70
     1
102
RTVSPost2010Prop49
280
     0
102
RTVSPost2010PropOp49
 70
     1
102
RTVSPost2010Prop50
 90
       50
102
RTVSPost2010PropOp50
 70
     1
102
RTVSPost2010Prop51ColorIndex
 90
      256
102
RTVSPost2010Prop51ColorRGB
 90
-16777216
102
RTVSPost2010PropOp51
 70
     0
102
RTVSPost2010Prop52
140
1.0
102
RTVSPost2010PropOp52
 70
     0
102
RTVSPost2010Prop53
 90
        2
102
RTVSPost2010PropOp53
 70
     1
102
RTVSPost2010Prop54
  1
strokes_ogs.tif
102
RTVSPost2010PropOp54
 70
     1
102
RTVSPost2010Prop55
280
     0
102
RTVSPost2010PropOp55
 70
     1
102
RTVSPost2010Prop56
140
1.0
102
RTVSPost2010PropOp56
 70
     1
102
RTVSPost2010Prop57
140
1.0
102
RTVSPost2010PropOp57
 70
     1
  0
XRECORD
  5
2D8
102
{ACAD_REACTORS
330
2D7
102
}
330
2D7
100
AcDbXrecord
280
     1
102
RTVSPost2010Prop28
280
     0
102
RTVSPost2010PropOp28
 70
     1
102
RTVSPost2010Prop29
280
     1
102
RTVSPost2010PropOp29
 70
     1
102
RTVSPost2010Prop30
280
     1
102
RTVSPost2010PropOp30
 70
     1
102
RTVSPost2010Prop31
280
     0
102
RTVSPost2010PropOp31
 70
     1
102
RTVSPost2010Prop32
280
     0
102
RTVSPost2010PropOp32
 70
     1
102
RTVSPost2010Prop33
280
     0
102
RTVSPost2010PropOp33
 70
     1
102
RTVSPost2010Prop34
280
     0
102
RTVSPost2010PropOp34
 70
     1
102
RTVSPost2010Prop35
280
     0
102
RTVSPost2010PropOp35
 70
     1
102
RTVSPost2010Prop36
280
     0
102
RTVSPost2010PropOp36
 70
     1
102
RTVSPost2010Prop37
 90
       50
102
RTVSPost2010PropOp37
 70
     1
102
RTVSPost2010Prop38
140
0.0
102
RTVSPost2010PropOp38
 70
     1
102
RTVSPost2010Prop39
140
1.0
102
RTVSPost2010PropOp39
 70
     1
102
RTVSPost2010Prop40
 90
        0
102
RTVSPost2010PropOp40
 70
     1
102
RTVSPost2010Prop41ColorIndex
 90
       18
102
RTVSPost2010Prop41ColorRGB
 90
        0
102
RTVSPost2010PropOp41
 70
     1
102
RTVSPost2010Prop42
 90
       50
102
RTVSPost2010PropOp42
 70
     1
102
RTVSPost2010Prop43
 90
        3
102
RTVSPost2010PropOp43
 70
     1
102
RTVSPost2010Prop44ColorIndex
 90
        5
102
RTVSPost2010Prop44ColorRGB
 90
      255
102
RTVSPost2010PropOp44
 70
     1
102
RTVSPost2010Prop45
280
     0
102
RTVSPost2010PropOp45
 70
     1
102
RTVSPost2010Prop46
 90
       50
102
RTVSPost2010PropOp46
 70
     1
102
RTVSPost2010Prop47
 90
       50
102
RTVSPost2010PropOp47
 70
     1
102
RTVSPost2010Prop48
 90
       50
102
RTVSPost2010PropOp48
 70
     1
102
RTVSPost2010Prop49
280
     0
102
RTVSPost2010PropOp49
 70
     1
102
RTVSPost2010Prop50
 90
       50
102
RTVSPost2010PropOp50
 70
     1
102
RTVSPost2010Prop51ColorIndex
 90
      256
102
RTVSPost2010Prop51ColorRGB
 90
-16777216
102
RTVSPost2010PropOp51
 70
     0
102
RTVSPost2010Prop52
140
1.0
102
RTVSPost2010PropOp52
 70
     0
102
RTVSPost2010Prop53
 90
        2
102
RTVSPost2010PropOp53
 70
     1
102
RTVSPost2010Prop54
  1
strokes_ogs.tif
102
RTVSPost2010PropOp54
 70
     1
102
RTVSPost2010Prop55
280
     0
102
RTVSPost2010PropOp55
 70
     1
102
RTVSPost2010Prop56
140
1.0
102
RTVSPost2010PropOp56
 70
     1
102
RTVSPost2010Prop57
140
1.0
102
RTVSPost2010PropOp57
 70
     1
  0
XRECORD
  5
2D6
102
{ACAD_REACTORS
330
2D5
102
}
330
2D5
100
AcDbXrecord
280
     1
102
RTVSPost2010Prop28
280
     0
102
RTVSPost2010PropOp28
 70
     1
102
RTVSPost2010Prop29
280
     1
102
RTVSPost2010PropOp29
 70
     1
102
RTVSPost2010Prop30
280
     1
102
RTVSPost2010PropOp30
 70
     1
102
RTVSPost2010Prop31
280
     0
102
RTVSPost2010PropOp31
 70
     1
102
RTVSPost2010Prop32
280
     0
102
RTVSPost2010PropOp32
 70
     1
102
RTVSPost2010Prop33
280
     0
102
RTVSPost2010PropOp33
 70
     1
102
RTVSPost2010Prop34
280
     0
102
RTVSPost2010PropOp34
 70
     1
102
RTVSPost2010Prop35
280
     0
102
RTVSPost2010PropOp35
 70
     1
102
RTVSPost2010Prop36
280
     0
102
RTVSPost2010PropOp36
 70
     1
102
RTVSPost2010Prop37
 90
       50
102
RTVSPost2010PropOp37
 70
     1
102
RTVSPost2010Prop38
140
0.0
102
RTVSPost2010PropOp38
 70
     1
102
RTVSPost2010Prop39
140
1.0
102
RTVSPost2010PropOp39
 70
     1
102
RTVSPost2010Prop40
 90
        0
102
RTVSPost2010PropOp40
 70
     1
102
RTVSPost2010Prop41ColorIndex
 90
       18
102
RTVSPost2010Prop41ColorRGB
 90
        0
102
RTVSPost2010PropOp41
 70
     1
102
RTVSPost2010Prop42
 90
       50
102
RTVSPost2010PropOp42
 70
     1
102
RTVSPost2010Prop43
 90
        3
102
RTVSPost2010PropOp43
 70
     1
102
RTVSPost2010Prop44ColorIndex
 90
        5
102
RTVSPost2010Prop44ColorRGB
 90
      255
102
RTVSPost2010PropOp44
 70
     1
102
RTVSPost2010Prop45
280
     0
102
RTVSPost2010PropOp45
 70
     1
102
RTVSPost2010Prop46
 90
       50
102
RTVSPost2010PropOp46
 70
     1
102
RTVSPost2010Prop47
 90
       50
102
RTVSPost2010PropOp47
 70
     1
102
RTVSPost2010Prop48
 90
       50
102
RTVSPost2010PropOp48
 70
     1
102
RTVSPost2010Prop49
280
     0
102
RTVSPost2010PropOp49
 70
     1
102
RTVSPost2010Prop50
 90
       50
102
RTVSPost2010PropOp50
 70
     1
102
RTVSPost2010Prop51ColorIndex
 90
      256
102
RTVSPost2010Prop51ColorRGB
 90
-16777216
102
RTVSPost2010PropOp51
 70
     0
102
RTVSPost2010Prop52
140
1.0
102
RTVSPost2010PropOp52
 70
     0
102
RTVSPost2010Prop53
 90
        2
102
RTVSPost2010PropOp53
 70
     1
102
RTVSPost2010Prop54
  1
strokes_ogs.tif
102
RTVSPost2010PropOp54
 70
     1
102
RTVSPost2010Prop55
280
     0
102
RTVSPost2010PropOp55
 70
     1
102
RTVSPost2010Prop56
140
1.0
102
RTVSPost2010PropOp56
 70
     1
102
RTVSPost2010Prop57
140
1.0
102
RTVSPost2010PropOp57
 70
     1
  0
XRECORD
  5
2D0
102
{ACAD_REACTORS
330
2CF
102
}
330
2CF
100
AcDbXrecord
280
     1
102
RTVSPost2010Prop28
280
     0
102
RTVSPost2010PropOp28
 70
     1
102
RTVSPost2010Prop29
280
     1
102
RTVSPost2010PropOp29
 70
     1
102
RTVSPost2010Prop30
280
     1
102
RTVSPost2010PropOp30
 70
     1
102
RTVSPost2010Prop31
280
     0
102
RTVSPost2010PropOp31
 70
     1
102
RTVSPost2010Prop32
280
     0
102
RTVSPost2010PropOp32
 70
     1
102
RTVSPost2010Prop33
280
     0
102
RTVSPost2010PropOp33
 70
     1
102
RTVSPost2010Prop34
280
     0
102
RTVSPost2010PropOp34
 70
     1
102
RTVSPost2010Prop35
280
     0
102
RTVSPost2010PropOp35
 70
     1
102
RTVSPost2010Prop36
280
     0
102
RTVSPost2010PropOp36
 70
     1
102
RTVSPost2010Prop37
 90
       50
102
RTVSPost2010PropOp37
 70
     1
102
RTVSPost2010Prop38
140
0.0
102
RTVSPost2010PropOp38
 70
     1
102
RTVSPost2010Prop39
140
1.0
102
RTVSPost2010PropOp39
 70
     1
102
RTVSPost2010Prop40
 90
        0
102
RTVSPost2010PropOp40
 70
     1
102
RTVSPost2010Prop41ColorIndex
 90
       18
102
RTVSPost2010Prop41ColorRGB
 90
        0
102
RTVSPost2010PropOp41
 70
     1
102
RTVSPost2010Prop42
 90
       50
102
RTVSPost2010PropOp42
 70
     1
102
RTVSPost2010Prop43
 90
        3
102
RTVSPost2010PropOp43
 70
     1
102
RTVSPost2010Prop44ColorIndex
 90
        5
102
RTVSPost2010Prop44ColorRGB
 90
      255
102
RTVSPost2010PropOp44
 70
     1
102
RTVSPost2010Prop45
280
     0
102
RTVSPost2010PropOp45
 70
     1
102
RTVSPost2010Prop46
 90
       50
102
RTVSPost2010PropOp46
 70
     1
102
RTVSPost2010Prop47
 90
       50
102
RTVSPost2010PropOp47
 70
     1
102
RTVSPost2010Prop48
 90
       50
102
RTVSPost2010PropOp48
 70
     1
102
RTVSPost2010Prop49
280
     0
102
RTVSPost2010PropOp49
 70
     1
102
RTVSPost2010Prop50
 90
       50
102
RTVSPost2010PropOp50
 70
     1
102
RTVSPost2010Prop51ColorIndex
 90
      256
102
RTVSPost2010Prop51ColorRGB
 90
-16777216
102
RTVSPost2010PropOp51
 70
     0
102
RTVSPost2010Prop52
140
1.0
102
RTVSPost2010PropOp52
 70
     0
102
RTVSPost2010Prop53
 90
        2
102
RTVSPost2010PropOp53
 70
     1
102
RTVSPost2010Prop54
  1
strokes_ogs.tif
102
RTVSPost2010PropOp54
 70
     1
102
RTVSPost2010Prop55
280
     0
102
RTVSPost2010PropOp55
 70
     1
102
RTVSPost2010Prop56
140
1.0
102
RTVSPost2010PropOp56
 70
     1
102
RTVSPost2010Prop57
140
1.0
102
RTVSPost2010PropOp57
 70
     1
  0
XRECORD
  5
2D2
102
{ACAD_REACTORS
330
2D1
102
}
330
2D1
100
AcDbXrecord
280
     1
102
RTVSPost2010Prop28
280
     0
102
RTVSPost2010PropOp28
 70
     1
102
RTVSPost2010Prop29
280
     1
102
RTVSPost2010PropOp29
 70
     1
102
RTVSPost2010Prop30
280
     1
102
RTVSPost2010PropOp30
 70
     1
102
RTVSPost2010Prop31
280
     0
102
RTVSPost2010PropOp31
 70
     1
102
RTVSPost2010Prop32
280
     0
102
RTVSPost2010PropOp32
 70
     1
102
RTVSPost2010Prop33
280
     0
102
RTVSPost2010PropOp33
 70
     1
102
RTVSPost2010Prop34
280
     0
102
RTVSPost2010PropOp34
 70
     1
102
RTVSPost2010Prop35
280
     0
102
RTVSPost2010PropOp35
 70
     1
102
RTVSPost2010Prop36
280
     0
102
RTVSPost2010PropOp36
 70
     1
102
RTVSPost2010Prop37
 90
       50
102
RTVSPost2010PropOp37
 70
     1
102
RTVSPost2010Prop38
140
0.0
102
RTVSPost2010PropOp38
 70
     1
102
RTVSPost2010Prop39
140
1.0
102
RTVSPost2010PropOp39
 70
     1
102
RTVSPost2010Prop40
 90
        0
102
RTVSPost2010PropOp40
 70
     1
102
RTVSPost2010Prop41ColorIndex
 90
       18
102
RTVSPost2010Prop41ColorRGB
 90
        0
102
RTVSPost2010PropOp41
 70
     1
102
RTVSPost2010Prop42
 90
       50
102
RTVSPost2010PropOp42
 70
     1
102
RTVSPost2010Prop43
 90
        3
102
RTVSPost2010PropOp43
 70
     1
102
RTVSPost2010Prop44ColorIndex
 90
        5
102
RTVSPost2010Prop44ColorRGB
 90
      255
102
RTVSPost2010PropOp44
 70
     1
102
RTVSPost2010Prop45
280
     0
102
RTVSPost2010PropOp45
 70
     1
102
RTVSPost2010Prop46
 90
       50
102
RTVSPost2010PropOp46
 70
     1
102
RTVSPost2010Prop47
 90
       50
102
RTVSPost2010PropOp47
 70
     1
102
RTVSPost2010Prop48
 90
       50
102
RTVSPost2010PropOp48
 70
     1
102
RTVSPost2010Prop49
280
     0
102
RTVSPost2010PropOp49
 70
     1
102
RTVSPost2010Prop50
 90
       50
102
RTVSPost2010PropOp50
 70
     1
102
RTVSPost2010Prop51ColorIndex
 90
      256
102
RTVSPost2010Prop51ColorRGB
 90
-16777216
102
RTVSPost2010PropOp51
 70
     0
102
RTVSPost2010Prop52
140
1.0
102
RTVSPost2010PropOp52
 70
     0
102
RTVSPost2010Prop53
 90
        2
102
RTVSPost2010PropOp53
 70
     1
102
RTVSPost2010Prop54
  1
strokes_ogs.tif
102
RTVSPost2010PropOp54
 70
     1
102
RTVSPost2010Prop55
280
     0
102
RTVSPost2010PropOp55
 70
     1
102
RTVSPost2010Prop56
140
1.0
102
RTVSPost2010PropOp56
 70
     1
102
RTVSPost2010Prop57
140
1.0
102
RTVSPost2010PropOp57
 70
     1
  0
XRECORD
  5
2C2
102
{ACAD_REACTORS
330
2C1
102
}
330
2C1
100
AcDbXrecord
280
     1
102
RTVSPost2010Prop28
280
     0
102
RTVSPost2010PropOp28
 70
     1
102
RTVSPost2010Prop29
280
     1
102
RTVSPost2010PropOp29
 70
     1
102
RTVSPost2010Prop30
280
     1
102
RTVSPost2010PropOp30
 70
     1
102
RTVSPost2010Prop31
280
     0
102
RTVSPost2010PropOp31
 70
     1
102
RTVSPost2010Prop32
280
     0
102
RTVSPost2010PropOp32
 70
     1
102
RTVSPost2010Prop33
280
     0
102
RTVSPost2010PropOp33
 70
     1
102
RTVSPost2010Prop34
280
     0
102
RTVSPost2010PropOp34
 70
     1
102
RTVSPost2010Prop35
280
     0
102
RTVSPost2010PropOp35
 70
     1
102
RTVSPost2010Prop36
280
     0
102
RTVSPost2010PropOp36
 70
     1
102
RTVSPost2010Prop37
 90
       50
102
RTVSPost2010PropOp37
 70
     1
102
RTVSPost2010Prop38
140
0.0
102
RTVSPost2010PropOp38
 70
     1
102
RTVSPost2010Prop39
140
1.0
102
RTVSPost2010PropOp39
 70
     1
102
RTVSPost2010Prop40
 90
        0
102
RTVSPost2010PropOp40
 70
     1
102
RTVSPost2010Prop41ColorIndex
 90
       18
102
RTVSPost2010Prop41ColorRGB
 90
        0
102
RTVSPost2010PropOp41
 70
     1
102
RTVSPost2010Prop42
 90
       50
102
RTVSPost2010PropOp42
 70
     1
102
RTVSPost2010Prop43
 90
        3
102
RTVSPost2010PropOp43
 70
     1
102
RTVSPost2010Prop44ColorIndex
 90
        5
102
RTVSPost2010Prop44ColorRGB
 90
      255
102
RTVSPost2010PropOp44
 70
     1
102
RTVSPost2010Prop45
280
     0
102
RTVSPost2010PropOp45
 70
     1
102
RTVSPost2010Prop46
 90
       50
102
RTVSPost2010PropOp46
 70
     1
102
RTVSPost2010Prop47
 90
       50
102
RTVSPost2010PropOp47
 70
     1
102
RTVSPost2010Prop48
 90
       50
102
RTVSPost2010PropOp48
 70
     1
102
RTVSPost2010Prop49
280
     0
102
RTVSPost2010PropOp49
 70
     1
102
RTVSPost2010Prop50
 90
       50
102
RTVSPost2010PropOp50
 70
     1
102
RTVSPost2010Prop51ColorIndex
 90
      256
102
RTVSPost2010Prop51ColorRGB
 90
-16777216
102
RTVSPost2010PropOp51
 70
     0
102
RTVSPost2010Prop52
140
1.0
102
RTVSPost2010PropOp52
 70
     0
102
RTVSPost2010Prop53
 90
        2
102
RTVSPost2010PropOp53
 70
     1
102
RTVSPost2010Prop54
  1
strokes_ogs.tif
102
RTVSPost2010PropOp54
 70
     1
102
RTVSPost2010Prop55
280
     0
102
RTVSPost2010PropOp55
 70
     1
102
RTVSPost2010Prop56
140
1.0
102
RTVSPost2010PropOp56
 70
     1
102
RTVSPost2010Prop57
140
1.0
102
RTVSPost2010PropOp57
 70
     1
  0
XRECORD
  5
2B4
102
{ACAD_REACTORS
330
2B3
102
}
330
2B3
100
AcDbXrecord
280
     1
102
RTVSPost2010Prop28
280
     0
102
RTVSPost2010PropOp28
 70
     1
102
RTVSPost2010Prop29
280
     1
102
RTVSPost2010PropOp29
 70
     1
102
RTVSPost2010Prop30
280
     1
102
RTVSPost2010PropOp30
 70
     1
102
RTVSPost2010Prop31
280
     0
102
RTVSPost2010PropOp31
 70
     1
102
RTVSPost2010Prop32
280
     0
102
RTVSPost2010PropOp32
 70
     1
102
RTVSPost2010Prop33
280
     0
102
RTVSPost2010PropOp33
 70
     1
102
RTVSPost2010Prop34
280
     0
102
RTVSPost2010PropOp34
 70
     1
102
RTVSPost2010Prop35
280
     0
102
RTVSPost2010PropOp35
 70
     1
102
RTVSPost2010Prop36
280
     0
102
RTVSPost2010PropOp36
 70
     1
102
RTVSPost2010Prop37
 90
       50
102
RTVSPost2010PropOp37
 70
     1
102
RTVSPost2010Prop38
140
0.0
102
RTVSPost2010PropOp38
 70
     1
102
RTVSPost2010Prop39
140
1.0
102
RTVSPost2010PropOp39
 70
     1
102
RTVSPost2010Prop40
 90
        0
102
RTVSPost2010PropOp40
 70
     1
102
RTVSPost2010Prop41ColorIndex
 90
       18
102
RTVSPost2010Prop41ColorRGB
 90
        0
102
RTVSPost2010PropOp41
 70
     1
102
RTVSPost2010Prop42
 90
       50
102
RTVSPost2010PropOp42
 70
     1
102
RTVSPost2010Prop43
 90
        3
102
RTVSPost2010PropOp43
 70
     1
102
RTVSPost2010Prop44ColorIndex
 90
        5
102
RTVSPost2010Prop44ColorRGB
 90
      255
102
RTVSPost2010PropOp44
 70
     1
102
RTVSPost2010Prop45
280
     0
102
RTVSPost2010PropOp45
 70
     1
102
RTVSPost2010Prop46
 90
       50
102
RTVSPost2010PropOp46
 70
     1
102
RTVSPost2010Prop47
 90
       50
102
RTVSPost2010PropOp47
 70
     1
102
RTVSPost2010Prop48
 90
       50
102
RTVSPost2010PropOp48
 70
     1
102
RTVSPost2010Prop49
280
     0
102
RTVSPost2010PropOp49
 70
     1
102
RTVSPost2010Prop50
 90
       50
102
RTVSPost2010PropOp50
 70
     1
102
RTVSPost2010Prop51ColorIndex
 90
      256
102
RTVSPost2010Prop51ColorRGB
 90
-16777216
102
RTVSPost2010PropOp51
 70
     0
102
RTVSPost2010Prop52
140
1.0
102
RTVSPost2010PropOp52
 70
     0
102
RTVSPost2010Prop53
 90
        2
102
RTVSPost2010PropOp53
 70
     1
102
RTVSPost2010Prop54
  1
strokes_ogs.tif
102
RTVSPost2010PropOp54
 70
     1
102
RTVSPost2010Prop55
280
     0
102
RTVSPost2010PropOp55
 70
     1
102
RTVSPost2010Prop56
140
1.0
102
RTVSPost2010PropOp56
 70
     1
102
RTVSPost2010Prop57
140
1.0
102
RTVSPost2010PropOp57
 70
     1
  0
XRECORD
  5
2D4
102
{ACAD_REACTORS
330
2D3
102
}
330
2D3
100
AcDbXrecord
280
     1
102
RTVSPost2010Prop28
280
     0
102
RTVSPost2010PropOp28
 70
     1
102
RTVSPost2010Prop29
280
     1
102
RTVSPost2010PropOp29
 70
     1
102
RTVSPost2010Prop30
280
     1
102
RTVSPost2010PropOp30
 70
     1
102
RTVSPost2010Prop31
280
     0
102
RTVSPost2010PropOp31
 70
     1
102
RTVSPost2010Prop32
280
     0
102
RTVSPost2010PropOp32
 70
     1
102
RTVSPost2010Prop33
280
     0
102
RTVSPost2010PropOp33
 70
     1
102
RTVSPost2010Prop34
280
     0
102
RTVSPost2010PropOp34
 70
     1
102
RTVSPost2010Prop35
280
     0
102
RTVSPost2010PropOp35
 70
     1
102
RTVSPost2010Prop36
280
     0
102
RTVSPost2010PropOp36
 70
     1
102
RTVSPost2010Prop37
 90
       50
102
RTVSPost2010PropOp37
 70
     1
102
RTVSPost2010Prop38
140
0.0
102
RTVSPost2010PropOp38
 70
     1
102
RTVSPost2010Prop39
140
1.0
102
RTVSPost2010PropOp39
 70
     1
102
RTVSPost2010Prop40
 90
        0
102
RTVSPost2010PropOp40
 70
     1
102
RTVSPost2010Prop41ColorIndex
 90
       18
102
RTVSPost2010Prop41ColorRGB
 90
        0
102
RTVSPost2010PropOp41
 70
     1
102
RTVSPost2010Prop42
 90
       50
102
RTVSPost2010PropOp42
 70
     1
102
RTVSPost2010Prop43
 90
        3
102
RTVSPost2010PropOp43
 70
     1
102
RTVSPost2010Prop44ColorIndex
 90
        5
102
RTVSPost2010Prop44ColorRGB
 90
      255
102
RTVSPost2010PropOp44
 70
     1
102
RTVSPost2010Prop45
280
     0
102
RTVSPost2010PropOp45
 70
     1
102
RTVSPost2010Prop46
 90
       50
102
RTVSPost2010PropOp46
 70
     1
102
RTVSPost2010Prop47
 90
       50
102
RTVSPost2010PropOp47
 70
     1
102
RTVSPost2010Prop48
 90
       50
102
RTVSPost2010PropOp48
 70
     1
102
RTVSPost2010Prop49
280
     0
102
RTVSPost2010PropOp49
 70
     1
102
RTVSPost2010Prop50
 90
       50
102
RTVSPost2010PropOp50
 70
     1
102
RTVSPost2010Prop51ColorIndex
 90
      256
102
RTVSPost2010Prop51ColorRGB
 90
-16777216
102
RTVSPost2010PropOp51
 70
     0
102
RTVSPost2010Prop52
140
1.0
102
RTVSPost2010PropOp52
 70
     0
102
RTVSPost2010Prop53
 90
        2
102
RTVSPost2010PropOp53
 70
     1
102
RTVSPost2010Prop54
  1
strokes_ogs.tif
102
RTVSPost2010PropOp54
 70
     1
102
RTVSPost2010Prop55
280
     0
102
RTVSPost2010PropOp55
 70
     1
102
RTVSPost2010Prop56
140
1.0
102
RTVSPost2010PropOp56
 70
     1
102
RTVSPost2010Prop57
140
1.0
102
RTVSPost2010PropOp57
 70
     1
  0
ENDSEC
  0
EOF
