  0
SECTION
  2
HEADER
  9
$ACADVER
  1
AC1024
  9
$ACADMAINTVER
 70
     6
  9
$DWGCODEPAGE
  3
ANSI_1252
  9
$INSBASE
 10
0.0
 20
0.0
 30
0.0
  9
$EXTMIN
 10
1.000000E+20
 20
1.000000E+20
 30
1.000000E+20
  9
$EXTMAX
 10
-1.000000E+20
 20
-1.000000E+20
 30
-1.000000E+20
  9
$LIMMIN
 10
0.0
 20
0.0
  9
$LIMMAX
 10
420.0
 20
297.0
  9
$ORTHOMODE
 70
     0
  9
$REGENMODE
 70
     1
  9
$FILLMODE
 70
     1
  9
$QTEXTMODE
 70
     0
  9
$MIRRTEXT
 70
     1
  9
$LTSCALE
 40
1.0
  9
$ATTMODE
 70
     1
  9
$TEXTSIZE
 40
2.5
  9
$TRACEWID
 40
1.0
  9
$TEXTSTYLE
  7
Standard
  9
$CLAYER
  8
0
  9
$CELTYPE
  6
ByLayer
  9
$CECOLOR
 62
   256
  9
$CELTSCALE
 40
1.0
  9
$DISPSILH
 70
     0
  9
$DIMSCALE
 40
1.0
  9
$DIMASZ
 40
2.5
  9
$DIMEXO
 40
0.625
  9
$DIMDLI
 40
3.75
  9
$DIMRND
 40
0.0
  9
$DIMDLE
 40
0.0
  9
$DIMEXE
 40
1.25
  9
$DIMTP
 40
0.0
  9
$DIMTM
 40
0.0
  9
$DIMTXT
 40
2.5
  9
$DIMCEN
 40
2.5
  9
$DIMTSZ
 40
0.0
  9
$DIMTOL
 70
     0
  9
$DIMLIM
 70
     0
  9
$DIMTIH
 70
     0
  9
$DIMTOH
 70
     0
  9
$DIMSE1
 70
     0
  9
$DIMSE2
 70
     0
  9
$DIMTAD
 70
     1
  9
$DIMZIN
 70
     8
  9
$DIMBLK
  1

  9
$DIMASO
 70
     1
  9
$DIMSHO
 70
     1
  9
$DIMPOST
  1

  9
$DIMAPOST
  1

  9
$DIMALT
 70
     0
  9
$DIMALTD
 70
     3
  9
$DIMALTF
 40
0.03937
  9
$DIMLFAC
 40
1.0
  9
$DIMTOFL
 70
     1
  9
$DIMTVP
 40
0.0
  9
$DIMTIX
 70
     0
  9
$DIMSOXD
 70
     0
  9
$DIMSAH
 70
     0
  9
$DIMBLK1
  1

  9
$DIMBLK2
  1

  9
$DIMSTYLE
  2
ISO-25
  9
$DIMCLRD
 70
     0
  9
$DIMCLRE
 70
     0
  9
$DIMCLRT
 70
     0
  9
$DIMTFAC
 40
1.0
  9
$DIMGAP
 40
0.625
  9
$DIMJUST
 70
     0
  9
$DIMSD1
 70
     0
  9
$DIMSD2
 70
     0
  9
$DIMTOLJ
 70
     0
  9
$DIMTZIN
 70
     8
  9
$DIMALTZ
 70
     0
  9
$DIMALTTZ
 70
     0
  9
$DIMUPT
 70
     0
  9
$DIMDEC
 70
     2
  9
$DIMTDEC
 70
     2
  9
$DIMALTU
 70
     2
  9
$DIMALTTD
 70
     3
  9
$DIMTXSTY
  7
Standard
  9
$DIMAUNIT
 70
     0
  9
$DIMADEC
 70
     0
  9
$DIMALTRND
 40
0.0
  9
$DIMAZIN
 70
     0
  9
$DIMDSEP
 70
    44
  9
$DIMATFIT
 70
     3
  9
$DIMFRAC
 70
     0
  9
$DIMLDRBLK
  1

  9
$DIMLUNIT
 70
     2
  9
$DIMLWD
 70
    -2
  9
$DIMLWE
 70
    -2
  9
$DIMTMOVE
 70
     0
  9
$DIMFXL
 40
1.0
  9
$DIMFXLON
 70
     0
  9
$DIMJOGANG
 40
0.785398
  9
$DIMTFILL
 70
     0
  9
$DIMTFILLCLR
 70
     0
  9
$DIMARCSYM
 70
     0
  9
$DIMLTYPE
  6

  9
$DIMLTEX1
  6

  9
$DIMLTEX2
  6

  9
$DIMTXTDIRECTION
 70
     0
  9
$LUNITS
 70
     2
  9
$LUPREC
 70
     4
  9
$SKETCHINC
 40
1.0
  9
$FILLETRAD
 40
10.0
  9
$AUNITS
 70
     0
  9
$AUPREC
 70
     0
  9
$MENU
  1
.
  9
$ELEVATION
 40
0.0
  9
$PELEVATION
 40
0.0
  9
$THICKNESS
 40
0.0
  9
$LIMCHECK
 70
     0
  9
$CHAMFERA
 40
0.0
  9
$CHAMFERB
 40
0.0
  9
$CHAMFERC
 40
0.0
  9
$CHAMFERD
 40
0.0
  9
$SKPOLY
 70
     0
  9
$TDCREATE
 40
2458675.728653843
  9
$TDUCREATE
 40
2458675.645320509
  9
$TDUPDATE
 40
2458675.728656678
  9
$TDUUPDATE
 40
2458675.645323345
  9
$TDINDWG
 40
0.0000000116
  9
$TDUSRTIMER
 40
0.0000000116
  9
$USRTIMER
 70
     1
  9
$ANGBASE
 50
0.0
  9
$ANGDIR
 70
     0
  9
$PDMODE
 70
     0
  9
$PDSIZE
 40
0.0
  9
$PLINEWID
 40
0.0
  9
$SPLFRAME
 70
     0
  9
$SPLINETYPE
 70
     6
  9
$SPLINESEGS
 70
     8
  9
$HANDSEED
  5
238
  9
$SURFTAB1
 70
     6
  9
$SURFTAB2
 70
     6
  9
$SURFTYPE
 70
     6
  9
$SURFU
 70
     6
  9
$SURFV
 70
     6
  9
$UCSBASE
  2

  9
$UCSNAME
  2

  9
$UCSORG
 10
0.0
 20
0.0
 30
0.0
  9
$UCSXDIR
 10
1.0
 20
0.0
 30
0.0
  9
$UCSYDIR
 10
0.0
 20
1.0
 30
0.0
  9
$UCSORTHOREF
  2

  9
$UCSORTHOVIEW
 70
     0
  9
$UCSORGTOP
 10
0.0
 20
0.0
 30
0.0
  9
$UCSORGBOTTOM
 10
0.0
 20
0.0
 30
0.0
  9
$UCSORGLEFT
 10
0.0
 20
0.0
 30
0.0
  9
$UCSORGRIGHT
 10
0.0
 20
0.0
 30
0.0
  9
$UCSORGFRONT
 10
0.0
 20
0.0
 30
0.0
  9
$UCSORGBACK
 10
0.0
 20
0.0
 30
0.0
  9
$PUCSBASE
  2

  9
$PUCSNAME
  2

  9
$PUCSORG
 10
0.0
 20
0.0
 30
0.0
  9
$PUCSXDIR
 10
1.0
 20
0.0
 30
0.0
  9
$PUCSYDIR
 10
0.0
 20
1.0
 30
0.0
  9
$PUCSORTHOREF
  2

  9
$PUCSORTHOVIEW
 70
     0
  9
$PUCSORGTOP
 10
0.0
 20
0.0
 30
0.0
  9
$PUCSORGBOTTOM
 10
0.0
 20
0.0
 30
0.0
  9
$PUCSORGLEFT
 10
0.0
 20
0.0
 30
0.0
  9
$PUCSORGRIGHT
 10
0.0
 20
0.0
 30
0.0
  9
$PUCSORGFRONT
 10
0.0
 20
0.0
 30
0.0
  9
$PUCSORGBACK
 10
0.0
 20
0.0
 30
0.0
  9
$USERI1
 70
     0
  9
$USERI2
 70
     0
  9
$USERI3
 70
     0
  9
$USERI4
 70
     0
  9
$USERI5
 70
     0
  9
$USERR1
 40
0.0
  9
$USERR2
 40
0.0
  9
$USERR3
 40
0.0
  9
$USERR4
 40
0.0
  9
$USERR5
 40
0.0
  9
$WORLDVIEW
 70
     1
  9
$SHADEDGE
 70
     3
  9
$SHADEDIF
 70
    70
  9
$TILEMODE
 70
     1
  9
$MAXACTVP
 70
    64
  9
$PINSBASE
 10
0.0
 20
0.0
 30
0.0
  9
$PLIMCHECK
 70
     0
  9
$PEXTMIN
 10
1.000000E+20
 20
1.000000E+20
 30
1.000000E+20
  9
$PEXTMAX
 10
-1.000000E+20
 20
-1.000000E+20
 30
-1.000000E+20
  9
$PLIMMIN
 10
0.0
 20
0.0
  9
$PLIMMAX
 10
420.0
 20
297.0
  9
$UNITMODE
 70
     0
  9
$VISRETAIN
 70
     1
  9
$PLINEGEN
 70
     0
  9
$PSLTSCALE
 70
     1
  9
$TREEDEPTH
 70
  3020
  9
$CMLSTYLE
  2
Standard
  9
$CMLJUST
 70
     0
  9
$CMLSCALE
 40
20.0
  9
$PROXYGRAPHICS
 70
     1
  9
$MEASUREMENT
 70
     1
  9
$CELWEIGHT
370
    -1
  9
$ENDCAPS
280
     0
  9
$JOINSTYLE
280
     0
  9
$LWDISPLAY
290
     0
  9
$INSUNITS
 70
     4
  9
$HYPERLINKBASE
  1

  9
$STYLESHEET
  1

  9
$XEDIT
290
     1
  9
$CEPSNTYPE
380
     0
  9
$PSTYLEMODE
290
     1
  9
$FINGERPRINTGUID
  2
{05F4834D-70DD-4C91-9B63-3FE1216562D7}
  9
$VERSIONGUID
  2
{FAEB1C32-E019-11D5-929B-00C0DF256EC4}
  9
$EXTNAMES
290
     1
  9
$PSVPSCALE
 40
0.0
  9
$OLESTARTUP
290
     0
  9
$SORTENTS
280
   127
  9
$INDEXCTL
280
     0
  9
$HIDETEXT
280
     1
  9
$XCLIPFRAME
280
     2
  9
$HALOGAP
280
     0
  9
$OBSCOLOR
 70
   257
  9
$OBSLTYPE
280
     0
  9
$INTERSECTIONDISPLAY
280
     0
  9
$INTERSECTIONCOLOR
 70
   257
  9
$DIMASSOC
280
     2
  9
$PROJECTNAME
  1

  9
$CAMERADISPLAY
290
     0
  9
$LENSLENGTH
 40
50.0
  9
$CAMERAHEIGHT
 40
0.0
  9
$STEPSPERSEC
 40
2.0
  9
$STEPSIZE
 40
6.0
  9
$3DDWFPREC
 40
2.0
  9
$PSOLWIDTH
 40
5.0
  9
$PSOLHEIGHT
 40
80.0
  9
$LOFTANG1
 40
1.570796
  9
$LOFTANG2
 40
1.570796
  9
$LOFTMAG1
 40
0.0
  9
$LOFTMAG2
 40
0.0
  9
$LOFTPARAM
 70
     7
  9
$LOFTNORMALS
280
     1
  9
$LATITUDE
 40
37.795
  9
$LONGITUDE
 40
-122.394
  9
$NORTHDIRECTION
 40
0.0
  9
$TIMEZONE
 70
 -8000
  9
$LIGHTGLYPHDISPLAY
280
     1
  9
$TILEMODELIGHTSYNCH
280
     1
  9
$CMATERIAL
347
44
  9
$SOLIDHIST
280
     0
  9
$SHOWHIST
280
     1
  9
$DWFFRAME
280
     2
  9
$DGNFRAME
280
     2
  9
$REALWORLDSCALE
290
     1
  9
$INTERFERECOLOR
 62
   256
  9
$CSHADOW
280
     0
  9
$SHADOWPLANELOCATION
 40
0.0
  0
ENDSEC
  0
SECTION
  2
CLASSES
  0
CLASS
  1
ACDBDICTIONARYWDFLT
  2
AcDbDictionaryWithDefault
  3
ObjectDBX Classes
 90
        0
 91
        4
280
     0
281
     0
  0
CLASS
  1
VISUALSTYLE
  2
AcDbVisualStyle
  3
ObjectDBX Classes
 90
     4095
 91
        4
280
     0
281
     0
  0
CLASS
  1
MATERIAL
  2
AcDbMaterial
  3
ObjectDBX Classes
 90
     1153
 91
        4
280
     0
281
     0
  0
CLASS
  1
SCALE
  2
AcDbScale
  3
ObjectDBX Classes
 90
     1153
 91
        4
280
     0
281
     0
  0
CLASS
  1
TABLESTYLE
  2
AcDbTableStyle
  3
ObjectDBX Classes
 90
     4095
 91
        4
280
     0
281
     0
  0
CLASS
  1
MLEADERSTYLE
  2
AcDbMLeaderStyle
  3
ACDB_MLEADERSTYLE_CLASS
 90
     4095
 91
        4
280
     0
281
     0
  0
CLASS
  1
SUN
  2
AcDbSun
  3
SCENEOE
 90
     1153
 91
        4
280
     0
281
     0
  0
CLASS
  1
DICTIONARYVAR
  2
AcDbDictionaryVar
  3
ObjectDBX Classes
 90
        0
 91
        4
280
     0
281
     0
  0
CLASS
  1
CELLSTYLEMAP
  2
AcDbCellStyleMap
  3
ObjectDBX Classes
 90
     1152
 91
        4
280
     0
281
     0
  0
ENDSEC
  0
SECTION
  2
TABLES
  0
TABLE
  2
VPORT
  5
8
330
0
100
AcDbSymbolTable
 70
     1
  0
VPORT
  5
29
330
8
100
AcDbSymbolTableRecord
100
AcDbViewportTableRecord
  2
*Active
 70
     0
 10
0.0
 20
0.0
 11
1.0
 21
1.0
 12
344.186916
 22
148.5
 13
0.0
 23
0.0
 14
10.0
 24
10.0
 15
10.0
 25
10.0
 16
0.0
 26
0.0
 36
1.0
 17
0.0
 27
0.0
 37
0.0
 40
297.0
 41
1.972973
 42
50.0
 43
0.0
 44
0.0
 50
0.0
 51
0.0
 71
     0
 72
   100
 73
     1
 74
     3
 75
     0
 76
     0
 77
     0
 78
     0
281
     0
 65
     1
110
0.0
120
0.0
130
0.0
111
1.0
121
0.0
131
0.0
112
0.0
122
1.0
132
0.0
 79
     0
146
0.0
348
2F
 60
     3
 61
     5
292
     1
282
     1
141
0.0
142
0.0
 63
   250
361
6D
  0
ENDTAB
  0
TABLE
  2
LTYPE
  5
5
330
0
100
AcDbSymbolTable
 70
     1
  0
LTYPE
  5
14
330
5
100
AcDbSymbolTableRecord
100
AcDbLinetypeTableRecord
  2
ByBlock
 70
     0
  3

 72
    65
 73
     0
 40
0.0
  0
LTYPE
  5
15
330
5
100
AcDbSymbolTableRecord
100
AcDbLinetypeTableRecord
  2
ByLayer
 70
     0
  3

 72
    65
 73
     0
 40
0.0
  0
LTYPE
  5
16
330
5
100
AcDbSymbolTableRecord
100
AcDbLinetypeTableRecord
  2
Continuous
 70
     0
  3
Solid line
 72
    65
 73
     0
 40
0.0
  0
ENDTAB
  0
TABLE
  2
LAYER
  5
2
330
0
100
AcDbSymbolTable
 70
     1
  0
LAYER
  5
10
330
2
100
AcDbSymbolTableRecord
100
AcDbLayerTableRecord
  2
0
 70
     0
 62
   106
  6
Continuous
370
     0
390
F
347
46
  0
ENDTAB
  0
TABLE
  2
STYLE
  5
3
330
0
100
AcDbSymbolTable
 70
     4
  0
STYLE
  5
11
330
3
100
AcDbSymbolTableRecord
100
AcDbTextStyleTableRecord
  2
Standard
 70
     0
 40
0.0
 41
1.0
 50
0.0
 71
     0
 42
2.5
  3
txt
  4

  0
STYLE
  5
6E
330
3
100
AcDbSymbolTableRecord
100
AcDbTextStyleTableRecord
  2
Default
 70
     0
 40
0.0
 41
1.0
 50
0.0
 71
     0
 42
2.5
  3

  4

1001
ACAD
1000
txt
1071
        0
  0
STYLE
  5
6F
330
3
100
AcDbSymbolTableRecord
100
AcDbTextStyleTableRecord
  2
ISO
 70
     0
 40
0.0
 41
1.0
 50
0.0
 71
     0
 42
2.5
  3

  4

1001
ACAD
1000
txt
1071
        0
  0
STYLE
  5
70
330
3
100
AcDbSymbolTableRecord
100
AcDbTextStyleTableRecord
  2
zucchetti
 70
     0
 40
0.0
 41
1.0
 50
0.0
 71
     0
 42
2.5
  3

  4

1001
ACAD
1000
Arial
1071
        0
  0
ENDTAB
  0
TABLE
  2
VIEW
  5
6
330
0
100
AcDbSymbolTable
 70
     0
  0
ENDTAB
  0
TABLE
  2
UCS
  5
7
330
0
100
AcDbSymbolTable
 70
     0
  0
ENDTAB
  0
TABLE
  2
APPID
  5
9
330
0
100
AcDbSymbolTable
 70
     1
  0
APPID
  5
12
330
9
100
AcDbSymbolTableRecord
100
AcDbRegAppTableRecord
  2
ACAD
 70
     0
  0
ENDTAB
  0
TABLE
  2
DIMSTYLE
  5
A
330
0
100
AcDbSymbolTable
 70
     4
100
AcDbDimStyleTable
  0
DIMSTYLE
105
27
330
A
100
AcDbSymbolTableRecord
100
AcDbDimStyleTableRecord
  2
ISO-25
 70
     0
 41
2.5
 42
0.625
 43
3.75
 44
1.25
 73
     0
 74
     0
 77
     1
 78
     8
140
2.5
141
2.5
143
0.03937
147
0.625
171
     3
172
     1
178
     0
271
     2
272
     2
274
     3
278
    44
283
     0
284
     8
340
11
  0
DIMSTYLE
105
71
330
A
100
AcDbSymbolTableRecord
100
AcDbDimStyleTableRecord
  2
Default
 70
     0
  3
<>
 41
4.375
 42
1.05
 44
2.1
 49
10.01
 73
     0
 74
     0
 77
     1
 78
     8
140
3.5
146
0.4
147
1.75
172
     1
271
     2
178
     3
271
     2
272
     3
284
     8
340
6E
341
72
342
72
  0
DIMSTYLE
105
79
330
A
100
AcDbSymbolTableRecord
100
AcDbDimStyleTableRecord
  2
ISO
 70
     0
  3
<>
 41
4.375
 42
1.05
 44
2.1
 49
10.01
 73
     0
 74
     0
 77
     1
 78
     8
140
3.5
146
0.4
147
1.75
172
     1
271
     2
178
     3
271
     2
272
     3
284
     8
340
6F
341
72
342
72
  0
DIMSTYLE
105
7A
330
A
100
AcDbSymbolTableRecord
100
AcDbDimStyleTableRecord
  2
zucchetti
 70
     0
  3
<>
 41
3.0
 42
0.9
 44
1.8
 49
8.58
 73
     0
 74
     0
 77
     1
 78
     8
140
3.0
146
0.6
147
1.5
172
     1
176
     3
177
     3
271
     2
178
     3
271
     2
272
     2
284
     8
340
70
  0
ENDTAB
  0
TABLE
  2
BLOCK_RECORD
  5
1
330
0
100
AcDbSymbolTable
 70
     6
  0
BLOCK_RECORD
  5
1F
330
1
100
AcDbSymbolTableRecord
100
AcDbBlockTableRecord
  2
*Model_Space
340
22
 70
     0
280
     1
281
     0
  0
BLOCK_RECORD
  5
1B
330
1
100
AcDbSymbolTableRecord
100
AcDbBlockTableRecord
  2
*Paper_Space
340
1E
 70
     0
280
     1
281
     0
  0
BLOCK_RECORD
  5
23
330
1
100
AcDbSymbolTableRecord
100
AcDbBlockTableRecord
  2
*Paper_Space0
340
26
 70
     0
280
     1
281
     0
  0
BLOCK_RECORD
  5
72
330
1
100
AcDbSymbolTableRecord
100
AcDbBlockTableRecord
  2
_CLOSED
340
0
 70
     0
280
     1
281
     0
  0
BLOCK_RECORD
  5
7B
330
1
100
AcDbSymbolTableRecord
100
AcDbBlockTableRecord
  2
a
340
0
102
{BLKREFS
331
E3
102
}
 70
     0
280
     1
281
     0
  0
BLOCK_RECORD
  5
E4
330
1
100
AcDbSymbolTableRecord
100
AcDbBlockTableRecord
  2
b
340
0
102
{BLKREFS
331
133
102
}
 70
     0
280
     1
281
     0
  0
BLOCK_RECORD
  5
134
330
1
100
AcDbSymbolTableRecord
100
AcDbBlockTableRecord
  2
c
340
0
102
{BLKREFS
331
19B
102
}
 70
     0
280
     1
281
     0
  0
BLOCK_RECORD
  5
19C
330
1
100
AcDbSymbolTableRecord
100
AcDbBlockTableRecord
  2
d
340
0
102
{BLKREFS
331
1FE
102
}
 70
     0
280
     1
281
     0
  0
ENDTAB
  0
ENDSEC
  0
SECTION
  2
BLOCKS
  0
BLOCK
  5
20
330
1F
100
AcDbEntity
  8
0
100
AcDbBlockBegin
  2
*Model_Space
 70
     0
 10
0.0
 20
0.0
 30
0.0
  3
*Model_Space
  1

  0
ENDBLK
  5
21
330
1F
100
AcDbEntity
  8
0
100
AcDbBlockEnd
  0
BLOCK
  5
1C
330
1B
100
AcDbEntity
 67
     1
  8
0
100
AcDbBlockBegin
  2
*Paper_Space
 70
     0
 10
0.0
 20
0.0
 30
0.0
  3
*Paper_Space
  1

  0
ENDBLK
  5
1D
330
1B
100
AcDbEntity
 67
     1
  8
0
100
AcDbBlockEnd
  0
BLOCK
  5
24
330
23
100
AcDbEntity
  8
0
100
AcDbBlockBegin
  2
*Paper_Space0
 70
     0
 10
0.0
 20
0.0
 30
0.0
  3
*Paper_Space0
  1

  0
ENDBLK
  5
25
330
23
100
AcDbEntity
  8
0
100
AcDbBlockEnd
  0
BLOCK
  5
73
330
72
100
AcDbEntity
  8
0
100
AcDbBlockBegin
  2
_CLOSED
 70
     0
 10
0.0
 20
0.0
 30
0.0
  3
_CLOSED
  1

  0
LINE
  5
75
330
72
100
AcDbEntity
  8
0
  6
ByBlock
 62
     0
370
    -2
100
AcDbLine
 10
-1.0
 20
0.166667
 30
0.0
 11
0.0
 21
0.0
 31
0.0
  0
LINE
  5
76
330
72
100
AcDbEntity
  8
0
  6
ByBlock
 62
     0
370
    -2
100
AcDbLine
 10
0.0
 20
0.0
 30
0.0
 11
-1.0
 21
-0.166667
 31
0.0
  0
LINE
  5
77
330
72
100
AcDbEntity
  8
0
  6
ByBlock
 62
     0
370
    -2
100
AcDbLine
 10
-1.0
 20
0.166667
 30
0.0
 11
-1.0
 21
-0.166667
 31
0.0
  0
LINE
  5
78
330
72
100
AcDbEntity
  8
0
  6
ByBlock
 62
     0
370
    -2
100
AcDbLine
 10
0.0
 20
0.0
 30
0.0
 11
-1.0
 21
0.0
 31
0.0
  0
ENDBLK
  5
74
330
72
100
AcDbEntity
  8
0
100
AcDbBlockEnd
  0
BLOCK
  5
E1
330
7B
100
AcDbEntity
  8
0
100
AcDbBlockBegin
  2
a
 70
     0
 10
267.170837
 20
87.328545
 30
0.0
  3
a
  1

  0
LINE
  5
7C
330
7B
100
AcDbEntity
  8
0
  6
Continuous
 62
     0
370
    30
100
AcDbLine
 10
375.990421
 20
561.107963
 30
0.0
 11
375.990421
 21
501.107963
 31
0.0
  0
LINE
  5
7D
330
7B
100
AcDbEntity
  8
0
  6
Continuous
 62
     0
370
    30
100
AcDbLine
 10
315.990421
 20
561.107963
 30
0.0
 11
375.990421
 21
561.107963
 31
0.0
  0
LINE
  5
7E
330
7B
100
AcDbEntity
  8
0
  6
Continuous
 62
     0
370
    30
100
AcDbLine
 10
315.990421
 20
501.107963
 30
0.0
 11
315.990421
 21
561.107963
 31
0.0
  0
LINE
  5
7F
330
7B
100
AcDbEntity
  8
0
  6
Continuous
 62
     0
370
    30
100
AcDbLine
 10
341.440266
 20
501.107963
 30
0.0
 11
315.990421
 21
501.107963
 31
0.0
  0
LINE
  5
80
330
7B
100
AcDbEntity
  8
0
  6
Continuous
 62
     0
370
    30
100
AcDbLine
 10
375.990421
 20
501.107963
 30
0.0
 11
350.48887
 21
501.107963
 31
0.0
  0
LWPOLYLINE
  5
81
330
7B
100
AcDbEntity
  8
0
  6
Continuous
 62
     0
370
     0
100
AcDbPolyline
 90
        2
 70
     0
 43
0.0
 10
346.002106
 20
544.692017
 10
346.002075
 20
544.655334
  0
LWPOLYLINE
  5
82
330
7B
100
AcDbEntity
  8
0
  6
Continuous
 62
     0
370
    30
100
AcDbPolyline
 90
       40
 70
     0
 43
0.0
 10
346.002075
 20
544.655334
 10
345.027802
 20
544.616943
 10
344.057983
 20
544.50177
 10
343.099213
 20
544.312317
 10
342.157928
 20
544.051086
 10
341.239258
 20
543.720825
 10
340.347992
 20
543.324219
 10
339.488831
 20
542.863831
 10
338.665955
 20
542.341919
 10
337.883789
 20
541.760437
 10
337.14743
 20
541.121948
 10
336.461853
 20
540.429382
 10
335.830841
 20
539.686707
 10
335.256042
 20
538.898865
 10
334.738983
 20
538.071167
 10
334.281189
 20
537.20874
 10
333.884247
 20
536.316956
 10
333.549683
 20
535.400269
 10
333.278992
 20
534.462769
 10
333.073608
 20
533.508606
 10
332.935364
 20
532.542297
 10
332.866272
 20
531.568848
 10
332.868225
 20
530.593018
 10
332.941162
 20
529.619751
 10
333.083069
 20
528.654053
 10
333.291992
 20
527.700684
 10
333.566162
 20
526.76416
 10
333.904114
 20
525.848694
 10
334.304352
 20
524.958313
 10
334.76535
 20
524.097656
 10
335.285614
 20
523.271973
 10
335.863525
 20
522.486511
 10
336.49762
 20
521.746521
 10
337.186157
 20
521.056885
 10
337.925201
 20
520.421509
 10
338.709747
 20
519.843262
 10
339.534729
 20
519.324707
 10
340.395782
 20
518.867737
 10
341.288696
 20
518.47467
 10
342.230072
 20
518.141479
  0
LWPOLYLINE
  5
83
330
7B
100
AcDbEntity
  8
0
  6
Continuous
 62
     0
370
    30
100
AcDbPolyline
 90
       40
 70
     0
 43
0.0
 10
346.002075
 20
544.655334
 10
346.976288
 20
544.615234
 10
347.945923
 20
544.498413
 10
348.904358
 20
544.307312
 10
349.845184
 20
544.044495
 10
350.763275
 20
543.712646
 10
351.65387
 20
543.314453
 10
352.512238
 20
542.852661
 10
353.334198
 20
542.329285
 10
354.115356
 20
541.746521
 10
354.850616
 20
541.106689
 10
355.535004
 20
540.412964
 10
356.164734
 20
539.669189
 10
356.73819
 20
538.880432
 10
357.253845
 20
538.051758
 10
357.710144
 20
537.188599
 10
358.10553
 20
536.296082
 10
358.438507
 20
535.378845
 10
358.707611
 20
534.440857
 10
358.911346
 20
533.486328
 10
359.047943
 20
532.519836
 10
359.115356
 20
531.546265
 10
359.111694
 20
530.570435
 10
359.037109
 20
529.597351
 10
358.893524
 20
528.631836
 10
358.682953
 20
527.678833
 10
358.407166
 20
526.742798
 10
358.067657
 20
525.827881
 10
357.665894
 20
524.938232
 10
357.2034
 20
524.078369
 10
356.681732
 20
523.253601
 10
356.102478
 20
522.469116
 10
355.467102
 20
521.730225
 10
354.777374
 20
521.041748
 10
354.037231
 20
520.407593
 10
353.251709
 20
519.83075
 10
352.425812
 20
519.313599
 10
351.563965
 20
518.858154
 10
350.67038
 20
518.466614
 10
349.728455
 20
518.135071
  0
LINE
  5
84
330
7B
100
AcDbEntity
  8
0
  6
Continuous
 62
     0
370
     0
100
AcDbLine
 10
345.998538
 20
540.541691
 30
0.0
 11
346.002073
 21
544.655327
 31
0.0
  0
LWPOLYLINE
  5
85
330
7B
100
AcDbEntity
  8
0
  6
Continuous
 62
     0
370
    30
100
AcDbPolyline
 90
       13
 70
     0
 43
0.0
 10
350.433105
 20
502.305908
 10
350.535187
 20
500.110413
 10
350.636627
 20
497.915558
 10
350.737671
 20
495.721283
 10
350.839447
 20
493.527618
 10
350.942993
 20
491.334473
 10
351.048035
 20
489.141693
 10
351.154236
 20
486.949127
 10
351.260529
 20
484.756683
 10
351.373596
 20
482.565857
 10
351.479126
 20
480.373932
 10
351.573456
 20
478.177948
 10
351.713593
 20
475.806244
  0
LWPOLYLINE
  5
86
330
7B
100
AcDbEntity
  8
0
  6
Continuous
 62
     0
370
    30
100
AcDbPolyline
 90
        7
 70
     0
 43
0.0
 10
349.735046
 20
517.854858
 10
349.741486
 20
517.525635
 10
349.748657
 20
517.206421
 10
349.762604
 20
516.882446
 10
349.786072
 20
516.436768
 10
349.895966
 20
514.386169
 10
350.009918
 20
511.615051
  0
LINE
  5
87
330
7B
100
AcDbEntity
  8
0
  6
Continuous
 62
     0
370
     0
100
AcDbLine
 10
345.99854
 20
540.541691
 30
0.0
 11
345.998077
 21
540.004494
 31
0.0
  0
LWPOLYLINE
  5
88
330
7B
100
AcDbEntity
  8
0
  6
Continuous
 62
     0
370
    30
100
AcDbPolyline
 90
       23
 70
     0
 43
0.0
 10
345.998077
 20
540.004517
 10
346.772003
 20
539.965576
 10
347.540833
 20
539.849976
 10
348.296356
 20
539.661438
 10
349.029846
 20
539.404175
 10
349.735046
 20
539.081238
 10
350.40683
 20
538.695068
 10
351.039917
 20
538.248474
 10
351.629059
 20
537.745239
 10
352.168976
 20
537.190125
 10
352.654572
 20
536.587769
 10
353.082947
 20
535.943726
 10
353.453156
 20
535.26416
 10
353.764282
 20
534.555298
 10
354.014984
 20
533.822998
 10
354.203369
 20
533.072693
 10
354.327515
 20
532.309814
 10
354.385315
 20
531.53949
 10
354.374695
 20
530.766846
 10
354.295746
 20
529.997803
 10
354.150299
 20
529.238403
 10
353.941223
 20
528.493225
 10
353.663971
 20
527.758484
  0
ARC
  5
89
330
7B
100
AcDbEntity
  8
0
  6
Continuous
 62
     0
370
    30
100
AcDbCircle
 10
345.544992
 20
531.192837
 30
0.0
 40
8.815473480454362
100
AcDbArc
 50
321.214036
 51
337.071565
  0
ARC
  5
8A
330
7B
100
AcDbEntity
  8
0
  6
Continuous
 62
     0
370
    30
100
AcDbCircle
 10
356.942037
 20
531.564416
 30
0.0
 40
7.430715894198484
100
AcDbArc
 50
232.481283
 51
235.927004
  0
ARC
  5
8B
330
7B
100
AcDbEntity
  8
0
  6
Continuous
 62
     0
370
    30
100
AcDbCircle
 10
335.039607
 20
531.583264
 30
0.0
 40
7.430715870912193
100
AcDbArc
 50
303.974384
 51
307.420105
  0
ARC
  5
8C
330
7B
100
AcDbEntity
  8
0
  6
Continuous
 62
     0
370
    30
100
AcDbCircle
 10
346.436081
 20
531.192127
 30
0.0
 40
8.81557621133712
100
AcDbArc
 50
202.826247
 51
218.687297
  0
LWPOLYLINE
  5
8D
330
7B
100
AcDbEntity
  8
0
  6
Continuous
 62
     0
370
    30
100
AcDbPolyline
 90
       23
 70
     0
 43
0.0
 10
345.998077
 20
540.004517
 10
345.224121
 20
539.966919
 10
344.455109
 20
539.852661
 10
343.69928
 20
539.665405
 10
342.965393
 20
539.409424
 10
342.259644
 20
539.087708
 10
341.587219
 20
538.702759
 10
340.9534
 20
538.257263
 10
340.363373
 20
537.755127
 10
339.822479
 20
537.200928
 10
339.335876
 20
536.599487
 10
338.906403
 20
535.956177
 10
338.535004
 20
535.277344
 10
338.222626
 20
534.569031
 10
337.970642
 20
533.837219
 10
337.780945
 20
533.087219
 10
337.655487
 20
532.324585
 10
337.596313
 20
531.554443
 10
337.60553
 20
530.781738
 10
337.683105
 20
530.012634
 10
337.82724
 20
529.252991
 10
338.034912
 20
528.507446
 10
338.310883
 20
527.772217
  0
LWPOLYLINE
  5
8E
330
7B
100
AcDbEntity
  8
0
  6
Continuous
 62
     0
370
    30
100
AcDbPolyline
 90
       13
 70
     0
 43
0.0
 10
352.416565
 20
525.670715
 10
351.9375
 20
525.123901
 10
351.452484
 20
524.582458
 10
350.988647
 20
524.023376
 10
350.564941
 20
523.432983
 10
350.193634
 20
522.807312
 10
349.882141
 20
522.148865
 10
349.634186
 20
521.463806
 10
349.450226
 20
520.75946
 10
349.327179
 20
520.042603
 10
349.258179
 20
519.318726
 10
349.232239
 20
518.59198
 10
349.235962
 20
517.810486
  0
LWPOLYLINE
  5
8F
330
7B
100
AcDbEntity
  8
0
  6
Continuous
 62
     0
370
     0
100
AcDbPolyline
 90
        5
 70
     0
 43
0.0
 10
349.235962
 20
517.810486
 10
349.427368
 20
517.813904
 10
349.588928
 20
517.823486
 10
349.697235
 20
517.83783
 10
349.73584
 20
517.854858
  0
LWPOLYLINE
  5
90
330
7B
100
AcDbEntity
  8
0
  6
Continuous
 62
     0
370
     0
100
AcDbPolyline
 90
        5
 70
     0
 43
0.0
 10
351.220551
 20
475.820496
 10
351.397461
 20
475.8255
 10
351.550903
 20
475.826111
 10
351.66095
 20
475.822296
 10
351.715149
 20
475.813446
  0
LWPOLYLINE
  5
91
330
7B
100
AcDbEntity
  8
0
  6
Continuous
 62
     0
370
     0
100
AcDbPolyline
 90
       20
 70
     0
 43
0.0
 10
349.235962
 20
517.810486
 10
349.33316
 20
515.601929
 10
349.432007
 20
513.396362
 10
349.532349
 20
511.188873
 10
349.631622
 20
508.980469
 10
349.730713
 20
506.772461
 10
349.831421
 20
504.565582
 10
349.933502
 20
502.359955
 10
350.036133
 20
500.155365
 10
350.138824
 20
497.951385
 10
350.241486
 20
495.747498
 10
350.344543
 20
493.543488
 10
350.448425
 20
491.339386
 10
350.553436
 20
489.135773
 10
350.659424
 20
486.933319
 10
350.7659
 20
484.732697
 10
350.87265
 20
482.533661
 10
350.983643
 20
480.33371
 10
351.091003
 20
478.127441
 10
351.220551
 20
475.820496
  0
LINE
  5
92
330
7B
100
AcDbEntity
  8
0
  6
Continuous
 62
     0
370
     0
100
AcDbLine
 10
340.674204
 20
475.826291
 30
0.0
 11
351.220557
 21
475.820487
 31
0.0
  0
LINE
  5
93
330
7B
100
AcDbEntity
  8
0
  6
Continuous
 62
     0
370
     0
100
AcDbLine
 10
353.663972
 20
527.758497
 30
0.0
 11
338.310894
 21
527.772233
 31
0.0
  0
LWPOLYLINE
  5
94
330
7B
100
AcDbEntity
  8
0
  6
Continuous
 62
     0
370
    30
100
AcDbPolyline
 90
       13
 70
     0
 43
0.0
 10
339.554901
 20
525.681763
 10
340.037994
 20
525.128479
 10
340.517517
 20
524.591309
 10
340.980927
 20
524.030762
 10
341.403778
 20
523.439209
 10
341.773621
 20
522.813232
 10
342.083344
 20
522.155457
 10
342.329681
 20
521.471375
 10
342.51236
 20
520.767578
 10
342.634308
 20
520.050598
 10
342.702301
 20
519.326416
 10
342.726837
 20
518.599365
 10
342.72171
 20
517.816101
  0
LWPOLYLINE
  5
95
330
7B
100
AcDbEntity
  8
0
  6
Continuous
 62
     0
370
     0
100
AcDbPolyline
 90
       25
 70
     0
 43
0.0
 10
342.72171
 20
517.816101
 10
342.67157
 20
516.065247
 10
342.582672
 20
514.315674
 10
342.487335
 20
512.566345
 10
342.397888
 20
510.816742
 10
342.314514
 20
509.067017
 10
342.233643
 20
507.317383
 10
342.152863
 20
505.568054
 10
342.07077
 20
503.819122
 10
341.987488
 20
502.070648
 10
341.903381
 20
500.322632
 10
341.818787
 20
498.575073
 10
341.734192
 20
496.827942
 10
341.649933
 20
495.081177
 10
341.565735
 20
493.334717
 10
341.481262
 20
491.588562
 10
341.396454
 20
489.842621
 10
341.311188
 20
488.096863
 10
341.224884
 20
486.351196
 10
341.13446
 20
484.605743
 10
341.039642
 20
482.860413
 10
340.955627
 20
481.11441
 10
340.888763
 20
479.367371
 10
340.794525
 20
477.621429
 10
340.674194
 20
475.826294
  0
LWPOLYLINE
  5
96
330
7B
100
AcDbEntity
  8
0
  6
Continuous
 62
     0
370
     0
100
AcDbPolyline
 90
        5
 70
     0
 43
0.0
 10
340.171539
 20
475.817627
 10
340.209717
 20
475.826996
 10
340.317566
 20
475.832001
 10
340.479706
 20
475.831757
 10
340.674164
 20
475.826294
  0
LWPOLYLINE
  5
97
330
7B
100
AcDbEntity
  8
0
  6
Continuous
 62
     0
370
     0
100
AcDbPolyline
 90
        6
 70
     0
 43
0.0
 10
340.674042
 20
475.826294
 10
340.673828
 20
475.663025
 10
340.67334
 20
475.513916
 10
340.672607
 20
475.395172
 10
340.671692
 20
475.320465
 10
340.670624
 20
475.298309
  0
ARC
  5
98
330
7B
100
AcDbEntity
  8
0
  6
Continuous
 62
     0
370
     0
100
AcDbCircle
 10
331.130229
 20
475.686286
 30
0.0
 40
20.09012155103176
100
AcDbArc
 50
358.87678
 51
0.382668
  0
ARC
  5
99
330
7B
100
AcDbEntity
  8
0
  6
Continuous
 62
     0
370
    30
100
AcDbCircle
 10
351.216979
 20
475.791939
 30
0.0
 40
0.4999244291873345
100
AcDbArc
 50
269.964688
 51
1.88741
  0
LINE
  5
9A
330
7B
100
AcDbEntity
  8
0
  6
Continuous
 62
     0
370
    30
100
AcDbLine
 10
351.216646
 20
475.291771
 30
0.0
 11
340.670779
 21
475.297607
 31
0.0
  0
ARC
  5
9B
330
7B
100
AcDbEntity
  8
0
  6
Continuous
 62
     0
370
    30
100
AcDbCircle
 10
340.670874
 20
475.797654
 30
0.0
 40
0.4998034305685634
100
AcDbArc
 50
177.709046
 51
269.991814
  0
LWPOLYLINE
  5
9C
330
7B
100
AcDbEntity
  8
0
  6
Continuous
 62
     0
370
    30
100
AcDbPolyline
 90
       17
 70
     0
 43
0.0
 10
340.171539
 20
475.817657
 10
340.32901
 20
478.435242
 10
340.448273
 20
481.054047
 10
340.57608
 20
483.67218
 10
340.716522
 20
486.289459
 10
340.851959
 20
488.906921
 10
340.980927
 20
491.524872
 10
341.106323
 20
494.143433
 10
341.230988
 20
496.762695
 10
341.356903
 20
499.382751
 10
341.483521
 20
502.003723
 10
341.609375
 20
504.625641
 10
341.732758
 20
507.248566
 10
341.853394
 20
509.872314
 10
341.974182
 20
512.49646
 10
342.100494
 20
515.120422
 10
342.222168
 20
517.861206
  0
LWPOLYLINE
  5
9D
330
7B
100
AcDbEntity
  8
0
  6
Continuous
 62
     0
370
    30
100
AcDbPolyline
 90
       15
 70
     0
 43
0.0
 10
339.192047
 20
525.420837
 10
339.589172
 20
524.968323
 10
339.995392
 20
524.523499
 10
340.392395
 20
524.070312
 10
340.767181
 20
523.598572
 10
341.109467
 20
523.102722
 10
341.411377
 20
522.581055
 10
341.668152
 20
522.035767
 10
341.876862
 20
521.470337
 10
342.036072
 20
520.888977
 10
342.146423
 20
520.296753
 10
342.210571
 20
519.700867
 10
342.237518
 20
519.09906
 10
342.23764
 20
518.496521
 10
342.222198
 20
517.861328
  0
LWPOLYLINE
  5
9E
330
7B
100
AcDbEntity
  8
0
  6
Continuous
 62
     0
370
    30
100
AcDbPolyline
 90
       24
 70
     0
 43
0.0
 10
350.638489
 20
497.857391
 10
350.597717
 20
498.7258
 10
350.557312
 20
499.59433
 10
350.517212
 20
500.462952
 10
350.477386
 20
501.331696
 10
350.437866
 20
502.200531
 10
350.398621
 20
503.069489
 10
350.359589
 20
503.938568
 10
350.320648
 20
504.807709
 10
350.281647
 20
505.676971
 10
350.242432
 20
506.546326
 10
350.20282
 20
507.41571
 10
350.162872
 20
508.285187
 10
350.122589
 20
509.154694
 10
350.082153
 20
510.024261
 10
350.042297
 20
510.89386
 10
350.00412
 20
511.76358
 10
349.968414
 20
512.633423
 10
349.933685
 20
513.503296
 10
349.897095
 20
514.373108
 10
349.854401
 20
515.242554
 10
349.80542
 20
516.111694
 10
349.75882
 20
516.980957
 10
349.73584
 20
517.854858
  0
LWPOLYLINE
  5
9F
330
7B
100
AcDbEntity
  8
0
  6
Continuous
 62
     0
370
    30
100
AcDbPolyline
 90
       16
 70
     0
 43
0.0
 10
349.73584
 20
517.854858
 10
349.722595
 20
518.416931
 10
349.720734
 20
518.979004
 10
349.740326
 20
519.540649
 10
349.790161
 20
520.09967
 10
349.878082
 20
520.652283
 10
350.007935
 20
521.199341
 10
350.180878
 20
521.734375
 10
350.396698
 20
522.253601
 10
350.65332
 20
522.753967
 10
350.947968
 20
523.232727
 10
351.276215
 20
523.688965
 10
351.630951
 20
524.124939
 10
352.00354
 20
524.545776
 10
352.383575
 20
524.959717
 10
352.778992
 20
525.40918
  0
LWPOLYLINE
  5
A0
330
7B
100
AcDbEntity
  8
0
  6
Continuous
 62
     0
370
    30
100
AcDbPolyline
 90
       16
 70
     0
 43
0.0
 10
345.998535
 20
540.541687
 10
345.321655
 20
540.502197
 10
344.650269
 20
540.405579
 10
343.989594
 20
540.254211
 10
343.343445
 20
540.050598
 10
342.715363
 20
539.797485
 10
342.108795
 20
539.496826
 10
341.527283
 20
539.150635
 10
340.974274
 20
538.760864
 10
340.453278
 20
538.329346
 10
339.967438
 20
537.858643
 10
339.51947
 20
537.351746
 10
339.111084
 20
536.812317
 10
338.743195
 20
536.243958
 10
338.415985
 20
535.650574
 10
338.122314
 20
535.018066
  0
LWPOLYLINE
  5
A1
330
7B
100
AcDbEntity
  8
0
  6
Continuous
 62
     0
370
    30
100
AcDbPolyline
 90
       14
 70
     0
 43
0.0
 10
339.192047
 20
525.420898
 10
338.754761
 20
526.058167
 10
338.374695
 20
526.731079
 10
338.052399
 20
527.433167
 10
337.788025
 20
528.158875
 10
337.582123
 20
528.903076
 10
337.43573
 20
529.66095
 10
337.349884
 20
530.427979
 10
337.325287
 20
531.199341
 10
337.36203
 20
531.970337
 10
337.459137
 20
532.736389
 10
337.615662
 20
533.494263
 10
337.829926
 20
534.238953
 10
338.122375
 20
535.018066
  0
LWPOLYLINE
  5
A2
330
7B
100
AcDbEntity
  8
0
  6
Continuous
 62
     0
370
    30
100
AcDbPolyline
 90
       16
 70
     0
 43
0.0
 10
345.998535
 20
540.541687
 10
346.675354
 20
540.501038
 10
347.346558
 20
540.403259
 10
348.006989
 20
540.250732
 10
348.652771
 20
540.046082
 10
349.280426
 20
539.791809
 10
349.886475
 20
539.490112
 10
350.467407
 20
539.142944
 10
351.019745
 20
538.752197
 10
351.540009
 20
538.319824
 10
352.025024
 20
537.848267
 10
352.472107
 20
537.340637
 10
352.879547
 20
536.800476
 10
353.24649
 20
536.231506
 10
353.572662
 20
535.637512
 10
353.865234
 20
535.004517
  0
LWPOLYLINE
  5
A3
330
7B
100
AcDbEntity
  8
0
  6
Continuous
 62
     0
370
    30
100
AcDbPolyline
 90
       14
 70
     0
 43
0.0
 10
352.778992
 20
525.40918
 10
353.217377
 20
526.045715
 10
353.598602
 20
526.718018
 10
353.922119
 20
527.419556
 10
354.187744
 20
528.144775
 10
354.394928
 20
528.888611
 10
354.542603
 20
529.64624
 10
354.629791
 20
530.413086
 10
354.655701
 20
531.184448
 10
354.62027
 20
531.955444
 10
354.524506
 20
532.72168
 10
354.369293
 20
533.479858
 10
354.156311
 20
534.224854
 10
353.865173
 20
535.004517
  0
LWPOLYLINE
  5
A4
330
7B
100
AcDbEntity
  8
0
  6
Continuous
 62
     0
370
    30
100
AcDbPolyline
 90
        3
 70
     0
 43
0.0
 10
342.548187
 20
513.685547
 10
342.588928
 20
514.618774
 10
342.713806
 20
517.408936
  0
LWPOLYLINE
  5
A5
330
7B
100
AcDbEntity
  8
0
  6
Continuous
 62
     0
370
    30
100
AcDbPolyline
 90
        8
 70
     0
 43
0.0
 10
351.885925
 20
543.19751
 10
351.113556
 20
543.566589
 10
350.31958
 20
543.887268
 10
349.506439
 20
544.157166
 10
348.677032
 20
544.373413
 10
347.835266
 20
544.535278
 10
346.984711
 20
544.641602
 10
346.002106
 20
544.692017
  0
LWPOLYLINE
  5
A6
330
7B
100
AcDbEntity
  8
0
  6
Continuous
 62
     0
370
    30
100
AcDbPolyline
 90
        4
 70
     0
 43
0.0
 10
351.866791
 20
519.009033
 10
351.288116
 20
518.72821
 10
350.696991
 20
518.474426
 10
349.728638
 20
518.127258
  0
LWPOLYLINE
  5
A7
330
7B
100
AcDbEntity
  8
0
  6
Continuous
 62
     0
370
    30
100
AcDbPolyline
 90
        8
 70
     0
 43
0.0
 10
340.115753
 20
543.207642
 10
340.888763
 20
543.575378
 10
341.683258
 20
543.894714
 10
342.496857
 20
544.163147
 10
343.32663
 20
544.378052
 10
344.168671
 20
544.538452
 10
345.019409
 20
544.643311
 10
346.002106
 20
544.692017
  0
LWPOLYLINE
  5
A8
330
7B
100
AcDbEntity
  8
0
  6
Continuous
 62
     0
370
    30
100
AcDbPolyline
 90
        4
 70
     0
 43
0.0
 10
340.093262
 20
519.019165
 10
340.671417
 20
518.737305
 10
341.262115
 20
518.482544
 10
342.229858
 20
518.133728
  0
LWPOLYLINE
  5
A9
330
7B
100
AcDbEntity
  8
0
  6
Continuous
 62
     0
370
     0
100
AcDbPolyline
 90
       55
 70
     0
 43
0.0
 10
345.990417
 20
351.818573
 10
345.505463
 20
351.818848
 10
345.254883
 20
351.819244
 10
345.071594
 20
351.819641
 10
344.923157
 20
351.820068
 10
344.797516
 20
351.820465
 10
344.688324
 20
351.820892
 10
344.591858
 20
351.82132
 10
344.505737
 20
351.821716
 10
344.428284
 20
351.822144
 10
344.358337
 20
351.822571
 10
344.294952
 20
351.822968
 10
344.237457
 20
351.823395
 10
344.185303
 20
351.823822
 10
344.138031
 20
351.824219
 10
344.095276
 20
351.824646
 10
344.056763
 20
351.825073
 10
344.022247
 20
351.8255
 10
343.991516
 20
351.825897
 10
343.964447
 20
351.826324
 10
343.940796
 20
351.826752
 10
343.920563
 20
351.827179
 10
343.903564
 20
351.827576
 10
343.88974
 20
351.828003
 10
343.879059
 20
351.82843
 10
343.87149
 20
351.828857
 10
343.866913
 20
351.829254
 10
343.865417
 20
351.829681
 10
343.866913
 20
351.830109
 10
343.871429
 20
351.830536
 10
343.878998
 20
351.830933
 10
343.889648
 20
351.83136
 10
343.903442
 20
351.831787
 10
343.92041
 20
351.832214
 10
343.940643
 20
351.832611
 10
343.964233
 20
351.833038
 10
343.991302
 20
351.833466
 10
344.022003
 20
351.833893
 10
344.056488
 20
351.83429
 10
344.094971
 20
351.834717
 10
344.137695
 20
351.835144
 10
344.184906
 20
351.835541
 10
344.23703
 20
351.835968
 10
344.294525
 20
351.836395
 10
344.357849
 20
351.836823
 10
344.427734
 20
351.837219
 10
344.505127
 20
351.837646
 10
344.591187
 20
351.838074
 10
344.687561
 20
351.83847
 10
344.796631
 20
351.838898
 10
344.92215
 20
351.839294
 10
345.070374
 20
351.839722
 10
345.253326
 20
351.840118
 10
345.503174
 20
351.840515
 10
345.990417
 20
351.84082
  0
LWPOLYLINE
  5
AA
330
7B
100
AcDbEntity
  8
0
  6
Continuous
 62
     0
370
     0
100
AcDbPolyline
 90
       55
 70
     0
 43
0.0
 10
345.990417
 20
351.84082
 10
346.475311
 20
351.840515
 10
346.725922
 20
351.840118
 10
346.90921
 20
351.839722
 10
347.057617
 20
351.839294
 10
347.183289
 20
351.838898
 10
347.29248
 20
351.83847
 10
347.388947
 20
351.838074
 10
347.475067
 20
351.837646
 10
347.552521
 20
351.837219
 10
347.622467
 20
351.836823
 10
347.685822
 20
351.836395
 10
347.743347
 20
351.835968
 10
347.795502
 20
351.835571
 10
347.842773
 20
351.835144
 10
347.885529
 20
351.834717
 10
347.924042
 20
351.83429
 10
347.958557
 20
351.833893
 10
347.989288
 20
351.833466
 10
348.016357
 20
351.833038
 10
348.040009
 20
351.832611
 10
348.060242
 20
351.832214
 10
348.07724
 20
351.831787
 10
348.091064
 20
351.83136
 10
348.101746
 20
351.830933
 10
348.109344
 20
351.830536
 10
348.113892
 20
351.830109
 10
348.115387
 20
351.829681
 10
348.113892
 20
351.829254
 10
348.109375
 20
351.828857
 10
348.101807
 20
351.82843
 10
348.091156
 20
351.828003
 10
348.077362
 20
351.827576
 10
348.060394
 20
351.827179
 10
348.040161
 20
351.826752
 10
348.016571
 20
351.826324
 10
347.989502
 20
351.825897
 10
347.958801
 20
351.8255
 10
347.924316
 20
351.825073
 10
347.885834
 20
351.824646
 10
347.843109
 20
351.824249
 10
347.795898
 20
351.823822
 10
347.743774
 20
351.823395
 10
347.68631
 20
351.822968
 10
347.622955
 20
351.822571
 10
347.55307
 20
351.822144
 10
347.475677
 20
351.821716
 10
347.389648
 20
351.82132
 10
347.293243
 20
351.820892
 10
347.184174
 20
351.820496
 10
347.058655
 20
351.820068
 10
346.910431
 20
351.819641
 10
346.727509
 20
351.819244
 10
346.477661
 20
351.818848
 10
345.990417
 20
351.818573
  0
ARC
  5
AB
330
7B
100
AcDbEntity
  8
0
  6
Continuous
 62
     0
370
     0
100
AcDbCircle
 10
396.044034
 20
352.554328
 30
0.0
 40
0.7000135584189674
100
AcDbArc
 50
270.001896
 51
359.998104
  0
LINE
  5
AC
330
7B
100
AcDbEntity
  8
0
  6
Continuous
 62
     0
370
     0
100
AcDbLine
 10
396.044057
 20
351.854314
 30
0.0
 11
396.097484
 21
351.800887
 31
0.0
  0
ARC
  5
AD
330
7B
100
AcDbEntity
  8
0
  6
Continuous
 62
     0
370
    30
100
AcDbCircle
 10
396.098081
 20
352.500281
 30
0.0
 40
0.69939370017768
100
AcDbArc
 50
269.951097
 51
0.048903
  0
LINE
  5
AE
330
7B
100
AcDbEntity
  8
0
  6
Continuous
 62
     0
370
     0
100
AcDbLine
 10
396.797474
 20
352.500878
 30
0.0
 11
396.744047
 21
352.554304
 31
0.0
  0
LINE
  5
AF
330
7B
100
AcDbEntity
  8
0
  6
Continuous
 62
     0
370
     0
100
AcDbLine
 10
295.936746
 20
352.554304
 30
0.0
 11
295.936746
 21
351.854314
 31
0.0
  0
LINE
  5
B0
330
7B
100
AcDbEntity
  8
0
  6
Continuous
 62
     0
370
     0
100
AcDbLine
 10
295.936746
 20
351.854314
 30
0.0
 11
396.044057
 21
351.854314
 31
0.0
  0
LINE
  5
B1
330
7B
100
AcDbEntity
  8
0
  6
Continuous
 62
     0
370
     0
100
AcDbLine
 10
396.044057
 20
351.854314
 30
0.0
 11
396.044057
 21
352.554304
 31
0.0
  0
LINE
  5
B2
330
7B
100
AcDbEntity
  8
0
  6
Continuous
 62
     0
370
     0
100
AcDbLine
 10
396.044057
 20
352.554304
 30
0.0
 11
295.936746
 21
352.554304
 31
0.0
  0
LINE
  5
B3
330
7B
100
AcDbEntity
  8
0
  6
Continuous
 62
     0
370
     0
100
AcDbLine
 10
396.044057
 20
469.661616
 30
0.0
 11
396.044057
 21
352.554304
 31
0.0
  0
LINE
  5
B4
330
7B
100
AcDbEntity
  8
0
  6
Continuous
 62
     0
370
     0
100
AcDbLine
 10
396.044057
 20
352.554304
 30
0.0
 11
396.744047
 21
352.554304
 31
0.0
  0
LINE
  5
B5
330
7B
100
AcDbEntity
  8
0
  6
Continuous
 62
     0
370
     0
100
AcDbLine
 10
396.744047
 20
352.554304
 30
0.0
 11
396.744047
 21
469.661616
 31
0.0
  0
LINE
  5
B6
330
7B
100
AcDbEntity
  8
0
  6
Continuous
 62
     0
370
     0
100
AcDbLine
 10
396.744047
 20
469.661616
 30
0.0
 11
396.044057
 21
469.661616
 31
0.0
  0
LINE
  5
B7
330
7B
100
AcDbEntity
  8
0
  6
Continuous
 62
     0
370
     0
100
AcDbLine
 10
396.744047
 20
469.661616
 30
0.0
 11
396.797474
 21
469.715042
 31
0.0
  0
ARC
  5
B8
330
7B
100
AcDbEntity
  8
0
  6
Continuous
 62
     0
370
    30
100
AcDbCircle
 10
396.098081
 20
469.715639
 30
0.0
 40
0.6993937000955013
100
AcDbArc
 50
359.951097
 51
90.048903
  0
LINE
  5
B9
330
7B
100
AcDbEntity
  8
0
  6
Continuous
 62
     0
370
     0
100
AcDbLine
 10
396.097484
 20
470.415033
 30
0.0
 11
396.044057
 21
470.361606
 31
0.0
  0
ARC
  5
BA
330
7B
100
AcDbEntity
  8
0
  6
Continuous
 62
     0
370
     0
100
AcDbCircle
 10
396.044034
 20
469.661592
 30
0.0
 40
0.7000135584174113
100
AcDbArc
 50
0.001896
 51
89.998104
  0
LINE
  5
BB
330
7B
100
AcDbEntity
  8
0
  6
Continuous
 62
     0
370
     0
100
AcDbLine
 10
295.936746
 20
469.661616
 30
0.0
 11
396.044057
 21
469.661616
 31
0.0
  0
LINE
  5
BC
330
7B
100
AcDbEntity
  8
0
  6
Continuous
 62
     0
370
     0
100
AcDbLine
 10
396.044057
 20
469.661616
 30
0.0
 11
396.044057
 21
470.361606
 31
0.0
  0
LINE
  5
BD
330
7B
100
AcDbEntity
  8
0
  6
Continuous
 62
     0
370
     0
100
AcDbLine
 10
396.044057
 20
470.361606
 30
0.0
 11
295.936746
 21
470.361606
 31
0.0
  0
LINE
  5
BE
330
7B
100
AcDbEntity
  8
0
  6
Continuous
 62
     0
370
     0
100
AcDbLine
 10
295.936746
 20
470.361606
 30
0.0
 11
295.936746
 21
469.661616
 31
0.0
  0
LINE
  5
BF
330
7B
100
AcDbEntity
  8
0
  6
Continuous
 62
     0
370
     0
100
AcDbLine
 10
295.236755
 20
352.554304
 30
0.0
 11
295.183329
 21
352.500878
 31
0.0
  0
ARC
  5
C0
330
7B
100
AcDbEntity
  8
0
  6
Continuous
 62
     0
370
    30
100
AcDbCircle
 10
295.882722
 20
352.500281
 30
0.0
 40
0.6993937000969355
100
AcDbArc
 50
179.951097
 51
270.048903
  0
LINE
  5
C1
330
7B
100
AcDbEntity
  8
0
  6
Continuous
 62
     0
370
     0
100
AcDbLine
 10
295.883319
 20
351.800887
 30
0.0
 11
295.936746
 21
351.854314
 31
0.0
  0
ARC
  5
C2
330
7B
100
AcDbEntity
  8
0
  6
Continuous
 62
     0
370
     0
100
AcDbCircle
 10
295.936769
 20
352.554328
 30
0.0
 40
0.700013558418129
100
AcDbArc
 50
180.001896
 51
269.998104
  0
LINE
  5
C3
330
7B
100
AcDbEntity
  8
0
  6
Continuous
 62
     0
370
     0
100
AcDbLine
 10
295.936746
 20
469.661616
 30
0.0
 11
295.236755
 21
469.661616
 31
0.0
  0
LINE
  5
C4
330
7B
100
AcDbEntity
  8
0
  6
Continuous
 62
     0
370
     0
100
AcDbLine
 10
295.236755
 20
469.661616
 30
0.0
 11
295.236755
 21
352.554304
 31
0.0
  0
LINE
  5
C5
330
7B
100
AcDbEntity
  8
0
  6
Continuous
 62
     0
370
     0
100
AcDbLine
 10
295.236755
 20
352.554304
 30
0.0
 11
295.936746
 21
352.554304
 31
0.0
  0
LINE
  5
C6
330
7B
100
AcDbEntity
  8
0
  6
Continuous
 62
     0
370
     0
100
AcDbLine
 10
295.936746
 20
352.554304
 30
0.0
 11
295.936746
 21
469.661616
 31
0.0
  0
ARC
  5
C7
330
7B
100
AcDbEntity
  8
0
  6
Continuous
 62
     0
370
     0
100
AcDbCircle
 10
295.936769
 20
469.661592
 30
0.0
 40
0.7000135584178269
100
AcDbArc
 50
90.001896
 51
179.998104
  0
LINE
  5
C8
330
7B
100
AcDbEntity
  8
0
  6
Continuous
 62
     0
370
     0
100
AcDbLine
 10
295.936746
 20
470.361606
 30
0.0
 11
295.883319
 21
470.415033
 31
0.0
  0
ARC
  5
C9
330
7B
100
AcDbEntity
  8
0
  6
Continuous
 62
     0
370
    30
100
AcDbCircle
 10
295.882722
 20
469.715639
 30
0.0
 40
0.6993937001772541
100
AcDbArc
 50
89.951097
 51
180.048903
  0
LINE
  5
CA
330
7B
100
AcDbEntity
  8
0
  6
Continuous
 62
     0
370
     0
100
AcDbLine
 10
295.183329
 20
469.715042
 30
0.0
 11
295.236755
 21
469.661616
 31
0.0
  0
LINE
  5
CB
330
7B
100
AcDbEntity
  8
0
  6
Continuous
 62
     0
370
    30
100
AcDbLine
 10
396.797474
 20
352.500878
 30
0.0
 11
396.797474
 21
469.715042
 31
0.0
  0
LINE
  5
CC
330
7B
100
AcDbEntity
  8
0
  6
Continuous
 62
     0
370
    30
100
AcDbLine
 10
396.097484
 20
470.415033
 30
0.0
 11
295.883319
 21
470.415033
 31
0.0
  0
LINE
  5
CD
330
7B
100
AcDbEntity
  8
0
  6
Continuous
 62
     0
370
    30
100
AcDbLine
 10
295.883319
 20
351.800887
 30
0.0
 11
396.097484
 21
351.800887
 31
0.0
  0
LINE
  5
CE
330
7B
100
AcDbEntity
  8
0
  6
Continuous
 62
     0
370
    30
100
AcDbLine
 10
295.183329
 20
469.715042
 30
0.0
 11
295.183329
 21
352.500878
 31
0.0
  0
ARC
  5
CF
330
7B
100
AcDbEntity
  8
0
  6
Continuous
 62
     0
370
    30
100
AcDbCircle
 10
345.990421
 20
411.107964
 30
0.0
 40
21.99999999999997
100
AcDbArc
 50
100.739738
 51
134.276041
  0
ARC
  5
D0
330
7B
100
AcDbEntity
  8
0
  6
Continuous
 62
     0
370
    30
100
AcDbCircle
 10
345.990421
 20
411.107964
 30
0.0
 40
22.00000000000006
100
AcDbArc
 50
45.724
 51
79.26029
  0
ARC
  5
D1
330
7B
100
AcDbEntity
  8
0
  6
Continuous
 62
     0
370
    30
100
AcDbCircle
 10
345.990717
 20
411.107964
 30
0.0
 40
21.50000000203893
100
AcDbArc
 50
269.999211
 51
90.000789
  0
ARC
  5
D2
330
7B
100
AcDbEntity
  8
0
  6
Continuous
 62
     0
370
    30
100
AcDbCircle
 10
345.990129
 20
411.107964
 30
0.0
 40
21.50000000199058
100
AcDbArc
 50
89.99922
 51
270.00078
  0
LWPOLYLINE
  5
D3
330
7B
100
AcDbEntity
  8
0
  6
Continuous
 62
     0
370
    30
100
AcDbPolyline
 90
       54
 70
     0
 43
0.0
 10
345.990417
 20
389.107971
 10
347.29126
 20
389.147491
 10
348.589447
 20
389.264832
 10
349.880157
 20
389.458679
 10
351.157379
 20
389.727783
 10
352.415741
 20
390.071014
 10
353.651062
 20
390.487427
 10
354.859314
 20
390.976135
 10
356.03653
 20
391.536163
 10
357.178619
 20
392.165741
 10
358.281342
 20
392.861938
 10
359.340515
 20
393.621735
 10
360.35202
 20
394.442261
 10
361.312317
 20
395.320831
 10
362.218353
 20
396.255005
 10
363.067688
 20
397.24173
 10
363.858093
 20
398.277557
 10
364.586761
 20
399.358673
 10
365.250732
 20
400.48111
 10
365.847015
 20
401.6409
 10
366.372955
 20
402.833984
 10
366.827118
 20
404.056091
 10
367.208221
 20
405.302887
 10
367.515076
 20
406.570068
 10
367.746582
 20
407.85321
 10
367.901855
 20
409.147766
 10
367.980072
 20
410.449158
 10
367.980438
 20
411.752869
 10
367.902985
 20
413.054352
 10
367.748474
 20
414.348969
 10
367.517761
 20
415.632263
 10
367.211731
 20
416.899628
 10
366.831482
 20
418.146698
 10
366.378204
 20
419.36911
 10
365.853149
 20
420.562592
 10
365.257751
 20
421.722839
 10
364.594574
 20
422.845764
 10
363.866638
 20
423.927399
 10
363.076843
 20
424.963684
 10
362.227966
 20
425.950806
 10
361.322235
 20
426.885284
 10
360.362183
 20
427.76413
 10
359.350952
 20
428.58493
 10
358.292145
 20
429.345184
 10
357.18985
 20
430.042053
 10
356.048309
 20
430.672577
 10
354.871674
 20
431.233917
 10
353.664001
 20
431.724121
 10
352.429199
 20
432.142029
 10
351.171204
 20
432.48645
 10
349.894165
 20
432.756256
 10
348.603485
 20
432.950409
 10
347.305267
 20
433.067932
 10
345.990417
 20
433.107971
  0
LWPOLYLINE
  5
D4
330
7B
100
AcDbEntity
  8
0
  6
Continuous
 62
     0
370
    30
100
AcDbPolyline
 90
       54
 70
     0
 43
0.0
 10
345.990417
 20
433.107971
 10
344.689545
 20
433.068787
 10
343.391296
 20
432.952087
 10
342.100494
 20
432.758759
 10
340.823273
 20
432.489746
 10
339.565063
 20
432.146118
 10
338.329987
 20
431.729004
 10
337.121979
 20
431.239563
 10
335.944977
 20
430.678986
 10
334.80304
 20
430.049164
 10
333.700317
 20
429.353027
 10
332.641022
 20
428.593414
 10
331.629242
 20
427.773254
 10
330.66864
 20
426.89505
 10
329.762329
 20
425.961121
 10
328.912811
 20
424.974548
 10
328.122375
 20
423.938782
 10
327.393738
 20
422.857605
 10
326.729858
 20
421.735107
 10
326.133728
 20
420.575256
 10
325.60791
 20
419.382111
 10
325.15387
 20
418.159973
 10
324.772797
 20
416.913147
 10
324.465973
 20
415.645966
 10
324.234467
 20
414.362823
 10
324.079132
 20
413.068298
 10
324.000824
 20
411.766876
 10
324.000336
 20
410.463165
 10
324.077759
 20
409.161713
 10
324.232208
 20
407.867065
 10
324.462891
 20
406.583771
 10
324.768921
 20
405.316406
 10
325.149261
 20
404.069366
 10
325.6026
 20
402.846985
 10
326.127808
 20
401.653564
 10
326.723328
 20
400.493378
 10
327.386597
 20
399.370514
 10
328.114594
 20
398.28894
 10
328.904327
 20
397.252594
 10
329.753052
 20
396.26535
 10
330.658508
 20
395.330597
 10
331.618225
 20
394.451416
 10
332.629181
 20
393.630249
 10
333.687897
 20
392.869751
 10
334.790161
 20
392.172882
 10
335.931824
 20
391.542572
 10
337.108704
 20
390.981781
 10
338.31665
 20
390.49231
 10
339.551697
 20
390.075104
 10
340.809845
 20
389.731079
 10
342.086884
 20
389.461182
 10
343.377472
 20
389.26651
 10
344.675598
 20
389.148346
 10
345.990417
 20
389.107971
  0
LWPOLYLINE
  5
D5
330
7B
100
AcDbEntity
  8
0
  6
Continuous
 62
     0
370
    30
100
AcDbPolyline
 90
       14
 70
     0
 43
0.0
 10
341.240692
 20
389.626801
 10
341.275757
 20
389.61911
 10
341.379303
 20
389.596558
 10
341.548889
 20
389.560822
 10
341.78183
 20
389.514221
 10
342.075317
 20
389.459167
 10
342.4245
 20
389.398865
 10
342.823975
 20
389.337006
 10
343.270416
 20
389.276764
 10
343.757721
 20
389.221558
 10
344.27597
 20
389.174866
 10
344.82254
 20
389.139099
 10
345.387207
 20
389.116272
 10
345.990417
 20
389.107971
  0
LWPOLYLINE
  5
D6
330
7B
100
AcDbEntity
  8
0
  6
Continuous
 62
     0
370
    30
100
AcDbPolyline
 90
       14
 70
     0
 43
0.0
 10
345.990417
 20
389.107971
 10
346.561127
 20
389.115387
 10
347.126434
 20
389.137451
 10
347.674408
 20
389.172485
 10
348.194336
 20
389.218628
 10
348.683594
 20
389.273438
 10
349.132599
 20
389.333496
 10
349.534851
 20
389.395355
 10
349.887024
 20
389.455841
 10
350.183868
 20
389.511292
 10
350.420349
 20
389.558441
 10
350.593597
 20
389.594849
 10
350.701019
 20
389.618195
 10
350.740143
 20
389.626801
  0
LWPOLYLINE
  5
D7
330
7B
100
AcDbEntity
  8
0
  6
Continuous
 62
     0
370
    30
100
AcDbPolyline
 90
       13
 70
     0
 43
0.0
 10
350.090057
 20
432.722595
 10
350.054688
 20
432.729279
 10
349.950134
 20
432.748749
 10
349.779205
 20
432.779358
 10
349.544647
 20
432.81897
 10
349.250031
 20
432.865143
 10
348.901306
 20
432.914551
 10
348.50351
 20
432.963959
 10
348.060913
 20
433.010315
 10
347.584381
 20
433.050171
 10
347.078613
 20
433.080963
 10
346.55246
 20
433.100739
 10
345.990448
 20
433.107971
  0
LWPOLYLINE
  5
D8
330
7B
100
AcDbEntity
  8
0
  6
Continuous
 62
     0
370
    30
100
AcDbPolyline
 90
       13
 70
     0
 43
0.0
 10
345.990448
 20
433.107971
 10
345.457367
 20
433.101471
 10
344.930542
 20
433.082336
 10
344.423309
 20
433.052094
 10
343.945129
 20
433.012665
 10
343.500366
 20
432.966614
 10
343.099976
 20
432.917267
 10
342.748474
 20
432.867767
 10
342.450714
 20
432.82132
 10
342.21283
 20
432.781311
 10
342.038391
 20
432.750183
 10
341.930176
 20
432.730042
 10
341.890778
 20
432.722595
  0
LINE
  5
D9
330
7B
100
AcDbEntity
  8
0
  6
Continuous
 62
     0
370
    30
100
AcDbLine
 10
345.990421
 20
440.437964
 30
0.0
 11
342.040421
 21
440.437964
 31
0.0
  0
LINE
  5
DA
330
7B
100
AcDbEntity
  8
0
  6
Continuous
 62
     0
370
    30
100
AcDbLine
 10
349.940421
 20
440.437964
 30
0.0
 11
345.990421
 21
440.437964
 31
0.0
  0
LINE
  5
DB
330
7B
100
AcDbEntity
  8
0
  6
Continuous
 62
     0
370
    30
100
AcDbLine
 10
345.990421
 20
440.937963
 30
0.0
 11
349.440468
 21
440.937963
 31
0.0
  0
LINE
  5
DC
330
7B
100
AcDbEntity
  8
0
  6
Continuous
 62
     0
370
    30
100
AcDbLine
 10
342.540374
 20
440.937963
 30
0.0
 11
345.990421
 21
440.937963
 31
0.0
  0
LINE
  5
DD
330
7B
100
AcDbEntity
  8
0
  6
Continuous
 62
     0
370
    30
100
AcDbLine
 10
342.540504
 20
440.938066
 30
0.0
 11
342.040363
 21
440.437927
 31
0.0
  0
LINE
  5
DE
330
7B
100
AcDbEntity
  8
0
  6
Continuous
 62
     0
370
    30
100
AcDbLine
 10
349.440338
 20
440.938066
 30
0.0
 11
349.94048
 21
440.437927
 31
0.0
  0
LINE
  5
DF
330
7B
100
AcDbEntity
  8
0
  6
Continuous
 62
     0
370
    30
100
AcDbLine
 10
342.040421
 20
440.437964
 30
0.0
 11
342.040421
 21
432.750783
 31
0.0
  0
LINE
  5
E0
330
7B
100
AcDbEntity
  8
0
  6
Continuous
 62
     0
370
    30
100
AcDbLine
 10
349.940421
 20
440.437964
 30
0.0
 11
349.940421
 21
432.750777
 31
0.0
  0
ENDBLK
  5
E2
330
7B
100
AcDbEntity
  8
0
100
AcDbBlockEnd
  0
BLOCK
  5
131
330
E4
100
AcDbEntity
  8
0
100
AcDbBlockBegin
  2
b
 70
     0
 10
267.170837
 20
221.128731
 30
0.0
  3
b
  1

  0
LINE
  5
E5
330
E4
100
AcDbEntity
  8
0
  6
Continuous
 62
     0
370
    30
100
AcDbLine
 10
375.990421
 20
283.812209
 30
0.0
 11
375.990421
 21
273.812209
 31
0.0
  0
LINE
  5
E6
330
E4
100
AcDbEntity
  8
0
  6
Continuous
 62
     0
370
    30
100
AcDbLine
 10
375.990421
 20
283.812209
 30
0.0
 11
315.990421
 21
283.812209
 31
0.0
  0
LINE
  5
E7
330
E4
100
AcDbEntity
  8
0
  6
Continuous
 62
     0
370
    30
100
AcDbLine
 10
315.990421
 20
283.812209
 30
0.0
 11
315.990421
 21
273.812209
 31
0.0
  0
LINE
  5
E8
330
E4
100
AcDbEntity
  8
0
  6
Continuous
 62
     0
370
    30
100
AcDbLine
 10
315.990421
 20
273.812209
 30
0.0
 11
375.990421
 21
273.812209
 31
0.0
  0
LINE
  5
E9
330
E4
100
AcDbEntity
  8
0
  6
Continuous
 62
     0
370
     0
100
AcDbLine
 10
346.001244
 20
273.81221
 30
0.0
 11
346.002073
 21
272.54593
 31
0.0
  0
LWPOLYLINE
  5
EA
330
E4
100
AcDbEntity
  8
0
  6
Continuous
 62
     0
370
    30
100
AcDbPolyline
 90
       22
 70
     0
 43
0.0
 10
346.002075
 20
272.545929
 10
345.008453
 20
272.54599
 10
344.019623
 20
272.546204
 10
343.042572
 20
272.546478
 10
342.084015
 20
272.546814
 10
341.149414
 20
272.547211
 10
340.243805
 20
272.547638
 10
339.372131
 20
272.548096
 10
338.538788
 20
272.548645
 10
337.748627
 20
272.549164
 10
337.007019
 20
272.549469
 10
336.319214
 20
272.550049
 10
335.68866
 20
272.550903
 10
335.116913
 20
272.551605
 10
334.605621
 20
272.552094
 10
334.156464
 20
272.55249
 10
333.771057
 20
272.552856
 10
333.45105
 20
272.553192
 10
333.197937
 20
272.553436
 10
333.013428
 20
272.553528
 10
332.899506
 20
272.553497
 10
332.858246
 20
272.553467
  0
LWPOLYLINE
  5
EB
330
E4
100
AcDbEntity
  8
0
  6
Continuous
 62
     0
370
    30
100
AcDbPolyline
 90
       22
 70
     0
 43
0.0
 10
346.002075
 20
272.545929
 10
346.995636
 20
272.54599
 10
347.984283
 20
272.546204
 10
348.960999
 20
272.546478
 10
349.919037
 20
272.546814
 10
350.853058
 20
272.547211
 10
351.757965
 20
272.547638
 10
352.628845
 20
272.548096
 10
353.461243
 20
272.548645
 10
354.250366
 20
272.549164
 10
354.990814
 20
272.549469
 10
355.677399
 20
272.550049
 10
356.306641
 20
272.550903
 10
356.876984
 20
272.551605
 10
357.38681
 20
272.552094
 10
357.834442
 20
272.55249
 10
358.218231
 20
272.552856
 10
358.536652
 20
272.553192
 10
358.788086
 20
272.553436
 10
358.970917
 20
272.553528
 10
359.08313
 20
272.553497
 10
359.122589
 20
272.553467
  0
LWPOLYLINE
  5
EC
330
E4
100
AcDbEntity
  8
0
  6
Continuous
 62
     0
370
    30
100
AcDbPolyline
 90
       15
 70
     0
 43
0.0
 10
340.330475
 20
248.686539
 10
340.365692
 20
248.68541
 10
340.470184
 20
248.685364
 10
340.641327
 20
248.685715
 10
340.876465
 20
248.686035
 10
341.173248
 20
248.686295
 10
341.529236
 20
248.686554
 10
341.942139
 20
248.686691
 10
342.408905
 20
248.6866
 10
342.92334
 20
248.686539
 10
343.478546
 20
248.686584
 10
344.067596
 20
248.686661
 10
344.683319
 20
248.686676
 10
345.315979
 20
248.6866
 10
345.995453
 20
248.686386
  0
LINE
  5
ED
330
E4
100
AcDbEntity
  8
0
  6
Continuous
 62
     0
370
     0
100
AcDbLine
 10
345.995447
 20
248.686392
 30
0.0
 11
346.002073
 21
272.54593
 31
0.0
  0
LWPOLYLINE
  5
EE
330
E4
100
AcDbEntity
  8
0
  6
Continuous
 62
     0
370
    30
100
AcDbPolyline
 90
       15
 70
     0
 43
0.0
 10
351.65036
 20
248.686493
 10
351.614899
 20
248.68541
 10
351.510376
 20
248.685364
 10
351.339478
 20
248.685715
 10
351.104767
 20
248.686035
 10
350.808655
 20
248.68631
 10
350.453461
 20
248.686554
 10
350.041504
 20
248.686691
 10
349.575836
 20
248.6866
 10
349.062592
 20
248.686539
 10
348.508667
 20
248.686584
 10
347.920898
 20
248.686661
 10
347.306519
 20
248.686676
 10
346.675079
 20
248.6866
 10
345.995453
 20
248.686386
  0
LWPOLYLINE
  5
EF
330
E4
100
AcDbEntity
  8
0
  6
Continuous
 62
     0
370
     0
100
AcDbPolyline
 90
       14
 70
     0
 43
0.0
 10
340.351837
 20
248.289703
 10
340.391205
 20
248.289703
 10
340.508881
 20
248.289703
 10
340.703583
 20
248.289703
 10
340.973297
 20
248.289703
 10
341.315399
 20
248.289703
 10
341.726288
 20
248.289703
 10
342.201416
 20
248.289703
 10
342.735077
 20
248.289703
 10
343.32016
 20
248.289703
 10
343.948303
 20
248.289703
 10
344.609833
 20
248.289703
 10
345.294098
 20
248.289703
 10
345.995483
 20
248.289703
  0
LINE
  5
F0
330
E4
100
AcDbEntity
  8
0
  6
Continuous
 62
     0
370
     0
100
AcDbLine
 10
345.995495
 20
248.289696
 30
0.0
 11
345.995447
 21
248.686392
 31
0.0
  0
LWPOLYLINE
  5
F1
330
E4
100
AcDbEntity
  8
0
  6
Continuous
 62
     0
370
    30
100
AcDbPolyline
 90
       18
 70
     0
 43
0.0
 10
345.998505
 20
234.208023
 10
345.159454
 20
234.234253
 10
344.329163
 20
234.253738
 10
343.517792
 20
234.284592
 10
342.732788
 20
234.324753
 10
341.981079
 20
234.372543
 10
341.269836
 20
234.427017
 10
340.605774
 20
234.487442
 10
339.99469
 20
234.55307
 10
339.441223
 20
234.623016
 10
338.948883
 20
234.696381
 10
338.520172
 20
234.772156
 10
338.156799
 20
234.849304
 10
337.859955
 20
234.926819
 10
337.630463
 20
235.003723
 10
337.469238
 20
235.079132
 10
337.377197
 20
235.152267
 10
337.356476
 20
235.2267
  0
LINE
  5
F2
330
E4
100
AcDbEntity
  8
0
  6
Continuous
 62
     0
370
     0
100
AcDbLine
 10
345.995495
 20
248.289696
 30
0.0
 11
345.998519
 21
234.20803
 31
0.0
  0
ARC
  5
F3
330
E4
100
AcDbEntity
  8
0
  6
Continuous
 62
     0
370
     0
100
AcDbCircle
 10
340.5928
 20
233.461439
 30
0.0
 40
0.556276864645356
100
AcDbArc
 50
128.699695
 51
139.139528
  0
LINE
  5
F4
330
E4
100
AcDbEntity
  8
0
  6
Continuous
 62
     0
370
     0
100
AcDbLine
 10
340.172085
 20
233.825366
 30
0.0
 11
340.176329
 21
233.903697
 31
0.0
  0
ARC
  5
F5
330
E4
100
AcDbEntity
  8
0
  6
Continuous
 62
     0
370
    30
100
AcDbCircle
 10
351.392433
 20
233.566291
 30
0.0
 40
0.4126252629927893
100
AcDbArc
 50
38.893251
 51
50.537016
  0
LINE
  5
F6
330
E4
100
AcDbEntity
  8
0
  6
Continuous
 62
     0
370
    30
100
AcDbLine
 10
351.713586
 20
233.825366
 30
0.0
 11
351.710212
 21
233.887746
 31
0.0
  0
LWPOLYLINE
  5
F7
330
E4
100
AcDbEntity
  8
0
  6
Continuous
 62
     0
370
    30
100
AcDbPolyline
 90
       18
 70
     0
 43
0.0
 10
345.998505
 20
234.208023
 10
346.836426
 20
234.234238
 10
347.665436
 20
234.253677
 10
348.475494
 20
234.284454
 10
349.259125
 20
234.324524
 10
350.00943
 20
234.372223
 10
350.71933
 20
234.426575
 10
351.38208
 20
234.486893
 10
351.991913
 20
234.552383
 10
352.54425
 20
234.622208
 10
353.035553
 20
234.695435
 10
353.463318
 20
234.771088
 10
353.825897
 20
234.848129
 10
354.12207
 20
234.925552
 10
354.351044
 20
235.00238
 10
354.511902
 20
235.077728
 10
354.60376
 20
235.150818
 10
354.624481
 20
235.225342
  0
LWPOLYLINE
  5
F8
330
E4
100
AcDbEntity
  8
0
  6
Continuous
 62
     0
370
     0
100
AcDbPolyline
 90
       14
 70
     0
 43
0.0
 10
351.630035
 20
248.289551
 10
351.590179
 20
248.289383
 10
351.471802
 20
248.289536
 10
351.276764
 20
248.289764
 10
351.007355
 20
248.289902
 10
350.666138
 20
248.289902
 10
350.25589
 20
248.289734
 10
349.780487
 20
248.289627
 10
349.245972
 20
248.289856
 10
348.660492
 20
248.290222
 10
348.033295
 20
248.289505
 10
347.373627
 20
248.28508
 10
346.691559
 20
248.280365
 10
345.995483
 20
248.289703
  0
LINE
  5
F9
330
E4
100
AcDbEntity
  8
0
  6
Continuous
 62
     0
370
     0
100
AcDbLine
 10
345.998519
 20
234.20803
 30
0.0
 11
345.998077
 21
233.557911
 31
0.0
  0
ARC
  5
FA
330
E4
100
AcDbEntity
  8
0
  6
Continuous
 62
     0
370
     0
100
AcDbCircle
 10
351.21575
 20
233.86345
 30
0.0
 40
0.500819974240297
100
AcDbArc
 50
270.549937
 51
355.668827
  0
LWPOLYLINE
  5
FB
330
E4
100
AcDbEntity
  8
0
  6
Continuous
 62
     0
370
     0
100
AcDbPolyline
 90
        6
 70
     0
 43
0.0
 10
350.852783
 20
233.801575
 10
350.923615
 20
233.708939
 10
350.995178
 20
233.618256
 10
351.063446
 20
233.529877
 10
351.140656
 20
233.444534
 10
351.220551
 20
233.362656
  0
LINE
  5
FC
330
E4
100
AcDbEntity
  8
0
  6
Continuous
 62
     0
370
     0
100
AcDbLine
 10
340.674204
 20
233.300035
 30
0.0
 11
351.220557
 21
233.362653
 31
0.0
  0
LWPOLYLINE
  5
FD
330
E4
100
AcDbEntity
  8
0
  6
Continuous
 62
     0
370
     0
100
AcDbPolyline
 90
        8
 70
     0
 43
0.0
 10
341.08905
 20
233.806442
 10
341.029175
 20
233.731674
 10
340.974762
 20
233.657928
 10
340.929565
 20
233.585602
 10
340.88797
 20
233.514847
 10
340.833923
 20
233.445572
 10
340.759735
 20
233.377808
 10
340.674194
 20
233.300034
  0
ARC
  5
FE
330
E4
100
AcDbEntity
  8
0
  6
Continuous
 62
     0
370
     0
100
AcDbCircle
 10
340.671772
 20
233.800282
 30
0.0
 40
0.5002430424744897
100
AcDbArc
 50
177.127297
 51
270.275199
  0
LWPOLYLINE
  5
FF
330
E4
100
AcDbEntity
  8
0
  6
Continuous
 62
     0
370
    30
100
AcDbPolyline
 90
        2
 70
     0
 43
0.0
 10
351.715546
 20
233.825592
 10
351.716187
 20
233.88887
  0
ARC
  5
100
330
E4
100
AcDbEntity
  8
0
  6
Continuous
 62
     0
370
    30
100
AcDbCircle
 10
340.670806
 20
233.799167
 30
0.0
 40
0.4997452191911873
100
AcDbArc
 50
176.896006
 51
270.368499
  0
LWPOLYLINE
  5
101
330
E4
100
AcDbEntity
  8
0
  6
Continuous
 62
     0
370
    30
100
AcDbPolyline
 90
       45
 70
     0
 43
0.0
 10
345.998108
 20
233.556519
 10
345.675507
 20
233.560822
 10
345.353271
 20
233.566833
 10
345.032135
 20
233.574493
 10
344.712708
 20
233.58374
 10
344.395477
 20
233.594513
 10
344.080933
 20
233.606766
 10
343.76947
 20
233.620453
 10
343.461517
 20
233.635498
 10
343.157501
 20
233.651871
 10
342.857849
 20
233.66951
 10
342.562988
 20
233.688339
 10
342.273285
 20
233.708313
 10
341.989105
 20
233.729385
 10
341.710907
 20
233.751465
 10
341.439056
 20
233.774506
 10
341.17395
 20
233.798447
 10
340.916016
 20
233.823242
 10
340.66571
 20
233.848831
 10
340.423431
 20
233.875137
 10
340.189575
 20
233.902115
 10
339.964569
 20
233.929688
 10
339.748749
 20
233.957794
 10
339.542358
 20
233.986328
 10
339.34549
 20
234.015244
 10
339.158264
 20
234.044434
 10
338.980743
 20
234.073853
 10
338.813019
 20
234.103439
 10
338.65509
 20
234.133148
 10
338.507019
 20
234.162949
 10
338.368866
 20
234.192795
 10
338.240601
 20
234.222626
 10
338.122223
 20
234.252457
 10
338.013672
 20
234.282303
 10
337.914825
 20
234.312256
 10
337.825623
 20
234.342346
 10
337.745789
 20
234.372803
 10
337.674164
 20
234.404449
 10
337.609436
 20
234.43837
 10
337.549255
 20
234.477478
 10
337.488953
 20
234.529877
 10
337.423096
 20
234.614594
 10
337.357056
 20
234.766205
 10
337.324982
 20
234.996094
 10
337.351959
 20
235.2155
  0
LWPOLYLINE
  5
102
330
E4
100
AcDbEntity
  8
0
  6
Continuous
 62
     0
370
    30
100
AcDbPolyline
 90
       47
 70
     0
 43
0.0
 10
345.998108
 20
233.556519
 10
346.306335
 20
233.560593
 10
346.614197
 20
233.566238
 10
346.921112
 20
233.57338
 10
347.226532
 20
233.581985
 10
347.529968
 20
233.59198
 10
347.831055
 20
233.603348
 10
348.129395
 20
233.616028
 10
348.424652
 20
233.629974
 10
348.7164
 20
233.645157
 10
349.004303
 20
233.661499
 10
349.288025
 20
233.678955
 10
349.567169
 20
233.697495
 10
349.841431
 20
233.717041
 10
350.110443
 20
233.737564
 10
350.373871
 20
233.758987
 10
350.631348
 20
233.781281
 10
350.882538
 20
233.804382
 10
351.127075
 20
233.828232
 10
351.364594
 20
233.852798
 10
351.594696
 20
233.878021
 10
351.817078
 20
233.903854
 10
352.031342
 20
233.930222
 10
352.237152
 20
233.957077
 10
352.434387
 20
233.984329
 10
352.622894
 20
234.011917
 10
352.802612
 20
234.03978
 10
352.97348
 20
234.067841
 10
353.135406
 20
234.096085
 10
353.288361
 20
234.124451
 10
353.432343
 20
234.152893
 10
353.567322
 20
234.181396
 10
353.693237
 20
234.209915
 10
353.810089
 20
234.238434
 10
353.917938
 20
234.266937
 10
354.016876
 20
234.295502
 10
354.107025
 20
234.324203
 10
354.188416
 20
234.353043
 10
354.261536
 20
234.382446
 10
354.327606
 20
234.413315
 10
354.387878
 20
234.446671
 10
354.444885
 20
234.486252
 10
354.503082
 20
234.540268
 10
354.566864
 20
234.628357
 10
354.628845
 20
234.782837
 10
354.655853
 20
235.005981
 10
354.628998
 20
235.214111
  0
LINE
  5
103
330
E4
100
AcDbEntity
  8
0
  6
Continuous
 62
     0
370
    30
100
AcDbLine
 10
351.628966
 20
248.289908
 30
0.0
 11
351.650569
 21
248.682875
 31
0.0
  0
LWPOLYLINE
  5
104
330
E4
100
AcDbEntity
  8
0
  6
Continuous
 62
     0
370
    30
100
AcDbPolyline
 90
        7
 70
     0
 43
0.0
 10
354.624481
 20
235.225342
 10
354.068207
 20
237.343185
 10
353.53006
 20
239.466278
 10
353.015747
 20
241.595764
 10
352.53067
 20
243.732422
 10
352.080292
 20
245.876602
 10
351.629974
 20
248.289505
  0
LWPOLYLINE
  5
105
330
E4
100
AcDbEntity
  8
0
  6
Continuous
 62
     0
370
    30
100
AcDbPolyline
 90
        7
 70
     0
 43
0.0
 10
337.356476
 20
235.2267
 10
337.912811
 20
237.34436
 10
338.450989
 20
239.467255
 10
338.965332
 20
241.596588
 10
339.450348
 20
243.733078
 10
339.900665
 20
245.877121
 10
340.350769
 20
248.289719
  0
LINE
  5
106
330
E4
100
AcDbEntity
  8
0
  6
Continuous
 62
     0
370
    30
100
AcDbLine
 10
340.351839
 20
248.289697
 30
0.0
 11
340.330276
 21
248.682878
 31
0.0
  0
LWPOLYLINE
  5
107
330
E4
100
AcDbEntity
  8
0
  6
Continuous
 62
     0
370
    30
100
AcDbPolyline
 90
       51
 70
     0
 43
0.0
 10
359.121948
 20
272.55365
 10
358.990845
 20
272.070068
 10
358.8591
 20
271.5867
 10
358.725922
 20
271.103699
 10
358.590912
 20
270.621185
 10
358.454163
 20
270.139191
 10
358.315857
 20
269.657654
 10
358.176117
 20
269.176514
 10
358.034973
 20
268.69577
 10
357.892456
 20
268.215454
 10
357.748657
 20
267.735504
 10
357.603607
 20
267.25592
 10
357.457306
 20
266.776764
 10
357.309814
 20
266.297943
 10
357.161163
 20
265.819458
 10
357.011383
 20
265.34137
 10
356.860535
 20
264.863586
 10
356.708618
 20
264.386139
 10
356.555664
 20
263.909027
 10
356.401764
 20
263.432251
 10
356.246887
 20
262.95575
 10
356.091125
 20
262.479553
 10
355.934479
 20
262.003662
 10
355.777039
 20
261.528015
 10
355.618774
 20
261.052643
 10
355.459808
 20
260.577515
 10
355.30014
 20
260.1026
 10
355.139771
 20
259.62793
 10
354.97879
 20
259.153473
 10
354.8172
 20
258.67923
 10
354.655029
 20
258.20517
 10
354.49234
 20
257.731323
 10
354.329102
 20
257.257629
 10
354.165405
 20
256.784088
 10
354.001282
 20
256.31073
 10
353.836792
 20
255.837463
 10
353.671967
 20
255.364334
 10
353.506866
 20
254.891296
 10
353.341553
 20
254.418335
 10
353.175934
 20
253.945465
 10
353.009949
 20
253.472733
 10
352.843536
 20
253.000168
 10
352.67688
 20
252.527664
 10
352.510559
 20
252.055054
 10
352.345032
 20
251.582169
 10
352.178528
 20
251.109619
 10
352.009644
 20
250.637909
 10
351.846436
 20
250.16423
 10
351.708313
 20
249.682739
 10
351.630371
 20
249.188385
 10
351.650421
 20
248.686462
  0
LWPOLYLINE
  5
108
330
E4
100
AcDbEntity
  8
0
  6
Continuous
 62
     0
370
    30
100
AcDbPolyline
 90
       51
 70
     0
 43
0.0
 10
332.858917
 20
272.55365
 10
332.98999
 20
272.070068
 10
333.121765
 20
271.5867
 10
333.254913
 20
271.103699
 10
333.389923
 20
270.621185
 10
333.526672
 20
270.139191
 10
333.664978
 20
269.657654
 10
333.804749
 20
269.176514
 10
333.945892
 20
268.69577
 10
334.088379
 20
268.215454
 10
334.232178
 20
267.735504
 10
334.377258
 20
267.255951
 10
334.52356
 20
266.776764
 10
334.671051
 20
266.297943
 10
334.819702
 20
265.819489
 10
334.969452
 20
265.34137
 10
335.120331
 20
264.863586
 10
335.272247
 20
264.386169
 10
335.425171
 20
263.909058
 10
335.579102
 20
263.432251
 10
335.733948
 20
262.95575
 10
335.88974
 20
262.479584
 10
336.046356
 20
262.003662
 10
336.203827
 20
261.528015
 10
336.362061
 20
261.052643
 10
336.521057
 20
260.577515
 10
336.680725
 20
260.102631
 10
336.841064
 20
259.62796
 10
337.002045
 20
259.153503
 10
337.163635
 20
258.67926
 10
337.325806
 20
258.2052
 10
337.488525
 20
257.731323
 10
337.651733
 20
257.257629
 10
337.81546
 20
256.784119
 10
337.979553
 20
256.31073
 10
338.144073
 20
255.837494
 10
338.308868
 20
255.364365
 10
338.473969
 20
254.891312
 10
338.639313
 20
254.41835
 10
338.804901
 20
253.945496
 10
338.970886
 20
253.472763
 10
339.137329
 20
253.000198
 10
339.303955
 20
252.527695
 10
339.470276
 20
252.055084
 10
339.635803
 20
251.582199
 10
339.802307
 20
251.10965
 10
339.971191
 20
250.637939
 10
340.134399
 20
250.164276
 10
340.272522
 20
249.68277
 10
340.350494
 20
249.188416
 10
340.330444
 20
248.686493
  0
LWPOLYLINE
  5
109
330
E4
100
AcDbEntity
  8
0
  6
Continuous
 62
     0
370
    30
100
AcDbPolyline
 90
       13
 70
     0
 43
0.0
 10
359.122589
 20
272.553467
 10
359.061188
 20
272.674194
 10
358.999298
 20
272.794678
 10
358.936523
 20
272.914673
 10
358.872345
 20
273.033936
 10
358.806244
 20
273.152161
 10
358.737518
 20
273.26886
 10
358.6651
 20
273.383301
 10
358.587708
 20
273.494446
 10
358.503174
 20
273.600281
 10
358.408203
 20
273.696716
 10
358.29776
 20
273.774719
 10
358.156097
 20
273.812225
  0
LWPOLYLINE
  5
10A
330
E4
100
AcDbEntity
  8
0
  6
Continuous
 62
     0
370
    30
100
AcDbPolyline
 90
       13
 70
     0
 43
0.0
 10
332.858246
 20
272.553467
 10
332.919647
 20
272.674194
 10
332.981537
 20
272.794678
 10
333.044342
 20
272.914673
 10
333.10849
 20
273.033936
 10
333.174591
 20
273.152161
 10
333.243347
 20
273.26886
 10
333.315735
 20
273.383301
 10
333.393127
 20
273.494446
 10
333.477661
 20
273.600281
 10
333.572632
 20
273.696747
 10
333.683105
 20
273.774719
 10
333.824738
 20
273.812225
  0
ARC
  5
10B
330
E4
100
AcDbEntity
  8
0
  6
Continuous
 62
     0
370
    30
100
AcDbCircle
 10
396.044057
 20
273.612212
 30
0.0
 40
0.6999999880773531
100
AcDbArc
 50
270.0
 51
359.7
  0
LINE
  5
10C
330
E4
100
AcDbEntity
  8
0
  6
Continuous
 62
     0
370
    30
100
AcDbLine
 10
396.744047
 20
273.608547
 30
0.0
 11
396.797474
 21
283.812212
 31
0.0
  0
LWPOLYLINE
  5
10D
330
E4
100
AcDbEntity
  8
0
  6
Continuous
 62
     0
370
    30
100
AcDbPolyline
 90
        6
 70
     0
 43
0.0
 10
396.797485
 20
283.812225
 10
396.764435
 20
283.812225
 10
396.668396
 20
283.812225
 10
396.518982
 20
283.812225
 10
396.328247
 20
283.812225
 10
396.097473
 20
283.812225
  0
LINE
  5
10E
330
E4
100
AcDbEntity
  8
0
  6
Continuous
 62
     0
370
     0
100
AcDbLine
 10
396.097484
 20
283.812212
 30
0.0
 11
396.044057
 21
273.608547
 31
0.0
  0
ARC
  5
10F
330
E4
100
AcDbEntity
  8
0
  6
Continuous
 62
     0
370
     0
100
AcDbCircle
 10
396.394051
 20
307.031494
 30
0.0
 40
33.42478041253325
100
AcDbArc
 50
269.40004
 51
270.599965
  0
LINE
  5
110
330
E4
100
AcDbEntity
  8
0
  6
Continuous
 62
     0
370
    30
100
AcDbLine
 10
358.937812
 20
272.912212
 30
0.0
 11
396.044057
 21
272.912212
 31
0.0
  0
LINE
  5
111
330
E4
100
AcDbEntity
  8
0
  6
Continuous
 62
     0
370
    30
100
AcDbLine
 10
295.936746
 20
272.912212
 30
0.0
 11
333.04303
 21
272.912212
 31
0.0
  0
LWPOLYLINE
  5
112
330
E4
100
AcDbEntity
  8
0
  6
Continuous
 62
     0
370
     0
100
AcDbPolyline
 90
        6
 70
     0
 43
0.0
 10
396.044067
 20
272.912201
 10
396.044067
 20
272.948914
 10
396.044067
 20
273.048248
 10
396.044067
 20
273.18927
 10
396.044067
 20
273.378265
 10
396.044067
 20
273.608551
  0
LINE
  5
113
330
E4
100
AcDbEntity
  8
0
  6
Continuous
 62
     0
370
     0
100
AcDbLine
 10
333.484924
 20
273.608547
 30
0.0
 11
295.936746
 21
273.608547
 31
0.0
  0
LINE
  5
114
330
E4
100
AcDbEntity
  8
0
  6
Continuous
 62
     0
370
     0
100
AcDbLine
 10
396.044057
 20
273.608547
 30
0.0
 11
358.495919
 21
273.608547
 31
0.0
  0
LINE
  5
115
330
E4
100
AcDbEntity
  8
0
  6
Continuous
 62
     0
370
     0
100
AcDbLine
 10
295.936746
 20
273.608547
 30
0.0
 11
295.936746
 21
272.912212
 31
0.0
  0
ARC
  5
116
330
E4
100
AcDbEntity
  8
0
  6
Continuous
 62
     0
370
    30
100
AcDbCircle
 10
295.936746
 20
273.612212
 30
0.0
 40
0.6999999880802497
100
AcDbArc
 50
180.3
 51
270.0
  0
ARC
  5
117
330
E4
100
AcDbEntity
  8
0
  6
Continuous
 62
     0
370
     0
100
AcDbCircle
 10
295.586752
 20
307.031494
 30
0.0
 40
33.42478041229008
100
AcDbArc
 50
269.400035
 51
270.59996
  0
LINE
  5
118
330
E4
100
AcDbEntity
  8
0
  6
Continuous
 62
     0
370
     0
100
AcDbLine
 10
295.936746
 20
273.608547
 30
0.0
 11
295.883319
 21
283.812212
 31
0.0
  0
LINE
  5
119
330
E4
100
AcDbEntity
  8
0
  6
Continuous
 62
     0
370
    30
100
AcDbLine
 10
295.883319
 20
283.812212
 30
0.0
 11
295.183329
 21
283.812212
 31
0.0
  0
LINE
  5
11A
330
E4
100
AcDbEntity
  8
0
  6
Continuous
 62
     0
370
    30
100
AcDbLine
 10
295.183329
 20
283.812212
 30
0.0
 11
295.236755
 21
273.608547
 31
0.0
  0
LINE
  5
11B
330
E4
100
AcDbEntity
  8
0
  6
Continuous
 62
     0
370
    30
100
AcDbLine
 10
315.990421
 20
283.812212
 30
0.0
 11
295.883319
 21
283.812212
 31
0.0
  0
LINE
  5
11C
330
E4
100
AcDbEntity
  8
0
  6
Continuous
 62
     0
370
    30
100
AcDbLine
 10
396.097484
 20
283.812212
 30
0.0
 11
375.990421
 21
283.812212
 31
0.0
  0
LINE
  5
11D
330
E4
100
AcDbEntity
  8
0
  6
Continuous
 62
     0
370
    30
100
AcDbLine
 10
333.655013
 20
269.692212
 30
0.0
 11
323.990421
 21
269.692213
 31
0.0
  0
LINE
  5
11E
330
E4
100
AcDbEntity
  8
0
  6
Continuous
 62
     0
370
    30
100
AcDbLine
 10
367.990421
 20
269.692213
 30
0.0
 11
358.325841
 21
269.692212
 31
0.0
  0
LINE
  5
11F
330
E4
100
AcDbEntity
  8
0
  6
Continuous
 62
     0
370
    30
100
AcDbLine
 10
367.490717
 20
219.692213
 30
0.0
 11
345.990421
 21
219.692212
 31
0.0
  0
LINE
  5
120
330
E4
100
AcDbEntity
  8
0
  6
Continuous
 62
     0
370
    30
100
AcDbLine
 10
345.990421
 20
219.692212
 30
0.0
 11
324.490129
 21
219.692213
 31
0.0
  0
LWPOLYLINE
  5
121
330
E4
100
AcDbEntity
  8
0
  6
Continuous
 62
     0
370
    30
100
AcDbPolyline
 90
       28
 70
     0
 43
0.0
 10
367.990021
 20
220.191833
 10
367.952484
 20
220.191757
 10
367.840485
 20
220.191589
 10
367.654816
 20
220.19136
 10
367.396271
 20
220.191116
 10
367.065735
 20
220.190903
 10
366.664337
 20
220.19075
 10
366.193237
 20
220.190674
 10
365.653534
 20
220.190689
 10
365.046997
 20
220.190781
 10
364.376251
 20
220.190964
 10
363.644135
 20
220.191193
 10
362.853363
 20
220.191483
 10
362.006409
 20
220.191788
 10
361.105377
 20
220.192047
 10
360.152802
 20
220.192184
 10
359.151672
 20
220.192139
 10
358.10556
 20
220.19191
 10
357.018402
 20
220.191559
 10
355.894073
 20
220.191208
 10
354.736572
 20
220.190903
 10
353.549622
 20
220.19072
 10
352.336975
 20
220.190674
 10
351.102356
 20
220.190796
 10
349.849609
 20
220.191116
 10
348.583984
 20
220.191528
 10
347.311188
 20
220.191925
 10
345.990417
 20
220.192215
  0
LWPOLYLINE
  5
122
330
E4
100
AcDbEntity
  8
0
  6
Continuous
 62
     0
370
    30
100
AcDbPolyline
 90
       28
 70
     0
 43
0.0
 10
345.990417
 20
220.192215
 10
344.715057
 20
220.19194
 10
343.442108
 20
220.191544
 10
342.176147
 20
220.191116
 10
340.922852
 20
220.190811
 10
339.687469
 20
220.190674
 10
338.473999
 20
220.190704
 10
337.286072
 20
220.190887
 10
336.127441
 20
220.191193
 10
335.001892
 20
220.191559
 10
333.91333
 20
220.191895
 10
332.865692
 20
220.192139
 10
331.862885
 20
220.1922
 10
330.908508
 20
220.192047
 10
330.005615
 20
220.191803
 10
329.156708
 20
220.191498
 10
328.363892
 20
220.191208
 10
327.629639
 20
220.190964
 10
326.956665
 20
220.190781
 10
326.347778
 20
220.190689
 10
325.805664
 20
220.190674
 10
325.332092
 20
220.19075
 10
324.928192
 20
220.190903
 10
324.595123
 20
220.191101
 10
324.334015
 20
220.191345
 10
324.145721
 20
220.191574
 10
324.031067
 20
220.191757
 10
323.990814
 20
220.191833
  0
LWPOLYLINE
  5
123
330
E4
100
AcDbEntity
  8
0
  6
Continuous
 62
     0
370
     0
100
AcDbPolyline
 90
       25
 70
     0
 43
0.0
 10
345.990417
 20
232.792206
 10
346.525116
 20
232.756653
 10
347.053436
 20
232.650391
 10
347.561981
 20
232.477219
 10
348.04129
 20
232.242599
 10
348.486877
 20
231.94931
 10
348.887756
 20
231.596786
 10
349.239319
 20
231.195007
 10
349.536682
 20
230.751709
 10
349.773682
 20
230.271133
 10
349.946777
 20
229.762405
 10
350.053131
 20
229.236176
 10
350.090057
 20
228.702057
 10
350.055725
 20
228.167801
 10
349.951813
 20
227.641129
 10
349.781067
 20
227.131592
 10
349.546295
 20
226.649826
 10
349.251038
 20
226.205093
 10
348.901367
 20
225.801682
 10
348.502289
 20
225.447098
 10
348.058197
 20
225.151535
 10
347.579987
 20
224.914719
 10
347.072418
 20
224.739212
 10
346.544525
 20
224.630539
 10
345.990448
 20
224.592606
  0
LWPOLYLINE
  5
124
330
E4
100
AcDbEntity
  8
0
  6
Continuous
 62
     0
370
     0
100
AcDbPolyline
 90
       25
 70
     0
 43
0.0
 10
345.990448
 20
224.592606
 10
345.45575
 20
224.62793
 10
344.927368
 20
224.734085
 10
344.418823
 20
224.907242
 10
343.939514
 20
225.141922
 10
343.493958
 20
225.435272
 10
343.093109
 20
225.787842
 10
342.741547
 20
226.189651
 10
342.444214
 20
226.632965
 10
342.207214
 20
227.113541
 10
342.034119
 20
227.622284
 10
341.927734
 20
228.148514
 10
341.890778
 20
228.682648
 10
341.925079
 20
229.216904
 10
342.029053
 20
229.743576
 10
342.19989
 20
230.253067
 10
342.434753
 20
230.734833
 10
342.72998
 20
231.179581
 10
343.07962
 20
231.583023
 10
343.478699
 20
231.937622
 10
343.922821
 20
232.233154
 10
344.401062
 20
232.469879
 10
344.908661
 20
232.645325
 10
345.436554
 20
232.754074
 10
345.990417
 20
232.792206
  0
LWPOLYLINE
  5
125
330
E4
100
AcDbEntity
  8
0
  6
Continuous
 62
     0
370
    30
100
AcDbPolyline
 90
       10
 70
     0
 43
0.0
 10
342.175934
 20
229.717957
 10
342.344849
 20
230.213974
 10
342.578308
 20
230.682343
 10
342.871429
 20
231.115387
 10
343.218445
 20
231.506424
 10
343.6138
 20
231.847916
 10
344.051666
 20
232.133362
 10
344.525513
 20
232.3591
 10
345.02713
 20
232.521606
 10
345.579224
 20
232.620743
  0
LWPOLYLINE
  5
126
330
E4
100
AcDbEntity
  8
0
  6
Continuous
 62
     0
370
    30
100
AcDbPolyline
 90
       10
 70
     0
 43
0.0
 10
346.40332
 20
232.620575
 10
346.918427
 20
232.53038
 10
347.416565
 20
232.374298
 10
347.888214
 20
232.15596
 10
348.325256
 20
231.878815
 10
348.721222
 20
231.546326
 10
349.070465
 20
231.164505
 10
349.367554
 20
230.740707
 10
349.606964
 20
230.281464
 10
349.794098
 20
229.75737
  0
ARC
  5
127
330
E4
100
AcDbEntity
  8
0
  6
Continuous
 62
     0
370
    30
100
AcDbCircle
 10
345.990421
 20
228.692212
 30
0.0
 40
3.950000000000013
100
AcDbArc
 50
90.0
 51
269.999997
  0
ARC
  5
128
330
E4
100
AcDbEntity
  8
0
  6
Continuous
 62
     0
370
    30
100
AcDbCircle
 10
345.990421
 20
228.692212
 30
0.0
 40
3.949999999999978
100
AcDbArc
 50
269.999997
 51
90.0
  0
ARC
  5
129
330
E4
100
AcDbEntity
  8
0
  6
Continuous
 62
     0
370
    30
100
AcDbCircle
 10
345.990468
 20
228.692212
 30
0.0
 40
3.450000000319434
100
AcDbArc
 50
269.99922
 51
90.00078
  0
ARC
  5
12A
330
E4
100
AcDbEntity
  8
0
  6
Continuous
 62
     0
370
    30
100
AcDbCircle
 10
345.990374
 20
228.692212
 30
0.0
 40
3.450000000319427
100
AcDbArc
 50
89.99922
 51
270.00078
  0
LINE
  5
12B
330
E4
100
AcDbEntity
  8
0
  6
Continuous
 62
     0
370
    30
100
AcDbLine
 10
367.990421
 20
269.692214
 30
0.0
 11
367.990421
 21
220.192213
 31
0.0
  0
LINE
  5
12C
330
E4
100
AcDbEntity
  8
0
  6
Continuous
 62
     0
370
    30
100
AcDbLine
 10
323.990421
 20
269.692214
 30
0.0
 11
323.990421
 21
220.192213
 31
0.0
  0
LINE
  5
12D
330
E4
100
AcDbEntity
  8
0
  6
Continuous
 62
     0
370
    30
100
AcDbLine
 10
367.490809
 20
219.692601
 30
0.0
 11
367.990123
 21
220.191915
 31
0.0
  0
LINE
  5
12E
330
E4
100
AcDbEntity
  8
0
  6
Continuous
 62
     0
370
    30
100
AcDbLine
 10
323.990719
 20
220.191915
 30
0.0
 11
324.490035
 21
219.6926
 31
0.0
  0
LINE
  5
12F
330
E4
100
AcDbEntity
  8
0
  6
Continuous
 62
     0
370
    30
100
AcDbLine
 10
364.990403
 20
272.912214
 30
0.0
 11
364.990403
 21
269.692213
 31
0.0
  0
LINE
  5
130
330
E4
100
AcDbEntity
  8
0
  6
Continuous
 62
     0
370
    30
100
AcDbLine
 10
326.990403
 20
272.912214
 30
0.0
 11
326.990403
 21
269.692213
 31
0.0
  0
ENDBLK
  5
132
330
E4
100
AcDbEntity
  8
0
100
AcDbBlockEnd
  0
BLOCK
  5
199
330
134
100
AcDbEntity
  8
0
100
AcDbBlockBegin
  2
c
 70
     0
 10
267.170837
 20
87.328545
 30
0.0
  3
c
  1

  0
LINE
  5
135
330
134
100
AcDbEntity
  8
0
  6
Continuous
 62
     0
370
    30
100
AcDbLine
 10
472.849862
 20
561.107963
 30
0.0
 11
482.849862
 21
561.107963
 31
0.0
  0
LINE
  5
136
330
134
100
AcDbEntity
  8
0
  6
Continuous
 62
     0
370
    30
100
AcDbLine
 10
472.849862
 20
561.107963
 30
0.0
 11
472.849862
 21
501.107963
 31
0.0
  0
LINE
  5
137
330
134
100
AcDbEntity
  8
0
  6
Continuous
 62
     0
370
    30
100
AcDbLine
 10
472.849862
 20
501.107963
 30
0.0
 11
482.849862
 21
501.107963
 31
0.0
  0
LINE
  5
138
330
134
100
AcDbEntity
  8
0
  6
Continuous
 62
     0
370
    30
100
AcDbLine
 10
482.849862
 20
501.107963
 30
0.0
 11
482.849862
 21
561.107963
 31
0.0
  0
ARC
  5
139
330
134
100
AcDbEntity
  8
0
  6
Continuous
 62
     0
370
    30
100
AcDbCircle
 10
483.849861
 20
543.691431
 30
0.0
 40
0.9999999391824632
100
AcDbArc
 50
74.556964
 51
179.999985
  0
ARC
  5
13A
330
134
100
AcDbEntity
  8
0
  6
Continuous
 62
     0
370
     0
100
AcDbCircle
 10
483.849861
 20
518.524395
 30
0.0
 40
0.9999999387332689
100
AcDbArc
 50
180.000015
 51
285.443036
  0
LWPOLYLINE
  5
13B
330
134
100
AcDbEntity
  8
0
  6
Continuous
 62
     0
370
    30
100
AcDbPolyline
 90
       43
 70
     0
 43
0.0
 10
484.11615
 20
544.655334
 10
484.116058
 20
544.615234
 10
484.115875
 20
544.494995
 10
484.115601
 20
544.297363
 10
484.115234
 20
544.024963
 10
484.114868
 20
543.680725
 10
484.114441
 20
543.267456
 10
484.113983
 20
542.788025
 10
484.113403
 20
542.244568
 10
484.112915
 20
541.639465
 10
484.112579
 20
540.97522
 10
484.112
 20
540.255432
 10
484.111145
 20
539.484497
 10
484.110443
 20
538.667847
 10
484.109985
 20
537.811035
 10
484.109589
 20
536.919739
 10
484.109192
 20
535.99939
 10
484.108856
 20
535.054565
 10
484.108643
 20
534.0896
 10
484.108551
 20
533.109009
 10
484.108582
 20
532.117859
 10
484.108612
 20
531.12146
 10
484.108582
 20
530.125
 10
484.108551
 20
529.133667
 10
484.108643
 20
528.15271
 10
484.108856
 20
527.187195
 10
484.109192
 20
526.241699
 10
484.109589
 20
525.320618
 10
484.109985
 20
524.428406
 10
484.110443
 20
523.570557
 10
484.111145
 20
522.752686
 10
484.112
 20
521.980469
 10
484.112579
 20
521.259216
 10
484.112885
 20
520.593506
 10
484.113403
 20
519.986694
 10
484.113983
 20
519.441528
 10
484.114441
 20
518.960327
 10
484.114838
 20
518.545227
 10
484.115204
 20
518.199036
 10
484.11557
 20
517.924622
 10
484.115845
 20
517.724976
 10
484.116058
 20
517.602661
 10
484.11615
 20
517.560486
  0
LWPOLYLINE
  5
13C
330
134
100
AcDbEntity
  8
0
  6
Continuous
 62
     0
370
    30
100
AcDbPolyline
 90
       52
 70
     0
 43
0.0
 10
484.11615
 20
517.560486
 10
484.590057
 20
517.693176
 10
485.063812
 20
517.826538
 10
485.537231
 20
517.961121
 10
486.010132
 20
518.097534
 10
486.482513
 20
518.235779
 10
486.954437
 20
518.375671
 10
487.425964
 20
518.516968
 10
487.897095
 20
518.659546
 10
488.367859
 20
518.803467
 10
488.838226
 20
518.948669
 10
489.308228
 20
519.095154
 10
489.777863
 20
519.242798
 10
490.247131
 20
519.391724
 10
490.716034
 20
519.541748
 10
491.18457
 20
519.692932
 10
491.652802
 20
519.845276
 10
492.120667
 20
519.998596
 10
492.588226
 20
520.152954
 10
493.055481
 20
520.308289
 10
493.52243
 20
520.4646
 10
493.989105
 20
520.621765
 10
494.455475
 20
520.779846
 10
494.9216
 20
520.938721
 10
495.387451
 20
521.098389
 10
495.853027
 20
521.258789
 10
496.31839
 20
521.419922
 10
496.783539
 20
521.581726
 10
497.248444
 20
521.744141
 10
497.713165
 20
521.907227
 10
498.177673
 20
522.070862
 10
498.641998
 20
522.235046
 10
499.10614
 20
522.399719
 10
499.570129
 20
522.564941
 10
500.033966
 20
522.730591
 10
500.49765
 20
522.896606
 10
500.961212
 20
523.062988
 10
501.424683
 20
523.229736
 10
501.888062
 20
523.396729
 10
502.351349
 20
523.563965
 10
502.814575
 20
523.731506
 10
503.277649
 20
523.899353
 10
503.740601
 20
524.067505
 10
504.203522
 20
524.23584
 10
504.666504
 20
524.403931
 10
505.12973
 20
524.571594
 10
505.592682
 20
524.739929
 10
506.054596
 20
524.910461
 10
506.519287
 20
525.074768
 10
506.99231
 20
525.213013
 10
507.477936
 20
525.289795
 10
507.974487
 20
525.268005
  0
ARC
  5
13D
330
134
100
AcDbEntity
  8
0
  6
Continuous
 62
     0
370
     0
100
AcDbCircle
 10
530.52283
 20
525.533807
 30
0.0
 40
22.54990551056372
100
AcDbArc
 50
179.171026
 51
180.675319
  0
ARC
  5
13E
330
134
100
AcDbEntity
  8
0
  6
Continuous
 62
     0
370
     0
100
AcDbCircle
 10
489.862516
 20
526.016987
 30
0.0
 40
18.11344814651915
100
AcDbArc
 50
359.503591
 51
0.649836
  0
LWPOLYLINE
  5
13F
330
134
100
AcDbEntity
  8
0
  6
Continuous
 62
     0
370
     0
100
AcDbPolyline
 90
        3
 70
     0
 43
0.0
 10
507.974792
 20
526.222412
 10
507.966888
 20
526.600159
 10
507.96936
 20
527.105774
  0
LINE
  5
140
330
134
100
AcDbEntity
  8
0
  6
Continuous
 62
     0
370
     0
100
AcDbLine
 10
507.969361
 20
527.105797
 30
0.0
 11
507.979683
 21
527.615032
 31
0.0
  0
LWPOLYLINE
  5
141
330
134
100
AcDbEntity
  8
0
  6
Continuous
 62
     0
370
    30
100
AcDbPolyline
 90
       21
 70
     0
 43
0.0
 10
507.979675
 20
527.615051
 10
507.981903
 20
528.150696
 10
507.976959
 20
528.721863
 10
507.971954
 20
529.320374
 10
507.971344
 20
529.937866
 10
507.973511
 20
530.567749
 10
507.9758
 20
531.203613
 10
507.976715
 20
531.838623
 10
507.976685
 20
532.46582
 10
507.976318
 20
533.078064
 10
507.976013
 20
533.668274
 10
507.975739
 20
534.229187
 10
507.975494
 20
534.753662
 10
507.975372
 20
535.234375
 10
507.975494
 20
535.66449
 10
507.975525
 20
536.039368
 10
507.975494
 20
536.355103
 10
507.975403
 20
536.607666
 10
507.975403
 20
536.793213
 10
507.975494
 20
536.907837
 10
507.975677
 20
536.947937
  0
LINE
  5
142
330
134
100
AcDbEntity
  8
0
  6
Continuous
 62
     0
370
     0
100
AcDbLine
 10
508.372375
 20
527.396948
 30
0.0
 11
508.372375
 21
537.004293
 31
0.0
  0
LINE
  5
143
330
134
100
AcDbEntity
  8
0
  6
Continuous
 62
     0
370
    30
100
AcDbLine
 10
508.372375
 20
537.004293
 30
0.0
 11
508.020482
 21
536.954281
 31
0.0
  0
LINE
  5
144
330
134
100
AcDbEntity
  8
0
  6
Continuous
 62
     0
370
     0
100
AcDbLine
 10
507.979718
 20
527.615102
 30
0.0
 11
508.372375
 21
527.396948
 31
0.0
  0
ARC
  5
145
330
134
100
AcDbEntity
  8
0
  6
Continuous
 62
     0
370
    30
100
AcDbCircle
 10
510.223947
 20
501.294541
 30
0.0
 40
17.45873449542393
100
AcDbArc
 50
84.192268
 51
85.736595
  0
LWPOLYLINE
  5
146
330
134
100
AcDbEntity
  8
0
  6
Continuous
 62
     0
370
    30
100
AcDbPolyline
 90
       68
 70
     0
 43
0.0
 10
511.990601
 20
518.663635
 10
512.140076
 20
519.288879
 10
512.210571
 20
519.677246
 10
512.251648
 20
519.979004
 10
512.277344
 20
520.236938
 10
512.292908
 20
520.467468
 10
512.300781
 20
520.679443
 10
512.302246
 20
520.878357
 10
512.298218
 20
521.067688
 10
512.289062
 20
521.24939
 10
512.27533
 20
521.4245
 10
512.257385
 20
521.593567
 10
512.235779
 20
521.756714
 10
512.210876
 20
521.914062
 10
512.183167
 20
522.065735
 10
512.153076
 20
522.211792
 10
512.120972
 20
522.352356
 10
512.087219
 20
522.487549
 10
512.052246
 20
522.617432
 10
512.016479
 20
522.741821
 10
511.980255
 20
522.860657
 10
511.944
 20
522.973816
 10
511.907959
 20
523.08136
 10
511.872284
 20
523.183533
 10
511.836975
 20
523.280823
 10
511.801819
 20
523.374023
 10
511.76651
 20
523.464233
 10
511.730652
 20
523.552551
 10
511.693817
 20
523.639893
 10
511.655609
 20
523.727234
 10
511.615814
 20
523.815063
 10
511.574127
 20
523.903625
 10
511.530487
 20
523.993042
 10
511.484772
 20
524.083313
 10
511.436859
 20
524.174316
 10
511.386749
 20
524.266052
 10
511.334534
 20
524.358276
 10
511.280457
 20
524.450623
 10
511.224823
 20
524.542542
 10
511.168152
 20
524.63324
 10
511.110718
 20
524.72229
 10
511.052643
 20
524.809265
 10
510.993591
 20
524.894531
 10
510.932861
 20
524.978821
 10
510.869446
 20
525.063477
 10
510.802338
 20
525.14978
 10
510.730743
 20
525.238708
 10
510.654449
 20
525.330627
 10
510.573914
 20
525.42511
 10
510.490112
 20
525.521057
 10
510.404419
 20
525.616882
 10
510.318329
 20
525.710999
 10
510.233124
 20
525.802002
 10
510.149689
 20
525.889038
 10
510.068329
 20
525.971985
 10
509.988708
 20
526.051208
 10
509.909973
 20
526.127686
 10
509.830719
 20
526.202942
 10
509.749176
 20
526.278625
 10
509.663177
 20
526.356628
 10
509.570282
 20
526.439148
 10
509.467682
 20
526.528381
 10
509.352295
 20
526.626648
 10
509.22049
 20
526.736511
 10
509.067688
 20
526.860962
 10
508.886993
 20
527.00415
 10
508.666595
 20
527.172363
 10
508.364502
 20
527.384705
  0
LWPOLYLINE
  5
147
330
134
100
AcDbEntity
  8
0
  6
Continuous
 62
     0
370
    30
100
AcDbPolyline
 90
       62
 70
     0
 43
0.0
 10
507.975311
 20
525.860168
 10
508.479797
 20
525.730652
 10
508.762512
 20
525.639832
 10
508.981934
 20
525.556458
 10
509.160736
 20
525.47821
 10
509.31015
 20
525.404541
 10
509.437286
 20
525.334961
 10
509.547363
 20
525.268921
 10
509.644775
 20
525.205261
 10
509.733307
 20
525.142517
 10
509.816193
 20
525.079224
 10
509.896057
 20
525.013794
 10
509.975037
 20
524.94458
 10
510.054504
 20
524.870605
 10
510.135162
 20
524.791199
 10
510.216827
 20
524.706604
 10
510.298584
 20
524.617798
 10
510.379059
 20
524.526489
 10
510.456543
 20
524.434631
 10
510.529694
 20
524.344238
 10
510.597595
 20
524.256409
 10
510.660187
 20
524.171448
 10
510.718109
 20
524.088562
 10
510.772461
 20
524.006348
 10
510.824493
 20
523.92334
 10
510.875061
 20
523.838501
 10
510.924622
 20
523.751526
 10
510.973114
 20
523.662781
 10
511.020142
 20
523.573181
 10
511.065277
 20
523.483398
 10
511.108185
 20
523.394043
 10
511.148743
 20
523.305603
 10
511.18692
 20
523.218079
 10
511.222839
 20
523.131531
 10
511.256592
 20
523.046082
 10
511.28833
 20
522.961548
 10
511.318298
 20
522.877625
 10
511.346802
 20
522.793579
 10
511.374207
 20
522.708252
 10
511.400879
 20
522.620544
 10
511.427124
 20
522.529114
 10
511.453186
 20
522.432861
 10
511.479034
 20
522.331177
 10
511.504486
 20
522.223694
 10
511.529205
 20
522.110413
 10
511.552826
 20
521.991516
 10
511.574921
 20
521.867188
 10
511.595154
 20
521.73761
 10
511.613159
 20
521.602722
 10
511.628754
 20
521.462524
 10
511.641815
 20
521.316895
 10
511.652252
 20
521.165833
 10
511.660004
 20
521.009216
 10
511.665009
 20
520.846985
 10
511.666962
 20
520.678467
 10
511.665253
 20
520.50238
 10
511.6586
 20
520.31604
 10
511.64502
 20
520.114685
 10
511.622498
 20
519.890076
 10
511.590942
 20
519.626892
 10
511.555389
 20
519.285828
 10
511.521851
 20
518.704956
  0
LINE
  5
148
330
134
100
AcDbEntity
  8
0
  6
Continuous
 62
     0
370
    30
100
AcDbLine
 10
508.070081
 20
525.253452
 30
0.0
 11
507.974491
 21
525.268027
 31
0.0
  0
LWPOLYLINE
  5
149
330
134
100
AcDbEntity
  8
0
  6
Continuous
 62
     0
370
    30
100
AcDbPolyline
 90
       57
 70
     0
 43
0.0
 10
511.521942
 20
518.706909
 10
511.541809
 20
519.194702
 10
511.562103
 20
519.497681
 10
511.576782
 20
519.732544
 10
511.586151
 20
519.933289
 10
511.591187
 20
520.112732
 10
511.592682
 20
520.278076
 10
511.591125
 20
520.43396
 10
511.586853
 20
520.58313
 10
511.580078
 20
520.727417
 10
511.571014
 20
520.867676
 10
511.559814
 20
521.004211
 10
511.546631
 20
521.137024
 10
511.531586
 20
521.265991
 10
511.514801
 20
521.391113
 10
511.496399
 20
521.512207
 10
511.476532
 20
521.629333
 10
511.455353
 20
521.742554
 10
511.433044
 20
521.851685
 10
511.409882
 20
521.956665
 10
511.386078
 20
522.057312
 10
511.362
 20
522.153259
 10
511.337952
 20
522.244202
 10
511.31424
 20
522.329834
 10
511.291138
 20
522.409973
 10
511.268768
 20
522.484619
 10
511.247192
 20
522.554077
 10
511.226257
 20
522.618958
 10
511.20575
 20
522.680115
 10
511.185242
 20
522.738708
 10
511.164276
 20
522.796082
 10
511.142334
 20
522.853516
 10
511.118988
 20
522.912048
 10
511.093872
 20
522.972595
 10
511.066803
 20
523.035522
 10
511.03772
 20
523.100769
 10
511.006714
 20
523.16803
 10
510.973816
 20
523.236877
 10
510.939178
 20
523.306824
 10
510.90274
 20
523.37738
 10
510.864471
 20
523.448425
 10
510.824249
 20
523.519775
 10
510.782013
 20
523.591492
 10
510.737549
 20
523.663452
 10
510.690704
 20
523.735718
 10
510.641266
 20
523.808289
 10
510.588837
 20
523.881226
 10
510.532806
 20
523.954895
 10
510.472626
 20
524.029602
 10
510.407593
 20
524.105713
 10
510.33728
 20
524.183289
 10
510.261475
 20
524.262146
 10
510.180084
 20
524.341736
 10
510.09314
 20
524.421387
 10
510.000366
 20
524.500427
 10
509.900818
 20
524.578613
 10
509.790833
 20
524.657227
  0
LWPOLYLINE
  5
14A
330
134
100
AcDbEntity
  8
0
  6
Continuous
 62
     0
370
    30
100
AcDbPolyline
 90
        6
 70
     0
 43
0.0
 10
520.050049
 20
525.653992
 10
517.789734
 20
526.073425
 10
515.517029
 20
526.464294
 10
513.229431
 20
526.817627
 10
510.925659
 20
527.124329
 10
508.372375
 20
527.396973
  0
LINE
  5
14B
330
134
100
AcDbEntity
  8
0
  6
Continuous
 62
     0
370
     0
100
AcDbLine
 10
521.061255
 20
525.458842
 30
0.0
 11
520.050032
 21
525.65402
 31
0.0
  0
LWPOLYLINE
  5
14C
330
134
100
AcDbEntity
  8
0
  6
Continuous
 62
     0
370
    30
100
AcDbPolyline
 90
       28
 70
     0
 43
0.0
 10
522.454041
 20
540.518188
 10
522.429199
 20
540.470276
 10
522.413574
 20
540.357483
 10
522.388733
 20
540.177429
 10
522.355835
 20
539.933716
 10
522.316467
 20
539.629639
 10
522.271423
 20
539.267822
 10
522.221252
 20
538.85083
 10
522.166504
 20
538.381958
 10
522.107727
 20
537.865112
 10
522.045532
 20
537.304749
 10
521.98053
 20
536.705383
 10
521.913513
 20
536.071716
 10
521.845093
 20
535.408447
 10
521.776062
 20
534.720276
 10
521.707092
 20
534.011719
 10
521.638916
 20
533.287109
 10
521.572083
 20
532.55072
 10
521.507141
 20
531.806763
 10
521.444519
 20
531.059204
 10
521.384583
 20
530.312134
 10
521.327637
 20
529.569824
 10
521.273926
 20
528.836609
 10
521.223755
 20
528.117065
 10
521.177246
 20
527.415894
 10
521.134521
 20
526.737793
 10
521.095947
 20
526.087769
 10
521.061279
 20
525.458862
  0
ARC
  5
14D
330
134
100
AcDbEntity
  8
0
  6
Continuous
 62
     0
370
     0
100
AcDbCircle
 10
454.56805
 20
754.122096
 30
0.0
 40
224.1319669438124
100
AcDbArc
 50
287.219969
 51
287.630907
  0
ARC
  5
14E
330
134
100
AcDbEntity
  8
0
  6
Continuous
 62
     0
370
     0
100
AcDbCircle
 10
500.317034
 20
592.122512
 30
0.0
 40
55.70373920366269
100
AcDbArc
 50
278.31472
 51
279.81426
  0
LWPOLYLINE
  5
14F
330
134
100
AcDbEntity
  8
0
  6
Continuous
 62
     0
370
     0
100
AcDbPolyline
 90
       16
 70
     0
 43
0.0
 10
520.980469
 20
517.862305
 10
520.974915
 20
517.536743
 10
520.96991
 20
517.221558
 10
520.965027
 20
516.901367
 10
520.958618
 20
516.443298
 10
520.935486
 20
512.760254
 10
520.975952
 20
509.076508
 10
521.070496
 20
505.393921
 10
521.214783
 20
501.713226
 10
521.400513
 20
498.034332
 10
521.618286
 20
494.357147
 10
521.85791
 20
490.681519
 10
522.108826
 20
487.006805
 10
522.360352
 20
483.333191
 10
522.603027
 20
479.659058
 10
522.836731
 20
475.816162
  0
LWPOLYLINE
  5
150
330
134
100
AcDbEntity
  8
0
  6
Continuous
 62
     0
370
     0
100
AcDbPolyline
 90
       10
 70
     0
 43
0.0
 10
521.061279
 20
525.458862
 10
521.028442
 20
524.758423
 10
521.00824
 20
524.056335
 10
520.99469
 20
523.311096
 10
520.992493
 20
522.507019
 10
520.997559
 20
521.649109
 10
521.006836
 20
520.75116
 10
521.007935
 20
519.830261
 10
520.997375
 20
518.901123
 10
520.980469
 20
517.862305
  0
LWPOLYLINE
  5
151
330
134
100
AcDbEntity
  8
0
  6
Continuous
 62
     0
370
    30
100
AcDbPolyline
 90
        6
 70
     0
 43
0.0
 10
508.326813
 20
476.585907
 10
509.054657
 20
484.942841
 10
509.784943
 20
493.29953
 10
510.511444
 20
501.656586
 10
511.23761
 20
510.013672
 10
511.990631
 20
518.663635
  0
LINE
  5
152
330
134
100
AcDbEntity
  8
0
  6
Continuous
 62
     0
370
     0
100
AcDbLine
 10
522.836708
 20
475.816162
 30
0.0
 11
508.326821
 21
476.585913
 31
0.0
  0
ARC
  5
153
330
134
100
AcDbEntity
  8
0
  6
Continuous
 62
     0
370
     0
100
AcDbCircle
 10
522.605546
 20
540.041691
 30
0.0
 40
0.5000000860550645
100
AcDbArc
 50
355.733587
 51
107.63845
  0
LWPOLYLINE
  5
154
330
134
100
AcDbEntity
  8
0
  6
Continuous
 62
     0
370
    30
100
AcDbPolyline
 90
       23
 70
     0
 43
0.0
 10
523.104187
 20
540.004517
 10
523.091553
 20
539.968323
 10
523.070068
 20
539.860657
 10
523.040466
 20
539.684937
 10
523.003479
 20
539.444946
 10
522.9599
 20
539.143494
 10
522.910339
 20
538.782898
 10
522.855408
 20
538.365417
 10
522.795959
 20
537.894287
 10
522.732849
 20
537.373596
 10
522.667114
 20
536.807617
 10
522.59967
 20
536.200867
 10
522.53125
 20
535.558838
 10
522.462708
 20
534.887085
 10
522.394714
 20
534.191101
 10
522.327942
 20
533.47583
 10
522.262939
 20
532.746216
 10
522.200256
 20
532.006958
 10
522.140442
 20
531.262634
 10
522.083923
 20
530.518005
 10
522.030762
 20
529.778687
 10
521.981384
 20
529.049622
 10
521.934265
 20
528.300659
  0
LWPOLYLINE
  5
155
330
134
100
AcDbEntity
  8
0
  6
Continuous
 62
     0
370
    30
100
AcDbPolyline
 90
        6
 70
     0
 43
0.0
 10
521.794067
 20
525.681763
 10
521.736572
 20
525.572205
 10
521.613098
 20
525.484619
 10
521.442261
 20
525.432129
 10
521.243774
 20
525.423157
 10
521.061279
 20
525.458862
  0
ARC
  5
156
330
134
100
AcDbEntity
  8
0
  6
Continuous
 62
     0
370
    30
100
AcDbCircle
 10
673.41403
 20
518.92007
 30
0.0
 40
151.7706858774019
100
AcDbArc
 50
176.656275
 51
177.446505
  0
LWPOLYLINE
  5
157
330
134
100
AcDbEntity
  8
0
  6
Continuous
 62
     0
370
    30
100
AcDbPolyline
 90
        5
 70
     0
 43
0.0
 10
522.21875
 20
532.243347
 10
522.132202
 20
531.170898
 10
522.052429
 20
530.099243
 10
521.980103
 20
529.044556
 10
521.901733
 20
527.772217
  0
LWPOLYLINE
  5
158
330
134
100
AcDbEntity
  8
0
  6
Continuous
 62
     0
370
    30
100
AcDbPolyline
 90
       10
 70
     0
 43
0.0
 10
523.104187
 20
540.004517
 10
523.09198
 20
539.971252
 10
523.071289
 20
539.869812
 10
523.042786
 20
539.703308
 10
523.007263
 20
539.47522
 10
522.965393
 20
539.188354
 10
522.917725
 20
538.844727
 10
522.864868
 20
538.446533
 10
522.807495
 20
537.996521
 10
522.742126
 20
537.461731
  0
LINE
  5
159
330
134
100
AcDbEntity
  8
0
  6
Continuous
 62
     0
370
     0
100
AcDbLine
 10
521.509135
 20
517.810499
 30
0.0
 11
521.505366
 21
517.634463
 31
0.0
  0
LINE
  5
15A
330
134
100
AcDbEntity
  8
0
  6
Continuous
 62
     0
370
    30
100
AcDbLine
 10
521.510976
 20
517.902059
 30
0.0
 11
521.509141
 21
517.81611
 31
0.0
  0
ARC
  5
15B
330
134
100
AcDbEntity
  8
0
  6
Continuous
 62
     0
370
    30
100
AcDbCircle
 10
830.486427
 20
510.424334
 30
0.0
 40
309.0692110437394
100
AcDbArc
 50
177.170399
 51
178.208587
  0
LWPOLYLINE
  5
15C
330
134
100
AcDbEntity
  8
0
  6
Continuous
 62
     0
370
     0
100
AcDbPolyline
 90
       13
 70
     0
 43
0.0
 10
521.509155
 20
517.816101
 10
521.464905
 20
514.336853
 10
521.476074
 20
510.859222
 10
521.539368
 20
507.381073
 10
521.649597
 20
503.904022
 10
521.801208
 20
500.42868
 10
521.987
 20
496.955139
 10
522.198853
 20
493.483063
 10
522.42804
 20
490.012115
 10
522.665527
 20
486.54184
 10
522.902893
 20
483.072205
 10
523.131165
 20
479.600555
 10
523.362061
 20
475.826294
  0
LWPOLYLINE
  5
15D
330
134
100
AcDbEntity
  8
0
  6
Continuous
 62
     0
370
     0
100
AcDbPolyline
 90
        6
 70
     0
 43
0.0
 10
522.836731
 20
475.816132
 10
522.987671
 20
475.824127
 10
523.128601
 20
475.829773
 10
523.243774
 20
475.832397
 10
523.323303
 20
475.831757
 10
523.362
 20
475.826294
  0
LWPOLYLINE
  5
15E
330
134
100
AcDbEntity
  8
0
  6
Continuous
 62
     0
370
     0
100
AcDbPolyline
 90
        2
 70
     0
 43
0.0
 10
522.911072
 20
475.299866
 10
522.836548
 20
475.298309
  0
LWPOLYLINE
  5
15F
330
134
100
AcDbEntity
  8
0
  6
Continuous
 62
     0
370
     0
100
AcDbPolyline
 90
        6
 70
     0
 43
0.0
 10
522.836548
 20
475.298309
 10
522.829712
 20
475.32135
 10
522.825867
 20
475.387299
 10
522.825378
 20
475.490082
 10
522.828308
 20
475.620667
 10
522.836792
 20
475.816162
  0
LINE
  5
160
330
134
100
AcDbEntity
  8
0
  6
Continuous
 62
     0
370
    30
100
AcDbLine
 10
522.773916
 20
475.292466
 30
0.0
 11
522.83653
 21
475.298302
 31
0.0
  0
ARC
  5
161
330
134
100
AcDbEntity
  8
0
  6
Continuous
 62
     0
370
    30
100
AcDbCircle
 10
522.800288
 20
475.791553
 30
0.0
 40
0.49978240965817
100
AcDbArc
 50
266.975237
 51
279.030032
  0
LINE
  5
162
330
134
100
AcDbEntity
  8
0
  6
Continuous
 62
     0
370
    30
100
AcDbLine
 10
522.83653
 20
475.298301
 30
0.0
 11
508.326556
 21
476.06316
 31
0.0
  0
LWPOLYLINE
  5
163
330
134
100
AcDbEntity
  8
0
  6
Continuous
 62
     0
370
     0
100
AcDbPolyline
 90
        6
 70
     0
 43
0.0
 10
508.326569
 20
476.063171
 10
508.319702
 20
476.086517
 10
508.315887
 20
476.153381
 10
508.31546
 20
476.257629
 10
508.318451
 20
476.389557
 10
508.327118
 20
476.585907
  0
LINE
  5
164
330
134
100
AcDbEntity
  8
0
  6
Continuous
 62
     0
370
    30
100
AcDbLine
 10
507.854788
 20
476.605864
 30
0.0
 11
511.521861
 21
518.704964
 31
0.0
  0
LWPOLYLINE
  5
165
330
134
100
AcDbEntity
  8
0
  6
Continuous
 62
     0
370
     0
100
AcDbPolyline
 90
        5
 70
     0
 43
0.0
 10
508.326813
 20
476.585907
 10
508.148438
 20
476.599579
 10
507.997101
 20
476.608276
 10
507.894897
 20
476.610626
 10
507.854797
 20
476.605865
  0
ARC
  5
166
330
134
100
AcDbEntity
  8
0
  6
Continuous
 62
     0
370
    30
100
AcDbCircle
 10
508.353323
 20
476.562832
 30
0.0
 40
0.5003880178612983
100
AcDbArc
 50
175.067933
 51
266.933702
  0
ARC
  5
167
330
134
100
AcDbEntity
  8
0
  6
Continuous
 62
     0
370
    30
100
AcDbCircle
 10
508.353328
 20
476.555165
 30
0.0
 40
0.5004435734923008
100
AcDbArc
 50
181.765772
 51
266.933311
  0
LINE
  5
168
330
134
100
AcDbEntity
  8
0
  6
Continuous
 62
     0
370
    30
100
AcDbLine
 10
507.853349
 20
476.539751
 30
0.0
 11
507.85385
 21
476.588939
 31
0.0
  0
LINE
  5
169
330
134
100
AcDbEntity
  8
0
  6
Continuous
 62
     0
370
    30
100
AcDbLine
 10
522.846701
 20
475.293928
 30
0.0
 11
522.901457
 21
475.299031
 31
0.0
  0
LWPOLYLINE
  5
16A
330
134
100
AcDbEntity
  8
0
  6
Continuous
 62
     0
370
    30
100
AcDbPolyline
 90
        7
 70
     0
 43
0.0
 10
523.362061
 20
475.826385
 10
523.353271
 20
475.69989
 10
523.312744
 20
475.579681
 10
523.24353
 20
475.47345
 10
523.149719
 20
475.388153
 10
523.037476
 20
475.329193
 10
522.911072
 20
475.299866
  0
ARC
  5
16B
330
134
100
AcDbEntity
  8
0
  6
Continuous
 62
     0
370
    30
100
AcDbCircle
 10
522.912664
 20
475.490083
 30
0.0
 40
0.1898801509822361
100
AcDbArc
 50
269.505301
 51
288.200511
  0
LWPOLYLINE
  5
16C
330
134
100
AcDbEntity
  8
0
  6
Continuous
 62
     0
370
    30
100
AcDbPolyline
 90
        4
 70
     0
 43
0.0
 10
523.362061
 20
475.826416
 10
523.111877
 20
479.903229
 10
522.841248
 20
483.98053
 10
522.467529
 20
489.429016
  0
ARC
  5
16D
330
134
100
AcDbEntity
  8
0
  6
Continuous
 62
     0
370
    30
100
AcDbCircle
 10
764.130573
 20
512.629829
 30
0.0
 40
242.6768773682152
100
AcDbArc
 50
178.239297
 51
178.755134
  0
LINE
  5
16E
330
134
100
AcDbEntity
  8
0
  6
Continuous
 62
     0
370
    30
100
AcDbLine
 10
521.831835
 20
526.42405
 30
0.0
 11
521.831792
 21
526.435134
 31
0.0
  0
LWPOLYLINE
  5
16F
330
134
100
AcDbEntity
  8
0
  6
Continuous
 62
     0
370
    30
100
AcDbPolyline
 90
        8
 70
     0
 43
0.0
 10
522.742126
 20
537.461731
 10
522.670776
 20
536.850098
 10
522.597107
 20
536.188538
 10
522.5224
 20
535.485596
 10
522.447632
 20
534.748169
 10
522.373657
 20
533.982788
 10
522.301331
 20
533.195496
 10
522.21875
 20
532.243347
  0
LWPOLYLINE
  5
170
330
134
100
AcDbEntity
  8
0
  6
Continuous
 62
     0
370
    30
100
AcDbPolyline
 90
        7
 70
     0
 43
0.0
 10
509.812012
 20
537.233948
 10
511.640259
 20
537.579468
 10
513.459656
 20
537.977295
 10
515.269043
 20
538.420105
 10
517.068542
 20
538.900879
 10
518.858948
 20
539.413269
 10
520.920288
 20
540.036804
  0
LWPOLYLINE
  5
171
330
134
100
AcDbEntity
  8
0
  6
Continuous
 62
     0
370
    30
100
AcDbPolyline
 90
        5
 70
     0
 43
0.0
 10
509.790833
 20
524.657227
 10
509.397797
 20
524.881531
 10
508.97583
 20
525.047913
 10
508.53775
 20
525.165649
 10
508.070068
 20
525.253479
  0
LINE
  5
172
330
134
100
AcDbEntity
  8
0
  6
Continuous
 62
     0
370
    30
100
AcDbLine
 10
507.975679
 20
536.947916
 30
0.0
 11
508.020482
 21
536.954281
 31
0.0
  0
LWPOLYLINE
  5
173
330
134
100
AcDbEntity
  8
0
  6
Continuous
 62
     0
370
    30
100
AcDbPolyline
 90
       52
 70
     0
 43
0.0
 10
484.11615
 20
544.655334
 10
484.590393
 20
544.522583
 10
485.064484
 20
544.38916
 10
485.538177
 20
544.254395
 10
486.011353
 20
544.117859
 10
486.484009
 20
543.979492
 10
486.956207
 20
543.839661
 10
487.428009
 20
543.698303
 10
487.899384
 20
543.555664
 10
488.370331
 20
543.411621
 10
488.840912
 20
543.266296
 10
489.311066
 20
543.119751
 10
489.780853
 20
542.971924
 10
490.250275
 20
542.822998
 10
490.71933
 20
542.672852
 10
491.188019
 20
542.521606
 10
491.656342
 20
542.369263
 10
492.124359
 20
542.215881
 10
492.59201
 20
542.061523
 10
493.059357
 20
541.906189
 10
493.526398
 20
541.749878
 10
493.993134
 20
541.592651
 10
494.459564
 20
541.43457
 10
494.92569
 20
541.275635
 10
495.391571
 20
541.115967
 10
495.857208
 20
540.955505
 10
496.322601
 20
540.794373
 10
496.78775
 20
540.632568
 10
497.252655
 20
540.470154
 10
497.717377
 20
540.307068
 10
498.181885
 20
540.143433
 10
498.64621
 20
539.979248
 10
499.110321
 20
539.814514
 10
499.57428
 20
539.649292
 10
500.038086
 20
539.483643
 10
500.50174
 20
539.317627
 10
500.965271
 20
539.151245
 10
501.42868
 20
538.984558
 10
501.891998
 20
538.817566
 10
502.355255
 20
538.650391
 10
502.81839
 20
538.482971
 10
503.281403
 20
538.315063
 10
503.744232
 20
538.14679
 10
504.207031
 20
537.978394
 10
504.669983
 20
537.810425
 10
505.133209
 20
537.643127
 10
505.595947
 20
537.474548
 10
506.057953
 20
537.303955
 10
506.522278
 20
537.139893
 10
506.994995
 20
537.002136
 10
507.480988
 20
536.92572
 10
507.975677
 20
536.947937
  0
LINE
  5
174
330
134
100
AcDbEntity
  8
0
  6
Continuous
 62
     0
370
    30
100
AcDbLine
 10
484.116141
 20
544.655331
 30
0.0
 11
484.096712
 21
544.660492
 31
0.0
  0
ARC
  5
175
330
134
100
AcDbEntity
  8
0
  6
Continuous
 62
     0
370
    30
100
AcDbCircle
 10
483.049865
 20
352.554304
 30
0.0
 40
0.699999988079715
100
AcDbArc
 50
270.3
 51
360.0
  0
ARC
  5
176
330
134
100
AcDbEntity
  8
0
  6
Continuous
 62
     0
370
    30
100
AcDbCircle
 10
483.049865
 20
469.661616
 30
0.0
 40
0.699999988079761
100
AcDbArc
 50
0.0
 51
89.7
  0
LINE
  5
177
330
134
100
AcDbEntity
  8
0
  6
Continuous
 62
     0
370
     0
100
AcDbLine
 10
483.05353
 20
352.554304
 30
0.0
 11
472.849865
 21
352.500878
 31
0.0
  0
LINE
  5
178
330
134
100
AcDbEntity
  8
0
  6
Continuous
 62
     0
370
    30
100
AcDbLine
 10
472.849865
 20
352.500878
 30
0.0
 11
472.849865
 21
351.800887
 31
0.0
  0
LINE
  5
179
330
134
100
AcDbEntity
  8
0
  6
Continuous
 62
     0
370
    30
100
AcDbLine
 10
472.849865
 20
351.800887
 30
0.0
 11
483.05353
 21
351.854314
 31
0.0
  0
ARC
  5
17A
330
134
100
AcDbEntity
  8
0
  6
Continuous
 62
     0
370
     0
100
AcDbCircle
 10
449.630582
 20
352.204311
 30
0.0
 40
33.4247804128596
100
AcDbArc
 50
359.400035
 51
0.59996
  0
LWPOLYLINE
  5
17B
330
134
100
AcDbEntity
  8
0
  6
Continuous
 62
     0
370
     0
100
AcDbPolyline
 90
        6
 70
     0
 43
0.0
 10
483.749878
 20
469.661621
 10
483.713165
 20
469.661621
 10
483.613831
 20
469.661621
 10
483.472809
 20
469.661621
 10
483.283813
 20
469.661621
 10
483.053528
 20
469.661621
  0
LINE
  5
17C
330
134
100
AcDbEntity
  8
0
  6
Continuous
 62
     0
370
     0
100
AcDbLine
 10
483.05353
 20
469.661616
 30
0.0
 11
483.05353
 21
352.554304
 31
0.0
  0
LINE
  5
17D
330
134
100
AcDbEntity
  8
0
  6
Continuous
 62
     0
370
     0
100
AcDbLine
 10
483.05353
 20
352.554304
 30
0.0
 11
483.749865
 21
352.554304
 31
0.0
  0
LINE
  5
17E
330
134
100
AcDbEntity
  8
0
  6
Continuous
 62
     0
370
    30
100
AcDbLine
 10
483.749865
 20
352.554304
 30
0.0
 11
483.749865
 21
469.661616
 31
0.0
  0
ARC
  5
17F
330
134
100
AcDbEntity
  8
0
  6
Continuous
 62
     0
370
     0
100
AcDbCircle
 10
449.630582
 20
470.011609
 30
0.0
 40
33.42478041265069
100
AcDbArc
 50
359.40004
 51
0.599965
  0
LINE
  5
180
330
134
100
AcDbEntity
  8
0
  6
Continuous
 62
     0
370
    30
100
AcDbLine
 10
483.05353
 20
470.361606
 30
0.0
 11
472.849865
 21
470.415033
 31
0.0
  0
LWPOLYLINE
  5
181
330
134
100
AcDbEntity
  8
0
  6
Continuous
 62
     0
370
    30
100
AcDbPolyline
 90
        6
 70
     0
 43
0.0
 10
472.849854
 20
470.415039
 10
472.849854
 20
470.382019
 10
472.849854
 20
470.28598
 10
472.849854
 20
470.136536
 10
472.849854
 20
469.945801
 10
472.849854
 20
469.715057
  0
LINE
  5
182
330
134
100
AcDbEntity
  8
0
  6
Continuous
 62
     0
370
     0
100
AcDbLine
 10
472.849865
 20
469.715042
 30
0.0
 11
483.05353
 21
469.661616
 31
0.0
  0
LINE
  5
183
330
134
100
AcDbEntity
  8
0
  6
Continuous
 62
     0
370
    30
100
AcDbLine
 10
472.849865
 20
469.715042
 30
0.0
 11
472.849865
 21
352.500878
 31
0.0
  0
LINE
  5
184
330
134
100
AcDbEntity
  8
0
  6
Continuous
 62
     0
370
    30
100
AcDbLine
 10
486.969864
 20
433.107964
 30
0.0
 11
486.969864
 21
389.107964
 31
0.0
  0
LWPOLYLINE
  5
185
330
134
100
AcDbEntity
  8
0
  6
Continuous
 62
     0
370
    30
100
AcDbPolyline
 90
       53
 70
     0
 43
0.0
 10
536.969849
 20
432.607971
 10
536.969849
 20
432.568817
 10
536.969849
 20
432.451202
 10
536.969849
 20
432.255829
 10
536.969849
 20
431.983582
 10
536.969849
 20
431.635193
 10
536.969849
 20
431.211609
 10
536.969849
 20
430.714539
 10
536.969849
 20
430.146179
 10
536.969849
 20
429.508667
 10
536.969849
 20
428.804138
 10
536.969849
 20
428.03479
 10
536.969849
 20
427.203461
 10
536.969849
 20
426.313507
 10
536.969849
 20
425.368317
 10
536.969849
 20
424.371246
 10
536.969849
 20
423.325684
 10
536.969849
 20
422.235321
 10
536.969849
 20
421.104431
 10
536.969849
 20
419.937195
 10
536.969849
 20
418.737885
 10
536.969849
 20
417.510712
 10
536.969849
 20
416.260071
 10
536.969849
 20
414.990601
 10
536.969849
 20
413.707001
 10
536.969849
 20
412.413971
 10
536.969849
 20
411.116211
 10
536.969849
 20
409.81842
 10
536.969849
 20
408.525299
 10
536.969849
 20
407.241547
 10
536.969849
 20
405.971863
 10
536.969849
 20
404.720947
 10
536.969849
 20
403.493469
 10
536.969849
 20
402.293762
 10
536.969849
 20
401.126099
 10
536.969849
 20
399.99472
 10
536.969849
 20
398.903839
 10
536.969849
 20
397.857666
 10
536.969849
 20
396.859955
 10
536.969849
 20
395.914093
 10
536.969849
 20
395.023407
 10
536.969849
 20
394.191315
 10
536.969849
 20
393.421173
 10
536.969849
 20
392.71579
 10
536.969849
 20
392.077423
 10
536.969849
 20
391.508148
 10
536.969849
 20
391.010193
 10
536.969849
 20
390.585632
 10
536.969849
 20
390.236298
 10
536.969849
 20
389.963074
 10
536.969849
 20
389.766724
 10
536.969849
 20
389.648102
 10
536.969849
 20
389.607971
  0
LINE
  5
186
330
134
100
AcDbEntity
  8
0
  6
Continuous
 62
     0
370
    30
100
AcDbLine
 10
536.969864
 20
389.607964
 30
0.0
 11
536.469864
 21
389.107964
 31
0.0
  0
LWPOLYLINE
  5
187
330
134
100
AcDbEntity
  8
0
  6
Continuous
 62
     0
370
    30
100
AcDbPolyline
 90
       54
 70
     0
 43
0.0
 10
536.469849
 20
433.107971
 10
536.470154
 20
433.068787
 10
536.470581
 20
432.952148
 10
536.470947
 20
432.75885
 10
536.471313
 20
432.489929
 10
536.471436
 20
432.146423
 10
536.471375
 20
431.729462
 10
536.47113
 20
431.240173
 10
536.470825
 20
430.679779
 10
536.470459
 20
430.050171
 10
536.470093
 20
429.354248
 10
536.46991
 20
428.594879
 10
536.46991
 20
427.774963
 10
536.470093
 20
426.897003
 10
536.470337
 20
425.963379
 10
536.470642
 20
424.977081
 10
536.470947
 20
423.941589
 10
536.471191
 20
422.860718
 10
536.471313
 20
421.738525
 10
536.471436
 20
420.578949
 10
536.471375
 20
419.386108
 10
536.471252
 20
418.164276
 10
536.471069
 20
416.917725
 10
536.470886
 20
415.650848
 10
536.470642
 20
414.367981
 10
536.470398
 20
413.073669
 10
536.470276
 20
411.772522
 10
536.470276
 20
410.469025
 10
536.470398
 20
409.167755
 10
536.470642
 20
407.873291
 10
536.470886
 20
406.590149
 10
536.47113
 20
405.322906
 10
536.471313
 20
404.075928
 10
536.471436
 20
402.853607
 10
536.471436
 20
401.660187
 10
536.471375
 20
400.500031
 10
536.471191
 20
399.377106
 10
536.470947
 20
398.295441
 10
536.470703
 20
397.259003
 10
536.470398
 20
396.271576
 10
536.470093
 20
395.336609
 10
536.46991
 20
394.457184
 10
536.46991
 20
393.635773
 10
536.470093
 20
392.874969
 10
536.470398
 20
392.177734
 10
536.470764
 20
391.547028
 10
536.471069
 20
390.985779
 10
536.471252
 20
390.49585
 10
536.471313
 20
390.078156
 10
536.471191
 20
389.733582
 10
536.470947
 20
389.463104
 10
536.47052
 20
389.267853
 10
536.470154
 20
389.149048
 10
536.469849
 20
389.107971
  0
LINE
  5
188
330
134
100
AcDbEntity
  8
0
  6
Continuous
 62
     0
370
    30
100
AcDbLine
 10
523.219864
 20
389.107964
 30
0.0
 11
486.969864
 21
389.107964
 31
0.0
  0
LWPOLYLINE
  5
189
330
134
100
AcDbEntity
  8
0
  6
Continuous
 62
     0
370
     0
100
AcDbPolyline
 90
       26
 70
     0
 43
0.0
 10
523.219849
 20
389.107971
 10
523.257935
 20
389.116089
 10
523.371948
 20
389.140045
 10
523.557983
 20
389.17804
 10
523.810425
 20
389.227753
 10
524.125122
 20
389.286407
 10
524.504089
 20
389.349854
 10
524.938477
 20
389.414368
 10
525.418762
 20
389.476196
 10
525.940796
 20
389.531189
 10
526.49707
 20
389.575989
 10
527.076782
 20
389.607971
 10
527.669128
 20
389.624664
 10
528.265503
 20
389.624725
 10
528.85791
 20
389.608185
 10
529.437744
 20
389.576324
 10
529.994324
 20
389.531616
 10
530.516663
 20
389.476715
 10
530.997314
 20
389.414917
 10
531.432129
 20
389.350403
 10
531.811646
 20
389.286926
 10
532.126892
 20
389.228241
 10
532.379822
 20
389.178406
 10
532.566467
 20
389.14032
 10
532.681152
 20
389.116211
 10
532.719849
 20
389.107971
  0
LINE
  5
18A
330
134
100
AcDbEntity
  8
0
  6
Continuous
 62
     0
370
    30
100
AcDbLine
 10
532.719864
 20
389.107964
 30
0.0
 11
536.469864
 21
389.107964
 31
0.0
  0
LWPOLYLINE
  5
18B
330
134
100
AcDbEntity
  8
0
  6
Continuous
 62
     0
370
     0
100
AcDbPolyline
 90
       24
 70
     0
 43
0.0
 10
532.069458
 20
433.107971
 10
532.030884
 20
433.10083
 10
531.9151
 20
433.079865
 10
531.726624
 20
433.046936
 10
531.471802
 20
433.004211
 10
531.152466
 20
432.954895
 10
530.770203
 20
432.902863
 10
530.337219
 20
432.851593
 10
529.860168
 20
432.804993
 10
529.345459
 20
432.766602
 10
528.804688
 20
432.738983
 10
528.249878
 20
432.724457
 10
527.690674
 20
432.724457
 10
527.135864
 20
432.738922
 10
526.595093
 20
432.766541
 10
526.080383
 20
432.804962
 10
525.603271
 20
432.851532
 10
525.170105
 20
432.902771
 10
524.78772
 20
432.954803
 10
524.468262
 20
433.00415
 10
524.213379
 20
433.046844
 10
524.024841
 20
433.079834
 10
523.908813
 20
433.1008
 10
523.869873
 20
433.107971
  0
LINE
  5
18C
330
134
100
AcDbEntity
  8
0
  6
Continuous
 62
     0
370
    30
100
AcDbLine
 10
531.919864
 20
440.437964
 30
0.0
 11
524.019864
 21
440.437964
 31
0.0
  0
LINE
  5
18D
330
134
100
AcDbEntity
  8
0
  6
Continuous
 62
     0
370
    30
100
AcDbLine
 10
531.919864
 20
440.437964
 30
0.0
 11
531.919864
 21
433.107964
 31
0.0
  0
LWPOLYLINE
  5
18E
330
134
100
AcDbEntity
  8
0
  6
Continuous
 62
     0
370
    30
100
AcDbPolyline
 90
       22
 70
     0
 43
0.0
 10
524.519836
 20
440.937958
 10
524.55835
 20
440.937958
 10
524.672791
 20
440.937958
 10
524.86084
 20
440.937958
 10
525.118103
 20
440.937958
 10
525.439026
 20
440.937958
 10
525.816284
 20
440.937958
 10
526.241638
 20
440.937958
 10
526.705444
 20
440.937958
 10
527.197449
 20
440.937958
 10
527.706726
 20
440.937958
 10
528.221802
 20
440.937958
 10
528.731323
 20
440.937958
 10
529.223816
 20
440.937958
 10
529.688354
 20
440.937958
 10
530.114624
 20
440.937958
 10
530.493042
 20
440.937958
 10
530.815308
 20
440.937958
 10
531.073975
 20
440.937958
 10
531.263611
 20
440.937958
 10
531.3797
 20
440.937958
 10
531.419861
 20
440.937958
  0
LINE
  5
18F
330
134
100
AcDbEntity
  8
0
  6
Continuous
 62
     0
370
    30
100
AcDbLine
 10
531.419864
 20
440.937963
 30
0.0
 11
531.919864
 21
440.437964
 31
0.0
  0
LINE
  5
190
330
134
100
AcDbEntity
  8
0
  6
Continuous
 62
     0
370
    30
100
AcDbLine
 10
524.519864
 20
440.937963
 30
0.0
 11
524.019864
 21
440.437964
 31
0.0
  0
LINE
  5
191
330
134
100
AcDbEntity
  8
0
  6
Continuous
 62
     0
370
    30
100
AcDbLine
 10
524.019864
 20
440.437964
 30
0.0
 11
524.019864
 21
433.107964
 31
0.0
  0
LINE
  5
192
330
134
100
AcDbEntity
  8
0
  6
Continuous
 62
     0
370
    30
100
AcDbLine
 10
531.919864
 20
433.107964
 30
0.0
 11
532.069467
 21
433.107964
 31
0.0
  0
LINE
  5
193
330
134
100
AcDbEntity
  8
0
  6
Continuous
 62
     0
370
    30
100
AcDbLine
 10
523.219864
 20
389.107964
 30
0.0
 11
532.719864
 21
389.107964
 31
0.0
  0
LINE
  5
194
330
134
100
AcDbEntity
  8
0
  6
Continuous
 62
     0
370
    30
100
AcDbLine
 10
486.969863
 20
433.107964
 30
0.0
 11
523.869864
 21
433.107964
 31
0.0
  0
LINE
  5
195
330
134
100
AcDbEntity
  8
0
  6
Continuous
 62
     0
370
    30
100
AcDbLine
 10
536.469864
 20
433.107964
 30
0.0
 11
532.069467
 21
433.107964
 31
0.0
  0
LINE
  5
196
330
134
100
AcDbEntity
  8
0
  6
Continuous
 62
     0
370
    30
100
AcDbLine
 10
536.969864
 20
432.607964
 30
0.0
 11
536.469864
 21
433.107964
 31
0.0
  0
LINE
  5
197
330
134
100
AcDbEntity
  8
0
  6
Continuous
 62
     0
370
    30
100
AcDbLine
 10
483.749863
 20
430.107728
 30
0.0
 11
486.969864
 21
430.107728
 31
0.0
  0
LINE
  5
198
330
134
100
AcDbEntity
  8
0
  6
Continuous
 62
     0
370
    30
100
AcDbLine
 10
483.749863
 20
392.107728
 30
0.0
 11
486.969864
 21
392.107728
 31
0.0
  0
ENDBLK
  5
19A
330
134
100
AcDbEntity
  8
0
100
AcDbBlockEnd
  0
BLOCK
  5
1FC
330
19C
100
AcDbEntity
  8
0
100
AcDbBlockBegin
  2
d
 70
     0
 10
250.034454
 20
0.0
 30
0.0
  3
d
  1

  0
LINE
  5
19D
330
19C
100
AcDbEntity
  8
0
  6
Continuous
 62
     0
370
    30
100
AcDbLine
 10
217.885344
 20
501.107971
 30
0.0
 11
217.885344
 21
561.107971
 31
0.0
  0
LINE
  5
19E
330
19C
100
AcDbEntity
  8
0
  6
Continuous
 62
     0
370
    30
100
AcDbLine
 10
217.885344
 20
561.107971
 30
0.0
 11
207.885344
 21
561.107971
 31
0.0
  0
LINE
  5
19F
330
19C
100
AcDbEntity
  8
0
  6
Continuous
 62
     0
370
    30
100
AcDbLine
 10
207.885344
 20
561.107971
 30
0.0
 11
207.885344
 21
501.107971
 31
0.0
  0
LINE
  5
1A0
330
19C
100
AcDbEntity
  8
0
  6
Continuous
 62
     0
370
    30
100
AcDbLine
 10
207.885344
 20
501.107971
 30
0.0
 11
217.885344
 21
501.107971
 31
0.0
  0
ARC
  5
1A1
330
19C
100
AcDbEntity
  8
0
  6
Continuous
 62
     0
370
    30
100
AcDbCircle
 10
206.885346
 20
543.691439
 30
0.0
 40
0.9999999392637959
100
AcDbArc
 50
0.000015
 51
105.443036
  0
ARC
  5
1A2
330
19C
100
AcDbEntity
  8
0
  6
Continuous
 62
     0
370
     0
100
AcDbCircle
 10
206.885346
 20
518.524402
 30
0.0
 40
0.9999999386525132
100
AcDbArc
 50
254.556964
 51
359.999985
  0
LWPOLYLINE
  5
1A3
330
19C
100
AcDbEntity
  8
0
  6
Continuous
 62
     0
370
    30
100
AcDbPolyline
 90
       43
 70
     0
 43
0.0
 10
206.619064
 20
544.655334
 10
206.619141
 20
544.613525
 10
206.619324
 20
544.491577
 10
206.619614
 20
544.292236
 10
206.619965
 20
544.01825
 10
206.620346
 20
543.672363
 10
206.620773
 20
543.257568
 10
206.621231
 20
542.776611
 10
206.621796
 20
542.23175
 10
206.622299
 20
541.625244
 10
206.62262
 20
540.959778
 10
206.623199
 20
540.23877
 10
206.624069
 20
539.466736
 10
206.624756
 20
538.649048
 10
206.625229
 20
537.791382
 10
206.625626
 20
536.899353
 10
206.626007
 20
535.978333
 10
206.626343
 20
535.032959
 10
206.626572
 20
534.067566
 10
206.626648
 20
533.08667
 10
206.626633
 20
532.095337
 10
206.626602
 20
531.098877
 10
206.626633
 20
530.102478
 10
206.626648
 20
529.111328
 10
206.626572
 20
528.130676
 10
206.626358
 20
527.165649
 10
206.626007
 20
526.220703
 10
206.625626
 20
525.300232
 10
206.625229
 20
524.408752
 10
206.624756
 20
523.551819
 10
206.624069
 20
522.734924
 10
206.623199
 20
521.963806
 10
206.62262
 20
521.243713
 10
206.622314
 20
520.579285
 10
206.621796
 20
519.973877
 10
206.621231
 20
519.430115
 10
206.620773
 20
518.950378
 10
206.620361
 20
518.536804
 10
206.619995
 20
518.192261
 10
206.619644
 20
517.919556
 10
206.619354
 20
517.721558
 10
206.619141
 20
517.600952
 10
206.619064
 20
517.560486
  0
LWPOLYLINE
  5
1A4
330
19C
100
AcDbEntity
  8
0
  6
Continuous
 62
     0
370
    30
100
AcDbPolyline
 90
       52
 70
     0
 43
0.0
 10
182.759521
 20
536.947937
 10
183.250412
 20
536.925537
 10
183.736237
 20
537.001221
 10
184.209442
 20
537.138794
 10
184.674255
 20
537.302917
 10
185.1362
 20
537.473511
 10
185.599152
 20
537.641846
 10
186.062393
 20
537.809509
 10
186.525421
 20
537.977661
 10
186.988358
 20
538.145996
 10
187.45134
 20
538.314148
 10
187.914444
 20
538.481995
 10
188.37767
 20
538.649536
 10
188.841003
 20
538.816772
 10
189.304398
 20
538.983826
 10
189.767899
 20
539.150574
 10
190.231491
 20
539.316956
 10
190.695221
 20
539.483032
 10
191.159073
 20
539.648682
 10
191.623077
 20
539.813904
 10
192.08725
 20
539.978638
 10
192.55159
 20
540.142822
 10
193.016129
 20
540.306458
 10
193.480865
 20
540.469543
 10
193.945801
 20
540.632019
 10
194.410965
 20
540.793823
 10
194.876343
 20
540.954956
 10
195.341965
 20
541.115417
 10
195.807846
 20
541.275085
 10
196.273987
 20
541.43396
 10
196.740387
 20
541.592041
 10
197.207077
 20
541.749268
 10
197.674042
 20
541.905579
 10
198.141327
 20
542.060974
 10
198.608902
 20
542.215332
 10
199.076813
 20
542.368713
 10
199.545044
 20
542.520996
 10
200.013611
 20
542.672241
 10
200.482544
 20
542.822327
 10
200.951828
 20
542.971252
 10
201.421478
 20
543.118958
 10
201.89151
 20
543.265442
 10
202.361908
 20
543.410645
 10
202.832672
 20
543.554626
 10
203.303833
 20
543.697266
 10
203.775391
 20
543.838562
 10
204.247345
 20
543.978455
 10
204.719757
 20
544.116699
 10
205.192673
 20
544.253174
 10
205.666092
 20
544.387817
 10
206.139877
 20
544.521179
 10
206.619064
 20
544.655334
  0
LWPOLYLINE
  5
1A5
330
19C
100
AcDbEntity
  8
0
  6
Continuous
 62
     0
370
    30
100
AcDbPolyline
 90
       21
 70
     0
 43
0.0
 10
182.755524
 20
527.607178
 10
182.753311
 20
528.142212
 10
182.758255
 20
528.712952
 10
182.76326
 20
529.311035
 10
182.763855
 20
529.928284
 10
182.761688
 20
530.558044
 10
182.759399
 20
531.193787
 10
182.758484
 20
531.828918
 10
182.75853
 20
532.45636
 10
182.758896
 20
533.068909
 10
182.759201
 20
533.659485
 10
182.75946
 20
534.220886
 10
182.759705
 20
534.746033
 10
182.759827
 20
535.227478
 10
182.75972
 20
535.658325
 10
182.759674
 20
536.03418
 10
182.75972
 20
536.35083
 10
182.759796
 20
536.604431
 10
182.759811
 20
536.791016
 10
182.75972
 20
536.906738
 10
182.759521
 20
536.947937
  0
LINE
  5
1A6
330
19C
100
AcDbEntity
  8
0
  6
Continuous
 62
     0
370
     0
100
AcDbLine
 10
182.765846
 20
527.098715
 30
0.0
 11
182.755524
 21
527.607186
 31
0.0
  0
LWPOLYLINE
  5
1A7
330
19C
100
AcDbEntity
  8
0
  6
Continuous
 62
     0
370
     0
100
AcDbPolyline
 90
        3
 70
     0
 43
0.0
 10
182.760406
 20
526.21698
 10
182.768326
 20
526.594238
 10
182.765839
 20
527.098694
  0
ARC
  5
1A8
330
19C
100
AcDbEntity
  8
0
  6
Continuous
 62
     0
370
     0
100
AcDbCircle
 10
200.767665
 20
526.012301
 30
0.0
 40
18.00842321852609
100
AcDbArc
 50
179.348758
 51
180.497869
  0
ARC
  5
1A9
330
19C
100
AcDbEntity
  8
0
  6
Continuous
 62
     0
370
     0
100
AcDbCircle
 10
160.612398
 20
525.532015
 30
0.0
 40
22.14989058258062
100
AcDbArc
 50
359.317139
 51
0.837625
  0
LINE
  5
1AA
330
19C
100
AcDbEntity
  8
0
  6
Continuous
 62
     0
370
    30
100
AcDbLine
 10
182.362831
 20
537.004301
 30
0.0
 11
182.759527
 21
536.947921
 31
0.0
  0
LWPOLYLINE
  5
1AB
330
19C
100
AcDbEntity
  8
0
  6
Continuous
 62
     0
370
    30
100
AcDbPolyline
 90
       57
 70
     0
 43
0.0
 10
179.213348
 20
518.702637
 10
179.193802
 20
519.187866
 10
179.173645
 20
519.489624
 10
179.158936
 20
519.723267
 10
179.14946
 20
519.922791
 10
179.144241
 20
520.101074
 10
179.142517
 20
520.265259
 10
179.143814
 20
520.419861
 10
179.147797
 20
520.56781
 10
179.154221
 20
520.710815
 10
179.162903
 20
520.849792
 10
179.173676
 20
520.985107
 10
179.186417
 20
521.116821
 10
179.200989
 20
521.244873
 10
179.217285
 20
521.36908
 10
179.235168
 20
521.489441
 10
179.254532
 20
521.605896
 10
179.275192
 20
521.718506
 10
179.296997
 20
521.827209
 10
179.319717
 20
521.931885
 10
179.343094
 20
522.03241
 10
179.366821
 20
522.128357
 10
179.390625
 20
522.219604
 10
179.414154
 20
522.305664
 10
179.43718
 20
522.386414
 10
179.459518
 20
522.461792
 10
179.481079
 20
522.531982
 10
179.501938
 20
522.597473
 10
179.522293
 20
522.659058
 10
179.542511
 20
522.717712
 10
179.562988
 20
522.774658
 10
179.584244
 20
522.831238
 10
179.606705
 20
522.888489
 10
179.630768
 20
522.947388
 10
179.656677
 20
523.008545
 10
179.68454
 20
523.072021
 10
179.71434
 20
523.137634
 10
179.746002
 20
523.205017
 10
179.779419
 20
523.273621
 10
179.81456
 20
523.343079
 10
179.851456
 20
523.413025
 10
179.890182
 20
523.483337
 10
179.930862
 20
523.554016
 10
179.973618
 20
523.624939
 10
180.018585
 20
523.696167
 10
180.065948
 20
523.767639
 10
180.116013
 20
523.839478
 10
180.169235
 20
523.911804
 10
180.226166
 20
523.984924
 10
180.28746
 20
524.059265
 10
180.353653
 20
524.13501
 10
180.42511
 20
524.212097
 10
180.501984
 20
524.290344
 10
180.584274
 20
524.36908
 10
180.672043
 20
524.447571
 10
180.765717
 20
524.525391
 10
180.868042
 20
524.603516
  0
LWPOLYLINE
  5
1AC
330
19C
100
AcDbEntity
  8
0
  6
Continuous
 62
     0
370
    30
100
AcDbPolyline
 90
       77
 70
     0
 43
0.0
 10
182.759888
 20
525.855957
 10
182.209641
 20
525.70636
 10
181.864197
 20
525.587524
 10
181.620438
 20
525.486023
 10
181.432404
 20
525.394409
 10
181.278366
 20
525.308777
 10
181.147141
 20
525.227417
 10
181.032288
 20
525.149048
 10
180.929581
 20
525.072754
 10
180.836029
 20
524.997681
 10
180.749374
 20
524.923096
 10
180.668106
 20
524.848572
 10
180.591232
 20
524.774109
 10
180.51825
 20
524.699829
 10
180.44899
 20
524.626099
 10
180.383392
 20
524.553284
 10
180.321457
 20
524.48175
 10
180.263123
 20
524.411621
 10
180.208206
 20
524.343079
 10
180.156418
 20
524.275818
 10
180.107452
 20
524.209778
 10
180.060913
 20
524.144531
 10
180.016479
 20
524.080017
 10
179.973907
 20
524.015869
 10
179.932983
 20
523.952148
 10
179.893585
 20
523.888672
 10
179.855667
 20
523.825562
 10
179.819153
 20
523.762695
 10
179.783981
 20
523.700195
 10
179.750122
 20
523.637939
 10
179.717499
 20
523.576111
 10
179.686142
 20
523.514709
 10
179.656021
 20
523.454041
 10
179.627228
 20
523.394348
 10
179.599823
 20
523.335938
 10
179.573883
 20
523.279053
 10
179.549438
 20
523.223877
 10
179.526474
 20
523.170471
 10
179.504913
 20
523.118591
 10
179.484558
 20
523.06781
 10
179.465179
 20
523.017578
 10
179.446518
 20
522.967163
 10
179.428223
 20
522.915833
 10
179.410049
 20
522.862732
 10
179.391724
 20
522.807129
 10
179.373062
 20
522.748535
 10
179.353958
 20
522.68634
 10
179.334381
 20
522.6203
 10
179.314377
 20
522.550232
 10
179.294052
 20
522.476196
 10
179.27356
 20
522.398132
 10
179.253128
 20
522.316345
 10
179.232956
 20
522.230957
 10
179.213287
 20
522.142151
 10
179.194321
 20
522.05011
 10
179.17627
 20
521.955017
 10
179.159286
 20
521.856995
 10
179.143555
 20
521.756104
 10
179.129166
 20
521.652283
 10
179.116211
 20
521.545593
 10
179.104752
 20
521.436096
 10
179.094833
 20
521.32373
 10
179.086472
 20
521.208618
 10
179.079666
 20
521.09082
 10
179.074432
 20
520.970459
 10
179.070816
 20
520.847412
 10
179.068909
 20
520.721619
 10
179.068939
 20
520.592651
 10
179.071259
 20
520.459778
 10
179.076447
 20
520.321777
 10
179.085236
 20
520.176636
 10
179.098434
 20
520.021667
 10
179.116592
 20
519.852661
 10
179.139359
 20
519.662964
 10
179.164825
 20
519.439941
 10
179.189682
 20
519.151306
 10
179.213348
 20
518.700256
  0
ARC
  5
1AD
330
19C
100
AcDbEntity
  8
0
  6
Continuous
 62
     0
370
     0
100
AcDbCircle
 10
185.740542
 20
522.182507
 30
0.0
 40
6.191867757937551
100
AcDbArc
 50
118.822326
 51
122.972436
  0
LWPOLYLINE
  5
1AE
330
19C
100
AcDbEntity
  8
0
  6
Continuous
 62
     0
370
    30
100
AcDbPolyline
 90
       68
 70
     0
 43
0.0
 10
178.744598
 20
518.658142
 10
178.595123
 20
519.283386
 10
178.524612
 20
519.671753
 10
178.483551
 20
519.973511
 10
178.45784
 20
520.231506
 10
178.442322
 20
520.461975
 10
178.434448
 20
520.67395
 10
178.432938
 20
520.872925
 10
178.437012
 20
521.062195
 10
178.446152
 20
521.243896
 10
178.4599
 20
521.419006
 10
178.477814
 20
521.588013
 10
178.499435
 20
521.75116
 10
178.524307
 20
521.908508
 10
178.552017
 20
522.06012
 10
178.582123
 20
522.206177
 10
178.614258
 20
522.346741
 10
178.647995
 20
522.481934
 10
178.682968
 20
522.611755
 10
178.71875
 20
522.736145
 10
178.754944
 20
522.854919
 10
178.791214
 20
522.968079
 10
178.82724
 20
523.075623
 10
178.862915
 20
523.177734
 10
178.898239
 20
523.275024
 10
178.933395
 20
523.368225
 10
178.968704
 20
523.458435
 10
179.004562
 20
523.546692
 10
179.041397
 20
523.634033
 10
179.07959
 20
523.721375
 10
179.1194
 20
523.809143
 10
179.161072
 20
523.897705
 10
179.204712
 20
523.987061
 10
179.250443
 20
524.077332
 10
179.29834
 20
524.168335
 10
179.34845
 20
524.26001
 10
179.400665
 20
524.352173
 10
179.454758
 20
524.444519
 10
179.510376
 20
524.536377
 10
179.567062
 20
524.627075
 10
179.624496
 20
524.716064
 10
179.682571
 20
524.802979
 10
179.741608
 20
524.888184
 10
179.802338
 20
524.972473
 10
179.865753
 20
525.057129
 10
179.932877
 20
525.143372
 10
180.004471
 20
525.232239
 10
180.08075
 20
525.324158
 10
180.161285
 20
525.41864
 10
180.245087
 20
525.514526
 10
180.33078
 20
525.610291
 10
180.41687
 20
525.704346
 10
180.502075
 20
525.795288
 10
180.585526
 20
525.882263
 10
180.666901
 20
525.965149
 10
180.746506
 20
526.044373
 10
180.825241
 20
526.12085
 10
180.904495
 20
526.196045
 10
180.986038
 20
526.271667
 10
181.072037
 20
526.34967
 10
181.164932
 20
526.432129
 10
181.267517
 20
526.521301
 10
181.382935
 20
526.619507
 10
181.514725
 20
526.729309
 10
181.667526
 20
526.853638
 10
181.848236
 20
526.996826
 10
182.068604
 20
527.164856
 10
182.370712
 20
527.377075
  0
ARC
  5
1AF
330
19C
100
AcDbEntity
  8
0
  6
Continuous
 62
     0
370
    30
100
AcDbCircle
 10
181.054434
 20
495.605324
 30
0.0
 40
23.1682279592485
100
AcDbArc
 50
94.557876
 51
95.721798
  0
ARC
  5
1B0
330
19C
100
AcDbEntity
  8
0
  6
Continuous
 62
     0
370
     0
100
AcDbCircle
 10
232.267654
 20
741.73285
 30
0.0
 40
211.1435743681762
100
AcDbArc
 50
252.359277
 51
252.939431
  0
ARC
  5
1B1
330
19C
100
AcDbEntity
  8
0
  6
Continuous
 62
     0
370
     0
100
AcDbCircle
 10
190.499273
 20
592.642086
 30
0.0
 40
56.22957260822648
100
AcDbArc
 50
259.851648
 51
261.68007
  0
LWPOLYLINE
  5
1B2
330
19C
100
AcDbEntity
  8
0
  6
Continuous
 62
     0
370
    30
100
AcDbPolyline
 90
        6
 70
     0
 43
0.0
 10
182.362823
 20
527.389343
 10
179.998825
 20
527.141541
 10
177.65271
 20
526.831177
 10
175.323502
 20
526.471741
 10
173.009323
 20
526.074219
 10
170.68512
 20
525.642944
  0
LINE
  5
1B3
330
19C
100
AcDbEntity
  8
0
  6
Continuous
 62
     0
370
     0
100
AcDbLine
 10
170.685113
 20
525.642947
 30
0.0
 11
169.673952
 21
525.447234
 31
0.0
  0
LWPOLYLINE
  5
1B4
330
19C
100
AcDbEntity
  8
0
  6
Continuous
 62
     0
370
     0
100
AcDbPolyline
 90
       10
 70
     0
 43
0.0
 10
169.67395
 20
525.447205
 10
169.706787
 20
524.747864
 10
169.726974
 20
524.046875
 10
169.740509
 20
523.302612
 10
169.742722
 20
522.49939
 10
169.737656
 20
521.64209
 10
169.728394
 20
520.744568
 10
169.727295
 20
519.823914
 10
169.737823
 20
518.894836
 10
169.754715
 20
517.8573
  0
LWPOLYLINE
  5
1B5
330
19C
100
AcDbEntity
  8
0
  6
Continuous
 62
     0
370
    30
100
AcDbPolyline
 90
       17
 70
     0
 43
0.0
 10
169.754715
 20
517.8573
 10
169.754745
 20
517.855835
 10
169.7603
 20
517.530212
 10
169.765335
 20
517.214966
 10
169.770172
 20
516.894714
 10
169.776566
 20
516.436768
 10
169.799744
 20
512.753357
 10
169.759232
 20
509.069397
 10
169.664703
 20
505.386505
 10
169.520447
 20
501.705505
 10
169.334671
 20
498.026337
 10
169.116898
 20
494.348846
 10
168.877274
 20
490.672913
 10
168.626389
 20
486.997894
 10
168.374878
 20
483.323975
 10
168.132172
 20
479.649536
 10
167.898499
 20
475.806244
  0
LINE
  5
1B6
330
19C
100
AcDbEntity
  8
0
  6
Continuous
 62
     0
370
    30
100
AcDbLine
 10
167.898499
 20
475.806238
 30
0.0
 11
167.960879
 21
475.809553
 31
0.0
  0
LINE
  5
1B7
330
19C
100
AcDbEntity
  8
0
  6
Continuous
 62
     0
370
     0
100
AcDbLine
 10
167.960879
 20
475.809553
 30
0.0
 11
182.408386
 21
476.577341
 31
0.0
  0
LINE
  5
1B8
330
19C
100
AcDbEntity
  8
0
  6
Continuous
 62
     0
370
    30
100
AcDbLine
 10
182.408386
 20
476.577341
 30
0.0
 11
178.744612
 21
518.658031
 31
0.0
  0
LWPOLYLINE
  5
1B9
330
19C
100
AcDbEntity
  8
0
  6
Continuous
 62
     0
370
    30
100
AcDbPolyline
 90
       28
 70
     0
 43
0.0
 10
168.281158
 20
540.518188
 10
168.305984
 20
540.468994
 10
168.321625
 20
540.35498
 10
168.346497
 20
540.173645
 10
168.379349
 20
539.92865
 10
168.418747
 20
539.623413
 10
168.463791
 20
539.260498
 10
168.513947
 20
538.842407
 10
168.568695
 20
538.372498
 10
168.627472
 20
537.854797
 10
168.689682
 20
537.293579
 10
168.754669
 20
536.69342
 10
168.821716
 20
536.059082
 10
168.890121
 20
535.395203
 10
168.959152
 20
534.706543
 10
169.028107
 20
533.997559
 10
169.096298
 20
533.272644
 10
169.163132
 20
532.536072
 10
169.228088
 20
531.791931
 10
169.29071
 20
531.044312
 10
169.350632
 20
530.297363
 10
169.407578
 20
529.555176
 10
169.461258
 20
528.822205
 10
169.511444
 20
528.103088
 10
169.557968
 20
527.402344
 10
169.600662
 20
526.724731
 10
169.639282
 20
526.075439
 10
169.67395
 20
525.447205
  0
LWPOLYLINE
  5
1BA
330
19C
100
AcDbEntity
  8
0
  6
Continuous
 62
     0
370
     0
100
AcDbPolyline
 90
       22
 70
     0
 43
0.0
 10
182.362839
 20
527.389343
 10
182.359894
 20
527.905884
 10
182.360062
 20
528.455322
 10
182.362488
 20
529.03125
 10
182.363663
 20
529.626587
 10
182.36348
 20
530.235474
 10
182.362854
 20
530.852356
 10
182.362534
 20
531.471741
 10
182.362564
 20
532.087463
 10
182.362747
 20
532.69342
 10
182.362946
 20
533.283447
 10
182.363052
 20
533.850891
 10
182.363037
 20
534.388977
 10
182.362885
 20
534.891113
 10
182.362778
 20
535.351379
 10
182.362869
 20
535.76416
 10
182.36322
 20
536.124023
 10
182.363327
 20
536.427124
 10
182.361679
 20
536.670227
 10
182.356964
 20
536.850403
 10
182.353394
 20
536.963501
 10
182.362839
 20
537.004272
  0
ARC
  5
1BB
330
19C
100
AcDbEntity
  8
0
  6
Continuous
 62
     0
370
     0
100
AcDbCircle
 10
168.129661
 20
540.041699
 30
0.0
 40
0.5000000860155949
100
AcDbArc
 50
72.36155
 51
184.266413
  0
LWPOLYLINE
  5
1BC
330
19C
100
AcDbEntity
  8
0
  6
Continuous
 62
     0
370
    30
100
AcDbPolyline
 90
        5
 70
     0
 43
0.0
 10
168.517639
 20
532.215027
 10
168.603699
 20
531.147766
 10
168.683014
 20
530.081665
 10
168.754913
 20
529.032654
 10
168.833511
 20
527.758484
  0
LWPOLYLINE
  5
1BD
330
19C
100
AcDbEntity
  8
0
  6
Continuous
 62
     0
370
    30
100
AcDbPolyline
 90
       10
 70
     0
 43
0.0
 10
167.631042
 20
540.004517
 10
167.643188
 20
539.970215
 10
167.663757
 20
539.868164
 10
167.692123
 20
539.701416
 10
167.727478
 20
539.47345
 10
167.76915
 20
539.187073
 10
167.816574
 20
538.844299
 10
167.869171
 20
538.447327
 10
167.926254
 20
537.99884
 10
167.991547
 20
537.464233
  0
ARC
  5
1BE
330
19C
100
AcDbEntity
  8
0
  6
Continuous
 62
     0
370
    30
100
AcDbCircle
 10
17.344453
 20
518.901061
 30
0.0
 40
151.7477868477735
100
AcDbArc
 50
2.556884
 51
3.346228
  0
LWPOLYLINE
  5
1BF
330
19C
100
AcDbEntity
  8
0
  6
Continuous
 62
     0
370
    30
100
AcDbPolyline
 90
        6
 70
     0
 43
0.0
 10
168.941162
 20
525.670715
 10
168.998642
 20
525.560852
 10
169.122086
 20
525.473083
 10
169.292969
 20
525.420532
 10
169.491409
 20
525.411438
 10
169.67395
 20
525.447205
  0
ARC
  5
1C0
330
19C
100
AcDbEntity
  8
0
  6
Continuous
 62
     0
370
    30
100
AcDbCircle
 10
-138.12653
 20
510.469561
 30
0.0
 40
307.4437238953941
100
AcDbArc
 50
1.792155
 51
2.834071
  0
LWPOLYLINE
  5
1C1
330
19C
100
AcDbEntity
  8
0
  6
Continuous
 62
     0
370
     0
100
AcDbPolyline
 90
        6
 70
     0
 43
0.0
 10
169.226074
 20
517.810486
 10
169.250793
 20
517.812622
 10
169.32077
 20
517.818787
 10
169.42836
 20
517.828308
 10
169.563797
 20
517.840271
 10
169.754715
 20
517.8573
  0
LWPOLYLINE
  5
1C2
330
19C
100
AcDbEntity
  8
0
  6
Continuous
 62
     0
370
     0
100
AcDbPolyline
 90
        5
 70
     0
 43
0.0
 10
167.435791
 20
475.820496
 10
167.469971
 20
475.8255
 10
167.564682
 20
475.826141
 10
167.707611
 20
475.822266
 10
167.898758
 20
475.813446
  0
LWPOLYLINE
  5
1C3
330
19C
100
AcDbEntity
  8
0
  6
Continuous
 62
     0
370
     0
100
AcDbPolyline
 90
       10
 70
     0
 43
0.0
 10
169.277145
 20
513.870789
 10
169.253754
 20
509.636932
 10
169.155716
 20
505.402771
 10
168.992752
 20
501.172852
 10
168.777084
 20
496.945862
 10
168.522934
 20
492.718933
 10
168.246048
 20
488.492645
 10
167.962814
 20
484.271301
 10
167.688522
 20
480.052551
 10
167.435791
 20
475.820496
  0
LINE
  5
1C4
330
19C
100
AcDbEntity
  8
0
  6
Continuous
 62
     0
370
     0
100
AcDbLine
 10
167.373168
 20
475.826299
 30
0.0
 11
167.435785
 21
475.820494
 31
0.0
  0
LWPOLYLINE
  5
1C5
330
19C
100
AcDbEntity
  8
0
  6
Continuous
 62
     0
370
     0
100
AcDbPolyline
 90
       13
 70
     0
 43
0.0
 10
169.229843
 20
517.634399
 10
169.271027
 20
514.17218
 10
169.257446
 20
510.711334
 10
169.192535
 20
507.250031
 10
169.081268
 20
503.789886
 10
168.929199
 20
500.331421
 10
168.743546
 20
496.874756
 10
168.532288
 20
493.419495
 10
168.304031
 20
489.965393
 10
168.067596
 20
486.511902
 10
167.831436
 20
483.059082
 10
167.604279
 20
479.604248
 10
167.373169
 20
475.826294
  0
LWPOLYLINE
  5
1C6
330
19C
100
AcDbEntity
  8
0
  6
Continuous
 62
     0
370
     0
100
AcDbPolyline
 90
        6
 70
     0
 43
0.0
 10
167.373169
 20
475.826294
 10
167.387772
 20
475.674561
 10
167.44751
 20
475.534027
 10
167.547379
 20
475.417633
 10
167.677917
 20
475.336945
 10
167.856476
 20
475.297974
  0
ARC
  5
1C7
330
19C
100
AcDbEntity
  8
0
  6
Continuous
 62
     0
370
     0
100
AcDbCircle
 10
167.935386
 20
475.792208
 30
0.0
 40
0.5004052226271839
100
AcDbArc
 50
176.762317
 51
272.967277
  0
LINE
  5
1C8
330
19C
100
AcDbEntity
  8
0
  6
Continuous
 62
     0
370
     0
100
AcDbLine
 10
167.96129
 20
475.292474
 30
0.0
 11
182.40865
 21
476.055446
 31
0.0
  0
LINE
  5
1C9
330
19C
100
AcDbEntity
  8
0
  6
Continuous
 62
     0
370
     0
100
AcDbLine
 10
179.213346
 20
518.700284
 30
0.0
 11
182.880418
 21
476.59815
 31
0.0
  0
ARC
  5
1CA
330
19C
100
AcDbEntity
  8
0
  6
Continuous
 62
     0
370
    30
100
AcDbCircle
 10
182.381884
 20
476.555117
 30
0.0
 40
0.5003880177956908
100
AcDbArc
 50
273.066296
 51
4.932067
  0
LWPOLYLINE
  5
1CB
330
19C
100
AcDbEntity
  8
0
  6
Continuous
 62
     0
370
     0
100
AcDbPolyline
 90
        5
 70
     0
 43
0.0
 10
182.408966
 20
476.572754
 10
182.587158
 20
476.587616
 10
182.738327
 20
476.597626
 10
182.840378
 20
476.601349
 10
182.880417
 20
476.598145
  0
LWPOLYLINE
  5
1CC
330
19C
100
AcDbEntity
  8
0
  6
Continuous
 62
     0
370
     0
100
AcDbPolyline
 90
        6
 70
     0
 43
0.0
 10
182.408539
 20
476.572723
 10
182.415634
 20
476.418671
 10
182.41951
 20
476.277771
 10
182.4198
 20
476.163757
 10
182.416519
 20
476.08783
 10
182.408646
 20
476.05545
  0
LWPOLYLINE
  5
1CD
330
19C
100
AcDbEntity
  8
0
  6
Continuous
 62
     0
370
     0
100
AcDbPolyline
 90
        6
 70
     0
 43
0.0
 10
167.961288
 20
475.29248
 10
167.968155
 20
475.315247
 10
167.972031
 20
475.38089
 10
167.972565
 20
475.483551
 10
167.969727
 20
475.61377
 10
167.961166
 20
475.809753
  0
LINE
  5
1CE
330
19C
100
AcDbEntity
  8
0
  6
Continuous
 62
     0
370
    30
100
AcDbLine
 10
167.888505
 20
475.293936
 30
0.0
 11
167.825892
 21
475.299771
 31
0.0
  0
LWPOLYLINE
  5
1CF
330
19C
100
AcDbEntity
  8
0
  6
Continuous
 62
     0
370
    30
100
AcDbPolyline
 90
        3
 70
     0
 43
0.0
 10
167.85582
 20
475.298065
 10
167.836121
 20
475.299286
 10
167.763229
 20
475.309723
  0
LINE
  5
1D0
330
19C
100
AcDbEntity
  8
0
  6
Continuous
 62
     0
370
    30
100
AcDbLine
 10
168.903371
 20
526.424057
 30
0.0
 11
168.903415
 21
526.435141
 31
0.0
  0
ARC
  5
1D1
330
19C
100
AcDbEntity
  8
0
  6
Continuous
 62
     0
370
    30
100
AcDbCircle
 10
-46.434607
 20
513.044705
 30
0.0
 40
215.713330289764
100
AcDbArc
 50
0.21942
 51
1.265951
  0
ARC
  5
1D2
330
19C
100
AcDbEntity
  8
0
  6
Continuous
 62
     0
370
    30
100
AcDbCircle
 10
-71.986705
 20
512.662102
 30
0.0
 40
241.2677131179715
100
AcDbArc
 50
1.222726
 51
1.762941
  0
LWPOLYLINE
  5
1D3
330
19C
100
AcDbEntity
  8
0
  6
Continuous
 62
     0
370
    30
100
AcDbPolyline
 90
        8
 70
     0
 43
0.0
 10
167.991562
 20
537.464233
 10
168.063354
 20
536.848633
 10
168.137482
 20
536.182434
 10
168.212677
 20
535.474304
 10
168.287949
 20
534.731445
 10
168.362366
 20
533.960327
 10
168.43515
 20
533.167297
 10
168.517624
 20
532.214966
  0
LWPOLYLINE
  5
1D4
330
19C
100
AcDbEntity
  8
0
  6
Continuous
 62
     0
370
    30
100
AcDbPolyline
 90
        6
 70
     0
 43
0.0
 10
180.591766
 20
537.292236
 10
178.525467
 20
537.698364
 10
176.47084
 20
538.168579
 10
174.429062
 20
538.692505
 10
172.399445
 20
539.260315
 10
170.321823
 20
539.880615
  0
LWPOLYLINE
  5
1D5
330
19C
100
AcDbEntity
  8
0
  6
Continuous
 62
     0
370
    30
100
AcDbPolyline
 90
        6
 70
     0
 43
0.0
 10
180.868042
 20
524.603516
 10
181.19548
 20
524.80957
 10
181.548065
 20
524.972595
 10
181.916763
 20
525.095215
 10
182.294449
 20
525.186584
 10
182.760712
 20
525.268005
  0
LWPOLYLINE
  5
1D6
330
19C
100
AcDbEntity
  8
0
  6
Continuous
 62
     0
370
    30
100
AcDbPolyline
 90
       52
 70
     0
 43
0.0
 10
206.619064
 20
517.560486
 10
206.144836
 20
517.693237
 10
205.670776
 20
517.82666
 10
205.197113
 20
517.961365
 10
204.723969
 20
518.097961
 10
204.251328
 20
518.236267
 10
203.779144
 20
518.376099
 10
203.307388
 20
518.517395
 10
202.836044
 20
518.660095
 10
202.365112
 20
518.804077
 10
201.894577
 20
518.949402
 10
201.424423
 20
519.095947
 10
200.954666
 20
519.243713
 10
200.485275
 20
519.3927
 10
200.016251
 20
519.542847
 10
199.547592
 20
519.694031
 10
199.079269
 20
519.846375
 10
198.611298
 20
519.999695
 10
198.143661
 20
520.154114
 10
197.676346
 20
520.309448
 10
197.209335
 20
520.465759
 10
196.742645
 20
520.622925
 10
196.276245
 20
520.781006
 10
195.81012
 20
520.93988
 10
195.344269
 20
521.099609
 10
194.878662
 20
521.26001
 10
194.413315
 20
521.421143
 10
193.948181
 20
521.582947
 10
193.483292
 20
521.745361
 10
193.0186
 20
521.908386
 10
192.554123
 20
522.072021
 10
192.089828
 20
522.236206
 10
191.625732
 20
522.40094
 10
191.161804
 20
522.566101
 10
190.698029
 20
522.73175
 10
190.234406
 20
522.897827
 10
189.770905
 20
523.064209
 10
189.30751
 20
523.230896
 10
188.844208
 20
523.397827
 10
188.380981
 20
523.564941
 10
187.917877
 20
523.732422
 10
187.454895
 20
523.900269
 10
186.992081
 20
524.068542
 10
186.529312
 20
524.236938
 10
186.066376
 20
524.404907
 10
185.60318
 20
524.572205
 10
185.140488
 20
524.740784
 10
184.678513
 20
524.911377
 10
184.214203
 20
525.075439
 10
183.741562
 20
525.213257
 10
183.25563
 20
525.289917
 10
182.760727
 20
525.268005
  0
LINE
  5
1D7
330
19C
100
AcDbEntity
  8
0
  6
Continuous
 62
     0
370
    30
100
AcDbLine
 10
206.619065
 20
517.560502
 30
0.0
 11
206.638501
 21
517.555339
 31
0.0
  0
ARC
  5
1D8
330
19C
100
AcDbEntity
  8
0
  6
Continuous
 62
     0
370
     0
100
AcDbCircle
 10
241.104624
 20
352.204318
 30
0.0
 40
33.42478041284952
100
AcDbArc
 50
179.40004
 51
180.599965
  0
LINE
  5
1D9
330
19C
100
AcDbEntity
  8
0
  6
Continuous
 62
     0
370
    30
100
AcDbLine
 10
207.681677
 20
351.854322
 30
0.0
 11
217.885342
 21
351.800895
 31
0.0
  0
LWPOLYLINE
  5
1DA
330
19C
100
AcDbEntity
  8
0
  6
Continuous
 62
     0
370
    30
100
AcDbPolyline
 90
        6
 70
     0
 43
0.0
 10
217.885345
 20
351.800903
 10
217.885345
 20
351.833923
 10
217.885345
 20
351.929962
 10
217.885345
 20
352.079407
 10
217.885345
 20
352.270142
 10
217.885345
 20
352.500885
  0
LINE
  5
1DB
330
19C
100
AcDbEntity
  8
0
  6
Continuous
 62
     0
370
     0
100
AcDbLine
 10
217.885342
 20
352.500885
 30
0.0
 11
207.681677
 21
352.554312
 31
0.0
  0
ARC
  5
1DC
330
19C
100
AcDbEntity
  8
0
  6
Continuous
 62
     0
370
    30
100
AcDbCircle
 10
207.685342
 20
352.554312
 30
0.0
 40
0.6999999880805412
100
AcDbArc
 50
180.0
 51
269.7
  0
LINE
  5
1DD
330
19C
100
AcDbEntity
  8
0
  6
Continuous
 62
     0
370
    30
100
AcDbLine
 10
206.985342
 20
469.661623
 30
0.0
 11
206.985342
 21
352.554312
 31
0.0
  0
LWPOLYLINE
  5
1DE
330
19C
100
AcDbEntity
  8
0
  6
Continuous
 62
     0
370
     0
100
AcDbPolyline
 90
        6
 70
     0
 43
0.0
 10
206.985336
 20
352.554321
 10
207.022034
 20
352.554321
 10
207.121384
 20
352.554321
 10
207.262405
 20
352.554321
 10
207.451401
 20
352.554321
 10
207.681671
 20
352.554321
  0
LINE
  5
1DF
330
19C
100
AcDbEntity
  8
0
  6
Continuous
 62
     0
370
     0
100
AcDbLine
 10
207.681677
 20
352.554312
 30
0.0
 11
207.681677
 21
469.661623
 31
0.0
  0
LINE
  5
1E0
330
19C
100
AcDbEntity
  8
0
  6
Continuous
 62
     0
370
     0
100
AcDbLine
 10
207.681677
 20
469.661623
 30
0.0
 11
206.985342
 21
469.661623
 31
0.0
  0
LINE
  5
1E1
330
19C
100
AcDbEntity
  8
0
  6
Continuous
 62
     0
370
     0
100
AcDbLine
 10
207.681677
 20
469.661623
 30
0.0
 11
217.885342
 21
469.71505
 31
0.0
  0
LINE
  5
1E2
330
19C
100
AcDbEntity
  8
0
  6
Continuous
 62
     0
370
    30
100
AcDbLine
 10
217.885342
 20
469.71505
 30
0.0
 11
217.885342
 21
470.41504
 31
0.0
  0
LINE
  5
1E3
330
19C
100
AcDbEntity
  8
0
  6
Continuous
 62
     0
370
    30
100
AcDbLine
 10
217.885342
 20
470.41504
 30
0.0
 11
207.681677
 21
470.361614
 31
0.0
  0
ARC
  5
1E4
330
19C
100
AcDbEntity
  8
0
  6
Continuous
 62
     0
370
     0
100
AcDbCircle
 10
241.104624
 20
470.011617
 30
0.0
 40
33.42478041243135
100
AcDbArc
 50
179.400035
 51
180.59996
  0
ARC
  5
1E5
330
19C
100
AcDbEntity
  8
0
  6
Continuous
 62
     0
370
    30
100
AcDbCircle
 10
207.685342
 20
469.661623
 30
0.0
 40
0.6999999880804134
100
AcDbArc
 50
90.3
 51
180.0
  0
LINE
  5
1E6
330
19C
100
AcDbEntity
  8
0
  6
Continuous
 62
     0
370
    30
100
AcDbLine
 10
217.885342
 20
352.500885
 30
0.0
 11
217.885342
 21
469.71505
 31
0.0
  0
LINE
  5
1E7
330
19C
100
AcDbEntity
  8
0
  6
Continuous
 62
     0
370
    30
100
AcDbLine
 10
203.765343
 20
389.107971
 30
0.0
 11
203.765343
 21
433.107971
 31
0.0
  0
LWPOLYLINE
  5
1E8
330
19C
100
AcDbEntity
  8
0
  6
Continuous
 62
     0
370
    30
100
AcDbPolyline
 90
       53
 70
     0
 43
0.0
 10
153.76535
 20
389.607971
 10
153.765335
 20
389.647095
 10
153.765335
 20
389.76474
 10
153.765335
 20
389.960083
 10
153.765335
 20
390.232361
 10
153.765335
 20
390.58075
 10
153.765335
 20
391.004333
 10
153.765335
 20
391.501404
 10
153.765335
 20
392.069763
 10
153.765335
 20
392.707275
 10
153.765335
 20
393.411804
 10
153.765335
 20
394.181152
 10
153.765335
 20
395.012482
 10
153.765335
 20
395.902435
 10
153.765335
 20
396.847626
 10
153.765335
 20
397.844696
 10
153.765335
 20
398.890259
 10
153.765335
 20
399.980591
 10
153.765335
 20
401.111481
 10
153.765335
 20
402.278717
 10
153.765335
 20
403.478027
 10
153.765335
 20
404.70517
 10
153.765335
 20
405.955841
 10
153.765335
 20
407.225311
 10
153.765335
 20
408.508911
 10
153.765335
 20
409.801971
 10
153.765335
 20
411.099731
 10
153.765335
 20
412.397522
 10
153.765335
 20
413.690643
 10
153.765335
 20
414.974396
 10
153.765335
 20
416.24408
 10
153.765335
 20
417.494995
 10
153.765335
 20
418.722504
 10
153.765335
 20
419.92218
 10
153.765335
 20
421.089844
 10
153.765335
 20
422.221222
 10
153.765335
 20
423.312103
 10
153.765335
 20
424.358276
 10
153.765335
 20
425.355988
 10
153.765335
 20
426.301849
 10
153.765335
 20
427.192505
 10
153.765335
 20
428.024597
 10
153.765335
 20
428.794769
 10
153.765335
 20
429.500122
 10
153.765335
 20
430.138519
 10
153.765335
 20
430.707764
 10
153.765335
 20
431.20575
 10
153.765335
 20
431.63028
 10
153.765335
 20
431.979645
 10
153.765335
 20
432.252869
 10
153.765335
 20
432.449188
 10
153.765335
 20
432.567841
 10
153.76535
 20
432.607971
  0
LINE
  5
1E9
330
19C
100
AcDbEntity
  8
0
  6
Continuous
 62
     0
370
    30
100
AcDbLine
 10
153.765343
 20
389.607971
 30
0.0
 11
154.265343
 21
389.107971
 31
0.0
  0
LWPOLYLINE
  5
1EA
330
19C
100
AcDbEntity
  8
0
  6
Continuous
 62
     0
370
    30
100
AcDbPolyline
 90
       54
 70
     0
 43
0.0
 10
154.26535
 20
389.107971
 10
154.265076
 20
389.147491
 10
154.264694
 20
389.264801
 10
154.264297
 20
389.458588
 10
154.264008
 20
389.7276
 10
154.263901
 20
390.070709
 10
154.263962
 20
390.487
 10
154.26416
 20
390.975525
 10
154.264465
 20
391.5354
 10
154.264801
 20
392.164764
 10
154.265121
 20
392.860718
 10
154.265305
 20
393.6203
 10
154.265305
 20
394.440582
 10
154.265106
 20
395.318909
 10
154.264832
 20
396.252808
 10
154.264526
 20
397.239227
 10
154.264236
 20
398.27475
 10
154.264008
 20
399.35556
 10
154.26384
 20
400.477722
 10
154.263763
 20
401.637207
 10
154.263794
 20
402.829987
 10
154.263901
 20
404.051788
 10
154.264084
 20
405.298309
 10
154.264313
 20
406.565216
 10
154.264557
 20
407.848083
 10
154.264786
 20
409.142365
 10
154.264938
 20
410.443542
 10
154.264938
 20
411.74704
 10
154.264816
 20
413.048309
 10
154.264587
 20
414.342773
 10
154.264343
 20
415.625916
 10
154.264114
 20
416.893158
 10
154.263931
 20
418.140137
 10
154.263824
 20
419.362488
 10
154.263794
 20
420.555939
 10
154.26387
 20
421.716217
 10
154.264023
 20
422.839172
 10
154.264252
 20
423.920898
 10
154.264526
 20
424.957306
 10
154.264832
 20
425.94458
 10
154.265121
 20
426.879272
 10
154.265305
 20
427.758331
 10
154.265305
 20
428.579437
 10
154.265091
 20
429.339996
 10
154.264755
 20
430.037201
 10
154.264389
 20
430.668121
 10
154.264069
 20
431.229889
 10
154.263855
 20
431.720581
 10
154.263794
 20
432.138977
 10
154.263916
 20
432.483948
 10
154.264221
 20
432.754333
 10
154.264648
 20
432.949097
 10
154.26506
 20
433.067261
 10
154.26535
 20
433.107971
  0
LINE
  5
1EB
330
19C
100
AcDbEntity
  8
0
  6
Continuous
 62
     0
370
    30
100
AcDbLine
 10
167.515343
 20
389.107971
 30
0.0
 11
203.765343
 21
389.107971
 31
0.0
  0
LINE
  5
1EC
330
19C
100
AcDbEntity
  8
0
  6
Continuous
 62
     0
370
    30
100
AcDbLine
 10
158.015343
 20
389.107971
 30
0.0
 11
154.265343
 21
389.107971
 31
0.0
  0
LWPOLYLINE
  5
1ED
330
19C
100
AcDbEntity
  8
0
  6
Continuous
 62
     0
370
     0
100
AcDbPolyline
 90
       26
 70
     0
 43
0.0
 10
158.01535
 20
389.107971
 10
158.053421
 20
389.116089
 10
158.16745
 20
389.140045
 10
158.353485
 20
389.17804
 10
158.605881
 20
389.227783
 10
158.920609
 20
389.286407
 10
159.299545
 20
389.349854
 10
159.733994
 20
389.414398
 10
160.214218
 20
389.476227
 10
160.736267
 20
389.531189
 10
161.292572
 20
389.575989
 10
161.872238
 20
389.607971
 10
162.464615
 20
389.624664
 10
163.060974
 20
389.624725
 10
163.653412
 20
389.608185
 10
164.233246
 20
389.576324
 10
164.789795
 20
389.531616
 10
165.31218
 20
389.476715
 10
165.79277
 20
389.414948
 10
166.227631
 20
389.350403
 10
166.607101
 20
389.286926
 10
166.922379
 20
389.228241
 10
167.175323
 20
389.178406
 10
167.361969
 20
389.14032
 10
167.476624
 20
389.116211
 10
167.51535
 20
389.107971
  0
LWPOLYLINE
  5
1EE
330
19C
100
AcDbEntity
  8
0
  6
Continuous
 62
     0
370
     0
100
AcDbPolyline
 90
       24
 70
     0
 43
0.0
 10
166.865341
 20
433.107971
 10
166.826508
 20
433.10083
 10
166.710602
 20
433.079895
 10
166.522141
 20
433.046936
 10
166.26738
 20
433.004211
 10
165.948044
 20
432.954895
 10
165.565842
 20
432.902863
 10
165.132858
 20
432.851593
 10
164.655807
 20
432.804993
 10
164.141098
 20
432.766602
 10
163.600342
 20
432.738983
 10
163.045486
 20
432.724487
 10
162.486313
 20
432.724457
 10
161.931458
 20
432.738922
 10
161.390686
 20
432.766541
 10
160.875946
 20
432.804932
 10
160.398834
 20
432.851532
 10
159.965744
 20
432.902771
 10
159.583389
 20
432.954834
 10
159.26387
 20
433.00415
 10
159.008942
 20
433.046875
 10
158.820358
 20
433.079834
 10
158.704422
 20
433.1008
 10
158.665741
 20
433.107971
  0
LINE
  5
1EF
330
19C
100
AcDbEntity
  8
0
  6
Continuous
 62
     0
370
    30
100
AcDbLine
 10
166.715343
 20
440.437971
 30
0.0
 11
158.815343
 21
440.437971
 31
0.0
  0
LINE
  5
1F0
330
19C
100
AcDbEntity
  8
0
  6
Continuous
 62
     0
370
    30
100
AcDbLine
 10
158.815343
 20
440.437971
 30
0.0
 11
158.815343
 21
433.107971
 31
0.0
  0
LWPOLYLINE
  5
1F1
330
19C
100
AcDbEntity
  8
0
  6
Continuous
 62
     0
370
    30
100
AcDbPolyline
 90
       22
 70
     0
 43
0.0
 10
159.315338
 20
440.937958
 10
159.353821
 20
440.937958
 10
159.468262
 20
440.937958
 10
159.656342
 20
440.937958
 10
159.913589
 20
440.937958
 10
160.234512
 20
440.937958
 10
160.611786
 20
440.937958
 10
161.037109
 20
440.937958
 10
161.500946
 20
440.937958
 10
161.99295
 20
440.937958
 10
162.502197
 20
440.937958
 10
163.017288
 20
440.937958
 10
163.526794
 20
440.937958
 10
164.019302
 20
440.937958
 10
164.483856
 20
440.937958
 10
164.910126
 20
440.937958
 10
165.288528
 20
440.937958
 10
165.610779
 20
440.937958
 10
165.869461
 20
440.937958
 10
166.059097
 20
440.937958
 10
166.175171
 20
440.937958
 10
166.215347
 20
440.937958
  0
LINE
  5
1F2
330
19C
100
AcDbEntity
  8
0
  6
Continuous
 62
     0
370
    30
100
AcDbLine
 10
159.315343
 20
440.937971
 30
0.0
 11
158.815343
 21
440.437971
 31
0.0
  0
LINE
  5
1F3
330
19C
100
AcDbEntity
  8
0
  6
Continuous
 62
     0
370
    30
100
AcDbLine
 10
166.215343
 20
440.937971
 30
0.0
 11
166.715343
 21
440.437971
 31
0.0
  0
LINE
  5
1F4
330
19C
100
AcDbEntity
  8
0
  6
Continuous
 62
     0
370
    30
100
AcDbLine
 10
166.715343
 20
440.437971
 30
0.0
 11
166.715343
 21
433.107971
 31
0.0
  0
LINE
  5
1F5
330
19C
100
AcDbEntity
  8
0
  6
Continuous
 62
     0
370
    30
100
AcDbLine
 10
158.815343
 20
433.107971
 30
0.0
 11
158.66574
 21
433.107971
 31
0.0
  0
LINE
  5
1F6
330
19C
100
AcDbEntity
  8
0
  6
Continuous
 62
     0
370
    30
100
AcDbLine
 10
167.515343
 20
389.107971
 30
0.0
 11
158.015343
 21
389.107971
 31
0.0
  0
LINE
  5
1F7
330
19C
100
AcDbEntity
  8
0
  6
Continuous
 62
     0
370
    30
100
AcDbLine
 10
203.765343
 20
433.107971
 30
0.0
 11
166.865343
 21
433.107971
 31
0.0
  0
LINE
  5
1F8
330
19C
100
AcDbEntity
  8
0
  6
Continuous
 62
     0
370
    30
100
AcDbLine
 10
154.265342
 20
433.107971
 30
0.0
 11
158.66574
 21
433.107971
 31
0.0
  0
LINE
  5
1F9
330
19C
100
AcDbEntity
  8
0
  6
Continuous
 62
     0
370
    30
100
AcDbLine
 10
153.765343
 20
432.607971
 30
0.0
 11
154.265343
 21
433.107971
 31
0.0
  0
LINE
  5
1FA
330
19C
100
AcDbEntity
  8
0
  6
Continuous
 62
     0
370
    30
100
AcDbLine
 10
206.985344
 20
430.107736
 30
0.0
 11
203.765343
 21
430.107736
 31
0.0
  0
LINE
  5
1FB
330
19C
100
AcDbEntity
  8
0
  6
Continuous
 62
     0
370
    30
100
AcDbLine
 10
206.985344
 20
392.107736
 30
0.0
 11
203.765343
 21
392.107736
 31
0.0
  0
ENDBLK
  5
1FD
330
19C
100
AcDbEntity
  8
0
100
AcDbBlockEnd
  0
ENDSEC
  0
SECTION
  2
ENTITIES
  0
INSERT
  5
E3
330
1F
100
AcDbEntity
  8
0
  6
Continuous
 62
     7
420
 16250871
370
     0
100
AcDbBlockReference
  2
a
 10
267.170837
 20
87.328545
 30
0.0
  0
INSERT
  5
133
330
1F
100
AcDbEntity
  8
0
  6
Continuous
 62
     7
420
 16250871
370
     0
100
AcDbBlockReference
  2
b
 10
267.170837
 20
221.128731
 30
0.0
  0
INSERT
  5
19B
330
1F
100
AcDbEntity
  8
0
  6
Continuous
 62
     7
420
 16250871
370
     0
100
AcDbBlockReference
  2
c
 10
267.170837
 20
87.328545
 30
0.0
  0
INSERT
  5
1FE
330
1F
100
AcDbEntity
  8
0
  6
Continuous
 62
     7
420
 16250871
370
     0
100
AcDbBlockReference
  2
d
 10
250.034454
 20
0.0
 30
0.0
  0
ENDSEC
  0
SECTION
  2
OBJECTS
  0
DICTIONARY
  5
C
330
0
100
AcDbDictionary
281
     1
  3
ACAD_DETAILVIEWSTYLE
350
236
  3
ACAD_GROUP
350
D
  3
ACAD_LAYOUT
350
1A
  3
ACAD_MATERIAL
350
43
  3
ACAD_MLEADERSTYLE
350
6B
  3
ACAD_MLINESTYLE
350
17
  3
ACAD_PLOTSETTINGS
350
19
  3
ACAD_PLOTSTYLENAME
350
E
  3
ACAD_SCALELIST
350
47
  3
ACAD_SECTIONVIEWSTYLE
350
237
  3
ACAD_TABLESTYLE
350
69
  3
ACAD_VISUALSTYLE
350
2A
  3
ACDB_RECOMPOSE_DATA
350
233
  3
AcDbVariableDictionary
350
1FF
  0
SUN
  5
6D
330
29
100
AcDbSun
 90
        1
290
     0
 63
     7
421
 16777215
 40
1.0
291
     1
 91
  2455826
 92
 54000000
292
     0
 70
     2
 71
   256
280
     1
  0
DICTIONARY
  5
236
102
{ACAD_REACTORS
330
C
102
}
330
C
100
AcDbDictionary
281
     1
  0
DICTIONARY
  5
D
102
{ACAD_REACTORS
330
C
102
}
330
C
100
AcDbDictionary
281
     1
  0
DICTIONARY
  5
1A
102
{ACAD_REACTORS
330
C
102
}
330
C
100
AcDbDictionary
281
     1
  3
Layout1
350
1E
  3
Layout2
350
26
  3
Model
350
22
  0
DICTIONARY
  5
43
102
{ACAD_REACTORS
330
C
102
}
330
C
100
AcDbDictionary
281
     1
  3
ByBlock
350
45
  3
ByLayer
350
44
  3
Global
350
46
  0
DICTIONARY
  5
6B
102
{ACAD_REACTORS
330
C
102
}
330
C
100
AcDbDictionary
281
     1
  3
Standard
350
6C
  0
DICTIONARY
  5
17
102
{ACAD_REACTORS
330
C
102
}
330
C
100
AcDbDictionary
281
     1
  3
Standard
350
18
  0
DICTIONARY
  5
19
102
{ACAD_REACTORS
330
C
102
}
330
C
100
AcDbDictionary
281
     1
  0
ACDBDICTIONARYWDFLT
  5
E
102
{ACAD_REACTORS
330
C
102
}
330
C
100
AcDbDictionary
281
     1
  3
Normal
350
F
100
AcDbDictionaryWithDefault
340
F
  0
DICTIONARY
  5
47
102
{ACAD_REACTORS
330
C
102
}
330
C
100
AcDbDictionary
281
     1
  3
A0
350
48
  3
A1
350
49
  3
A2
350
4A
  3
A3
350
4B
  3
A4
350
4C
  3
A5
350
4D
  3
A6
350
4E
  3
A7
350
4F
  3
A8
350
50
  3
A9
350
51
  3
B0
350
52
  3
B1
350
53
  3
B2
350
54
  3
B3
350
55
  3
B4
350
56
  3
B5
350
57
  3
B6
350
58
  3
B7
350
59
  3
B8
350
5A
  3
B9
350
5B
  3
C0
350
5C
  3
C1
350
5D
  3
C2
350
5E
  3
C3
350
5F
  3
C4
350
60
  3
C5
350
61
  3
C6
350
62
  3
C7
350
63
  3
C8
350
64
  3
C9
350
65
  3
D0
350
66
  3
D1
350
67
  3
D2
350
68
  0
DICTIONARY
  5
237
102
{ACAD_REACTORS
330
C
102
}
330
C
100
AcDbDictionary
281
     1
  0
DICTIONARY
  5
69
102
{ACAD_REACTORS
330
C
102
}
330
C
100
AcDbDictionary
281
     1
  3
Standard
350
6A
  0
DICTIONARY
  5
2A
102
{ACAD_REACTORS
330
C
102
}
330
C
100
AcDbDictionary
281
     1
  3
2dWireframe
350
2F
  3
Basic
350
32
  3
Brighten
350
36
  3
ColorChange
350
3A
  3
Conceptual
350
34
  3
Dim
350
35
  3
EdgeColorOff
350
3D
  3
Facepattern
350
39
  3
Flat
350
2B
  3
FlatWithEdges
350
2C
  3
Gouraud
350
2D
  3
GouraudWithEdges
350
2E
  3
Hidden
350
31
  3
JitterOff
350
3B
  3
Linepattern
350
38
  3
OverhangOff
350
3C
  3
Realistic
350
33
  3
Shaded
350
42
  3
Shaded with edges
350
41
  3
Shades of Gray
350
3E
  3
Sketchy
350
3F
  3
Thicken
350
37
  3
Wireframe
350
30
  3
X-Ray
350
40
  0
XRECORD
  5
233
102
{ACAD_REACTORS
330
C
102
}
330
C
100
AcDbXrecord
280
     1
 90
        1
330
6A
  0
DICTIONARY
  5
1FF
102
{ACAD_REACTORS
330
C
102
}
330
C
100
AcDbDictionary
281
     1
  3
CANNOSCALE
350
200
  3
CMLEADERSTYLE
350
235
  3
CTABLESTYLE
350
234
  0
LAYOUT
  5
1E
102
{ACAD_REACTORS
330
1A
102
}
330
1A
100
AcDbPlotSettings
  1

  2
none_device
  4

  6

 40
0.0
 41
0.0
 42
0.0
 43
0.0
 44
0.0
 45
0.0
 46
0.0
 47
0.0
 48
0.0
 49
0.0
140
0.0
141
0.0
142
1.0
143
1.0
 70
   688
 72
     1
 73
     0
 74
     5
  7

 75
    16
 76
     0
 77
     2
 78
   300
147
1.0
148
0.0
149
0.0
100
AcDbLayout
  1
Layout1
 70
     1
 71
     1
 10
0.0
 20
0.0
 11
420.0
 21
297.0
 12
0.0
 22
0.0
 32
0.0
 14
1.000000E+20
 24
1.000000E+20
 34
1.000000E+20
 15
-1.000000E+20
 25
-1.000000E+20
 35
-1.000000E+20
146
0.0
 13
0.0
 23
0.0
 33
0.0
 16
1.0
 26
0.0
 36
0.0
 17
0.0
 27
1.0
 37
0.0
 76
     0
330
1B
  0
LAYOUT
  5
26
102
{ACAD_REACTORS
330
1A
102
}
330
1A
100
AcDbPlotSettings
  1

  2
none_device
  4

  6

 40
0.0
 41
0.0
 42
0.0
 43
0.0
 44
0.0
 45
0.0
 46
0.0
 47
0.0
 48
0.0
 49
0.0
140
0.0
141
0.0
142
1.0
143
1.0
 70
   688
 72
     1
 73
     0
 74
     5
  7

 75
    16
 76
     0
 77
     2
 78
   300
147
1.0
148
0.0
149
0.0
100
AcDbLayout
  1
Layout2
 70
     1
 71
     2
 10
0.0
 20
0.0
 11
0.0
 21
0.0
 12
0.0
 22
0.0
 32
0.0
 14
0.0
 24
0.0
 34
0.0
 15
0.0
 25
0.0
 35
0.0
146
0.0
 13
0.0
 23
0.0
 33
0.0
 16
1.0
 26
0.0
 36
0.0
 17
0.0
 27
1.0
 37
0.0
 76
     0
330
23
  0
LAYOUT
  5
22
102
{ACAD_REACTORS
330
1A
102
}
330
1A
100
AcDbPlotSettings
  1

  2
none_device
  4
Letter_(8.50_x_11.00_Inches)
  6

 40
6.35
 41
6.35
 42
6.350005
 43
6.350005
 44
215.9
 45
279.4
 46
0.0
 47
0.0
 48
0.0
 49
0.0
140
0.0
141
0.0
142
1.0
143
1.0
 70
  1712
 72
     1
 73
     0
 74
     0
  7

 75
     0
 76
     0
 77
     2
 78
   300
147
1.0
148
0.0
149
0.0
100
AcDbLayout
  1
Model
 70
     1
 71
     0
 10
0.0
 20
0.0
 11
420.0
 21
297.0
 12
0.0
 22
0.0
 32
0.0
 14
1.000000E+20
 24
1.000000E+20
 34
1.000000E+20
 15
-1.000000E+20
 25
-1.000000E+20
 35
-1.000000E+20
146
0.0
 13
0.0
 23
0.0
 33
0.0
 16
1.0
 26
0.0
 36
0.0
 17
0.0
 27
1.0
 37
0.0
 76
     0
330
1F
331
29
  0
MATERIAL
  5
45
102
{ACAD_REACTORS
330
43
102
}
330
43
100
AcDbMaterial
  1
ByBlock
 72
     1
 94
      127
  0
MATERIAL
  5
44
102
{ACAD_REACTORS
330
43
102
}
330
43
100
AcDbMaterial
  1
ByLayer
 72
     1
 94
      127
  0
MATERIAL
  5
46
102
{ACAD_REACTORS
330
43
102
}
330
43
100
AcDbMaterial
  1
Global
 72
     1
 94
      127
  0
MLEADERSTYLE
  5
6C
102
{ACAD_REACTORS
330
6B
102
}
330
6B
100
AcDbMLeaderStyle
179
     2
170
     2
171
     1
172
     0
 90
        2
 40
0.0
 41
0.0
173
     1
 91
-1056964608
340
14
 92
       -2
290
     1
 42
2.0
291
     1
 43
8.0
  3
Standard
341
0
 44
4.0
300

342
11
174
     1
178
     6
175
     1
176
     0
 93
-1056964608
 45
4.0
292
     0
297
     0
 46
4.0
343
0
 94
-1056964608
 47
1.0
 49
1.0
140
1.0
293
     1
141
0.0
294
     1
177
     0
142
1.0
295
     0
296
     0
143
3.75
271
     0
272
     9
273
     9
  0
MLINESTYLE
  5
18
102
{ACAD_REACTORS
330
17
102
}
330
17
100
AcDbMlineStyle
  2
Standard
 70
     0
  3

 62
   256
 51
90.0
 52
90.0
 71
     2
 49
0.5
 62
   256
  6
BYLAYER
 49
-0.5
 62
   256
  6
BYLAYER
  0
ACDBPLACEHOLDER
  5
F
102
{ACAD_REACTORS
330
E
102
}
330
E
  0
SCALE
  5
48
102
{ACAD_REACTORS
330
47
102
}
330
47
100
AcDbScale
 70
     0
300
1:1
140
1.0
141
1.0
290
     1
  0
SCALE
  5
49
102
{ACAD_REACTORS
330
47
102
}
330
47
100
AcDbScale
 70
     0
300
1:2
140
1.0
141
2.0
290
     0
  0
SCALE
  5
4A
102
{ACAD_REACTORS
330
47
102
}
330
47
100
AcDbScale
 70
     0
300
1:4
140
1.0
141
4.0
290
     0
  0
SCALE
  5
4B
102
{ACAD_REACTORS
330
47
102
}
330
47
100
AcDbScale
 70
     0
300
1:5
140
1.0
141
5.0
290
     0
  0
SCALE
  5
4C
102
{ACAD_REACTORS
330
47
102
}
330
47
100
AcDbScale
 70
     0
300
1:8
140
1.0
141
8.0
290
     0
  0
SCALE
  5
4D
102
{ACAD_REACTORS
330
47
102
}
330
47
100
AcDbScale
 70
     0
300
1:10
140
1.0
141
10.0
290
     0
  0
SCALE
  5
4E
102
{ACAD_REACTORS
330
47
102
}
330
47
100
AcDbScale
 70
     0
300
1:16
140
1.0
141
16.0
290
     0
  0
SCALE
  5
4F
102
{ACAD_REACTORS
330
47
102
}
330
47
100
AcDbScale
 70
     0
300
1:20
140
1.0
141
20.0
290
     0
  0
SCALE
  5
50
102
{ACAD_REACTORS
330
47
102
}
330
47
100
AcDbScale
 70
     0
300
1:30
140
1.0
141
30.0
290
     0
  0
SCALE
  5
51
102
{ACAD_REACTORS
330
47
102
}
330
47
100
AcDbScale
 70
     0
300
1:40
140
1.0
141
40.0
290
     0
  0
SCALE
  5
52
102
{ACAD_REACTORS
330
47
102
}
330
47
100
AcDbScale
 70
     0
300
1:50
140
1.0
141
50.0
290
     0
  0
SCALE
  5
53
102
{ACAD_REACTORS
330
47
102
}
330
47
100
AcDbScale
 70
     0
300
1:100
140
1.0
141
100.0
290
     0
  0
SCALE
  5
54
102
{ACAD_REACTORS
330
47
102
}
330
47
100
AcDbScale
 70
     0
300
2:1
140
2.0
141
1.0
290
     0
  0
SCALE
  5
55
102
{ACAD_REACTORS
330
47
102
}
330
47
100
AcDbScale
 70
     0
300
4:1
140
4.0
141
1.0
290
     0
  0
SCALE
  5
56
102
{ACAD_REACTORS
330
47
102
}
330
47
100
AcDbScale
 70
     0
300
8:1
140
8.0
141
1.0
290
     0
  0
SCALE
  5
57
102
{ACAD_REACTORS
330
47
102
}
330
47
100
AcDbScale
 70
     0
300
10:1
140
10.0
141
1.0
290
     0
  0
SCALE
  5
58
102
{ACAD_REACTORS
330
47
102
}
330
47
100
AcDbScale
 70
     0
300
100:1
140
100.0
141
1.0
290
     0
  0
SCALE
  5
59
102
{ACAD_REACTORS
330
47
102
}
330
47
100
AcDbScale
 70
     0
300
1/128" = 1'-0"
140
0.007812
141
12.0
290
     0
  0
SCALE
  5
5A
102
{ACAD_REACTORS
330
47
102
}
330
47
100
AcDbScale
 70
     0
300
1/64" = 1'-0"
140
0.015625
141
12.0
290
     0
  0
SCALE
  5
5B
102
{ACAD_REACTORS
330
47
102
}
330
47
100
AcDbScale
 70
     0
300
1/32" = 1'-0"
140
0.03125
141
12.0
290
     0
  0
SCALE
  5
5C
102
{ACAD_REACTORS
330
47
102
}
330
47
100
AcDbScale
 70
     0
300
1/16" = 1'-0"
140
0.0625
141
12.0
290
     0
  0
SCALE
  5
5D
102
{ACAD_REACTORS
330
47
102
}
330
47
100
AcDbScale
 70
     0
300
3/32" = 1'-0"
140
0.09375
141
12.0
290
     0
  0
SCALE
  5
5E
102
{ACAD_REACTORS
330
47
102
}
330
47
100
AcDbScale
 70
     0
300
1/8" = 1'-0"
140
0.125
141
12.0
290
     0
  0
SCALE
  5
5F
102
{ACAD_REACTORS
330
47
102
}
330
47
100
AcDbScale
 70
     0
300
3/16" = 1'-0"
140
0.1875
141
12.0
290
     0
  0
SCALE
  5
60
102
{ACAD_REACTORS
330
47
102
}
330
47
100
AcDbScale
 70
     0
300
1/4" = 1'-0"
140
0.25
141
12.0
290
     0
  0
SCALE
  5
61
102
{ACAD_REACTORS
330
47
102
}
330
47
100
AcDbScale
 70
     0
300
3/8" = 1'-0"
140
0.375
141
12.0
290
     0
  0
SCALE
  5
62
102
{ACAD_REACTORS
330
47
102
}
330
47
100
AcDbScale
 70
     0
300
1/2" = 1'-0"
140
0.5
141
12.0
290
     0
  0
SCALE
  5
63
102
{ACAD_REACTORS
330
47
102
}
330
47
100
AcDbScale
 70
     0
300
3/4" = 1'-0"
140
0.75
141
12.0
290
     0
  0
SCALE
  5
64
102
{ACAD_REACTORS
330
47
102
}
330
47
100
AcDbScale
 70
     0
300
1" = 1'-0"
140
1.0
141
12.0
290
     0
  0
SCALE
  5
65
102
{ACAD_REACTORS
330
47
102
}
330
47
100
AcDbScale
 70
     0
300
1-1/2" = 1'-0"
140
1.5
141
12.0
290
     0
  0
SCALE
  5
66
102
{ACAD_REACTORS
330
47
102
}
330
47
100
AcDbScale
 70
     0
300
3" = 1'-0"
140
3.0
141
12.0
290
     0
  0
SCALE
  5
67
102
{ACAD_REACTORS
330
47
102
}
330
47
100
AcDbScale
 70
     0
300
6" = 1'-0"
140
6.0
141
12.0
290
     0
  0
SCALE
  5
68
102
{ACAD_REACTORS
330
47
102
}
330
47
100
AcDbScale
 70
     0
300
1'-0" = 1'-0"
140
12.0
141
12.0
290
     0
  0
TABLESTYLE
  5
6A
102
{ACAD_REACTORS
330
69
102
}
102
{ACAD_XDICTIONARY
360
231
102
}
330
69
100
AcDbTableStyle
  3
Standard
 70
     0
 71
     0
 40
0.06
 41
0.06
280
     0
281
     0
  7
Standard
140
4.5
170
     2
 62
     0
 63
   257
283
     0
 90
        4
 91
        0
  1

274
    -2
284
     1
 64
     0
275
    -2
285
     1
 65
     0
276
    -2
286
     1
 66
     0
277
    -2
287
     1
 67
     0
278
    -2
288
     1
 68
     0
279
    -2
289
     1
 69
     0
  7
Standard
140
6.0
170
     5
 62
     0
 63
   257
283
     0
 90
        4
 91
        0
  1

274
    -2
284
     1
 64
     0
275
    -2
285
     1
 65
     0
276
    -2
286
     1
 66
     0
277
    -2
287
     1
 67
     0
278
    -2
288
     1
 68
     0
279
    -2
289
     1
 69
     0
  7
Standard
140
4.5
170
     5
 62
     0
 63
   257
283
     0
 90
        4
 91
        0
  1

274
    -2
284
     1
 64
     0
275
    -2
285
     1
 65
     0
276
    -2
286
     1
 66
     0
277
    -2
287
     1
 67
     0
278
    -2
288
     1
 68
     0
279
    -2
289
     1
 69
     0
  0
VISUALSTYLE
  5
2F
102
{ACAD_REACTORS
330
2A
102
}
102
{ACAD_XDICTIONARY
360
209
102
}
330
2A
100
AcDbVisualStyle
  2
2dWireframe
 70
     4
177
     2
291
     0
 71
     0
176
     1
 72
     2
176
     1
 73
     0
176
     1
 90
        0
176
     1
 40
0.6
176
     1
 41
30.0
176
     1
 62
     5
 63
     7
421
 16777215
176
     1
 74
     1
176
     1
 91
        4
176
     1
 64
     7
176
     1
 65
   257
176
     1
 75
     1
176
     1
175
     1
176
     1
 42
1.0
176
     1
 92
        0
176
     1
 66
   257
176
     1
 43
1.0
176
     1
 76
     1
176
     1
 77
     6
176
     1
 78
     2
176
     1
 67
     7
176
     1
 79
     5
176
     1
170
     0
176
     1
171
     0
176
     1
290
     0
176
     1
 93
        1
176
     1
 44
0.0
176
     1
173
     0
176
     1
  0
VISUALSTYLE
  5
32
102
{ACAD_REACTORS
330
2A
102
}
102
{ACAD_XDICTIONARY
360
20F
102
}
330
2A
100
AcDbVisualStyle
  2
Basic
 70
     7
177
     2
291
     1
 71
     1
176
     1
 72
     0
176
     1
 73
     1
176
     1
 90
        0
176
     1
 40
0.6
176
     1
 41
30.0
176
     1
 62
     5
 63
     7
421
 16777215
176
     1
 74
     0
176
     1
 91
        4
176
     1
 64
     7
176
     1
 65
   257
176
     1
 75
     1
176
     1
175
     1
176
     1
 42
1.0
176
     1
 92
        8
176
     1
 66
     7
176
     1
 43
1.0
176
     1
 76
     1
176
     1
 77
     6
176
     1
 78
     2
176
     1
 67
     7
176
     1
 79
     5
176
     1
170
     0
176
     1
171
     0
176
     1
290
     0
176
     1
 93
        1
176
     1
 44
0.0
176
     1
173
     0
176
     1
  0
VISUALSTYLE
  5
36
102
{ACAD_REACTORS
330
2A
102
}
102
{ACAD_XDICTIONARY
360
217
102
}
330
2A
100
AcDbVisualStyle
  2
Brighten
 70
    12
177
     2
291
     1
 71
     2
176
     1
 72
     2
176
     1
 73
     0
176
     1
 90
        0
176
     1
 40
0.6
176
     1
 41
30.0
176
     1
 62
     5
 63
     7
421
 16777215
176
     1
 74
     1
176
     1
 91
        4
176
     1
 64
     7
176
     1
 65
   257
176
     1
 75
     1
176
     1
175
     1
176
     1
 42
1.0
176
     1
 92
        8
176
     1
 66
     7
176
     1
 43
1.0
176
     1
 76
     1
176
     1
 77
     6
176
     1
 78
     2
176
     1
 67
     7
176
     1
 79
     5
176
     1
170
     0
176
     1
171
     0
176
     1
290
     0
176
     1
 93
        1
176
     1
 44
50.0
176
     1
173
     0
176
     1
  0
VISUALSTYLE
  5
3A
102
{ACAD_REACTORS
330
2A
102
}
102
{ACAD_XDICTIONARY
360
21F
102
}
330
2A
100
AcDbVisualStyle
  2
ColorChange
 70
    16
177
     2
291
     1
 71
     2
176
     1
 72
     2
176
     1
 73
     3
176
     1
 90
        0
176
     1
 40
0.6
176
     1
 41
30.0
176
     1
 62
     5
 63
     8
421
  8421504
176
     1
 74
     1
176
     1
 91
        4
176
     1
 64
     7
176
     1
 65
   257
176
     1
 75
     1
176
     1
175
     1
176
     1
 42
1.0
176
     1
 92
        8
176
     1
 66
     8
424
  8421504
176
     1
 43
1.0
176
     1
 76
     1
176
     1
 77
     6
176
     1
 78
     2
176
     1
 67
     7
176
     1
 79
     5
176
     1
170
     0
176
     1
171
     0
176
     1
290
     0
176
     1
 93
        1
176
     1
 44
0.0
176
     1
173
     0
176
     1
  0
VISUALSTYLE
  5
34
102
{ACAD_REACTORS
330
2A
102
}
102
{ACAD_XDICTIONARY
360
213
102
}
330
2A
100
AcDbVisualStyle
  2
Conceptual
 70
     9
177
     2
291
     0
 71
     3
176
     1
 72
     2
176
     1
 73
     0
176
     1
 90
        0
176
     1
 40
0.6
176
     1
 41
30.0
176
     1
 62
     5
 63
     7
421
 16777215
176
     1
 74
     2
176
     1
 91
        2
176
     1
 64
     7
176
     1
 65
   257
176
     1
 75
     1
176
     1
175
     1
176
     1
 42
179.0
176
     1
 92
        8
176
     1
 66
     7
176
     1
 43
1.0
176
     1
 76
     1
176
     1
 77
     6
176
     1
 78
     2
176
     1
 67
     7
176
     1
 79
     3
176
     1
170
     0
176
     1
171
     0
176
     1
290
     0
176
     1
 93
        1
176
     1
 44
0.0
176
     1
173
     0
176
     1
  0
VISUALSTYLE
  5
35
102
{ACAD_REACTORS
330
2A
102
}
102
{ACAD_XDICTIONARY
360
215
102
}
330
2A
100
AcDbVisualStyle
  2
Dim
 70
    11
177
     2
291
     1
 71
     2
176
     1
 72
     2
176
     1
 73
     0
176
     1
 90
        0
176
     1
 40
0.6
176
     1
 41
30.0
176
     1
 62
     5
 63
     7
421
 16777215
176
     1
 74
     1
176
     1
 91
        4
176
     1
 64
     7
176
     1
 65
   257
176
     1
 75
     1
176
     1
175
     1
176
     1
 42
1.0
176
     1
 92
        8
176
     1
 66
     7
176
     1
 43
1.0
176
     1
 76
     1
176
     1
 77
     6
176
     1
 78
     2
176
     1
 67
     7
176
     1
 79
     5
176
     1
170
     0
176
     1
171
     0
176
     1
290
     0
176
     1
 93
        1
176
     1
 44
-50.0
176
     1
173
     0
176
     1
  0
VISUALSTYLE
  5
3D
102
{ACAD_REACTORS
330
2A
102
}
102
{ACAD_XDICTIONARY
360
225
102
}
330
2A
100
AcDbVisualStyle
  2
EdgeColorOff
 70
    22
177
     2
291
     1
 71
     2
176
     0
 72
     2
176
     0
 73
     0
176
     0
 90
        0
176
     0
 40
0.6
176
     0
 41
30.0
176
     0
 62
     5
 63
     7
421
 16777215
176
     0
 74
     1
176
     0
 91
        4
176
     0
 64
     7
176
     0
 65
   257
176
     0
 75
     1
176
     0
175
     1
176
     0
 42
1.0
176
     0
 92
        8
176
     2
 66
     7
176
     0
 43
1.0
176
     0
 76
     1
176
     0
 77
     6
176
     0
 78
     2
176
     0
 67
     7
176
     0
 79
     5
176
     0
170
     0
176
     0
171
     0
176
     0
290
     0
176
     0
 93
        1
176
     0
 44
0.0
176
     0
173
     0
176
     0
  0
VISUALSTYLE
  5
39
102
{ACAD_REACTORS
330
2A
102
}
102
{ACAD_XDICTIONARY
360
21D
102
}
330
2A
100
AcDbVisualStyle
  2
Facepattern
 70
    15
177
     2
291
     1
 71
     2
176
     1
 72
     2
176
     1
 73
     0
176
     1
 90
        0
176
     1
 40
0.6
176
     1
 41
30.0
176
     1
 62
     5
 63
     7
421
 16777215
176
     1
 74
     1
176
     1
 91
        4
176
     1
 64
     7
176
     1
 65
   257
176
     1
 75
     1
176
     1
175
     1
176
     1
 42
1.0
176
     1
 92
        8
176
     1
 66
     7
176
     1
 43
1.0
176
     1
 76
     1
176
     1
 77
     6
176
     1
 78
     2
176
     1
 67
     7
176
     1
 79
     5
176
     1
170
     0
176
     1
171
     0
176
     1
290
     0
176
     1
 93
        1
176
     1
 44
0.0
176
     1
173
     0
176
     1
  0
VISUALSTYLE
  5
2B
102
{ACAD_REACTORS
330
2A
102
}
102
{ACAD_XDICTIONARY
360
201
102
}
330
2A
100
AcDbVisualStyle
  2
Flat
 70
     0
177
     2
291
     1
 71
     2
176
     1
 72
     1
176
     1
 73
     1
176
     1
 90
        2
176
     1
 40
0.6
176
     1
 41
30.0
176
     1
 62
     5
 63
     7
421
 16777215
176
     1
 74
     0
176
     1
 91
        0
176
     1
 64
     7
176
     1
 65
   257
176
     1
 75
     1
176
     1
175
     1
176
     1
 42
1.0
176
     1
 92
        8
176
     1
 66
     7
176
     1
 43
1.0
176
     1
 76
     1
176
     1
 77
     6
176
     1
 78
     2
176
     1
 67
     7
176
     1
 79
     5
176
     1
170
     0
176
     1
171
     0
176
     1
290
     0
176
     1
 93
       13
176
     1
 44
0.0
176
     1
173
     0
176
     1
  0
VISUALSTYLE
  5
2C
102
{ACAD_REACTORS
330
2A
102
}
102
{ACAD_XDICTIONARY
360
203
102
}
330
2A
100
AcDbVisualStyle
  2
FlatWithEdges
 70
     1
177
     2
291
     1
 71
     2
176
     1
 72
     1
176
     1
 73
     1
176
     1
 90
        2
176
     1
 40
0.6
176
     1
 41
30.0
176
     1
 62
     5
 63
     7
421
 16777215
176
     1
 74
     1
176
     1
 91
        0
176
     1
 64
     7
176
     1
 65
   257
176
     1
 75
     1
176
     1
175
     1
176
     1
 42
1.0
176
     1
 92
        0
176
     1
 66
   257
176
     1
 43
1.0
176
     1
 76
     1
176
     1
 77
     6
176
     1
 78
     2
176
     1
 67
     7
176
     1
 79
     5
176
     1
170
     0
176
     1
171
     0
176
     1
290
     0
176
     1
 93
       13
176
     1
 44
0.0
176
     1
173
     0
176
     1
  0
VISUALSTYLE
  5
2D
102
{ACAD_REACTORS
330
2A
102
}
102
{ACAD_XDICTIONARY
360
205
102
}
330
2A
100
AcDbVisualStyle
  2
Gouraud
 70
     2
177
     2
291
     1
 71
     2
176
     1
 72
     2
176
     1
 73
     1
176
     1
 90
        2
176
     1
 40
0.6
176
     1
 41
30.0
176
     1
 62
     5
 63
     7
421
 16777215
176
     1
 74
     0
176
     1
 91
        0
176
     1
 64
     7
176
     1
 65
   257
176
     1
 75
     1
176
     1
175
     1
176
     1
 42
1.0
176
     1
 92
        0
176
     1
 66
     7
176
     1
 43
1.0
176
     1
 76
     1
176
     1
 77
     6
176
     1
 78
     2
176
     1
 67
     7
176
     1
 79
     5
176
     1
170
     0
176
     1
171
     0
176
     1
290
     0
176
     1
 93
       13
176
     1
 44
0.0
176
     1
173
     0
176
     1
  0
VISUALSTYLE
  5
2E
102
{ACAD_REACTORS
330
2A
102
}
102
{ACAD_XDICTIONARY
360
207
102
}
330
2A
100
AcDbVisualStyle
  2
GouraudWithEdges
 70
     3
177
     2
291
     1
 71
     2
176
     1
 72
     2
176
     1
 73
     1
176
     1
 90
        2
176
     1
 40
0.6
176
     1
 41
30.0
176
     1
 62
     5
 63
     7
421
 16777215
176
     1
 74
     1
176
     1
 91
        0
176
     1
 64
     7
176
     1
 65
   257
176
     1
 75
     1
176
     1
175
     1
176
     1
 42
1.0
176
     1
 92
        0
176
     1
 66
   257
176
     1
 43
1.0
176
     1
 76
     1
176
     1
 77
     6
176
     1
 78
     2
176
     1
 67
     7
176
     1
 79
     5
176
     1
170
     0
176
     1
171
     0
176
     1
290
     0
176
     1
 93
       13
176
     1
 44
0.0
176
     1
173
     0
176
     1
  0
VISUALSTYLE
  5
31
102
{ACAD_REACTORS
330
2A
102
}
102
{ACAD_XDICTIONARY
360
20D
102
}
330
2A
100
AcDbVisualStyle
  2
Hidden
 70
     6
177
     2
291
     0
 71
     1
176
     1
 72
     2
176
     1
 73
     2
176
     1
 90
        0
176
     1
 40
0.6
176
     1
 41
30.0
176
     1
 62
     5
 63
     7
421
 16777215
176
     1
 74
     2
176
     1
 91
        2
176
     1
 64
     7
176
     1
 65
   257
176
     1
 75
     2
176
     1
175
     1
176
     1
 42
40.0
176
     1
 92
        0
176
     1
 66
   257
176
     1
 43
1.0
176
     1
 76
     1
176
     1
 77
     6
176
     1
 78
     2
176
     1
 67
     7
176
     1
 79
     3
176
     1
170
     0
176
     1
171
     0
176
     1
290
     0
176
     1
 93
        1
176
     1
 44
0.0
176
     1
173
     0
176
     1
  0
VISUALSTYLE
  5
3B
102
{ACAD_REACTORS
330
2A
102
}
102
{ACAD_XDICTIONARY
360
221
102
}
330
2A
100
AcDbVisualStyle
  2
JitterOff
 70
    20
177
     2
291
     1
 71
     2
176
     0
 72
     2
176
     0
 73
     0
176
     0
 90
        0
176
     0
 40
0.6
176
     0
 41
30.0
176
     0
 62
     5
 63
     7
421
 16777215
176
     0
 74
     1
176
     0
 91
        4
176
     0
 64
     7
176
     0
 65
   257
176
     0
 75
     1
176
     0
175
     1
176
     0
 42
1.0
176
     0
 92
       10
176
     2
 66
     7
176
     0
 43
1.0
176
     0
 76
     1
176
     0
 77
     6
176
     0
 78
     2
176
     0
 67
     7
176
     0
 79
     5
176
     0
170
     0
176
     0
171
     0
176
     0
290
     0
176
     0
 93
        1
176
     0
 44
0.0
176
     0
173
     0
176
     0
  0
VISUALSTYLE
  5
38
102
{ACAD_REACTORS
330
2A
102
}
102
{ACAD_XDICTIONARY
360
21B
102
}
330
2A
100
AcDbVisualStyle
  2
Linepattern
 70
    14
177
     2
291
     1
 71
     2
176
     1
 72
     2
176
     1
 73
     0
176
     1
 90
        0
176
     1
 40
0.6
176
     1
 41
30.0
176
     1
 62
     5
 63
     7
421
 16777215
176
     1
 74
     1
176
     1
 91
        4
176
     1
 64
     7
176
     1
 65
   257
176
     1
 75
     7
176
     1
175
     7
176
     1
 42
1.0
176
     1
 92
        8
176
     1
 66
     7
176
     1
 43
1.0
176
     1
 76
     1
176
     1
 77
     6
176
     1
 78
     2
176
     1
 67
     7
176
     1
 79
     5
176
     1
170
     0
176
     1
171
     0
176
     1
290
     0
176
     1
 93
        1
176
     1
 44
0.0
176
     1
173
     0
176
     1
  0
VISUALSTYLE
  5
3C
102
{ACAD_REACTORS
330
2A
102
}
102
{ACAD_XDICTIONARY
360
223
102
}
330
2A
100
AcDbVisualStyle
  2
OverhangOff
 70
    21
177
     2
291
     1
 71
     2
176
     0
 72
     2
176
     0
 73
     0
176
     0
 90
        0
176
     0
 40
0.6
176
     0
 41
30.0
176
     0
 62
     5
 63
     7
421
 16777215
176
     0
 74
     1
176
     0
 91
        4
176
     0
 64
     7
176
     0
 65
   257
176
     0
 75
     1
176
     0
175
     1
176
     0
 42
1.0
176
     0
 92
        9
176
     2
 66
     7
176
     0
 43
1.0
176
     0
 76
     1
176
     0
 77
     6
176
     0
 78
     2
176
     0
 67
     7
176
     0
 79
     5
176
     0
170
     0
176
     0
171
     0
176
     0
290
     0
176
     0
 93
        1
176
     0
 44
0.0
176
     0
173
     0
176
     0
  0
VISUALSTYLE
  5
33
102
{ACAD_REACTORS
330
2A
102
}
102
{ACAD_XDICTIONARY
360
211
102
}
330
2A
100
AcDbVisualStyle
  2
Realistic
 70
     8
177
     2
291
     0
 71
     2
176
     1
 72
     3
176
     1
 73
     0
176
     1
 90
        2
176
     1
 40
0.6
176
     1
 41
30.0
176
     1
 62
     5
 63
     7
421
 16777215
176
     1
 74
     0
176
     1
 91
        0
176
     1
 64
     7
176
     1
 65
   257
176
     1
 75
     1
176
     1
175
     1
176
     1
 42
1.0
176
     1
 92
        8
176
     1
 66
   257
176
     1
 43
1.0
176
     1
 76
     1
176
     1
 77
     6
176
     1
 78
     2
176
     1
 67
     7
176
     1
 79
     3
176
     1
170
     0
176
     1
171
     0
176
     1
290
     0
176
     1
 93
       13
176
     1
 44
0.0
176
     1
173
     0
176
     1
  0
VISUALSTYLE
  5
42
102
{ACAD_REACTORS
330
2A
102
}
102
{ACAD_XDICTIONARY
360
22F
102
}
330
2A
100
AcDbVisualStyle
  2
Shaded
 70
    27
177
     2
291
     0
 71
     2
176
     1
 72
     2
176
     1
 73
     1
176
     1
 90
        2
176
     1
 40
0.6
176
     1
 41
30.0
176
     1
 62
     5
 63
     7
421
 16777215
176
     1
 74
     0
176
     1
 91
        4
176
     1
 64
     7
176
     1
 65
   257
176
     1
 75
     1
176
     1
175
     1
176
     1
 42
1.0
176
     1
 92
        8
176
     1
 66
   257
176
     1
 43
1.0
176
     1
 76
     1
176
     1
 77
     6
176
     1
 78
     2
176
     1
 67
     8
425
  7895160
176
     1
 79
     3
176
     1
170
     0
176
     1
171
     0
176
     1
290
     0
176
     1
 93
        5
176
     1
 44
0.0
176
     1
173
     0
176
     1
  0
VISUALSTYLE
  5
41
102
{ACAD_REACTORS
330
2A
102
}
102
{ACAD_XDICTIONARY
360
22D
102
}
330
2A
100
AcDbVisualStyle
  2
Shaded with edges
 70
    26
177
     2
291
     0
 71
     2
176
     1
 72
     2
176
     1
 73
     1
176
     1
 90
        2
176
     1
 40
0.6
176
     1
 41
30.0
176
     1
 62
     5
 63
     7
421
 16777215
176
     1
 74
     1
176
     1
 91
       10
176
     1
 64
     7
176
     1
 65
   257
176
     1
 75
     2
176
     1
175
     1
176
     1
 42
1.0
176
     1
 92
        8
176
     1
 66
   257
176
     1
 43
1.0
176
     1
 76
     1
176
     1
 77
     6
176
     1
 78
     2
176
     1
 67
     7
176
     1
 79
     3
176
     1
170
     0
176
     1
171
     0
176
     1
290
     0
176
     1
 93
        5
176
     1
 44
0.0
176
     1
173
     0
176
     1
  0
VISUALSTYLE
  5
3E
102
{ACAD_REACTORS
330
2A
102
}
102
{ACAD_XDICTIONARY
360
227
102
}
330
2A
100
AcDbVisualStyle
  2
Shades of Gray
 70
    23
177
     2
291
     0
 71
     2
176
     1
 72
     2
176
     1
 73
     3
176
     1
 90
        0
176
     1
 40
0.6
176
     1
 41
30.0
176
     1
 62
     5
 63
     7
421
 16777215
176
     1
 74
     2
176
     1
 91
        2
176
     1
 64
     7
176
     1
 65
     7
176
     1
 75
     1
176
     1
175
     1
176
     1
 42
40.0
176
     1
 92
        8
176
     1
 66
     7
176
     1
 43
1.0
176
     1
 76
     1
176
     1
 77
     6
176
     1
 78
     2
176
     1
 67
     7
176
     1
 79
     3
176
     1
170
     0
176
     1
171
     0
176
     1
290
     0
176
     1
 93
        1
176
     1
 44
0.0
176
     1
173
     0
176
     1
  0
VISUALSTYLE
  5
3F
102
{ACAD_REACTORS
330
2A
102
}
102
{ACAD_XDICTIONARY
360
229
102
}
330
2A
100
AcDbVisualStyle
  2
Sketchy
 70
    24
177
     2
291
     0
 71
     1
176
     1
 72
     2
176
     1
 73
     2
176
     1
 90
        0
176
     1
 40
0.6
176
     1
 41
30.0
176
     1
 62
     5
 63
     7
421
 16777215
176
     1
 74
     2
176
     1
 91
        2
176
     1
 64
     7
176
     1
 65
     7
176
     1
 75
     1
176
     1
175
     1
176
     1
 42
40.0
176
     1
 92
       11
176
     1
 66
     7
176
     1
 43
1.0
176
     1
 76
     1
176
     1
 77
     6
176
     1
 78
     2
176
     1
 67
     7
176
     1
 79
     6
176
     1
170
     0
176
     1
171
     0
176
     1
290
     0
176
     1
 93
        1
176
     1
 44
0.0
176
     1
173
     0
176
     1
  0
VISUALSTYLE
  5
37
102
{ACAD_REACTORS
330
2A
102
}
102
{ACAD_XDICTIONARY
360
219
102
}
330
2A
100
AcDbVisualStyle
  2
Thicken
 70
    13
177
     2
291
     1
 71
     2
176
     1
 72
     2
176
     1
 73
     0
176
     1
 90
        0
176
     1
 40
0.6
176
     1
 41
30.0
176
     1
 62
     5
 63
     7
421
 16777215
176
     1
 74
     1
176
     1
 91
        4
176
     1
 64
     7
176
     1
 65
   257
176
     1
 75
     1
176
     1
175
     1
176
     1
 42
1.0
176
     1
 92
       12
176
     1
 66
     7
176
     1
 43
1.0
176
     1
 76
     1
176
     1
 77
     6
176
     1
 78
     2
176
     1
 67
     7
176
     1
 79
     5
176
     1
170
     0
176
     1
171
     0
176
     1
290
     0
176
     1
 93
        1
176
     1
 44
0.0
176
     1
173
     0
176
     1
  0
VISUALSTYLE
  5
30
102
{ACAD_REACTORS
330
2A
102
}
102
{ACAD_XDICTIONARY
360
20B
102
}
330
2A
100
AcDbVisualStyle
  2
Wireframe
 70
     5
177
     2
291
     0
 71
     0
176
     1
 72
     2
176
     1
 73
     0
176
     1
 90
        0
176
     1
 40
0.6
176
     1
 41
30.0
176
     1
 62
     5
 63
     7
421
 16777215
176
     1
 74
     1
176
     1
 91
        4
176
     1
 64
     7
176
     1
 65
   257
176
     1
 75
     1
176
     1
175
     1
176
     1
 42
1.0
176
     1
 92
        0
176
     1
 66
   257
176
     1
 43
1.0
176
     1
 76
     1
176
     1
 77
     6
176
     1
 78
     2
176
     1
 67
     7
176
     1
 79
     3
176
     1
170
     0
176
     1
171
     0
176
     1
290
     0
176
     1
 93
        1
176
     1
 44
0.0
176
     1
173
     0
176
     1
  0
VISUALSTYLE
  5
40
102
{ACAD_REACTORS
330
2A
102
}
102
{ACAD_XDICTIONARY
360
22B
102
}
330
2A
100
AcDbVisualStyle
  2
X-Ray
 70
    25
177
     2
291
     0
 71
     2
176
     1
 72
     2
176
     1
 73
     1
176
     1
 90
        1
176
     1
 40
0.5
176
     1
 41
30.0
176
     1
 62
     5
 63
     7
421
 16777215
176
     1
 74
     1
176
     1
 91
        0
176
     1
 64
     7
176
     1
 65
   257
176
     1
 75
     1
176
     1
175
     1
176
     1
 42
1.0
176
     1
 92
        8
176
     1
 66
     7
176
     1
 43
1.0
176
     1
 76
     1
176
     1
 77
     6
176
     1
 78
     2
176
     1
 67
     7
176
     1
 79
     3
176
     1
170
     0
176
     1
171
     0
176
     1
290
     0
176
     1
 93
       13
176
     1
 44
0.0
176
     1
173
     0
176
     1
  0
DICTIONARYVAR
  5
200
102
{ACAD_REACTORS
330
1FF
102
}
330
1FF
100
DictionaryVariables
280
     0
  1
1:1
  0
DICTIONARYVAR
  5
235
102
{ACAD_REACTORS
330
1FF
102
}
330
1FF
100
DictionaryVariables
280
     0
  1
Standard
  0
DICTIONARYVAR
  5
234
102
{ACAD_REACTORS
330
1FF
102
}
330
1FF
100
DictionaryVariables
280
     0
  1
Standard
  0
DICTIONARY
  5
231
330
6A
100
AcDbDictionary
280
     1
281
     1
  3
ACAD_ROUNDTRIP_2008_TABLESTYLE_CELLSTYLEMAP
360
232
  0
DICTIONARY
  5
209
330
2F
100
AcDbDictionary
280
     1
281
     1
  3
ACAD_XREC_ROUNDTRIP
360
20A
  0
DICTIONARY
  5
20F
330
32
100
AcDbDictionary
280
     1
281
     1
  3
ACAD_XREC_ROUNDTRIP
360
210
  0
DICTIONARY
  5
217
330
36
100
AcDbDictionary
280
     1
281
     1
  3
ACAD_XREC_ROUNDTRIP
360
218
  0
DICTIONARY
  5
21F
330
3A
100
AcDbDictionary
280
     1
281
     1
  3
ACAD_XREC_ROUNDTRIP
360
220
  0
DICTIONARY
  5
213
330
34
100
AcDbDictionary
280
     1
281
     1
  3
ACAD_XREC_ROUNDTRIP
360
214
  0
DICTIONARY
  5
215
330
35
100
AcDbDictionary
280
     1
281
     1
  3
ACAD_XREC_ROUNDTRIP
360
216
  0
DICTIONARY
  5
225
330
3D
100
AcDbDictionary
280
     1
281
     1
  3
ACAD_XREC_ROUNDTRIP
360
226
  0
DICTIONARY
  5
21D
330
39
100
AcDbDictionary
280
     1
281
     1
  3
ACAD_XREC_ROUNDTRIP
360
21E
  0
DICTIONARY
  5
201
330
2B
100
AcDbDictionary
280
     1
281
     1
  3
ACAD_XREC_ROUNDTRIP
360
202
  0
DICTIONARY
  5
203
330
2C
100
AcDbDictionary
280
     1
281
     1
  3
ACAD_XREC_ROUNDTRIP
360
204
  0
DICTIONARY
  5
205
330
2D
100
AcDbDictionary
280
     1
281
     1
  3
ACAD_XREC_ROUNDTRIP
360
206
  0
DICTIONARY
  5
207
330
2E
100
AcDbDictionary
280
     1
281
     1
  3
ACAD_XREC_ROUNDTRIP
360
208
  0
DICTIONARY
  5
20D
330
31
100
AcDbDictionary
280
     1
281
     1
  3
ACAD_XREC_ROUNDTRIP
360
20E
  0
DICTIONARY
  5
221
330
3B
100
AcDbDictionary
280
     1
281
     1
  3
ACAD_XREC_ROUNDTRIP
360
222
  0
DICTIONARY
  5
21B
330
38
100
AcDbDictionary
280
     1
281
     1
  3
ACAD_XREC_ROUNDTRIP
360
21C
  0
DICTIONARY
  5
223
330
3C
100
AcDbDictionary
280
     1
281
     1
  3
ACAD_XREC_ROUNDTRIP
360
224
  0
DICTIONARY
  5
211
330
33
100
AcDbDictionary
280
     1
281
     1
  3
ACAD_XREC_ROUNDTRIP
360
212
  0
DICTIONARY
  5
22F
330
42
100
AcDbDictionary
280
     1
281
     1
  3
ACAD_XREC_ROUNDTRIP
360
230
  0
DICTIONARY
  5
22D
330
41
100
AcDbDictionary
280
     1
281
     1
  3
ACAD_XREC_ROUNDTRIP
360
22E
  0
DICTIONARY
  5
227
330
3E
100
AcDbDictionary
280
     1
281
     1
  3
ACAD_XREC_ROUNDTRIP
360
228
  0
DICTIONARY
  5
229
330
3F
100
AcDbDictionary
280
     1
281
     1
  3
ACAD_XREC_ROUNDTRIP
360
22A
  0
DICTIONARY
  5
219
330
37
100
AcDbDictionary
280
     1
281
     1
  3
ACAD_XREC_ROUNDTRIP
360
21A
  0
DICTIONARY
  5
20B
330
30
100
AcDbDictionary
280
     1
281
     1
  3
ACAD_XREC_ROUNDTRIP
360
20C
  0
DICTIONARY
  5
22B
330
40
100
AcDbDictionary
280
     1
281
     1
  3
ACAD_XREC_ROUNDTRIP
360
22C
  0
CELLSTYLEMAP
  5
232
102
{ACAD_REACTORS
330
231
102
}
330
231
100
AcDbCellStyleMap
 90
        3
300
CELLSTYLE
  1
TABLEFORMAT_BEGIN
 90
        5
170
     1
 91
        0
 92
    32768
 62
   257
 93
        1
300
CONTENTFORMAT
  1
CONTENTFORMAT_BEGIN
 90
        0
 91
        0
 92
        4
 93
        0
300

 40
0.0
140
1.0
 94
        5
 62
     0
340
11
144
6.0
309
CONTENTFORMAT_END
171
     1
301
MARGIN
  1
CELLMARGIN_BEGIN
 40
1.5
 40
1.5
 40
1.5
 40
1.5
 40
1.5
 40
1.5
309
CELLMARGIN_END
 94
        6
 95
        1
302
GRIDFORMAT
  1
GRIDFORMAT_BEGIN
 90
        0
 91
        1
 62
     0
 92
       -2
340
14
 93
        0
 40
0.045
309
GRIDFORMAT_END
 95
        2
302
GRIDFORMAT
  1
GRIDFORMAT_BEGIN
 90
        0
 91
        1
 62
     0
 92
       -2
340
14
 93
        0
 40
0.045
309
GRIDFORMAT_END
 95
        4
302
GRIDFORMAT
  1
GRIDFORMAT_BEGIN
 90
        0
 91
        1
 62
     0
 92
       -2
340
14
 93
        0
 40
0.045
309
GRIDFORMAT_END
 95
        8
302
GRIDFORMAT
  1
GRIDFORMAT_BEGIN
 90
        0
 91
        1
 62
     0
 92
       -2
340
14
 93
        0
 40
0.045
309
GRIDFORMAT_END
 95
       16
302
GRIDFORMAT
  1
GRIDFORMAT_BEGIN
 90
        0
 91
        1
 62
     0
 92
       -2
340
14
 93
        0
 40
0.045
309
GRIDFORMAT_END
 95
       32
302
GRIDFORMAT
  1
GRIDFORMAT_BEGIN
 90
        0
 91
        1
 62
     0
 92
       -2
340
14
 93
        0
 40
0.045
309
GRIDFORMAT_END
309
TABLEFORMAT_END
  1
CELLSTYLE_BEGIN
 90
        1
 91
        1
300
_TITLE
309
CELLSTYLE_END
300
CELLSTYLE
  1
TABLEFORMAT_BEGIN
 90
        5
170
     1
 91
        0
 92
        0
 62
   257
 93
        1
300
CONTENTFORMAT
  1
CONTENTFORMAT_BEGIN
 90
        0
 91
        0
 92
        4
 93
        0
300

 40
0.0
140
1.0
 94
        5
 62
     0
340
11
144
4.5
309
CONTENTFORMAT_END
171
     1
301
MARGIN
  1
CELLMARGIN_BEGIN
 40
1.5
 40
1.5
 40
1.5
 40
1.5
 40
1.5
 40
1.5
309
CELLMARGIN_END
 94
        6
 95
        1
302
GRIDFORMAT
  1
GRIDFORMAT_BEGIN
 90
        0
 91
        1
 62
     0
 92
       -2
340
14
 93
        0
 40
0.045
309
GRIDFORMAT_END
 95
        2
302
GRIDFORMAT
  1
GRIDFORMAT_BEGIN
 90
        0
 91
        1
 62
     0
 92
       -2
340
14
 93
        0
 40
0.045
309
GRIDFORMAT_END
 95
        4
302
GRIDFORMAT
  1
GRIDFORMAT_BEGIN
 90
        0
 91
        1
 62
     0
 92
       -2
340
14
 93
        0
 40
0.045
309
GRIDFORMAT_END
 95
        8
302
GRIDFORMAT
  1
GRIDFORMAT_BEGIN
 90
        0
 91
        1
 62
     0
 92
       -2
340
14
 93
        0
 40
0.045
309
GRIDFORMAT_END
 95
       16
302
GRIDFORMAT
  1
GRIDFORMAT_BEGIN
 90
        0
 91
        1
 62
     0
 92
       -2
340
14
 93
        0
 40
0.045
309
GRIDFORMAT_END
 95
       32
302
GRIDFORMAT
  1
GRIDFORMAT_BEGIN
 90
        0
 91
        1
 62
     0
 92
       -2
340
14
 93
        0
 40
0.045
309
GRIDFORMAT_END
309
TABLEFORMAT_END
  1
CELLSTYLE_BEGIN
 90
        2
 91
        1
300
_HEADER
309
CELLSTYLE_END
300
CELLSTYLE
  1
TABLEFORMAT_BEGIN
 90
        5
170
     1
 91
        0
 92
        0
 62
   257
 93
        1
300
CONTENTFORMAT
  1
CONTENTFORMAT_BEGIN
 90
        0
 91
        0
 92
        4
 93
        0
300

 40
0.0
140
1.0
 94
        2
 62
     0
340
11
144
4.5
309
CONTENTFORMAT_END
171
     1
301
MARGIN
  1
CELLMARGIN_BEGIN
 40
1.5
 40
1.5
 40
1.5
 40
1.5
 40
1.5
 40
1.5
309
CELLMARGIN_END
 94
        6
 95
        1
302
GRIDFORMAT
  1
GRIDFORMAT_BEGIN
 90
        0
 91
        1
 62
     0
 92
       -2
340
14
 93
        0
 40
0.045
309
GRIDFORMAT_END
 95
        2
302
GRIDFORMAT
  1
GRIDFORMAT_BEGIN
 90
        0
 91
        1
 62
     0
 92
       -2
340
14
 93
        0
 40
0.045
309
GRIDFORMAT_END
 95
        4
302
GRIDFORMAT
  1
GRIDFORMAT_BEGIN
 90
        0
 91
        1
 62
     0
 92
       -2
340
14
 93
        0
 40
0.045
309
GRIDFORMAT_END
 95
        8
302
GRIDFORMAT
  1
GRIDFORMAT_BEGIN
 90
        0
 91
        1
 62
     0
 92
       -2
340
14
 93
        0
 40
0.045
309
GRIDFORMAT_END
 95
       16
302
GRIDFORMAT
  1
GRIDFORMAT_BEGIN
 90
        0
 91
        1
 62
     0
 92
       -2
340
14
 93
        0
 40
0.045
309
GRIDFORMAT_END
 95
       32
302
GRIDFORMAT
  1
GRIDFORMAT_BEGIN
 90
        0
 91
        1
 62
     0
 92
       -2
340
14
 93
        0
 40
0.045
309
GRIDFORMAT_END
309
TABLEFORMAT_END
  1
CELLSTYLE_BEGIN
 90
        3
 91
        2
300
_DATA
309
CELLSTYLE_END
  0
XRECORD
  5
20A
102
{ACAD_REACTORS
330
209
102
}
330
209
100
AcDbXrecord
280
     1
102
RTVSPost2010Prop28
280
     1
102
RTVSPost2010PropOp28
 70
     1
102
RTVSPost2010Prop29
280
     1
102
RTVSPost2010PropOp29
 70
     1
102
RTVSPost2010Prop30
280
     0
102
RTVSPost2010PropOp30
 70
     1
102
RTVSPost2010Prop31
280
     0
102
RTVSPost2010PropOp31
 70
     1
102
RTVSPost2010Prop32
280
     0
102
RTVSPost2010PropOp32
 70
     1
102
RTVSPost2010Prop33
280
     0
102
RTVSPost2010PropOp33
 70
     1
102
RTVSPost2010Prop34
280
     0
102
RTVSPost2010PropOp34
 70
     1
102
RTVSPost2010Prop35
280
     0
102
RTVSPost2010PropOp35
 70
     1
102
RTVSPost2010Prop36
280
     0
102
RTVSPost2010PropOp36
 70
     1
102
RTVSPost2010Prop37
 90
       50
102
RTVSPost2010PropOp37
 70
     1
102
RTVSPost2010Prop38
140
0.0
102
RTVSPost2010PropOp38
 70
     1
102
RTVSPost2010Prop39
140
1.0
102
RTVSPost2010PropOp39
 70
     1
102
RTVSPost2010Prop40
 90
        0
102
RTVSPost2010PropOp40
 70
     1
102
RTVSPost2010Prop41ColorIndex
 90
       18
102
RTVSPost2010Prop41ColorRGB
 90
        0
102
RTVSPost2010PropOp41
 70
     1
102
RTVSPost2010Prop42
 90
       50
102
RTVSPost2010PropOp42
 70
     1
102
RTVSPost2010Prop43
 90
        3
102
RTVSPost2010PropOp43
 70
     1
102
RTVSPost2010Prop44ColorIndex
 90
        5
102
RTVSPost2010Prop44ColorRGB
 90
      255
102
RTVSPost2010PropOp44
 70
     1
102
RTVSPost2010Prop45
280
     0
102
RTVSPost2010PropOp45
 70
     1
102
RTVSPost2010Prop46
 90
       50
102
RTVSPost2010PropOp46
 70
     1
102
RTVSPost2010Prop47
 90
       50
102
RTVSPost2010PropOp47
 70
     1
102
RTVSPost2010Prop48
 90
       50
102
RTVSPost2010PropOp48
 70
     1
102
RTVSPost2010Prop49
280
     0
102
RTVSPost2010PropOp49
 70
     1
102
RTVSPost2010Prop50
 90
       50
102
RTVSPost2010PropOp50
 70
     1
102
RTVSPost2010Prop51ColorIndex
 90
      256
102
RTVSPost2010Prop51ColorRGB
 90
-16777216
102
RTVSPost2010PropOp51
 70
     0
102
RTVSPost2010Prop52
140
1.0
102
RTVSPost2010PropOp52
 70
     0
102
RTVSPost2010Prop53
 90
        2
102
RTVSPost2010PropOp53
 70
     1
102
RTVSPost2010Prop54
  1
strokes_ogs.tif
102
RTVSPost2010PropOp54
 70
     1
102
RTVSPost2010Prop55
280
     0
102
RTVSPost2010PropOp55
 70
     1
102
RTVSPost2010Prop56
140
1.0
102
RTVSPost2010PropOp56
 70
     1
102
RTVSPost2010Prop57
140
1.0
102
RTVSPost2010PropOp57
 70
     1
  0
XRECORD
  5
210
102
{ACAD_REACTORS
330
20F
102
}
330
20F
100
AcDbXrecord
280
     1
102
RTVSPost2010Prop28
280
     0
102
RTVSPost2010PropOp28
 70
     1
102
RTVSPost2010Prop29
280
     1
102
RTVSPost2010PropOp29
 70
     1
102
RTVSPost2010Prop30
280
     1
102
RTVSPost2010PropOp30
 70
     1
102
RTVSPost2010Prop31
280
     0
102
RTVSPost2010PropOp31
 70
     1
102
RTVSPost2010Prop32
280
     0
102
RTVSPost2010PropOp32
 70
     1
102
RTVSPost2010Prop33
280
     0
102
RTVSPost2010PropOp33
 70
     1
102
RTVSPost2010Prop34
280
     0
102
RTVSPost2010PropOp34
 70
     1
102
RTVSPost2010Prop35
280
     0
102
RTVSPost2010PropOp35
 70
     1
102
RTVSPost2010Prop36
280
     0
102
RTVSPost2010PropOp36
 70
     1
102
RTVSPost2010Prop37
 90
       50
102
RTVSPost2010PropOp37
 70
     1
102
RTVSPost2010Prop38
140
0.0
102
RTVSPost2010PropOp38
 70
     1
102
RTVSPost2010Prop39
140
1.0
102
RTVSPost2010PropOp39
 70
     1
102
RTVSPost2010Prop40
 90
        0
102
RTVSPost2010PropOp40
 70
     1
102
RTVSPost2010Prop41ColorIndex
 90
       18
102
RTVSPost2010Prop41ColorRGB
 90
        0
102
RTVSPost2010PropOp41
 70
     1
102
RTVSPost2010Prop42
 90
       50
102
RTVSPost2010PropOp42
 70
     1
102
RTVSPost2010Prop43
 90
        3
102
RTVSPost2010PropOp43
 70
     1
102
RTVSPost2010Prop44ColorIndex
 90
        5
102
RTVSPost2010Prop44ColorRGB
 90
      255
102
RTVSPost2010PropOp44
 70
     1
102
RTVSPost2010Prop45
280
     0
102
RTVSPost2010PropOp45
 70
     1
102
RTVSPost2010Prop46
 90
       50
102
RTVSPost2010PropOp46
 70
     1
102
RTVSPost2010Prop47
 90
       50
102
RTVSPost2010PropOp47
 70
     1
102
RTVSPost2010Prop48
 90
       50
102
RTVSPost2010PropOp48
 70
     1
102
RTVSPost2010Prop49
280
     0
102
RTVSPost2010PropOp49
 70
     1
102
RTVSPost2010Prop50
 90
       50
102
RTVSPost2010PropOp50
 70
     1
102
RTVSPost2010Prop51ColorIndex
 90
      256
102
RTVSPost2010Prop51ColorRGB
 90
-16777216
102
RTVSPost2010PropOp51
 70
     0
102
RTVSPost2010Prop52
140
1.0
102
RTVSPost2010PropOp52
 70
     0
102
RTVSPost2010Prop53
 90
        2
102
RTVSPost2010PropOp53
 70
     1
102
RTVSPost2010Prop54
  1
strokes_ogs.tif
102
RTVSPost2010PropOp54
 70
     1
102
RTVSPost2010Prop55
280
     0
102
RTVSPost2010PropOp55
 70
     1
102
RTVSPost2010Prop56
140
1.0
102
RTVSPost2010PropOp56
 70
     1
102
RTVSPost2010Prop57
140
1.0
102
RTVSPost2010PropOp57
 70
     1
  0
XRECORD
  5
218
102
{ACAD_REACTORS
330
217
102
}
330
217
100
AcDbXrecord
280
     1
102
RTVSPost2010Prop28
280
     0
102
RTVSPost2010PropOp28
 70
     1
102
RTVSPost2010Prop29
280
     1
102
RTVSPost2010PropOp29
 70
     1
102
RTVSPost2010Prop30
280
     1
102
RTVSPost2010PropOp30
 70
     1
102
RTVSPost2010Prop31
280
     0
102
RTVSPost2010PropOp31
 70
     1
102
RTVSPost2010Prop32
280
     0
102
RTVSPost2010PropOp32
 70
     1
102
RTVSPost2010Prop33
280
     0
102
RTVSPost2010PropOp33
 70
     1
102
RTVSPost2010Prop34
280
     0
102
RTVSPost2010PropOp34
 70
     1
102
RTVSPost2010Prop35
280
     0
102
RTVSPost2010PropOp35
 70
     1
102
RTVSPost2010Prop36
280
     0
102
RTVSPost2010PropOp36
 70
     1
102
RTVSPost2010Prop37
 90
       50
102
RTVSPost2010PropOp37
 70
     1
102
RTVSPost2010Prop38
140
0.0
102
RTVSPost2010PropOp38
 70
     1
102
RTVSPost2010Prop39
140
1.0
102
RTVSPost2010PropOp39
 70
     1
102
RTVSPost2010Prop40
 90
        0
102
RTVSPost2010PropOp40
 70
     1
102
RTVSPost2010Prop41ColorIndex
 90
       18
102
RTVSPost2010Prop41ColorRGB
 90
        0
102
RTVSPost2010PropOp41
 70
     1
102
RTVSPost2010Prop42
 90
       50
102
RTVSPost2010PropOp42
 70
     1
102
RTVSPost2010Prop43
 90
        3
102
RTVSPost2010PropOp43
 70
     1
102
RTVSPost2010Prop44ColorIndex
 90
        5
102
RTVSPost2010Prop44ColorRGB
 90
      255
102
RTVSPost2010PropOp44
 70
     1
102
RTVSPost2010Prop45
280
     0
102
RTVSPost2010PropOp45
 70
     1
102
RTVSPost2010Prop46
 90
       50
102
RTVSPost2010PropOp46
 70
     1
102
RTVSPost2010Prop47
 90
       50
102
RTVSPost2010PropOp47
 70
     1
102
RTVSPost2010Prop48
 90
       50
102
RTVSPost2010PropOp48
 70
     1
102
RTVSPost2010Prop49
280
     0
102
RTVSPost2010PropOp49
 70
     1
102
RTVSPost2010Prop50
 90
       50
102
RTVSPost2010PropOp50
 70
     1
102
RTVSPost2010Prop51ColorIndex
 90
      256
102
RTVSPost2010Prop51ColorRGB
 90
-16777216
102
RTVSPost2010PropOp51
 70
     0
102
RTVSPost2010Prop52
140
1.0
102
RTVSPost2010PropOp52
 70
     0
102
RTVSPost2010Prop53
 90
        2
102
RTVSPost2010PropOp53
 70
     1
102
RTVSPost2010Prop54
  1
strokes_ogs.tif
102
RTVSPost2010PropOp54
 70
     1
102
RTVSPost2010Prop55
280
     0
102
RTVSPost2010PropOp55
 70
     1
102
RTVSPost2010Prop56
140
1.0
102
RTVSPost2010PropOp56
 70
     1
102
RTVSPost2010Prop57
140
1.0
102
RTVSPost2010PropOp57
 70
     1
  0
XRECORD
  5
220
102
{ACAD_REACTORS
330
21F
102
}
330
21F
100
AcDbXrecord
280
     1
102
RTVSPost2010Prop28
280
     0
102
RTVSPost2010PropOp28
 70
     1
102
RTVSPost2010Prop29
280
     1
102
RTVSPost2010PropOp29
 70
     1
102
RTVSPost2010Prop30
280
     1
102
RTVSPost2010PropOp30
 70
     1
102
RTVSPost2010Prop31
280
     0
102
RTVSPost2010PropOp31
 70
     1
102
RTVSPost2010Prop32
280
     0
102
RTVSPost2010PropOp32
 70
     1
102
RTVSPost2010Prop33
280
     0
102
RTVSPost2010PropOp33
 70
     1
102
RTVSPost2010Prop34
280
     0
102
RTVSPost2010PropOp34
 70
     1
102
RTVSPost2010Prop35
280
     0
102
RTVSPost2010PropOp35
 70
     1
102
RTVSPost2010Prop36
280
     0
102
RTVSPost2010PropOp36
 70
     1
102
RTVSPost2010Prop37
 90
       50
102
RTVSPost2010PropOp37
 70
     1
102
RTVSPost2010Prop38
140
0.0
102
RTVSPost2010PropOp38
 70
     1
102
RTVSPost2010Prop39
140
1.0
102
RTVSPost2010PropOp39
 70
     1
102
RTVSPost2010Prop40
 90
        0
102
RTVSPost2010PropOp40
 70
     1
102
RTVSPost2010Prop41ColorIndex
 90
       18
102
RTVSPost2010Prop41ColorRGB
 90
        0
102
RTVSPost2010PropOp41
 70
     1
102
RTVSPost2010Prop42
 90
       50
102
RTVSPost2010PropOp42
 70
     1
102
RTVSPost2010Prop43
 90
        3
102
RTVSPost2010PropOp43
 70
     1
102
RTVSPost2010Prop44ColorIndex
 90
        5
102
RTVSPost2010Prop44ColorRGB
 90
      255
102
RTVSPost2010PropOp44
 70
     1
102
RTVSPost2010Prop45
280
     0
102
RTVSPost2010PropOp45
 70
     1
102
RTVSPost2010Prop46
 90
       50
102
RTVSPost2010PropOp46
 70
     1
102
RTVSPost2010Prop47
 90
       50
102
RTVSPost2010PropOp47
 70
     1
102
RTVSPost2010Prop48
 90
       50
102
RTVSPost2010PropOp48
 70
     1
102
RTVSPost2010Prop49
280
     0
102
RTVSPost2010PropOp49
 70
     1
102
RTVSPost2010Prop50
 90
       50
102
RTVSPost2010PropOp50
 70
     1
102
RTVSPost2010Prop51ColorIndex
 90
      256
102
RTVSPost2010Prop51ColorRGB
 90
-16777216
102
RTVSPost2010PropOp51
 70
     0
102
RTVSPost2010Prop52
140
1.0
102
RTVSPost2010PropOp52
 70
     0
102
RTVSPost2010Prop53
 90
        2
102
RTVSPost2010PropOp53
 70
     1
102
RTVSPost2010Prop54
  1
strokes_ogs.tif
102
RTVSPost2010PropOp54
 70
     1
102
RTVSPost2010Prop55
280
     0
102
RTVSPost2010PropOp55
 70
     1
102
RTVSPost2010Prop56
140
1.0
102
RTVSPost2010PropOp56
 70
     1
102
RTVSPost2010Prop57
140
1.0
102
RTVSPost2010PropOp57
 70
     1
  0
XRECORD
  5
214
102
{ACAD_REACTORS
330
213
102
}
330
213
100
AcDbXrecord
280
     1
102
RTVSPost2010Prop28
280
     0
102
RTVSPost2010PropOp28
 70
     1
102
RTVSPost2010Prop29
280
     1
102
RTVSPost2010PropOp29
 70
     1
102
RTVSPost2010Prop30
280
     1
102
RTVSPost2010PropOp30
 70
     1
102
RTVSPost2010Prop31
280
     0
102
RTVSPost2010PropOp31
 70
     1
102
RTVSPost2010Prop32
280
     0
102
RTVSPost2010PropOp32
 70
     1
102
RTVSPost2010Prop33
280
     0
102
RTVSPost2010PropOp33
 70
     1
102
RTVSPost2010Prop34
280
     0
102
RTVSPost2010PropOp34
 70
     1
102
RTVSPost2010Prop35
280
     0
102
RTVSPost2010PropOp35
 70
     1
102
RTVSPost2010Prop36
280
     0
102
RTVSPost2010PropOp36
 70
     1
102
RTVSPost2010Prop37
 90
       50
102
RTVSPost2010PropOp37
 70
     1
102
RTVSPost2010Prop38
140
0.0
102
RTVSPost2010PropOp38
 70
     1
102
RTVSPost2010Prop39
140
1.0
102
RTVSPost2010PropOp39
 70
     1
102
RTVSPost2010Prop40
 90
        0
102
RTVSPost2010PropOp40
 70
     1
102
RTVSPost2010Prop41ColorIndex
 90
       18
102
RTVSPost2010Prop41ColorRGB
 90
        0
102
RTVSPost2010PropOp41
 70
     1
102
RTVSPost2010Prop42
 90
       50
102
RTVSPost2010PropOp42
 70
     1
102
RTVSPost2010Prop43
 90
        3
102
RTVSPost2010PropOp43
 70
     1
102
RTVSPost2010Prop44ColorIndex
 90
        5
102
RTVSPost2010Prop44ColorRGB
 90
      255
102
RTVSPost2010PropOp44
 70
     1
102
RTVSPost2010Prop45
280
     0
102
RTVSPost2010PropOp45
 70
     1
102
RTVSPost2010Prop46
 90
       50
102
RTVSPost2010PropOp46
 70
     1
102
RTVSPost2010Prop47
 90
       50
102
RTVSPost2010PropOp47
 70
     1
102
RTVSPost2010Prop48
 90
       50
102
RTVSPost2010PropOp48
 70
     1
102
RTVSPost2010Prop49
280
     0
102
RTVSPost2010PropOp49
 70
     1
102
RTVSPost2010Prop50
 90
       50
102
RTVSPost2010PropOp50
 70
     1
102
RTVSPost2010Prop51ColorIndex
 90
      256
102
RTVSPost2010Prop51ColorRGB
 90
-16777216
102
RTVSPost2010PropOp51
 70
     0
102
RTVSPost2010Prop52
140
1.0
102
RTVSPost2010PropOp52
 70
     0
102
RTVSPost2010Prop53
 90
        2
102
RTVSPost2010PropOp53
 70
     1
102
RTVSPost2010Prop54
  1
strokes_ogs.tif
102
RTVSPost2010PropOp54
 70
     1
102
RTVSPost2010Prop55
280
     0
102
RTVSPost2010PropOp55
 70
     1
102
RTVSPost2010Prop56
140
1.0
102
RTVSPost2010PropOp56
 70
     1
102
RTVSPost2010Prop57
140
1.0
102
RTVSPost2010PropOp57
 70
     1
  0
XRECORD
  5
216
102
{ACAD_REACTORS
330
215
102
}
330
215
100
AcDbXrecord
280
     1
102
RTVSPost2010Prop28
280
     0
102
RTVSPost2010PropOp28
 70
     1
102
RTVSPost2010Prop29
280
     1
102
RTVSPost2010PropOp29
 70
     1
102
RTVSPost2010Prop30
280
     1
102
RTVSPost2010PropOp30
 70
     1
102
RTVSPost2010Prop31
280
     0
102
RTVSPost2010PropOp31
 70
     1
102
RTVSPost2010Prop32
280
     0
102
RTVSPost2010PropOp32
 70
     1
102
RTVSPost2010Prop33
280
     0
102
RTVSPost2010PropOp33
 70
     1
102
RTVSPost2010Prop34
280
     0
102
RTVSPost2010PropOp34
 70
     1
102
RTVSPost2010Prop35
280
     0
102
RTVSPost2010PropOp35
 70
     1
102
RTVSPost2010Prop36
280
     0
102
RTVSPost2010PropOp36
 70
     1
102
RTVSPost2010Prop37
 90
       50
102
RTVSPost2010PropOp37
 70
     1
102
RTVSPost2010Prop38
140
0.0
102
RTVSPost2010PropOp38
 70
     1
102
RTVSPost2010Prop39
140
1.0
102
RTVSPost2010PropOp39
 70
     1
102
RTVSPost2010Prop40
 90
        0
102
RTVSPost2010PropOp40
 70
     1
102
RTVSPost2010Prop41ColorIndex
 90
       18
102
RTVSPost2010Prop41ColorRGB
 90
        0
102
RTVSPost2010PropOp41
 70
     1
102
RTVSPost2010Prop42
 90
       50
102
RTVSPost2010PropOp42
 70
     1
102
RTVSPost2010Prop43
 90
        3
102
RTVSPost2010PropOp43
 70
     1
102
RTVSPost2010Prop44ColorIndex
 90
        5
102
RTVSPost2010Prop44ColorRGB
 90
      255
102
RTVSPost2010PropOp44
 70
     1
102
RTVSPost2010Prop45
280
     0
102
RTVSPost2010PropOp45
 70
     1
102
RTVSPost2010Prop46
 90
       50
102
RTVSPost2010PropOp46
 70
     1
102
RTVSPost2010Prop47
 90
       50
102
RTVSPost2010PropOp47
 70
     1
102
RTVSPost2010Prop48
 90
       50
102
RTVSPost2010PropOp48
 70
     1
102
RTVSPost2010Prop49
280
     0
102
RTVSPost2010PropOp49
 70
     1
102
RTVSPost2010Prop50
 90
       50
102
RTVSPost2010PropOp50
 70
     1
102
RTVSPost2010Prop51ColorIndex
 90
      256
102
RTVSPost2010Prop51ColorRGB
 90
-16777216
102
RTVSPost2010PropOp51
 70
     0
102
RTVSPost2010Prop52
140
1.0
102
RTVSPost2010PropOp52
 70
     0
102
RTVSPost2010Prop53
 90
        2
102
RTVSPost2010PropOp53
 70
     1
102
RTVSPost2010Prop54
  1
strokes_ogs.tif
102
RTVSPost2010PropOp54
 70
     1
102
RTVSPost2010Prop55
280
     0
102
RTVSPost2010PropOp55
 70
     1
102
RTVSPost2010Prop56
140
1.0
102
RTVSPost2010PropOp56
 70
     1
102
RTVSPost2010Prop57
140
1.0
102
RTVSPost2010PropOp57
 70
     1
  0
XRECORD
  5
226
102
{ACAD_REACTORS
330
225
102
}
330
225
100
AcDbXrecord
280
     1
102
RTVSPost2010Prop28
280
     0
102
RTVSPost2010PropOp28
 70
     0
102
RTVSPost2010Prop29
280
     1
102
RTVSPost2010PropOp29
 70
     0
102
RTVSPost2010Prop30
280
     1
102
RTVSPost2010PropOp30
 70
     0
102
RTVSPost2010Prop31
280
     0
102
RTVSPost2010PropOp31
 70
     0
102
RTVSPost2010Prop32
280
     0
102
RTVSPost2010PropOp32
 70
     0
102
RTVSPost2010Prop33
280
     0
102
RTVSPost2010PropOp33
 70
     0
102
RTVSPost2010Prop34
280
     0
102
RTVSPost2010PropOp34
 70
     0
102
RTVSPost2010Prop35
280
     0
102
RTVSPost2010PropOp35
 70
     0
102
RTVSPost2010Prop36
280
     0
102
RTVSPost2010PropOp36
 70
     0
102
RTVSPost2010Prop37
 90
       50
102
RTVSPost2010PropOp37
 70
     0
102
RTVSPost2010Prop38
140
0.0
102
RTVSPost2010PropOp38
 70
     0
102
RTVSPost2010Prop39
140
1.0
102
RTVSPost2010PropOp39
 70
     0
102
RTVSPost2010Prop40
 90
        0
102
RTVSPost2010PropOp40
 70
     0
102
RTVSPost2010Prop41ColorIndex
 90
       18
102
RTVSPost2010Prop41ColorRGB
 90
        0
102
RTVSPost2010PropOp41
 70
     0
102
RTVSPost2010Prop42
 90
       50
102
RTVSPost2010PropOp42
 70
     0
102
RTVSPost2010Prop43
 90
        3
102
RTVSPost2010PropOp43
 70
     0
102
RTVSPost2010Prop44ColorIndex
 90
        5
102
RTVSPost2010Prop44ColorRGB
 90
      255
102
RTVSPost2010PropOp44
 70
     0
102
RTVSPost2010Prop45
280
     0
102
RTVSPost2010PropOp45
 70
     0
102
RTVSPost2010Prop46
 90
       50
102
RTVSPost2010PropOp46
 70
     0
102
RTVSPost2010Prop47
 90
       50
102
RTVSPost2010PropOp47
 70
     0
102
RTVSPost2010Prop48
 90
       50
102
RTVSPost2010PropOp48
 70
     0
102
RTVSPost2010Prop49
280
     0
102
RTVSPost2010PropOp49
 70
     0
102
RTVSPost2010Prop50
 90
       50
102
RTVSPost2010PropOp50
 70
     0
102
RTVSPost2010Prop51ColorIndex
 90
      256
102
RTVSPost2010Prop51ColorRGB
 90
-16777216
102
RTVSPost2010PropOp51
 70
     0
102
RTVSPost2010Prop52
140
1.0
102
RTVSPost2010PropOp52
 70
     0
102
RTVSPost2010Prop53
 90
        2
102
RTVSPost2010PropOp53
 70
     0
102
RTVSPost2010Prop54
  1
strokes_ogs.tif
102
RTVSPost2010PropOp54
 70
     0
102
RTVSPost2010Prop55
280
     0
102
RTVSPost2010PropOp55
 70
     0
102
RTVSPost2010Prop56
140
1.0
102
RTVSPost2010PropOp56
 70
     0
102
RTVSPost2010Prop57
140
1.0
102
RTVSPost2010PropOp57
 70
     0
  0
XRECORD
  5
21E
102
{ACAD_REACTORS
330
21D
102
}
330
21D
100
AcDbXrecord
280
     1
102
RTVSPost2010Prop28
280
     0
102
RTVSPost2010PropOp28
 70
     1
102
RTVSPost2010Prop29
280
     1
102
RTVSPost2010PropOp29
 70
     1
102
RTVSPost2010Prop30
280
     1
102
RTVSPost2010PropOp30
 70
     1
102
RTVSPost2010Prop31
280
     0
102
RTVSPost2010PropOp31
 70
     1
102
RTVSPost2010Prop32
280
     0
102
RTVSPost2010PropOp32
 70
     1
102
RTVSPost2010Prop33
280
     0
102
RTVSPost2010PropOp33
 70
     1
102
RTVSPost2010Prop34
280
     0
102
RTVSPost2010PropOp34
 70
     1
102
RTVSPost2010Prop35
280
     0
102
RTVSPost2010PropOp35
 70
     1
102
RTVSPost2010Prop36
280
     0
102
RTVSPost2010PropOp36
 70
     1
102
RTVSPost2010Prop37
 90
       50
102
RTVSPost2010PropOp37
 70
     1
102
RTVSPost2010Prop38
140
0.0
102
RTVSPost2010PropOp38
 70
     1
102
RTVSPost2010Prop39
140
1.0
102
RTVSPost2010PropOp39
 70
     1
102
RTVSPost2010Prop40
 90
        0
102
RTVSPost2010PropOp40
 70
     1
102
RTVSPost2010Prop41ColorIndex
 90
       18
102
RTVSPost2010Prop41ColorRGB
 90
        0
102
RTVSPost2010PropOp41
 70
     1
102
RTVSPost2010Prop42
 90
       50
102
RTVSPost2010PropOp42
 70
     1
102
RTVSPost2010Prop43
 90
        3
102
RTVSPost2010PropOp43
 70
     1
102
RTVSPost2010Prop44ColorIndex
 90
        5
102
RTVSPost2010Prop44ColorRGB
 90
      255
102
RTVSPost2010PropOp44
 70
     1
102
RTVSPost2010Prop45
280
     0
102
RTVSPost2010PropOp45
 70
     1
102
RTVSPost2010Prop46
 90
       50
102
RTVSPost2010PropOp46
 70
     1
102
RTVSPost2010Prop47
 90
       50
102
RTVSPost2010PropOp47
 70
     1
102
RTVSPost2010Prop48
 90
       50
102
RTVSPost2010PropOp48
 70
     1
102
RTVSPost2010Prop49
280
     0
102
RTVSPost2010PropOp49
 70
     1
102
RTVSPost2010Prop50
 90
       50
102
RTVSPost2010PropOp50
 70
     1
102
RTVSPost2010Prop51ColorIndex
 90
      256
102
RTVSPost2010Prop51ColorRGB
 90
-16777216
102
RTVSPost2010PropOp51
 70
     0
102
RTVSPost2010Prop52
140
1.0
102
RTVSPost2010PropOp52
 70
     0
102
RTVSPost2010Prop53
 90
        2
102
RTVSPost2010PropOp53
 70
     1
102
RTVSPost2010Prop54
  1
strokes_ogs.tif
102
RTVSPost2010PropOp54
 70
     1
102
RTVSPost2010Prop55
280
     0
102
RTVSPost2010PropOp55
 70
     1
102
RTVSPost2010Prop56
140
1.0
102
RTVSPost2010PropOp56
 70
     1
102
RTVSPost2010Prop57
140
1.0
102
RTVSPost2010PropOp57
 70
     1
  0
XRECORD
  5
202
102
{ACAD_REACTORS
330
201
102
}
330
201
100
AcDbXrecord
280
     1
102
RTVSPost2010Prop28
280
     0
102
RTVSPost2010PropOp28
 70
     1
102
RTVSPost2010Prop29
280
     1
102
RTVSPost2010PropOp29
 70
     1
102
RTVSPost2010Prop30
280
     1
102
RTVSPost2010PropOp30
 70
     1
102
RTVSPost2010Prop31
280
     0
102
RTVSPost2010PropOp31
 70
     1
102
RTVSPost2010Prop32
280
     0
102
RTVSPost2010PropOp32
 70
     1
102
RTVSPost2010Prop33
280
     0
102
RTVSPost2010PropOp33
 70
     1
102
RTVSPost2010Prop34
280
     0
102
RTVSPost2010PropOp34
 70
     1
102
RTVSPost2010Prop35
280
     0
102
RTVSPost2010PropOp35
 70
     1
102
RTVSPost2010Prop36
280
     0
102
RTVSPost2010PropOp36
 70
     1
102
RTVSPost2010Prop37
 90
       50
102
RTVSPost2010PropOp37
 70
     1
102
RTVSPost2010Prop38
140
0.0
102
RTVSPost2010PropOp38
 70
     1
102
RTVSPost2010Prop39
140
1.0
102
RTVSPost2010PropOp39
 70
     1
102
RTVSPost2010Prop40
 90
        0
102
RTVSPost2010PropOp40
 70
     1
102
RTVSPost2010Prop41ColorIndex
 90
       18
102
RTVSPost2010Prop41ColorRGB
 90
        0
102
RTVSPost2010PropOp41
 70
     1
102
RTVSPost2010Prop42
 90
       50
102
RTVSPost2010PropOp42
 70
     1
102
RTVSPost2010Prop43
 90
        3
102
RTVSPost2010PropOp43
 70
     1
102
RTVSPost2010Prop44ColorIndex
 90
        5
102
RTVSPost2010Prop44ColorRGB
 90
      255
102
RTVSPost2010PropOp44
 70
     1
102
RTVSPost2010Prop45
280
     0
102
RTVSPost2010PropOp45
 70
     1
102
RTVSPost2010Prop46
 90
       50
102
RTVSPost2010PropOp46
 70
     1
102
RTVSPost2010Prop47
 90
       50
102
RTVSPost2010PropOp47
 70
     1
102
RTVSPost2010Prop48
 90
       50
102
RTVSPost2010PropOp48
 70
     1
102
RTVSPost2010Prop49
280
     0
102
RTVSPost2010PropOp49
 70
     1
102
RTVSPost2010Prop50
 90
       50
102
RTVSPost2010PropOp50
 70
     1
102
RTVSPost2010Prop51ColorIndex
 90
      256
102
RTVSPost2010Prop51ColorRGB
 90
-16777216
102
RTVSPost2010PropOp51
 70
     0
102
RTVSPost2010Prop52
140
1.0
102
RTVSPost2010PropOp52
 70
     0
102
RTVSPost2010Prop53
 90
        2
102
RTVSPost2010PropOp53
 70
     1
102
RTVSPost2010Prop54
  1
strokes_ogs.tif
102
RTVSPost2010PropOp54
 70
     1
102
RTVSPost2010Prop55
280
     0
102
RTVSPost2010PropOp55
 70
     1
102
RTVSPost2010Prop56
140
1.0
102
RTVSPost2010PropOp56
 70
     1
102
RTVSPost2010Prop57
140
1.0
102
RTVSPost2010PropOp57
 70
     1
  0
XRECORD
  5
204
102
{ACAD_REACTORS
330
203
102
}
330
203
100
AcDbXrecord
280
     1
102
RTVSPost2010Prop28
280
     0
102
RTVSPost2010PropOp28
 70
     1
102
RTVSPost2010Prop29
280
     1
102
RTVSPost2010PropOp29
 70
     1
102
RTVSPost2010Prop30
280
     1
102
RTVSPost2010PropOp30
 70
     1
102
RTVSPost2010Prop31
280
     0
102
RTVSPost2010PropOp31
 70
     1
102
RTVSPost2010Prop32
280
     0
102
RTVSPost2010PropOp32
 70
     1
102
RTVSPost2010Prop33
280
     0
102
RTVSPost2010PropOp33
 70
     1
102
RTVSPost2010Prop34
280
     0
102
RTVSPost2010PropOp34
 70
     1
102
RTVSPost2010Prop35
280
     0
102
RTVSPost2010PropOp35
 70
     1
102
RTVSPost2010Prop36
280
     0
102
RTVSPost2010PropOp36
 70
     1
102
RTVSPost2010Prop37
 90
       50
102
RTVSPost2010PropOp37
 70
     1
102
RTVSPost2010Prop38
140
0.0
102
RTVSPost2010PropOp38
 70
     1
102
RTVSPost2010Prop39
140
1.0
102
RTVSPost2010PropOp39
 70
     1
102
RTVSPost2010Prop40
 90
        0
102
RTVSPost2010PropOp40
 70
     1
102
RTVSPost2010Prop41ColorIndex
 90
       18
102
RTVSPost2010Prop41ColorRGB
 90
        0
102
RTVSPost2010PropOp41
 70
     1
102
RTVSPost2010Prop42
 90
       50
102
RTVSPost2010PropOp42
 70
     1
102
RTVSPost2010Prop43
 90
        3
102
RTVSPost2010PropOp43
 70
     1
102
RTVSPost2010Prop44ColorIndex
 90
        5
102
RTVSPost2010Prop44ColorRGB
 90
      255
102
RTVSPost2010PropOp44
 70
     1
102
RTVSPost2010Prop45
280
     0
102
RTVSPost2010PropOp45
 70
     1
102
RTVSPost2010Prop46
 90
       50
102
RTVSPost2010PropOp46
 70
     1
102
RTVSPost2010Prop47
 90
       50
102
RTVSPost2010PropOp47
 70
     1
102
RTVSPost2010Prop48
 90
       50
102
RTVSPost2010PropOp48
 70
     1
102
RTVSPost2010Prop49
280
     0
102
RTVSPost2010PropOp49
 70
     1
102
RTVSPost2010Prop50
 90
       50
102
RTVSPost2010PropOp50
 70
     1
102
RTVSPost2010Prop51ColorIndex
 90
      256
102
RTVSPost2010Prop51ColorRGB
 90
-16777216
102
RTVSPost2010PropOp51
 70
     0
102
RTVSPost2010Prop52
140
1.0
102
RTVSPost2010PropOp52
 70
     0
102
RTVSPost2010Prop53
 90
        2
102
RTVSPost2010PropOp53
 70
     1
102
RTVSPost2010Prop54
  1
strokes_ogs.tif
102
RTVSPost2010PropOp54
 70
     1
102
RTVSPost2010Prop55
280
     0
102
RTVSPost2010PropOp55
 70
     1
102
RTVSPost2010Prop56
140
1.0
102
RTVSPost2010PropOp56
 70
     1
102
RTVSPost2010Prop57
140
1.0
102
RTVSPost2010PropOp57
 70
     1
  0
XRECORD
  5
206
102
{ACAD_REACTORS
330
205
102
}
330
205
100
AcDbXrecord
280
     1
102
RTVSPost2010Prop28
280
     0
102
RTVSPost2010PropOp28
 70
     1
102
RTVSPost2010Prop29
280
     1
102
RTVSPost2010PropOp29
 70
     1
102
RTVSPost2010Prop30
280
     1
102
RTVSPost2010PropOp30
 70
     1
102
RTVSPost2010Prop31
280
     0
102
RTVSPost2010PropOp31
 70
     1
102
RTVSPost2010Prop32
280
     0
102
RTVSPost2010PropOp32
 70
     1
102
RTVSPost2010Prop33
280
     0
102
RTVSPost2010PropOp33
 70
     1
102
RTVSPost2010Prop34
280
     0
102
RTVSPost2010PropOp34
 70
     1
102
RTVSPost2010Prop35
280
     0
102
RTVSPost2010PropOp35
 70
     1
102
RTVSPost2010Prop36
280
     0
102
RTVSPost2010PropOp36
 70
     1
102
RTVSPost2010Prop37
 90
       50
102
RTVSPost2010PropOp37
 70
     1
102
RTVSPost2010Prop38
140
0.0
102
RTVSPost2010PropOp38
 70
     1
102
RTVSPost2010Prop39
140
1.0
102
RTVSPost2010PropOp39
 70
     1
102
RTVSPost2010Prop40
 90
        0
102
RTVSPost2010PropOp40
 70
     1
102
RTVSPost2010Prop41ColorIndex
 90
       18
102
RTVSPost2010Prop41ColorRGB
 90
        0
102
RTVSPost2010PropOp41
 70
     1
102
RTVSPost2010Prop42
 90
       50
102
RTVSPost2010PropOp42
 70
     1
102
RTVSPost2010Prop43
 90
        3
102
RTVSPost2010PropOp43
 70
     1
102
RTVSPost2010Prop44ColorIndex
 90
        5
102
RTVSPost2010Prop44ColorRGB
 90
      255
102
RTVSPost2010PropOp44
 70
     1
102
RTVSPost2010Prop45
280
     0
102
RTVSPost2010PropOp45
 70
     1
102
RTVSPost2010Prop46
 90
       50
102
RTVSPost2010PropOp46
 70
     1
102
RTVSPost2010Prop47
 90
       50
102
RTVSPost2010PropOp47
 70
     1
102
RTVSPost2010Prop48
 90
       50
102
RTVSPost2010PropOp48
 70
     1
102
RTVSPost2010Prop49
280
     0
102
RTVSPost2010PropOp49
 70
     1
102
RTVSPost2010Prop50
 90
       50
102
RTVSPost2010PropOp50
 70
     1
102
RTVSPost2010Prop51ColorIndex
 90
      256
102
RTVSPost2010Prop51ColorRGB
 90
-16777216
102
RTVSPost2010PropOp51
 70
     0
102
RTVSPost2010Prop52
140
1.0
102
RTVSPost2010PropOp52
 70
     0
102
RTVSPost2010Prop53
 90
        2
102
RTVSPost2010PropOp53
 70
     1
102
RTVSPost2010Prop54
  1
strokes_ogs.tif
102
RTVSPost2010PropOp54
 70
     1
102
RTVSPost2010Prop55
280
     0
102
RTVSPost2010PropOp55
 70
     1
102
RTVSPost2010Prop56
140
1.0
102
RTVSPost2010PropOp56
 70
     1
102
RTVSPost2010Prop57
140
1.0
102
RTVSPost2010PropOp57
 70
     1
  0
XRECORD
  5
208
102
{ACAD_REACTORS
330
207
102
}
330
207
100
AcDbXrecord
280
     1
102
RTVSPost2010Prop28
280
     0
102
RTVSPost2010PropOp28
 70
     1
102
RTVSPost2010Prop29
280
     1
102
RTVSPost2010PropOp29
 70
     1
102
RTVSPost2010Prop30
280
     1
102
RTVSPost2010PropOp30
 70
     1
102
RTVSPost2010Prop31
280
     0
102
RTVSPost2010PropOp31
 70
     1
102
RTVSPost2010Prop32
280
     0
102
RTVSPost2010PropOp32
 70
     1
102
RTVSPost2010Prop33
280
     0
102
RTVSPost2010PropOp33
 70
     1
102
RTVSPost2010Prop34
280
     0
102
RTVSPost2010PropOp34
 70
     1
102
RTVSPost2010Prop35
280
     0
102
RTVSPost2010PropOp35
 70
     1
102
RTVSPost2010Prop36
280
     0
102
RTVSPost2010PropOp36
 70
     1
102
RTVSPost2010Prop37
 90
       50
102
RTVSPost2010PropOp37
 70
     1
102
RTVSPost2010Prop38
140
0.0
102
RTVSPost2010PropOp38
 70
     1
102
RTVSPost2010Prop39
140
1.0
102
RTVSPost2010PropOp39
 70
     1
102
RTVSPost2010Prop40
 90
        0
102
RTVSPost2010PropOp40
 70
     1
102
RTVSPost2010Prop41ColorIndex
 90
       18
102
RTVSPost2010Prop41ColorRGB
 90
        0
102
RTVSPost2010PropOp41
 70
     1
102
RTVSPost2010Prop42
 90
       50
102
RTVSPost2010PropOp42
 70
     1
102
RTVSPost2010Prop43
 90
        3
102
RTVSPost2010PropOp43
 70
     1
102
RTVSPost2010Prop44ColorIndex
 90
        5
102
RTVSPost2010Prop44ColorRGB
 90
      255
102
RTVSPost2010PropOp44
 70
     1
102
RTVSPost2010Prop45
280
     0
102
RTVSPost2010PropOp45
 70
     1
102
RTVSPost2010Prop46
 90
       50
102
RTVSPost2010PropOp46
 70
     1
102
RTVSPost2010Prop47
 90
       50
102
RTVSPost2010PropOp47
 70
     1
102
RTVSPost2010Prop48
 90
       50
102
RTVSPost2010PropOp48
 70
     1
102
RTVSPost2010Prop49
280
     0
102
RTVSPost2010PropOp49
 70
     1
102
RTVSPost2010Prop50
 90
       50
102
RTVSPost2010PropOp50
 70
     1
102
RTVSPost2010Prop51ColorIndex
 90
      256
102
RTVSPost2010Prop51ColorRGB
 90
-16777216
102
RTVSPost2010PropOp51
 70
     0
102
RTVSPost2010Prop52
140
1.0
102
RTVSPost2010PropOp52
 70
     0
102
RTVSPost2010Prop53
 90
        2
102
RTVSPost2010PropOp53
 70
     1
102
RTVSPost2010Prop54
  1
strokes_ogs.tif
102
RTVSPost2010PropOp54
 70
     1
102
RTVSPost2010Prop55
280
     0
102
RTVSPost2010PropOp55
 70
     1
102
RTVSPost2010Prop56
140
1.0
102
RTVSPost2010PropOp56
 70
     1
102
RTVSPost2010Prop57
140
1.0
102
RTVSPost2010PropOp57
 70
     1
  0
XRECORD
  5
20E
102
{ACAD_REACTORS
330
20D
102
}
330
20D
100
AcDbXrecord
280
     1
102
RTVSPost2010Prop28
280
     0
102
RTVSPost2010PropOp28
 70
     1
102
RTVSPost2010Prop29
280
     1
102
RTVSPost2010PropOp29
 70
     1
102
RTVSPost2010Prop30
280
     1
102
RTVSPost2010PropOp30
 70
     1
102
RTVSPost2010Prop31
280
     0
102
RTVSPost2010PropOp31
 70
     1
102
RTVSPost2010Prop32
280
     0
102
RTVSPost2010PropOp32
 70
     1
102
RTVSPost2010Prop33
280
     0
102
RTVSPost2010PropOp33
 70
     1
102
RTVSPost2010Prop34
280
     0
102
RTVSPost2010PropOp34
 70
     1
102
RTVSPost2010Prop35
280
     0
102
RTVSPost2010PropOp35
 70
     1
102
RTVSPost2010Prop36
280
     0
102
RTVSPost2010PropOp36
 70
     1
102
RTVSPost2010Prop37
 90
       50
102
RTVSPost2010PropOp37
 70
     1
102
RTVSPost2010Prop38
140
0.0
102
RTVSPost2010PropOp38
 70
     1
102
RTVSPost2010Prop39
140
1.0
102
RTVSPost2010PropOp39
 70
     1
102
RTVSPost2010Prop40
 90
        0
102
RTVSPost2010PropOp40
 70
     1
102
RTVSPost2010Prop41ColorIndex
 90
       18
102
RTVSPost2010Prop41ColorRGB
 90
        0
102
RTVSPost2010PropOp41
 70
     1
102
RTVSPost2010Prop42
 90
       50
102
RTVSPost2010PropOp42
 70
     1
102
RTVSPost2010Prop43
 90
        3
102
RTVSPost2010PropOp43
 70
     1
102
RTVSPost2010Prop44ColorIndex
 90
        5
102
RTVSPost2010Prop44ColorRGB
 90
      255
102
RTVSPost2010PropOp44
 70
     1
102
RTVSPost2010Prop45
280
     0
102
RTVSPost2010PropOp45
 70
     1
102
RTVSPost2010Prop46
 90
       50
102
RTVSPost2010PropOp46
 70
     1
102
RTVSPost2010Prop47
 90
       50
102
RTVSPost2010PropOp47
 70
     1
102
RTVSPost2010Prop48
 90
       50
102
RTVSPost2010PropOp48
 70
     1
102
RTVSPost2010Prop49
280
     0
102
RTVSPost2010PropOp49
 70
     1
102
RTVSPost2010Prop50
 90
       50
102
RTVSPost2010PropOp50
 70
     1
102
RTVSPost2010Prop51ColorIndex
 90
      256
102
RTVSPost2010Prop51ColorRGB
 90
-16777216
102
RTVSPost2010PropOp51
 70
     0
102
RTVSPost2010Prop52
140
1.0
102
RTVSPost2010PropOp52
 70
     0
102
RTVSPost2010Prop53
 90
        2
102
RTVSPost2010PropOp53
 70
     1
102
RTVSPost2010Prop54
  1
strokes_ogs.tif
102
RTVSPost2010PropOp54
 70
     1
102
RTVSPost2010Prop55
280
     0
102
RTVSPost2010PropOp55
 70
     1
102
RTVSPost2010Prop56
140
1.0
102
RTVSPost2010PropOp56
 70
     1
102
RTVSPost2010Prop57
140
1.0
102
RTVSPost2010PropOp57
 70
     1
  0
XRECORD
  5
222
102
{ACAD_REACTORS
330
221
102
}
330
221
100
AcDbXrecord
280
     1
102
RTVSPost2010Prop28
280
     0
102
RTVSPost2010PropOp28
 70
     0
102
RTVSPost2010Prop29
280
     1
102
RTVSPost2010PropOp29
 70
     0
102
RTVSPost2010Prop30
280
     1
102
RTVSPost2010PropOp30
 70
     0
102
RTVSPost2010Prop31
280
     0
102
RTVSPost2010PropOp31
 70
     0
102
RTVSPost2010Prop32
280
     0
102
RTVSPost2010PropOp32
 70
     0
102
RTVSPost2010Prop33
280
     0
102
RTVSPost2010PropOp33
 70
     0
102
RTVSPost2010Prop34
280
     0
102
RTVSPost2010PropOp34
 70
     0
102
RTVSPost2010Prop35
280
     0
102
RTVSPost2010PropOp35
 70
     0
102
RTVSPost2010Prop36
280
     0
102
RTVSPost2010PropOp36
 70
     0
102
RTVSPost2010Prop37
 90
       50
102
RTVSPost2010PropOp37
 70
     0
102
RTVSPost2010Prop38
140
0.0
102
RTVSPost2010PropOp38
 70
     0
102
RTVSPost2010Prop39
140
1.0
102
RTVSPost2010PropOp39
 70
     0
102
RTVSPost2010Prop40
 90
        0
102
RTVSPost2010PropOp40
 70
     0
102
RTVSPost2010Prop41ColorIndex
 90
       18
102
RTVSPost2010Prop41ColorRGB
 90
        0
102
RTVSPost2010PropOp41
 70
     0
102
RTVSPost2010Prop42
 90
       50
102
RTVSPost2010PropOp42
 70
     0
102
RTVSPost2010Prop43
 90
        3
102
RTVSPost2010PropOp43
 70
     0
102
RTVSPost2010Prop44ColorIndex
 90
        5
102
RTVSPost2010Prop44ColorRGB
 90
      255
102
RTVSPost2010PropOp44
 70
     0
102
RTVSPost2010Prop45
280
     0
102
RTVSPost2010PropOp45
 70
     0
102
RTVSPost2010Prop46
 90
       50
102
RTVSPost2010PropOp46
 70
     0
102
RTVSPost2010Prop47
 90
       50
102
RTVSPost2010PropOp47
 70
     0
102
RTVSPost2010Prop48
 90
       50
102
RTVSPost2010PropOp48
 70
     0
102
RTVSPost2010Prop49
280
     0
102
RTVSPost2010PropOp49
 70
     0
102
RTVSPost2010Prop50
 90
       50
102
RTVSPost2010PropOp50
 70
     0
102
RTVSPost2010Prop51ColorIndex
 90
      256
102
RTVSPost2010Prop51ColorRGB
 90
-16777216
102
RTVSPost2010PropOp51
 70
     0
102
RTVSPost2010Prop52
140
1.0
102
RTVSPost2010PropOp52
 70
     0
102
RTVSPost2010Prop53
 90
        2
102
RTVSPost2010PropOp53
 70
     0
102
RTVSPost2010Prop54
  1
strokes_ogs.tif
102
RTVSPost2010PropOp54
 70
     0
102
RTVSPost2010Prop55
280
     0
102
RTVSPost2010PropOp55
 70
     0
102
RTVSPost2010Prop56
140
1.0
102
RTVSPost2010PropOp56
 70
     0
102
RTVSPost2010Prop57
140
1.0
102
RTVSPost2010PropOp57
 70
     0
  0
XRECORD
  5
21C
102
{ACAD_REACTORS
330
21B
102
}
330
21B
100
AcDbXrecord
280
     1
102
RTVSPost2010Prop28
280
     0
102
RTVSPost2010PropOp28
 70
     1
102
RTVSPost2010Prop29
280
     1
102
RTVSPost2010PropOp29
 70
     1
102
RTVSPost2010Prop30
280
     1
102
RTVSPost2010PropOp30
 70
     1
102
RTVSPost2010Prop31
280
     0
102
RTVSPost2010PropOp31
 70
     1
102
RTVSPost2010Prop32
280
     0
102
RTVSPost2010PropOp32
 70
     1
102
RTVSPost2010Prop33
280
     0
102
RTVSPost2010PropOp33
 70
     1
102
RTVSPost2010Prop34
280
     0
102
RTVSPost2010PropOp34
 70
     1
102
RTVSPost2010Prop35
280
     0
102
RTVSPost2010PropOp35
 70
     1
102
RTVSPost2010Prop36
280
     0
102
RTVSPost2010PropOp36
 70
     1
102
RTVSPost2010Prop37
 90
       50
102
RTVSPost2010PropOp37
 70
     1
102
RTVSPost2010Prop38
140
0.0
102
RTVSPost2010PropOp38
 70
     1
102
RTVSPost2010Prop39
140
1.0
102
RTVSPost2010PropOp39
 70
     1
102
RTVSPost2010Prop40
 90
        0
102
RTVSPost2010PropOp40
 70
     1
102
RTVSPost2010Prop41ColorIndex
 90
       18
102
RTVSPost2010Prop41ColorRGB
 90
        0
102
RTVSPost2010PropOp41
 70
     1
102
RTVSPost2010Prop42
 90
       50
102
RTVSPost2010PropOp42
 70
     1
102
RTVSPost2010Prop43
 90
        3
102
RTVSPost2010PropOp43
 70
     1
102
RTVSPost2010Prop44ColorIndex
 90
        5
102
RTVSPost2010Prop44ColorRGB
 90
      255
102
RTVSPost2010PropOp44
 70
     1
102
RTVSPost2010Prop45
280
     0
102
RTVSPost2010PropOp45
 70
     1
102
RTVSPost2010Prop46
 90
       50
102
RTVSPost2010PropOp46
 70
     1
102
RTVSPost2010Prop47
 90
       50
102
RTVSPost2010PropOp47
 70
     1
102
RTVSPost2010Prop48
 90
       50
102
RTVSPost2010PropOp48
 70
     1
102
RTVSPost2010Prop49
280
     0
102
RTVSPost2010PropOp49
 70
     1
102
RTVSPost2010Prop50
 90
       50
102
RTVSPost2010PropOp50
 70
     1
102
RTVSPost2010Prop51ColorIndex
 90
      256
102
RTVSPost2010Prop51ColorRGB
 90
-16777216
102
RTVSPost2010PropOp51
 70
     0
102
RTVSPost2010Prop52
140
1.0
102
RTVSPost2010PropOp52
 70
     0
102
RTVSPost2010Prop53
 90
        2
102
RTVSPost2010PropOp53
 70
     1
102
RTVSPost2010Prop54
  1
strokes_ogs.tif
102
RTVSPost2010PropOp54
 70
     1
102
RTVSPost2010Prop55
280
     0
102
RTVSPost2010PropOp55
 70
     1
102
RTVSPost2010Prop56
140
1.0
102
RTVSPost2010PropOp56
 70
     1
102
RTVSPost2010Prop57
140
1.0
102
RTVSPost2010PropOp57
 70
     1
  0
XRECORD
  5
224
102
{ACAD_REACTORS
330
223
102
}
330
223
100
AcDbXrecord
280
     1
102
RTVSPost2010Prop28
280
     0
102
RTVSPost2010PropOp28
 70
     0
102
RTVSPost2010Prop29
280
     1
102
RTVSPost2010PropOp29
 70
     0
102
RTVSPost2010Prop30
280
     1
102
RTVSPost2010PropOp30
 70
     0
102
RTVSPost2010Prop31
280
     0
102
RTVSPost2010PropOp31
 70
     0
102
RTVSPost2010Prop32
280
     0
102
RTVSPost2010PropOp32
 70
     0
102
RTVSPost2010Prop33
280
     0
102
RTVSPost2010PropOp33
 70
     0
102
RTVSPost2010Prop34
280
     0
102
RTVSPost2010PropOp34
 70
     0
102
RTVSPost2010Prop35
280
     0
102
RTVSPost2010PropOp35
 70
     0
102
RTVSPost2010Prop36
280
     0
102
RTVSPost2010PropOp36
 70
     0
102
RTVSPost2010Prop37
 90
       50
102
RTVSPost2010PropOp37
 70
     0
102
RTVSPost2010Prop38
140
0.0
102
RTVSPost2010PropOp38
 70
     0
102
RTVSPost2010Prop39
140
1.0
102
RTVSPost2010PropOp39
 70
     0
102
RTVSPost2010Prop40
 90
        0
102
RTVSPost2010PropOp40
 70
     0
102
RTVSPost2010Prop41ColorIndex
 90
       18
102
RTVSPost2010Prop41ColorRGB
 90
        0
102
RTVSPost2010PropOp41
 70
     0
102
RTVSPost2010Prop42
 90
       50
102
RTVSPost2010PropOp42
 70
     0
102
RTVSPost2010Prop43
 90
        3
102
RTVSPost2010PropOp43
 70
     0
102
RTVSPost2010Prop44ColorIndex
 90
        5
102
RTVSPost2010Prop44ColorRGB
 90
      255
102
RTVSPost2010PropOp44
 70
     0
102
RTVSPost2010Prop45
280
     0
102
RTVSPost2010PropOp45
 70
     0
102
RTVSPost2010Prop46
 90
       50
102
RTVSPost2010PropOp46
 70
     0
102
RTVSPost2010Prop47
 90
       50
102
RTVSPost2010PropOp47
 70
     0
102
RTVSPost2010Prop48
 90
       50
102
RTVSPost2010PropOp48
 70
     0
102
RTVSPost2010Prop49
280
     0
102
RTVSPost2010PropOp49
 70
     0
102
RTVSPost2010Prop50
 90
       50
102
RTVSPost2010PropOp50
 70
     0
102
RTVSPost2010Prop51ColorIndex
 90
      256
102
RTVSPost2010Prop51ColorRGB
 90
-16777216
102
RTVSPost2010PropOp51
 70
     0
102
RTVSPost2010Prop52
140
1.0
102
RTVSPost2010PropOp52
 70
     0
102
RTVSPost2010Prop53
 90
        2
102
RTVSPost2010PropOp53
 70
     0
102
RTVSPost2010Prop54
  1
strokes_ogs.tif
102
RTVSPost2010PropOp54
 70
     0
102
RTVSPost2010Prop55
280
     0
102
RTVSPost2010PropOp55
 70
     0
102
RTVSPost2010Prop56
140
1.0
102
RTVSPost2010PropOp56
 70
     0
102
RTVSPost2010Prop57
140
1.0
102
RTVSPost2010PropOp57
 70
     0
  0
XRECORD
  5
212
102
{ACAD_REACTORS
330
211
102
}
330
211
100
AcDbXrecord
280
     1
102
RTVSPost2010Prop28
280
     0
102
RTVSPost2010PropOp28
 70
     1
102
RTVSPost2010Prop29
280
     1
102
RTVSPost2010PropOp29
 70
     1
102
RTVSPost2010Prop30
280
     1
102
RTVSPost2010PropOp30
 70
     1
102
RTVSPost2010Prop31
280
     0
102
RTVSPost2010PropOp31
 70
     1
102
RTVSPost2010Prop32
280
     0
102
RTVSPost2010PropOp32
 70
     1
102
RTVSPost2010Prop33
280
     0
102
RTVSPost2010PropOp33
 70
     1
102
RTVSPost2010Prop34
280
     0
102
RTVSPost2010PropOp34
 70
     1
102
RTVSPost2010Prop35
280
     0
102
RTVSPost2010PropOp35
 70
     1
102
RTVSPost2010Prop36
280
     0
102
RTVSPost2010PropOp36
 70
     1
102
RTVSPost2010Prop37
 90
       50
102
RTVSPost2010PropOp37
 70
     1
102
RTVSPost2010Prop38
140
0.0
102
RTVSPost2010PropOp38
 70
     1
102
RTVSPost2010Prop39
140
1.0
102
RTVSPost2010PropOp39
 70
     1
102
RTVSPost2010Prop40
 90
        0
102
RTVSPost2010PropOp40
 70
     1
102
RTVSPost2010Prop41ColorIndex
 90
       18
102
RTVSPost2010Prop41ColorRGB
 90
        0
102
RTVSPost2010PropOp41
 70
     1
102
RTVSPost2010Prop42
 90
       50
102
RTVSPost2010PropOp42
 70
     1
102
RTVSPost2010Prop43
 90
        3
102
RTVSPost2010PropOp43
 70
     1
102
RTVSPost2010Prop44ColorIndex
 90
        5
102
RTVSPost2010Prop44ColorRGB
 90
      255
102
RTVSPost2010PropOp44
 70
     1
102
RTVSPost2010Prop45
280
     0
102
RTVSPost2010PropOp45
 70
     1
102
RTVSPost2010Prop46
 90
       50
102
RTVSPost2010PropOp46
 70
     1
102
RTVSPost2010Prop47
 90
       50
102
RTVSPost2010PropOp47
 70
     1
102
RTVSPost2010Prop48
 90
       50
102
RTVSPost2010PropOp48
 70
     1
102
RTVSPost2010Prop49
280
     0
102
RTVSPost2010PropOp49
 70
     1
102
RTVSPost2010Prop50
 90
       50
102
RTVSPost2010PropOp50
 70
     1
102
RTVSPost2010Prop51ColorIndex
 90
      256
102
RTVSPost2010Prop51ColorRGB
 90
-16777216
102
RTVSPost2010PropOp51
 70
     0
102
RTVSPost2010Prop52
140
1.0
102
RTVSPost2010PropOp52
 70
     0
102
RTVSPost2010Prop53
 90
        2
102
RTVSPost2010PropOp53
 70
     1
102
RTVSPost2010Prop54
  1
strokes_ogs.tif
102
RTVSPost2010PropOp54
 70
     1
102
RTVSPost2010Prop55
280
     0
102
RTVSPost2010PropOp55
 70
     1
102
RTVSPost2010Prop56
140
1.0
102
RTVSPost2010PropOp56
 70
     1
102
RTVSPost2010Prop57
140
1.0
102
RTVSPost2010PropOp57
 70
     1
  0
XRECORD
  5
230
102
{ACAD_REACTORS
330
22F
102
}
330
22F
100
AcDbXrecord
280
     1
102
RTVSPost2010Prop28
280
     0
102
RTVSPost2010PropOp28
 70
     1
102
RTVSPost2010Prop29
280
     1
102
RTVSPost2010PropOp29
 70
     1
102
RTVSPost2010Prop30
280
     1
102
RTVSPost2010PropOp30
 70
     1
102
RTVSPost2010Prop31
280
     0
102
RTVSPost2010PropOp31
 70
     1
102
RTVSPost2010Prop32
280
     0
102
RTVSPost2010PropOp32
 70
     1
102
RTVSPost2010Prop33
280
     0
102
RTVSPost2010PropOp33
 70
     1
102
RTVSPost2010Prop34
280
     0
102
RTVSPost2010PropOp34
 70
     1
102
RTVSPost2010Prop35
280
     0
102
RTVSPost2010PropOp35
 70
     1
102
RTVSPost2010Prop36
280
     0
102
RTVSPost2010PropOp36
 70
     1
102
RTVSPost2010Prop37
 90
       50
102
RTVSPost2010PropOp37
 70
     1
102
RTVSPost2010Prop38
140
0.0
102
RTVSPost2010PropOp38
 70
     1
102
RTVSPost2010Prop39
140
1.0
102
RTVSPost2010PropOp39
 70
     1
102
RTVSPost2010Prop40
 90
        0
102
RTVSPost2010PropOp40
 70
     1
102
RTVSPost2010Prop41ColorIndex
 90
       18
102
RTVSPost2010Prop41ColorRGB
 90
        0
102
RTVSPost2010PropOp41
 70
     1
102
RTVSPost2010Prop42
 90
       50
102
RTVSPost2010PropOp42
 70
     1
102
RTVSPost2010Prop43
 90
        3
102
RTVSPost2010PropOp43
 70
     1
102
RTVSPost2010Prop44ColorIndex
 90
        5
102
RTVSPost2010Prop44ColorRGB
 90
      255
102
RTVSPost2010PropOp44
 70
     1
102
RTVSPost2010Prop45
280
     0
102
RTVSPost2010PropOp45
 70
     1
102
RTVSPost2010Prop46
 90
       50
102
RTVSPost2010PropOp46
 70
     1
102
RTVSPost2010Prop47
 90
       50
102
RTVSPost2010PropOp47
 70
     1
102
RTVSPost2010Prop48
 90
       50
102
RTVSPost2010PropOp48
 70
     1
102
RTVSPost2010Prop49
280
     0
102
RTVSPost2010PropOp49
 70
     1
102
RTVSPost2010Prop50
 90
       50
102
RTVSPost2010PropOp50
 70
     1
102
RTVSPost2010Prop51ColorIndex
 90
      256
102
RTVSPost2010Prop51ColorRGB
 90
-16777216
102
RTVSPost2010PropOp51
 70
     0
102
RTVSPost2010Prop52
140
1.0
102
RTVSPost2010PropOp52
 70
     0
102
RTVSPost2010Prop53
 90
        2
102
RTVSPost2010PropOp53
 70
     1
102
RTVSPost2010Prop54
  1
strokes_ogs.tif
102
RTVSPost2010PropOp54
 70
     1
102
RTVSPost2010Prop55
280
     0
102
RTVSPost2010PropOp55
 70
     1
102
RTVSPost2010Prop56
140
1.0
102
RTVSPost2010PropOp56
 70
     1
102
RTVSPost2010Prop57
140
1.0
102
RTVSPost2010PropOp57
 70
     1
  0
XRECORD
  5
22E
102
{ACAD_REACTORS
330
22D
102
}
330
22D
100
AcDbXrecord
280
     1
102
RTVSPost2010Prop28
280
     0
102
RTVSPost2010PropOp28
 70
     1
102
RTVSPost2010Prop29
280
     1
102
RTVSPost2010PropOp29
 70
     1
102
RTVSPost2010Prop30
280
     1
102
RTVSPost2010PropOp30
 70
     1
102
RTVSPost2010Prop31
280
     0
102
RTVSPost2010PropOp31
 70
     1
102
RTVSPost2010Prop32
280
     0
102
RTVSPost2010PropOp32
 70
     1
102
RTVSPost2010Prop33
280
     0
102
RTVSPost2010PropOp33
 70
     1
102
RTVSPost2010Prop34
280
     0
102
RTVSPost2010PropOp34
 70
     1
102
RTVSPost2010Prop35
280
     0
102
RTVSPost2010PropOp35
 70
     1
102
RTVSPost2010Prop36
280
     0
102
RTVSPost2010PropOp36
 70
     1
102
RTVSPost2010Prop37
 90
       50
102
RTVSPost2010PropOp37
 70
     1
102
RTVSPost2010Prop38
140
0.0
102
RTVSPost2010PropOp38
 70
     1
102
RTVSPost2010Prop39
140
1.0
102
RTVSPost2010PropOp39
 70
     1
102
RTVSPost2010Prop40
 90
        0
102
RTVSPost2010PropOp40
 70
     1
102
RTVSPost2010Prop41ColorIndex
 90
       18
102
RTVSPost2010Prop41ColorRGB
 90
        0
102
RTVSPost2010PropOp41
 70
     1
102
RTVSPost2010Prop42
 90
       50
102
RTVSPost2010PropOp42
 70
     1
102
RTVSPost2010Prop43
 90
        3
102
RTVSPost2010PropOp43
 70
     1
102
RTVSPost2010Prop44ColorIndex
 90
        5
102
RTVSPost2010Prop44ColorRGB
 90
      255
102
RTVSPost2010PropOp44
 70
     1
102
RTVSPost2010Prop45
280
     0
102
RTVSPost2010PropOp45
 70
     1
102
RTVSPost2010Prop46
 90
       50
102
RTVSPost2010PropOp46
 70
     1
102
RTVSPost2010Prop47
 90
       50
102
RTVSPost2010PropOp47
 70
     1
102
RTVSPost2010Prop48
 90
       50
102
RTVSPost2010PropOp48
 70
     1
102
RTVSPost2010Prop49
280
     0
102
RTVSPost2010PropOp49
 70
     1
102
RTVSPost2010Prop50
 90
       50
102
RTVSPost2010PropOp50
 70
     1
102
RTVSPost2010Prop51ColorIndex
 90
      256
102
RTVSPost2010Prop51ColorRGB
 90
-16777216
102
RTVSPost2010PropOp51
 70
     0
102
RTVSPost2010Prop52
140
1.0
102
RTVSPost2010PropOp52
 70
     0
102
RTVSPost2010Prop53
 90
        2
102
RTVSPost2010PropOp53
 70
     1
102
RTVSPost2010Prop54
  1
strokes_ogs.tif
102
RTVSPost2010PropOp54
 70
     1
102
RTVSPost2010Prop55
280
     0
102
RTVSPost2010PropOp55
 70
     1
102
RTVSPost2010Prop56
140
1.0
102
RTVSPost2010PropOp56
 70
     1
102
RTVSPost2010Prop57
140
1.0
102
RTVSPost2010PropOp57
 70
     1
  0
XRECORD
  5
228
102
{ACAD_REACTORS
330
227
102
}
330
227
100
AcDbXrecord
280
     1
102
RTVSPost2010Prop28
280
     0
102
RTVSPost2010PropOp28
 70
     1
102
RTVSPost2010Prop29
280
     1
102
RTVSPost2010PropOp29
 70
     1
102
RTVSPost2010Prop30
280
     1
102
RTVSPost2010PropOp30
 70
     1
102
RTVSPost2010Prop31
280
     0
102
RTVSPost2010PropOp31
 70
     1
102
RTVSPost2010Prop32
280
     0
102
RTVSPost2010PropOp32
 70
     1
102
RTVSPost2010Prop33
280
     0
102
RTVSPost2010PropOp33
 70
     1
102
RTVSPost2010Prop34
280
     0
102
RTVSPost2010PropOp34
 70
     1
102
RTVSPost2010Prop35
280
     0
102
RTVSPost2010PropOp35
 70
     1
102
RTVSPost2010Prop36
280
     0
102
RTVSPost2010PropOp36
 70
     1
102
RTVSPost2010Prop37
 90
       50
102
RTVSPost2010PropOp37
 70
     1
102
RTVSPost2010Prop38
140
0.0
102
RTVSPost2010PropOp38
 70
     1
102
RTVSPost2010Prop39
140
1.0
102
RTVSPost2010PropOp39
 70
     1
102
RTVSPost2010Prop40
 90
        0
102
RTVSPost2010PropOp40
 70
     1
102
RTVSPost2010Prop41ColorIndex
 90
       18
102
RTVSPost2010Prop41ColorRGB
 90
        0
102
RTVSPost2010PropOp41
 70
     1
102
RTVSPost2010Prop42
 90
       50
102
RTVSPost2010PropOp42
 70
     1
102
RTVSPost2010Prop43
 90
        3
102
RTVSPost2010PropOp43
 70
     1
102
RTVSPost2010Prop44ColorIndex
 90
        5
102
RTVSPost2010Prop44ColorRGB
 90
      255
102
RTVSPost2010PropOp44
 70
     1
102
RTVSPost2010Prop45
280
     0
102
RTVSPost2010PropOp45
 70
     1
102
RTVSPost2010Prop46
 90
       50
102
RTVSPost2010PropOp46
 70
     1
102
RTVSPost2010Prop47
 90
       50
102
RTVSPost2010PropOp47
 70
     1
102
RTVSPost2010Prop48
 90
       50
102
RTVSPost2010PropOp48
 70
     1
102
RTVSPost2010Prop49
280
     0
102
RTVSPost2010PropOp49
 70
     1
102
RTVSPost2010Prop50
 90
       50
102
RTVSPost2010PropOp50
 70
     1
102
RTVSPost2010Prop51ColorIndex
 90
      256
102
RTVSPost2010Prop51ColorRGB
 90
-16777216
102
RTVSPost2010PropOp51
 70
     0
102
RTVSPost2010Prop52
140
1.0
102
RTVSPost2010PropOp52
 70
     0
102
RTVSPost2010Prop53
 90
        2
102
RTVSPost2010PropOp53
 70
     1
102
RTVSPost2010Prop54
  1
strokes_ogs.tif
102
RTVSPost2010PropOp54
 70
     1
102
RTVSPost2010Prop55
280
     0
102
RTVSPost2010PropOp55
 70
     1
102
RTVSPost2010Prop56
140
1.0
102
RTVSPost2010PropOp56
 70
     1
102
RTVSPost2010Prop57
140
1.0
102
RTVSPost2010PropOp57
 70
     1
  0
XRECORD
  5
22A
102
{ACAD_REACTORS
330
229
102
}
330
229
100
AcDbXrecord
280
     1
102
RTVSPost2010Prop28
280
     0
102
RTVSPost2010PropOp28
 70
     1
102
RTVSPost2010Prop29
280
     1
102
RTVSPost2010PropOp29
 70
     1
102
RTVSPost2010Prop30
280
     1
102
RTVSPost2010PropOp30
 70
     1
102
RTVSPost2010Prop31
280
     0
102
RTVSPost2010PropOp31
 70
     1
102
RTVSPost2010Prop32
280
     0
102
RTVSPost2010PropOp32
 70
     1
102
RTVSPost2010Prop33
280
     0
102
RTVSPost2010PropOp33
 70
     1
102
RTVSPost2010Prop34
280
     0
102
RTVSPost2010PropOp34
 70
     1
102
RTVSPost2010Prop35
280
     0
102
RTVSPost2010PropOp35
 70
     1
102
RTVSPost2010Prop36
280
     0
102
RTVSPost2010PropOp36
 70
     1
102
RTVSPost2010Prop37
 90
       50
102
RTVSPost2010PropOp37
 70
     1
102
RTVSPost2010Prop38
140
0.0
102
RTVSPost2010PropOp38
 70
     1
102
RTVSPost2010Prop39
140
1.0
102
RTVSPost2010PropOp39
 70
     1
102
RTVSPost2010Prop40
 90
        0
102
RTVSPost2010PropOp40
 70
     1
102
RTVSPost2010Prop41ColorIndex
 90
       18
102
RTVSPost2010Prop41ColorRGB
 90
        0
102
RTVSPost2010PropOp41
 70
     1
102
RTVSPost2010Prop42
 90
       50
102
RTVSPost2010PropOp42
 70
     1
102
RTVSPost2010Prop43
 90
        3
102
RTVSPost2010PropOp43
 70
     1
102
RTVSPost2010Prop44ColorIndex
 90
        5
102
RTVSPost2010Prop44ColorRGB
 90
      255
102
RTVSPost2010PropOp44
 70
     1
102
RTVSPost2010Prop45
280
     0
102
RTVSPost2010PropOp45
 70
     1
102
RTVSPost2010Prop46
 90
       50
102
RTVSPost2010PropOp46
 70
     1
102
RTVSPost2010Prop47
 90
       50
102
RTVSPost2010PropOp47
 70
     1
102
RTVSPost2010Prop48
 90
       50
102
RTVSPost2010PropOp48
 70
     1
102
RTVSPost2010Prop49
280
     0
102
RTVSPost2010PropOp49
 70
     1
102
RTVSPost2010Prop50
 90
       50
102
RTVSPost2010PropOp50
 70
     1
102
RTVSPost2010Prop51ColorIndex
 90
      256
102
RTVSPost2010Prop51ColorRGB
 90
-16777216
102
RTVSPost2010PropOp51
 70
     0
102
RTVSPost2010Prop52
140
1.0
102
RTVSPost2010PropOp52
 70
     0
102
RTVSPost2010Prop53
 90
        2
102
RTVSPost2010PropOp53
 70
     1
102
RTVSPost2010Prop54
  1
strokes_ogs.tif
102
RTVSPost2010PropOp54
 70
     1
102
RTVSPost2010Prop55
280
     0
102
RTVSPost2010PropOp55
 70
     1
102
RTVSPost2010Prop56
140
1.0
102
RTVSPost2010PropOp56
 70
     1
102
RTVSPost2010Prop57
140
1.0
102
RTVSPost2010PropOp57
 70
     1
  0
XRECORD
  5
21A
102
{ACAD_REACTORS
330
219
102
}
330
219
100
AcDbXrecord
280
     1
102
RTVSPost2010Prop28
280
     0
102
RTVSPost2010PropOp28
 70
     1
102
RTVSPost2010Prop29
280
     1
102
RTVSPost2010PropOp29
 70
     1
102
RTVSPost2010Prop30
280
     1
102
RTVSPost2010PropOp30
 70
     1
102
RTVSPost2010Prop31
280
     0
102
RTVSPost2010PropOp31
 70
     1
102
RTVSPost2010Prop32
280
     0
102
RTVSPost2010PropOp32
 70
     1
102
RTVSPost2010Prop33
280
     0
102
RTVSPost2010PropOp33
 70
     1
102
RTVSPost2010Prop34
280
     0
102
RTVSPost2010PropOp34
 70
     1
102
RTVSPost2010Prop35
280
     0
102
RTVSPost2010PropOp35
 70
     1
102
RTVSPost2010Prop36
280
     0
102
RTVSPost2010PropOp36
 70
     1
102
RTVSPost2010Prop37
 90
       50
102
RTVSPost2010PropOp37
 70
     1
102
RTVSPost2010Prop38
140
0.0
102
RTVSPost2010PropOp38
 70
     1
102
RTVSPost2010Prop39
140
1.0
102
RTVSPost2010PropOp39
 70
     1
102
RTVSPost2010Prop40
 90
        0
102
RTVSPost2010PropOp40
 70
     1
102
RTVSPost2010Prop41ColorIndex
 90
       18
102
RTVSPost2010Prop41ColorRGB
 90
        0
102
RTVSPost2010PropOp41
 70
     1
102
RTVSPost2010Prop42
 90
       50
102
RTVSPost2010PropOp42
 70
     1
102
RTVSPost2010Prop43
 90
        3
102
RTVSPost2010PropOp43
 70
     1
102
RTVSPost2010Prop44ColorIndex
 90
        5
102
RTVSPost2010Prop44ColorRGB
 90
      255
102
RTVSPost2010PropOp44
 70
     1
102
RTVSPost2010Prop45
280
     0
102
RTVSPost2010PropOp45
 70
     1
102
RTVSPost2010Prop46
 90
       50
102
RTVSPost2010PropOp46
 70
     1
102
RTVSPost2010Prop47
 90
       50
102
RTVSPost2010PropOp47
 70
     1
102
RTVSPost2010Prop48
 90
       50
102
RTVSPost2010PropOp48
 70
     1
102
RTVSPost2010Prop49
280
     0
102
RTVSPost2010PropOp49
 70
     1
102
RTVSPost2010Prop50
 90
       50
102
RTVSPost2010PropOp50
 70
     1
102
RTVSPost2010Prop51ColorIndex
 90
      256
102
RTVSPost2010Prop51ColorRGB
 90
-16777216
102
RTVSPost2010PropOp51
 70
     0
102
RTVSPost2010Prop52
140
1.0
102
RTVSPost2010PropOp52
 70
     0
102
RTVSPost2010Prop53
 90
        2
102
RTVSPost2010PropOp53
 70
     1
102
RTVSPost2010Prop54
  1
strokes_ogs.tif
102
RTVSPost2010PropOp54
 70
     1
102
RTVSPost2010Prop55
280
     0
102
RTVSPost2010PropOp55
 70
     1
102
RTVSPost2010Prop56
140
1.0
102
RTVSPost2010PropOp56
 70
     1
102
RTVSPost2010Prop57
140
1.0
102
RTVSPost2010PropOp57
 70
     1
  0
XRECORD
  5
20C
102
{ACAD_REACTORS
330
20B
102
}
330
20B
100
AcDbXrecord
280
     1
102
RTVSPost2010Prop28
280
     0
102
RTVSPost2010PropOp28
 70
     1
102
RTVSPost2010Prop29
280
     1
102
RTVSPost2010PropOp29
 70
     1
102
RTVSPost2010Prop30
280
     1
102
RTVSPost2010PropOp30
 70
     1
102
RTVSPost2010Prop31
280
     0
102
RTVSPost2010PropOp31
 70
     1
102
RTVSPost2010Prop32
280
     0
102
RTVSPost2010PropOp32
 70
     1
102
RTVSPost2010Prop33
280
     0
102
RTVSPost2010PropOp33
 70
     1
102
RTVSPost2010Prop34
280
     0
102
RTVSPost2010PropOp34
 70
     1
102
RTVSPost2010Prop35
280
     0
102
RTVSPost2010PropOp35
 70
     1
102
RTVSPost2010Prop36
280
     0
102
RTVSPost2010PropOp36
 70
     1
102
RTVSPost2010Prop37
 90
       50
102
RTVSPost2010PropOp37
 70
     1
102
RTVSPost2010Prop38
140
0.0
102
RTVSPost2010PropOp38
 70
     1
102
RTVSPost2010Prop39
140
1.0
102
RTVSPost2010PropOp39
 70
     1
102
RTVSPost2010Prop40
 90
        0
102
RTVSPost2010PropOp40
 70
     1
102
RTVSPost2010Prop41ColorIndex
 90
       18
102
RTVSPost2010Prop41ColorRGB
 90
        0
102
RTVSPost2010PropOp41
 70
     1
102
RTVSPost2010Prop42
 90
       50
102
RTVSPost2010PropOp42
 70
     1
102
RTVSPost2010Prop43
 90
        3
102
RTVSPost2010PropOp43
 70
     1
102
RTVSPost2010Prop44ColorIndex
 90
        5
102
RTVSPost2010Prop44ColorRGB
 90
      255
102
RTVSPost2010PropOp44
 70
     1
102
RTVSPost2010Prop45
280
     0
102
RTVSPost2010PropOp45
 70
     1
102
RTVSPost2010Prop46
 90
       50
102
RTVSPost2010PropOp46
 70
     1
102
RTVSPost2010Prop47
 90
       50
102
RTVSPost2010PropOp47
 70
     1
102
RTVSPost2010Prop48
 90
       50
102
RTVSPost2010PropOp48
 70
     1
102
RTVSPost2010Prop49
280
     0
102
RTVSPost2010PropOp49
 70
     1
102
RTVSPost2010Prop50
 90
       50
102
RTVSPost2010PropOp50
 70
     1
102
RTVSPost2010Prop51ColorIndex
 90
      256
102
RTVSPost2010Prop51ColorRGB
 90
-16777216
102
RTVSPost2010PropOp51
 70
     0
102
RTVSPost2010Prop52
140
1.0
102
RTVSPost2010PropOp52
 70
     0
102
RTVSPost2010Prop53
 90
        2
102
RTVSPost2010PropOp53
 70
     1
102
RTVSPost2010Prop54
  1
strokes_ogs.tif
102
RTVSPost2010PropOp54
 70
     1
102
RTVSPost2010Prop55
280
     0
102
RTVSPost2010PropOp55
 70
     1
102
RTVSPost2010Prop56
140
1.0
102
RTVSPost2010PropOp56
 70
     1
102
RTVSPost2010Prop57
140
1.0
102
RTVSPost2010PropOp57
 70
     1
  0
XRECORD
  5
22C
102
{ACAD_REACTORS
330
22B
102
}
330
22B
100
AcDbXrecord
280
     1
102
RTVSPost2010Prop28
280
     0
102
RTVSPost2010PropOp28
 70
     1
102
RTVSPost2010Prop29
280
     1
102
RTVSPost2010PropOp29
 70
     1
102
RTVSPost2010Prop30
280
     1
102
RTVSPost2010PropOp30
 70
     1
102
RTVSPost2010Prop31
280
     0
102
RTVSPost2010PropOp31
 70
     1
102
RTVSPost2010Prop32
280
     0
102
RTVSPost2010PropOp32
 70
     1
102
RTVSPost2010Prop33
280
     0
102
RTVSPost2010PropOp33
 70
     1
102
RTVSPost2010Prop34
280
     0
102
RTVSPost2010PropOp34
 70
     1
102
RTVSPost2010Prop35
280
     0
102
RTVSPost2010PropOp35
 70
     1
102
RTVSPost2010Prop36
280
     0
102
RTVSPost2010PropOp36
 70
     1
102
RTVSPost2010Prop37
 90
       50
102
RTVSPost2010PropOp37
 70
     1
102
RTVSPost2010Prop38
140
0.0
102
RTVSPost2010PropOp38
 70
     1
102
RTVSPost2010Prop39
140
1.0
102
RTVSPost2010PropOp39
 70
     1
102
RTVSPost2010Prop40
 90
        0
102
RTVSPost2010PropOp40
 70
     1
102
RTVSPost2010Prop41ColorIndex
 90
       18
102
RTVSPost2010Prop41ColorRGB
 90
        0
102
RTVSPost2010PropOp41
 70
     1
102
RTVSPost2010Prop42
 90
       50
102
RTVSPost2010PropOp42
 70
     1
102
RTVSPost2010Prop43
 90
        3
102
RTVSPost2010PropOp43
 70
     1
102
RTVSPost2010Prop44ColorIndex
 90
        5
102
RTVSPost2010Prop44ColorRGB
 90
      255
102
RTVSPost2010PropOp44
 70
     1
102
RTVSPost2010Prop45
280
     0
102
RTVSPost2010PropOp45
 70
     1
102
RTVSPost2010Prop46
 90
       50
102
RTVSPost2010PropOp46
 70
     1
102
RTVSPost2010Prop47
 90
       50
102
RTVSPost2010PropOp47
 70
     1
102
RTVSPost2010Prop48
 90
       50
102
RTVSPost2010PropOp48
 70
     1
102
RTVSPost2010Prop49
280
     0
102
RTVSPost2010PropOp49
 70
     1
102
RTVSPost2010Prop50
 90
       50
102
RTVSPost2010PropOp50
 70
     1
102
RTVSPost2010Prop51ColorIndex
 90
      256
102
RTVSPost2010Prop51ColorRGB
 90
-16777216
102
RTVSPost2010PropOp51
 70
     0
102
RTVSPost2010Prop52
140
1.0
102
RTVSPost2010PropOp52
 70
     0
102
RTVSPost2010Prop53
 90
        2
102
RTVSPost2010PropOp53
 70
     1
102
RTVSPost2010Prop54
  1
strokes_ogs.tif
102
RTVSPost2010PropOp54
 70
     1
102
RTVSPost2010Prop55
280
     0
102
RTVSPost2010PropOp55
 70
     1
102
RTVSPost2010Prop56
140
1.0
102
RTVSPost2010PropOp56
 70
     1
102
RTVSPost2010Prop57
140
1.0
102
RTVSPost2010PropOp57
 70
     1
  0
ENDSEC
  0
EOF
