  0
SECTION
  2
HEADER
  9
$ACADVER
  1
AC1024
  9
$ACADMAINTVER
 70
     6
  9
$DWGCODEPAGE
  3
ANSI_1252
  9
$INSBASE
 10
0.0
 20
0.0
 30
0.0
  9
$EXTMIN
 10
1.000000E+20
 20
1.000000E+20
 30
1.000000E+20
  9
$EXTMAX
 10
-1.000000E+20
 20
-1.000000E+20
 30
-1.000000E+20
  9
$LIMMIN
 10
0.0
 20
0.0
  9
$LIMMAX
 10
420.0
 20
297.0
  9
$ORTHOMODE
 70
     0
  9
$REGENMODE
 70
     1
  9
$FILLMODE
 70
     1
  9
$QTEXTMODE
 70
     0
  9
$MIRRTEXT
 70
     1
  9
$LTSCALE
 40
1.0
  9
$ATTMODE
 70
     1
  9
$TEXTSIZE
 40
2.5
  9
$TRACEWID
 40
1.0
  9
$TEXTSTYLE
  7
Standard
  9
$CLAYER
  8
0
  9
$CELTYPE
  6
ByLayer
  9
$CECOLOR
 62
   256
  9
$CELTSCALE
 40
1.0
  9
$DISPSILH
 70
     0
  9
$DIMSCALE
 40
1.0
  9
$DIMASZ
 40
2.5
  9
$DIMEXO
 40
0.625
  9
$DIMDLI
 40
3.75
  9
$DIMRND
 40
0.0
  9
$DIMDLE
 40
0.0
  9
$DIMEXE
 40
1.25
  9
$DIMTP
 40
0.0
  9
$DIMTM
 40
0.0
  9
$DIMTXT
 40
2.5
  9
$DIMCEN
 40
2.5
  9
$DIMTSZ
 40
0.0
  9
$DIMTOL
 70
     0
  9
$DIMLIM
 70
     0
  9
$DIMTIH
 70
     0
  9
$DIMTOH
 70
     0
  9
$DIMSE1
 70
     0
  9
$DIMSE2
 70
     0
  9
$DIMTAD
 70
     1
  9
$DIMZIN
 70
     8
  9
$DIMBLK
  1

  9
$DIMASO
 70
     1
  9
$DIMSHO
 70
     1
  9
$DIMPOST
  1

  9
$DIMAPOST
  1

  9
$DIMALT
 70
     0
  9
$DIMALTD
 70
     3
  9
$DIMALTF
 40
0.03937
  9
$DIMLFAC
 40
1.0
  9
$DIMTOFL
 70
     1
  9
$DIMTVP
 40
0.0
  9
$DIMTIX
 70
     0
  9
$DIMSOXD
 70
     0
  9
$DIMSAH
 70
     0
  9
$DIMBLK1
  1

  9
$DIMBLK2
  1

  9
$DIMSTYLE
  2
ISO-25
  9
$DIMCLRD
 70
     0
  9
$DIMCLRE
 70
     0
  9
$DIMCLRT
 70
     0
  9
$DIMTFAC
 40
1.0
  9
$DIMGAP
 40
0.625
  9
$DIMJUST
 70
     0
  9
$DIMSD1
 70
     0
  9
$DIMSD2
 70
     0
  9
$DIMTOLJ
 70
     0
  9
$DIMTZIN
 70
     8
  9
$DIMALTZ
 70
     0
  9
$DIMALTTZ
 70
     0
  9
$DIMUPT
 70
     0
  9
$DIMDEC
 70
     2
  9
$DIMTDEC
 70
     2
  9
$DIMALTU
 70
     2
  9
$DIMALTTD
 70
     3
  9
$DIMTXSTY
  7
Standard
  9
$DIMAUNIT
 70
     0
  9
$DIMADEC
 70
     0
  9
$DIMALTRND
 40
0.0
  9
$DIMAZIN
 70
     0
  9
$DIMDSEP
 70
    44
  9
$DIMATFIT
 70
     3
  9
$DIMFRAC
 70
     0
  9
$DIMLDRBLK
  1

  9
$DIMLUNIT
 70
     2
  9
$DIMLWD
 70
    -2
  9
$DIMLWE
 70
    -2
  9
$DIMTMOVE
 70
     0
  9
$DIMFXL
 40
1.0
  9
$DIMFXLON
 70
     0
  9
$DIMJOGANG
 40
0.785398
  9
$DIMTFILL
 70
     0
  9
$DIMTFILLCLR
 70
     0
  9
$DIMARCSYM
 70
     0
  9
$DIMLTYPE
  6

  9
$DIMLTEX1
  6

  9
$DIMLTEX2
  6

  9
$DIMTXTDIRECTION
 70
     0
  9
$LUNITS
 70
     2
  9
$LUPREC
 70
     4
  9
$SKETCHINC
 40
1.0
  9
$FILLETRAD
 40
10.0
  9
$AUNITS
 70
     0
  9
$AUPREC
 70
     0
  9
$MENU
  1
.
  9
$ELEVATION
 40
0.0
  9
$PELEVATION
 40
0.0
  9
$THICKNESS
 40
0.0
  9
$LIMCHECK
 70
     0
  9
$CHAMFERA
 40
0.0
  9
$CHAMFERB
 40
0.0
  9
$CHAMFERC
 40
0.0
  9
$CHAMFERD
 40
0.0
  9
$SKPOLY
 70
     0
  9
$TDCREATE
 40
2458624.694177269
  9
$TDUCREATE
 40
2458624.610843935
  9
$TDUPDATE
 40
2458624.694177974
  9
$TDUUPDATE
 40
2458624.610844641
  9
$TDINDWG
 40
0.0000000116
  9
$TDUSRTIMER
 40
0.0000000116
  9
$USRTIMER
 70
     1
  9
$ANGBASE
 50
0.0
  9
$ANGDIR
 70
     0
  9
$PDMODE
 70
     0
  9
$PDSIZE
 40
0.0
  9
$PLINEWID
 40
0.0
  9
$SPLFRAME
 70
     0
  9
$SPLINETYPE
 70
     6
  9
$SPLINESEGS
 70
     8
  9
$HANDSEED
  5
2AE
  9
$SURFTAB1
 70
     6
  9
$SURFTAB2
 70
     6
  9
$SURFTYPE
 70
     6
  9
$SURFU
 70
     6
  9
$SURFV
 70
     6
  9
$UCSBASE
  2

  9
$UCSNAME
  2

  9
$UCSORG
 10
0.0
 20
0.0
 30
0.0
  9
$UCSXDIR
 10
1.0
 20
0.0
 30
0.0
  9
$UCSYDIR
 10
0.0
 20
1.0
 30
0.0
  9
$UCSORTHOREF
  2

  9
$UCSORTHOVIEW
 70
     0
  9
$UCSORGTOP
 10
0.0
 20
0.0
 30
0.0
  9
$UCSORGBOTTOM
 10
0.0
 20
0.0
 30
0.0
  9
$UCSORGLEFT
 10
0.0
 20
0.0
 30
0.0
  9
$UCSORGRIGHT
 10
0.0
 20
0.0
 30
0.0
  9
$UCSORGFRONT
 10
0.0
 20
0.0
 30
0.0
  9
$UCSORGBACK
 10
0.0
 20
0.0
 30
0.0
  9
$PUCSBASE
  2

  9
$PUCSNAME
  2

  9
$PUCSORG
 10
0.0
 20
0.0
 30
0.0
  9
$PUCSXDIR
 10
1.0
 20
0.0
 30
0.0
  9
$PUCSYDIR
 10
0.0
 20
1.0
 30
0.0
  9
$PUCSORTHOREF
  2

  9
$PUCSORTHOVIEW
 70
     0
  9
$PUCSORGTOP
 10
0.0
 20
0.0
 30
0.0
  9
$PUCSORGBOTTOM
 10
0.0
 20
0.0
 30
0.0
  9
$PUCSORGLEFT
 10
0.0
 20
0.0
 30
0.0
  9
$PUCSORGRIGHT
 10
0.0
 20
0.0
 30
0.0
  9
$PUCSORGFRONT
 10
0.0
 20
0.0
 30
0.0
  9
$PUCSORGBACK
 10
0.0
 20
0.0
 30
0.0
  9
$USERI1
 70
     0
  9
$USERI2
 70
     0
  9
$USERI3
 70
     0
  9
$USERI4
 70
     0
  9
$USERI5
 70
     0
  9
$USERR1
 40
0.0
  9
$USERR2
 40
0.0
  9
$USERR3
 40
0.0
  9
$USERR4
 40
0.0
  9
$USERR5
 40
0.0
  9
$WORLDVIEW
 70
     1
  9
$SHADEDGE
 70
     3
  9
$SHADEDIF
 70
    70
  9
$TILEMODE
 70
     1
  9
$MAXACTVP
 70
    64
  9
$PINSBASE
 10
0.0
 20
0.0
 30
0.0
  9
$PLIMCHECK
 70
     0
  9
$PEXTMIN
 10
1.000000E+20
 20
1.000000E+20
 30
1.000000E+20
  9
$PEXTMAX
 10
-1.000000E+20
 20
-1.000000E+20
 30
-1.000000E+20
  9
$PLIMMIN
 10
0.0
 20
0.0
  9
$PLIMMAX
 10
420.0
 20
297.0
  9
$UNITMODE
 70
     0
  9
$VISRETAIN
 70
     1
  9
$PLINEGEN
 70
     0
  9
$PSLTSCALE
 70
     1
  9
$TREEDEPTH
 70
  3020
  9
$CMLSTYLE
  2
Standard
  9
$CMLJUST
 70
     0
  9
$CMLSCALE
 40
20.0
  9
$PROXYGRAPHICS
 70
     1
  9
$MEASUREMENT
 70
     1
  9
$CELWEIGHT
370
    -1
  9
$ENDCAPS
280
     0
  9
$JOINSTYLE
280
     0
  9
$LWDISPLAY
290
     0
  9
$INSUNITS
 70
     4
  9
$HYPERLINKBASE
  1

  9
$STYLESHEET
  1

  9
$XEDIT
290
     1
  9
$CEPSNTYPE
380
     0
  9
$PSTYLEMODE
290
     1
  9
$FINGERPRINTGUID
  2
{A152FED5-8D78-4931-BB27-128782B08763}
  9
$VERSIONGUID
  2
{FAEB1C32-E019-11D5-929B-00C0DF256EC4}
  9
$EXTNAMES
290
     1
  9
$PSVPSCALE
 40
0.0
  9
$OLESTARTUP
290
     0
  9
$SORTENTS
280
   127
  9
$INDEXCTL
280
     0
  9
$HIDETEXT
280
     1
  9
$XCLIPFRAME
280
     2
  9
$HALOGAP
280
     0
  9
$OBSCOLOR
 70
   257
  9
$OBSLTYPE
280
     0
  9
$INTERSECTIONDISPLAY
280
     0
  9
$INTERSECTIONCOLOR
 70
   257
  9
$DIMASSOC
280
     2
  9
$PROJECTNAME
  1

  9
$CAMERADISPLAY
290
     0
  9
$LENSLENGTH
 40
50.0
  9
$CAMERAHEIGHT
 40
0.0
  9
$STEPSPERSEC
 40
2.0
  9
$STEPSIZE
 40
6.0
  9
$3DDWFPREC
 40
2.0
  9
$PSOLWIDTH
 40
5.0
  9
$PSOLHEIGHT
 40
80.0
  9
$LOFTANG1
 40
1.570796
  9
$LOFTANG2
 40
1.570796
  9
$LOFTMAG1
 40
0.0
  9
$LOFTMAG2
 40
0.0
  9
$LOFTPARAM
 70
     7
  9
$LOFTNORMALS
280
     1
  9
$LATITUDE
 40
37.795
  9
$LONGITUDE
 40
-122.394
  9
$NORTHDIRECTION
 40
0.0
  9
$TIMEZONE
 70
 -8000
  9
$LIGHTGLYPHDISPLAY
280
     1
  9
$TILEMODELIGHTSYNCH
280
     1
  9
$CMATERIAL
347
44
  9
$SOLIDHIST
280
     0
  9
$SHOWHIST
280
     1
  9
$DWFFRAME
280
     2
  9
$DGNFRAME
280
     2
  9
$REALWORLDSCALE
290
     1
  9
$INTERFERECOLOR
 62
   256
  9
$CSHADOW
280
     0
  9
$SHADOWPLANELOCATION
 40
0.0
  0
ENDSEC
  0
SECTION
  2
CLASSES
  0
CLASS
  1
ACDBDICTIONARYWDFLT
  2
AcDbDictionaryWithDefault
  3
ObjectDBX Classes
 90
        0
 91
        4
280
     0
281
     0
  0
CLASS
  1
VISUALSTYLE
  2
AcDbVisualStyle
  3
ObjectDBX Classes
 90
     4095
 91
        4
280
     0
281
     0
  0
CLASS
  1
MATERIAL
  2
AcDbMaterial
  3
ObjectDBX Classes
 90
     1153
 91
        4
280
     0
281
     0
  0
CLASS
  1
SCALE
  2
AcDbScale
  3
ObjectDBX Classes
 90
     1153
 91
        4
280
     0
281
     0
  0
CLASS
  1
TABLESTYLE
  2
AcDbTableStyle
  3
ObjectDBX Classes
 90
     4095
 91
        4
280
     0
281
     0
  0
CLASS
  1
MLEADERSTYLE
  2
AcDbMLeaderStyle
  3
ACDB_MLEADERSTYLE_CLASS
 90
     4095
 91
        4
280
     0
281
     0
  0
CLASS
  1
SUN
  2
AcDbSun
  3
SCENEOE
 90
     1153
 91
        4
280
     0
281
     0
  0
CLASS
  1
DICTIONARYVAR
  2
AcDbDictionaryVar
  3
ObjectDBX Classes
 90
        0
 91
        4
280
     0
281
     0
  0
CLASS
  1
CELLSTYLEMAP
  2
AcDbCellStyleMap
  3
ObjectDBX Classes
 90
     1152
 91
        4
280
     0
281
     0
  0
ENDSEC
  0
SECTION
  2
TABLES
  0
TABLE
  2
VPORT
  5
8
330
0
100
AcDbSymbolTable
 70
     1
  0
VPORT
  5
29
330
8
100
AcDbSymbolTableRecord
100
AcDbViewportTableRecord
  2
*Active
 70
     0
 10
0.0
 20
0.0
 11
1.0
 21
1.0
 12
344.186916
 22
148.5
 13
0.0
 23
0.0
 14
10.0
 24
10.0
 15
10.0
 25
10.0
 16
0.0
 26
0.0
 36
1.0
 17
0.0
 27
0.0
 37
0.0
 40
297.0
 41
1.972973
 42
50.0
 43
0.0
 44
0.0
 50
0.0
 51
0.0
 71
     0
 72
   100
 73
     1
 74
     3
 75
     0
 76
     0
 77
     0
 78
     0
281
     0
 65
     1
110
0.0
120
0.0
130
0.0
111
1.0
121
0.0
131
0.0
112
0.0
122
1.0
132
0.0
 79
     0
146
0.0
348
2F
 60
     3
 61
     5
292
     1
282
     1
141
0.0
142
0.0
 63
   250
361
6D
  0
ENDTAB
  0
TABLE
  2
LTYPE
  5
5
330
0
100
AcDbSymbolTable
 70
     1
  0
LTYPE
  5
14
330
5
100
AcDbSymbolTableRecord
100
AcDbLinetypeTableRecord
  2
ByBlock
 70
     0
  3

 72
    65
 73
     0
 40
0.0
  0
LTYPE
  5
15
330
5
100
AcDbSymbolTableRecord
100
AcDbLinetypeTableRecord
  2
ByLayer
 70
     0
  3

 72
    65
 73
     0
 40
0.0
  0
LTYPE
  5
16
330
5
100
AcDbSymbolTableRecord
100
AcDbLinetypeTableRecord
  2
Continuous
 70
     0
  3
Solid line
 72
    65
 73
     0
 40
0.0
  0
ENDTAB
  0
TABLE
  2
LAYER
  5
2
330
0
100
AcDbSymbolTable
 70
     1
  0
LAYER
  5
10
330
2
100
AcDbSymbolTableRecord
100
AcDbLayerTableRecord
  2
0
 70
     0
 62
   106
  6
Continuous
370
     0
390
F
347
46
  0
ENDTAB
  0
TABLE
  2
STYLE
  5
3
330
0
100
AcDbSymbolTable
 70
     4
  0
STYLE
  5
11
330
3
100
AcDbSymbolTableRecord
100
AcDbTextStyleTableRecord
  2
Standard
 70
     0
 40
0.0
 41
1.0
 50
0.0
 71
     0
 42
2.5
  3
txt
  4

  0
STYLE
  5
6E
330
3
100
AcDbSymbolTableRecord
100
AcDbTextStyleTableRecord
  2
Default
 70
     0
 40
0.0
 41
1.0
 50
0.0
 71
     0
 42
2.5
  3

  4

1001
ACAD
1000
txt
1071
        0
  0
STYLE
  5
6F
330
3
100
AcDbSymbolTableRecord
100
AcDbTextStyleTableRecord
  2
ISO
 70
     0
 40
0.0
 41
1.0
 50
0.0
 71
     0
 42
2.5
  3

  4

1001
ACAD
1000
txt
1071
        0
  0
STYLE
  5
70
330
3
100
AcDbSymbolTableRecord
100
AcDbTextStyleTableRecord
  2
zucchetti
 70
     0
 40
0.0
 41
1.0
 50
0.0
 71
     0
 42
2.5
  3

  4

1001
ACAD
1000
Arial
1071
        0
  0
ENDTAB
  0
TABLE
  2
VIEW
  5
6
330
0
100
AcDbSymbolTable
 70
     0
  0
ENDTAB
  0
TABLE
  2
UCS
  5
7
330
0
100
AcDbSymbolTable
 70
     0
  0
ENDTAB
  0
TABLE
  2
APPID
  5
9
330
0
100
AcDbSymbolTable
 70
     1
  0
APPID
  5
12
330
9
100
AcDbSymbolTableRecord
100
AcDbRegAppTableRecord
  2
ACAD
 70
     0
  0
ENDTAB
  0
TABLE
  2
DIMSTYLE
  5
A
330
0
100
AcDbSymbolTable
 70
     4
100
AcDbDimStyleTable
  0
DIMSTYLE
105
27
330
A
100
AcDbSymbolTableRecord
100
AcDbDimStyleTableRecord
  2
ISO-25
 70
     0
 41
2.5
 42
0.625
 43
3.75
 44
1.25
 73
     0
 74
     0
 77
     1
 78
     8
140
2.5
141
2.5
143
0.03937
147
0.625
171
     3
172
     1
178
     0
271
     2
272
     2
274
     3
278
    44
283
     0
284
     8
340
11
  0
DIMSTYLE
105
71
330
A
100
AcDbSymbolTableRecord
100
AcDbDimStyleTableRecord
  2
Default
 70
     0
  3
<>
 41
4.375
 42
1.05
 44
2.1
 49
10.01
 73
     0
 74
     0
 77
     1
 78
     8
140
3.5
146
0.4
147
1.75
172
     1
271
     2
178
     3
271
     2
272
     3
284
     8
340
6E
341
72
342
72
  0
DIMSTYLE
105
79
330
A
100
AcDbSymbolTableRecord
100
AcDbDimStyleTableRecord
  2
ISO
 70
     0
  3
<>
 41
4.375
 42
1.05
 44
2.1
 49
10.01
 73
     0
 74
     0
 77
     1
 78
     8
140
3.5
146
0.4
147
1.75
172
     1
271
     2
178
     3
271
     2
272
     3
284
     8
340
6F
341
72
342
72
  0
DIMSTYLE
105
7A
330
A
100
AcDbSymbolTableRecord
100
AcDbDimStyleTableRecord
  2
zucchetti
 70
     0
  3
<>
 41
3.0
 42
0.9
 44
1.8
 49
8.58
 73
     0
 74
     0
 77
     1
 78
     8
140
3.0
146
0.6
147
1.5
172
     1
176
     3
177
     3
271
     2
178
     3
271
     2
272
     2
284
     8
340
70
  0
ENDTAB
  0
TABLE
  2
BLOCK_RECORD
  5
1
330
0
100
AcDbSymbolTable
 70
     6
  0
BLOCK_RECORD
  5
1F
330
1
100
AcDbSymbolTableRecord
100
AcDbBlockTableRecord
  2
*Model_Space
340
22
 70
     0
280
     1
281
     0
  0
BLOCK_RECORD
  5
1B
330
1
100
AcDbSymbolTableRecord
100
AcDbBlockTableRecord
  2
*Paper_Space
340
1E
 70
     0
280
     1
281
     0
  0
BLOCK_RECORD
  5
23
330
1
100
AcDbSymbolTableRecord
100
AcDbBlockTableRecord
  2
*Paper_Space0
340
26
 70
     0
280
     1
281
     0
  0
BLOCK_RECORD
  5
72
330
1
100
AcDbSymbolTableRecord
100
AcDbBlockTableRecord
  2
_CLOSED
340
0
 70
     0
280
     1
281
     0
  0
BLOCK_RECORD
  5
7B
330
1
100
AcDbSymbolTableRecord
100
AcDbBlockTableRecord
  2
a
340
0
102
{BLKREFS
331
E4
102
}
 70
     0
280
     1
281
     0
  0
BLOCK_RECORD
  5
E5
330
1
100
AcDbSymbolTableRecord
100
AcDbBlockTableRecord
  2
b
340
0
102
{BLKREFS
331
144
102
}
 70
     0
280
     1
281
     0
  0
BLOCK_RECORD
  5
145
330
1
100
AcDbSymbolTableRecord
100
AcDbBlockTableRecord
  2
c
340
0
102
{BLKREFS
331
1DB
102
}
 70
     0
280
     1
281
     0
  0
BLOCK_RECORD
  5
1DC
330
1
100
AcDbSymbolTableRecord
100
AcDbBlockTableRecord
  2
d
340
0
102
{BLKREFS
331
274
102
}
 70
     0
280
     1
281
     0
  0
ENDTAB
  0
ENDSEC
  0
SECTION
  2
BLOCKS
  0
BLOCK
  5
20
330
1F
100
AcDbEntity
  8
0
100
AcDbBlockBegin
  2
*Model_Space
 70
     0
 10
0.0
 20
0.0
 30
0.0
  3
*Model_Space
  1

  0
ENDBLK
  5
21
330
1F
100
AcDbEntity
  8
0
100
AcDbBlockEnd
  0
BLOCK
  5
1C
330
1B
100
AcDbEntity
 67
     1
  8
0
100
AcDbBlockBegin
  2
*Paper_Space
 70
     0
 10
0.0
 20
0.0
 30
0.0
  3
*Paper_Space
  1

  0
ENDBLK
  5
1D
330
1B
100
AcDbEntity
 67
     1
  8
0
100
AcDbBlockEnd
  0
BLOCK
  5
24
330
23
100
AcDbEntity
  8
0
100
AcDbBlockBegin
  2
*Paper_Space0
 70
     0
 10
0.0
 20
0.0
 30
0.0
  3
*Paper_Space0
  1

  0
ENDBLK
  5
25
330
23
100
AcDbEntity
  8
0
100
AcDbBlockEnd
  0
BLOCK
  5
73
330
72
100
AcDbEntity
  8
0
100
AcDbBlockBegin
  2
_CLOSED
 70
     0
 10
0.0
 20
0.0
 30
0.0
  3
_CLOSED
  1

  0
LINE
  5
75
330
72
100
AcDbEntity
  8
0
  6
ByBlock
 62
     0
370
    -2
100
AcDbLine
 10
-1.0
 20
0.166667
 30
0.0
 11
0.0
 21
0.0
 31
0.0
  0
LINE
  5
76
330
72
100
AcDbEntity
  8
0
  6
ByBlock
 62
     0
370
    -2
100
AcDbLine
 10
0.0
 20
0.0
 30
0.0
 11
-1.0
 21
-0.166667
 31
0.0
  0
LINE
  5
77
330
72
100
AcDbEntity
  8
0
  6
ByBlock
 62
     0
370
    -2
100
AcDbLine
 10
-1.0
 20
0.166667
 30
0.0
 11
-1.0
 21
-0.166667
 31
0.0
  0
LINE
  5
78
330
72
100
AcDbEntity
  8
0
  6
ByBlock
 62
     0
370
    -2
100
AcDbLine
 10
0.0
 20
0.0
 30
0.0
 11
-1.0
 21
0.0
 31
0.0
  0
ENDBLK
  5
74
330
72
100
AcDbEntity
  8
0
100
AcDbBlockEnd
  0
BLOCK
  5
E2
330
7B
100
AcDbEntity
  8
0
100
AcDbBlockBegin
  2
a
 70
     0
 10
432.873505
 20
194.302505
 30
0.0
  3
a
  1

  0
ARC
  5
7C
330
7B
100
AcDbEntity
  8
0
  6
Continuous
 62
     0
370
    30
100
AcDbCircle
 10
521.25372
 20
543.872663
 30
0.0
 40
59.99999999999999
100
AcDbArc
 50
270.0
 51
82.573394
  0
ARC
  5
7D
330
7B
100
AcDbEntity
  8
0
  6
Continuous
 62
     0
370
    30
100
AcDbCircle
 10
521.25372
 20
543.872663
 30
0.0
 40
60.0
100
AcDbArc
 50
97.426638
 51
270.0
  0
ARC
  5
7E
330
7B
100
AcDbEntity
  8
0
  6
Continuous
 62
     0
370
     0
100
AcDbCircle
 10
521.25372
 20
543.872663
 30
0.0
 40
59.49999999999999
100
AcDbArc
 50
95.589327
 51
270.0
  0
ARC
  5
7F
330
7B
100
AcDbEntity
  8
0
  6
Continuous
 62
     0
370
     0
100
AcDbCircle
 10
521.25372
 20
543.872663
 30
0.0
 40
59.49999999999999
100
AcDbArc
 50
270.0
 51
84.410655
  0
ARC
  5
80
330
7B
100
AcDbEntity
  8
0
  6
Continuous
 62
     0
370
    30
100
AcDbCircle
 10
521.25372
 20
543.872663
 30
0.0
 40
58.49999999999998
100
AcDbArc
 50
270.0
 51
90.0
  0
ARC
  5
81
330
7B
100
AcDbEntity
  8
0
  6
Continuous
 62
     0
370
    30
100
AcDbCircle
 10
521.25372
 20
543.872663
 30
0.0
 40
58.49999999999998
100
AcDbArc
 50
90.0
 51
270.0
  0
ARC
  5
82
330
7B
100
AcDbEntity
  8
0
  6
Continuous
 62
     0
370
     0
100
AcDbCircle
 10
521.25372
 20
543.872663
 30
0.0
 40
57.99999999999998
100
AcDbArc
 50
90.0
 51
270.0
  0
ARC
  5
83
330
7B
100
AcDbEntity
  8
0
  6
Continuous
 62
     0
370
     0
100
AcDbCircle
 10
521.25372
 20
543.872663
 30
0.0
 40
57.99999999999998
100
AcDbArc
 50
270.0
 51
90.0
  0
LINE
  5
84
330
7B
100
AcDbEntity
  8
0
  6
Continuous
 62
     0
370
    30
100
AcDbLine
 10
521.75372
 20
570.435581
 30
0.0
 11
518.30372
 21
570.435581
 31
0.0
  0
LINE
  5
85
330
7B
100
AcDbEntity
  8
0
  6
Continuous
 62
     0
370
    30
100
AcDbLine
 10
525.20372
 20
570.435581
 30
0.0
 11
521.75372
 21
570.435581
 31
0.0
  0
LINE
  5
86
330
7B
100
AcDbEntity
  8
0
  6
Continuous
 62
     0
370
    30
100
AcDbLine
 10
521.75372
 20
569.935581
 30
0.0
 11
517.80372
 21
569.935581
 31
0.0
  0
LINE
  5
87
330
7B
100
AcDbEntity
  8
0
  6
Continuous
 62
     0
370
    30
100
AcDbLine
 10
525.70372
 20
569.935581
 30
0.0
 11
521.75372
 21
569.935581
 31
0.0
  0
ARC
  5
88
330
7B
100
AcDbEntity
  8
0
  6
Continuous
 62
     0
370
    30
100
AcDbCircle
 10
521.25372
 20
543.872663
 30
0.0
 40
19.0
100
AcDbArc
 50
180.0
 51
360.0
  0
ARC
  5
89
330
7B
100
AcDbEntity
  8
0
  6
Continuous
 62
     0
370
    30
100
AcDbCircle
 10
521.25372
 20
543.872663
 30
0.0
 40
19.0
100
AcDbArc
 50
0.0
 51
180.0
  0
ARC
  5
8A
330
7B
100
AcDbEntity
  8
0
  6
Continuous
 62
     0
370
    30
100
AcDbCircle
 10
521.25372
 20
543.872663
 30
0.0
 40
19.5
100
AcDbArc
 50
360.0
 51
180.0
  0
ARC
  5
8B
330
7B
100
AcDbEntity
  8
0
  6
Continuous
 62
     0
370
    30
100
AcDbCircle
 10
521.25372
 20
543.872663
 30
0.0
 40
19.5
100
AcDbArc
 50
180.0
 51
360.0
  0
LINE
  5
8C
330
7B
100
AcDbEntity
  8
0
  6
Continuous
 62
     0
370
    30
100
AcDbLine
 10
525.70372
 20
569.935581
 30
0.0
 11
525.70372
 21
562.860261
 31
0.0
  0
LINE
  5
8D
330
7B
100
AcDbEntity
  8
0
  6
Continuous
 62
     0
370
    30
100
AcDbLine
 10
517.80372
 20
569.935581
 30
0.0
 11
517.80372
 21
563.067351
 31
0.0
  0
LINE
  5
8E
330
7B
100
AcDbEntity
  8
0
  6
Continuous
 62
     0
370
    30
100
AcDbLine
 10
525.70372
 20
569.935581
 30
0.0
 11
525.20372
 21
570.435581
 31
0.0
  0
LINE
  5
8F
330
7B
100
AcDbEntity
  8
0
  6
Continuous
 62
     0
370
    30
100
AcDbLine
 10
517.80372
 20
569.935581
 30
0.0
 11
518.30372
 21
570.435581
 31
0.0
  0
ARC
  5
90
330
7B
100
AcDbEntity
  8
0
  6
Continuous
 62
     0
370
     0
100
AcDbCircle
 10
521.253773
 20
673.872681
 30
0.0
 40
15.95216856748425
100
AcDbArc
 50
223.018108
 51
244.569959
  0
ARC
  5
91
330
7B
100
AcDbEntity
  8
0
  6
Continuous
 62
     0
370
     0
100
AcDbCircle
 10
521.253773
 20
673.872681
 30
0.0
 40
15.952168567484
100
AcDbArc
 50
295.430041
 51
43.018108
  0
ARC
  5
92
330
7B
100
AcDbEntity
  8
0
  6
Continuous
 62
     0
370
     0
100
AcDbCircle
 10
521.253773
 20
673.872681
 30
0.0
 40
15.95216856748401
100
AcDbArc
 50
43.018108
 51
223.018108
  0
ARC
  5
93
330
7B
100
AcDbEntity
  8
0
  6
Continuous
 62
     0
370
     0
100
AcDbCircle
 10
521.253773
 20
673.872681
 30
0.0
 40
27.07641015192067
100
AcDbArc
 50
223.018108
 51
257.197265
  0
ARC
  5
94
330
7B
100
AcDbEntity
  8
0
  6
Continuous
 62
     0
370
     0
100
AcDbCircle
 10
521.253773
 20
673.872681
 30
0.0
 40
27.07641015192038
100
AcDbArc
 50
282.802735
 51
43.018108
  0
ARC
  5
95
330
7B
100
AcDbEntity
  8
0
  6
Continuous
 62
     0
370
     0
100
AcDbCircle
 10
521.253773
 20
673.872681
 30
0.0
 40
27.07641015192043
100
AcDbArc
 50
43.018108
 51
223.018108
  0
ARC
  5
96
330
7B
100
AcDbEntity
  8
0
  6
Continuous
 62
     0
370
    30
100
AcDbCircle
 10
521.253773
 20
673.872681
 30
0.0
 40
27.50000060101103
100
AcDbArc
 50
223.018108
 51
257.397739
  0
ARC
  5
97
330
7B
100
AcDbEntity
  8
0
  6
Continuous
 62
     0
370
    30
100
AcDbCircle
 10
521.253773
 20
673.872681
 30
0.0
 40
27.50000060101103
100
AcDbArc
 50
282.602261
 51
43.018108
  0
ARC
  5
98
330
7B
100
AcDbEntity
  8
0
  6
Continuous
 62
     0
370
    30
100
AcDbCircle
 10
521.253773
 20
673.872681
 30
0.0
 40
27.50000060101103
100
AcDbArc
 50
43.018108
 51
223.018108
  0
LWPOLYLINE
  5
99
330
7B
100
AcDbEntity
  8
0
  6
Continuous
 62
     0
370
    30
100
AcDbPolyline
 90
       16
 70
     0
 43
0.0
 10
521.253784
 20
659.302734
 10
520.521118
 20
659.309448
 10
519.797058
 20
659.330017
 10
519.089966
 20
659.362915
 10
518.407349
 20
659.406433
 10
517.755676
 20
659.459717
 10
517.142761
 20
659.519409
 10
516.574646
 20
659.583618
 10
516.057434
 20
659.649109
 10
515.596619
 20
659.713257
 10
515.197449
 20
659.773254
 10
514.864197
 20
659.826477
 10
514.600586
 20
659.870544
 10
514.409546
 20
659.903687
 10
514.29364
 20
659.924194
 10
514.254395
 20
659.931152
  0
LWPOLYLINE
  5
9A
330
7B
100
AcDbEntity
  8
0
  6
Continuous
 62
     0
370
    30
100
AcDbPolyline
 90
       16
 70
     0
 43
0.0
 10
528.253174
 20
659.931152
 10
528.214905
 20
659.924377
 10
528.100098
 20
659.904053
 10
527.910095
 20
659.871094
 10
527.647461
 20
659.827148
 10
527.315125
 20
659.773987
 10
526.916687
 20
659.713989
 10
526.456604
 20
659.649902
 10
525.940063
 20
659.584351
 10
525.372803
 20
659.520264
 10
524.760498
 20
659.46051
 10
524.109253
 20
659.407104
 10
523.427002
 20
659.363464
 10
522.720154
 20
659.330322
 10
521.996338
 20
659.309631
 10
521.253784
 20
659.302734
  0
LWPOLYLINE
  5
9B
330
7B
100
AcDbEntity
  8
0
  6
Continuous
 62
     0
370
    30
100
AcDbPolyline
 90
       76
 70
     0
 43
0.0
 10
514.253845
 20
659.931335
 10
513.277893
 20
660.46582
 10
512.341919
 20
661.068848
 10
511.451508
 20
661.737122
 10
510.611176
 20
662.46698
 10
509.824982
 20
663.254761
 10
509.097015
 20
664.096558
 10
508.430969
 20
664.988342
 10
507.830078
 20
665.925354
 10
507.297424
 20
666.90271
 10
506.836029
 20
667.915649
 10
506.448029
 20
668.958923
 10
506.135254
 20
670.0271
 10
505.899475
 20
671.114929
 10
505.741943
 20
672.216797
 10
505.66333
 20
673.327026
 10
505.664154
 20
674.440125
 10
505.744324
 20
675.550293
 10
505.903351
 20
676.651917
 10
506.140656
 20
677.73938
 10
506.454865
 20
678.80719
 10
506.844299
 20
679.849915
 10
507.30722
 20
680.862122
 10
507.841095
 20
681.838806
 10
508.443237
 20
682.774902
 10
509.110657
 20
683.665649
 10
509.839874
 20
684.506653
 10
510.627136
 20
685.293457
 10
511.468567
 20
686.022095
 10
512.359802
 20
686.688904
 10
513.296265
 20
687.290466
 10
514.273315
 20
687.823669
 10
515.285828
 20
688.28595
 10
516.328735
 20
688.674805
 10
517.396729
 20
688.988281
 10
518.484375
 20
689.224915
 10
519.586121
 20
689.38324
 10
520.69635
 20
689.462646
 10
521.809387
 20
689.462769
 10
522.919617
 20
689.383423
 10
524.021362
 20
689.225159
 10
525.10907
 20
688.98877
 10
526.177063
 20
688.675354
 10
527.220032
 20
688.286682
 10
528.232666
 20
687.824524
 10
529.209717
 20
687.291321
 10
530.146301
 20
686.689941
 10
531.037598
 20
686.023254
 10
531.878967
 20
685.294617
 10
532.666443
 20
684.507935
 10
533.395813
 20
683.667114
 10
534.063293
 20
682.776428
 10
534.665588
 20
681.840393
 10
535.199463
 20
680.863708
 10
535.662354
 20
679.851501
 10
536.052063
 20
678.808899
 10
536.366516
 20
677.741211
 10
536.603943
 20
676.653748
 10
536.763062
 20
675.552124
 10
536.84314
 20
674.441956
 10
536.844055
 20
673.328857
 10
536.765808
 20
672.218567
 10
536.608398
 20
671.116699
 10
536.372803
 20
670.02887
 10
536.060242
 20
668.960632
 10
535.672241
 20
667.917358
 10
535.210938
 20
666.904358
 10
534.678528
 20
665.92688
 10
534.07782
 20
664.989868
 10
533.411743
 20
664.098083
 10
532.683838
 20
663.256042
 10
531.897705
 20
662.468018
 10
531.057434
 20
661.738098
 10
530.167236
 20
661.069946
 10
529.231567
 20
660.467163
 10
528.253723
 20
659.931335
  0
LINE
  5
9C
330
7B
100
AcDbEntity
  8
0
  6
Continuous
 62
     0
370
     0
100
AcDbLine
 10
520.929351
 20
603.830472
 30
0.0
 11
531.433264
 21
603.830472
 31
0.0
  0
LINE
  5
9D
330
7B
100
AcDbEntity
  8
0
  6
Continuous
 62
     0
370
     0
100
AcDbLine
 10
511.074282
 20
603.830472
 30
0.0
 11
520.929351
 21
603.830472
 31
0.0
  0
LINE
  5
9E
330
7B
100
AcDbEntity
  8
0
  6
Continuous
 62
     0
370
     0
100
AcDbLine
 10
520.923073
 20
604.074786
 30
0.0
 11
531.630246
 21
604.074786
 31
0.0
  0
LINE
  5
9F
330
7B
100
AcDbEntity
  8
0
  6
Continuous
 62
     0
370
     0
100
AcDbLine
 10
510.8773
 20
604.074786
 30
0.0
 11
520.923073
 21
604.074786
 31
0.0
  0
LINE
  5
A0
330
7B
100
AcDbEntity
  8
0
  6
Continuous
 62
     0
370
     0
100
AcDbLine
 10
520.923073
 20
604.747818
 30
0.0
 11
510.8773
 21
604.747818
 31
0.0
  0
LINE
  5
A1
330
7B
100
AcDbEntity
  8
0
  6
Continuous
 62
     0
370
     0
100
AcDbLine
 10
531.630246
 20
604.747818
 30
0.0
 11
520.923073
 21
604.747818
 31
0.0
  0
LINE
  5
A2
330
7B
100
AcDbEntity
  8
0
  6
Continuous
 62
     0
370
     0
100
AcDbLine
 10
520.882965
 20
606.605275
 30
0.0
 11
532.888726
 21
606.605275
 31
0.0
  0
LINE
  5
A3
330
7B
100
AcDbEntity
  8
0
  6
Continuous
 62
     0
370
     0
100
AcDbLine
 10
509.618819
 20
606.605275
 30
0.0
 11
520.882965
 21
606.605275
 31
0.0
  0
LINE
  5
A4
330
7B
100
AcDbEntity
  8
0
  6
Continuous
 62
     0
370
     0
100
AcDbLine
 10
520.879718
 20
607.948464
 30
0.0
 11
532.990596
 21
607.948464
 31
0.0
  0
LINE
  5
A5
330
7B
100
AcDbEntity
  8
0
  6
Continuous
 62
     0
370
     0
100
AcDbLine
 10
509.51695
 20
607.948464
 30
0.0
 11
520.879718
 21
607.948464
 31
0.0
  0
LINE
  5
A6
330
7B
100
AcDbEntity
  8
0
  6
Continuous
 62
     0
370
     0
100
AcDbLine
 10
520.877169
 20
608.674073
 30
0.0
 11
533.070583
 21
608.674073
 31
0.0
  0
LINE
  5
A7
330
7B
100
AcDbEntity
  8
0
  6
Continuous
 62
     0
370
     0
100
AcDbLine
 10
509.436962
 20
608.674073
 30
0.0
 11
520.877169
 21
608.674073
 31
0.0
  0
LINE
  5
A8
330
7B
100
AcDbEntity
  8
0
  6
Continuous
 62
     0
370
     0
100
AcDbLine
 10
520.879773
 20
611.553354
 30
0.0
 11
532.988882
 21
611.553354
 31
0.0
  0
LINE
  5
A9
330
7B
100
AcDbEntity
  8
0
  6
Continuous
 62
     0
370
     0
100
AcDbLine
 10
509.518663
 20
611.553354
 30
0.0
 11
520.879773
 21
611.553354
 31
0.0
  0
LINE
  5
AA
330
7B
100
AcDbEntity
  8
0
  6
Continuous
 62
     0
370
     0
100
AcDbLine
 10
520.890947
 20
611.886303
 30
0.0
 11
532.63827
 21
611.886303
 31
0.0
  0
LINE
  5
AB
330
7B
100
AcDbEntity
  8
0
  6
Continuous
 62
     0
370
     0
100
AcDbLine
 10
509.869275
 20
611.886303
 30
0.0
 11
520.890947
 21
611.886303
 31
0.0
  0
LINE
  5
AC
330
7B
100
AcDbEntity
  8
0
  6
Continuous
 62
     0
370
     0
100
AcDbLine
 10
520.95886
 20
619.433083
 30
0.0
 11
530.507357
 21
619.433083
 31
0.0
  0
LINE
  5
AD
330
7B
100
AcDbEntity
  8
0
  6
Continuous
 62
     0
370
     0
100
AcDbLine
 10
512.000189
 20
619.433083
 30
0.0
 11
520.95886
 21
619.433083
 31
0.0
  0
LINE
  5
AE
330
7B
100
AcDbEntity
  8
0
  6
Continuous
 62
     0
370
     0
100
AcDbLine
 10
521.062552
 20
645.988759
 30
0.0
 11
527.253771
 21
645.988759
 31
0.0
  0
LINE
  5
AF
330
7B
100
AcDbEntity
  8
0
  6
Continuous
 62
     0
370
     0
100
AcDbLine
 10
515.253774
 20
645.988759
 30
0.0
 11
521.062552
 21
645.988759
 31
0.0
  0
LINE
  5
B0
330
7B
100
AcDbEntity
  8
0
  6
Continuous
 62
     0
370
     0
100
AcDbLine
 10
521.062552
 20
656.994257
 30
0.0
 11
515.253774
 21
656.994257
 31
0.0
  0
LINE
  5
B1
330
7B
100
AcDbEntity
  8
0
  6
Continuous
 62
     0
370
     0
100
AcDbLine
 10
527.253771
 20
656.994257
 30
0.0
 11
521.062552
 21
656.994257
 31
0.0
  0
LINE
  5
B2
330
7B
100
AcDbEntity
  8
0
  6
Continuous
 62
     0
370
     0
100
AcDbLine
 10
521.053217
 20
657.701363
 30
0.0
 11
527.546666
 21
657.701363
 31
0.0
  0
LINE
  5
B3
330
7B
100
AcDbEntity
  8
0
  6
Continuous
 62
     0
370
     0
100
AcDbLine
 10
514.96088
 20
657.701363
 30
0.0
 11
521.053217
 21
657.701363
 31
0.0
  0
LINE
  5
B4
330
7B
100
AcDbEntity
  8
0
  6
Continuous
 62
     0
370
     0
100
AcDbLine
 10
521.044797
 20
657.965577
 30
0.0
 11
527.81088
 21
657.965577
 31
0.0
  0
LINE
  5
B5
330
7B
100
AcDbEntity
  8
0
  6
Continuous
 62
     0
370
     0
100
AcDbLine
 10
514.696666
 20
657.965577
 30
0.0
 11
521.044797
 21
657.965577
 31
0.0
  0
LINE
  5
B6
330
7B
100
AcDbEntity
  8
0
  6
Continuous
 62
     0
370
     0
100
AcDbLine
 10
521.035462
 20
658.672684
 30
0.0
 11
528.103773
 21
658.672684
 31
0.0
  0
LINE
  5
B7
330
7B
100
AcDbEntity
  8
0
  6
Continuous
 62
     0
370
     0
100
AcDbLine
 10
514.403773
 20
658.672684
 30
0.0
 11
521.035462
 21
658.672684
 31
0.0
  0
LINE
  5
B8
330
7B
100
AcDbEntity
  8
0
  6
Continuous
 62
     0
370
    30
100
AcDbLine
 10
514.403773
 20
659.904709
 30
0.0
 11
514.403773
 21
658.672684
 31
0.0
  0
LINE
  5
B9
330
7B
100
AcDbEntity
  8
0
  6
Continuous
 62
     0
370
    30
100
AcDbLine
 10
528.103773
 20
659.904704
 30
0.0
 11
528.103773
 21
658.672684
 31
0.0
  0
ARC
  5
BA
330
7B
100
AcDbEntity
  8
0
  6
Continuous
 62
     0
370
    30
100
AcDbCircle
 10
515.403644
 20
658.672631
 30
0.0
 40
0.9998715780282219
100
AcDbArc
 50
179.996952
 51
225.003048
  0
ARC
  5
BB
330
7B
100
AcDbEntity
  8
0
  6
Continuous
 62
     0
370
    30
100
AcDbCircle
 10
527.103901
 20
658.672631
 30
0.0
 40
0.9998715780242653
100
AcDbArc
 50
314.996952
 51
0.003048
  0
LINE
  5
BC
330
7B
100
AcDbEntity
  8
0
  6
Continuous
 62
     0
370
    30
100
AcDbLine
 10
527.546666
 20
657.701363
 30
0.0
 11
527.81088
 21
657.965577
 31
0.0
  0
LINE
  5
BD
330
7B
100
AcDbEntity
  8
0
  6
Continuous
 62
     0
370
    30
100
AcDbLine
 10
514.696666
 20
657.965577
 30
0.0
 11
514.96088
 21
657.701363
 31
0.0
  0
ARC
  5
BE
330
7B
100
AcDbEntity
  8
0
  6
Continuous
 62
     0
370
    30
100
AcDbCircle
 10
514.253901
 20
656.99431
 30
0.0
 40
0.9998715780323253
100
AcDbArc
 50
359.996952
 51
45.003048
  0
ARC
  5
BF
330
7B
100
AcDbEntity
  8
0
  6
Continuous
 62
     0
370
    30
100
AcDbCircle
 10
528.253644
 20
656.99431
 30
0.0
 40
0.9998715780308298
100
AcDbArc
 50
134.996952
 51
180.003048
  0
LINE
  5
C0
330
7B
100
AcDbEntity
  8
0
  6
Continuous
 62
     0
370
    30
100
AcDbLine
 10
515.253774
 20
656.994257
 30
0.0
 11
515.253774
 21
645.988759
 31
0.0
  0
LINE
  5
C1
330
7B
100
AcDbEntity
  8
0
  6
Continuous
 62
     0
370
    30
100
AcDbLine
 10
527.253771
 20
656.994257
 30
0.0
 11
527.253771
 21
645.988759
 31
0.0
  0
ARC
  5
C2
330
7B
100
AcDbEntity
  8
0
  6
Continuous
 62
     0
370
    30
100
AcDbCircle
 10
405.253646
 20
645.988758
 30
0.0
 40
110.0001280075775
100
AcDbArc
 50
346.029933
 51
0.0
  0
ARC
  5
C3
330
7B
100
AcDbEntity
  8
0
  6
Continuous
 62
     0
370
    30
100
AcDbCircle
 10
637.253899
 20
645.988758
 30
0.0
 40
110.0001280075774
100
AcDbArc
 50
180.0
 51
193.970067
  0
ARC
  5
C4
330
7B
100
AcDbEntity
  8
0
  6
Continuous
 62
     0
370
    30
100
AcDbCircle
 10
651.810433
 20
649.610063
 30
0.0
 40
125.0003455152619
100
AcDbArc
 50
193.97008
 51
197.565101
  0
ARC
  5
C5
330
7B
100
AcDbEntity
  8
0
  6
Continuous
 62
     0
370
    30
100
AcDbCircle
 10
390.697112
 20
649.610063
 30
0.0
 40
125.0003455152779
100
AcDbArc
 50
342.434899
 51
346.02992
  0
ARC
  5
C6
330
7B
100
AcDbEntity
  8
0
  6
Continuous
 62
     0
370
    30
100
AcDbCircle
 10
509.392634
 20
612.037149
 30
0.0
 40
0.4999412031795201
100
AcDbArc
 50
284.601092
 51
342.438616
  0
ARC
  5
C7
330
7B
100
AcDbEntity
  8
0
  6
Continuous
 62
     0
370
    30
100
AcDbCircle
 10
533.114911
 20
612.037149
 30
0.0
 40
0.4999412031823715
100
AcDbArc
 50
197.561384
 51
255.398908
  0
ARC
  5
C8
330
7B
100
AcDbEntity
  8
0
  6
Continuous
 62
     0
370
    30
100
AcDbCircle
 10
532.610646
 20
610.101822
 30
0.0
 40
1.500002810725772
100
AcDbArc
 50
287.855892
 51
75.394817
  0
ARC
  5
C9
330
7B
100
AcDbEntity
  8
0
  6
Continuous
 62
     0
370
    30
100
AcDbCircle
 10
509.896899
 20
610.101822
 30
0.0
 40
1.500002810725887
100
AcDbArc
 50
104.605183
 51
252.144108
  0
ARC
  5
CA
330
7B
100
AcDbEntity
  8
0
  6
Continuous
 62
     0
370
    30
100
AcDbCircle
 10
509.314306
 20
608.293339
 30
0.0
 40
0.4000036523819511
100
AcDbArc
 50
300.437858
 51
72.14331
  0
ARC
  5
CB
330
7B
100
AcDbEntity
  8
0
  6
Continuous
 62
     0
370
    30
100
AcDbCircle
 10
533.193239
 20
608.293339
 30
0.0
 40
0.4000036523811007
100
AcDbArc
 50
107.85669
 51
239.562142
  0
ARC
  5
CC
330
7B
100
AcDbEntity
  8
0
  6
Continuous
 62
     0
370
    30
100
AcDbCircle
 10
532.610648
 20
607.301823
 30
0.0
 40
0.7500036586307146
100
AcDbArc
 50
291.763051
 51
59.562739
  0
ARC
  5
CD
330
7B
100
AcDbEntity
  8
0
  6
Continuous
 62
     0
370
    30
100
AcDbCircle
 10
509.896897
 20
607.301823
 30
0.0
 40
0.750003658630729
100
AcDbArc
 50
120.437261
 51
248.236949
  0
ARC
  5
CE
330
7B
100
AcDbEntity
  8
0
  6
Continuous
 62
     0
370
    30
100
AcDbCircle
 10
508.877246
 20
604.747781
 30
0.0
 40
2.000053853852806
100
AcDbArc
 50
0.001045
 51
68.236474
  0
ARC
  5
CF
330
7B
100
AcDbEntity
  8
0
  6
Continuous
 62
     0
370
    30
100
AcDbCircle
 10
533.6303
 20
604.747781
 30
0.0
 40
2.000053853852879
100
AcDbArc
 50
111.763526
 51
179.998955
  0
LINE
  5
D0
330
7B
100
AcDbEntity
  8
0
  6
Continuous
 62
     0
370
    30
100
AcDbLine
 10
510.8773
 20
604.747818
 30
0.0
 11
510.8773
 21
604.074786
 31
0.0
  0
LINE
  5
D1
330
7B
100
AcDbEntity
  8
0
  6
Continuous
 62
     0
370
    30
100
AcDbLine
 10
531.630246
 20
604.747818
 30
0.0
 11
531.630246
 21
604.074786
 31
0.0
  0
ARC
  5
D2
330
7B
100
AcDbEntity
  8
0
  6
Continuous
 62
     0
370
    30
100
AcDbCircle
 10
511.127275
 20
604.074766
 30
0.0
 40
0.2499749389011663
100
AcDbArc
 50
179.995369
 51
257.760784
  0
ARC
  5
D3
330
7B
100
AcDbEntity
  8
0
  6
Continuous
 62
     0
370
    30
100
AcDbCircle
 10
531.380271
 20
604.074766
 30
0.0
 40
0.2499749388990973
100
AcDbArc
 50
282.239216
 51
0.004631
  0
ARC
  5
D4
330
7B
100
AcDbEntity
  8
0
  6
Continuous
 62
     0
370
    30
100
AcDbCircle
 10
521.253684
 20
650.73783
 30
0.0
 40
47.99917129946407
100
AcDbArc
 50
257.756047
 51
270.000106
  0
ARC
  5
D5
330
7B
100
AcDbEntity
  8
0
  6
Continuous
 62
     0
370
    30
100
AcDbCircle
 10
521.253862
 20
650.73783
 30
0.0
 40
47.99917121362602
100
AcDbArc
 50
270.001116
 51
282.243953
  0
ARC
  5
D6
330
7B
100
AcDbEntity
  8
0
  6
Continuous
 62
     0
370
     0
100
AcDbCircle
 10
521.253773
 20
673.872681
 30
0.0
 40
10.11053415505077
100
AcDbArc
 50
232.825955
 51
52.825955
  0
ARC
  5
D7
330
7B
100
AcDbEntity
  8
0
  6
Continuous
 62
     0
370
     0
100
AcDbCircle
 10
521.253773
 20
673.872681
 30
0.0
 40
10.11053415505076
100
AcDbArc
 50
52.825955
 51
232.825955
  0
ARC
  5
D8
330
7B
100
AcDbEntity
  8
0
  6
Continuous
 62
     0
370
     0
100
AcDbCircle
 10
521.253773
 20
673.872681
 30
0.0
 40
10.90630696374649
100
AcDbArc
 50
52.825955
 51
232.825955
  0
ARC
  5
D9
330
7B
100
AcDbEntity
  8
0
  6
Continuous
 62
     0
370
     0
100
AcDbCircle
 10
521.253773
 20
673.872681
 30
0.0
 40
10.90630696374649
100
AcDbArc
 50
232.825955
 51
52.825955
  0
ARC
  5
DA
330
7B
100
AcDbEntity
  8
0
  6
Continuous
 62
     0
370
     0
100
AcDbCircle
 10
521.253773
 20
673.872681
 30
0.0
 40
14.21771363397433
100
AcDbArc
 50
52.825955
 51
232.825955
  0
ARC
  5
DB
330
7B
100
AcDbEntity
  8
0
  6
Continuous
 62
     0
370
     0
100
AcDbCircle
 10
521.253773
 20
673.872681
 30
0.0
 40
14.21771363397433
100
AcDbArc
 50
232.825955
 51
52.825955
  0
ARC
  5
DC
330
7B
100
AcDbEntity
  8
0
  6
Continuous
 62
     0
370
     0
100
AcDbCircle
 10
521.253773
 20
673.872681
 30
0.0
 40
14.38406667226269
100
AcDbArc
 50
52.825955
 51
232.825955
  0
ARC
  5
DD
330
7B
100
AcDbEntity
  8
0
  6
Continuous
 62
     0
370
     0
100
AcDbCircle
 10
521.253773
 20
673.872681
 30
0.0
 40
14.38406667226269
100
AcDbArc
 50
232.825955
 51
52.825955
  0
ARC
  5
DE
330
7B
100
AcDbEntity
  8
0
  6
Continuous
 62
     0
370
     0
100
AcDbCircle
 10
521.253773
 20
673.872681
 30
0.0
 40
14.47242470473681
100
AcDbArc
 50
52.825955
 51
232.825955
  0
ARC
  5
DF
330
7B
100
AcDbEntity
  8
0
  6
Continuous
 62
     0
370
     0
100
AcDbCircle
 10
521.253773
 20
673.872681
 30
0.0
 40
14.47242470473677
100
AcDbArc
 50
232.825955
 51
52.825955
  0
ARC
  5
E0
330
7B
100
AcDbEntity
  8
0
  6
Continuous
 62
     0
370
     0
100
AcDbCircle
 10
521.253773
 20
673.872681
 30
0.0
 40
9.35000000149012
100
AcDbArc
 50
322.825955
 51
142.825955
  0
ARC
  5
E1
330
7B
100
AcDbEntity
  8
0
  6
Continuous
 62
     0
370
     0
100
AcDbCircle
 10
521.253773
 20
673.872681
 30
0.0
 40
9.35000000149012
100
AcDbArc
 50
142.825955
 51
322.825955
  0
ENDBLK
  5
E3
330
7B
100
AcDbEntity
  8
0
100
AcDbBlockEnd
  0
BLOCK
  5
142
330
E5
100
AcDbEntity
  8
0
100
AcDbBlockBegin
  2
b
 70
     0
 10
432.873505
 20
314.159256
 30
0.0
  3
b
  1

  0
ARC
  5
E6
330
E5
100
AcDbEntity
  8
0
  6
Continuous
 62
     0
370
    30
100
AcDbCircle
 10
521.253455
 20
326.48486
 30
0.0
 40
15.00082585648002
100
AcDbArc
 50
270.005192
 51
306.227456
  0
ARC
  5
E7
330
E5
100
AcDbEntity
  8
0
  6
Continuous
 62
     0
370
    30
100
AcDbCircle
 10
521.25409
 20
326.48486
 30
0.0
 40
15.00082585653312
100
AcDbArc
 50
233.772544
 51
269.994808
  0
LINE
  5
E8
330
E5
100
AcDbEntity
  8
0
  6
Continuous
 62
     0
370
     0
100
AcDbLine
 10
548.753773
 20
379.433968
 30
0.0
 11
581.25372
 21
379.433971
 31
0.0
  0
LINE
  5
E9
330
E5
100
AcDbEntity
  8
0
  6
Continuous
 62
     0
370
     0
100
AcDbLine
 10
461.25372
 20
379.433971
 30
0.0
 11
493.753772
 21
379.433968
 31
0.0
  0
LINE
  5
EA
330
E5
100
AcDbEntity
  8
0
  6
Continuous
 62
     0
370
    30
100
AcDbLine
 10
521.253724
 20
387.433968
 30
0.0
 11
461.25372
 21
387.433971
 31
0.0
  0
LINE
  5
EB
330
E5
100
AcDbEntity
  8
0
  6
Continuous
 62
     0
370
    30
100
AcDbLine
 10
581.25372
 20
387.433971
 30
0.0
 11
521.253724
 21
387.433968
 31
0.0
  0
LINE
  5
EC
330
E5
100
AcDbEntity
  8
0
  6
Continuous
 62
     0
370
    30
100
AcDbLine
 10
461.75372
 20
378.933971
 30
0.0
 11
493.753772
 21
378.933969
 31
0.0
  0
LINE
  5
ED
330
E5
100
AcDbEntity
  8
0
  6
Continuous
 62
     0
370
    30
100
AcDbLine
 10
548.753773
 20
378.933969
 30
0.0
 11
580.75372
 21
378.933971
 31
0.0
  0
LINE
  5
EE
330
E5
100
AcDbEntity
  8
0
  6
Continuous
 62
     0
370
     0
100
AcDbLine
 10
548.753773
 20
377.933969
 30
0.0
 11
579.75372
 21
377.933971
 31
0.0
  0
LINE
  5
EF
330
E5
100
AcDbEntity
  8
0
  6
Continuous
 62
     0
370
     0
100
AcDbLine
 10
462.75372
 20
377.933971
 30
0.0
 11
493.753772
 21
377.933969
 31
0.0
  0
LINE
  5
F0
330
E5
100
AcDbEntity
  8
0
  6
Continuous
 62
     0
370
    30
100
AcDbLine
 10
463.25372
 20
377.433971
 30
0.0
 11
493.753772
 21
377.433969
 31
0.0
  0
LINE
  5
F1
330
E5
100
AcDbEntity
  8
0
  6
Continuous
 62
     0
370
    30
100
AcDbLine
 10
548.753773
 20
377.433969
 30
0.0
 11
579.25372
 21
377.433971
 31
0.0
  0
ARC
  5
F2
330
E5
100
AcDbEntity
  8
0
  6
Continuous
 62
     0
370
    30
100
AcDbCircle
 10
463.253735
 20
377.933986
 30
0.0
 40
0.5000149691649
100
AcDbArc
 50
180.001715
 51
269.990182
  0
ARC
  5
F3
330
E5
100
AcDbEntity
  8
0
  6
Continuous
 62
     0
370
    30
100
AcDbCircle
 10
579.253705
 20
377.933986
 30
0.0
 40
0.5000150271666707
100
AcDbArc
 50
270.001722
 51
359.998278
  0
ARC
  5
F4
330
E5
100
AcDbEntity
  8
0
  6
Continuous
 62
     0
370
    30
100
AcDbCircle
 10
580.753724
 20
377.933967
 30
0.0
 40
1.000003411690422
100
AcDbArc
 50
90.000195
 51
179.999805
  0
ARC
  5
F5
330
E5
100
AcDbEntity
  8
0
  6
Continuous
 62
     0
370
    30
100
AcDbCircle
 10
461.753717
 20
377.933967
 30
0.0
 40
1.00000341169038
100
AcDbArc
 50
0.000195
 51
89.999805
  0
ARC
  5
F6
330
E5
100
AcDbEntity
  8
0
  6
Continuous
 62
     0
370
    30
100
AcDbCircle
 10
461.753735
 20
379.433986
 30
0.0
 40
0.5000149691640969
100
AcDbArc
 50
180.001715
 51
269.990182
  0
ARC
  5
F7
330
E5
100
AcDbEntity
  8
0
  6
Continuous
 62
     0
370
    30
100
AcDbCircle
 10
580.753705
 20
379.433986
 30
0.0
 40
0.500015027164976
100
AcDbArc
 50
270.001722
 51
359.998278
  0
LINE
  5
F8
330
E5
100
AcDbEntity
  8
0
  6
Continuous
 62
     0
370
    30
100
AcDbLine
 10
581.25372
 20
379.433971
 30
0.0
 11
581.25372
 21
387.433971
 31
0.0
  0
LINE
  5
F9
330
E5
100
AcDbEntity
  8
0
  6
Continuous
 62
     0
370
    30
100
AcDbLine
 10
461.25372
 20
379.433971
 30
0.0
 11
461.25372
 21
387.433971
 31
0.0
  0
LINE
  5
FA
330
E5
100
AcDbEntity
  8
0
  6
Continuous
 62
     0
370
    30
100
AcDbLine
 10
530.253773
 20
338.880494
 30
0.0
 11
540.25372
 21
338.880494
 31
0.0
  0
LINE
  5
FB
330
E5
100
AcDbEntity
  8
0
  6
Continuous
 62
     0
370
    30
100
AcDbLine
 10
502.25372
 20
338.880494
 30
0.0
 11
512.253773
 21
338.880494
 31
0.0
  0
LINE
  5
FC
330
E5
100
AcDbEntity
  8
0
  6
Continuous
 62
     0
370
    30
100
AcDbLine
 10
540.25372
 20
338.880494
 30
0.0
 11
540.75372
 21
339.380494
 31
0.0
  0
LINE
  5
FD
330
E5
100
AcDbEntity
  8
0
  6
Continuous
 62
     0
370
    30
100
AcDbLine
 10
512.253773
 20
339.380494
 30
0.0
 11
501.75372
 21
339.380494
 31
0.0
  0
LINE
  5
FE
330
E5
100
AcDbEntity
  8
0
  6
Continuous
 62
     0
370
    30
100
AcDbLine
 10
540.75372
 20
339.380494
 30
0.0
 11
530.253773
 21
339.380494
 31
0.0
  0
LINE
  5
FF
330
E5
100
AcDbEntity
  8
0
  6
Continuous
 62
     0
370
    30
100
AcDbLine
 10
540.75372
 20
339.380494
 30
0.0
 11
540.75372
 21
372.854186
 31
0.0
  0
LINE
  5
100
330
E5
100
AcDbEntity
  8
0
  6
Continuous
 62
     0
370
    30
100
AcDbLine
 10
501.75372
 20
372.854292
 30
0.0
 11
501.75372
 21
339.380494
 31
0.0
  0
LINE
  5
101
330
E5
100
AcDbEntity
  8
0
  6
Continuous
 62
     0
370
    30
100
AcDbLine
 10
502.25372
 20
338.880494
 30
0.0
 11
501.75372
 21
339.380494
 31
0.0
  0
LINE
  5
102
330
E5
100
AcDbEntity
  8
0
  6
Continuous
 62
     0
370
    30
100
AcDbLine
 10
528.977324
 20
342.733984
 30
0.0
 11
531.81751
 21
342.733984
 31
0.0
  0
LWPOLYLINE
  5
103
330
E5
100
AcDbEntity
  8
0
  6
Continuous
 62
     0
370
    30
100
AcDbPolyline
 90
       30
 70
     0
 43
0.0
 10
510.690033
 20
342.733978
 10
510.729858
 20
342.733978
 10
510.848694
 20
342.733978
 10
511.04422
 20
342.733978
 10
511.312469
 20
342.733978
 10
511.648132
 20
342.733978
 10
512.044617
 20
342.733978
 10
512.494507
 20
342.733978
 10
512.98999
 20
342.733978
 10
513.522766
 20
342.733978
 10
514.085022
 20
342.733978
 10
514.690063
 20
342.733978
 10
515.351257
 20
342.733978
 10
516.066345
 20
342.733978
 10
516.831726
 20
342.733978
 10
517.642334
 20
342.733978
 10
518.491638
 20
342.733978
 10
519.371826
 20
342.733978
 10
520.274109
 20
342.733978
 10
521.188721
 20
342.733978
 10
522.105408
 20
342.733978
 10
523.013855
 20
342.733978
 10
523.903992
 20
342.733978
 10
524.766418
 20
342.733978
 10
525.592651
 20
342.733978
 10
526.375366
 20
342.733978
 10
527.108704
 20
342.733978
 10
527.788147
 20
342.733978
 10
528.410706
 20
342.733978
 10
528.977295
 20
342.733978
  0
LINE
  5
104
330
E5
100
AcDbEntity
  8
0
  6
Continuous
 62
     0
370
     0
100
AcDbLine
 10
527.834016
 20
341.233984
 30
0.0
 11
512.253773
 21
341.233984
 31
0.0
  0
LINE
  5
105
330
E5
100
AcDbEntity
  8
0
  6
Continuous
 62
     0
370
     0
100
AcDbLine
 10
530.253773
 20
341.233984
 30
0.0
 11
527.834016
 21
341.233984
 31
0.0
  0
LINE
  5
106
330
E5
100
AcDbEntity
  8
0
  6
Continuous
 62
     0
370
     0
100
AcDbLine
 10
532.917011
 20
366.84817
 30
0.0
 11
537.205941
 21
366.848171
 31
0.0
  0
LINE
  5
107
330
E5
100
AcDbEntity
  8
0
  6
Continuous
 62
     0
370
     0
100
AcDbLine
 10
505.301604
 20
366.848171
 30
0.0
 11
532.917011
 21
366.84817
 31
0.0
  0
LINE
  5
108
330
E5
100
AcDbEntity
  8
0
  6
Continuous
 62
     0
370
     0
100
AcDbLine
 10
529.339788
 20
343.168959
 30
0.0
 11
510.194282
 21
343.168959
 31
0.0
  0
LWPOLYLINE
  5
109
330
E5
100
AcDbEntity
  8
0
  6
Continuous
 62
     0
370
     0
100
AcDbPolyline
 90
       11
 70
     0
 43
0.0
 10
532.313293
 20
343.168945
 10
532.279114
 20
343.168945
 10
532.177429
 20
343.168945
 10
532.010376
 20
343.168945
 10
531.781128
 20
343.168945
 10
531.493958
 20
343.168945
 10
531.15387
 20
343.168945
 10
530.766479
 20
343.168945
 10
530.337769
 20
343.168945
 10
529.873901
 20
343.168945
 10
529.339783
 20
343.168945
  0
LINE
  5
10A
330
E5
100
AcDbEntity
  8
0
  6
Continuous
 62
     0
370
     0
100
AcDbLine
 10
541.050368
 20
376.67521
 30
0.0
 11
548.330183
 21
376.675211
 31
0.0
  0
LINE
  5
10B
330
E5
100
AcDbEntity
  8
0
  6
Continuous
 62
     0
370
     0
100
AcDbLine
 10
494.177363
 20
376.675211
 30
0.0
 11
541.050368
 21
376.67521
 31
0.0
  0
LINE
  5
10C
330
E5
100
AcDbEntity
  8
0
  6
Continuous
 62
     0
370
     0
100
AcDbLine
 10
541.360071
 20
377.169338
 30
0.0
 11
548.753773
 21
377.169338
 31
0.0
  0
LINE
  5
10D
330
E5
100
AcDbEntity
  8
0
  6
Continuous
 62
     0
370
     0
100
AcDbLine
 10
493.753772
 20
377.169338
 30
0.0
 11
541.360071
 21
377.169338
 31
0.0
  0
LINE
  5
10E
330
E5
100
AcDbEntity
  8
0
  6
Continuous
 62
     0
370
    30
100
AcDbLine
 10
541.360071
 20
383.733984
 30
0.0
 11
493.753772
 21
383.733984
 31
0.0
  0
LINE
  5
10F
330
E5
100
AcDbEntity
  8
0
  6
Continuous
 62
     0
370
    30
100
AcDbLine
 10
548.753773
 20
383.733984
 30
0.0
 11
541.360071
 21
383.733984
 31
0.0
  0
ARC
  5
110
330
E5
100
AcDbEntity
  8
0
  6
Continuous
 62
     0
370
    30
100
AcDbCircle
 10
548.253738
 20
377.169343
 30
0.0
 40
0.5000052435313653
100
AcDbArc
 50
278.799709
 51
359.999493
  0
ARC
  5
111
330
E5
100
AcDbEntity
  8
0
  6
Continuous
 62
     0
370
    30
100
AcDbCircle
 10
494.253814
 20
377.169343
 30
0.0
 40
0.500005304112877
100
AcDbArc
 50
180.000511
 51
261.20239
  0
LINE
  5
112
330
E5
100
AcDbEntity
  8
0
  6
Continuous
 62
     0
370
    30
100
AcDbLine
 10
493.753772
 20
383.733984
 30
0.0
 11
493.753772
 21
377.169338
 31
0.0
  0
LINE
  5
113
330
E5
100
AcDbEntity
  8
0
  6
Continuous
 62
     0
370
    30
100
AcDbLine
 10
548.753773
 20
383.733984
 30
0.0
 11
548.753773
 21
377.169338
 31
0.0
  0
ARC
  5
114
330
E5
100
AcDbEntity
  8
0
  6
Continuous
 62
     0
370
    30
100
AcDbCircle
 10
550.431447
 20
363.086715
 30
0.0
 40
13.75000183792435
100
AcDbArc
 50
98.790338
 51
164.123759
  0
ARC
  5
115
330
E5
100
AcDbEntity
  8
0
  6
Continuous
 62
     0
370
    30
100
AcDbCircle
 10
492.076098
 20
363.086715
 30
0.0
 40
13.75000183792443
100
AcDbArc
 50
15.876241
 51
81.209662
  0
ARC
  5
116
330
E5
100
AcDbEntity
  8
0
  6
Continuous
 62
     0
370
    30
100
AcDbCircle
 10
510.690056
 20
343.23399
 30
0.0
 40
0.5000061658446885
100
AcDbArc
 50
187.473098
 51
269.999305
  0
ARC
  5
117
330
E5
100
AcDbEntity
  8
0
  6
Continuous
 62
     0
370
    30
100
AcDbCircle
 10
531.817493
 20
343.233989
 30
0.0
 40
0.5000051083319441
100
AcDbArc
 50
270.012034
 51
352.527009
  0
ARC
  5
118
330
E5
100
AcDbEntity
  8
0
  6
Continuous
 62
     0
370
    30
100
AcDbCircle
 10
695.911214
 20
321.710881
 30
0.0
 40
164.9992078060759
100
AcDbArc
 50
164.123744
 51
172.527542
  0
ARC
  5
119
330
E5
100
AcDbEntity
  8
0
  6
Continuous
 62
     0
370
    30
100
AcDbCircle
 10
346.596331
 20
321.710881
 30
0.0
 40
164.9992078060768
100
AcDbArc
 50
7.472458
 51
15.876256
  0
ARC
  5
11A
330
E5
100
AcDbEntity
  8
0
  6
Continuous
 62
     0
370
    30
100
AcDbCircle
 10
510.753705
 20
341.233916
 30
0.0
 40
1.500067575882925
100
AcDbArc
 50
0.002581
 51
89.997419
  0
ARC
  5
11B
330
E5
100
AcDbEntity
  8
0
  6
Continuous
 62
     0
370
    30
100
AcDbCircle
 10
531.75384
 20
341.233916
 30
0.0
 40
1.500067575882987
100
AcDbArc
 50
90.002581
 51
179.997419
  0
LINE
  5
11C
330
E5
100
AcDbEntity
  8
0
  6
Continuous
 62
     0
370
    30
100
AcDbLine
 10
512.253773
 20
341.233984
 30
0.0
 11
512.253773
 21
337.842891
 31
0.0
  0
LINE
  5
11D
330
E5
100
AcDbEntity
  8
0
  6
Continuous
 62
     0
370
    30
100
AcDbLine
 10
530.253773
 20
341.233984
 30
0.0
 11
530.253773
 21
337.842891
 31
0.0
  0
LINE
  5
11E
330
E5
100
AcDbEntity
  8
0
  6
Continuous
 62
     0
370
    30
100
AcDbLine
 10
535.238594
 20
321.034033
 30
0.0
 11
521.253773
 21
321.034032
 31
0.0
  0
LINE
  5
11F
330
E5
100
AcDbEntity
  8
0
  6
Continuous
 62
     0
370
    30
100
AcDbLine
 10
521.253773
 20
321.034032
 30
0.0
 11
507.268951
 21
321.034033
 31
0.0
  0
LINE
  5
120
330
E5
100
AcDbEntity
  8
0
  6
Continuous
 62
     0
370
     0
100
AcDbLine
 10
506.792379
 20
321.382776
 30
0.0
 11
521.253773
 21
321.382776
 31
0.0
  0
LINE
  5
121
330
E5
100
AcDbEntity
  8
0
  6
Continuous
 62
     0
370
     0
100
AcDbLine
 10
521.253773
 20
321.382776
 30
0.0
 11
535.715167
 21
321.382776
 31
0.0
  0
LINE
  5
122
330
E5
100
AcDbEntity
  8
0
  6
Continuous
 62
     0
370
     0
100
AcDbLine
 10
506.743466
 20
335.929434
 30
0.0
 11
521.253773
 21
335.929433
 31
0.0
  0
LINE
  5
123
330
E5
100
AcDbEntity
  8
0
  6
Continuous
 62
     0
370
     0
100
AcDbLine
 10
521.253773
 20
335.929433
 30
0.0
 11
535.76408
 21
335.929434
 31
0.0
  0
LINE
  5
124
330
E5
100
AcDbEntity
  8
0
  6
Continuous
 62
     0
370
     0
100
AcDbLine
 10
507.074859
 20
336.259538
 30
0.0
 11
521.253773
 21
336.259537
 31
0.0
  0
LINE
  5
125
330
E5
100
AcDbEntity
  8
0
  6
Continuous
 62
     0
370
     0
100
AcDbLine
 10
521.253773
 20
336.259537
 30
0.0
 11
535.432686
 21
336.259538
 31
0.0
  0
LINE
  5
126
330
E5
100
AcDbEntity
  8
0
  6
Continuous
 62
     0
370
    30
100
AcDbLine
 10
507.074859
 20
336.259538
 30
0.0
 11
512.253773
 21
337.842891
 31
0.0
  0
LINE
  5
127
330
E5
100
AcDbEntity
  8
0
  6
Continuous
 62
     0
370
    30
100
AcDbLine
 10
530.253773
 20
337.842891
 30
0.0
 11
535.432686
 21
336.259538
 31
0.0
  0
ARC
  5
128
330
E5
100
AcDbEntity
  8
0
  6
Continuous
 62
     0
370
    30
100
AcDbCircle
 10
535.286546
 20
335.781432
 30
0.0
 40
0.4999426344179122
100
AcDbArc
 50
17.219821
 51
73.003479
  0
ARC
  5
129
330
E5
100
AcDbEntity
  8
0
  6
Continuous
 62
     0
370
    30
100
AcDbCircle
 10
507.220999
 20
335.781432
 30
0.0
 40
0.4999426344178736
100
AcDbArc
 50
106.996521
 51
162.780179
  0
ARC
  5
12A
330
E5
100
AcDbEntity
  8
0
  6
Continuous
 62
     0
370
    30
100
AcDbCircle
 10
512.552849
 20
328.73407
 30
0.0
 40
24.30091503415132
100
AcDbArc
 50
342.391518
 51
17.223171
  0
ARC
  5
12B
330
E5
100
AcDbEntity
  8
0
  6
Continuous
 62
     0
370
    30
100
AcDbCircle
 10
529.954696
 20
328.73407
 30
0.0
 40
24.30091503415177
100
AcDbArc
 50
162.776829
 51
197.608482
  0
ARC
  5
12C
330
E5
100
AcDbEntity
  8
0
  6
Continuous
 62
     0
370
    30
100
AcDbCircle
 10
535.238562
 20
321.534077
 30
0.0
 40
0.500044246044824
100
AcDbArc
 50
270.010477
 51
342.387679
  0
ARC
  5
12D
330
E5
100
AcDbEntity
  8
0
  6
Continuous
 62
     0
370
    30
100
AcDbCircle
 10
507.268984
 20
321.534077
 30
0.0
 40
0.5000442460405644
100
AcDbArc
 50
197.612321
 51
269.989523
  0
LWPOLYLINE
  5
12E
330
E5
100
AcDbEntity
  8
0
  6
Continuous
 62
     0
370
    30
100
AcDbPolyline
 90
       12
 70
     0
 43
0.0
 10
531.364319
 20
314.384033
 10
531.326721
 20
314.384033
 10
531.211609
 20
314.384033
 10
531.020386
 20
314.384033
 10
530.755859
 20
314.384033
 10
530.422729
 20
314.384033
 10
530.026855
 20
314.384033
 10
529.575317
 20
314.384033
 10
529.075867
 20
314.384033
 10
528.536682
 20
314.384033
 10
527.966064
 20
314.384033
 10
527.362915
 20
314.384033
  0
LINE
  5
12F
330
E5
100
AcDbEntity
  8
0
  6
Continuous
 62
     0
370
    30
100
AcDbLine
 10
527.362944
 20
314.384036
 30
0.0
 11
511.143247
 21
314.384036
 31
0.0
  0
LINE
  5
130
330
E5
100
AcDbEntity
  8
0
  6
Continuous
 62
     0
370
     0
100
AcDbLine
 10
510.347474
 20
315.101904
 30
0.0
 11
527.84378
 21
315.101904
 31
0.0
  0
LINE
  5
131
330
E5
100
AcDbEntity
  8
0
  6
Continuous
 62
     0
370
     0
100
AcDbLine
 10
527.84378
 20
315.101904
 30
0.0
 11
532.160071
 21
315.101904
 31
0.0
  0
LINE
  5
132
330
E5
100
AcDbEntity
  8
0
  6
Continuous
 62
     0
370
     0
100
AcDbLine
 10
507.03607
 20
318.635164
 30
0.0
 11
529.844659
 21
318.635164
 31
0.0
  0
LINE
  5
133
330
E5
100
AcDbEntity
  8
0
  6
Continuous
 62
     0
370
     0
100
AcDbLine
 10
529.844659
 20
318.635164
 30
0.0
 11
535.471475
 21
318.635164
 31
0.0
  0
LINE
  5
134
330
E5
100
AcDbEntity
  8
0
  6
Continuous
 62
     0
370
     0
100
AcDbLine
 10
506.869718
 20
318.821893
 30
0.0
 11
529.945176
 21
318.821893
 31
0.0
  0
LINE
  5
135
330
E5
100
AcDbEntity
  8
0
  6
Continuous
 62
     0
370
     0
100
AcDbLine
 10
529.945176
 20
318.821893
 30
0.0
 11
535.637828
 21
318.821893
 31
0.0
  0
LINE
  5
136
330
E5
100
AcDbEntity
  8
0
  6
Continuous
 62
     0
370
     0
100
AcDbLine
 10
506.78136
 20
320.507865
 30
0.0
 11
529.998565
 21
320.507864
 31
0.0
  0
LINE
  5
137
330
E5
100
AcDbEntity
  8
0
  6
Continuous
 62
     0
370
     0
100
AcDbLine
 10
529.998565
 20
320.507864
 30
0.0
 11
535.726186
 21
320.507865
 31
0.0
  0
ARC
  5
138
330
E5
100
AcDbEntity
  8
0
  6
Continuous
 62
     0
370
    30
100
AcDbCircle
 10
507.280702
 20
320.534034
 30
0.0
 40
0.4999966477353729
100
AcDbArc
 50
91.346252
 51
183.000152
  0
ARC
  5
139
330
E5
100
AcDbEntity
  8
0
  6
Continuous
 62
     0
370
    30
100
AcDbCircle
 10
535.226846
 20
320.534034
 30
0.0
 40
0.4999966751526166
100
AcDbArc
 50
356.999851
 51
88.653967
  0
LINE
  5
13A
330
E5
100
AcDbEntity
  8
0
  6
Continuous
 62
     0
370
    30
100
AcDbLine
 10
535.637839
 20
318.821893
 30
0.0
 11
535.726197
 21
320.507865
 31
0.0
  0
LINE
  5
13B
330
E5
100
AcDbEntity
  8
0
  6
Continuous
 62
     0
370
    30
100
AcDbLine
 10
506.869706
 20
318.821893
 30
0.0
 11
506.781348
 21
320.507865
 31
0.0
  0
ARC
  5
13C
330
E5
100
AcDbEntity
  8
0
  6
Continuous
 62
     0
370
    30
100
AcDbCircle
 10
507.069413
 20
318.832343
 30
0.0
 40
0.1999797046953294
100
AcDbArc
 50
182.995342
 51
260.399103
  0
ARC
  5
13D
330
E5
100
AcDbEntity
  8
0
  6
Continuous
 62
     0
370
    30
100
AcDbCircle
 10
535.438133
 20
318.832343
 30
0.0
 40
0.1999797047046306
100
AcDbArc
 50
279.600897
 51
357.004658
  0
ARC
  5
13E
330
E5
100
AcDbEntity
  8
0
  6
Continuous
 62
     0
370
    30
100
AcDbCircle
 10
536.13913
 20
314.691071
 30
0.0
 40
4.000202897667407
100
AcDbArc
 50
99.607765
 51
174.105149
  0
ARC
  5
13F
330
E5
100
AcDbEntity
  8
0
  6
Continuous
 62
     0
370
    30
100
AcDbCircle
 10
506.368416
 20
314.691071
 30
0.0
 40
4.000202897666447
100
AcDbArc
 50
5.894851
 51
80.392235
  0
ARC
  5
140
330
E5
100
AcDbEntity
  8
0
  6
Continuous
 62
     0
370
    30
100
AcDbCircle
 10
531.364307
 20
315.184036
 30
0.0
 40
0.8000001018863785
100
AcDbArc
 50
270.007682
 51
354.107352
  0
ARC
  5
141
330
E5
100
AcDbEntity
  8
0
  6
Continuous
 62
     0
370
    30
100
AcDbCircle
 10
511.143239
 20
315.184036
 30
0.0
 40
0.8000001018833252
100
AcDbArc
 50
185.892648
 51
269.992318
  0
ENDBLK
  5
143
330
E5
100
AcDbEntity
  8
0
100
AcDbBlockEnd
  0
BLOCK
  5
1D9
330
145
100
AcDbEntity
  8
0
100
AcDbBlockBegin
  2
c
 70
     0
 10
477.712616
 20
194.302505
 30
0.0
  3
c
  1

  0
ARC
  5
146
330
145
100
AcDbEntity
  8
0
  6
Continuous
 62
     0
370
    30
100
AcDbCircle
 10
746.051069
 20
673.872363
 30
0.0
 40
15.00082585647907
100
AcDbArc
 50
0.005192
 51
36.227456
  0
ARC
  5
147
330
145
100
AcDbEntity
  8
0
  6
Continuous
 62
     0
370
    30
100
AcDbCircle
 10
746.051069
 20
673.872998
 30
0.0
 40
15.00082585653354
100
AcDbArc
 50
323.772544
 51
359.994808
  0
LINE
  5
148
330
145
100
AcDbEntity
  8
0
  6
Continuous
 62
     0
370
     0
100
AcDbLine
 10
693.101964
 20
483.872663
 30
0.0
 11
693.101964
 21
603.872663
 31
0.0
  0
LINE
  5
149
330
145
100
AcDbEntity
  8
0
  6
Continuous
 62
     0
370
    30
100
AcDbLine
 10
693.101964
 20
603.872663
 30
0.0
 11
685.101963
 21
603.872663
 31
0.0
  0
LWPOLYLINE
  5
14A
330
145
100
AcDbEntity
  8
0
  6
Continuous
 62
     0
370
    30
100
AcDbPolyline
 90
       89
 70
     0
 43
0.0
 10
685.10199
 20
603.872681
 10
685.10199
 20
603.841248
 10
685.10199
 20
603.745483
 10
685.10199
 20
603.583008
 10
685.10199
 20
603.351685
 10
685.10199
 20
603.049438
 10
685.10199
 20
602.6745
 10
685.10199
 20
602.225281
 10
685.10199
 20
601.700256
 10
685.10199
 20
601.098389
 10
685.10199
 20
600.418762
 10
685.10199
 20
599.660767
 10
685.10199
 20
598.824158
 10
685.10199
 20
597.908875
 10
685.10199
 20
596.915344
 10
685.10199
 20
595.844177
 10
685.10199
 20
594.696472
 10
685.10199
 20
593.473572
 10
685.10199
 20
592.177124
 10
685.10199
 20
590.809326
 10
685.10199
 20
589.372375
 10
685.10199
 20
587.86908
 10
685.10199
 20
586.302429
 10
685.10199
 20
584.675598
 10
685.10199
 20
582.992126
 10
685.10199
 20
581.255859
 10
685.10199
 20
579.470642
 10
685.10199
 20
577.640625
 10
685.10199
 20
575.770081
 10
685.10199
 20
573.863403
 10
685.10199
 20
571.924988
 10
685.10199
 20
569.959412
 10
685.10199
 20
567.97113
 10
685.10199
 20
565.964661
 10
685.10199
 20
563.944458
 10
685.10199
 20
561.914856
 10
685.10199
 20
559.880127
 10
685.10199
 20
557.844482
 10
685.10199
 20
555.811829
 10
685.10199
 20
553.786072
 10
685.10199
 20
551.770813
 10
685.10199
 20
549.76947
 10
685.10199
 20
547.7854
 10
685.10199
 20
545.821533
 10
685.10199
 20
543.880737
 10
685.10199
 20
541.940125
 10
685.10199
 20
539.97644
 10
685.10199
 20
537.992493
 10
685.10199
 20
535.991333
 10
685.10199
 20
533.976135
 10
685.10199
 20
531.950439
 10
685.10199
 20
529.917847
 10
685.10199
 20
527.882202
 10
685.10199
 20
525.847473
 10
685.10199
 20
523.81781
 10
685.10199
 20
521.797485
 10
685.10199
 20
519.790894
 10
685.10199
 20
517.802429
 10
685.10199
 20
515.83667
 10
685.10199
 20
513.89801
 10
685.10199
 20
511.991058
 10
685.10199
 20
510.120178
 10
685.10199
 20
508.289825
 10
685.10199
 20
506.504211
 10
685.10199
 20
504.767487
 10
685.10199
 20
503.083588
 10
685.10199
 20
501.456268
 10
685.10199
 20
499.889069
 10
685.10199
 20
498.385223
 10
685.10199
 20
496.947754
 10
685.10199
 20
495.579315
 10
685.10199
 20
494.282318
 10
685.10199
 20
493.058777
 10
685.10199
 20
491.910431
 10
685.10199
 20
490.838623
 10
685.10199
 20
489.844421
 10
685.10199
 20
488.928497
 10
685.10199
 20
488.091187
 10
685.10199
 20
487.33255
 10
685.10199
 20
486.652283
 10
685.10199
 20
486.049774
 10
685.10199
 20
485.524139
 10
685.10199
 20
485.074249
 10
685.10199
 20
484.6987
 10
685.10199
 20
484.395874
 10
685.10199
 20
484.163971
 10
685.10199
 20
484.000916
 10
685.10199
 20
483.904602
 10
685.10199
 20
483.87265
  0
LWPOLYLINE
  5
14B
330
145
100
AcDbEntity
  8
0
  6
Continuous
 62
     0
370
     0
100
AcDbPolyline
 90
       10
 70
     0
 43
0.0
 10
688.501709
 20
483.872681
 10
688.533997
 20
483.87381
 10
688.629028
 20
483.877014
 10
688.782288
 20
483.881836
 10
688.988892
 20
483.887726
 10
689.242554
 20
483.894012
 10
689.536438
 20
483.899963
 10
689.86261
 20
483.904846
 10
690.211243
 20
483.908142
 10
690.606873
 20
483.909424
  0
LWPOLYLINE
  5
14C
330
145
100
AcDbEntity
  8
0
  6
Continuous
 62
     0
370
     0
100
AcDbPolyline
 90
       10
 70
     0
 43
0.0
 10
690.606873
 20
483.909424
 10
690.965027
 20
483.908325
 10
691.313721
 20
483.905182
 10
691.641113
 20
483.900421
 10
691.937256
 20
483.894562
 10
692.19397
 20
483.888275
 10
692.404358
 20
483.882355
 10
692.56189
 20
483.877472
 10
692.662231
 20
483.874115
 10
692.702271
 20
483.872681
  0
LINE
  5
14D
330
145
100
AcDbEntity
  8
0
  6
Continuous
 62
     0
370
    30
100
AcDbLine
 10
693.601964
 20
484.372663
 30
0.0
 11
693.601964
 21
603.372663
 31
0.0
  0
ARC
  5
14E
330
145
100
AcDbEntity
  8
0
  6
Continuous
 62
     0
370
    30
100
AcDbCircle
 10
693.101964
 20
603.372663
 30
0.0
 40
0.5000000000004764
100
AcDbArc
 50
0.0
 51
89.99999
  0
LINE
  5
14F
330
145
100
AcDbEntity
  8
0
  6
Continuous
 62
     0
370
     0
100
AcDbLine
 10
694.601964
 20
485.372663
 30
0.0
 11
694.601964
 21
602.372663
 31
0.0
  0
ARC
  5
150
330
145
100
AcDbEntity
  8
0
  6
Continuous
 62
     0
370
    30
100
AcDbCircle
 10
694.601964
 20
603.372663
 30
0.0
 40
0.9999999999993996
100
AcDbArc
 50
180.0
 51
270.0
  0
LINE
  5
151
330
145
100
AcDbEntity
  8
0
  6
Continuous
 62
     0
370
    30
100
AcDbLine
 10
695.101964
 20
485.872663
 30
0.0
 11
695.101964
 21
601.872663
 31
0.0
  0
ARC
  5
152
330
145
100
AcDbEntity
  8
0
  6
Continuous
 62
     0
370
    30
100
AcDbCircle
 10
694.601964
 20
601.872663
 30
0.0
 40
0.4999999999987637
100
AcDbArc
 50
360.0
 51
90.0
  0
LINE
  5
153
330
145
100
AcDbEntity
  8
0
  6
Continuous
 62
     0
370
    30
100
AcDbLine
 10
692.702183
 20
483.872663
 30
0.0
 11
688.501783
 21
483.872663
 31
0.0
  0
ARC
  5
154
330
145
100
AcDbEntity
  8
0
  6
Continuous
 62
     0
370
    30
100
AcDbCircle
 10
694.601949
 20
485.872678
 30
0.0
 40
0.5000149691641111
100
AcDbArc
 50
270.001715
 51
359.990182
  0
ARC
  5
155
330
145
100
AcDbEntity
  8
0
  6
Continuous
 62
     0
370
    30
100
AcDbCircle
 10
694.601967
 20
484.37266
 30
0.0
 40
1.000003411689985
100
AcDbArc
 50
90.000195
 51
179.999805
  0
ARC
  5
156
330
145
100
AcDbEntity
  8
0
  6
Continuous
 62
     0
370
    30
100
AcDbCircle
 10
693.101949
 20
484.372678
 30
0.0
 40
0.5000149691647863
100
AcDbArc
 50
270.001715
 51
359.990182
  0
LINE
  5
157
330
145
100
AcDbEntity
  8
0
  6
Continuous
 62
     0
370
    30
100
AcDbLine
 10
693.101964
 20
483.872663
 30
0.0
 11
692.702182
 21
483.872663
 31
0.0
  0
LINE
  5
158
330
145
100
AcDbEntity
  8
0
  6
Continuous
 62
     0
370
    30
100
AcDbLine
 10
685.101963
 20
483.872663
 30
0.0
 11
688.501785
 21
483.872663
 31
0.0
  0
LWPOLYLINE
  5
159
330
145
100
AcDbEntity
  8
0
  6
Continuous
 62
     0
370
    30
100
AcDbPolyline
 90
       22
 70
     0
 43
0.0
 10
726.105469
 20
570.435608
 10
726.07251
 20
570.435608
 10
725.967896
 20
570.435608
 10
725.785706
 20
570.435608
 10
725.524719
 20
570.435608
 10
725.189575
 20
570.435608
 10
724.790649
 20
570.435608
 10
724.343201
 20
570.435608
 10
723.865234
 20
570.435608
 10
723.37561
 20
570.435608
 10
722.891602
 20
570.435608
 10
722.420959
 20
570.435608
 10
721.937012
 20
570.435608
 10
721.447388
 20
570.435608
 10
720.96936
 20
570.435608
 10
720.521729
 20
570.435608
 10
720.12262
 20
570.435608
 10
719.787231
 20
570.435608
 10
719.526001
 20
570.435608
 10
719.343506
 20
570.435608
 10
719.238647
 20
570.435608
 10
719.205444
 20
570.435608
  0
LINE
  5
15A
330
145
100
AcDbEntity
  8
0
  6
Continuous
 62
     0
370
    30
100
AcDbLine
 10
718.70544
 20
569.935581
 30
0.0
 11
719.20544
 21
570.435581
 31
0.0
  0
LWPOLYLINE
  5
15B
330
145
100
AcDbEntity
  8
0
  6
Continuous
 62
     0
370
    30
100
AcDbPolyline
 90
       24
 70
     0
 43
0.0
 10
726.605469
 20
569.935608
 10
726.574219
 20
569.935608
 10
726.475342
 20
569.935608
 10
726.303162
 20
569.935608
 10
726.055725
 20
569.935608
 10
725.735352
 20
569.935608
 10
725.349182
 20
569.935608
 10
724.90863
 20
569.935608
 10
724.428162
 20
569.935608
 10
723.924011
 20
569.935608
 10
723.412415
 20
569.935608
 10
722.907959
 20
569.935608
 10
722.416992
 20
569.935608
 10
721.912964
 20
569.935608
 10
721.401306
 20
569.935608
 10
720.89679
 20
569.935608
 10
720.415405
 20
569.935608
 10
719.97345
 20
569.935608
 10
719.585571
 20
569.935608
 10
719.263245
 20
569.935608
 10
719.013672
 20
569.935608
 10
718.839417
 20
569.935608
 10
718.738525
 20
569.935608
 10
718.705444
 20
569.935608
  0
LINE
  5
15C
330
145
100
AcDbEntity
  8
0
  6
Continuous
 62
     0
370
    30
100
AcDbLine
 10
718.70544
 20
569.935581
 30
0.0
 11
718.70544
 21
563.372663
 31
0.0
  0
LWPOLYLINE
  5
15D
330
145
100
AcDbEntity
  8
0
  6
Continuous
 62
     0
370
    30
100
AcDbPolyline
 90
       23
 70
     0
 43
0.0
 10
718.727173
 20
563.371948
 10
718.822937
 20
563.366211
 10
718.992554
 20
563.347351
 10
719.23114
 20
563.317444
 10
719.533508
 20
563.278931
 10
719.894653
 20
563.234375
 10
720.307861
 20
563.187866
 10
720.765564
 20
563.144104
 10
721.259521
 20
563.10791
 10
721.780518
 20
563.08252
 10
722.318604
 20
563.069458
 10
722.863281
 20
563.068298
 10
723.403931
 20
563.078491
 10
723.929932
 20
563.100708
 10
724.431152
 20
563.134338
 10
724.898193
 20
563.177002
 10
725.322632
 20
563.22406
 10
725.696716
 20
563.270081
 10
726.013733
 20
563.31012
 10
726.267517
 20
563.341187
 10
726.452942
 20
563.361633
 10
726.566406
 20
563.370178
 10
726.605591
 20
563.364929
  0
LINE
  5
15E
330
145
100
AcDbEntity
  8
0
  6
Continuous
 62
     0
370
    30
100
AcDbLine
 10
733.65544
 20
524.872663
 30
0.0
 11
733.655441
 21
543.872663
 31
0.0
  0
LINE
  5
15F
330
145
100
AcDbEntity
  8
0
  6
Continuous
 62
     0
370
    30
100
AcDbLine
 10
733.655441
 20
543.872663
 30
0.0
 11
733.65544
 21
562.872663
 31
0.0
  0
LINE
  5
160
330
145
100
AcDbEntity
  8
0
  6
Continuous
 62
     0
370
    30
100
AcDbLine
 10
733.15544
 20
563.372663
 30
0.0
 11
733.155441
 21
543.872663
 31
0.0
  0
LINE
  5
161
330
145
100
AcDbEntity
  8
0
  6
Continuous
 62
     0
370
    30
100
AcDbLine
 10
733.155441
 20
543.872663
 30
0.0
 11
733.15544
 21
524.372663
 31
0.0
  0
LINE
  5
162
330
145
100
AcDbEntity
  8
0
  6
Continuous
 62
     0
370
    30
100
AcDbLine
 10
695.65544
 20
563.372663
 30
0.0
 11
695.65544
 21
524.372663
 31
0.0
  0
LWPOLYLINE
  5
163
330
145
100
AcDbEntity
  8
0
  6
Continuous
 62
     0
370
     0
100
AcDbPolyline
 90
        5
 70
     0
 43
0.0
 10
718.922424
 20
524.372681
 10
719.051636
 20
524.388428
 10
719.23114
 20
524.434875
 10
719.463501
 20
524.510132
 10
719.777527
 20
524.618408
  0
ARC
  5
164
330
145
100
AcDbEntity
  8
0
  6
Continuous
 62
     0
370
     0
100
AcDbCircle
 10
722.65544
 20
502.839359
 30
0.0
 40
21.96836759699457
100
AcDbArc
 50
82.472429
 51
97.527571
  0
LWPOLYLINE
  5
165
330
145
100
AcDbEntity
  8
0
  6
Continuous
 62
     0
370
     0
100
AcDbPolyline
 90
        5
 70
     0
 43
0.0
 10
725.533386
 20
524.618408
 10
725.830933
 20
524.515564
 10
726.065796
 20
524.438538
 10
726.245789
 20
524.390259
 10
726.383545
 20
524.372681
  0
LINE
  5
166
330
145
100
AcDbEntity
  8
0
  6
Continuous
 62
     0
370
    30
100
AcDbLine
 10
726.383568
 20
524.372666
 30
0.0
 11
718.922448
 21
524.372666
 31
0.0
  0
LINE
  5
167
330
145
100
AcDbEntity
  8
0
  6
Continuous
 62
     0
370
    30
100
AcDbLine
 10
695.65544
 20
563.372663
 30
0.0
 11
718.737422
 21
563.372663
 31
0.0
  0
LINE
  5
168
330
145
100
AcDbEntity
  8
0
  6
Continuous
 62
     0
370
    30
100
AcDbLine
 10
726.57374
 20
563.372663
 30
0.0
 11
733.15544
 21
563.372663
 31
0.0
  0
LINE
  5
169
330
145
100
AcDbEntity
  8
0
  6
Continuous
 62
     0
370
    30
100
AcDbLine
 10
695.65544
 20
524.372663
 30
0.0
 11
718.922478
 21
524.372663
 31
0.0
  0
LINE
  5
16A
330
145
100
AcDbEntity
  8
0
  6
Continuous
 62
     0
370
    30
100
AcDbLine
 10
726.383542
 20
524.372663
 30
0.0
 11
733.15544
 21
524.372663
 31
0.0
  0
LINE
  5
16B
330
145
100
AcDbEntity
  8
0
  6
Continuous
 62
     0
370
    30
100
AcDbLine
 10
733.65544
 20
524.872663
 30
0.0
 11
733.15544
 21
524.372663
 31
0.0
  0
LINE
  5
16C
330
145
100
AcDbEntity
  8
0
  6
Continuous
 62
     0
370
    30
100
AcDbLine
 10
733.65544
 20
562.872663
 30
0.0
 11
733.15544
 21
563.372663
 31
0.0
  0
LINE
  5
16D
330
145
100
AcDbEntity
  8
0
  6
Continuous
 62
     0
370
    30
100
AcDbLine
 10
726.60544
 20
569.935581
 30
0.0
 11
726.60544
 21
563.372663
 31
0.0
  0
LINE
  5
16E
330
145
100
AcDbEntity
  8
0
  6
Continuous
 62
     0
370
    30
100
AcDbLine
 10
726.60544
 20
569.935581
 30
0.0
 11
726.10544
 21
570.435581
 31
0.0
  0
LINE
  5
16F
330
145
100
AcDbEntity
  8
0
  6
Continuous
 62
     0
370
    30
100
AcDbLine
 10
729.801945
 20
663.308944
 30
0.0
 11
729.801945
 21
666.665788
 31
0.0
  0
LINE
  5
170
330
145
100
AcDbEntity
  8
0
  6
Continuous
 62
     0
370
    30
100
AcDbLine
 10
729.801945
 20
666.665788
 30
0.0
 11
729.801945
 21
684.436418
 31
0.0
  0
LINE
  5
171
330
145
100
AcDbEntity
  8
0
  6
Continuous
 62
     0
370
     0
100
AcDbLine
 10
731.301945
 20
682.872681
 30
0.0
 11
731.301945
 21
667.732615
 31
0.0
  0
LINE
  5
172
330
145
100
AcDbEntity
  8
0
  6
Continuous
 62
     0
370
     0
100
AcDbLine
 10
731.301945
 20
667.732615
 30
0.0
 11
731.301945
 21
664.872681
 31
0.0
  0
LINE
  5
173
330
145
100
AcDbEntity
  8
0
  6
Continuous
 62
     0
370
     0
100
AcDbLine
 10
705.687758
 20
657.920512
 30
0.0
 11
705.687759
 21
662.989641
 31
0.0
  0
LINE
  5
174
330
145
100
AcDbEntity
  8
0
  6
Continuous
 62
     0
370
     0
100
AcDbLine
 10
705.687759
 20
662.989641
 30
0.0
 11
705.687758
 21
689.824849
 31
0.0
  0
LINE
  5
175
330
145
100
AcDbEntity
  8
0
  6
Continuous
 62
     0
370
     0
100
AcDbLine
 10
729.36697
 20
684.932171
 30
0.0
 11
729.36697
 21
666.32757
 31
0.0
  0
LINE
  5
176
330
145
100
AcDbEntity
  8
0
  6
Continuous
 62
     0
370
     0
100
AcDbLine
 10
729.36697
 20
666.32757
 30
0.0
 11
729.36697
 21
662.81319
 31
0.0
  0
LINE
  5
177
330
145
100
AcDbEntity
  8
0
  6
Continuous
 62
     0
370
     0
100
AcDbLine
 10
695.860717
 20
646.796271
 30
0.0
 11
695.860718
 21
655.400356
 31
0.0
  0
LINE
  5
178
330
145
100
AcDbEntity
  8
0
  6
Continuous
 62
     0
370
     0
100
AcDbLine
 10
695.860718
 20
655.400356
 30
0.0
 11
695.860717
 21
700.949091
 31
0.0
  0
LINE
  5
179
330
145
100
AcDbEntity
  8
0
  6
Continuous
 62
     0
370
     0
100
AcDbLine
 10
695.36659
 20
646.37268
 30
0.0
 11
695.36659
 21
655.11137
 31
0.0
  0
LINE
  5
17A
330
145
100
AcDbEntity
  8
0
  6
Continuous
 62
     0
370
     0
100
AcDbLine
 10
695.36659
 20
655.11137
 30
0.0
 11
695.36659
 21
701.372681
 31
0.0
  0
LINE
  5
17B
330
145
100
AcDbEntity
  8
0
  6
Continuous
 62
     0
370
    30
100
AcDbLine
 10
688.801945
 20
701.372681
 30
0.0
 11
688.801945
 21
655.11137
 31
0.0
  0
LINE
  5
17C
330
145
100
AcDbEntity
  8
0
  6
Continuous
 62
     0
370
    30
100
AcDbLine
 10
688.801945
 20
655.11137
 30
0.0
 11
688.801945
 21
646.37268
 31
0.0
  0
ARC
  5
17D
330
145
100
AcDbEntity
  8
0
  6
Continuous
 62
     0
370
    30
100
AcDbCircle
 10
695.366586
 20
646.872722
 30
0.0
 40
0.5000053161394262
100
AcDbArc
 50
270.000512
 51
351.202651
  0
ARC
  5
17E
330
145
100
AcDbEntity
  8
0
  6
Continuous
 62
     0
370
    30
100
AcDbCircle
 10
695.366586
 20
700.872636
 30
0.0
 40
0.5000052496341668
100
AcDbArc
 50
8.798299
 51
89.999495
  0
LINE
  5
17F
330
145
100
AcDbEntity
  8
0
  6
Continuous
 62
     0
370
    30
100
AcDbLine
 10
688.801945
 20
701.372681
 30
0.0
 11
695.36659
 21
701.372681
 31
0.0
  0
LINE
  5
180
330
145
100
AcDbEntity
  8
0
  6
Continuous
 62
     0
370
    30
100
AcDbLine
 10
688.801945
 20
646.37268
 30
0.0
 11
695.36659
 21
646.37268
 31
0.0
  0
ARC
  5
181
330
145
100
AcDbEntity
  8
0
  6
Continuous
 62
     0
370
    30
100
AcDbCircle
 10
709.449214
 20
644.695006
 30
0.0
 40
13.7500018379243
100
AcDbArc
 50
105.876241
 51
171.209662
  0
ARC
  5
182
330
145
100
AcDbEntity
  8
0
  6
Continuous
 62
     0
370
    30
100
AcDbCircle
 10
709.449214
 20
703.050355
 30
0.0
 40
13.75000183792454
100
AcDbArc
 50
188.790338
 51
254.123759
  0
ARC
  5
183
330
145
100
AcDbEntity
  8
0
  6
Continuous
 62
     0
370
    30
100
AcDbCircle
 10
729.301939
 20
684.436396
 30
0.0
 40
0.5000061163645173
100
AcDbArc
 50
0.000698
 51
82.526907
  0
ARC
  5
184
330
145
100
AcDbEntity
  8
0
  6
Continuous
 62
     0
370
    30
100
AcDbCircle
 10
729.30194
 20
663.308963
 30
0.0
 40
0.5000050299870664
100
AcDbArc
 50
277.472983
 51
359.987961
  0
ARC
  5
185
330
145
100
AcDbEntity
  8
0
  6
Continuous
 62
     0
370
    30
100
AcDbCircle
 10
750.825048
 20
499.215239
 30
0.0
 40
164.9992078060642
100
AcDbArc
 50
97.472458
 51
105.876256
  0
ARC
  5
186
330
145
100
AcDbEntity
  8
0
  6
Continuous
 62
     0
370
    30
100
AcDbCircle
 10
750.825048
 20
848.530122
 30
0.0
 40
164.9992078060931
100
AcDbArc
 50
254.123744
 51
262.527542
  0
ARC
  5
187
330
145
100
AcDbEntity
  8
0
  6
Continuous
 62
     0
370
    30
100
AcDbCircle
 10
731.302014
 20
684.37275
 30
0.0
 40
1.500068908799402
100
AcDbArc
 50
180.052399
 51
269.99737
  0
ARC
  5
188
330
145
100
AcDbEntity
  8
0
  6
Continuous
 62
     0
370
    30
100
AcDbCircle
 10
731.302012
 20
663.372613
 30
0.0
 40
1.500067575884789
100
AcDbArc
 50
90.002581
 51
179.997419
  0
LINE
  5
189
330
145
100
AcDbEntity
  8
0
  6
Continuous
 62
     0
370
    30
100
AcDbLine
 10
731.301945
 20
682.872681
 30
0.0
 11
734.693038
 21
682.872681
 31
0.0
  0
LINE
  5
18A
330
145
100
AcDbEntity
  8
0
  6
Continuous
 62
     0
370
    30
100
AcDbLine
 10
731.301945
 20
664.872681
 30
0.0
 11
734.693038
 21
664.872681
 31
0.0
  0
LINE
  5
18B
330
145
100
AcDbEntity
  8
0
  6
Continuous
 62
     0
370
    30
100
AcDbLine
 10
751.501896
 20
687.857502
 30
0.0
 11
751.501896
 21
659.887859
 31
0.0
  0
ARC
  5
18C
330
145
100
AcDbEntity
  8
0
  6
Continuous
 62
     0
370
    30
100
AcDbCircle
 10
751.001896
 20
659.887859
 30
0.0
 40
0.5000000000076634
100
AcDbArc
 50
287.608612
 51
360.0
  0
LINE
  5
18D
330
145
100
AcDbEntity
  8
0
  6
Continuous
 62
     0
370
     0
100
AcDbLine
 10
751.153152
 20
659.411287
 30
0.0
 11
751.153152
 21
688.334075
 31
0.0
  0
ARC
  5
18E
330
145
100
AcDbEntity
  8
0
  6
Continuous
 62
     0
370
    30
100
AcDbCircle
 10
743.801859
 20
682.573421
 30
0.0
 40
24.30073998183988
100
AcDbArc
 50
286.741762
 51
287.608612
  0
LWPOLYLINE
  5
18F
330
145
100
AcDbEntity
  8
0
  6
Continuous
 62
     0
370
    30
100
AcDbPolyline
 90
       32
 70
     0
 43
0.0
 10
750.80188
 20
659.302734
 10
750.765137
 20
659.309021
 10
750.65863
 20
659.328308
 10
750.481018
 20
659.359253
 10
750.234009
 20
659.400208
 10
749.923218
 20
659.450623
 10
749.549011
 20
659.507446
 10
749.117065
 20
659.568909
 10
748.630493
 20
659.632263
 10
748.094116
 20
659.694946
 10
747.513977
 20
659.754517
 10
746.895691
 20
659.808533
 10
746.245239
 20
659.854736
 10
745.569519
 20
659.891235
 10
744.874878
 20
659.916565
 10
744.167236
 20
659.929443
 10
743.454956
 20
659.929626
 10
742.747009
 20
659.917053
 10
742.051941
 20
659.89209
 10
741.375732
 20
659.855774
 10
740.724487
 20
659.809753
 10
740.105286
 20
659.75592
 10
739.524109
 20
659.696533
 10
738.986511
 20
659.63385
 10
738.498657
 20
659.570435
 10
738.065247
 20
659.508911
 10
737.689209
 20
659.452087
 10
737.376831
 20
659.401428
 10
737.128235
 20
659.360168
 10
736.949036
 20
659.328918
 10
736.840149
 20
659.309387
 10
736.80188
 20
659.302673
  0
LINE
  5
190
330
145
100
AcDbEntity
  8
0
  6
Continuous
 62
     0
370
    30
100
AcDbLine
 10
736.801896
 20
659.302699
 30
0.0
 11
736.606495
 21
659.362374
 31
0.0
  0
LINE
  5
191
330
145
100
AcDbEntity
  8
0
  6
Continuous
 62
     0
370
     0
100
AcDbLine
 10
736.606495
 20
659.362374
 30
0.0
 11
736.606495
 21
688.382988
 31
0.0
  0
ARC
  5
192
330
145
100
AcDbEntity
  8
0
  6
Continuous
 62
     0
370
    30
100
AcDbCircle
 10
736.754543
 20
659.839953
 30
0.0
 40
0.5000000000085868
100
AcDbArc
 50
197.0
 51
252.7767
  0
LINE
  5
193
330
145
100
AcDbEntity
  8
0
  6
Continuous
 62
     0
370
     0
100
AcDbLine
 10
736.276391
 20
659.693767
 30
0.0
 11
736.276391
 21
688.051594
 31
0.0
  0
LINE
  5
194
330
145
100
AcDbEntity
  8
0
  6
Continuous
 62
     0
370
    30
100
AcDbLine
 10
736.276391
 20
659.693767
 30
0.0
 11
734.693038
 21
664.872681
 31
0.0
  0
LINE
  5
195
330
145
100
AcDbEntity
  8
0
  6
Continuous
 62
     0
370
    30
100
AcDbLine
 10
734.693038
 20
682.872681
 30
0.0
 11
736.276391
 21
688.051594
 31
0.0
  0
ARC
  5
196
330
145
100
AcDbEntity
  8
0
  6
Continuous
 62
     0
370
    30
100
AcDbCircle
 10
736.754497
 20
687.905454
 30
0.0
 40
0.4999426344120055
100
AcDbArc
 50
107.219821
 51
163.003479
  0
ARC
  5
197
330
145
100
AcDbEntity
  8
0
  6
Continuous
 62
     0
370
    30
100
AcDbCircle
 10
743.801858
 20
665.171757
 30
0.0
 40
24.30091503415146
100
AcDbArc
 50
72.391518
 51
107.223171
  0
ARC
  5
198
330
145
100
AcDbEntity
  8
0
  6
Continuous
 62
     0
370
    30
100
AcDbCircle
 10
751.001852
 20
687.85747
 30
0.0
 40
0.5000442460338325
100
AcDbArc
 50
0.010477
 51
72.387679
  0
LWPOLYLINE
  5
199
330
145
100
AcDbEntity
  8
0
  6
Continuous
 62
     0
370
     0
100
AcDbPolyline
 90
       38
 70
     0
 43
0.0
 10
733.627563
 20
603.830444
 10
733.633057
 20
603.830444
 10
733.702576
 20
603.830444
 10
733.840881
 20
603.830444
 10
734.051758
 20
603.830444
 10
734.337524
 20
603.830444
 10
734.699097
 20
603.830444
 10
735.135559
 20
603.830444
 10
735.644043
 20
603.830444
 10
736.220032
 20
603.830444
 10
736.8573
 20
603.830444
 10
737.547913
 20
603.830444
 10
738.28302
 20
603.830444
 10
739.052856
 20
603.830444
 10
739.847229
 20
603.830444
 10
740.656006
 20
603.830444
 10
741.469482
 20
603.830444
 10
742.278687
 20
603.830444
 10
743.075378
 20
603.830444
 10
743.858459
 20
603.830444
 10
744.65863
 20
603.830444
 10
745.475769
 20
603.830444
 10
746.301941
 20
603.830444
 10
747.128418
 20
603.830444
 10
747.945557
 20
603.830444
 10
748.743164
 20
603.830444
 10
749.510986
 20
603.830444
 10
750.238953
 20
603.830444
 10
750.917786
 20
603.830444
 10
751.539185
 20
603.830444
 10
752.096191
 20
603.830444
 10
752.583557
 20
603.830444
 10
752.997925
 20
603.830444
 10
753.337646
 20
603.830444
 10
753.602844
 20
603.830444
 10
753.795227
 20
603.830444
 10
753.91803
 20
603.830444
 10
753.976196
 20
603.830444
  0
LINE
  5
19A
330
145
100
AcDbEntity
  8
0
  6
Continuous
 62
     0
370
     0
100
AcDbLine
 10
733.425426
 20
604.074786
 30
0.0
 11
754.173101
 21
604.074786
 31
0.0
  0
LINE
  5
19B
330
145
100
AcDbEntity
  8
0
  6
Continuous
 62
     0
370
     0
100
AcDbLine
 10
754.173101
 20
604.747818
 30
0.0
 11
733.425426
 21
604.747818
 31
0.0
  0
LWPOLYLINE
  5
19C
330
145
100
AcDbEntity
  8
0
  6
Continuous
 62
     0
370
     0
100
AcDbPolyline
 90
       40
 70
     0
 43
0.0
 10
732.172852
 20
606.605286
 10
732.177063
 20
606.605286
 10
732.246948
 20
606.605286
 10
732.387268
 20
606.605286
 10
732.601746
 20
606.605286
 10
732.893005
 20
606.605286
 10
733.262268
 20
606.605286
 10
733.709106
 20
606.605286
 10
734.231384
 20
606.605286
 10
734.825317
 20
606.605286
 10
735.485535
 20
606.605286
 10
736.204956
 20
606.605286
 10
736.975464
 20
606.605286
 10
737.787903
 20
606.605286
 10
738.632568
 20
606.605286
 10
739.499573
 20
606.605286
 10
740.378967
 20
606.605286
 10
741.261353
 20
606.605286
 10
742.138123
 20
606.605286
 10
743.001404
 20
606.605286
 10
743.850586
 20
606.605286
 10
744.717712
 20
606.605286
 10
745.602783
 20
606.605286
 10
746.49823
 20
606.605286
 10
747.39563
 20
606.605286
 10
748.285583
 20
606.605286
 10
749.158386
 20
606.605286
 10
750.003906
 20
606.605286
 10
750.812195
 20
606.605286
 10
751.573853
 20
606.605286
 10
752.280212
 20
606.605286
 10
752.923828
 20
606.605286
 10
753.498718
 20
606.605286
 10
754.000366
 20
606.605286
 10
754.426025
 20
606.605286
 10
754.774719
 20
606.605286
 10
755.046875
 20
606.605286
 10
755.244568
 20
606.605286
 10
755.371094
 20
606.605286
 10
755.430969
 20
606.605286
  0
LWPOLYLINE
  5
19D
330
145
100
AcDbEntity
  8
0
  6
Continuous
 62
     0
370
     0
100
AcDbPolyline
 90
       40
 70
     0
 43
0.0
 10
732.071045
 20
607.948486
 10
732.075256
 20
607.948486
 10
732.145813
 20
607.948486
 10
732.287354
 20
607.948486
 10
732.503784
 20
607.948486
 10
732.797729
 20
607.948486
 10
733.170288
 20
607.948486
 10
733.621094
 20
607.948486
 10
734.148132
 20
607.948486
 10
734.747375
 20
607.948486
 10
735.413513
 20
607.948486
 10
736.139404
 20
607.948486
 10
736.916809
 20
607.948486
 10
737.736511
 20
607.948486
 10
738.588745
 20
607.948486
 10
739.46344
 20
607.948486
 10
740.350647
 20
607.948486
 10
741.240845
 20
607.948486
 10
742.125366
 20
607.948486
 10
742.996277
 20
607.948486
 10
743.853027
 20
607.948486
 10
744.727905
 20
607.948486
 10
745.62085
 20
607.948486
 10
746.524292
 20
607.948486
 10
747.429626
 20
607.948486
 10
748.327454
 20
607.948486
 10
749.207886
 20
607.948486
 10
750.060791
 20
607.948486
 10
750.87616
 20
607.948486
 10
751.644348
 20
607.948486
 10
752.356812
 20
607.948486
 10
753.00592
 20
607.948486
 10
753.585632
 20
607.948486
 10
754.091431
 20
607.948486
 10
754.520569
 20
607.948486
 10
754.872009
 20
607.948486
 10
755.146301
 20
607.948486
 10
755.345459
 20
607.948486
 10
755.472778
 20
607.948486
 10
755.532776
 20
607.948486
  0
LINE
  5
19E
330
145
100
AcDbEntity
  8
0
  6
Continuous
 62
     0
370
     0
100
AcDbLine
 10
731.985089
 20
608.674073
 30
0.0
 11
755.612707
 21
608.674073
 31
0.0
  0
LWPOLYLINE
  5
19F
330
145
100
AcDbEntity
  8
0
  6
Continuous
 62
     0
370
     0
100
AcDbPolyline
 90
       40
 70
     0
 43
0.0
 10
732.066772
 20
611.553345
 10
732.098572
 20
611.553345
 10
732.197205
 20
611.553345
 10
732.366943
 20
611.553345
 10
732.610962
 20
611.553345
 10
732.931335
 20
611.553345
 10
733.328674
 20
611.553345
 10
733.801819
 20
611.553345
 10
734.348267
 20
611.553345
 10
734.963745
 20
611.553345
 10
735.642273
 20
611.553345
 10
736.37677
 20
611.553345
 10
737.158936
 20
611.553345
 10
737.979553
 20
611.553345
 10
738.829163
 20
611.553345
 10
739.697998
 20
611.553345
 10
740.576538
 20
611.553345
 10
741.455811
 20
611.553345
 10
742.327576
 20
611.553345
 10
743.184387
 20
611.553345
 10
744.032471
 20
611.553345
 10
744.901367
 20
611.553345
 10
745.786499
 20
611.553345
 10
746.68042
 20
611.553345
 10
747.574707
 20
611.553345
 10
748.460083
 20
611.553345
 10
749.327026
 20
611.553345
 10
750.165649
 20
611.553345
 10
750.96637
 20
611.553345
 10
751.720032
 20
611.553345
 10
752.418335
 20
611.553345
 10
753.054199
 20
611.553345
 10
753.621826
 20
611.553345
 10
754.116943
 20
611.553345
 10
754.537109
 20
611.553345
 10
754.881348
 20
611.553345
 10
755.150208
 20
611.553345
 10
755.345764
 20
611.553345
 10
755.47113
 20
611.553345
 10
755.531067
 20
611.553345
  0
LWPOLYLINE
  5
1A0
330
145
100
AcDbEntity
  8
0
  6
Continuous
 62
     0
370
     0
100
AcDbPolyline
 90
       40
 70
     0
 43
0.0
 10
732.423157
 20
611.886292
 10
732.427307
 20
611.886292
 10
732.495605
 20
611.886292
 10
732.632812
 20
611.886292
 10
732.842529
 20
611.886292
 10
733.12738
 20
611.886292
 10
733.488464
 20
611.886292
 10
733.925354
 20
611.886292
 10
734.436096
 20
611.886292
 10
735.016968
 20
611.886292
 10
735.662537
 20
611.886292
 10
736.36615
 20
611.886292
 10
737.11969
 20
611.886292
 10
737.914307
 20
611.886292
 10
738.740417
 20
611.886292
 10
739.58844
 20
611.886292
 10
740.448608
 20
611.886292
 10
741.311768
 20
611.886292
 10
742.169434
 20
611.886292
 10
743.013977
 20
611.886292
 10
743.844666
 20
611.886292
 10
744.692749
 20
611.886292
 10
745.558411
 20
611.886292
 10
746.434326
 20
611.886292
 10
747.312134
 20
611.886292
 10
748.1828
 20
611.886292
 10
749.036682
 20
611.886292
 10
749.864014
 20
611.886292
 10
750.654968
 20
611.886292
 10
751.400452
 20
611.886292
 10
752.091919
 20
611.886292
 10
752.722107
 20
611.886292
 10
753.285034
 20
611.886292
 10
753.776428
 20
611.886292
 10
754.193604
 20
611.886292
 10
754.5354
 20
611.886292
 10
754.802429
 20
611.886292
 10
754.996582
 20
611.886292
 10
755.121033
 20
611.886292
 10
755.180603
 20
611.886292
  0
LWPOLYLINE
  5
1A1
330
145
100
AcDbEntity
  8
0
  6
Continuous
 62
     0
370
     0
100
AcDbPolyline
 90
       36
 70
     0
 43
0.0
 10
734.54834
 20
619.433105
 10
734.579529
 20
619.433105
 10
734.676575
 20
619.433105
 10
734.843994
 20
619.433105
 10
735.084961
 20
619.433105
 10
735.40094
 20
619.433105
 10
735.791809
 20
619.433105
 10
736.25531
 20
619.433105
 10
736.787231
 20
619.433105
 10
737.38147
 20
619.433105
 10
738.030273
 20
619.433105
 10
738.724426
 20
619.433105
 10
739.453918
 20
619.433105
 10
740.208191
 20
619.433105
 10
740.976868
 20
619.433105
 10
741.749756
 20
619.433105
 10
742.517517
 20
619.433105
 10
743.271912
 20
619.433105
 10
744.017273
 20
619.433105
 10
744.782166
 20
619.433105
 10
745.56189
 20
619.433105
 10
746.3479
 20
619.433105
 10
747.130798
 20
619.433105
 10
747.90033
 20
619.433105
 10
748.645813
 20
619.433105
 10
749.35675
 20
619.433105
 10
750.022949
 20
619.433105
 10
750.635376
 20
619.433105
 10
751.186157
 20
619.433105
 10
751.669373
 20
619.433105
 10
752.080811
 20
619.433105
 10
752.418335
 20
619.433105
 10
752.681702
 20
619.433105
 10
752.872498
 20
619.433105
 10
752.993835
 20
619.433105
 10
753.050781
 20
619.433105
  0
LINE
  5
1A2
330
145
100
AcDbEntity
  8
0
  6
Continuous
 62
     0
370
     0
100
AcDbLine
 10
737.801901
 20
645.988759
 30
0.0
 11
749.798849
 21
645.988759
 31
0.0
  0
LINE
  5
1A3
330
145
100
AcDbEntity
  8
0
  6
Continuous
 62
     0
370
     0
100
AcDbLine
 10
749.798849
 20
656.994257
 30
0.0
 11
737.801901
 21
656.994257
 31
0.0
  0
LWPOLYLINE
  5
1A4
330
145
100
AcDbEntity
  8
0
  6
Continuous
 62
     0
370
     0
100
AcDbPolyline
 90
       30
 70
     0
 43
0.0
 10
737.512207
 20
657.701355
 10
737.523315
 20
657.701355
 10
737.600281
 20
657.701355
 10
737.748596
 20
657.701355
 10
737.971924
 20
657.701355
 10
738.271423
 20
657.701355
 10
738.645264
 20
657.701355
 10
739.088684
 20
657.701355
 10
739.594177
 20
657.701355
 10
740.15155
 20
657.701355
 10
740.748962
 20
657.701355
 10
741.373596
 20
657.701355
 10
742.012451
 20
657.701355
 10
742.653137
 20
657.701355
 10
743.284607
 20
657.701355
 10
743.903381
 20
657.701355
 10
744.538574
 20
657.701355
 10
745.187561
 20
657.701355
 10
745.839661
 20
657.701355
 10
746.482666
 20
657.701355
 10
747.103577
 20
657.701355
 10
747.689331
 20
657.701355
 10
748.227478
 20
657.701355
 10
748.707458
 20
657.701355
 10
749.120728
 20
657.701355
 10
749.461731
 20
657.701355
 10
749.727783
 20
657.701355
 10
749.919128
 20
657.701355
 10
750.038635
 20
657.701355
 10
750.091614
 20
657.701355
  0
LWPOLYLINE
  5
1A5
330
145
100
AcDbEntity
  8
0
  6
Continuous
 62
     0
370
     0
100
AcDbPolyline
 90
       30
 70
     0
 43
0.0
 10
737.248108
 20
657.965576
 10
737.259766
 20
657.965576
 10
737.340088
 20
657.965576
 10
737.494873
 20
657.965576
 10
737.727966
 20
657.965576
 10
738.040527
 20
657.965576
 10
738.430664
 20
657.965576
 10
738.893433
 20
657.965576
 10
739.420837
 20
657.965576
 10
740.002319
 20
657.965576
 10
740.625549
 20
657.965576
 10
741.277039
 20
657.965576
 10
741.943237
 20
657.965576
 10
742.611328
 20
657.965576
 10
743.269653
 20
657.965576
 10
743.914917
 20
657.965576
 10
744.577454
 20
657.965576
 10
745.254333
 20
657.965576
 10
745.934265
 20
657.965576
 10
746.604614
 20
657.965576
 10
747.251587
 20
657.965576
 10
747.861694
 20
657.965576
 10
748.421997
 20
657.965576
 10
748.921387
 20
657.965576
 10
749.351074
 20
657.965576
 10
749.705261
 20
657.965576
 10
749.981201
 20
657.965576
 10
750.179199
 20
657.965576
 10
750.302307
 20
657.965576
 10
750.355652
 20
657.965576
  0
LINE
  5
1A6
330
145
100
AcDbEntity
  8
0
  6
Continuous
 62
     0
370
     0
100
AcDbLine
 10
736.951899
 20
658.672684
 30
0.0
 11
750.648419
 21
658.672684
 31
0.0
  0
LINE
  5
1A7
330
145
100
AcDbEntity
  8
0
  6
Continuous
 62
     0
370
    30
100
AcDbLine
 10
736.951899
 20
659.329412
 30
0.0
 11
736.951899
 21
658.672684
 31
0.0
  0
LINE
  5
1A8
330
145
100
AcDbEntity
  8
0
  6
Continuous
 62
     0
370
    30
100
AcDbLine
 10
750.651899
 20
659.329468
 30
0.0
 11
750.651899
 21
658.672684
 31
0.0
  0
ARC
  5
1A9
330
145
100
AcDbEntity
  8
0
  6
Continuous
 62
     0
370
    30
100
AcDbCircle
 10
737.951771
 20
658.672631
 30
0.0
 40
0.9998715780157004
100
AcDbArc
 50
179.996952
 51
225.003048
  0
ARC
  5
1AA
330
145
100
AcDbEntity
  8
0
  6
Continuous
 62
     0
370
    30
100
AcDbCircle
 10
749.652027
 20
658.672631
 30
0.0
 40
0.9998715780167631
100
AcDbArc
 50
314.996952
 51
0.003048
  0
LINE
  5
1AB
330
145
100
AcDbEntity
  8
0
  6
Continuous
 62
     0
370
    30
100
AcDbLine
 10
750.094792
 20
657.701363
 30
0.0
 11
750.359006
 21
657.965577
 31
0.0
  0
LINE
  5
1AC
330
145
100
AcDbEntity
  8
0
  6
Continuous
 62
     0
370
    30
100
AcDbLine
 10
737.244792
 20
657.965577
 30
0.0
 11
737.509006
 21
657.701363
 31
0.0
  0
ARC
  5
1AD
330
145
100
AcDbEntity
  8
0
  6
Continuous
 62
     0
370
    30
100
AcDbCircle
 10
736.802027
 20
656.99431
 30
0.0
 40
0.9998715780386276
100
AcDbArc
 50
359.996952
 51
45.003048
  0
ARC
  5
1AE
330
145
100
AcDbEntity
  8
0
  6
Continuous
 62
     0
370
    30
100
AcDbCircle
 10
750.801771
 20
656.99431
 30
0.0
 40
0.9998715780324369
100
AcDbArc
 50
134.996952
 51
180.003048
  0
LINE
  5
1AF
330
145
100
AcDbEntity
  8
0
  6
Continuous
 62
     0
370
    30
100
AcDbLine
 10
737.801901
 20
656.994257
 30
0.0
 11
737.801901
 21
645.988759
 31
0.0
  0
LINE
  5
1B0
330
145
100
AcDbEntity
  8
0
  6
Continuous
 62
     0
370
    30
100
AcDbLine
 10
749.801897
 20
656.994257
 30
0.0
 11
749.801897
 21
645.988759
 31
0.0
  0
ARC
  5
1B1
330
145
100
AcDbEntity
  8
0
  6
Continuous
 62
     0
370
    30
100
AcDbCircle
 10
627.801773
 20
645.988758
 30
0.0
 40
110.000128007579
100
AcDbArc
 50
346.029933
 51
0.0
  0
ARC
  5
1B2
330
145
100
AcDbEntity
  8
0
  6
Continuous
 62
     0
370
    30
100
AcDbCircle
 10
859.802025
 20
645.988758
 30
0.0
 40
110.0001280075792
100
AcDbArc
 50
180.0
 51
193.970067
  0
ARC
  5
1B3
330
145
100
AcDbEntity
  8
0
  6
Continuous
 62
     0
370
    30
100
AcDbCircle
 10
874.358559
 20
649.610063
 30
0.0
 40
125.0003455153192
100
AcDbArc
 50
193.97008
 51
197.565101
  0
ARC
  5
1B4
330
145
100
AcDbEntity
  8
0
  6
Continuous
 62
     0
370
    30
100
AcDbCircle
 10
613.245239
 20
649.610063
 30
0.0
 40
125.0003455153007
100
AcDbArc
 50
342.434899
 51
346.02992
  0
ARC
  5
1B5
330
145
100
AcDbEntity
  8
0
  6
Continuous
 62
     0
370
    30
100
AcDbCircle
 10
731.94076
 20
612.037149
 30
0.0
 40
0.4999412031915078
100
AcDbArc
 50
284.601092
 51
342.438616
  0
ARC
  5
1B6
330
145
100
AcDbEntity
  8
0
  6
Continuous
 62
     0
370
    30
100
AcDbCircle
 10
755.663038
 20
612.037149
 30
0.0
 40
0.4999412031929402
100
AcDbArc
 50
197.561384
 51
255.398908
  0
ARC
  5
1B7
330
145
100
AcDbEntity
  8
0
  6
Continuous
 62
     0
370
    30
100
AcDbCircle
 10
755.158773
 20
610.101822
 30
0.0
 40
1.500002810725805
100
AcDbArc
 50
287.855892
 51
75.394817
  0
ARC
  5
1B8
330
145
100
AcDbEntity
  8
0
  6
Continuous
 62
     0
370
    30
100
AcDbCircle
 10
732.445025
 20
610.101822
 30
0.0
 40
1.500002810725863
100
AcDbArc
 50
104.605183
 51
252.144108
  0
ARC
  5
1B9
330
145
100
AcDbEntity
  8
0
  6
Continuous
 62
     0
370
    30
100
AcDbCircle
 10
731.862433
 20
608.293339
 30
0.0
 40
0.4000036523813419
100
AcDbArc
 50
300.437858
 51
72.14331
  0
ARC
  5
1BA
330
145
100
AcDbEntity
  8
0
  6
Continuous
 62
     0
370
    30
100
AcDbCircle
 10
755.741365
 20
608.293339
 30
0.0
 40
0.4000036523814997
100
AcDbArc
 50
107.85669
 51
239.562142
  0
ARC
  5
1BB
330
145
100
AcDbEntity
  8
0
  6
Continuous
 62
     0
370
    30
100
AcDbCircle
 10
755.158774
 20
607.301823
 30
0.0
 40
0.7500036586308444
100
AcDbArc
 50
291.763051
 51
59.562739
  0
ARC
  5
1BC
330
145
100
AcDbEntity
  8
0
  6
Continuous
 62
     0
370
    30
100
AcDbCircle
 10
732.445024
 20
607.301823
 30
0.0
 40
0.7500036586312817
100
AcDbArc
 50
120.437261
 51
248.236949
  0
ARC
  5
1BD
330
145
100
AcDbEntity
  8
0
  6
Continuous
 62
     0
370
    30
100
AcDbCircle
 10
731.425372
 20
604.747781
 30
0.0
 40
2.000053853851714
100
AcDbArc
 50
0.001045
 51
68.236474
  0
ARC
  5
1BE
330
145
100
AcDbEntity
  8
0
  6
Continuous
 62
     0
370
    30
100
AcDbCircle
 10
756.178426
 20
604.747781
 30
0.0
 40
2.00005385385367
100
AcDbArc
 50
111.763526
 51
179.998955
  0
LINE
  5
1BF
330
145
100
AcDbEntity
  8
0
  6
Continuous
 62
     0
370
    30
100
AcDbLine
 10
733.425426
 20
604.747818
 30
0.0
 11
733.425426
 21
604.074786
 31
0.0
  0
LINE
  5
1C0
330
145
100
AcDbEntity
  8
0
  6
Continuous
 62
     0
370
    30
100
AcDbLine
 10
754.178372
 20
604.747818
 30
0.0
 11
754.178372
 21
604.074786
 31
0.0
  0
ARC
  5
1C1
330
145
100
AcDbEntity
  8
0
  6
Continuous
 62
     0
370
    30
100
AcDbCircle
 10
733.675401
 20
604.074766
 30
0.0
 40
0.2499749388955777
100
AcDbArc
 50
179.995369
 51
257.760784
  0
ARC
  5
1C2
330
145
100
AcDbEntity
  8
0
  6
Continuous
 62
     0
370
    30
100
AcDbCircle
 10
753.928397
 20
604.074766
 30
0.0
 40
0.2499749389070207
100
AcDbArc
 50
282.239216
 51
0.004631
  0
ARC
  5
1C3
330
145
100
AcDbEntity
  8
0
  6
Continuous
 62
     0
370
    30
100
AcDbCircle
 10
743.80181
 20
650.73783
 30
0.0
 40
47.99917129946249
100
AcDbArc
 50
257.756047
 51
270.000106
  0
ARC
  5
1C4
330
145
100
AcDbEntity
  8
0
  6
Continuous
 62
     0
370
    30
100
AcDbCircle
 10
743.801988
 20
650.73783
 30
0.0
 40
47.99917121824235
100
AcDbArc
 50
270.001116
 51
282.243953
  0
LINE
  5
1C5
330
145
100
AcDbEntity
  8
0
  6
Continuous
 62
     0
370
    30
100
AcDbLine
 10
758.151893
 20
665.816569
 30
0.0
 11
758.151893
 21
663.762155
 31
0.0
  0
LWPOLYLINE
  5
1C6
330
145
100
AcDbEntity
  8
0
  6
Continuous
 62
     0
370
    30
100
AcDbPolyline
 90
       31
 70
     0
 43
0.0
 10
758.151917
 20
683.983215
 10
758.151917
 20
683.945923
 10
758.151917
 20
683.831787
 10
758.151917
 20
683.642029
 10
758.151917
 20
683.379578
 10
758.151917
 20
683.049011
 10
758.151917
 20
682.656067
 10
758.151917
 20
682.207703
 10
758.151917
 20
681.711609
 10
758.151917
 20
681.175781
 10
758.151917
 20
680.608521
 10
758.151917
 20
680.0177
 10
758.151917
 20
679.393738
 10
758.151917
 20
678.718872
 10
758.151917
 20
677.99585
 10
758.151917
 20
677.228821
 10
758.151917
 20
676.423279
 10
758.151917
 20
675.58606
 10
758.151917
 20
674.725281
 10
758.151917
 20
673.849854
 10
758.151917
 20
672.969421
 10
758.151917
 20
672.094116
 10
758.151917
 20
671.233887
 10
758.151917
 20
670.398254
 10
758.151917
 20
669.59613
 10
758.151917
 20
668.835205
 10
758.151917
 20
668.122009
 10
758.151917
 20
667.461548
 10
758.151917
 20
666.857361
 10
758.151917
 20
666.311707
 10
758.151917
 20
665.816589
  0
LINE
  5
1C7
330
145
100
AcDbEntity
  8
0
  6
Continuous
 62
     0
370
     0
100
AcDbLine
 10
757.434025
 20
665.182495
 30
0.0
 11
757.434025
 21
684.778979
 31
0.0
  0
LINE
  5
1C8
330
145
100
AcDbEntity
  8
0
  6
Continuous
 62
     0
370
     0
100
AcDbLine
 10
757.434025
 20
662.966382
 30
0.0
 11
757.434025
 21
665.182495
 31
0.0
  0
LINE
  5
1C9
330
145
100
AcDbEntity
  8
0
  6
Continuous
 62
     0
370
     0
100
AcDbLine
 10
753.900765
 20
662.543954
 30
0.0
 11
753.900764
 21
688.090383
 31
0.0
  0
LINE
  5
1CA
330
145
100
AcDbEntity
  8
0
  6
Continuous
 62
     0
370
     0
100
AcDbLine
 10
753.900764
 20
659.654978
 30
0.0
 11
753.900765
 21
662.543954
 31
0.0
  0
LINE
  5
1CB
330
145
100
AcDbEntity
  8
0
  6
Continuous
 62
     0
370
     0
100
AcDbLine
 10
753.714036
 20
662.411403
 30
0.0
 11
753.714036
 21
688.256736
 31
0.0
  0
LINE
  5
1CC
330
145
100
AcDbEntity
  8
0
  6
Continuous
 62
     0
370
     0
100
AcDbLine
 10
753.714036
 20
659.488625
 30
0.0
 11
753.714036
 21
662.411403
 31
0.0
  0
LINE
  5
1CD
330
145
100
AcDbEntity
  8
0
  6
Continuous
 62
     0
370
     0
100
AcDbLine
 10
752.028064
 20
662.340999
 30
0.0
 11
752.028064
 21
688.345094
 31
0.0
  0
LINE
  5
1CE
330
145
100
AcDbEntity
  8
0
  6
Continuous
 62
     0
370
     0
100
AcDbLine
 10
752.028064
 20
659.400268
 30
0.0
 11
752.028064
 21
662.340999
 31
0.0
  0
ARC
  5
1CF
330
145
100
AcDbEntity
  8
0
  6
Continuous
 62
     0
370
    30
100
AcDbCircle
 10
752.001895
 20
687.845753
 30
0.0
 40
0.4999966744156015
100
AcDbArc
 50
86.999851
 51
178.653967
  0
ARC
  5
1D0
330
145
100
AcDbEntity
  8
0
  6
Continuous
 62
     0
370
    30
100
AcDbCircle
 10
752.001895
 20
659.899599
 30
0.0
 40
0.4999967989112921
100
AcDbArc
 50
181.345054
 51
273.000133
  0
LINE
  5
1D1
330
145
100
AcDbEntity
  8
0
  6
Continuous
 62
     0
370
    30
100
AcDbLine
 10
753.714036
 20
659.488614
 30
0.0
 11
752.028064
 21
659.400256
 31
0.0
  0
LINE
  5
1D2
330
145
100
AcDbEntity
  8
0
  6
Continuous
 62
     0
370
    30
100
AcDbLine
 10
753.714036
 20
688.256747
 30
0.0
 11
752.028064
 21
688.345105
 31
0.0
  0
ARC
  5
1D3
330
145
100
AcDbEntity
  8
0
  6
Continuous
 62
     0
370
    30
100
AcDbCircle
 10
753.703586
 20
688.057041
 30
0.0
 40
0.1999797046858874
100
AcDbArc
 50
9.600897
 51
87.004658
  0
ARC
  5
1D4
330
145
100
AcDbEntity
  8
0
  6
Continuous
 62
     0
370
    30
100
AcDbCircle
 10
753.703586
 20
659.68832
 30
0.0
 40
0.1999797047008562
100
AcDbArc
 50
272.995342
 51
350.399103
  0
ARC
  5
1D5
330
145
100
AcDbEntity
  8
0
  6
Continuous
 62
     0
370
    30
100
AcDbCircle
 10
757.844858
 20
658.987324
 30
0.0
 40
4.000202897667425
100
AcDbArc
 50
95.894851
 51
170.392235
  0
ARC
  5
1D6
330
145
100
AcDbEntity
  8
0
  6
Continuous
 62
     0
370
    30
100
AcDbCircle
 10
757.844858
 20
688.758038
 30
0.0
 40
4.00020289766851
100
AcDbArc
 50
189.607765
 51
264.105149
  0
ARC
  5
1D7
330
145
100
AcDbEntity
  8
0
  6
Continuous
 62
     0
370
    30
100
AcDbCircle
 10
757.351893
 20
663.762147
 30
0.0
 40
0.8000001018819882
100
AcDbArc
 50
275.892648
 51
359.992318
  0
ARC
  5
1D8
330
145
100
AcDbEntity
  8
0
  6
Continuous
 62
     0
370
    30
100
AcDbCircle
 10
757.351893
 20
683.983215
 30
0.0
 40
0.800000101884744
100
AcDbArc
 50
0.007682
 51
84.107352
  0
ENDBLK
  5
1DA
330
145
100
AcDbEntity
  8
0
100
AcDbBlockEnd
  0
BLOCK
  5
272
330
1DC
100
AcDbEntity
  8
0
100
AcDbBlockBegin
  2
d
 70
     0
 10
397.016266
 20
0.0
 30
0.0
  3
d
  1

  0
ARC
  5
1DD
330
1DC
100
AcDbEntity
  8
0
  6
Continuous
 62
     0
370
    30
100
AcDbCircle
 10
290.896933
 20
673.872379
 30
0.0
 40
15.00082585648059
100
AcDbArc
 50
143.772544
 51
179.994808
  0
ARC
  5
1DE
330
1DC
100
AcDbEntity
  8
0
  6
Continuous
 62
     0
370
    30
100
AcDbCircle
 10
290.896933
 20
673.873013
 30
0.0
 40
15.00082585653268
100
AcDbArc
 50
180.005192
 51
216.227456
  0
LINE
  5
1DF
330
1DC
100
AcDbEntity
  8
0
  6
Continuous
 62
     0
370
     0
100
AcDbLine
 10
343.846038
 20
603.872678
 30
0.0
 11
343.846038
 21
483.872678
 31
0.0
  0
LINE
  5
1E0
330
1DC
100
AcDbEntity
  8
0
  6
Continuous
 62
     0
370
    30
100
AcDbLine
 10
343.846038
 20
603.872678
 30
0.0
 11
351.846038
 21
603.872678
 31
0.0
  0
LINE
  5
1E1
330
1DC
100
AcDbEntity
  8
0
  6
Continuous
 62
     0
370
    30
100
AcDbLine
 10
351.846038
 20
483.872678
 30
0.0
 11
351.846038
 21
603.872678
 31
0.0
  0
LWPOLYLINE
  5
1E2
330
1DC
100
AcDbEntity
  8
0
  6
Continuous
 62
     0
370
     0
100
AcDbPolyline
 90
       10
 70
     0
 43
0.0
 10
346.346039
 20
483.909454
 10
346.704865
 20
483.908356
 10
347.054352
 20
483.905243
 10
347.382507
 20
483.900482
 10
347.679413
 20
483.894623
 10
347.936707
 20
483.888336
 10
348.147583
 20
483.882385
 10
348.305481
 20
483.877472
 10
348.406158
 20
483.874146
 10
348.44632
 20
483.872681
  0
LWPOLYLINE
  5
1E3
330
1DC
100
AcDbEntity
  8
0
  6
Continuous
 62
     0
370
     0
100
AcDbPolyline
 90
       10
 70
     0
 43
0.0
 10
344.245728
 20
483.872681
 10
344.278046
 20
483.87381
 10
344.372833
 20
483.877014
 10
344.525604
 20
483.881805
 10
344.731598
 20
483.887695
 10
344.984406
 20
483.893951
 10
345.277374
 20
483.899902
 10
345.602661
 20
483.904816
 10
345.950409
 20
483.908142
 10
346.346039
 20
483.909454
  0
ARC
  5
1E4
330
1DC
100
AcDbEntity
  8
0
  6
Continuous
 62
     0
370
    30
100
AcDbCircle
 10
343.846038
 20
603.372678
 30
0.0
 40
0.4999999999996486
100
AcDbArc
 50
90.00001
 51
180.0
  0
LINE
  5
1E5
330
1DC
100
AcDbEntity
  8
0
  6
Continuous
 62
     0
370
    30
100
AcDbLine
 10
343.346038
 20
603.372678
 30
0.0
 11
343.346038
 21
484.372678
 31
0.0
  0
LINE
  5
1E6
330
1DC
100
AcDbEntity
  8
0
  6
Continuous
 62
     0
370
     0
100
AcDbLine
 10
342.346038
 20
602.372678
 30
0.0
 11
342.346038
 21
485.372678
 31
0.0
  0
ARC
  5
1E7
330
1DC
100
AcDbEntity
  8
0
  6
Continuous
 62
     0
370
    30
100
AcDbCircle
 10
342.346038
 20
603.372678
 30
0.0
 40
0.9999999999992966
100
AcDbArc
 50
270.0
 51
360.0
  0
ARC
  5
1E8
330
1DC
100
AcDbEntity
  8
0
  6
Continuous
 62
     0
370
    30
100
AcDbCircle
 10
342.346038
 20
601.872678
 30
0.0
 40
0.4999999999979643
100
AcDbArc
 50
90.0
 51
180.0
  0
LINE
  5
1E9
330
1DC
100
AcDbEntity
  8
0
  6
Continuous
 62
     0
370
    30
100
AcDbLine
 10
341.846038
 20
601.872678
 30
0.0
 11
341.846038
 21
485.872678
 31
0.0
  0
LINE
  5
1EA
330
1DC
100
AcDbEntity
  8
0
  6
Continuous
 62
     0
370
    30
100
AcDbLine
 10
344.245819
 20
483.872678
 30
0.0
 11
348.446219
 21
483.872678
 31
0.0
  0
ARC
  5
1EB
330
1DC
100
AcDbEntity
  8
0
  6
Continuous
 62
     0
370
    30
100
AcDbCircle
 10
342.346053
 20
485.872693
 30
0.0
 40
0.5000149691632015
100
AcDbArc
 50
180.009818
 51
269.998285
  0
ARC
  5
1EC
330
1DC
100
AcDbEntity
  8
0
  6
Continuous
 62
     0
370
    30
100
AcDbCircle
 10
342.346035
 20
484.372675
 30
0.0
 40
1.00000341169028
100
AcDbArc
 50
0.000195
 51
89.999805
  0
ARC
  5
1ED
330
1DC
100
AcDbEntity
  8
0
  6
Continuous
 62
     0
370
    30
100
AcDbCircle
 10
343.846053
 20
484.372693
 30
0.0
 40
0.5000149691661613
100
AcDbArc
 50
180.009818
 51
269.998285
  0
LINE
  5
1EE
330
1DC
100
AcDbEntity
  8
0
  6
Continuous
 62
     0
370
    30
100
AcDbLine
 10
343.846038
 20
483.872678
 30
0.0
 11
344.245819
 21
483.872678
 31
0.0
  0
LINE
  5
1EF
330
1DC
100
AcDbEntity
  8
0
  6
Continuous
 62
     0
370
    30
100
AcDbLine
 10
351.846038
 20
483.872678
 30
0.0
 11
348.446217
 21
483.872678
 31
0.0
  0
LINE
  5
1F0
330
1DC
100
AcDbEntity
  8
0
  6
Continuous
 62
     0
370
    30
100
AcDbLine
 10
317.742562
 20
570.435596
 30
0.0
 11
310.842562
 21
570.435596
 31
0.0
  0
LINE
  5
1F1
330
1DC
100
AcDbEntity
  8
0
  6
Continuous
 62
     0
370
    30
100
AcDbLine
 10
318.242562
 20
569.935596
 30
0.0
 11
317.742562
 21
570.435596
 31
0.0
  0
LINE
  5
1F2
330
1DC
100
AcDbEntity
  8
0
  6
Continuous
 62
     0
370
    30
100
AcDbLine
 10
318.242562
 20
569.935596
 30
0.0
 11
310.342562
 21
569.935596
 31
0.0
  0
LINE
  5
1F3
330
1DC
100
AcDbEntity
  8
0
  6
Continuous
 62
     0
370
    30
100
AcDbLine
 10
318.242562
 20
569.935596
 30
0.0
 11
318.242562
 21
563.366267
 31
0.0
  0
LWPOLYLINE
  5
1F4
330
1DC
100
AcDbEntity
  8
0
  6
Continuous
 62
     0
370
    30
100
AcDbPolyline
 90
       24
 70
     0
 43
0.0
 10
310.342438
 20
563.364929
 10
310.379913
 20
563.344116
 10
310.490601
 20
563.308472
 10
310.671661
 20
563.260986
 10
310.920227
 20
563.204468
 10
311.23172
 20
563.142151
 10
311.59906
 20
563.077515
 10
312.015015
 20
563.014038
 10
312.472443
 20
562.956116
 10
312.964386
 20
562.909302
 10
313.482086
 20
562.87738
 10
314.015594
 20
562.862122
 10
314.554474
 20
562.862488
 10
315.088257
 20
562.877625
 10
315.606567
 20
562.908508
 10
316.099487
 20
562.954224
 10
316.557922
 20
563.011719
 10
316.974609
 20
563.075378
 10
317.342865
 20
563.140137
 10
317.655975
 20
563.202576
 10
317.907257
 20
563.259216
 10
318.091034
 20
563.307068
 10
318.203644
 20
563.343384
 10
318.242554
 20
563.366272
  0
LINE
  5
1F5
330
1DC
100
AcDbEntity
  8
0
  6
Continuous
 62
     0
370
    30
100
AcDbLine
 10
303.292561
 20
543.872678
 30
0.0
 11
303.292562
 21
524.872678
 31
0.0
  0
LWPOLYLINE
  5
1F6
330
1DC
100
AcDbEntity
  8
0
  6
Continuous
 62
     0
370
    30
100
AcDbPolyline
 90
       26
 70
     0
 43
0.0
 10
303.292572
 20
562.872681
 10
303.292572
 20
562.834961
 10
303.292572
 20
562.722473
 10
303.292572
 20
562.53595
 10
303.292572
 20
562.276428
 10
303.292572
 20
561.944763
 10
303.292572
 20
561.541809
 10
303.292572
 20
561.068726
 10
303.292572
 20
560.527527
 10
303.292572
 20
559.920898
 10
303.292572
 20
559.251587
 10
303.292572
 20
558.522156
 10
303.292572
 20
557.735413
 10
303.292572
 20
556.893982
 10
303.292572
 20
556.001099
 10
303.292572
 20
555.060425
 10
303.292572
 20
554.075684
 10
303.292572
 20
553.050537
 10
303.292572
 20
551.988708
 10
303.292572
 20
550.893921
 10
303.292572
 20
549.770386
 10
303.292572
 20
548.623413
 10
303.292572
 20
547.458557
 10
303.292572
 20
546.28125
 10
303.292572
 20
545.096924
 10
303.292572
 20
543.872681
  0
LINE
  5
1F7
330
1DC
100
AcDbEntity
  8
0
  6
Continuous
 62
     0
370
    30
100
AcDbLine
 10
303.792561
 20
543.872678
 30
0.0
 11
303.792562
 21
563.372678
 31
0.0
  0
LWPOLYLINE
  5
1F8
330
1DC
100
AcDbEntity
  8
0
  6
Continuous
 62
     0
370
    30
100
AcDbPolyline
 90
       26
 70
     0
 43
0.0
 10
303.792572
 20
524.372681
 10
303.792572
 20
524.411377
 10
303.792572
 20
524.527039
 10
303.792572
 20
524.718628
 10
303.792572
 20
524.985291
 10
303.792572
 20
525.326111
 10
303.792572
 20
525.740051
 10
303.792572
 20
526.226135
 10
303.792572
 20
526.782166
 10
303.792572
 20
527.405396
 10
303.792572
 20
528.093079
 10
303.792572
 20
528.842407
 10
303.792572
 20
529.650696
 10
303.792572
 20
530.515137
 10
303.792572
 20
531.432373
 10
303.792572
 20
532.398743
 10
303.792572
 20
533.410339
 10
303.792572
 20
534.463379
 10
303.792572
 20
535.554138
 10
303.792572
 20
536.678711
 10
303.792572
 20
537.832703
 10
303.792572
 20
539.010742
 10
303.792572
 20
540.207092
 10
303.792572
 20
541.416199
 10
303.792572
 20
542.632446
 10
303.792572
 20
543.872681
  0
LINE
  5
1F9
330
1DC
100
AcDbEntity
  8
0
  6
Continuous
 62
     0
370
    30
100
AcDbLine
 10
341.292562
 20
543.872678
 30
0.0
 11
341.292562
 21
563.372678
 31
0.0
  0
LINE
  5
1FA
330
1DC
100
AcDbEntity
  8
0
  6
Continuous
 62
     0
370
    30
100
AcDbLine
 10
341.292562
 20
524.372678
 30
0.0
 11
341.292562
 21
543.872678
 31
0.0
  0
ARC
  5
1FB
330
1DC
100
AcDbEntity
  8
0
  6
Continuous
 62
     0
370
     0
100
AcDbCircle
 10
318.029126
 20
524.597142
 30
0.0
 40
0.2244941448244698
100
AcDbArc
 50
269.005241
 51
283.759406
  0
LWPOLYLINE
  5
1FC
330
1DC
100
AcDbEntity
  8
0
  6
Continuous
 62
     0
370
     0
100
AcDbPolyline
 90
        5
 70
     0
 43
0.0
 10
310.565857
 20
524.372681
 10
310.484375
 20
524.386841
 10
310.443207
 20
524.430481
 10
310.442719
 20
524.50354
 10
310.490662
 20
524.618408
  0
ARC
  5
1FD
330
1DC
100
AcDbEntity
  8
0
  6
Continuous
 62
     0
370
     0
100
AcDbCircle
 10
314.292562
 20
508.114164
 30
0.0
 40
16.93649428738522
100
AcDbArc
 50
77.027699
 51
102.972301
  0
LWPOLYLINE
  5
1FE
330
1DC
100
AcDbEntity
  8
0
  6
Continuous
 62
     0
370
     0
100
AcDbPolyline
 90
        4
 70
     0
 43
0.0
 10
318.094452
 20
524.618408
 10
318.140961
 20
524.503906
 10
318.139893
 20
524.424683
 10
318.08252
 20
524.379089
  0
LINE
  5
1FF
330
1DC
100
AcDbEntity
  8
0
  6
Continuous
 62
     0
370
    30
100
AcDbLine
 10
310.564434
 20
524.372681
 30
0.0
 11
318.025554
 21
524.372681
 31
0.0
  0
LINE
  5
200
330
1DC
100
AcDbEntity
  8
0
  6
Continuous
 62
     0
370
    30
100
AcDbLine
 10
341.292562
 20
563.372678
 30
0.0
 11
318.242562
 21
563.372678
 31
0.0
  0
LINE
  5
201
330
1DC
100
AcDbEntity
  8
0
  6
Continuous
 62
     0
370
    30
100
AcDbLine
 10
310.342562
 20
563.372678
 30
0.0
 11
303.792562
 21
563.372678
 31
0.0
  0
LINE
  5
202
330
1DC
100
AcDbEntity
  8
0
  6
Continuous
 62
     0
370
    30
100
AcDbLine
 10
341.292562
 20
524.372678
 30
0.0
 11
318.025523
 21
524.372678
 31
0.0
  0
LINE
  5
203
330
1DC
100
AcDbEntity
  8
0
  6
Continuous
 62
     0
370
    30
100
AcDbLine
 10
310.56446
 20
524.372678
 30
0.0
 11
303.792562
 21
524.372678
 31
0.0
  0
LINE
  5
204
330
1DC
100
AcDbEntity
  8
0
  6
Continuous
 62
     0
370
    30
100
AcDbLine
 10
303.292562
 20
524.872678
 30
0.0
 11
303.792562
 21
524.372678
 31
0.0
  0
LINE
  5
205
330
1DC
100
AcDbEntity
  8
0
  6
Continuous
 62
     0
370
    30
100
AcDbLine
 10
303.292562
 20
562.872678
 30
0.0
 11
303.792562
 21
563.372678
 31
0.0
  0
LINE
  5
206
330
1DC
100
AcDbEntity
  8
0
  6
Continuous
 62
     0
370
    30
100
AcDbLine
 10
310.342562
 20
569.935596
 30
0.0
 11
310.342562
 21
563.364943
 31
0.0
  0
LINE
  5
207
330
1DC
100
AcDbEntity
  8
0
  6
Continuous
 62
     0
370
    30
100
AcDbLine
 10
310.342562
 20
569.935596
 30
0.0
 11
310.842562
 21
570.435596
 31
0.0
  0
LINE
  5
208
330
1DC
100
AcDbEntity
  8
0
  6
Continuous
 62
     0
370
    30
100
AcDbLine
 10
307.146057
 20
681.079589
 30
0.0
 11
307.146057
 21
663.308959
 31
0.0
  0
LINE
  5
209
330
1DC
100
AcDbEntity
  8
0
  6
Continuous
 62
     0
370
    30
100
AcDbLine
 10
307.146057
 20
684.436433
 30
0.0
 11
307.146057
 21
681.079589
 31
0.0
  0
LINE
  5
20A
330
1DC
100
AcDbEntity
  8
0
  6
Continuous
 62
     0
370
     0
100
AcDbLine
 10
305.646057
 20
680.012761
 30
0.0
 11
305.646057
 21
682.872696
 31
0.0
  0
LINE
  5
20B
330
1DC
100
AcDbEntity
  8
0
  6
Continuous
 62
     0
370
     0
100
AcDbLine
 10
305.646057
 20
664.872696
 30
0.0
 11
305.646057
 21
680.012761
 31
0.0
  0
LINE
  5
20C
330
1DC
100
AcDbEntity
  8
0
  6
Continuous
 62
     0
370
     0
100
AcDbLine
 10
331.260243
 20
684.755735
 30
0.0
 11
331.260244
 21
657.920527
 31
0.0
  0
LINE
  5
20D
330
1DC
100
AcDbEntity
  8
0
  6
Continuous
 62
     0
370
     0
100
AcDbLine
 10
331.260244
 20
689.824864
 30
0.0
 11
331.260243
 21
684.755735
 31
0.0
  0
LINE
  5
20E
330
1DC
100
AcDbEntity
  8
0
  6
Continuous
 62
     0
370
     0
100
AcDbLine
 10
307.581032
 20
681.417806
 30
0.0
 11
307.581032
 21
684.932187
 31
0.0
  0
LWPOLYLINE
  5
20F
330
1DC
100
AcDbEntity
  8
0
  6
Continuous
 62
     0
370
     0
100
AcDbPolyline
 90
       30
 70
     0
 43
0.0
 10
307.581024
 20
662.813232
 10
307.581024
 20
662.852478
 10
307.581024
 20
662.96936
 10
307.581024
 20
663.16095
 10
307.581024
 20
663.423096
 10
307.581024
 20
663.750305
 10
307.581024
 20
664.136108
 10
307.581024
 20
664.573425
 10
307.581024
 20
665.054688
 10
307.581024
 20
665.572205
 10
307.581024
 20
666.124634
 10
307.581024
 20
666.732666
 10
307.581024
 20
667.397888
 10
307.581024
 20
668.117981
 10
307.581024
 20
668.889343
 10
307.581024
 20
669.707092
 10
307.581024
 20
670.564819
 10
307.581024
 20
671.455078
 10
307.581024
 20
672.369263
 10
307.581024
 20
673.298035
 10
307.581024
 20
674.231567
 10
307.581024
 20
675.159973
 10
307.581024
 20
676.073425
 10
307.581024
 20
676.96283
 10
307.581024
 20
677.819824
 10
307.581024
 20
678.637146
 10
307.581024
 20
679.408875
 10
307.581024
 20
680.130188
 10
307.581024
 20
680.797852
 10
307.581024
 20
681.417786
  0
LINE
  5
210
330
1DC
100
AcDbEntity
  8
0
  6
Continuous
 62
     0
370
     0
100
AcDbLine
 10
341.087284
 20
692.345021
 30
0.0
 11
341.087284
 21
646.796286
 31
0.0
  0
LINE
  5
211
330
1DC
100
AcDbEntity
  8
0
  6
Continuous
 62
     0
370
     0
100
AcDbLine
 10
341.087284
 20
700.949106
 30
0.0
 11
341.087284
 21
692.345021
 31
0.0
  0
LINE
  5
212
330
1DC
100
AcDbEntity
  8
0
  6
Continuous
 62
     0
370
     0
100
AcDbLine
 10
341.581411
 20
692.634007
 30
0.0
 11
341.581411
 21
646.372695
 31
0.0
  0
LINE
  5
213
330
1DC
100
AcDbEntity
  8
0
  6
Continuous
 62
     0
370
     0
100
AcDbLine
 10
341.581411
 20
701.372697
 30
0.0
 11
341.581411
 21
692.634007
 31
0.0
  0
LINE
  5
214
330
1DC
100
AcDbEntity
  8
0
  6
Continuous
 62
     0
370
    30
100
AcDbLine
 10
348.146057
 20
692.634007
 30
0.0
 11
348.146057
 21
701.372697
 31
0.0
  0
LINE
  5
215
330
1DC
100
AcDbEntity
  8
0
  6
Continuous
 62
     0
370
    30
100
AcDbLine
 10
348.146057
 20
646.372695
 30
0.0
 11
348.146057
 21
692.634007
 31
0.0
  0
ARC
  5
216
330
1DC
100
AcDbEntity
  8
0
  6
Continuous
 62
     0
370
    30
100
AcDbCircle
 10
341.581416
 20
646.872737
 30
0.0
 40
0.5000053161421741
100
AcDbArc
 50
188.797349
 51
269.999488
  0
ARC
  5
217
330
1DC
100
AcDbEntity
  8
0
  6
Continuous
 62
     0
370
    30
100
AcDbCircle
 10
341.581416
 20
700.872651
 30
0.0
 40
0.5000052496341119
100
AcDbArc
 50
90.000505
 51
171.201701
  0
LINE
  5
218
330
1DC
100
AcDbEntity
  8
0
  6
Continuous
 62
     0
370
    30
100
AcDbLine
 10
348.146057
 20
701.372697
 30
0.0
 11
341.581411
 21
701.372697
 31
0.0
  0
LINE
  5
219
330
1DC
100
AcDbEntity
  8
0
  6
Continuous
 62
     0
370
    30
100
AcDbLine
 10
348.146057
 20
646.372695
 30
0.0
 11
341.581411
 21
646.372695
 31
0.0
  0
ARC
  5
21A
330
1DC
100
AcDbEntity
  8
0
  6
Continuous
 62
     0
370
    30
100
AcDbCircle
 10
327.498788
 20
644.695022
 30
0.0
 40
13.7500018379243
100
AcDbArc
 50
8.790338
 51
74.123759
  0
ARC
  5
21B
330
1DC
100
AcDbEntity
  8
0
  6
Continuous
 62
     0
370
    30
100
AcDbCircle
 10
327.498788
 20
703.05037
 30
0.0
 40
13.75000183792454
100
AcDbArc
 50
285.876241
 51
351.209662
  0
ARC
  5
21C
330
1DC
100
AcDbEntity
  8
0
  6
Continuous
 62
     0
370
    30
100
AcDbCircle
 10
307.646063
 20
684.436411
 30
0.0
 40
0.500006116362331
100
AcDbArc
 50
97.473093
 51
179.999302
  0
ARC
  5
21D
330
1DC
100
AcDbEntity
  8
0
  6
Continuous
 62
     0
370
    30
100
AcDbCircle
 10
307.646062
 20
663.308978
 30
0.0
 40
0.500005029989844
100
AcDbArc
 50
180.012039
 51
262.527017
  0
ARC
  5
21E
330
1DC
100
AcDbEntity
  8
0
  6
Continuous
 62
     0
370
    30
100
AcDbCircle
 10
286.122954
 20
499.215255
 30
0.0
 40
164.9992078060642
100
AcDbArc
 50
74.123744
 51
82.527542
  0
ARC
  5
21F
330
1DC
100
AcDbEntity
  8
0
  6
Continuous
 62
     0
370
    30
100
AcDbCircle
 10
286.122954
 20
848.530137
 30
0.0
 40
164.9992078060931
100
AcDbArc
 50
277.472458
 51
285.876256
  0
ARC
  5
220
330
1DC
100
AcDbEntity
  8
0
  6
Continuous
 62
     0
370
    30
100
AcDbCircle
 10
305.64599
 20
684.372763
 30
0.0
 40
1.500067575882252
100
AcDbArc
 50
270.002581
 51
359.997419
  0
ARC
  5
221
330
1DC
100
AcDbEntity
  8
0
  6
Continuous
 62
     0
370
    30
100
AcDbCircle
 10
305.64599
 20
663.372628
 30
0.0
 40
1.500067575884789
100
AcDbArc
 50
0.002581
 51
89.997419
  0
LINE
  5
222
330
1DC
100
AcDbEntity
  8
0
  6
Continuous
 62
     0
370
    30
100
AcDbLine
 10
305.646057
 20
682.872696
 30
0.0
 11
302.254964
 21
682.872696
 31
0.0
  0
LINE
  5
223
330
1DC
100
AcDbEntity
  8
0
  6
Continuous
 62
     0
370
    30
100
AcDbLine
 10
305.646057
 20
664.872696
 30
0.0
 11
302.254964
 21
664.872696
 31
0.0
  0
LINE
  5
224
330
1DC
100
AcDbEntity
  8
0
  6
Continuous
 62
     0
370
    30
100
AcDbLine
 10
285.446106
 20
659.887875
 30
0.0
 11
285.446106
 21
687.857517
 31
0.0
  0
ARC
  5
225
330
1DC
100
AcDbEntity
  8
0
  6
Continuous
 62
     0
370
    30
100
AcDbCircle
 10
285.946106
 20
659.887875
 30
0.0
 40
0.5000000000076634
100
AcDbArc
 50
180.0
 51
252.391388
  0
LINE
  5
226
330
1DC
100
AcDbEntity
  8
0
  6
Continuous
 62
     0
370
     0
100
AcDbLine
 10
285.794849
 20
688.33409
 30
0.0
 11
285.794849
 21
659.411302
 31
0.0
  0
ARC
  5
227
330
1DC
100
AcDbEntity
  8
0
  6
Continuous
 62
     0
370
    30
100
AcDbCircle
 10
293.146143
 20
682.573436
 30
0.0
 40
24.30073998183988
100
AcDbArc
 50
252.391388
 51
253.258238
  0
LINE
  5
228
330
1DC
100
AcDbEntity
  8
0
  6
Continuous
 62
     0
370
    30
100
AcDbLine
 10
300.146106
 20
659.302714
 30
0.0
 11
300.341507
 21
659.362389
 31
0.0
  0
LINE
  5
229
330
1DC
100
AcDbEntity
  8
0
  6
Continuous
 62
     0
370
     0
100
AcDbLine
 10
300.341507
 20
688.383003
 30
0.0
 11
300.341507
 21
659.362389
 31
0.0
  0
LWPOLYLINE
  5
22A
330
1DC
100
AcDbEntity
  8
0
  6
Continuous
 62
     0
370
    30
100
AcDbPolyline
 90
       32
 70
     0
 43
0.0
 10
300.146118
 20
659.302734
 10
300.109833
 20
659.309021
 10
300.003021
 20
659.328247
 10
299.825592
 20
659.359131
 10
299.578888
 20
659.400208
 10
299.268311
 20
659.450623
 10
298.893982
 20
659.507324
 10
298.462067
 20
659.568726
 10
297.975647
 20
659.632141
 10
297.439392
 20
659.694824
 10
296.859314
 20
659.754395
 10
296.241058
 20
659.808411
 10
295.590668
 20
659.854614
 10
294.915039
 20
659.891235
 10
294.220428
 20
659.916565
 10
293.512756
 20
659.929443
 10
292.800446
 20
659.929626
 10
292.092529
 20
659.917114
 10
291.397461
 20
659.892151
 10
290.721161
 20
659.855896
 10
290.069855
 20
659.809937
 10
289.450684
 20
659.756042
 10
288.869507
 20
659.696533
 10
288.331909
 20
659.633911
 10
287.843842
 20
659.570557
 10
287.410126
 20
659.509094
 10
287.03418
 20
659.452148
 10
286.72171
 20
659.401489
 10
286.472839
 20
659.360229
 10
286.293396
 20
659.329041
 10
286.184784
 20
659.309387
 10
286.146118
 20
659.302734
  0
ARC
  5
22B
330
1DC
100
AcDbEntity
  8
0
  6
Continuous
 62
     0
370
    30
100
AcDbCircle
 10
300.193459
 20
659.839968
 30
0.0
 40
0.5000000000085868
100
AcDbArc
 50
287.2233
 51
343.0
  0
LINE
  5
22C
330
1DC
100
AcDbEntity
  8
0
  6
Continuous
 62
     0
370
     0
100
AcDbLine
 10
300.671611
 20
688.05161
 30
0.0
 11
300.671611
 21
659.693782
 31
0.0
  0
LINE
  5
22D
330
1DC
100
AcDbEntity
  8
0
  6
Continuous
 62
     0
370
    30
100
AcDbLine
 10
300.671611
 20
659.693782
 30
0.0
 11
302.254964
 21
664.872696
 31
0.0
  0
LINE
  5
22E
330
1DC
100
AcDbEntity
  8
0
  6
Continuous
 62
     0
370
    30
100
AcDbLine
 10
302.254964
 20
682.872696
 30
0.0
 11
300.671611
 21
688.05161
 31
0.0
  0
ARC
  5
22F
330
1DC
100
AcDbEntity
  8
0
  6
Continuous
 62
     0
370
    30
100
AcDbCircle
 10
300.193505
 20
687.90547
 30
0.0
 40
0.4999426344120055
100
AcDbArc
 50
16.996521
 51
72.780179
  0
ARC
  5
230
330
1DC
100
AcDbEntity
  8
0
  6
Continuous
 62
     0
370
    30
100
AcDbCircle
 10
293.146143
 20
665.171772
 30
0.0
 40
24.30091503415146
100
AcDbArc
 50
72.776829
 51
107.608482
  0
ARC
  5
231
330
1DC
100
AcDbEntity
  8
0
  6
Continuous
 62
     0
370
    30
100
AcDbCircle
 10
285.94615
 20
687.857485
 30
0.0
 40
0.5000442460279345
100
AcDbArc
 50
107.612321
 51
179.989523
  0
LWPOLYLINE
  5
232
330
1DC
100
AcDbEntity
  8
0
  6
Continuous
 62
     0
370
     0
100
AcDbPolyline
 90
       38
 70
     0
 43
0.0
 10
282.971771
 20
603.830505
 10
282.977234
 20
603.830505
 10
283.046753
 20
603.830505
 10
283.185089
 20
603.830505
 10
283.395966
 20
603.830505
 10
283.681763
 20
603.830505
 10
284.043335
 20
603.830505
 10
284.479736
 20
603.830505
 10
284.988251
 20
603.830505
 10
285.56427
 20
603.830505
 10
286.201477
 20
603.830505
 10
286.89212
 20
603.830505
 10
287.627228
 20
603.830505
 10
288.397034
 20
603.830505
 10
289.191406
 20
603.830505
 10
290.000214
 20
603.830505
 10
290.813721
 20
603.830505
 10
291.622864
 20
603.830505
 10
292.419586
 20
603.830505
 10
293.202667
 20
603.830505
 10
294.002838
 20
603.830505
 10
294.819946
 20
603.830505
 10
295.646149
 20
603.830505
 10
296.472656
 20
603.830505
 10
297.289764
 20
603.830505
 10
298.087372
 20
603.830505
 10
298.855194
 20
603.830505
 10
299.58316
 20
603.830505
 10
300.261993
 20
603.830505
 10
300.883362
 20
603.830505
 10
301.440369
 20
603.830505
 10
301.927765
 20
603.830505
 10
302.342133
 20
603.830505
 10
302.681824
 20
603.830505
 10
302.947021
 20
603.830505
 10
303.139435
 20
603.830505
 10
303.262268
 20
603.830505
 10
303.320435
 20
603.830505
  0
LWPOLYLINE
  5
233
330
1DC
100
AcDbEntity
  8
0
  6
Continuous
 62
     0
370
     0
100
AcDbPolyline
 90
       38
 70
     0
 43
0.0
 10
282.769623
 20
604.074829
 10
282.800903
 20
604.074829
 10
282.89801
 20
604.074829
 10
283.065338
 20
604.074829
 10
283.306
 20
604.074829
 10
283.621857
 20
604.074829
 10
284.013123
 20
604.074829
 10
284.47821
 20
604.074829
 10
285.013824
 20
604.074829
 10
285.614868
 20
604.074829
 10
286.274628
 20
604.074829
 10
286.985016
 20
604.074829
 10
287.736969
 20
604.074829
 10
288.520691
 20
604.074829
 10
289.326172
 20
604.074829
 10
290.143463
 20
604.074829
 10
290.963165
 20
604.074829
 10
291.77652
 20
604.074829
 10
292.575836
 20
604.074829
 10
293.366272
 20
604.074829
 10
294.176697
 20
604.074829
 10
295.002594
 20
604.074829
 10
295.83606
 20
604.074829
 10
296.668243
 20
604.074829
 10
297.489532
 20
604.074829
 10
298.289886
 20
604.074829
 10
299.059174
 20
604.074829
 10
299.787598
 20
604.074829
 10
300.466034
 20
604.074829
 10
301.086456
 20
604.074829
 10
301.642181
 20
604.074829
 10
302.128235
 20
604.074829
 10
302.54129
 20
604.074829
 10
302.879913
 20
604.074829
 10
303.144318
 20
604.074829
 10
303.336304
 20
604.074829
 10
303.458984
 20
604.074829
 10
303.517303
 20
604.074829
  0
LINE
  5
234
330
1DC
100
AcDbEntity
  8
0
  6
Continuous
 62
     0
370
     0
100
AcDbLine
 10
303.517305
 20
604.747833
 30
0.0
 11
282.76963
 21
604.747833
 31
0.0
  0
LWPOLYLINE
  5
235
330
1DC
100
AcDbEntity
  8
0
  6
Continuous
 62
     0
370
     0
100
AcDbPolyline
 90
       40
 70
     0
 43
0.0
 10
281.517059
 20
606.605286
 10
281.521271
 20
606.605286
 10
281.591156
 20
606.605286
 10
281.731445
 20
606.605286
 10
281.945953
 20
606.605286
 10
282.237213
 20
606.605286
 10
282.606476
 20
606.605286
 10
283.053284
 20
606.605286
 10
283.575592
 20
606.605286
 10
284.169525
 20
606.605286
 10
284.829712
 20
606.605286
 10
285.549133
 20
606.605286
 10
286.319672
 20
606.605286
 10
287.132111
 20
606.605286
 10
287.976807
 20
606.605286
 10
288.84375
 20
606.605286
 10
289.723145
 20
606.605286
 10
290.60556
 20
606.605286
 10
291.48233
 20
606.605286
 10
292.345612
 20
606.605286
 10
293.194794
 20
606.605286
 10
294.06192
 20
606.605286
 10
294.946991
 20
606.605286
 10
295.842468
 20
606.605286
 10
296.739838
 20
606.605286
 10
297.629822
 20
606.605286
 10
298.502563
 20
606.605286
 10
299.348083
 20
606.605286
 10
300.156372
 20
606.605286
 10
300.91803
 20
606.605286
 10
301.62439
 20
606.605286
 10
302.268036
 20
606.605286
 10
302.842896
 20
606.605286
 10
303.344543
 20
606.605286
 10
303.770233
 20
606.605286
 10
304.118896
 20
606.605286
 10
304.391083
 20
606.605286
 10
304.588806
 20
606.605286
 10
304.715271
 20
606.605286
 10
304.775146
 20
606.605286
  0
LWPOLYLINE
  5
236
330
1DC
100
AcDbEntity
  8
0
  6
Continuous
 62
     0
370
     0
100
AcDbPolyline
 90
       40
 70
     0
 43
0.0
 10
281.415253
 20
607.948486
 10
281.419495
 20
607.948486
 10
281.490021
 20
607.948486
 10
281.631561
 20
607.948486
 10
281.847992
 20
607.948486
 10
282.141907
 20
607.948486
 10
282.514496
 20
607.948486
 10
282.965332
 20
607.948486
 10
283.49231
 20
607.948486
 10
284.091614
 20
607.948486
 10
284.75769
 20
607.948486
 10
285.483582
 20
607.948486
 10
286.260986
 20
607.948486
 10
287.080719
 20
607.948486
 10
287.932953
 20
607.948486
 10
288.807617
 20
607.948486
 10
289.694824
 20
607.948486
 10
290.585083
 20
607.948486
 10
291.469574
 20
607.948486
 10
292.340485
 20
607.948486
 10
293.197235
 20
607.948486
 10
294.072083
 20
607.948486
 10
294.965057
 20
607.948486
 10
295.868469
 20
607.948486
 10
296.773804
 20
607.948486
 10
297.671631
 20
607.948486
 10
298.552094
 20
607.948486
 10
299.404999
 20
607.948486
 10
300.220337
 20
607.948486
 10
300.988556
 20
607.948486
 10
301.701019
 20
607.948486
 10
302.350128
 20
607.948486
 10
302.92981
 20
607.948486
 10
303.435638
 20
607.948486
 10
303.864807
 20
607.948486
 10
304.216248
 20
607.948486
 10
304.490509
 20
607.948486
 10
304.689667
 20
607.948486
 10
304.816986
 20
607.948486
 10
304.876953
 20
607.948486
  0
LWPOLYLINE
  5
237
330
1DC
100
AcDbEntity
  8
0
  6
Continuous
 62
     0
370
     0
100
AcDbPolyline
 90
       40
 70
     0
 43
0.0
 10
281.335297
 20
608.674072
 10
281.339569
 20
608.674072
 10
281.410583
 20
608.674072
 10
281.553162
 20
608.674072
 10
281.771088
 20
608.674072
 10
282.067078
 20
608.674072
 10
282.442261
 20
608.674072
 10
282.89624
 20
608.674072
 10
283.426941
 20
608.674072
 10
284.030426
 20
608.674072
 10
284.701172
 20
608.674072
 10
285.432129
 20
608.674072
 10
286.214935
 20
608.674072
 10
287.040375
 20
608.674072
 10
287.898499
 20
608.674072
 10
288.779236
 20
608.674072
 10
289.672577
 20
608.674072
 10
290.569
 20
608.674072
 10
291.459595
 20
608.674072
 10
292.336487
 20
608.674072
 10
293.199127
 20
608.674072
 10
294.080078
 20
608.674072
 10
294.979218
 20
608.674072
 10
295.888916
 20
608.674072
 10
296.800476
 20
608.674072
 10
297.704498
 20
608.674072
 10
298.590973
 20
608.674072
 10
299.449707
 20
608.674072
 10
300.270569
 20
608.674072
 10
301.043976
 20
608.674072
 10
301.761169
 20
608.674072
 10
302.414581
 20
608.674072
 10
302.998077
 20
608.674072
 10
303.507172
 20
608.674072
 10
303.939056
 20
608.674072
 10
304.292664
 20
608.674072
 10
304.568604
 20
608.674072
 10
304.76889
 20
608.674072
 10
304.896851
 20
608.674072
 10
304.956909
 20
608.674072
  0
LWPOLYLINE
  5
238
330
1DC
100
AcDbEntity
  8
0
  6
Continuous
 62
     0
370
     0
100
AcDbPolyline
 90
       40
 70
     0
 43
0.0
 10
281.416962
 20
611.553345
 10
281.421204
 20
611.553345
 10
281.491699
 20
611.553345
 10
281.63324
 20
611.553345
 10
281.84964
 20
611.553345
 10
282.143524
 20
611.553345
 10
282.516022
 20
611.553345
 10
282.966797
 20
611.553345
 10
283.493713
 20
611.553345
 10
284.092926
 20
611.553345
 10
284.758911
 20
611.553345
 10
285.48468
 20
611.553345
 10
286.261993
 20
611.553345
 10
287.081573
 20
611.553345
 10
287.933685
 20
611.553345
 10
288.808228
 20
611.553345
 10
289.695312
 20
611.553345
 10
290.585419
 20
611.553345
 10
291.469788
 20
611.553345
 10
292.340576
 20
611.553345
 10
293.197174
 20
611.553345
 10
294.07193
 20
611.553345
 10
294.964752
 20
611.553345
 10
295.868042
 20
611.553345
 10
296.773224
 20
611.553345
 10
297.670929
 20
611.553345
 10
298.55127
 20
611.553345
 10
299.404053
 20
611.553345
 10
300.219269
 20
611.553345
 10
300.987396
 20
611.553345
 10
301.699707
 20
611.553345
 10
302.348755
 20
611.553345
 10
302.928375
 20
611.553345
 10
303.434113
 20
611.553345
 10
303.86319
 20
611.553345
 10
304.2146
 20
611.553345
 10
304.488861
 20
611.553345
 10
304.687988
 20
611.553345
 10
304.815277
 20
611.553345
 10
304.875244
 20
611.553345
  0
LWPOLYLINE
  5
239
330
1DC
100
AcDbEntity
  8
0
  6
Continuous
 62
     0
370
     0
100
AcDbPolyline
 90
       40
 70
     0
 43
0.0
 10
281.767395
 20
611.886292
 10
281.771484
 20
611.886292
 10
281.839813
 20
611.886292
 10
281.97702
 20
611.886292
 10
282.186768
 20
611.886292
 10
282.471588
 20
611.886292
 10
282.832642
 20
611.886292
 10
283.269592
 20
611.886292
 10
283.780334
 20
611.886292
 10
284.361145
 20
611.886292
 10
285.006744
 20
611.886292
 10
285.710327
 20
611.886292
 10
286.463898
 20
611.886292
 10
287.258484
 20
611.886292
 10
288.084656
 20
611.886292
 10
288.932617
 20
611.886292
 10
289.792786
 20
611.886292
 10
290.655975
 20
611.886292
 10
291.513672
 20
611.886292
 10
292.358215
 20
611.886292
 10
293.188873
 20
611.886292
 10
294.036957
 20
611.886292
 10
294.902618
 20
611.886292
 10
295.778534
 20
611.886292
 10
296.656342
 20
611.886292
 10
297.527008
 20
611.886292
 10
298.38089
 20
611.886292
 10
299.208191
 20
611.886292
 10
299.999207
 20
611.886292
 10
300.744659
 20
611.886292
 10
301.436096
 20
611.886292
 10
302.066284
 20
611.886292
 10
302.629242
 20
611.886292
 10
303.120636
 20
611.886292
 10
303.537781
 20
611.886292
 10
303.879578
 20
611.886292
 10
304.146606
 20
611.886292
 10
304.340759
 20
611.886292
 10
304.46524
 20
611.886292
 10
304.524811
 20
611.886292
  0
LWPOLYLINE
  5
23A
330
1DC
100
AcDbEntity
  8
0
  6
Continuous
 62
     0
370
     0
100
AcDbPolyline
 90
       36
 70
     0
 43
0.0
 10
283.892517
 20
619.433105
 10
283.923706
 20
619.433105
 10
284.020782
 20
619.433105
 10
284.188202
 20
619.433105
 10
284.429138
 20
619.433105
 10
284.745148
 20
619.433105
 10
285.136017
 20
619.433105
 10
285.599518
 20
619.433105
 10
286.13147
 20
619.433105
 10
286.725708
 20
619.433105
 10
287.374451
 20
619.433105
 10
288.068604
 20
619.433105
 10
288.798096
 20
619.433105
 10
289.552429
 20
619.433105
 10
290.321075
 20
619.433105
 10
291.093933
 20
619.433105
 10
291.861725
 20
619.433105
 10
292.616119
 20
619.433105
 10
293.361481
 20
619.433105
 10
294.126373
 20
619.433105
 10
294.906067
 20
619.433105
 10
295.692108
 20
619.433105
 10
296.475006
 20
619.433105
 10
297.244537
 20
619.433105
 10
297.990051
 20
619.433105
 10
298.700958
 20
619.433105
 10
299.367157
 20
619.433105
 10
299.979553
 20
619.433105
 10
300.530365
 20
619.433105
 10
301.01358
 20
619.433105
 10
301.425018
 20
619.433105
 10
301.762512
 20
619.433105
 10
302.025909
 20
619.433105
 10
302.216705
 20
619.433105
 10
302.338043
 20
619.433105
 10
302.394989
 20
619.433105
  0
LWPOLYLINE
  5
23B
330
1DC
100
AcDbEntity
  8
0
  6
Continuous
 62
     0
370
     0
100
AcDbPolyline
 90
       29
 70
     0
 43
0.0
 10
287.146118
 20
645.98877
 10
287.177948
 20
645.98877
 10
287.27774
 20
645.98877
 10
287.4505
 20
645.98877
 10
287.699005
 20
645.98877
 10
288.023285
 20
645.98877
 10
288.420166
 20
645.98877
 10
288.883423
 20
645.98877
 10
289.403961
 20
645.98877
 10
289.970428
 20
645.98877
 10
290.570038
 20
645.98877
 10
291.189484
 20
645.98877
 10
291.815704
 20
645.98877
 10
292.436859
 20
645.98877
 10
293.043091
 20
645.98877
 10
293.656891
 20
645.98877
 10
294.287537
 20
645.98877
 10
294.924561
 20
645.98877
 10
295.555847
 20
645.98877
 10
296.168182
 20
645.98877
 10
296.748138
 20
645.98877
 10
297.282837
 20
645.98877
 10
297.760986
 20
645.98877
 10
298.173523
 20
645.98877
 10
298.514313
 20
645.98877
 10
298.780273
 20
645.98877
 10
298.971466
 20
645.98877
 10
299.090607
 20
645.98877
 10
299.143066
 20
645.98877
  0
LINE
  5
23C
330
1DC
100
AcDbEntity
  8
0
  6
Continuous
 62
     0
370
     0
100
AcDbLine
 10
299.143053
 20
656.994272
 30
0.0
 11
287.146105
 21
656.994272
 31
0.0
  0
LWPOLYLINE
  5
23D
330
1DC
100
AcDbEntity
  8
0
  6
Continuous
 62
     0
370
     0
100
AcDbPolyline
 90
       30
 70
     0
 43
0.0
 10
286.856415
 20
657.701355
 10
286.867554
 20
657.701355
 10
286.944489
 20
657.701355
 10
287.092834
 20
657.701355
 10
287.316162
 20
657.701355
 10
287.615601
 20
657.701355
 10
287.989441
 20
657.701355
 10
288.432922
 20
657.701355
 10
288.938385
 20
657.701355
 10
289.495758
 20
657.701355
 10
290.09317
 20
657.701355
 10
290.717804
 20
657.701355
 10
291.356628
 20
657.701355
 10
291.997345
 20
657.701355
 10
292.628815
 20
657.701355
 10
293.24762
 20
657.701355
 10
293.882751
 20
657.701355
 10
294.531769
 20
657.701355
 10
295.183868
 20
657.701355
 10
295.826874
 20
657.701355
 10
296.447815
 20
657.701355
 10
297.033508
 20
657.701355
 10
297.571716
 20
657.701355
 10
298.051636
 20
657.701355
 10
298.464935
 20
657.701355
 10
298.805939
 20
657.701355
 10
299.071991
 20
657.701355
 10
299.263367
 20
657.701355
 10
299.382843
 20
657.701355
 10
299.435791
 20
657.701355
  0
LWPOLYLINE
  5
23E
330
1DC
100
AcDbEntity
  8
0
  6
Continuous
 62
     0
370
     0
100
AcDbPolyline
 90
       30
 70
     0
 43
0.0
 10
286.592316
 20
657.965576
 10
286.603973
 20
657.965576
 10
286.684296
 20
657.965576
 10
286.839111
 20
657.965576
 10
287.072205
 20
657.965576
 10
287.384735
 20
657.965576
 10
287.774841
 20
657.965576
 10
288.23761
 20
657.965576
 10
288.765015
 20
657.965576
 10
289.346527
 20
657.965576
 10
289.969757
 20
657.965576
 10
290.621246
 20
657.965576
 10
291.287476
 20
657.965576
 10
291.955536
 20
657.965576
 10
292.613892
 20
657.965576
 10
293.259155
 20
657.965576
 10
293.921661
 20
657.965576
 10
294.598541
 20
657.965576
 10
295.278503
 20
657.965576
 10
295.948792
 20
657.965576
 10
296.595825
 20
657.965576
 10
297.205902
 20
657.965576
 10
297.766235
 20
657.965576
 10
298.265594
 20
657.965576
 10
298.695282
 20
657.965576
 10
299.049438
 20
657.965576
 10
299.325378
 20
657.965576
 10
299.523407
 20
657.965576
 10
299.646515
 20
657.965576
 10
299.69989
 20
657.965576
  0
LWPOLYLINE
  5
23F
330
1DC
100
AcDbEntity
  8
0
  6
Continuous
 62
     0
370
     0
100
AcDbPolyline
 90
       31
 70
     0
 43
0.0
 10
286.296112
 20
658.672729
 10
286.327698
 20
658.672729
 10
286.426453
 20
658.672729
 10
286.59729
 20
658.672729
 10
286.843109
 20
658.672729
 10
287.164612
 20
658.672729
 10
287.559753
 20
658.672729
 10
288.023743
 20
658.672668
 10
288.549286
 20
658.672729
 10
289.126801
 20
658.672729
 10
289.745026
 20
658.672729
 10
290.391815
 20
658.672729
 10
291.05481
 20
658.672729
 10
291.722076
 20
658.672668
 10
292.382782
 20
658.672729
 10
293.028137
 20
658.672668
 10
293.681396
 20
658.672729
 10
294.352081
 20
658.672729
 10
295.03064
 20
658.672729
 10
295.706024
 20
658.672729
 10
296.36615
 20
658.672729
 10
296.998505
 20
658.672668
 10
297.59082
 20
658.672729
 10
298.131897
 20
658.672729
 10
298.612183
 20
658.672729
 10
299.024414
 20
658.672729
 10
299.363892
 20
658.672729
 10
299.628662
 20
658.672729
 10
299.819336
 20
658.672729
 10
299.938904
 20
658.672729
 10
299.992615
 20
658.672729
  0
LINE
  5
240
330
1DC
100
AcDbEntity
  8
0
  6
Continuous
 62
     0
370
    30
100
AcDbLine
 10
299.996103
 20
659.329424
 30
0.0
 11
299.996103
 21
658.672699
 31
0.0
  0
LINE
  5
241
330
1DC
100
AcDbEntity
  8
0
  6
Continuous
 62
     0
370
    30
100
AcDbLine
 10
286.296103
 20
659.329482
 30
0.0
 11
286.296103
 21
658.672699
 31
0.0
  0
ARC
  5
242
330
1DC
100
AcDbEntity
  8
0
  6
Continuous
 62
     0
370
    30
100
AcDbCircle
 10
298.996231
 20
658.672646
 30
0.0
 40
0.9998715780157004
100
AcDbArc
 50
314.996952
 51
0.003048
  0
ARC
  5
243
330
1DC
100
AcDbEntity
  8
0
  6
Continuous
 62
     0
370
    30
100
AcDbCircle
 10
287.295974
 20
658.672646
 30
0.0
 40
0.9998715780167631
100
AcDbArc
 50
179.996952
 51
225.003048
  0
LINE
  5
244
330
1DC
100
AcDbEntity
  8
0
  6
Continuous
 62
     0
370
    30
100
AcDbLine
 10
286.85321
 20
657.701379
 30
0.0
 11
286.588996
 21
657.965592
 31
0.0
  0
LINE
  5
245
330
1DC
100
AcDbEntity
  8
0
  6
Continuous
 62
     0
370
    30
100
AcDbLine
 10
299.70321
 20
657.965592
 30
0.0
 11
299.438996
 21
657.701379
 31
0.0
  0
ARC
  5
246
330
1DC
100
AcDbEntity
  8
0
  6
Continuous
 62
     0
370
    30
100
AcDbCircle
 10
300.145974
 20
656.994325
 30
0.0
 40
0.9998715780386276
100
AcDbArc
 50
134.996952
 51
180.003048
  0
ARC
  5
247
330
1DC
100
AcDbEntity
  8
0
  6
Continuous
 62
     0
370
    30
100
AcDbCircle
 10
286.146231
 20
656.994325
 30
0.0
 40
0.9998715780324369
100
AcDbArc
 50
359.996952
 51
45.003048
  0
LINE
  5
248
330
1DC
100
AcDbEntity
  8
0
  6
Continuous
 62
     0
370
    30
100
AcDbLine
 10
299.146101
 20
656.994272
 30
0.0
 11
299.146101
 21
645.988774
 31
0.0
  0
LINE
  5
249
330
1DC
100
AcDbEntity
  8
0
  6
Continuous
 62
     0
370
    30
100
AcDbLine
 10
287.146105
 20
656.994272
 30
0.0
 11
287.146105
 21
645.988774
 31
0.0
  0
ARC
  5
24A
330
1DC
100
AcDbEntity
  8
0
  6
Continuous
 62
     0
370
    30
100
AcDbCircle
 10
409.146229
 20
645.988774
 30
0.0
 40
110.000128007579
100
AcDbArc
 50
180.0
 51
193.970067
  0
ARC
  5
24B
330
1DC
100
AcDbEntity
  8
0
  6
Continuous
 62
     0
370
    30
100
AcDbCircle
 10
177.145977
 20
645.988774
 30
0.0
 40
110.0001280075792
100
AcDbArc
 50
346.029933
 51
0.0
  0
ARC
  5
24C
330
1DC
100
AcDbEntity
  8
0
  6
Continuous
 62
     0
370
    30
100
AcDbCircle
 10
162.589443
 20
649.610078
 30
0.0
 40
125.0003455153192
100
AcDbArc
 50
342.434899
 51
346.02992
  0
ARC
  5
24D
330
1DC
100
AcDbEntity
  8
0
  6
Continuous
 62
     0
370
    30
100
AcDbCircle
 10
423.702763
 20
649.610078
 30
0.0
 40
125.0003455153007
100
AcDbArc
 50
193.97008
 51
197.565101
  0
ARC
  5
24E
330
1DC
100
AcDbEntity
  8
0
  6
Continuous
 62
     0
370
    30
100
AcDbCircle
 10
305.007242
 20
612.037164
 30
0.0
 40
0.4999412031915078
100
AcDbArc
 50
197.561384
 51
255.398908
  0
ARC
  5
24F
330
1DC
100
AcDbEntity
  8
0
  6
Continuous
 62
     0
370
    30
100
AcDbCircle
 10
281.284964
 20
612.037164
 30
0.0
 40
0.4999412031929402
100
AcDbArc
 50
284.601092
 51
342.438616
  0
ARC
  5
250
330
1DC
100
AcDbEntity
  8
0
  6
Continuous
 62
     0
370
    30
100
AcDbCircle
 10
281.789229
 20
610.101837
 30
0.0
 40
1.500002810725805
100
AcDbArc
 50
104.605183
 51
252.144108
  0
ARC
  5
251
330
1DC
100
AcDbEntity
  8
0
  6
Continuous
 62
     0
370
    30
100
AcDbCircle
 10
304.502976
 20
610.101837
 30
0.0
 40
1.500002810725863
100
AcDbArc
 50
287.855892
 51
75.394817
  0
ARC
  5
252
330
1DC
100
AcDbEntity
  8
0
  6
Continuous
 62
     0
370
    30
100
AcDbCircle
 10
305.085569
 20
608.293354
 30
0.0
 40
0.4000036523813419
100
AcDbArc
 50
107.85669
 51
239.562142
  0
ARC
  5
253
330
1DC
100
AcDbEntity
  8
0
  6
Continuous
 62
     0
370
    30
100
AcDbCircle
 10
281.206637
 20
608.293354
 30
0.0
 40
0.4000036523814997
100
AcDbArc
 50
300.437858
 51
72.14331
  0
ARC
  5
254
330
1DC
100
AcDbEntity
  8
0
  6
Continuous
 62
     0
370
    30
100
AcDbCircle
 10
281.789228
 20
607.301838
 30
0.0
 40
0.7500036586308444
100
AcDbArc
 50
120.437261
 51
248.236949
  0
ARC
  5
255
330
1DC
100
AcDbEntity
  8
0
  6
Continuous
 62
     0
370
    30
100
AcDbCircle
 10
304.502978
 20
607.301838
 30
0.0
 40
0.7500036586312817
100
AcDbArc
 50
291.763051
 51
59.562739
  0
ARC
  5
256
330
1DC
100
AcDbEntity
  8
0
  6
Continuous
 62
     0
370
    30
100
AcDbCircle
 10
305.52263
 20
604.747796
 30
0.0
 40
2.000053853851714
100
AcDbArc
 50
111.763526
 51
179.998955
  0
ARC
  5
257
330
1DC
100
AcDbEntity
  8
0
  6
Continuous
 62
     0
370
    30
100
AcDbCircle
 10
280.769576
 20
604.747796
 30
0.0
 40
2.00005385385367
100
AcDbArc
 50
0.001045
 51
68.236474
  0
LINE
  5
258
330
1DC
100
AcDbEntity
  8
0
  6
Continuous
 62
     0
370
    30
100
AcDbLine
 10
303.522576
 20
604.747833
 30
0.0
 11
303.522576
 21
604.074801
 31
0.0
  0
LINE
  5
259
330
1DC
100
AcDbEntity
  8
0
  6
Continuous
 62
     0
370
    30
100
AcDbLine
 10
282.76963
 20
604.747833
 30
0.0
 11
282.76963
 21
604.074801
 31
0.0
  0
ARC
  5
25A
330
1DC
100
AcDbEntity
  8
0
  6
Continuous
 62
     0
370
    30
100
AcDbCircle
 10
303.272601
 20
604.074781
 30
0.0
 40
0.2499749388955777
100
AcDbArc
 50
282.239216
 51
0.004631
  0
ARC
  5
25B
330
1DC
100
AcDbEntity
  8
0
  6
Continuous
 62
     0
370
    30
100
AcDbCircle
 10
283.019605
 20
604.074781
 30
0.0
 40
0.2499749389070207
100
AcDbArc
 50
179.995369
 51
257.760784
  0
ARC
  5
25C
330
1DC
100
AcDbEntity
  8
0
  6
Continuous
 62
     0
370
    30
100
AcDbCircle
 10
293.146192
 20
650.737845
 30
0.0
 40
47.99917129946249
100
AcDbArc
 50
269.999894
 51
282.243953
  0
ARC
  5
25D
330
1DC
100
AcDbEntity
  8
0
  6
Continuous
 62
     0
370
    30
100
AcDbCircle
 10
293.146014
 20
650.737845
 30
0.0
 40
47.9991712182497
100
AcDbArc
 50
257.756047
 51
269.998884
  0
LWPOLYLINE
  5
25E
330
1DC
100
AcDbEntity
  8
0
  6
Continuous
 62
     0
370
    30
100
AcDbPolyline
 90
       31
 70
     0
 43
0.0
 10
278.796112
 20
663.762146
 10
278.796112
 20
663.799438
 10
278.796112
 20
663.913574
 10
278.796112
 20
664.103333
 10
278.796112
 20
664.365784
 10
278.796112
 20
664.696411
 10
278.796112
 20
665.089355
 10
278.796112
 20
665.537659
 10
278.796112
 20
666.033752
 10
278.796112
 20
666.56958
 10
278.796112
 20
667.136902
 10
278.796112
 20
667.727661
 10
278.796112
 20
668.351624
 10
278.796112
 20
669.026489
 10
278.796112
 20
669.749512
 10
278.796112
 20
670.516541
 10
278.796112
 20
671.322083
 10
278.796112
 20
672.159302
 10
278.796112
 20
673.020081
 10
278.796112
 20
673.895569
 10
278.796112
 20
674.77594
 10
278.796112
 20
675.651245
 10
278.796112
 20
676.511475
 10
278.796112
 20
677.347107
 10
278.796112
 20
678.149231
 10
278.796112
 20
678.910156
 10
278.796112
 20
679.623413
 10
278.796112
 20
680.283875
 10
278.796112
 20
680.888
 10
278.796112
 20
681.433655
 10
278.796112
 20
681.928833
  0
LINE
  5
25F
330
1DC
100
AcDbEntity
  8
0
  6
Continuous
 62
     0
370
    30
100
AcDbLine
 10
278.796109
 20
681.928807
 30
0.0
 11
278.796109
 21
683.983222
 31
0.0
  0
LINE
  5
260
330
1DC
100
AcDbEntity
  8
0
  6
Continuous
 62
     0
370
     0
100
AcDbLine
 10
279.513977
 20
684.778994
 30
0.0
 11
279.513977
 21
682.562882
 31
0.0
  0
LINE
  5
261
330
1DC
100
AcDbEntity
  8
0
  6
Continuous
 62
     0
370
     0
100
AcDbLine
 10
279.513977
 20
682.562882
 30
0.0
 11
279.513977
 21
662.966398
 31
0.0
  0
LINE
  5
262
330
1DC
100
AcDbEntity
  8
0
  6
Continuous
 62
     0
370
     0
100
AcDbLine
 10
283.047238
 20
688.090398
 30
0.0
 11
283.047237
 21
685.201423
 31
0.0
  0
LINE
  5
263
330
1DC
100
AcDbEntity
  8
0
  6
Continuous
 62
     0
370
     0
100
AcDbLine
 10
283.047237
 20
685.201423
 30
0.0
 11
283.047238
 21
659.654994
 31
0.0
  0
LINE
  5
264
330
1DC
100
AcDbEntity
  8
0
  6
Continuous
 62
     0
370
     0
100
AcDbLine
 10
283.233966
 20
688.256751
 30
0.0
 11
283.233966
 21
685.333974
 31
0.0
  0
LINE
  5
265
330
1DC
100
AcDbEntity
  8
0
  6
Continuous
 62
     0
370
     0
100
AcDbLine
 10
283.233966
 20
685.333974
 30
0.0
 11
283.233966
 21
659.488641
 31
0.0
  0
LINE
  5
266
330
1DC
100
AcDbEntity
  8
0
  6
Continuous
 62
     0
370
     0
100
AcDbLine
 10
284.919938
 20
688.345109
 30
0.0
 11
284.919938
 21
685.404378
 31
0.0
  0
LINE
  5
267
330
1DC
100
AcDbEntity
  8
0
  6
Continuous
 62
     0
370
     0
100
AcDbLine
 10
284.919938
 20
685.404378
 30
0.0
 11
284.919938
 21
659.400283
 31
0.0
  0
ARC
  5
268
330
1DC
100
AcDbEntity
  8
0
  6
Continuous
 62
     0
370
    30
100
AcDbCircle
 10
284.946105
 20
687.845764
 30
0.0
 40
0.5000012311912236
100
AcDbArc
 50
0.003864
 51
92.999851
  0
ARC
  5
269
330
1DC
100
AcDbEntity
  8
0
  6
Continuous
 62
     0
370
    30
100
AcDbCircle
 10
284.946107
 20
659.899615
 30
0.0
 40
0.4999967989155957
100
AcDbArc
 50
266.999867
 51
358.654946
  0
LINE
  5
26A
330
1DC
100
AcDbEntity
  8
0
  6
Continuous
 62
     0
370
    30
100
AcDbLine
 10
283.233966
 20
659.488629
 30
0.0
 11
284.919938
 21
659.400271
 31
0.0
  0
LINE
  5
26B
330
1DC
100
AcDbEntity
  8
0
  6
Continuous
 62
     0
370
    30
100
AcDbLine
 10
283.233966
 20
688.256763
 30
0.0
 11
284.919938
 21
688.345121
 31
0.0
  0
ARC
  5
26C
330
1DC
100
AcDbEntity
  8
0
  6
Continuous
 62
     0
370
    30
100
AcDbCircle
 10
283.244416
 20
688.057056
 30
0.0
 40
0.1999797046858874
100
AcDbArc
 50
92.995342
 51
170.399103
  0
ARC
  5
26D
330
1DC
100
AcDbEntity
  8
0
  6
Continuous
 62
     0
370
    30
100
AcDbCircle
 10
283.244416
 20
659.688336
 30
0.0
 40
0.1999797047008562
100
AcDbArc
 50
189.600897
 51
267.004658
  0
ARC
  5
26E
330
1DC
100
AcDbEntity
  8
0
  6
Continuous
 62
     0
370
    30
100
AcDbCircle
 10
279.103144
 20
658.987339
 30
0.0
 40
4.000202897667425
100
AcDbArc
 50
9.607765
 51
84.105149
  0
ARC
  5
26F
330
1DC
100
AcDbEntity
  8
0
  6
Continuous
 62
     0
370
    30
100
AcDbCircle
 10
279.103144
 20
688.758053
 30
0.0
 40
4.00020289766851
100
AcDbArc
 50
275.894851
 51
350.392235
  0
ARC
  5
270
330
1DC
100
AcDbEntity
  8
0
  6
Continuous
 62
     0
370
    30
100
AcDbCircle
 10
279.596109
 20
663.762162
 30
0.0
 40
0.8000001018841774
100
AcDbArc
 50
180.007682
 51
264.107352
  0
ARC
  5
271
330
1DC
100
AcDbEntity
  8
0
  6
Continuous
 62
     0
370
    30
100
AcDbCircle
 10
279.596109
 20
683.98323
 30
0.0
 40
0.8000001018885634
100
AcDbArc
 50
95.892648
 51
179.992318
  0
ENDBLK
  5
273
330
1DC
100
AcDbEntity
  8
0
100
AcDbBlockEnd
  0
ENDSEC
  0
SECTION
  2
ENTITIES
  0
INSERT
  5
E4
330
1F
100
AcDbEntity
  8
0
  6
Continuous
 62
     7
420
 16250871
370
     0
100
AcDbBlockReference
  2
a
 10
432.873505
 20
194.302505
 30
0.0
  0
INSERT
  5
144
330
1F
100
AcDbEntity
  8
0
  6
Continuous
 62
     7
420
 16250871
370
     0
100
AcDbBlockReference
  2
b
 10
432.873505
 20
314.159256
 30
0.0
  0
INSERT
  5
1DB
330
1F
100
AcDbEntity
  8
0
  6
Continuous
 62
     7
420
 16250871
370
     0
100
AcDbBlockReference
  2
c
 10
477.712616
 20
194.302505
 30
0.0
  0
INSERT
  5
274
330
1F
100
AcDbEntity
  8
0
  6
Continuous
 62
     7
420
 16250871
370
     0
100
AcDbBlockReference
  2
d
 10
397.016266
 20
0.0
 30
0.0
  0
ENDSEC
  0
SECTION
  2
OBJECTS
  0
DICTIONARY
  5
C
330
0
100
AcDbDictionary
281
     1
  3
ACAD_DETAILVIEWSTYLE
350
2AC
  3
ACAD_GROUP
350
D
  3
ACAD_LAYOUT
350
1A
  3
ACAD_MATERIAL
350
43
  3
ACAD_MLEADERSTYLE
350
6B
  3
ACAD_MLINESTYLE
350
17
  3
ACAD_PLOTSETTINGS
350
19
  3
ACAD_PLOTSTYLENAME
350
E
  3
ACAD_SCALELIST
350
47
  3
ACAD_SECTIONVIEWSTYLE
350
2AD
  3
ACAD_TABLESTYLE
350
69
  3
ACAD_VISUALSTYLE
350
2A
  3
ACDB_RECOMPOSE_DATA
350
2A9
  3
AcDbVariableDictionary
350
275
  0
SUN
  5
6D
330
29
100
AcDbSun
 90
        1
290
     0
 63
     7
421
 16777215
 40
1.0
291
     1
 91
  2455826
 92
 54000000
292
     0
 70
     2
 71
   256
280
     1
  0
DICTIONARY
  5
2AC
102
{ACAD_REACTORS
330
C
102
}
330
C
100
AcDbDictionary
281
     1
  0
DICTIONARY
  5
D
102
{ACAD_REACTORS
330
C
102
}
330
C
100
AcDbDictionary
281
     1
  0
DICTIONARY
  5
1A
102
{ACAD_REACTORS
330
C
102
}
330
C
100
AcDbDictionary
281
     1
  3
Layout1
350
1E
  3
Layout2
350
26
  3
Model
350
22
  0
DICTIONARY
  5
43
102
{ACAD_REACTORS
330
C
102
}
330
C
100
AcDbDictionary
281
     1
  3
ByBlock
350
45
  3
ByLayer
350
44
  3
Global
350
46
  0
DICTIONARY
  5
6B
102
{ACAD_REACTORS
330
C
102
}
330
C
100
AcDbDictionary
281
     1
  3
Standard
350
6C
  0
DICTIONARY
  5
17
102
{ACAD_REACTORS
330
C
102
}
330
C
100
AcDbDictionary
281
     1
  3
Standard
350
18
  0
DICTIONARY
  5
19
102
{ACAD_REACTORS
330
C
102
}
330
C
100
AcDbDictionary
281
     1
  0
ACDBDICTIONARYWDFLT
  5
E
102
{ACAD_REACTORS
330
C
102
}
330
C
100
AcDbDictionary
281
     1
  3
Normal
350
F
100
AcDbDictionaryWithDefault
340
F
  0
DICTIONARY
  5
47
102
{ACAD_REACTORS
330
C
102
}
330
C
100
AcDbDictionary
281
     1
  3
A0
350
48
  3
A1
350
49
  3
A2
350
4A
  3
A3
350
4B
  3
A4
350
4C
  3
A5
350
4D
  3
A6
350
4E
  3
A7
350
4F
  3
A8
350
50
  3
A9
350
51
  3
B0
350
52
  3
B1
350
53
  3
B2
350
54
  3
B3
350
55
  3
B4
350
56
  3
B5
350
57
  3
B6
350
58
  3
B7
350
59
  3
B8
350
5A
  3
B9
350
5B
  3
C0
350
5C
  3
C1
350
5D
  3
C2
350
5E
  3
C3
350
5F
  3
C4
350
60
  3
C5
350
61
  3
C6
350
62
  3
C7
350
63
  3
C8
350
64
  3
C9
350
65
  3
D0
350
66
  3
D1
350
67
  3
D2
350
68
  0
DICTIONARY
  5
2AD
102
{ACAD_REACTORS
330
C
102
}
330
C
100
AcDbDictionary
281
     1
  0
DICTIONARY
  5
69
102
{ACAD_REACTORS
330
C
102
}
330
C
100
AcDbDictionary
281
     1
  3
Standard
350
6A
  0
DICTIONARY
  5
2A
102
{ACAD_REACTORS
330
C
102
}
330
C
100
AcDbDictionary
281
     1
  3
2dWireframe
350
2F
  3
Basic
350
32
  3
Brighten
350
36
  3
ColorChange
350
3A
  3
Conceptual
350
34
  3
Dim
350
35
  3
EdgeColorOff
350
3D
  3
Facepattern
350
39
  3
Flat
350
2B
  3
FlatWithEdges
350
2C
  3
Gouraud
350
2D
  3
GouraudWithEdges
350
2E
  3
Hidden
350
31
  3
JitterOff
350
3B
  3
Linepattern
350
38
  3
OverhangOff
350
3C
  3
Realistic
350
33
  3
Shaded
350
42
  3
Shaded with edges
350
41
  3
Shades of Gray
350
3E
  3
Sketchy
350
3F
  3
Thicken
350
37
  3
Wireframe
350
30
  3
X-Ray
350
40
  0
XRECORD
  5
2A9
102
{ACAD_REACTORS
330
C
102
}
330
C
100
AcDbXrecord
280
     1
 90
        1
330
6A
  0
DICTIONARY
  5
275
102
{ACAD_REACTORS
330
C
102
}
330
C
100
AcDbDictionary
281
     1
  3
CANNOSCALE
350
276
  3
CMLEADERSTYLE
350
2AB
  3
CTABLESTYLE
350
2AA
  0
LAYOUT
  5
1E
102
{ACAD_REACTORS
330
1A
102
}
330
1A
100
AcDbPlotSettings
  1

  2
none_device
  4

  6

 40
0.0
 41
0.0
 42
0.0
 43
0.0
 44
0.0
 45
0.0
 46
0.0
 47
0.0
 48
0.0
 49
0.0
140
0.0
141
0.0
142
1.0
143
1.0
 70
   688
 72
     1
 73
     0
 74
     5
  7

 75
    16
 76
     0
 77
     2
 78
   300
147
1.0
148
0.0
149
0.0
100
AcDbLayout
  1
Layout1
 70
     1
 71
     1
 10
0.0
 20
0.0
 11
420.0
 21
297.0
 12
0.0
 22
0.0
 32
0.0
 14
1.000000E+20
 24
1.000000E+20
 34
1.000000E+20
 15
-1.000000E+20
 25
-1.000000E+20
 35
-1.000000E+20
146
0.0
 13
0.0
 23
0.0
 33
0.0
 16
1.0
 26
0.0
 36
0.0
 17
0.0
 27
1.0
 37
0.0
 76
     0
330
1B
  0
LAYOUT
  5
26
102
{ACAD_REACTORS
330
1A
102
}
330
1A
100
AcDbPlotSettings
  1

  2
none_device
  4

  6

 40
0.0
 41
0.0
 42
0.0
 43
0.0
 44
0.0
 45
0.0
 46
0.0
 47
0.0
 48
0.0
 49
0.0
140
0.0
141
0.0
142
1.0
143
1.0
 70
   688
 72
     1
 73
     0
 74
     5
  7

 75
    16
 76
     0
 77
     2
 78
   300
147
1.0
148
0.0
149
0.0
100
AcDbLayout
  1
Layout2
 70
     1
 71
     2
 10
0.0
 20
0.0
 11
0.0
 21
0.0
 12
0.0
 22
0.0
 32
0.0
 14
0.0
 24
0.0
 34
0.0
 15
0.0
 25
0.0
 35
0.0
146
0.0
 13
0.0
 23
0.0
 33
0.0
 16
1.0
 26
0.0
 36
0.0
 17
0.0
 27
1.0
 37
0.0
 76
     0
330
23
  0
LAYOUT
  5
22
102
{ACAD_REACTORS
330
1A
102
}
330
1A
100
AcDbPlotSettings
  1

  2
none_device
  4
Letter_(8.50_x_11.00_Inches)
  6

 40
6.35
 41
6.35
 42
6.350005
 43
6.350005
 44
215.9
 45
279.4
 46
0.0
 47
0.0
 48
0.0
 49
0.0
140
0.0
141
0.0
142
1.0
143
1.0
 70
  1712
 72
     1
 73
     0
 74
     0
  7

 75
     0
 76
     0
 77
     2
 78
   300
147
1.0
148
0.0
149
0.0
100
AcDbLayout
  1
Model
 70
     1
 71
     0
 10
0.0
 20
0.0
 11
420.0
 21
297.0
 12
0.0
 22
0.0
 32
0.0
 14
1.000000E+20
 24
1.000000E+20
 34
1.000000E+20
 15
-1.000000E+20
 25
-1.000000E+20
 35
-1.000000E+20
146
0.0
 13
0.0
 23
0.0
 33
0.0
 16
1.0
 26
0.0
 36
0.0
 17
0.0
 27
1.0
 37
0.0
 76
     0
330
1F
331
29
  0
MATERIAL
  5
45
102
{ACAD_REACTORS
330
43
102
}
330
43
100
AcDbMaterial
  1
ByBlock
 72
     1
 94
      127
  0
MATERIAL
  5
44
102
{ACAD_REACTORS
330
43
102
}
330
43
100
AcDbMaterial
  1
ByLayer
 72
     1
 94
      127
  0
MATERIAL
  5
46
102
{ACAD_REACTORS
330
43
102
}
330
43
100
AcDbMaterial
  1
Global
 72
     1
 94
      127
  0
MLEADERSTYLE
  5
6C
102
{ACAD_REACTORS
330
6B
102
}
330
6B
100
AcDbMLeaderStyle
179
     2
170
     2
171
     1
172
     0
 90
        2
 40
0.0
 41
0.0
173
     1
 91
-1056964608
340
14
 92
       -2
290
     1
 42
2.0
291
     1
 43
8.0
  3
Standard
341
0
 44
4.0
300

342
11
174
     1
178
     6
175
     1
176
     0
 93
-1056964608
 45
4.0
292
     0
297
     0
 46
4.0
343
0
 94
-1056964608
 47
1.0
 49
1.0
140
1.0
293
     1
141
0.0
294
     1
177
     0
142
1.0
295
     0
296
     0
143
3.75
271
     0
272
     9
273
     9
  0
MLINESTYLE
  5
18
102
{ACAD_REACTORS
330
17
102
}
330
17
100
AcDbMlineStyle
  2
Standard
 70
     0
  3

 62
   256
 51
90.0
 52
90.0
 71
     2
 49
0.5
 62
   256
  6
BYLAYER
 49
-0.5
 62
   256
  6
BYLAYER
  0
ACDBPLACEHOLDER
  5
F
102
{ACAD_REACTORS
330
E
102
}
330
E
  0
SCALE
  5
48
102
{ACAD_REACTORS
330
47
102
}
330
47
100
AcDbScale
 70
     0
300
1:1
140
1.0
141
1.0
290
     1
  0
SCALE
  5
49
102
{ACAD_REACTORS
330
47
102
}
330
47
100
AcDbScale
 70
     0
300
1:2
140
1.0
141
2.0
290
     0
  0
SCALE
  5
4A
102
{ACAD_REACTORS
330
47
102
}
330
47
100
AcDbScale
 70
     0
300
1:4
140
1.0
141
4.0
290
     0
  0
SCALE
  5
4B
102
{ACAD_REACTORS
330
47
102
}
330
47
100
AcDbScale
 70
     0
300
1:5
140
1.0
141
5.0
290
     0
  0
SCALE
  5
4C
102
{ACAD_REACTORS
330
47
102
}
330
47
100
AcDbScale
 70
     0
300
1:8
140
1.0
141
8.0
290
     0
  0
SCALE
  5
4D
102
{ACAD_REACTORS
330
47
102
}
330
47
100
AcDbScale
 70
     0
300
1:10
140
1.0
141
10.0
290
     0
  0
SCALE
  5
4E
102
{ACAD_REACTORS
330
47
102
}
330
47
100
AcDbScale
 70
     0
300
1:16
140
1.0
141
16.0
290
     0
  0
SCALE
  5
4F
102
{ACAD_REACTORS
330
47
102
}
330
47
100
AcDbScale
 70
     0
300
1:20
140
1.0
141
20.0
290
     0
  0
SCALE
  5
50
102
{ACAD_REACTORS
330
47
102
}
330
47
100
AcDbScale
 70
     0
300
1:30
140
1.0
141
30.0
290
     0
  0
SCALE
  5
51
102
{ACAD_REACTORS
330
47
102
}
330
47
100
AcDbScale
 70
     0
300
1:40
140
1.0
141
40.0
290
     0
  0
SCALE
  5
52
102
{ACAD_REACTORS
330
47
102
}
330
47
100
AcDbScale
 70
     0
300
1:50
140
1.0
141
50.0
290
     0
  0
SCALE
  5
53
102
{ACAD_REACTORS
330
47
102
}
330
47
100
AcDbScale
 70
     0
300
1:100
140
1.0
141
100.0
290
     0
  0
SCALE
  5
54
102
{ACAD_REACTORS
330
47
102
}
330
47
100
AcDbScale
 70
     0
300
2:1
140
2.0
141
1.0
290
     0
  0
SCALE
  5
55
102
{ACAD_REACTORS
330
47
102
}
330
47
100
AcDbScale
 70
     0
300
4:1
140
4.0
141
1.0
290
     0
  0
SCALE
  5
56
102
{ACAD_REACTORS
330
47
102
}
330
47
100
AcDbScale
 70
     0
300
8:1
140
8.0
141
1.0
290
     0
  0
SCALE
  5
57
102
{ACAD_REACTORS
330
47
102
}
330
47
100
AcDbScale
 70
     0
300
10:1
140
10.0
141
1.0
290
     0
  0
SCALE
  5
58
102
{ACAD_REACTORS
330
47
102
}
330
47
100
AcDbScale
 70
     0
300
100:1
140
100.0
141
1.0
290
     0
  0
SCALE
  5
59
102
{ACAD_REACTORS
330
47
102
}
330
47
100
AcDbScale
 70
     0
300
1/128" = 1'-0"
140
0.007812
141
12.0
290
     0
  0
SCALE
  5
5A
102
{ACAD_REACTORS
330
47
102
}
330
47
100
AcDbScale
 70
     0
300
1/64" = 1'-0"
140
0.015625
141
12.0
290
     0
  0
SCALE
  5
5B
102
{ACAD_REACTORS
330
47
102
}
330
47
100
AcDbScale
 70
     0
300
1/32" = 1'-0"
140
0.03125
141
12.0
290
     0
  0
SCALE
  5
5C
102
{ACAD_REACTORS
330
47
102
}
330
47
100
AcDbScale
 70
     0
300
1/16" = 1'-0"
140
0.0625
141
12.0
290
     0
  0
SCALE
  5
5D
102
{ACAD_REACTORS
330
47
102
}
330
47
100
AcDbScale
 70
     0
300
3/32" = 1'-0"
140
0.09375
141
12.0
290
     0
  0
SCALE
  5
5E
102
{ACAD_REACTORS
330
47
102
}
330
47
100
AcDbScale
 70
     0
300
1/8" = 1'-0"
140
0.125
141
12.0
290
     0
  0
SCALE
  5
5F
102
{ACAD_REACTORS
330
47
102
}
330
47
100
AcDbScale
 70
     0
300
3/16" = 1'-0"
140
0.1875
141
12.0
290
     0
  0
SCALE
  5
60
102
{ACAD_REACTORS
330
47
102
}
330
47
100
AcDbScale
 70
     0
300
1/4" = 1'-0"
140
0.25
141
12.0
290
     0
  0
SCALE
  5
61
102
{ACAD_REACTORS
330
47
102
}
330
47
100
AcDbScale
 70
     0
300
3/8" = 1'-0"
140
0.375
141
12.0
290
     0
  0
SCALE
  5
62
102
{ACAD_REACTORS
330
47
102
}
330
47
100
AcDbScale
 70
     0
300
1/2" = 1'-0"
140
0.5
141
12.0
290
     0
  0
SCALE
  5
63
102
{ACAD_REACTORS
330
47
102
}
330
47
100
AcDbScale
 70
     0
300
3/4" = 1'-0"
140
0.75
141
12.0
290
     0
  0
SCALE
  5
64
102
{ACAD_REACTORS
330
47
102
}
330
47
100
AcDbScale
 70
     0
300
1" = 1'-0"
140
1.0
141
12.0
290
     0
  0
SCALE
  5
65
102
{ACAD_REACTORS
330
47
102
}
330
47
100
AcDbScale
 70
     0
300
1-1/2" = 1'-0"
140
1.5
141
12.0
290
     0
  0
SCALE
  5
66
102
{ACAD_REACTORS
330
47
102
}
330
47
100
AcDbScale
 70
     0
300
3" = 1'-0"
140
3.0
141
12.0
290
     0
  0
SCALE
  5
67
102
{ACAD_REACTORS
330
47
102
}
330
47
100
AcDbScale
 70
     0
300
6" = 1'-0"
140
6.0
141
12.0
290
     0
  0
SCALE
  5
68
102
{ACAD_REACTORS
330
47
102
}
330
47
100
AcDbScale
 70
     0
300
1'-0" = 1'-0"
140
12.0
141
12.0
290
     0
  0
TABLESTYLE
  5
6A
102
{ACAD_REACTORS
330
69
102
}
102
{ACAD_XDICTIONARY
360
2A7
102
}
330
69
100
AcDbTableStyle
  3
Standard
 70
     0
 71
     0
 40
0.06
 41
0.06
280
     0
281
     0
  7
Standard
140
4.5
170
     2
 62
     0
 63
   257
283
     0
 90
        4
 91
        0
  1

274
    -2
284
     1
 64
     0
275
    -2
285
     1
 65
     0
276
    -2
286
     1
 66
     0
277
    -2
287
     1
 67
     0
278
    -2
288
     1
 68
     0
279
    -2
289
     1
 69
     0
  7
Standard
140
6.0
170
     5
 62
     0
 63
   257
283
     0
 90
        4
 91
        0
  1

274
    -2
284
     1
 64
     0
275
    -2
285
     1
 65
     0
276
    -2
286
     1
 66
     0
277
    -2
287
     1
 67
     0
278
    -2
288
     1
 68
     0
279
    -2
289
     1
 69
     0
  7
Standard
140
4.5
170
     5
 62
     0
 63
   257
283
     0
 90
        4
 91
        0
  1

274
    -2
284
     1
 64
     0
275
    -2
285
     1
 65
     0
276
    -2
286
     1
 66
     0
277
    -2
287
     1
 67
     0
278
    -2
288
     1
 68
     0
279
    -2
289
     1
 69
     0
  0
VISUALSTYLE
  5
2F
102
{ACAD_REACTORS
330
2A
102
}
102
{ACAD_XDICTIONARY
360
27F
102
}
330
2A
100
AcDbVisualStyle
  2
2dWireframe
 70
     4
177
     2
291
     0
 71
     0
176
     1
 72
     2
176
     1
 73
     0
176
     1
 90
        0
176
     1
 40
0.6
176
     1
 41
30.0
176
     1
 62
     5
 63
     7
421
 16777215
176
     1
 74
     1
176
     1
 91
        4
176
     1
 64
     7
176
     1
 65
   257
176
     1
 75
     1
176
     1
175
     1
176
     1
 42
1.0
176
     1
 92
        0
176
     1
 66
   257
176
     1
 43
1.0
176
     1
 76
     1
176
     1
 77
     6
176
     1
 78
     2
176
     1
 67
     7
176
     1
 79
     5
176
     1
170
     0
176
     1
171
     0
176
     1
290
     0
176
     1
 93
        1
176
     1
 44
0.0
176
     1
173
     0
176
     1
  0
VISUALSTYLE
  5
32
102
{ACAD_REACTORS
330
2A
102
}
102
{ACAD_XDICTIONARY
360
285
102
}
330
2A
100
AcDbVisualStyle
  2
Basic
 70
     7
177
     2
291
     1
 71
     1
176
     1
 72
     0
176
     1
 73
     1
176
     1
 90
        0
176
     1
 40
0.6
176
     1
 41
30.0
176
     1
 62
     5
 63
     7
421
 16777215
176
     1
 74
     0
176
     1
 91
        4
176
     1
 64
     7
176
     1
 65
   257
176
     1
 75
     1
176
     1
175
     1
176
     1
 42
1.0
176
     1
 92
        8
176
     1
 66
     7
176
     1
 43
1.0
176
     1
 76
     1
176
     1
 77
     6
176
     1
 78
     2
176
     1
 67
     7
176
     1
 79
     5
176
     1
170
     0
176
     1
171
     0
176
     1
290
     0
176
     1
 93
        1
176
     1
 44
0.0
176
     1
173
     0
176
     1
  0
VISUALSTYLE
  5
36
102
{ACAD_REACTORS
330
2A
102
}
102
{ACAD_XDICTIONARY
360
28D
102
}
330
2A
100
AcDbVisualStyle
  2
Brighten
 70
    12
177
     2
291
     1
 71
     2
176
     1
 72
     2
176
     1
 73
     0
176
     1
 90
        0
176
     1
 40
0.6
176
     1
 41
30.0
176
     1
 62
     5
 63
     7
421
 16777215
176
     1
 74
     1
176
     1
 91
        4
176
     1
 64
     7
176
     1
 65
   257
176
     1
 75
     1
176
     1
175
     1
176
     1
 42
1.0
176
     1
 92
        8
176
     1
 66
     7
176
     1
 43
1.0
176
     1
 76
     1
176
     1
 77
     6
176
     1
 78
     2
176
     1
 67
     7
176
     1
 79
     5
176
     1
170
     0
176
     1
171
     0
176
     1
290
     0
176
     1
 93
        1
176
     1
 44
50.0
176
     1
173
     0
176
     1
  0
VISUALSTYLE
  5
3A
102
{ACAD_REACTORS
330
2A
102
}
102
{ACAD_XDICTIONARY
360
295
102
}
330
2A
100
AcDbVisualStyle
  2
ColorChange
 70
    16
177
     2
291
     1
 71
     2
176
     1
 72
     2
176
     1
 73
     3
176
     1
 90
        0
176
     1
 40
0.6
176
     1
 41
30.0
176
     1
 62
     5
 63
     8
421
  8421504
176
     1
 74
     1
176
     1
 91
        4
176
     1
 64
     7
176
     1
 65
   257
176
     1
 75
     1
176
     1
175
     1
176
     1
 42
1.0
176
     1
 92
        8
176
     1
 66
     8
424
  8421504
176
     1
 43
1.0
176
     1
 76
     1
176
     1
 77
     6
176
     1
 78
     2
176
     1
 67
     7
176
     1
 79
     5
176
     1
170
     0
176
     1
171
     0
176
     1
290
     0
176
     1
 93
        1
176
     1
 44
0.0
176
     1
173
     0
176
     1
  0
VISUALSTYLE
  5
34
102
{ACAD_REACTORS
330
2A
102
}
102
{ACAD_XDICTIONARY
360
289
102
}
330
2A
100
AcDbVisualStyle
  2
Conceptual
 70
     9
177
     2
291
     0
 71
     3
176
     1
 72
     2
176
     1
 73
     0
176
     1
 90
        0
176
     1
 40
0.6
176
     1
 41
30.0
176
     1
 62
     5
 63
     7
421
 16777215
176
     1
 74
     2
176
     1
 91
        2
176
     1
 64
     7
176
     1
 65
   257
176
     1
 75
     1
176
     1
175
     1
176
     1
 42
179.0
176
     1
 92
        8
176
     1
 66
     7
176
     1
 43
1.0
176
     1
 76
     1
176
     1
 77
     6
176
     1
 78
     2
176
     1
 67
     7
176
     1
 79
     3
176
     1
170
     0
176
     1
171
     0
176
     1
290
     0
176
     1
 93
        1
176
     1
 44
0.0
176
     1
173
     0
176
     1
  0
VISUALSTYLE
  5
35
102
{ACAD_REACTORS
330
2A
102
}
102
{ACAD_XDICTIONARY
360
28B
102
}
330
2A
100
AcDbVisualStyle
  2
Dim
 70
    11
177
     2
291
     1
 71
     2
176
     1
 72
     2
176
     1
 73
     0
176
     1
 90
        0
176
     1
 40
0.6
176
     1
 41
30.0
176
     1
 62
     5
 63
     7
421
 16777215
176
     1
 74
     1
176
     1
 91
        4
176
     1
 64
     7
176
     1
 65
   257
176
     1
 75
     1
176
     1
175
     1
176
     1
 42
1.0
176
     1
 92
        8
176
     1
 66
     7
176
     1
 43
1.0
176
     1
 76
     1
176
     1
 77
     6
176
     1
 78
     2
176
     1
 67
     7
176
     1
 79
     5
176
     1
170
     0
176
     1
171
     0
176
     1
290
     0
176
     1
 93
        1
176
     1
 44
-50.0
176
     1
173
     0
176
     1
  0
VISUALSTYLE
  5
3D
102
{ACAD_REACTORS
330
2A
102
}
102
{ACAD_XDICTIONARY
360
29B
102
}
330
2A
100
AcDbVisualStyle
  2
EdgeColorOff
 70
    22
177
     2
291
     1
 71
     2
176
     0
 72
     2
176
     0
 73
     0
176
     0
 90
        0
176
     0
 40
0.6
176
     0
 41
30.0
176
     0
 62
     5
 63
     7
421
 16777215
176
     0
 74
     1
176
     0
 91
        4
176
     0
 64
     7
176
     0
 65
   257
176
     0
 75
     1
176
     0
175
     1
176
     0
 42
1.0
176
     0
 92
        8
176
     2
 66
     7
176
     0
 43
1.0
176
     0
 76
     1
176
     0
 77
     6
176
     0
 78
     2
176
     0
 67
     7
176
     0
 79
     5
176
     0
170
     0
176
     0
171
     0
176
     0
290
     0
176
     0
 93
        1
176
     0
 44
0.0
176
     0
173
     0
176
     0
  0
VISUALSTYLE
  5
39
102
{ACAD_REACTORS
330
2A
102
}
102
{ACAD_XDICTIONARY
360
293
102
}
330
2A
100
AcDbVisualStyle
  2
Facepattern
 70
    15
177
     2
291
     1
 71
     2
176
     1
 72
     2
176
     1
 73
     0
176
     1
 90
        0
176
     1
 40
0.6
176
     1
 41
30.0
176
     1
 62
     5
 63
     7
421
 16777215
176
     1
 74
     1
176
     1
 91
        4
176
     1
 64
     7
176
     1
 65
   257
176
     1
 75
     1
176
     1
175
     1
176
     1
 42
1.0
176
     1
 92
        8
176
     1
 66
     7
176
     1
 43
1.0
176
     1
 76
     1
176
     1
 77
     6
176
     1
 78
     2
176
     1
 67
     7
176
     1
 79
     5
176
     1
170
     0
176
     1
171
     0
176
     1
290
     0
176
     1
 93
        1
176
     1
 44
0.0
176
     1
173
     0
176
     1
  0
VISUALSTYLE
  5
2B
102
{ACAD_REACTORS
330
2A
102
}
102
{ACAD_XDICTIONARY
360
277
102
}
330
2A
100
AcDbVisualStyle
  2
Flat
 70
     0
177
     2
291
     1
 71
     2
176
     1
 72
     1
176
     1
 73
     1
176
     1
 90
        2
176
     1
 40
0.6
176
     1
 41
30.0
176
     1
 62
     5
 63
     7
421
 16777215
176
     1
 74
     0
176
     1
 91
        0
176
     1
 64
     7
176
     1
 65
   257
176
     1
 75
     1
176
     1
175
     1
176
     1
 42
1.0
176
     1
 92
        8
176
     1
 66
     7
176
     1
 43
1.0
176
     1
 76
     1
176
     1
 77
     6
176
     1
 78
     2
176
     1
 67
     7
176
     1
 79
     5
176
     1
170
     0
176
     1
171
     0
176
     1
290
     0
176
     1
 93
       13
176
     1
 44
0.0
176
     1
173
     0
176
     1
  0
VISUALSTYLE
  5
2C
102
{ACAD_REACTORS
330
2A
102
}
102
{ACAD_XDICTIONARY
360
279
102
}
330
2A
100
AcDbVisualStyle
  2
FlatWithEdges
 70
     1
177
     2
291
     1
 71
     2
176
     1
 72
     1
176
     1
 73
     1
176
     1
 90
        2
176
     1
 40
0.6
176
     1
 41
30.0
176
     1
 62
     5
 63
     7
421
 16777215
176
     1
 74
     1
176
     1
 91
        0
176
     1
 64
     7
176
     1
 65
   257
176
     1
 75
     1
176
     1
175
     1
176
     1
 42
1.0
176
     1
 92
        0
176
     1
 66
   257
176
     1
 43
1.0
176
     1
 76
     1
176
     1
 77
     6
176
     1
 78
     2
176
     1
 67
     7
176
     1
 79
     5
176
     1
170
     0
176
     1
171
     0
176
     1
290
     0
176
     1
 93
       13
176
     1
 44
0.0
176
     1
173
     0
176
     1
  0
VISUALSTYLE
  5
2D
102
{ACAD_REACTORS
330
2A
102
}
102
{ACAD_XDICTIONARY
360
27B
102
}
330
2A
100
AcDbVisualStyle
  2
Gouraud
 70
     2
177
     2
291
     1
 71
     2
176
     1
 72
     2
176
     1
 73
     1
176
     1
 90
        2
176
     1
 40
0.6
176
     1
 41
30.0
176
     1
 62
     5
 63
     7
421
 16777215
176
     1
 74
     0
176
     1
 91
        0
176
     1
 64
     7
176
     1
 65
   257
176
     1
 75
     1
176
     1
175
     1
176
     1
 42
1.0
176
     1
 92
        0
176
     1
 66
     7
176
     1
 43
1.0
176
     1
 76
     1
176
     1
 77
     6
176
     1
 78
     2
176
     1
 67
     7
176
     1
 79
     5
176
     1
170
     0
176
     1
171
     0
176
     1
290
     0
176
     1
 93
       13
176
     1
 44
0.0
176
     1
173
     0
176
     1
  0
VISUALSTYLE
  5
2E
102
{ACAD_REACTORS
330
2A
102
}
102
{ACAD_XDICTIONARY
360
27D
102
}
330
2A
100
AcDbVisualStyle
  2
GouraudWithEdges
 70
     3
177
     2
291
     1
 71
     2
176
     1
 72
     2
176
     1
 73
     1
176
     1
 90
        2
176
     1
 40
0.6
176
     1
 41
30.0
176
     1
 62
     5
 63
     7
421
 16777215
176
     1
 74
     1
176
     1
 91
        0
176
     1
 64
     7
176
     1
 65
   257
176
     1
 75
     1
176
     1
175
     1
176
     1
 42
1.0
176
     1
 92
        0
176
     1
 66
   257
176
     1
 43
1.0
176
     1
 76
     1
176
     1
 77
     6
176
     1
 78
     2
176
     1
 67
     7
176
     1
 79
     5
176
     1
170
     0
176
     1
171
     0
176
     1
290
     0
176
     1
 93
       13
176
     1
 44
0.0
176
     1
173
     0
176
     1
  0
VISUALSTYLE
  5
31
102
{ACAD_REACTORS
330
2A
102
}
102
{ACAD_XDICTIONARY
360
283
102
}
330
2A
100
AcDbVisualStyle
  2
Hidden
 70
     6
177
     2
291
     0
 71
     1
176
     1
 72
     2
176
     1
 73
     2
176
     1
 90
        0
176
     1
 40
0.6
176
     1
 41
30.0
176
     1
 62
     5
 63
     7
421
 16777215
176
     1
 74
     2
176
     1
 91
        2
176
     1
 64
     7
176
     1
 65
   257
176
     1
 75
     2
176
     1
175
     1
176
     1
 42
40.0
176
     1
 92
        0
176
     1
 66
   257
176
     1
 43
1.0
176
     1
 76
     1
176
     1
 77
     6
176
     1
 78
     2
176
     1
 67
     7
176
     1
 79
     3
176
     1
170
     0
176
     1
171
     0
176
     1
290
     0
176
     1
 93
        1
176
     1
 44
0.0
176
     1
173
     0
176
     1
  0
VISUALSTYLE
  5
3B
102
{ACAD_REACTORS
330
2A
102
}
102
{ACAD_XDICTIONARY
360
297
102
}
330
2A
100
AcDbVisualStyle
  2
JitterOff
 70
    20
177
     2
291
     1
 71
     2
176
     0
 72
     2
176
     0
 73
     0
176
     0
 90
        0
176
     0
 40
0.6
176
     0
 41
30.0
176
     0
 62
     5
 63
     7
421
 16777215
176
     0
 74
     1
176
     0
 91
        4
176
     0
 64
     7
176
     0
 65
   257
176
     0
 75
     1
176
     0
175
     1
176
     0
 42
1.0
176
     0
 92
       10
176
     2
 66
     7
176
     0
 43
1.0
176
     0
 76
     1
176
     0
 77
     6
176
     0
 78
     2
176
     0
 67
     7
176
     0
 79
     5
176
     0
170
     0
176
     0
171
     0
176
     0
290
     0
176
     0
 93
        1
176
     0
 44
0.0
176
     0
173
     0
176
     0
  0
VISUALSTYLE
  5
38
102
{ACAD_REACTORS
330
2A
102
}
102
{ACAD_XDICTIONARY
360
291
102
}
330
2A
100
AcDbVisualStyle
  2
Linepattern
 70
    14
177
     2
291
     1
 71
     2
176
     1
 72
     2
176
     1
 73
     0
176
     1
 90
        0
176
     1
 40
0.6
176
     1
 41
30.0
176
     1
 62
     5
 63
     7
421
 16777215
176
     1
 74
     1
176
     1
 91
        4
176
     1
 64
     7
176
     1
 65
   257
176
     1
 75
     7
176
     1
175
     7
176
     1
 42
1.0
176
     1
 92
        8
176
     1
 66
     7
176
     1
 43
1.0
176
     1
 76
     1
176
     1
 77
     6
176
     1
 78
     2
176
     1
 67
     7
176
     1
 79
     5
176
     1
170
     0
176
     1
171
     0
176
     1
290
     0
176
     1
 93
        1
176
     1
 44
0.0
176
     1
173
     0
176
     1
  0
VISUALSTYLE
  5
3C
102
{ACAD_REACTORS
330
2A
102
}
102
{ACAD_XDICTIONARY
360
299
102
}
330
2A
100
AcDbVisualStyle
  2
OverhangOff
 70
    21
177
     2
291
     1
 71
     2
176
     0
 72
     2
176
     0
 73
     0
176
     0
 90
        0
176
     0
 40
0.6
176
     0
 41
30.0
176
     0
 62
     5
 63
     7
421
 16777215
176
     0
 74
     1
176
     0
 91
        4
176
     0
 64
     7
176
     0
 65
   257
176
     0
 75
     1
176
     0
175
     1
176
     0
 42
1.0
176
     0
 92
        9
176
     2
 66
     7
176
     0
 43
1.0
176
     0
 76
     1
176
     0
 77
     6
176
     0
 78
     2
176
     0
 67
     7
176
     0
 79
     5
176
     0
170
     0
176
     0
171
     0
176
     0
290
     0
176
     0
 93
        1
176
     0
 44
0.0
176
     0
173
     0
176
     0
  0
VISUALSTYLE
  5
33
102
{ACAD_REACTORS
330
2A
102
}
102
{ACAD_XDICTIONARY
360
287
102
}
330
2A
100
AcDbVisualStyle
  2
Realistic
 70
     8
177
     2
291
     0
 71
     2
176
     1
 72
     3
176
     1
 73
     0
176
     1
 90
        2
176
     1
 40
0.6
176
     1
 41
30.0
176
     1
 62
     5
 63
     7
421
 16777215
176
     1
 74
     0
176
     1
 91
        0
176
     1
 64
     7
176
     1
 65
   257
176
     1
 75
     1
176
     1
175
     1
176
     1
 42
1.0
176
     1
 92
        8
176
     1
 66
   257
176
     1
 43
1.0
176
     1
 76
     1
176
     1
 77
     6
176
     1
 78
     2
176
     1
 67
     7
176
     1
 79
     3
176
     1
170
     0
176
     1
171
     0
176
     1
290
     0
176
     1
 93
       13
176
     1
 44
0.0
176
     1
173
     0
176
     1
  0
VISUALSTYLE
  5
42
102
{ACAD_REACTORS
330
2A
102
}
102
{ACAD_XDICTIONARY
360
2A5
102
}
330
2A
100
AcDbVisualStyle
  2
Shaded
 70
    27
177
     2
291
     0
 71
     2
176
     1
 72
     2
176
     1
 73
     1
176
     1
 90
        2
176
     1
 40
0.6
176
     1
 41
30.0
176
     1
 62
     5
 63
     7
421
 16777215
176
     1
 74
     0
176
     1
 91
        4
176
     1
 64
     7
176
     1
 65
   257
176
     1
 75
     1
176
     1
175
     1
176
     1
 42
1.0
176
     1
 92
        8
176
     1
 66
   257
176
     1
 43
1.0
176
     1
 76
     1
176
     1
 77
     6
176
     1
 78
     2
176
     1
 67
     8
425
  7895160
176
     1
 79
     3
176
     1
170
     0
176
     1
171
     0
176
     1
290
     0
176
     1
 93
        5
176
     1
 44
0.0
176
     1
173
     0
176
     1
  0
VISUALSTYLE
  5
41
102
{ACAD_REACTORS
330
2A
102
}
102
{ACAD_XDICTIONARY
360
2A3
102
}
330
2A
100
AcDbVisualStyle
  2
Shaded with edges
 70
    26
177
     2
291
     0
 71
     2
176
     1
 72
     2
176
     1
 73
     1
176
     1
 90
        2
176
     1
 40
0.6
176
     1
 41
30.0
176
     1
 62
     5
 63
     7
421
 16777215
176
     1
 74
     1
176
     1
 91
       10
176
     1
 64
     7
176
     1
 65
   257
176
     1
 75
     2
176
     1
175
     1
176
     1
 42
1.0
176
     1
 92
        8
176
     1
 66
   257
176
     1
 43
1.0
176
     1
 76
     1
176
     1
 77
     6
176
     1
 78
     2
176
     1
 67
     7
176
     1
 79
     3
176
     1
170
     0
176
     1
171
     0
176
     1
290
     0
176
     1
 93
        5
176
     1
 44
0.0
176
     1
173
     0
176
     1
  0
VISUALSTYLE
  5
3E
102
{ACAD_REACTORS
330
2A
102
}
102
{ACAD_XDICTIONARY
360
29D
102
}
330
2A
100
AcDbVisualStyle
  2
Shades of Gray
 70
    23
177
     2
291
     0
 71
     2
176
     1
 72
     2
176
     1
 73
     3
176
     1
 90
        0
176
     1
 40
0.6
176
     1
 41
30.0
176
     1
 62
     5
 63
     7
421
 16777215
176
     1
 74
     2
176
     1
 91
        2
176
     1
 64
     7
176
     1
 65
     7
176
     1
 75
     1
176
     1
175
     1
176
     1
 42
40.0
176
     1
 92
        8
176
     1
 66
     7
176
     1
 43
1.0
176
     1
 76
     1
176
     1
 77
     6
176
     1
 78
     2
176
     1
 67
     7
176
     1
 79
     3
176
     1
170
     0
176
     1
171
     0
176
     1
290
     0
176
     1
 93
        1
176
     1
 44
0.0
176
     1
173
     0
176
     1
  0
VISUALSTYLE
  5
3F
102
{ACAD_REACTORS
330
2A
102
}
102
{ACAD_XDICTIONARY
360
29F
102
}
330
2A
100
AcDbVisualStyle
  2
Sketchy
 70
    24
177
     2
291
     0
 71
     1
176
     1
 72
     2
176
     1
 73
     2
176
     1
 90
        0
176
     1
 40
0.6
176
     1
 41
30.0
176
     1
 62
     5
 63
     7
421
 16777215
176
     1
 74
     2
176
     1
 91
        2
176
     1
 64
     7
176
     1
 65
     7
176
     1
 75
     1
176
     1
175
     1
176
     1
 42
40.0
176
     1
 92
       11
176
     1
 66
     7
176
     1
 43
1.0
176
     1
 76
     1
176
     1
 77
     6
176
     1
 78
     2
176
     1
 67
     7
176
     1
 79
     6
176
     1
170
     0
176
     1
171
     0
176
     1
290
     0
176
     1
 93
        1
176
     1
 44
0.0
176
     1
173
     0
176
     1
  0
VISUALSTYLE
  5
37
102
{ACAD_REACTORS
330
2A
102
}
102
{ACAD_XDICTIONARY
360
28F
102
}
330
2A
100
AcDbVisualStyle
  2
Thicken
 70
    13
177
     2
291
     1
 71
     2
176
     1
 72
     2
176
     1
 73
     0
176
     1
 90
        0
176
     1
 40
0.6
176
     1
 41
30.0
176
     1
 62
     5
 63
     7
421
 16777215
176
     1
 74
     1
176
     1
 91
        4
176
     1
 64
     7
176
     1
 65
   257
176
     1
 75
     1
176
     1
175
     1
176
     1
 42
1.0
176
     1
 92
       12
176
     1
 66
     7
176
     1
 43
1.0
176
     1
 76
     1
176
     1
 77
     6
176
     1
 78
     2
176
     1
 67
     7
176
     1
 79
     5
176
     1
170
     0
176
     1
171
     0
176
     1
290
     0
176
     1
 93
        1
176
     1
 44
0.0
176
     1
173
     0
176
     1
  0
VISUALSTYLE
  5
30
102
{ACAD_REACTORS
330
2A
102
}
102
{ACAD_XDICTIONARY
360
281
102
}
330
2A
100
AcDbVisualStyle
  2
Wireframe
 70
     5
177
     2
291
     0
 71
     0
176
     1
 72
     2
176
     1
 73
     0
176
     1
 90
        0
176
     1
 40
0.6
176
     1
 41
30.0
176
     1
 62
     5
 63
     7
421
 16777215
176
     1
 74
     1
176
     1
 91
        4
176
     1
 64
     7
176
     1
 65
   257
176
     1
 75
     1
176
     1
175
     1
176
     1
 42
1.0
176
     1
 92
        0
176
     1
 66
   257
176
     1
 43
1.0
176
     1
 76
     1
176
     1
 77
     6
176
     1
 78
     2
176
     1
 67
     7
176
     1
 79
     3
176
     1
170
     0
176
     1
171
     0
176
     1
290
     0
176
     1
 93
        1
176
     1
 44
0.0
176
     1
173
     0
176
     1
  0
VISUALSTYLE
  5
40
102
{ACAD_REACTORS
330
2A
102
}
102
{ACAD_XDICTIONARY
360
2A1
102
}
330
2A
100
AcDbVisualStyle
  2
X-Ray
 70
    25
177
     2
291
     0
 71
     2
176
     1
 72
     2
176
     1
 73
     1
176
     1
 90
        1
176
     1
 40
0.5
176
     1
 41
30.0
176
     1
 62
     5
 63
     7
421
 16777215
176
     1
 74
     1
176
     1
 91
        0
176
     1
 64
     7
176
     1
 65
   257
176
     1
 75
     1
176
     1
175
     1
176
     1
 42
1.0
176
     1
 92
        8
176
     1
 66
     7
176
     1
 43
1.0
176
     1
 76
     1
176
     1
 77
     6
176
     1
 78
     2
176
     1
 67
     7
176
     1
 79
     3
176
     1
170
     0
176
     1
171
     0
176
     1
290
     0
176
     1
 93
       13
176
     1
 44
0.0
176
     1
173
     0
176
     1
  0
DICTIONARYVAR
  5
276
102
{ACAD_REACTORS
330
275
102
}
330
275
100
DictionaryVariables
280
     0
  1
1:1
  0
DICTIONARYVAR
  5
2AB
102
{ACAD_REACTORS
330
275
102
}
330
275
100
DictionaryVariables
280
     0
  1
Standard
  0
DICTIONARYVAR
  5
2AA
102
{ACAD_REACTORS
330
275
102
}
330
275
100
DictionaryVariables
280
     0
  1
Standard
  0
DICTIONARY
  5
2A7
330
6A
100
AcDbDictionary
280
     1
281
     1
  3
ACAD_ROUNDTRIP_2008_TABLESTYLE_CELLSTYLEMAP
360
2A8
  0
DICTIONARY
  5
27F
330
2F
100
AcDbDictionary
280
     1
281
     1
  3
ACAD_XREC_ROUNDTRIP
360
280
  0
DICTIONARY
  5
285
330
32
100
AcDbDictionary
280
     1
281
     1
  3
ACAD_XREC_ROUNDTRIP
360
286
  0
DICTIONARY
  5
28D
330
36
100
AcDbDictionary
280
     1
281
     1
  3
ACAD_XREC_ROUNDTRIP
360
28E
  0
DICTIONARY
  5
295
330
3A
100
AcDbDictionary
280
     1
281
     1
  3
ACAD_XREC_ROUNDTRIP
360
296
  0
DICTIONARY
  5
289
330
34
100
AcDbDictionary
280
     1
281
     1
  3
ACAD_XREC_ROUNDTRIP
360
28A
  0
DICTIONARY
  5
28B
330
35
100
AcDbDictionary
280
     1
281
     1
  3
ACAD_XREC_ROUNDTRIP
360
28C
  0
DICTIONARY
  5
29B
330
3D
100
AcDbDictionary
280
     1
281
     1
  3
ACAD_XREC_ROUNDTRIP
360
29C
  0
DICTIONARY
  5
293
330
39
100
AcDbDictionary
280
     1
281
     1
  3
ACAD_XREC_ROUNDTRIP
360
294
  0
DICTIONARY
  5
277
330
2B
100
AcDbDictionary
280
     1
281
     1
  3
ACAD_XREC_ROUNDTRIP
360
278
  0
DICTIONARY
  5
279
330
2C
100
AcDbDictionary
280
     1
281
     1
  3
ACAD_XREC_ROUNDTRIP
360
27A
  0
DICTIONARY
  5
27B
330
2D
100
AcDbDictionary
280
     1
281
     1
  3
ACAD_XREC_ROUNDTRIP
360
27C
  0
DICTIONARY
  5
27D
330
2E
100
AcDbDictionary
280
     1
281
     1
  3
ACAD_XREC_ROUNDTRIP
360
27E
  0
DICTIONARY
  5
283
330
31
100
AcDbDictionary
280
     1
281
     1
  3
ACAD_XREC_ROUNDTRIP
360
284
  0
DICTIONARY
  5
297
330
3B
100
AcDbDictionary
280
     1
281
     1
  3
ACAD_XREC_ROUNDTRIP
360
298
  0
DICTIONARY
  5
291
330
38
100
AcDbDictionary
280
     1
281
     1
  3
ACAD_XREC_ROUNDTRIP
360
292
  0
DICTIONARY
  5
299
330
3C
100
AcDbDictionary
280
     1
281
     1
  3
ACAD_XREC_ROUNDTRIP
360
29A
  0
DICTIONARY
  5
287
330
33
100
AcDbDictionary
280
     1
281
     1
  3
ACAD_XREC_ROUNDTRIP
360
288
  0
DICTIONARY
  5
2A5
330
42
100
AcDbDictionary
280
     1
281
     1
  3
ACAD_XREC_ROUNDTRIP
360
2A6
  0
DICTIONARY
  5
2A3
330
41
100
AcDbDictionary
280
     1
281
     1
  3
ACAD_XREC_ROUNDTRIP
360
2A4
  0
DICTIONARY
  5
29D
330
3E
100
AcDbDictionary
280
     1
281
     1
  3
ACAD_XREC_ROUNDTRIP
360
29E
  0
DICTIONARY
  5
29F
330
3F
100
AcDbDictionary
280
     1
281
     1
  3
ACAD_XREC_ROUNDTRIP
360
2A0
  0
DICTIONARY
  5
28F
330
37
100
AcDbDictionary
280
     1
281
     1
  3
ACAD_XREC_ROUNDTRIP
360
290
  0
DICTIONARY
  5
281
330
30
100
AcDbDictionary
280
     1
281
     1
  3
ACAD_XREC_ROUNDTRIP
360
282
  0
DICTIONARY
  5
2A1
330
40
100
AcDbDictionary
280
     1
281
     1
  3
ACAD_XREC_ROUNDTRIP
360
2A2
  0
CELLSTYLEMAP
  5
2A8
102
{ACAD_REACTORS
330
2A7
102
}
330
2A7
100
AcDbCellStyleMap
 90
        3
300
CELLSTYLE
  1
TABLEFORMAT_BEGIN
 90
        5
170
     1
 91
        0
 92
    32768
 62
   257
 93
        1
300
CONTENTFORMAT
  1
CONTENTFORMAT_BEGIN
 90
        0
 91
        0
 92
        4
 93
        0
300

 40
0.0
140
1.0
 94
        5
 62
     0
340
11
144
6.0
309
CONTENTFORMAT_END
171
     1
301
MARGIN
  1
CELLMARGIN_BEGIN
 40
1.5
 40
1.5
 40
1.5
 40
1.5
 40
1.5
 40
1.5
309
CELLMARGIN_END
 94
        6
 95
        1
302
GRIDFORMAT
  1
GRIDFORMAT_BEGIN
 90
        0
 91
        1
 62
     0
 92
       -2
340
14
 93
        0
 40
0.045
309
GRIDFORMAT_END
 95
        2
302
GRIDFORMAT
  1
GRIDFORMAT_BEGIN
 90
        0
 91
        1
 62
     0
 92
       -2
340
14
 93
        0
 40
0.045
309
GRIDFORMAT_END
 95
        4
302
GRIDFORMAT
  1
GRIDFORMAT_BEGIN
 90
        0
 91
        1
 62
     0
 92
       -2
340
14
 93
        0
 40
0.045
309
GRIDFORMAT_END
 95
        8
302
GRIDFORMAT
  1
GRIDFORMAT_BEGIN
 90
        0
 91
        1
 62
     0
 92
       -2
340
14
 93
        0
 40
0.045
309
GRIDFORMAT_END
 95
       16
302
GRIDFORMAT
  1
GRIDFORMAT_BEGIN
 90
        0
 91
        1
 62
     0
 92
       -2
340
14
 93
        0
 40
0.045
309
GRIDFORMAT_END
 95
       32
302
GRIDFORMAT
  1
GRIDFORMAT_BEGIN
 90
        0
 91
        1
 62
     0
 92
       -2
340
14
 93
        0
 40
0.045
309
GRIDFORMAT_END
309
TABLEFORMAT_END
  1
CELLSTYLE_BEGIN
 90
        1
 91
        1
300
_TITLE
309
CELLSTYLE_END
300
CELLSTYLE
  1
TABLEFORMAT_BEGIN
 90
        5
170
     1
 91
        0
 92
        0
 62
   257
 93
        1
300
CONTENTFORMAT
  1
CONTENTFORMAT_BEGIN
 90
        0
 91
        0
 92
        4
 93
        0
300

 40
0.0
140
1.0
 94
        5
 62
     0
340
11
144
4.5
309
CONTENTFORMAT_END
171
     1
301
MARGIN
  1
CELLMARGIN_BEGIN
 40
1.5
 40
1.5
 40
1.5
 40
1.5
 40
1.5
 40
1.5
309
CELLMARGIN_END
 94
        6
 95
        1
302
GRIDFORMAT
  1
GRIDFORMAT_BEGIN
 90
        0
 91
        1
 62
     0
 92
       -2
340
14
 93
        0
 40
0.045
309
GRIDFORMAT_END
 95
        2
302
GRIDFORMAT
  1
GRIDFORMAT_BEGIN
 90
        0
 91
        1
 62
     0
 92
       -2
340
14
 93
        0
 40
0.045
309
GRIDFORMAT_END
 95
        4
302
GRIDFORMAT
  1
GRIDFORMAT_BEGIN
 90
        0
 91
        1
 62
     0
 92
       -2
340
14
 93
        0
 40
0.045
309
GRIDFORMAT_END
 95
        8
302
GRIDFORMAT
  1
GRIDFORMAT_BEGIN
 90
        0
 91
        1
 62
     0
 92
       -2
340
14
 93
        0
 40
0.045
309
GRIDFORMAT_END
 95
       16
302
GRIDFORMAT
  1
GRIDFORMAT_BEGIN
 90
        0
 91
        1
 62
     0
 92
       -2
340
14
 93
        0
 40
0.045
309
GRIDFORMAT_END
 95
       32
302
GRIDFORMAT
  1
GRIDFORMAT_BEGIN
 90
        0
 91
        1
 62
     0
 92
       -2
340
14
 93
        0
 40
0.045
309
GRIDFORMAT_END
309
TABLEFORMAT_END
  1
CELLSTYLE_BEGIN
 90
        2
 91
        1
300
_HEADER
309
CELLSTYLE_END
300
CELLSTYLE
  1
TABLEFORMAT_BEGIN
 90
        5
170
     1
 91
        0
 92
        0
 62
   257
 93
        1
300
CONTENTFORMAT
  1
CONTENTFORMAT_BEGIN
 90
        0
 91
        0
 92
        4
 93
        0
300

 40
0.0
140
1.0
 94
        2
 62
     0
340
11
144
4.5
309
CONTENTFORMAT_END
171
     1
301
MARGIN
  1
CELLMARGIN_BEGIN
 40
1.5
 40
1.5
 40
1.5
 40
1.5
 40
1.5
 40
1.5
309
CELLMARGIN_END
 94
        6
 95
        1
302
GRIDFORMAT
  1
GRIDFORMAT_BEGIN
 90
        0
 91
        1
 62
     0
 92
       -2
340
14
 93
        0
 40
0.045
309
GRIDFORMAT_END
 95
        2
302
GRIDFORMAT
  1
GRIDFORMAT_BEGIN
 90
        0
 91
        1
 62
     0
 92
       -2
340
14
 93
        0
 40
0.045
309
GRIDFORMAT_END
 95
        4
302
GRIDFORMAT
  1
GRIDFORMAT_BEGIN
 90
        0
 91
        1
 62
     0
 92
       -2
340
14
 93
        0
 40
0.045
309
GRIDFORMAT_END
 95
        8
302
GRIDFORMAT
  1
GRIDFORMAT_BEGIN
 90
        0
 91
        1
 62
     0
 92
       -2
340
14
 93
        0
 40
0.045
309
GRIDFORMAT_END
 95
       16
302
GRIDFORMAT
  1
GRIDFORMAT_BEGIN
 90
        0
 91
        1
 62
     0
 92
       -2
340
14
 93
        0
 40
0.045
309
GRIDFORMAT_END
 95
       32
302
GRIDFORMAT
  1
GRIDFORMAT_BEGIN
 90
        0
 91
        1
 62
     0
 92
       -2
340
14
 93
        0
 40
0.045
309
GRIDFORMAT_END
309
TABLEFORMAT_END
  1
CELLSTYLE_BEGIN
 90
        3
 91
        2
300
_DATA
309
CELLSTYLE_END
  0
XRECORD
  5
280
102
{ACAD_REACTORS
330
27F
102
}
330
27F
100
AcDbXrecord
280
     1
102
RTVSPost2010Prop28
280
     1
102
RTVSPost2010PropOp28
 70
     1
102
RTVSPost2010Prop29
280
     1
102
RTVSPost2010PropOp29
 70
     1
102
RTVSPost2010Prop30
280
     0
102
RTVSPost2010PropOp30
 70
     1
102
RTVSPost2010Prop31
280
     0
102
RTVSPost2010PropOp31
 70
     1
102
RTVSPost2010Prop32
280
     0
102
RTVSPost2010PropOp32
 70
     1
102
RTVSPost2010Prop33
280
     0
102
RTVSPost2010PropOp33
 70
     1
102
RTVSPost2010Prop34
280
     0
102
RTVSPost2010PropOp34
 70
     1
102
RTVSPost2010Prop35
280
     0
102
RTVSPost2010PropOp35
 70
     1
102
RTVSPost2010Prop36
280
     0
102
RTVSPost2010PropOp36
 70
     1
102
RTVSPost2010Prop37
 90
       50
102
RTVSPost2010PropOp37
 70
     1
102
RTVSPost2010Prop38
140
0.0
102
RTVSPost2010PropOp38
 70
     1
102
RTVSPost2010Prop39
140
1.0
102
RTVSPost2010PropOp39
 70
     1
102
RTVSPost2010Prop40
 90
        0
102
RTVSPost2010PropOp40
 70
     1
102
RTVSPost2010Prop41ColorIndex
 90
       18
102
RTVSPost2010Prop41ColorRGB
 90
        0
102
RTVSPost2010PropOp41
 70
     1
102
RTVSPost2010Prop42
 90
       50
102
RTVSPost2010PropOp42
 70
     1
102
RTVSPost2010Prop43
 90
        3
102
RTVSPost2010PropOp43
 70
     1
102
RTVSPost2010Prop44ColorIndex
 90
        5
102
RTVSPost2010Prop44ColorRGB
 90
      255
102
RTVSPost2010PropOp44
 70
     1
102
RTVSPost2010Prop45
280
     0
102
RTVSPost2010PropOp45
 70
     1
102
RTVSPost2010Prop46
 90
       50
102
RTVSPost2010PropOp46
 70
     1
102
RTVSPost2010Prop47
 90
       50
102
RTVSPost2010PropOp47
 70
     1
102
RTVSPost2010Prop48
 90
       50
102
RTVSPost2010PropOp48
 70
     1
102
RTVSPost2010Prop49
280
     0
102
RTVSPost2010PropOp49
 70
     1
102
RTVSPost2010Prop50
 90
       50
102
RTVSPost2010PropOp50
 70
     1
102
RTVSPost2010Prop51ColorIndex
 90
      256
102
RTVSPost2010Prop51ColorRGB
 90
-16777216
102
RTVSPost2010PropOp51
 70
     0
102
RTVSPost2010Prop52
140
1.0
102
RTVSPost2010PropOp52
 70
     0
102
RTVSPost2010Prop53
 90
        2
102
RTVSPost2010PropOp53
 70
     1
102
RTVSPost2010Prop54
  1
strokes_ogs.tif
102
RTVSPost2010PropOp54
 70
     1
102
RTVSPost2010Prop55
280
     0
102
RTVSPost2010PropOp55
 70
     1
102
RTVSPost2010Prop56
140
1.0
102
RTVSPost2010PropOp56
 70
     1
102
RTVSPost2010Prop57
140
1.0
102
RTVSPost2010PropOp57
 70
     1
  0
XRECORD
  5
286
102
{ACAD_REACTORS
330
285
102
}
330
285
100
AcDbXrecord
280
     1
102
RTVSPost2010Prop28
280
     0
102
RTVSPost2010PropOp28
 70
     1
102
RTVSPost2010Prop29
280
     1
102
RTVSPost2010PropOp29
 70
     1
102
RTVSPost2010Prop30
280
     1
102
RTVSPost2010PropOp30
 70
     1
102
RTVSPost2010Prop31
280
     0
102
RTVSPost2010PropOp31
 70
     1
102
RTVSPost2010Prop32
280
     0
102
RTVSPost2010PropOp32
 70
     1
102
RTVSPost2010Prop33
280
     0
102
RTVSPost2010PropOp33
 70
     1
102
RTVSPost2010Prop34
280
     0
102
RTVSPost2010PropOp34
 70
     1
102
RTVSPost2010Prop35
280
     0
102
RTVSPost2010PropOp35
 70
     1
102
RTVSPost2010Prop36
280
     0
102
RTVSPost2010PropOp36
 70
     1
102
RTVSPost2010Prop37
 90
       50
102
RTVSPost2010PropOp37
 70
     1
102
RTVSPost2010Prop38
140
0.0
102
RTVSPost2010PropOp38
 70
     1
102
RTVSPost2010Prop39
140
1.0
102
RTVSPost2010PropOp39
 70
     1
102
RTVSPost2010Prop40
 90
        0
102
RTVSPost2010PropOp40
 70
     1
102
RTVSPost2010Prop41ColorIndex
 90
       18
102
RTVSPost2010Prop41ColorRGB
 90
        0
102
RTVSPost2010PropOp41
 70
     1
102
RTVSPost2010Prop42
 90
       50
102
RTVSPost2010PropOp42
 70
     1
102
RTVSPost2010Prop43
 90
        3
102
RTVSPost2010PropOp43
 70
     1
102
RTVSPost2010Prop44ColorIndex
 90
        5
102
RTVSPost2010Prop44ColorRGB
 90
      255
102
RTVSPost2010PropOp44
 70
     1
102
RTVSPost2010Prop45
280
     0
102
RTVSPost2010PropOp45
 70
     1
102
RTVSPost2010Prop46
 90
       50
102
RTVSPost2010PropOp46
 70
     1
102
RTVSPost2010Prop47
 90
       50
102
RTVSPost2010PropOp47
 70
     1
102
RTVSPost2010Prop48
 90
       50
102
RTVSPost2010PropOp48
 70
     1
102
RTVSPost2010Prop49
280
     0
102
RTVSPost2010PropOp49
 70
     1
102
RTVSPost2010Prop50
 90
       50
102
RTVSPost2010PropOp50
 70
     1
102
RTVSPost2010Prop51ColorIndex
 90
      256
102
RTVSPost2010Prop51ColorRGB
 90
-16777216
102
RTVSPost2010PropOp51
 70
     0
102
RTVSPost2010Prop52
140
1.0
102
RTVSPost2010PropOp52
 70
     0
102
RTVSPost2010Prop53
 90
        2
102
RTVSPost2010PropOp53
 70
     1
102
RTVSPost2010Prop54
  1
strokes_ogs.tif
102
RTVSPost2010PropOp54
 70
     1
102
RTVSPost2010Prop55
280
     0
102
RTVSPost2010PropOp55
 70
     1
102
RTVSPost2010Prop56
140
1.0
102
RTVSPost2010PropOp56
 70
     1
102
RTVSPost2010Prop57
140
1.0
102
RTVSPost2010PropOp57
 70
     1
  0
XRECORD
  5
28E
102
{ACAD_REACTORS
330
28D
102
}
330
28D
100
AcDbXrecord
280
     1
102
RTVSPost2010Prop28
280
     0
102
RTVSPost2010PropOp28
 70
     1
102
RTVSPost2010Prop29
280
     1
102
RTVSPost2010PropOp29
 70
     1
102
RTVSPost2010Prop30
280
     1
102
RTVSPost2010PropOp30
 70
     1
102
RTVSPost2010Prop31
280
     0
102
RTVSPost2010PropOp31
 70
     1
102
RTVSPost2010Prop32
280
     0
102
RTVSPost2010PropOp32
 70
     1
102
RTVSPost2010Prop33
280
     0
102
RTVSPost2010PropOp33
 70
     1
102
RTVSPost2010Prop34
280
     0
102
RTVSPost2010PropOp34
 70
     1
102
RTVSPost2010Prop35
280
     0
102
RTVSPost2010PropOp35
 70
     1
102
RTVSPost2010Prop36
280
     0
102
RTVSPost2010PropOp36
 70
     1
102
RTVSPost2010Prop37
 90
       50
102
RTVSPost2010PropOp37
 70
     1
102
RTVSPost2010Prop38
140
0.0
102
RTVSPost2010PropOp38
 70
     1
102
RTVSPost2010Prop39
140
1.0
102
RTVSPost2010PropOp39
 70
     1
102
RTVSPost2010Prop40
 90
        0
102
RTVSPost2010PropOp40
 70
     1
102
RTVSPost2010Prop41ColorIndex
 90
       18
102
RTVSPost2010Prop41ColorRGB
 90
        0
102
RTVSPost2010PropOp41
 70
     1
102
RTVSPost2010Prop42
 90
       50
102
RTVSPost2010PropOp42
 70
     1
102
RTVSPost2010Prop43
 90
        3
102
RTVSPost2010PropOp43
 70
     1
102
RTVSPost2010Prop44ColorIndex
 90
        5
102
RTVSPost2010Prop44ColorRGB
 90
      255
102
RTVSPost2010PropOp44
 70
     1
102
RTVSPost2010Prop45
280
     0
102
RTVSPost2010PropOp45
 70
     1
102
RTVSPost2010Prop46
 90
       50
102
RTVSPost2010PropOp46
 70
     1
102
RTVSPost2010Prop47
 90
       50
102
RTVSPost2010PropOp47
 70
     1
102
RTVSPost2010Prop48
 90
       50
102
RTVSPost2010PropOp48
 70
     1
102
RTVSPost2010Prop49
280
     0
102
RTVSPost2010PropOp49
 70
     1
102
RTVSPost2010Prop50
 90
       50
102
RTVSPost2010PropOp50
 70
     1
102
RTVSPost2010Prop51ColorIndex
 90
      256
102
RTVSPost2010Prop51ColorRGB
 90
-16777216
102
RTVSPost2010PropOp51
 70
     0
102
RTVSPost2010Prop52
140
1.0
102
RTVSPost2010PropOp52
 70
     0
102
RTVSPost2010Prop53
 90
        2
102
RTVSPost2010PropOp53
 70
     1
102
RTVSPost2010Prop54
  1
strokes_ogs.tif
102
RTVSPost2010PropOp54
 70
     1
102
RTVSPost2010Prop55
280
     0
102
RTVSPost2010PropOp55
 70
     1
102
RTVSPost2010Prop56
140
1.0
102
RTVSPost2010PropOp56
 70
     1
102
RTVSPost2010Prop57
140
1.0
102
RTVSPost2010PropOp57
 70
     1
  0
XRECORD
  5
296
102
{ACAD_REACTORS
330
295
102
}
330
295
100
AcDbXrecord
280
     1
102
RTVSPost2010Prop28
280
     0
102
RTVSPost2010PropOp28
 70
     1
102
RTVSPost2010Prop29
280
     1
102
RTVSPost2010PropOp29
 70
     1
102
RTVSPost2010Prop30
280
     1
102
RTVSPost2010PropOp30
 70
     1
102
RTVSPost2010Prop31
280
     0
102
RTVSPost2010PropOp31
 70
     1
102
RTVSPost2010Prop32
280
     0
102
RTVSPost2010PropOp32
 70
     1
102
RTVSPost2010Prop33
280
     0
102
RTVSPost2010PropOp33
 70
     1
102
RTVSPost2010Prop34
280
     0
102
RTVSPost2010PropOp34
 70
     1
102
RTVSPost2010Prop35
280
     0
102
RTVSPost2010PropOp35
 70
     1
102
RTVSPost2010Prop36
280
     0
102
RTVSPost2010PropOp36
 70
     1
102
RTVSPost2010Prop37
 90
       50
102
RTVSPost2010PropOp37
 70
     1
102
RTVSPost2010Prop38
140
0.0
102
RTVSPost2010PropOp38
 70
     1
102
RTVSPost2010Prop39
140
1.0
102
RTVSPost2010PropOp39
 70
     1
102
RTVSPost2010Prop40
 90
        0
102
RTVSPost2010PropOp40
 70
     1
102
RTVSPost2010Prop41ColorIndex
 90
       18
102
RTVSPost2010Prop41ColorRGB
 90
        0
102
RTVSPost2010PropOp41
 70
     1
102
RTVSPost2010Prop42
 90
       50
102
RTVSPost2010PropOp42
 70
     1
102
RTVSPost2010Prop43
 90
        3
102
RTVSPost2010PropOp43
 70
     1
102
RTVSPost2010Prop44ColorIndex
 90
        5
102
RTVSPost2010Prop44ColorRGB
 90
      255
102
RTVSPost2010PropOp44
 70
     1
102
RTVSPost2010Prop45
280
     0
102
RTVSPost2010PropOp45
 70
     1
102
RTVSPost2010Prop46
 90
       50
102
RTVSPost2010PropOp46
 70
     1
102
RTVSPost2010Prop47
 90
       50
102
RTVSPost2010PropOp47
 70
     1
102
RTVSPost2010Prop48
 90
       50
102
RTVSPost2010PropOp48
 70
     1
102
RTVSPost2010Prop49
280
     0
102
RTVSPost2010PropOp49
 70
     1
102
RTVSPost2010Prop50
 90
       50
102
RTVSPost2010PropOp50
 70
     1
102
RTVSPost2010Prop51ColorIndex
 90
      256
102
RTVSPost2010Prop51ColorRGB
 90
-16777216
102
RTVSPost2010PropOp51
 70
     0
102
RTVSPost2010Prop52
140
1.0
102
RTVSPost2010PropOp52
 70
     0
102
RTVSPost2010Prop53
 90
        2
102
RTVSPost2010PropOp53
 70
     1
102
RTVSPost2010Prop54
  1
strokes_ogs.tif
102
RTVSPost2010PropOp54
 70
     1
102
RTVSPost2010Prop55
280
     0
102
RTVSPost2010PropOp55
 70
     1
102
RTVSPost2010Prop56
140
1.0
102
RTVSPost2010PropOp56
 70
     1
102
RTVSPost2010Prop57
140
1.0
102
RTVSPost2010PropOp57
 70
     1
  0
XRECORD
  5
28A
102
{ACAD_REACTORS
330
289
102
}
330
289
100
AcDbXrecord
280
     1
102
RTVSPost2010Prop28
280
     0
102
RTVSPost2010PropOp28
 70
     1
102
RTVSPost2010Prop29
280
     1
102
RTVSPost2010PropOp29
 70
     1
102
RTVSPost2010Prop30
280
     1
102
RTVSPost2010PropOp30
 70
     1
102
RTVSPost2010Prop31
280
     0
102
RTVSPost2010PropOp31
 70
     1
102
RTVSPost2010Prop32
280
     0
102
RTVSPost2010PropOp32
 70
     1
102
RTVSPost2010Prop33
280
     0
102
RTVSPost2010PropOp33
 70
     1
102
RTVSPost2010Prop34
280
     0
102
RTVSPost2010PropOp34
 70
     1
102
RTVSPost2010Prop35
280
     0
102
RTVSPost2010PropOp35
 70
     1
102
RTVSPost2010Prop36
280
     0
102
RTVSPost2010PropOp36
 70
     1
102
RTVSPost2010Prop37
 90
       50
102
RTVSPost2010PropOp37
 70
     1
102
RTVSPost2010Prop38
140
0.0
102
RTVSPost2010PropOp38
 70
     1
102
RTVSPost2010Prop39
140
1.0
102
RTVSPost2010PropOp39
 70
     1
102
RTVSPost2010Prop40
 90
        0
102
RTVSPost2010PropOp40
 70
     1
102
RTVSPost2010Prop41ColorIndex
 90
       18
102
RTVSPost2010Prop41ColorRGB
 90
        0
102
RTVSPost2010PropOp41
 70
     1
102
RTVSPost2010Prop42
 90
       50
102
RTVSPost2010PropOp42
 70
     1
102
RTVSPost2010Prop43
 90
        3
102
RTVSPost2010PropOp43
 70
     1
102
RTVSPost2010Prop44ColorIndex
 90
        5
102
RTVSPost2010Prop44ColorRGB
 90
      255
102
RTVSPost2010PropOp44
 70
     1
102
RTVSPost2010Prop45
280
     0
102
RTVSPost2010PropOp45
 70
     1
102
RTVSPost2010Prop46
 90
       50
102
RTVSPost2010PropOp46
 70
     1
102
RTVSPost2010Prop47
 90
       50
102
RTVSPost2010PropOp47
 70
     1
102
RTVSPost2010Prop48
 90
       50
102
RTVSPost2010PropOp48
 70
     1
102
RTVSPost2010Prop49
280
     0
102
RTVSPost2010PropOp49
 70
     1
102
RTVSPost2010Prop50
 90
       50
102
RTVSPost2010PropOp50
 70
     1
102
RTVSPost2010Prop51ColorIndex
 90
      256
102
RTVSPost2010Prop51ColorRGB
 90
-16777216
102
RTVSPost2010PropOp51
 70
     0
102
RTVSPost2010Prop52
140
1.0
102
RTVSPost2010PropOp52
 70
     0
102
RTVSPost2010Prop53
 90
        2
102
RTVSPost2010PropOp53
 70
     1
102
RTVSPost2010Prop54
  1
strokes_ogs.tif
102
RTVSPost2010PropOp54
 70
     1
102
RTVSPost2010Prop55
280
     0
102
RTVSPost2010PropOp55
 70
     1
102
RTVSPost2010Prop56
140
1.0
102
RTVSPost2010PropOp56
 70
     1
102
RTVSPost2010Prop57
140
1.0
102
RTVSPost2010PropOp57
 70
     1
  0
XRECORD
  5
28C
102
{ACAD_REACTORS
330
28B
102
}
330
28B
100
AcDbXrecord
280
     1
102
RTVSPost2010Prop28
280
     0
102
RTVSPost2010PropOp28
 70
     1
102
RTVSPost2010Prop29
280
     1
102
RTVSPost2010PropOp29
 70
     1
102
RTVSPost2010Prop30
280
     1
102
RTVSPost2010PropOp30
 70
     1
102
RTVSPost2010Prop31
280
     0
102
RTVSPost2010PropOp31
 70
     1
102
RTVSPost2010Prop32
280
     0
102
RTVSPost2010PropOp32
 70
     1
102
RTVSPost2010Prop33
280
     0
102
RTVSPost2010PropOp33
 70
     1
102
RTVSPost2010Prop34
280
     0
102
RTVSPost2010PropOp34
 70
     1
102
RTVSPost2010Prop35
280
     0
102
RTVSPost2010PropOp35
 70
     1
102
RTVSPost2010Prop36
280
     0
102
RTVSPost2010PropOp36
 70
     1
102
RTVSPost2010Prop37
 90
       50
102
RTVSPost2010PropOp37
 70
     1
102
RTVSPost2010Prop38
140
0.0
102
RTVSPost2010PropOp38
 70
     1
102
RTVSPost2010Prop39
140
1.0
102
RTVSPost2010PropOp39
 70
     1
102
RTVSPost2010Prop40
 90
        0
102
RTVSPost2010PropOp40
 70
     1
102
RTVSPost2010Prop41ColorIndex
 90
       18
102
RTVSPost2010Prop41ColorRGB
 90
        0
102
RTVSPost2010PropOp41
 70
     1
102
RTVSPost2010Prop42
 90
       50
102
RTVSPost2010PropOp42
 70
     1
102
RTVSPost2010Prop43
 90
        3
102
RTVSPost2010PropOp43
 70
     1
102
RTVSPost2010Prop44ColorIndex
 90
        5
102
RTVSPost2010Prop44ColorRGB
 90
      255
102
RTVSPost2010PropOp44
 70
     1
102
RTVSPost2010Prop45
280
     0
102
RTVSPost2010PropOp45
 70
     1
102
RTVSPost2010Prop46
 90
       50
102
RTVSPost2010PropOp46
 70
     1
102
RTVSPost2010Prop47
 90
       50
102
RTVSPost2010PropOp47
 70
     1
102
RTVSPost2010Prop48
 90
       50
102
RTVSPost2010PropOp48
 70
     1
102
RTVSPost2010Prop49
280
     0
102
RTVSPost2010PropOp49
 70
     1
102
RTVSPost2010Prop50
 90
       50
102
RTVSPost2010PropOp50
 70
     1
102
RTVSPost2010Prop51ColorIndex
 90
      256
102
RTVSPost2010Prop51ColorRGB
 90
-16777216
102
RTVSPost2010PropOp51
 70
     0
102
RTVSPost2010Prop52
140
1.0
102
RTVSPost2010PropOp52
 70
     0
102
RTVSPost2010Prop53
 90
        2
102
RTVSPost2010PropOp53
 70
     1
102
RTVSPost2010Prop54
  1
strokes_ogs.tif
102
RTVSPost2010PropOp54
 70
     1
102
RTVSPost2010Prop55
280
     0
102
RTVSPost2010PropOp55
 70
     1
102
RTVSPost2010Prop56
140
1.0
102
RTVSPost2010PropOp56
 70
     1
102
RTVSPost2010Prop57
140
1.0
102
RTVSPost2010PropOp57
 70
     1
  0
XRECORD
  5
29C
102
{ACAD_REACTORS
330
29B
102
}
330
29B
100
AcDbXrecord
280
     1
102
RTVSPost2010Prop28
280
     0
102
RTVSPost2010PropOp28
 70
     0
102
RTVSPost2010Prop29
280
     1
102
RTVSPost2010PropOp29
 70
     0
102
RTVSPost2010Prop30
280
     1
102
RTVSPost2010PropOp30
 70
     0
102
RTVSPost2010Prop31
280
     0
102
RTVSPost2010PropOp31
 70
     0
102
RTVSPost2010Prop32
280
     0
102
RTVSPost2010PropOp32
 70
     0
102
RTVSPost2010Prop33
280
     0
102
RTVSPost2010PropOp33
 70
     0
102
RTVSPost2010Prop34
280
     0
102
RTVSPost2010PropOp34
 70
     0
102
RTVSPost2010Prop35
280
     0
102
RTVSPost2010PropOp35
 70
     0
102
RTVSPost2010Prop36
280
     0
102
RTVSPost2010PropOp36
 70
     0
102
RTVSPost2010Prop37
 90
       50
102
RTVSPost2010PropOp37
 70
     0
102
RTVSPost2010Prop38
140
0.0
102
RTVSPost2010PropOp38
 70
     0
102
RTVSPost2010Prop39
140
1.0
102
RTVSPost2010PropOp39
 70
     0
102
RTVSPost2010Prop40
 90
        0
102
RTVSPost2010PropOp40
 70
     0
102
RTVSPost2010Prop41ColorIndex
 90
       18
102
RTVSPost2010Prop41ColorRGB
 90
        0
102
RTVSPost2010PropOp41
 70
     0
102
RTVSPost2010Prop42
 90
       50
102
RTVSPost2010PropOp42
 70
     0
102
RTVSPost2010Prop43
 90
        3
102
RTVSPost2010PropOp43
 70
     0
102
RTVSPost2010Prop44ColorIndex
 90
        5
102
RTVSPost2010Prop44ColorRGB
 90
      255
102
RTVSPost2010PropOp44
 70
     0
102
RTVSPost2010Prop45
280
     0
102
RTVSPost2010PropOp45
 70
     0
102
RTVSPost2010Prop46
 90
       50
102
RTVSPost2010PropOp46
 70
     0
102
RTVSPost2010Prop47
 90
       50
102
RTVSPost2010PropOp47
 70
     0
102
RTVSPost2010Prop48
 90
       50
102
RTVSPost2010PropOp48
 70
     0
102
RTVSPost2010Prop49
280
     0
102
RTVSPost2010PropOp49
 70
     0
102
RTVSPost2010Prop50
 90
       50
102
RTVSPost2010PropOp50
 70
     0
102
RTVSPost2010Prop51ColorIndex
 90
      256
102
RTVSPost2010Prop51ColorRGB
 90
-16777216
102
RTVSPost2010PropOp51
 70
     0
102
RTVSPost2010Prop52
140
1.0
102
RTVSPost2010PropOp52
 70
     0
102
RTVSPost2010Prop53
 90
        2
102
RTVSPost2010PropOp53
 70
     0
102
RTVSPost2010Prop54
  1
strokes_ogs.tif
102
RTVSPost2010PropOp54
 70
     0
102
RTVSPost2010Prop55
280
     0
102
RTVSPost2010PropOp55
 70
     0
102
RTVSPost2010Prop56
140
1.0
102
RTVSPost2010PropOp56
 70
     0
102
RTVSPost2010Prop57
140
1.0
102
RTVSPost2010PropOp57
 70
     0
  0
XRECORD
  5
294
102
{ACAD_REACTORS
330
293
102
}
330
293
100
AcDbXrecord
280
     1
102
RTVSPost2010Prop28
280
     0
102
RTVSPost2010PropOp28
 70
     1
102
RTVSPost2010Prop29
280
     1
102
RTVSPost2010PropOp29
 70
     1
102
RTVSPost2010Prop30
280
     1
102
RTVSPost2010PropOp30
 70
     1
102
RTVSPost2010Prop31
280
     0
102
RTVSPost2010PropOp31
 70
     1
102
RTVSPost2010Prop32
280
     0
102
RTVSPost2010PropOp32
 70
     1
102
RTVSPost2010Prop33
280
     0
102
RTVSPost2010PropOp33
 70
     1
102
RTVSPost2010Prop34
280
     0
102
RTVSPost2010PropOp34
 70
     1
102
RTVSPost2010Prop35
280
     0
102
RTVSPost2010PropOp35
 70
     1
102
RTVSPost2010Prop36
280
     0
102
RTVSPost2010PropOp36
 70
     1
102
RTVSPost2010Prop37
 90
       50
102
RTVSPost2010PropOp37
 70
     1
102
RTVSPost2010Prop38
140
0.0
102
RTVSPost2010PropOp38
 70
     1
102
RTVSPost2010Prop39
140
1.0
102
RTVSPost2010PropOp39
 70
     1
102
RTVSPost2010Prop40
 90
        0
102
RTVSPost2010PropOp40
 70
     1
102
RTVSPost2010Prop41ColorIndex
 90
       18
102
RTVSPost2010Prop41ColorRGB
 90
        0
102
RTVSPost2010PropOp41
 70
     1
102
RTVSPost2010Prop42
 90
       50
102
RTVSPost2010PropOp42
 70
     1
102
RTVSPost2010Prop43
 90
        3
102
RTVSPost2010PropOp43
 70
     1
102
RTVSPost2010Prop44ColorIndex
 90
        5
102
RTVSPost2010Prop44ColorRGB
 90
      255
102
RTVSPost2010PropOp44
 70
     1
102
RTVSPost2010Prop45
280
     0
102
RTVSPost2010PropOp45
 70
     1
102
RTVSPost2010Prop46
 90
       50
102
RTVSPost2010PropOp46
 70
     1
102
RTVSPost2010Prop47
 90
       50
102
RTVSPost2010PropOp47
 70
     1
102
RTVSPost2010Prop48
 90
       50
102
RTVSPost2010PropOp48
 70
     1
102
RTVSPost2010Prop49
280
     0
102
RTVSPost2010PropOp49
 70
     1
102
RTVSPost2010Prop50
 90
       50
102
RTVSPost2010PropOp50
 70
     1
102
RTVSPost2010Prop51ColorIndex
 90
      256
102
RTVSPost2010Prop51ColorRGB
 90
-16777216
102
RTVSPost2010PropOp51
 70
     0
102
RTVSPost2010Prop52
140
1.0
102
RTVSPost2010PropOp52
 70
     0
102
RTVSPost2010Prop53
 90
        2
102
RTVSPost2010PropOp53
 70
     1
102
RTVSPost2010Prop54
  1
strokes_ogs.tif
102
RTVSPost2010PropOp54
 70
     1
102
RTVSPost2010Prop55
280
     0
102
RTVSPost2010PropOp55
 70
     1
102
RTVSPost2010Prop56
140
1.0
102
RTVSPost2010PropOp56
 70
     1
102
RTVSPost2010Prop57
140
1.0
102
RTVSPost2010PropOp57
 70
     1
  0
XRECORD
  5
278
102
{ACAD_REACTORS
330
277
102
}
330
277
100
AcDbXrecord
280
     1
102
RTVSPost2010Prop28
280
     0
102
RTVSPost2010PropOp28
 70
     1
102
RTVSPost2010Prop29
280
     1
102
RTVSPost2010PropOp29
 70
     1
102
RTVSPost2010Prop30
280
     1
102
RTVSPost2010PropOp30
 70
     1
102
RTVSPost2010Prop31
280
     0
102
RTVSPost2010PropOp31
 70
     1
102
RTVSPost2010Prop32
280
     0
102
RTVSPost2010PropOp32
 70
     1
102
RTVSPost2010Prop33
280
     0
102
RTVSPost2010PropOp33
 70
     1
102
RTVSPost2010Prop34
280
     0
102
RTVSPost2010PropOp34
 70
     1
102
RTVSPost2010Prop35
280
     0
102
RTVSPost2010PropOp35
 70
     1
102
RTVSPost2010Prop36
280
     0
102
RTVSPost2010PropOp36
 70
     1
102
RTVSPost2010Prop37
 90
       50
102
RTVSPost2010PropOp37
 70
     1
102
RTVSPost2010Prop38
140
0.0
102
RTVSPost2010PropOp38
 70
     1
102
RTVSPost2010Prop39
140
1.0
102
RTVSPost2010PropOp39
 70
     1
102
RTVSPost2010Prop40
 90
        0
102
RTVSPost2010PropOp40
 70
     1
102
RTVSPost2010Prop41ColorIndex
 90
       18
102
RTVSPost2010Prop41ColorRGB
 90
        0
102
RTVSPost2010PropOp41
 70
     1
102
RTVSPost2010Prop42
 90
       50
102
RTVSPost2010PropOp42
 70
     1
102
RTVSPost2010Prop43
 90
        3
102
RTVSPost2010PropOp43
 70
     1
102
RTVSPost2010Prop44ColorIndex
 90
        5
102
RTVSPost2010Prop44ColorRGB
 90
      255
102
RTVSPost2010PropOp44
 70
     1
102
RTVSPost2010Prop45
280
     0
102
RTVSPost2010PropOp45
 70
     1
102
RTVSPost2010Prop46
 90
       50
102
RTVSPost2010PropOp46
 70
     1
102
RTVSPost2010Prop47
 90
       50
102
RTVSPost2010PropOp47
 70
     1
102
RTVSPost2010Prop48
 90
       50
102
RTVSPost2010PropOp48
 70
     1
102
RTVSPost2010Prop49
280
     0
102
RTVSPost2010PropOp49
 70
     1
102
RTVSPost2010Prop50
 90
       50
102
RTVSPost2010PropOp50
 70
     1
102
RTVSPost2010Prop51ColorIndex
 90
      256
102
RTVSPost2010Prop51ColorRGB
 90
-16777216
102
RTVSPost2010PropOp51
 70
     0
102
RTVSPost2010Prop52
140
1.0
102
RTVSPost2010PropOp52
 70
     0
102
RTVSPost2010Prop53
 90
        2
102
RTVSPost2010PropOp53
 70
     1
102
RTVSPost2010Prop54
  1
strokes_ogs.tif
102
RTVSPost2010PropOp54
 70
     1
102
RTVSPost2010Prop55
280
     0
102
RTVSPost2010PropOp55
 70
     1
102
RTVSPost2010Prop56
140
1.0
102
RTVSPost2010PropOp56
 70
     1
102
RTVSPost2010Prop57
140
1.0
102
RTVSPost2010PropOp57
 70
     1
  0
XRECORD
  5
27A
102
{ACAD_REACTORS
330
279
102
}
330
279
100
AcDbXrecord
280
     1
102
RTVSPost2010Prop28
280
     0
102
RTVSPost2010PropOp28
 70
     1
102
RTVSPost2010Prop29
280
     1
102
RTVSPost2010PropOp29
 70
     1
102
RTVSPost2010Prop30
280
     1
102
RTVSPost2010PropOp30
 70
     1
102
RTVSPost2010Prop31
280
     0
102
RTVSPost2010PropOp31
 70
     1
102
RTVSPost2010Prop32
280
     0
102
RTVSPost2010PropOp32
 70
     1
102
RTVSPost2010Prop33
280
     0
102
RTVSPost2010PropOp33
 70
     1
102
RTVSPost2010Prop34
280
     0
102
RTVSPost2010PropOp34
 70
     1
102
RTVSPost2010Prop35
280
     0
102
RTVSPost2010PropOp35
 70
     1
102
RTVSPost2010Prop36
280
     0
102
RTVSPost2010PropOp36
 70
     1
102
RTVSPost2010Prop37
 90
       50
102
RTVSPost2010PropOp37
 70
     1
102
RTVSPost2010Prop38
140
0.0
102
RTVSPost2010PropOp38
 70
     1
102
RTVSPost2010Prop39
140
1.0
102
RTVSPost2010PropOp39
 70
     1
102
RTVSPost2010Prop40
 90
        0
102
RTVSPost2010PropOp40
 70
     1
102
RTVSPost2010Prop41ColorIndex
 90
       18
102
RTVSPost2010Prop41ColorRGB
 90
        0
102
RTVSPost2010PropOp41
 70
     1
102
RTVSPost2010Prop42
 90
       50
102
RTVSPost2010PropOp42
 70
     1
102
RTVSPost2010Prop43
 90
        3
102
RTVSPost2010PropOp43
 70
     1
102
RTVSPost2010Prop44ColorIndex
 90
        5
102
RTVSPost2010Prop44ColorRGB
 90
      255
102
RTVSPost2010PropOp44
 70
     1
102
RTVSPost2010Prop45
280
     0
102
RTVSPost2010PropOp45
 70
     1
102
RTVSPost2010Prop46
 90
       50
102
RTVSPost2010PropOp46
 70
     1
102
RTVSPost2010Prop47
 90
       50
102
RTVSPost2010PropOp47
 70
     1
102
RTVSPost2010Prop48
 90
       50
102
RTVSPost2010PropOp48
 70
     1
102
RTVSPost2010Prop49
280
     0
102
RTVSPost2010PropOp49
 70
     1
102
RTVSPost2010Prop50
 90
       50
102
RTVSPost2010PropOp50
 70
     1
102
RTVSPost2010Prop51ColorIndex
 90
      256
102
RTVSPost2010Prop51ColorRGB
 90
-16777216
102
RTVSPost2010PropOp51
 70
     0
102
RTVSPost2010Prop52
140
1.0
102
RTVSPost2010PropOp52
 70
     0
102
RTVSPost2010Prop53
 90
        2
102
RTVSPost2010PropOp53
 70
     1
102
RTVSPost2010Prop54
  1
strokes_ogs.tif
102
RTVSPost2010PropOp54
 70
     1
102
RTVSPost2010Prop55
280
     0
102
RTVSPost2010PropOp55
 70
     1
102
RTVSPost2010Prop56
140
1.0
102
RTVSPost2010PropOp56
 70
     1
102
RTVSPost2010Prop57
140
1.0
102
RTVSPost2010PropOp57
 70
     1
  0
XRECORD
  5
27C
102
{ACAD_REACTORS
330
27B
102
}
330
27B
100
AcDbXrecord
280
     1
102
RTVSPost2010Prop28
280
     0
102
RTVSPost2010PropOp28
 70
     1
102
RTVSPost2010Prop29
280
     1
102
RTVSPost2010PropOp29
 70
     1
102
RTVSPost2010Prop30
280
     1
102
RTVSPost2010PropOp30
 70
     1
102
RTVSPost2010Prop31
280
     0
102
RTVSPost2010PropOp31
 70
     1
102
RTVSPost2010Prop32
280
     0
102
RTVSPost2010PropOp32
 70
     1
102
RTVSPost2010Prop33
280
     0
102
RTVSPost2010PropOp33
 70
     1
102
RTVSPost2010Prop34
280
     0
102
RTVSPost2010PropOp34
 70
     1
102
RTVSPost2010Prop35
280
     0
102
RTVSPost2010PropOp35
 70
     1
102
RTVSPost2010Prop36
280
     0
102
RTVSPost2010PropOp36
 70
     1
102
RTVSPost2010Prop37
 90
       50
102
RTVSPost2010PropOp37
 70
     1
102
RTVSPost2010Prop38
140
0.0
102
RTVSPost2010PropOp38
 70
     1
102
RTVSPost2010Prop39
140
1.0
102
RTVSPost2010PropOp39
 70
     1
102
RTVSPost2010Prop40
 90
        0
102
RTVSPost2010PropOp40
 70
     1
102
RTVSPost2010Prop41ColorIndex
 90
       18
102
RTVSPost2010Prop41ColorRGB
 90
        0
102
RTVSPost2010PropOp41
 70
     1
102
RTVSPost2010Prop42
 90
       50
102
RTVSPost2010PropOp42
 70
     1
102
RTVSPost2010Prop43
 90
        3
102
RTVSPost2010PropOp43
 70
     1
102
RTVSPost2010Prop44ColorIndex
 90
        5
102
RTVSPost2010Prop44ColorRGB
 90
      255
102
RTVSPost2010PropOp44
 70
     1
102
RTVSPost2010Prop45
280
     0
102
RTVSPost2010PropOp45
 70
     1
102
RTVSPost2010Prop46
 90
       50
102
RTVSPost2010PropOp46
 70
     1
102
RTVSPost2010Prop47
 90
       50
102
RTVSPost2010PropOp47
 70
     1
102
RTVSPost2010Prop48
 90
       50
102
RTVSPost2010PropOp48
 70
     1
102
RTVSPost2010Prop49
280
     0
102
RTVSPost2010PropOp49
 70
     1
102
RTVSPost2010Prop50
 90
       50
102
RTVSPost2010PropOp50
 70
     1
102
RTVSPost2010Prop51ColorIndex
 90
      256
102
RTVSPost2010Prop51ColorRGB
 90
-16777216
102
RTVSPost2010PropOp51
 70
     0
102
RTVSPost2010Prop52
140
1.0
102
RTVSPost2010PropOp52
 70
     0
102
RTVSPost2010Prop53
 90
        2
102
RTVSPost2010PropOp53
 70
     1
102
RTVSPost2010Prop54
  1
strokes_ogs.tif
102
RTVSPost2010PropOp54
 70
     1
102
RTVSPost2010Prop55
280
     0
102
RTVSPost2010PropOp55
 70
     1
102
RTVSPost2010Prop56
140
1.0
102
RTVSPost2010PropOp56
 70
     1
102
RTVSPost2010Prop57
140
1.0
102
RTVSPost2010PropOp57
 70
     1
  0
XRECORD
  5
27E
102
{ACAD_REACTORS
330
27D
102
}
330
27D
100
AcDbXrecord
280
     1
102
RTVSPost2010Prop28
280
     0
102
RTVSPost2010PropOp28
 70
     1
102
RTVSPost2010Prop29
280
     1
102
RTVSPost2010PropOp29
 70
     1
102
RTVSPost2010Prop30
280
     1
102
RTVSPost2010PropOp30
 70
     1
102
RTVSPost2010Prop31
280
     0
102
RTVSPost2010PropOp31
 70
     1
102
RTVSPost2010Prop32
280
     0
102
RTVSPost2010PropOp32
 70
     1
102
RTVSPost2010Prop33
280
     0
102
RTVSPost2010PropOp33
 70
     1
102
RTVSPost2010Prop34
280
     0
102
RTVSPost2010PropOp34
 70
     1
102
RTVSPost2010Prop35
280
     0
102
RTVSPost2010PropOp35
 70
     1
102
RTVSPost2010Prop36
280
     0
102
RTVSPost2010PropOp36
 70
     1
102
RTVSPost2010Prop37
 90
       50
102
RTVSPost2010PropOp37
 70
     1
102
RTVSPost2010Prop38
140
0.0
102
RTVSPost2010PropOp38
 70
     1
102
RTVSPost2010Prop39
140
1.0
102
RTVSPost2010PropOp39
 70
     1
102
RTVSPost2010Prop40
 90
        0
102
RTVSPost2010PropOp40
 70
     1
102
RTVSPost2010Prop41ColorIndex
 90
       18
102
RTVSPost2010Prop41ColorRGB
 90
        0
102
RTVSPost2010PropOp41
 70
     1
102
RTVSPost2010Prop42
 90
       50
102
RTVSPost2010PropOp42
 70
     1
102
RTVSPost2010Prop43
 90
        3
102
RTVSPost2010PropOp43
 70
     1
102
RTVSPost2010Prop44ColorIndex
 90
        5
102
RTVSPost2010Prop44ColorRGB
 90
      255
102
RTVSPost2010PropOp44
 70
     1
102
RTVSPost2010Prop45
280
     0
102
RTVSPost2010PropOp45
 70
     1
102
RTVSPost2010Prop46
 90
       50
102
RTVSPost2010PropOp46
 70
     1
102
RTVSPost2010Prop47
 90
       50
102
RTVSPost2010PropOp47
 70
     1
102
RTVSPost2010Prop48
 90
       50
102
RTVSPost2010PropOp48
 70
     1
102
RTVSPost2010Prop49
280
     0
102
RTVSPost2010PropOp49
 70
     1
102
RTVSPost2010Prop50
 90
       50
102
RTVSPost2010PropOp50
 70
     1
102
RTVSPost2010Prop51ColorIndex
 90
      256
102
RTVSPost2010Prop51ColorRGB
 90
-16777216
102
RTVSPost2010PropOp51
 70
     0
102
RTVSPost2010Prop52
140
1.0
102
RTVSPost2010PropOp52
 70
     0
102
RTVSPost2010Prop53
 90
        2
102
RTVSPost2010PropOp53
 70
     1
102
RTVSPost2010Prop54
  1
strokes_ogs.tif
102
RTVSPost2010PropOp54
 70
     1
102
RTVSPost2010Prop55
280
     0
102
RTVSPost2010PropOp55
 70
     1
102
RTVSPost2010Prop56
140
1.0
102
RTVSPost2010PropOp56
 70
     1
102
RTVSPost2010Prop57
140
1.0
102
RTVSPost2010PropOp57
 70
     1
  0
XRECORD
  5
284
102
{ACAD_REACTORS
330
283
102
}
330
283
100
AcDbXrecord
280
     1
102
RTVSPost2010Prop28
280
     0
102
RTVSPost2010PropOp28
 70
     1
102
RTVSPost2010Prop29
280
     1
102
RTVSPost2010PropOp29
 70
     1
102
RTVSPost2010Prop30
280
     1
102
RTVSPost2010PropOp30
 70
     1
102
RTVSPost2010Prop31
280
     0
102
RTVSPost2010PropOp31
 70
     1
102
RTVSPost2010Prop32
280
     0
102
RTVSPost2010PropOp32
 70
     1
102
RTVSPost2010Prop33
280
     0
102
RTVSPost2010PropOp33
 70
     1
102
RTVSPost2010Prop34
280
     0
102
RTVSPost2010PropOp34
 70
     1
102
RTVSPost2010Prop35
280
     0
102
RTVSPost2010PropOp35
 70
     1
102
RTVSPost2010Prop36
280
     0
102
RTVSPost2010PropOp36
 70
     1
102
RTVSPost2010Prop37
 90
       50
102
RTVSPost2010PropOp37
 70
     1
102
RTVSPost2010Prop38
140
0.0
102
RTVSPost2010PropOp38
 70
     1
102
RTVSPost2010Prop39
140
1.0
102
RTVSPost2010PropOp39
 70
     1
102
RTVSPost2010Prop40
 90
        0
102
RTVSPost2010PropOp40
 70
     1
102
RTVSPost2010Prop41ColorIndex
 90
       18
102
RTVSPost2010Prop41ColorRGB
 90
        0
102
RTVSPost2010PropOp41
 70
     1
102
RTVSPost2010Prop42
 90
       50
102
RTVSPost2010PropOp42
 70
     1
102
RTVSPost2010Prop43
 90
        3
102
RTVSPost2010PropOp43
 70
     1
102
RTVSPost2010Prop44ColorIndex
 90
        5
102
RTVSPost2010Prop44ColorRGB
 90
      255
102
RTVSPost2010PropOp44
 70
     1
102
RTVSPost2010Prop45
280
     0
102
RTVSPost2010PropOp45
 70
     1
102
RTVSPost2010Prop46
 90
       50
102
RTVSPost2010PropOp46
 70
     1
102
RTVSPost2010Prop47
 90
       50
102
RTVSPost2010PropOp47
 70
     1
102
RTVSPost2010Prop48
 90
       50
102
RTVSPost2010PropOp48
 70
     1
102
RTVSPost2010Prop49
280
     0
102
RTVSPost2010PropOp49
 70
     1
102
RTVSPost2010Prop50
 90
       50
102
RTVSPost2010PropOp50
 70
     1
102
RTVSPost2010Prop51ColorIndex
 90
      256
102
RTVSPost2010Prop51ColorRGB
 90
-16777216
102
RTVSPost2010PropOp51
 70
     0
102
RTVSPost2010Prop52
140
1.0
102
RTVSPost2010PropOp52
 70
     0
102
RTVSPost2010Prop53
 90
        2
102
RTVSPost2010PropOp53
 70
     1
102
RTVSPost2010Prop54
  1
strokes_ogs.tif
102
RTVSPost2010PropOp54
 70
     1
102
RTVSPost2010Prop55
280
     0
102
RTVSPost2010PropOp55
 70
     1
102
RTVSPost2010Prop56
140
1.0
102
RTVSPost2010PropOp56
 70
     1
102
RTVSPost2010Prop57
140
1.0
102
RTVSPost2010PropOp57
 70
     1
  0
XRECORD
  5
298
102
{ACAD_REACTORS
330
297
102
}
330
297
100
AcDbXrecord
280
     1
102
RTVSPost2010Prop28
280
     0
102
RTVSPost2010PropOp28
 70
     0
102
RTVSPost2010Prop29
280
     1
102
RTVSPost2010PropOp29
 70
     0
102
RTVSPost2010Prop30
280
     1
102
RTVSPost2010PropOp30
 70
     0
102
RTVSPost2010Prop31
280
     0
102
RTVSPost2010PropOp31
 70
     0
102
RTVSPost2010Prop32
280
     0
102
RTVSPost2010PropOp32
 70
     0
102
RTVSPost2010Prop33
280
     0
102
RTVSPost2010PropOp33
 70
     0
102
RTVSPost2010Prop34
280
     0
102
RTVSPost2010PropOp34
 70
     0
102
RTVSPost2010Prop35
280
     0
102
RTVSPost2010PropOp35
 70
     0
102
RTVSPost2010Prop36
280
     0
102
RTVSPost2010PropOp36
 70
     0
102
RTVSPost2010Prop37
 90
       50
102
RTVSPost2010PropOp37
 70
     0
102
RTVSPost2010Prop38
140
0.0
102
RTVSPost2010PropOp38
 70
     0
102
RTVSPost2010Prop39
140
1.0
102
RTVSPost2010PropOp39
 70
     0
102
RTVSPost2010Prop40
 90
        0
102
RTVSPost2010PropOp40
 70
     0
102
RTVSPost2010Prop41ColorIndex
 90
       18
102
RTVSPost2010Prop41ColorRGB
 90
        0
102
RTVSPost2010PropOp41
 70
     0
102
RTVSPost2010Prop42
 90
       50
102
RTVSPost2010PropOp42
 70
     0
102
RTVSPost2010Prop43
 90
        3
102
RTVSPost2010PropOp43
 70
     0
102
RTVSPost2010Prop44ColorIndex
 90
        5
102
RTVSPost2010Prop44ColorRGB
 90
      255
102
RTVSPost2010PropOp44
 70
     0
102
RTVSPost2010Prop45
280
     0
102
RTVSPost2010PropOp45
 70
     0
102
RTVSPost2010Prop46
 90
       50
102
RTVSPost2010PropOp46
 70
     0
102
RTVSPost2010Prop47
 90
       50
102
RTVSPost2010PropOp47
 70
     0
102
RTVSPost2010Prop48
 90
       50
102
RTVSPost2010PropOp48
 70
     0
102
RTVSPost2010Prop49
280
     0
102
RTVSPost2010PropOp49
 70
     0
102
RTVSPost2010Prop50
 90
       50
102
RTVSPost2010PropOp50
 70
     0
102
RTVSPost2010Prop51ColorIndex
 90
      256
102
RTVSPost2010Prop51ColorRGB
 90
-16777216
102
RTVSPost2010PropOp51
 70
     0
102
RTVSPost2010Prop52
140
1.0
102
RTVSPost2010PropOp52
 70
     0
102
RTVSPost2010Prop53
 90
        2
102
RTVSPost2010PropOp53
 70
     0
102
RTVSPost2010Prop54
  1
strokes_ogs.tif
102
RTVSPost2010PropOp54
 70
     0
102
RTVSPost2010Prop55
280
     0
102
RTVSPost2010PropOp55
 70
     0
102
RTVSPost2010Prop56
140
1.0
102
RTVSPost2010PropOp56
 70
     0
102
RTVSPost2010Prop57
140
1.0
102
RTVSPost2010PropOp57
 70
     0
  0
XRECORD
  5
292
102
{ACAD_REACTORS
330
291
102
}
330
291
100
AcDbXrecord
280
     1
102
RTVSPost2010Prop28
280
     0
102
RTVSPost2010PropOp28
 70
     1
102
RTVSPost2010Prop29
280
     1
102
RTVSPost2010PropOp29
 70
     1
102
RTVSPost2010Prop30
280
     1
102
RTVSPost2010PropOp30
 70
     1
102
RTVSPost2010Prop31
280
     0
102
RTVSPost2010PropOp31
 70
     1
102
RTVSPost2010Prop32
280
     0
102
RTVSPost2010PropOp32
 70
     1
102
RTVSPost2010Prop33
280
     0
102
RTVSPost2010PropOp33
 70
     1
102
RTVSPost2010Prop34
280
     0
102
RTVSPost2010PropOp34
 70
     1
102
RTVSPost2010Prop35
280
     0
102
RTVSPost2010PropOp35
 70
     1
102
RTVSPost2010Prop36
280
     0
102
RTVSPost2010PropOp36
 70
     1
102
RTVSPost2010Prop37
 90
       50
102
RTVSPost2010PropOp37
 70
     1
102
RTVSPost2010Prop38
140
0.0
102
RTVSPost2010PropOp38
 70
     1
102
RTVSPost2010Prop39
140
1.0
102
RTVSPost2010PropOp39
 70
     1
102
RTVSPost2010Prop40
 90
        0
102
RTVSPost2010PropOp40
 70
     1
102
RTVSPost2010Prop41ColorIndex
 90
       18
102
RTVSPost2010Prop41ColorRGB
 90
        0
102
RTVSPost2010PropOp41
 70
     1
102
RTVSPost2010Prop42
 90
       50
102
RTVSPost2010PropOp42
 70
     1
102
RTVSPost2010Prop43
 90
        3
102
RTVSPost2010PropOp43
 70
     1
102
RTVSPost2010Prop44ColorIndex
 90
        5
102
RTVSPost2010Prop44ColorRGB
 90
      255
102
RTVSPost2010PropOp44
 70
     1
102
RTVSPost2010Prop45
280
     0
102
RTVSPost2010PropOp45
 70
     1
102
RTVSPost2010Prop46
 90
       50
102
RTVSPost2010PropOp46
 70
     1
102
RTVSPost2010Prop47
 90
       50
102
RTVSPost2010PropOp47
 70
     1
102
RTVSPost2010Prop48
 90
       50
102
RTVSPost2010PropOp48
 70
     1
102
RTVSPost2010Prop49
280
     0
102
RTVSPost2010PropOp49
 70
     1
102
RTVSPost2010Prop50
 90
       50
102
RTVSPost2010PropOp50
 70
     1
102
RTVSPost2010Prop51ColorIndex
 90
      256
102
RTVSPost2010Prop51ColorRGB
 90
-16777216
102
RTVSPost2010PropOp51
 70
     0
102
RTVSPost2010Prop52
140
1.0
102
RTVSPost2010PropOp52
 70
     0
102
RTVSPost2010Prop53
 90
        2
102
RTVSPost2010PropOp53
 70
     1
102
RTVSPost2010Prop54
  1
strokes_ogs.tif
102
RTVSPost2010PropOp54
 70
     1
102
RTVSPost2010Prop55
280
     0
102
RTVSPost2010PropOp55
 70
     1
102
RTVSPost2010Prop56
140
1.0
102
RTVSPost2010PropOp56
 70
     1
102
RTVSPost2010Prop57
140
1.0
102
RTVSPost2010PropOp57
 70
     1
  0
XRECORD
  5
29A
102
{ACAD_REACTORS
330
299
102
}
330
299
100
AcDbXrecord
280
     1
102
RTVSPost2010Prop28
280
     0
102
RTVSPost2010PropOp28
 70
     0
102
RTVSPost2010Prop29
280
     1
102
RTVSPost2010PropOp29
 70
     0
102
RTVSPost2010Prop30
280
     1
102
RTVSPost2010PropOp30
 70
     0
102
RTVSPost2010Prop31
280
     0
102
RTVSPost2010PropOp31
 70
     0
102
RTVSPost2010Prop32
280
     0
102
RTVSPost2010PropOp32
 70
     0
102
RTVSPost2010Prop33
280
     0
102
RTVSPost2010PropOp33
 70
     0
102
RTVSPost2010Prop34
280
     0
102
RTVSPost2010PropOp34
 70
     0
102
RTVSPost2010Prop35
280
     0
102
RTVSPost2010PropOp35
 70
     0
102
RTVSPost2010Prop36
280
     0
102
RTVSPost2010PropOp36
 70
     0
102
RTVSPost2010Prop37
 90
       50
102
RTVSPost2010PropOp37
 70
     0
102
RTVSPost2010Prop38
140
0.0
102
RTVSPost2010PropOp38
 70
     0
102
RTVSPost2010Prop39
140
1.0
102
RTVSPost2010PropOp39
 70
     0
102
RTVSPost2010Prop40
 90
        0
102
RTVSPost2010PropOp40
 70
     0
102
RTVSPost2010Prop41ColorIndex
 90
       18
102
RTVSPost2010Prop41ColorRGB
 90
        0
102
RTVSPost2010PropOp41
 70
     0
102
RTVSPost2010Prop42
 90
       50
102
RTVSPost2010PropOp42
 70
     0
102
RTVSPost2010Prop43
 90
        3
102
RTVSPost2010PropOp43
 70
     0
102
RTVSPost2010Prop44ColorIndex
 90
        5
102
RTVSPost2010Prop44ColorRGB
 90
      255
102
RTVSPost2010PropOp44
 70
     0
102
RTVSPost2010Prop45
280
     0
102
RTVSPost2010PropOp45
 70
     0
102
RTVSPost2010Prop46
 90
       50
102
RTVSPost2010PropOp46
 70
     0
102
RTVSPost2010Prop47
 90
       50
102
RTVSPost2010PropOp47
 70
     0
102
RTVSPost2010Prop48
 90
       50
102
RTVSPost2010PropOp48
 70
     0
102
RTVSPost2010Prop49
280
     0
102
RTVSPost2010PropOp49
 70
     0
102
RTVSPost2010Prop50
 90
       50
102
RTVSPost2010PropOp50
 70
     0
102
RTVSPost2010Prop51ColorIndex
 90
      256
102
RTVSPost2010Prop51ColorRGB
 90
-16777216
102
RTVSPost2010PropOp51
 70
     0
102
RTVSPost2010Prop52
140
1.0
102
RTVSPost2010PropOp52
 70
     0
102
RTVSPost2010Prop53
 90
        2
102
RTVSPost2010PropOp53
 70
     0
102
RTVSPost2010Prop54
  1
strokes_ogs.tif
102
RTVSPost2010PropOp54
 70
     0
102
RTVSPost2010Prop55
280
     0
102
RTVSPost2010PropOp55
 70
     0
102
RTVSPost2010Prop56
140
1.0
102
RTVSPost2010PropOp56
 70
     0
102
RTVSPost2010Prop57
140
1.0
102
RTVSPost2010PropOp57
 70
     0
  0
XRECORD
  5
288
102
{ACAD_REACTORS
330
287
102
}
330
287
100
AcDbXrecord
280
     1
102
RTVSPost2010Prop28
280
     0
102
RTVSPost2010PropOp28
 70
     1
102
RTVSPost2010Prop29
280
     1
102
RTVSPost2010PropOp29
 70
     1
102
RTVSPost2010Prop30
280
     1
102
RTVSPost2010PropOp30
 70
     1
102
RTVSPost2010Prop31
280
     0
102
RTVSPost2010PropOp31
 70
     1
102
RTVSPost2010Prop32
280
     0
102
RTVSPost2010PropOp32
 70
     1
102
RTVSPost2010Prop33
280
     0
102
RTVSPost2010PropOp33
 70
     1
102
RTVSPost2010Prop34
280
     0
102
RTVSPost2010PropOp34
 70
     1
102
RTVSPost2010Prop35
280
     0
102
RTVSPost2010PropOp35
 70
     1
102
RTVSPost2010Prop36
280
     0
102
RTVSPost2010PropOp36
 70
     1
102
RTVSPost2010Prop37
 90
       50
102
RTVSPost2010PropOp37
 70
     1
102
RTVSPost2010Prop38
140
0.0
102
RTVSPost2010PropOp38
 70
     1
102
RTVSPost2010Prop39
140
1.0
102
RTVSPost2010PropOp39
 70
     1
102
RTVSPost2010Prop40
 90
        0
102
RTVSPost2010PropOp40
 70
     1
102
RTVSPost2010Prop41ColorIndex
 90
       18
102
RTVSPost2010Prop41ColorRGB
 90
        0
102
RTVSPost2010PropOp41
 70
     1
102
RTVSPost2010Prop42
 90
       50
102
RTVSPost2010PropOp42
 70
     1
102
RTVSPost2010Prop43
 90
        3
102
RTVSPost2010PropOp43
 70
     1
102
RTVSPost2010Prop44ColorIndex
 90
        5
102
RTVSPost2010Prop44ColorRGB
 90
      255
102
RTVSPost2010PropOp44
 70
     1
102
RTVSPost2010Prop45
280
     0
102
RTVSPost2010PropOp45
 70
     1
102
RTVSPost2010Prop46
 90
       50
102
RTVSPost2010PropOp46
 70
     1
102
RTVSPost2010Prop47
 90
       50
102
RTVSPost2010PropOp47
 70
     1
102
RTVSPost2010Prop48
 90
       50
102
RTVSPost2010PropOp48
 70
     1
102
RTVSPost2010Prop49
280
     0
102
RTVSPost2010PropOp49
 70
     1
102
RTVSPost2010Prop50
 90
       50
102
RTVSPost2010PropOp50
 70
     1
102
RTVSPost2010Prop51ColorIndex
 90
      256
102
RTVSPost2010Prop51ColorRGB
 90
-16777216
102
RTVSPost2010PropOp51
 70
     0
102
RTVSPost2010Prop52
140
1.0
102
RTVSPost2010PropOp52
 70
     0
102
RTVSPost2010Prop53
 90
        2
102
RTVSPost2010PropOp53
 70
     1
102
RTVSPost2010Prop54
  1
strokes_ogs.tif
102
RTVSPost2010PropOp54
 70
     1
102
RTVSPost2010Prop55
280
     0
102
RTVSPost2010PropOp55
 70
     1
102
RTVSPost2010Prop56
140
1.0
102
RTVSPost2010PropOp56
 70
     1
102
RTVSPost2010Prop57
140
1.0
102
RTVSPost2010PropOp57
 70
     1
  0
XRECORD
  5
2A6
102
{ACAD_REACTORS
330
2A5
102
}
330
2A5
100
AcDbXrecord
280
     1
102
RTVSPost2010Prop28
280
     0
102
RTVSPost2010PropOp28
 70
     1
102
RTVSPost2010Prop29
280
     1
102
RTVSPost2010PropOp29
 70
     1
102
RTVSPost2010Prop30
280
     1
102
RTVSPost2010PropOp30
 70
     1
102
RTVSPost2010Prop31
280
     0
102
RTVSPost2010PropOp31
 70
     1
102
RTVSPost2010Prop32
280
     0
102
RTVSPost2010PropOp32
 70
     1
102
RTVSPost2010Prop33
280
     0
102
RTVSPost2010PropOp33
 70
     1
102
RTVSPost2010Prop34
280
     0
102
RTVSPost2010PropOp34
 70
     1
102
RTVSPost2010Prop35
280
     0
102
RTVSPost2010PropOp35
 70
     1
102
RTVSPost2010Prop36
280
     0
102
RTVSPost2010PropOp36
 70
     1
102
RTVSPost2010Prop37
 90
       50
102
RTVSPost2010PropOp37
 70
     1
102
RTVSPost2010Prop38
140
0.0
102
RTVSPost2010PropOp38
 70
     1
102
RTVSPost2010Prop39
140
1.0
102
RTVSPost2010PropOp39
 70
     1
102
RTVSPost2010Prop40
 90
        0
102
RTVSPost2010PropOp40
 70
     1
102
RTVSPost2010Prop41ColorIndex
 90
       18
102
RTVSPost2010Prop41ColorRGB
 90
        0
102
RTVSPost2010PropOp41
 70
     1
102
RTVSPost2010Prop42
 90
       50
102
RTVSPost2010PropOp42
 70
     1
102
RTVSPost2010Prop43
 90
        3
102
RTVSPost2010PropOp43
 70
     1
102
RTVSPost2010Prop44ColorIndex
 90
        5
102
RTVSPost2010Prop44ColorRGB
 90
      255
102
RTVSPost2010PropOp44
 70
     1
102
RTVSPost2010Prop45
280
     0
102
RTVSPost2010PropOp45
 70
     1
102
RTVSPost2010Prop46
 90
       50
102
RTVSPost2010PropOp46
 70
     1
102
RTVSPost2010Prop47
 90
       50
102
RTVSPost2010PropOp47
 70
     1
102
RTVSPost2010Prop48
 90
       50
102
RTVSPost2010PropOp48
 70
     1
102
RTVSPost2010Prop49
280
     0
102
RTVSPost2010PropOp49
 70
     1
102
RTVSPost2010Prop50
 90
       50
102
RTVSPost2010PropOp50
 70
     1
102
RTVSPost2010Prop51ColorIndex
 90
      256
102
RTVSPost2010Prop51ColorRGB
 90
-16777216
102
RTVSPost2010PropOp51
 70
     0
102
RTVSPost2010Prop52
140
1.0
102
RTVSPost2010PropOp52
 70
     0
102
RTVSPost2010Prop53
 90
        2
102
RTVSPost2010PropOp53
 70
     1
102
RTVSPost2010Prop54
  1
strokes_ogs.tif
102
RTVSPost2010PropOp54
 70
     1
102
RTVSPost2010Prop55
280
     0
102
RTVSPost2010PropOp55
 70
     1
102
RTVSPost2010Prop56
140
1.0
102
RTVSPost2010PropOp56
 70
     1
102
RTVSPost2010Prop57
140
1.0
102
RTVSPost2010PropOp57
 70
     1
  0
XRECORD
  5
2A4
102
{ACAD_REACTORS
330
2A3
102
}
330
2A3
100
AcDbXrecord
280
     1
102
RTVSPost2010Prop28
280
     0
102
RTVSPost2010PropOp28
 70
     1
102
RTVSPost2010Prop29
280
     1
102
RTVSPost2010PropOp29
 70
     1
102
RTVSPost2010Prop30
280
     1
102
RTVSPost2010PropOp30
 70
     1
102
RTVSPost2010Prop31
280
     0
102
RTVSPost2010PropOp31
 70
     1
102
RTVSPost2010Prop32
280
     0
102
RTVSPost2010PropOp32
 70
     1
102
RTVSPost2010Prop33
280
     0
102
RTVSPost2010PropOp33
 70
     1
102
RTVSPost2010Prop34
280
     0
102
RTVSPost2010PropOp34
 70
     1
102
RTVSPost2010Prop35
280
     0
102
RTVSPost2010PropOp35
 70
     1
102
RTVSPost2010Prop36
280
     0
102
RTVSPost2010PropOp36
 70
     1
102
RTVSPost2010Prop37
 90
       50
102
RTVSPost2010PropOp37
 70
     1
102
RTVSPost2010Prop38
140
0.0
102
RTVSPost2010PropOp38
 70
     1
102
RTVSPost2010Prop39
140
1.0
102
RTVSPost2010PropOp39
 70
     1
102
RTVSPost2010Prop40
 90
        0
102
RTVSPost2010PropOp40
 70
     1
102
RTVSPost2010Prop41ColorIndex
 90
       18
102
RTVSPost2010Prop41ColorRGB
 90
        0
102
RTVSPost2010PropOp41
 70
     1
102
RTVSPost2010Prop42
 90
       50
102
RTVSPost2010PropOp42
 70
     1
102
RTVSPost2010Prop43
 90
        3
102
RTVSPost2010PropOp43
 70
     1
102
RTVSPost2010Prop44ColorIndex
 90
        5
102
RTVSPost2010Prop44ColorRGB
 90
      255
102
RTVSPost2010PropOp44
 70
     1
102
RTVSPost2010Prop45
280
     0
102
RTVSPost2010PropOp45
 70
     1
102
RTVSPost2010Prop46
 90
       50
102
RTVSPost2010PropOp46
 70
     1
102
RTVSPost2010Prop47
 90
       50
102
RTVSPost2010PropOp47
 70
     1
102
RTVSPost2010Prop48
 90
       50
102
RTVSPost2010PropOp48
 70
     1
102
RTVSPost2010Prop49
280
     0
102
RTVSPost2010PropOp49
 70
     1
102
RTVSPost2010Prop50
 90
       50
102
RTVSPost2010PropOp50
 70
     1
102
RTVSPost2010Prop51ColorIndex
 90
      256
102
RTVSPost2010Prop51ColorRGB
 90
-16777216
102
RTVSPost2010PropOp51
 70
     0
102
RTVSPost2010Prop52
140
1.0
102
RTVSPost2010PropOp52
 70
     0
102
RTVSPost2010Prop53
 90
        2
102
RTVSPost2010PropOp53
 70
     1
102
RTVSPost2010Prop54
  1
strokes_ogs.tif
102
RTVSPost2010PropOp54
 70
     1
102
RTVSPost2010Prop55
280
     0
102
RTVSPost2010PropOp55
 70
     1
102
RTVSPost2010Prop56
140
1.0
102
RTVSPost2010PropOp56
 70
     1
102
RTVSPost2010Prop57
140
1.0
102
RTVSPost2010PropOp57
 70
     1
  0
XRECORD
  5
29E
102
{ACAD_REACTORS
330
29D
102
}
330
29D
100
AcDbXrecord
280
     1
102
RTVSPost2010Prop28
280
     0
102
RTVSPost2010PropOp28
 70
     1
102
RTVSPost2010Prop29
280
     1
102
RTVSPost2010PropOp29
 70
     1
102
RTVSPost2010Prop30
280
     1
102
RTVSPost2010PropOp30
 70
     1
102
RTVSPost2010Prop31
280
     0
102
RTVSPost2010PropOp31
 70
     1
102
RTVSPost2010Prop32
280
     0
102
RTVSPost2010PropOp32
 70
     1
102
RTVSPost2010Prop33
280
     0
102
RTVSPost2010PropOp33
 70
     1
102
RTVSPost2010Prop34
280
     0
102
RTVSPost2010PropOp34
 70
     1
102
RTVSPost2010Prop35
280
     0
102
RTVSPost2010PropOp35
 70
     1
102
RTVSPost2010Prop36
280
     0
102
RTVSPost2010PropOp36
 70
     1
102
RTVSPost2010Prop37
 90
       50
102
RTVSPost2010PropOp37
 70
     1
102
RTVSPost2010Prop38
140
0.0
102
RTVSPost2010PropOp38
 70
     1
102
RTVSPost2010Prop39
140
1.0
102
RTVSPost2010PropOp39
 70
     1
102
RTVSPost2010Prop40
 90
        0
102
RTVSPost2010PropOp40
 70
     1
102
RTVSPost2010Prop41ColorIndex
 90
       18
102
RTVSPost2010Prop41ColorRGB
 90
        0
102
RTVSPost2010PropOp41
 70
     1
102
RTVSPost2010Prop42
 90
       50
102
RTVSPost2010PropOp42
 70
     1
102
RTVSPost2010Prop43
 90
        3
102
RTVSPost2010PropOp43
 70
     1
102
RTVSPost2010Prop44ColorIndex
 90
        5
102
RTVSPost2010Prop44ColorRGB
 90
      255
102
RTVSPost2010PropOp44
 70
     1
102
RTVSPost2010Prop45
280
     0
102
RTVSPost2010PropOp45
 70
     1
102
RTVSPost2010Prop46
 90
       50
102
RTVSPost2010PropOp46
 70
     1
102
RTVSPost2010Prop47
 90
       50
102
RTVSPost2010PropOp47
 70
     1
102
RTVSPost2010Prop48
 90
       50
102
RTVSPost2010PropOp48
 70
     1
102
RTVSPost2010Prop49
280
     0
102
RTVSPost2010PropOp49
 70
     1
102
RTVSPost2010Prop50
 90
       50
102
RTVSPost2010PropOp50
 70
     1
102
RTVSPost2010Prop51ColorIndex
 90
      256
102
RTVSPost2010Prop51ColorRGB
 90
-16777216
102
RTVSPost2010PropOp51
 70
     0
102
RTVSPost2010Prop52
140
1.0
102
RTVSPost2010PropOp52
 70
     0
102
RTVSPost2010Prop53
 90
        2
102
RTVSPost2010PropOp53
 70
     1
102
RTVSPost2010Prop54
  1
strokes_ogs.tif
102
RTVSPost2010PropOp54
 70
     1
102
RTVSPost2010Prop55
280
     0
102
RTVSPost2010PropOp55
 70
     1
102
RTVSPost2010Prop56
140
1.0
102
RTVSPost2010PropOp56
 70
     1
102
RTVSPost2010Prop57
140
1.0
102
RTVSPost2010PropOp57
 70
     1
  0
XRECORD
  5
2A0
102
{ACAD_REACTORS
330
29F
102
}
330
29F
100
AcDbXrecord
280
     1
102
RTVSPost2010Prop28
280
     0
102
RTVSPost2010PropOp28
 70
     1
102
RTVSPost2010Prop29
280
     1
102
RTVSPost2010PropOp29
 70
     1
102
RTVSPost2010Prop30
280
     1
102
RTVSPost2010PropOp30
 70
     1
102
RTVSPost2010Prop31
280
     0
102
RTVSPost2010PropOp31
 70
     1
102
RTVSPost2010Prop32
280
     0
102
RTVSPost2010PropOp32
 70
     1
102
RTVSPost2010Prop33
280
     0
102
RTVSPost2010PropOp33
 70
     1
102
RTVSPost2010Prop34
280
     0
102
RTVSPost2010PropOp34
 70
     1
102
RTVSPost2010Prop35
280
     0
102
RTVSPost2010PropOp35
 70
     1
102
RTVSPost2010Prop36
280
     0
102
RTVSPost2010PropOp36
 70
     1
102
RTVSPost2010Prop37
 90
       50
102
RTVSPost2010PropOp37
 70
     1
102
RTVSPost2010Prop38
140
0.0
102
RTVSPost2010PropOp38
 70
     1
102
RTVSPost2010Prop39
140
1.0
102
RTVSPost2010PropOp39
 70
     1
102
RTVSPost2010Prop40
 90
        0
102
RTVSPost2010PropOp40
 70
     1
102
RTVSPost2010Prop41ColorIndex
 90
       18
102
RTVSPost2010Prop41ColorRGB
 90
        0
102
RTVSPost2010PropOp41
 70
     1
102
RTVSPost2010Prop42
 90
       50
102
RTVSPost2010PropOp42
 70
     1
102
RTVSPost2010Prop43
 90
        3
102
RTVSPost2010PropOp43
 70
     1
102
RTVSPost2010Prop44ColorIndex
 90
        5
102
RTVSPost2010Prop44ColorRGB
 90
      255
102
RTVSPost2010PropOp44
 70
     1
102
RTVSPost2010Prop45
280
     0
102
RTVSPost2010PropOp45
 70
     1
102
RTVSPost2010Prop46
 90
       50
102
RTVSPost2010PropOp46
 70
     1
102
RTVSPost2010Prop47
 90
       50
102
RTVSPost2010PropOp47
 70
     1
102
RTVSPost2010Prop48
 90
       50
102
RTVSPost2010PropOp48
 70
     1
102
RTVSPost2010Prop49
280
     0
102
RTVSPost2010PropOp49
 70
     1
102
RTVSPost2010Prop50
 90
       50
102
RTVSPost2010PropOp50
 70
     1
102
RTVSPost2010Prop51ColorIndex
 90
      256
102
RTVSPost2010Prop51ColorRGB
 90
-16777216
102
RTVSPost2010PropOp51
 70
     0
102
RTVSPost2010Prop52
140
1.0
102
RTVSPost2010PropOp52
 70
     0
102
RTVSPost2010Prop53
 90
        2
102
RTVSPost2010PropOp53
 70
     1
102
RTVSPost2010Prop54
  1
strokes_ogs.tif
102
RTVSPost2010PropOp54
 70
     1
102
RTVSPost2010Prop55
280
     0
102
RTVSPost2010PropOp55
 70
     1
102
RTVSPost2010Prop56
140
1.0
102
RTVSPost2010PropOp56
 70
     1
102
RTVSPost2010Prop57
140
1.0
102
RTVSPost2010PropOp57
 70
     1
  0
XRECORD
  5
290
102
{ACAD_REACTORS
330
28F
102
}
330
28F
100
AcDbXrecord
280
     1
102
RTVSPost2010Prop28
280
     0
102
RTVSPost2010PropOp28
 70
     1
102
RTVSPost2010Prop29
280
     1
102
RTVSPost2010PropOp29
 70
     1
102
RTVSPost2010Prop30
280
     1
102
RTVSPost2010PropOp30
 70
     1
102
RTVSPost2010Prop31
280
     0
102
RTVSPost2010PropOp31
 70
     1
102
RTVSPost2010Prop32
280
     0
102
RTVSPost2010PropOp32
 70
     1
102
RTVSPost2010Prop33
280
     0
102
RTVSPost2010PropOp33
 70
     1
102
RTVSPost2010Prop34
280
     0
102
RTVSPost2010PropOp34
 70
     1
102
RTVSPost2010Prop35
280
     0
102
RTVSPost2010PropOp35
 70
     1
102
RTVSPost2010Prop36
280
     0
102
RTVSPost2010PropOp36
 70
     1
102
RTVSPost2010Prop37
 90
       50
102
RTVSPost2010PropOp37
 70
     1
102
RTVSPost2010Prop38
140
0.0
102
RTVSPost2010PropOp38
 70
     1
102
RTVSPost2010Prop39
140
1.0
102
RTVSPost2010PropOp39
 70
     1
102
RTVSPost2010Prop40
 90
        0
102
RTVSPost2010PropOp40
 70
     1
102
RTVSPost2010Prop41ColorIndex
 90
       18
102
RTVSPost2010Prop41ColorRGB
 90
        0
102
RTVSPost2010PropOp41
 70
     1
102
RTVSPost2010Prop42
 90
       50
102
RTVSPost2010PropOp42
 70
     1
102
RTVSPost2010Prop43
 90
        3
102
RTVSPost2010PropOp43
 70
     1
102
RTVSPost2010Prop44ColorIndex
 90
        5
102
RTVSPost2010Prop44ColorRGB
 90
      255
102
RTVSPost2010PropOp44
 70
     1
102
RTVSPost2010Prop45
280
     0
102
RTVSPost2010PropOp45
 70
     1
102
RTVSPost2010Prop46
 90
       50
102
RTVSPost2010PropOp46
 70
     1
102
RTVSPost2010Prop47
 90
       50
102
RTVSPost2010PropOp47
 70
     1
102
RTVSPost2010Prop48
 90
       50
102
RTVSPost2010PropOp48
 70
     1
102
RTVSPost2010Prop49
280
     0
102
RTVSPost2010PropOp49
 70
     1
102
RTVSPost2010Prop50
 90
       50
102
RTVSPost2010PropOp50
 70
     1
102
RTVSPost2010Prop51ColorIndex
 90
      256
102
RTVSPost2010Prop51ColorRGB
 90
-16777216
102
RTVSPost2010PropOp51
 70
     0
102
RTVSPost2010Prop52
140
1.0
102
RTVSPost2010PropOp52
 70
     0
102
RTVSPost2010Prop53
 90
        2
102
RTVSPost2010PropOp53
 70
     1
102
RTVSPost2010Prop54
  1
strokes_ogs.tif
102
RTVSPost2010PropOp54
 70
     1
102
RTVSPost2010Prop55
280
     0
102
RTVSPost2010PropOp55
 70
     1
102
RTVSPost2010Prop56
140
1.0
102
RTVSPost2010PropOp56
 70
     1
102
RTVSPost2010Prop57
140
1.0
102
RTVSPost2010PropOp57
 70
     1
  0
XRECORD
  5
282
102
{ACAD_REACTORS
330
281
102
}
330
281
100
AcDbXrecord
280
     1
102
RTVSPost2010Prop28
280
     0
102
RTVSPost2010PropOp28
 70
     1
102
RTVSPost2010Prop29
280
     1
102
RTVSPost2010PropOp29
 70
     1
102
RTVSPost2010Prop30
280
     1
102
RTVSPost2010PropOp30
 70
     1
102
RTVSPost2010Prop31
280
     0
102
RTVSPost2010PropOp31
 70
     1
102
RTVSPost2010Prop32
280
     0
102
RTVSPost2010PropOp32
 70
     1
102
RTVSPost2010Prop33
280
     0
102
RTVSPost2010PropOp33
 70
     1
102
RTVSPost2010Prop34
280
     0
102
RTVSPost2010PropOp34
 70
     1
102
RTVSPost2010Prop35
280
     0
102
RTVSPost2010PropOp35
 70
     1
102
RTVSPost2010Prop36
280
     0
102
RTVSPost2010PropOp36
 70
     1
102
RTVSPost2010Prop37
 90
       50
102
RTVSPost2010PropOp37
 70
     1
102
RTVSPost2010Prop38
140
0.0
102
RTVSPost2010PropOp38
 70
     1
102
RTVSPost2010Prop39
140
1.0
102
RTVSPost2010PropOp39
 70
     1
102
RTVSPost2010Prop40
 90
        0
102
RTVSPost2010PropOp40
 70
     1
102
RTVSPost2010Prop41ColorIndex
 90
       18
102
RTVSPost2010Prop41ColorRGB
 90
        0
102
RTVSPost2010PropOp41
 70
     1
102
RTVSPost2010Prop42
 90
       50
102
RTVSPost2010PropOp42
 70
     1
102
RTVSPost2010Prop43
 90
        3
102
RTVSPost2010PropOp43
 70
     1
102
RTVSPost2010Prop44ColorIndex
 90
        5
102
RTVSPost2010Prop44ColorRGB
 90
      255
102
RTVSPost2010PropOp44
 70
     1
102
RTVSPost2010Prop45
280
     0
102
RTVSPost2010PropOp45
 70
     1
102
RTVSPost2010Prop46
 90
       50
102
RTVSPost2010PropOp46
 70
     1
102
RTVSPost2010Prop47
 90
       50
102
RTVSPost2010PropOp47
 70
     1
102
RTVSPost2010Prop48
 90
       50
102
RTVSPost2010PropOp48
 70
     1
102
RTVSPost2010Prop49
280
     0
102
RTVSPost2010PropOp49
 70
     1
102
RTVSPost2010Prop50
 90
       50
102
RTVSPost2010PropOp50
 70
     1
102
RTVSPost2010Prop51ColorIndex
 90
      256
102
RTVSPost2010Prop51ColorRGB
 90
-16777216
102
RTVSPost2010PropOp51
 70
     0
102
RTVSPost2010Prop52
140
1.0
102
RTVSPost2010PropOp52
 70
     0
102
RTVSPost2010Prop53
 90
        2
102
RTVSPost2010PropOp53
 70
     1
102
RTVSPost2010Prop54
  1
strokes_ogs.tif
102
RTVSPost2010PropOp54
 70
     1
102
RTVSPost2010Prop55
280
     0
102
RTVSPost2010PropOp55
 70
     1
102
RTVSPost2010Prop56
140
1.0
102
RTVSPost2010PropOp56
 70
     1
102
RTVSPost2010Prop57
140
1.0
102
RTVSPost2010PropOp57
 70
     1
  0
XRECORD
  5
2A2
102
{ACAD_REACTORS
330
2A1
102
}
330
2A1
100
AcDbXrecord
280
     1
102
RTVSPost2010Prop28
280
     0
102
RTVSPost2010PropOp28
 70
     1
102
RTVSPost2010Prop29
280
     1
102
RTVSPost2010PropOp29
 70
     1
102
RTVSPost2010Prop30
280
     1
102
RTVSPost2010PropOp30
 70
     1
102
RTVSPost2010Prop31
280
     0
102
RTVSPost2010PropOp31
 70
     1
102
RTVSPost2010Prop32
280
     0
102
RTVSPost2010PropOp32
 70
     1
102
RTVSPost2010Prop33
280
     0
102
RTVSPost2010PropOp33
 70
     1
102
RTVSPost2010Prop34
280
     0
102
RTVSPost2010PropOp34
 70
     1
102
RTVSPost2010Prop35
280
     0
102
RTVSPost2010PropOp35
 70
     1
102
RTVSPost2010Prop36
280
     0
102
RTVSPost2010PropOp36
 70
     1
102
RTVSPost2010Prop37
 90
       50
102
RTVSPost2010PropOp37
 70
     1
102
RTVSPost2010Prop38
140
0.0
102
RTVSPost2010PropOp38
 70
     1
102
RTVSPost2010Prop39
140
1.0
102
RTVSPost2010PropOp39
 70
     1
102
RTVSPost2010Prop40
 90
        0
102
RTVSPost2010PropOp40
 70
     1
102
RTVSPost2010Prop41ColorIndex
 90
       18
102
RTVSPost2010Prop41ColorRGB
 90
        0
102
RTVSPost2010PropOp41
 70
     1
102
RTVSPost2010Prop42
 90
       50
102
RTVSPost2010PropOp42
 70
     1
102
RTVSPost2010Prop43
 90
        3
102
RTVSPost2010PropOp43
 70
     1
102
RTVSPost2010Prop44ColorIndex
 90
        5
102
RTVSPost2010Prop44ColorRGB
 90
      255
102
RTVSPost2010PropOp44
 70
     1
102
RTVSPost2010Prop45
280
     0
102
RTVSPost2010PropOp45
 70
     1
102
RTVSPost2010Prop46
 90
       50
102
RTVSPost2010PropOp46
 70
     1
102
RTVSPost2010Prop47
 90
       50
102
RTVSPost2010PropOp47
 70
     1
102
RTVSPost2010Prop48
 90
       50
102
RTVSPost2010PropOp48
 70
     1
102
RTVSPost2010Prop49
280
     0
102
RTVSPost2010PropOp49
 70
     1
102
RTVSPost2010Prop50
 90
       50
102
RTVSPost2010PropOp50
 70
     1
102
RTVSPost2010Prop51ColorIndex
 90
      256
102
RTVSPost2010Prop51ColorRGB
 90
-16777216
102
RTVSPost2010PropOp51
 70
     0
102
RTVSPost2010Prop52
140
1.0
102
RTVSPost2010PropOp52
 70
     0
102
RTVSPost2010Prop53
 90
        2
102
RTVSPost2010PropOp53
 70
     1
102
RTVSPost2010Prop54
  1
strokes_ogs.tif
102
RTVSPost2010PropOp54
 70
     1
102
RTVSPost2010Prop55
280
     0
102
RTVSPost2010PropOp55
 70
     1
102
RTVSPost2010Prop56
140
1.0
102
RTVSPost2010PropOp56
 70
     1
102
RTVSPost2010Prop57
140
1.0
102
RTVSPost2010PropOp57
 70
     1
  0
ENDSEC
  0
EOF
