  0
SECTION
  2
HEADER
  9
$ACADVER
  1
AC1024
  9
$ACADMAINTVER
 70
     6
  9
$DWGCODEPAGE
  3
ANSI_1252
  9
$INSBASE
 10
0.0
 20
0.0
 30
0.0
  9
$EXTMIN
 10
1.000000E+20
 20
1.000000E+20
 30
1.000000E+20
  9
$EXTMAX
 10
-1.000000E+20
 20
-1.000000E+20
 30
-1.000000E+20
  9
$LIMMIN
 10
0.0
 20
0.0
  9
$LIMMAX
 10
420.0
 20
297.0
  9
$ORTHOMODE
 70
     0
  9
$REGENMODE
 70
     1
  9
$FILLMODE
 70
     1
  9
$QTEXTMODE
 70
     0
  9
$MIRRTEXT
 70
     1
  9
$LTSCALE
 40
1.0
  9
$ATTMODE
 70
     1
  9
$TEXTSIZE
 40
2.5
  9
$TRACEWID
 40
1.0
  9
$TEXTSTYLE
  7
Standard
  9
$CLAYER
  8
0
  9
$CELTYPE
  6
ByLayer
  9
$CECOLOR
 62
   256
  9
$CELTSCALE
 40
1.0
  9
$DISPSILH
 70
     0
  9
$DIMSCALE
 40
1.0
  9
$DIMASZ
 40
2.5
  9
$DIMEXO
 40
0.625
  9
$DIMDLI
 40
3.75
  9
$DIMRND
 40
0.0
  9
$DIMDLE
 40
0.0
  9
$DIMEXE
 40
1.25
  9
$DIMTP
 40
0.0
  9
$DIMTM
 40
0.0
  9
$DIMTXT
 40
2.5
  9
$DIMCEN
 40
2.5
  9
$DIMTSZ
 40
0.0
  9
$DIMTOL
 70
     0
  9
$DIMLIM
 70
     0
  9
$DIMTIH
 70
     0
  9
$DIMTOH
 70
     0
  9
$DIMSE1
 70
     0
  9
$DIMSE2
 70
     0
  9
$DIMTAD
 70
     1
  9
$DIMZIN
 70
     8
  9
$DIMBLK
  1

  9
$DIMASO
 70
     1
  9
$DIMSHO
 70
     1
  9
$DIMPOST
  1

  9
$DIMAPOST
  1

  9
$DIMALT
 70
     0
  9
$DIMALTD
 70
     3
  9
$DIMALTF
 40
0.03937
  9
$DIMLFAC
 40
1.0
  9
$DIMTOFL
 70
     1
  9
$DIMTVP
 40
0.0
  9
$DIMTIX
 70
     0
  9
$DIMSOXD
 70
     0
  9
$DIMSAH
 70
     0
  9
$DIMBLK1
  1

  9
$DIMBLK2
  1

  9
$DIMSTYLE
  2
ISO-25
  9
$DIMCLRD
 70
     0
  9
$DIMCLRE
 70
     0
  9
$DIMCLRT
 70
     0
  9
$DIMTFAC
 40
1.0
  9
$DIMGAP
 40
0.625
  9
$DIMJUST
 70
     0
  9
$DIMSD1
 70
     0
  9
$DIMSD2
 70
     0
  9
$DIMTOLJ
 70
     0
  9
$DIMTZIN
 70
     8
  9
$DIMALTZ
 70
     0
  9
$DIMALTTZ
 70
     0
  9
$DIMUPT
 70
     0
  9
$DIMDEC
 70
     2
  9
$DIMTDEC
 70
     2
  9
$DIMALTU
 70
     2
  9
$DIMALTTD
 70
     3
  9
$DIMTXSTY
  7
Standard
  9
$DIMAUNIT
 70
     0
  9
$DIMADEC
 70
     0
  9
$DIMALTRND
 40
0.0
  9
$DIMAZIN
 70
     0
  9
$DIMDSEP
 70
    44
  9
$DIMATFIT
 70
     3
  9
$DIMFRAC
 70
     0
  9
$DIMLDRBLK
  1

  9
$DIMLUNIT
 70
     2
  9
$DIMLWD
 70
    -2
  9
$DIMLWE
 70
    -2
  9
$DIMTMOVE
 70
     0
  9
$DIMFXL
 40
1.0
  9
$DIMFXLON
 70
     0
  9
$DIMJOGANG
 40
0.785398
  9
$DIMTFILL
 70
     0
  9
$DIMTFILLCLR
 70
     0
  9
$DIMARCSYM
 70
     0
  9
$DIMLTYPE
  6

  9
$DIMLTEX1
  6

  9
$DIMLTEX2
  6

  9
$DIMTXTDIRECTION
 70
     0
  9
$LUNITS
 70
     2
  9
$LUPREC
 70
     4
  9
$SKETCHINC
 40
1.0
  9
$FILLETRAD
 40
10.0
  9
$AUNITS
 70
     0
  9
$AUPREC
 70
     0
  9
$MENU
  1
.
  9
$ELEVATION
 40
0.0
  9
$PELEVATION
 40
0.0
  9
$THICKNESS
 40
0.0
  9
$LIMCHECK
 70
     0
  9
$CHAMFERA
 40
0.0
  9
$CHAMFERB
 40
0.0
  9
$CHAMFERC
 40
0.0
  9
$CHAMFERD
 40
0.0
  9
$SKPOLY
 70
     0
  9
$TDCREATE
 40
2457809.583525278
  9
$TDUCREATE
 40
2457809.541858611
  9
$TDUPDATE
 40
2457809.583526192
  9
$TDUUPDATE
 40
2457809.541859525
  9
$TDINDWG
 40
0.0000000116
  9
$TDUSRTIMER
 40
0.0000000116
  9
$USRTIMER
 70
     1
  9
$ANGBASE
 50
0.0
  9
$ANGDIR
 70
     0
  9
$PDMODE
 70
     0
  9
$PDSIZE
 40
0.0
  9
$PLINEWID
 40
0.0
  9
$SPLFRAME
 70
     0
  9
$SPLINETYPE
 70
     6
  9
$SPLINESEGS
 70
     8
  9
$HANDSEED
  5
357
  9
$SURFTAB1
 70
     6
  9
$SURFTAB2
 70
     6
  9
$SURFTYPE
 70
     6
  9
$SURFU
 70
     6
  9
$SURFV
 70
     6
  9
$UCSBASE
  2

  9
$UCSNAME
  2

  9
$UCSORG
 10
0.0
 20
0.0
 30
0.0
  9
$UCSXDIR
 10
1.0
 20
0.0
 30
0.0
  9
$UCSYDIR
 10
0.0
 20
1.0
 30
0.0
  9
$UCSORTHOREF
  2

  9
$UCSORTHOVIEW
 70
     0
  9
$UCSORGTOP
 10
0.0
 20
0.0
 30
0.0
  9
$UCSORGBOTTOM
 10
0.0
 20
0.0
 30
0.0
  9
$UCSORGLEFT
 10
0.0
 20
0.0
 30
0.0
  9
$UCSORGRIGHT
 10
0.0
 20
0.0
 30
0.0
  9
$UCSORGFRONT
 10
0.0
 20
0.0
 30
0.0
  9
$UCSORGBACK
 10
0.0
 20
0.0
 30
0.0
  9
$PUCSBASE
  2

  9
$PUCSNAME
  2

  9
$PUCSORG
 10
0.0
 20
0.0
 30
0.0
  9
$PUCSXDIR
 10
1.0
 20
0.0
 30
0.0
  9
$PUCSYDIR
 10
0.0
 20
1.0
 30
0.0
  9
$PUCSORTHOREF
  2

  9
$PUCSORTHOVIEW
 70
     0
  9
$PUCSORGTOP
 10
0.0
 20
0.0
 30
0.0
  9
$PUCSORGBOTTOM
 10
0.0
 20
0.0
 30
0.0
  9
$PUCSORGLEFT
 10
0.0
 20
0.0
 30
0.0
  9
$PUCSORGRIGHT
 10
0.0
 20
0.0
 30
0.0
  9
$PUCSORGFRONT
 10
0.0
 20
0.0
 30
0.0
  9
$PUCSORGBACK
 10
0.0
 20
0.0
 30
0.0
  9
$USERI1
 70
     0
  9
$USERI2
 70
     0
  9
$USERI3
 70
     0
  9
$USERI4
 70
     0
  9
$USERI5
 70
     0
  9
$USERR1
 40
0.0
  9
$USERR2
 40
0.0
  9
$USERR3
 40
0.0
  9
$USERR4
 40
0.0
  9
$USERR5
 40
0.0
  9
$WORLDVIEW
 70
     1
  9
$SHADEDGE
 70
     3
  9
$SHADEDIF
 70
    70
  9
$TILEMODE
 70
     1
  9
$MAXACTVP
 70
    64
  9
$PINSBASE
 10
0.0
 20
0.0
 30
0.0
  9
$PLIMCHECK
 70
     0
  9
$PEXTMIN
 10
1.000000E+20
 20
1.000000E+20
 30
1.000000E+20
  9
$PEXTMAX
 10
-1.000000E+20
 20
-1.000000E+20
 30
-1.000000E+20
  9
$PLIMMIN
 10
0.0
 20
0.0
  9
$PLIMMAX
 10
420.0
 20
297.0
  9
$UNITMODE
 70
     0
  9
$VISRETAIN
 70
     1
  9
$PLINEGEN
 70
     0
  9
$PSLTSCALE
 70
     1
  9
$TREEDEPTH
 70
  3020
  9
$CMLSTYLE
  2
Standard
  9
$CMLJUST
 70
     0
  9
$CMLSCALE
 40
20.0
  9
$PROXYGRAPHICS
 70
     1
  9
$MEASUREMENT
 70
     1
  9
$CELWEIGHT
370
    -1
  9
$ENDCAPS
280
     0
  9
$JOINSTYLE
280
     0
  9
$LWDISPLAY
290
     0
  9
$INSUNITS
 70
     4
  9
$HYPERLINKBASE
  1

  9
$STYLESHEET
  1

  9
$XEDIT
290
     1
  9
$CEPSNTYPE
380
     0
  9
$PSTYLEMODE
290
     1
  9
$FINGERPRINTGUID
  2
{B1E8A3FB-69C4-4A3E-85D5-DE1A6AD3C929}
  9
$VERSIONGUID
  2
{FAEB1C32-E019-11D5-929B-00C0DF256EC4}
  9
$EXTNAMES
290
     1
  9
$PSVPSCALE
 40
0.0
  9
$OLESTARTUP
290
     0
  9
$SORTENTS
280
   127
  9
$INDEXCTL
280
     0
  9
$HIDETEXT
280
     1
  9
$XCLIPFRAME
280
     2
  9
$HALOGAP
280
     0
  9
$OBSCOLOR
 70
   257
  9
$OBSLTYPE
280
     0
  9
$INTERSECTIONDISPLAY
280
     0
  9
$INTERSECTIONCOLOR
 70
   257
  9
$DIMASSOC
280
     2
  9
$PROJECTNAME
  1

  9
$CAMERADISPLAY
290
     0
  9
$LENSLENGTH
 40
50.0
  9
$CAMERAHEIGHT
 40
0.0
  9
$STEPSPERSEC
 40
2.0
  9
$STEPSIZE
 40
6.0
  9
$3DDWFPREC
 40
2.0
  9
$PSOLWIDTH
 40
5.0
  9
$PSOLHEIGHT
 40
80.0
  9
$LOFTANG1
 40
1.570796
  9
$LOFTANG2
 40
1.570796
  9
$LOFTMAG1
 40
0.0
  9
$LOFTMAG2
 40
0.0
  9
$LOFTPARAM
 70
     7
  9
$LOFTNORMALS
280
     1
  9
$LATITUDE
 40
37.795
  9
$LONGITUDE
 40
-122.394
  9
$NORTHDIRECTION
 40
0.0
  9
$TIMEZONE
 70
 -8000
  9
$LIGHTGLYPHDISPLAY
280
     1
  9
$TILEMODELIGHTSYNCH
280
     1
  9
$CMATERIAL
347
44
  9
$SOLIDHIST
280
     0
  9
$SHOWHIST
280
     1
  9
$DWFFRAME
280
     2
  9
$DGNFRAME
280
     2
  9
$REALWORLDSCALE
290
     1
  9
$INTERFERECOLOR
 62
   256
  9
$CSHADOW
280
     0
  9
$SHADOWPLANELOCATION
 40
0.0
  0
ENDSEC
  0
SECTION
  2
CLASSES
  0
CLASS
  1
ACDBDICTIONARYWDFLT
  2
AcDbDictionaryWithDefault
  3
ObjectDBX Classes
 90
        0
 91
        4
280
     0
281
     0
  0
CLASS
  1
VISUALSTYLE
  2
AcDbVisualStyle
  3
ObjectDBX Classes
 90
     4095
 91
        4
280
     0
281
     0
  0
CLASS
  1
MATERIAL
  2
AcDbMaterial
  3
ObjectDBX Classes
 90
     1153
 91
        4
280
     0
281
     0
  0
CLASS
  1
SCALE
  2
AcDbScale
  3
ObjectDBX Classes
 90
     1153
 91
        4
280
     0
281
     0
  0
CLASS
  1
TABLESTYLE
  2
AcDbTableStyle
  3
ObjectDBX Classes
 90
     4095
 91
        4
280
     0
281
     0
  0
CLASS
  1
MLEADERSTYLE
  2
AcDbMLeaderStyle
  3
ACDB_MLEADERSTYLE_CLASS
 90
     4095
 91
        4
280
     0
281
     0
  0
CLASS
  1
SUN
  2
AcDbSun
  3
SCENEOE
 90
     1153
 91
        4
280
     0
281
     0
  0
CLASS
  1
DICTIONARYVAR
  2
AcDbDictionaryVar
  3
ObjectDBX Classes
 90
        0
 91
        4
280
     0
281
     0
  0
CLASS
  1
CELLSTYLEMAP
  2
AcDbCellStyleMap
  3
ObjectDBX Classes
 90
     1152
 91
        4
280
     0
281
     0
  0
ENDSEC
  0
SECTION
  2
TABLES
  0
TABLE
  2
VPORT
  5
8
330
0
100
AcDbSymbolTable
 70
     1
  0
VPORT
  5
29
330
8
100
AcDbSymbolTableRecord
100
AcDbViewportTableRecord
  2
*Active
 70
     0
 10
0.0
 20
0.0
 11
1.0
 21
1.0
 12
344.186916
 22
148.5
 13
0.0
 23
0.0
 14
10.0
 24
10.0
 15
10.0
 25
10.0
 16
0.0
 26
0.0
 36
1.0
 17
0.0
 27
0.0
 37
0.0
 40
297.0
 41
1.972973
 42
50.0
 43
0.0
 44
0.0
 50
0.0
 51
0.0
 71
     0
 72
   100
 73
     1
 74
     3
 75
     0
 76
     0
 77
     0
 78
     0
281
     0
 65
     1
110
0.0
120
0.0
130
0.0
111
1.0
121
0.0
131
0.0
112
0.0
122
1.0
132
0.0
 79
     0
146
0.0
348
2F
 60
     3
 61
     5
292
     1
282
     1
141
0.0
142
0.0
 63
   250
361
6D
  0
ENDTAB
  0
TABLE
  2
LTYPE
  5
5
330
0
100
AcDbSymbolTable
 70
     1
  0
LTYPE
  5
14
330
5
100
AcDbSymbolTableRecord
100
AcDbLinetypeTableRecord
  2
ByBlock
 70
     0
  3

 72
    65
 73
     0
 40
0.0
  0
LTYPE
  5
15
330
5
100
AcDbSymbolTableRecord
100
AcDbLinetypeTableRecord
  2
ByLayer
 70
     0
  3

 72
    65
 73
     0
 40
0.0
  0
LTYPE
  5
16
330
5
100
AcDbSymbolTableRecord
100
AcDbLinetypeTableRecord
  2
Continuous
 70
     0
  3
Solid line
 72
    65
 73
     0
 40
0.0
  0
ENDTAB
  0
TABLE
  2
LAYER
  5
2
330
0
100
AcDbSymbolTable
 70
     1
  0
LAYER
  5
10
330
2
100
AcDbSymbolTableRecord
100
AcDbLayerTableRecord
  2
0
 70
     0
 62
   106
  6
Continuous
370
     0
390
F
347
46
  0
ENDTAB
  0
TABLE
  2
STYLE
  5
3
330
0
100
AcDbSymbolTable
 70
     4
  0
STYLE
  5
11
330
3
100
AcDbSymbolTableRecord
100
AcDbTextStyleTableRecord
  2
Standard
 70
     0
 40
0.0
 41
1.0
 50
0.0
 71
     0
 42
2.5
  3
txt
  4

  0
STYLE
  5
6E
330
3
100
AcDbSymbolTableRecord
100
AcDbTextStyleTableRecord
  2
Default
 70
     0
 40
0.0
 41
1.0
 50
0.0
 71
     0
 42
2.5
  3

  4

1001
ACAD
1000
txt
1071
        0
  0
STYLE
  5
6F
330
3
100
AcDbSymbolTableRecord
100
AcDbTextStyleTableRecord
  2
ISO
 70
     0
 40
0.0
 41
1.0
 50
0.0
 71
     0
 42
2.5
  3

  4

1001
ACAD
1000
txt
1071
        0
  0
STYLE
  5
70
330
3
100
AcDbSymbolTableRecord
100
AcDbTextStyleTableRecord
  2
zucchetti
 70
     0
 40
0.0
 41
1.0
 50
0.0
 71
     0
 42
2.5
  3

  4

1001
ACAD
1000
Arial
1071
        0
  0
ENDTAB
  0
TABLE
  2
VIEW
  5
6
330
0
100
AcDbSymbolTable
 70
     0
  0
ENDTAB
  0
TABLE
  2
UCS
  5
7
330
0
100
AcDbSymbolTable
 70
     0
  0
ENDTAB
  0
TABLE
  2
APPID
  5
9
330
0
100
AcDbSymbolTable
 70
     1
  0
APPID
  5
12
330
9
100
AcDbSymbolTableRecord
100
AcDbRegAppTableRecord
  2
ACAD
 70
     0
  0
ENDTAB
  0
TABLE
  2
DIMSTYLE
  5
A
330
0
100
AcDbSymbolTable
 70
     4
100
AcDbDimStyleTable
  0
DIMSTYLE
105
27
330
A
100
AcDbSymbolTableRecord
100
AcDbDimStyleTableRecord
  2
ISO-25
 70
     0
 41
2.5
 42
0.625
 43
3.75
 44
1.25
 73
     0
 74
     0
 77
     1
 78
     8
140
2.5
141
2.5
143
0.03937
147
0.625
171
     3
172
     1
178
     0
271
     2
272
     2
274
     3
278
    44
283
     0
284
     8
340
11
  0
DIMSTYLE
105
71
330
A
100
AcDbSymbolTableRecord
100
AcDbDimStyleTableRecord
  2
Default
 70
     0
  3
<>
 41
4.375
 42
1.05
 44
2.1
 49
10.01
 73
     0
 74
     0
 77
     1
 78
     8
140
3.5
146
0.4
147
1.75
172
     1
271
     2
178
     3
271
     2
272
     3
284
     8
340
6E
341
72
342
72
  0
DIMSTYLE
105
79
330
A
100
AcDbSymbolTableRecord
100
AcDbDimStyleTableRecord
  2
ISO
 70
     0
  3
<>
 41
4.375
 42
1.05
 44
2.1
 49
10.01
 73
     0
 74
     0
 77
     1
 78
     8
140
3.5
146
0.4
147
1.75
172
     1
271
     2
178
     3
271
     2
272
     3
284
     8
340
6F
341
72
342
72
  0
DIMSTYLE
105
7A
330
A
100
AcDbSymbolTableRecord
100
AcDbDimStyleTableRecord
  2
zucchetti
 70
     0
  3
<>
 41
3.0
 42
0.9
 44
1.8
 49
8.58
 73
     0
 74
     0
 77
     1
 78
     8
140
3.0
146
0.6
147
1.5
172
     1
176
     3
177
     3
271
     2
178
     3
271
     2
272
     2
284
     8
340
70
  0
ENDTAB
  0
TABLE
  2
BLOCK_RECORD
  5
1
330
0
100
AcDbSymbolTable
 70
     7
  0
BLOCK_RECORD
  5
1F
330
1
100
AcDbSymbolTableRecord
100
AcDbBlockTableRecord
  2
*Model_Space
340
22
 70
     0
280
     1
281
     0
  0
BLOCK_RECORD
  5
1B
330
1
100
AcDbSymbolTableRecord
100
AcDbBlockTableRecord
  2
*Paper_Space
340
1E
 70
     0
280
     1
281
     0
  0
BLOCK_RECORD
  5
23
330
1
100
AcDbSymbolTableRecord
100
AcDbBlockTableRecord
  2
*Paper_Space0
340
26
 70
     0
280
     1
281
     0
  0
BLOCK_RECORD
  5
72
330
1
100
AcDbSymbolTableRecord
100
AcDbBlockTableRecord
  2
_CLOSED
340
0
 70
     0
280
     1
281
     0
  0
BLOCK_RECORD
  5
7B
330
1
100
AcDbSymbolTableRecord
100
AcDbBlockTableRecord
  2
a
340
0
102
{BLKREFS
331
F9
102
}
 70
     0
280
     1
281
     0
  0
BLOCK_RECORD
  5
FA
330
1
100
AcDbSymbolTableRecord
100
AcDbBlockTableRecord
  2
b
340
0
102
{BLKREFS
331
17E
102
}
 70
     0
280
     1
281
     0
  0
BLOCK_RECORD
  5
17F
330
1
100
AcDbSymbolTableRecord
100
AcDbBlockTableRecord
  2
c
340
0
102
{BLKREFS
331
204
102
}
 70
     0
280
     1
281
     0
  0
BLOCK_RECORD
  5
205
330
1
100
AcDbSymbolTableRecord
100
AcDbBlockTableRecord
  2
d
340
0
102
{BLKREFS
331
297
102
}
 70
     0
280
     1
281
     0
  0
BLOCK_RECORD
  5
298
330
1
100
AcDbSymbolTableRecord
100
AcDbBlockTableRecord
  2
e
340
0
102
{BLKREFS
331
31D
102
}
 70
     0
280
     1
281
     0
  0
ENDTAB
  0
ENDSEC
  0
SECTION
  2
BLOCKS
  0
BLOCK
  5
20
330
1F
100
AcDbEntity
  8
0
100
AcDbBlockBegin
  2
*Model_Space
 70
     0
 10
0.0
 20
0.0
 30
0.0
  3
*Model_Space
  1

  0
ENDBLK
  5
21
330
1F
100
AcDbEntity
  8
0
100
AcDbBlockEnd
  0
BLOCK
  5
1C
330
1B
100
AcDbEntity
 67
     1
  8
0
100
AcDbBlockBegin
  2
*Paper_Space
 70
     0
 10
0.0
 20
0.0
 30
0.0
  3
*Paper_Space
  1

  0
ENDBLK
  5
1D
330
1B
100
AcDbEntity
 67
     1
  8
0
100
AcDbBlockEnd
  0
BLOCK
  5
24
330
23
100
AcDbEntity
  8
0
100
AcDbBlockBegin
  2
*Paper_Space0
 70
     0
 10
0.0
 20
0.0
 30
0.0
  3
*Paper_Space0
  1

  0
ENDBLK
  5
25
330
23
100
AcDbEntity
  8
0
100
AcDbBlockEnd
  0
BLOCK
  5
73
330
72
100
AcDbEntity
  8
0
100
AcDbBlockBegin
  2
_CLOSED
 70
     0
 10
0.0
 20
0.0
 30
0.0
  3
_CLOSED
  1

  0
LINE
  5
75
330
72
100
AcDbEntity
  8
0
  6
ByBlock
 62
     0
370
    -2
100
AcDbLine
 10
-1.0
 20
0.166667
 30
0.0
 11
0.0
 21
0.0
 31
0.0
  0
LINE
  5
76
330
72
100
AcDbEntity
  8
0
  6
ByBlock
 62
     0
370
    -2
100
AcDbLine
 10
0.0
 20
0.0
 30
0.0
 11
-1.0
 21
-0.166667
 31
0.0
  0
LINE
  5
77
330
72
100
AcDbEntity
  8
0
  6
ByBlock
 62
     0
370
    -2
100
AcDbLine
 10
-1.0
 20
0.166667
 30
0.0
 11
-1.0
 21
-0.166667
 31
0.0
  0
LINE
  5
78
330
72
100
AcDbEntity
  8
0
  6
ByBlock
 62
     0
370
    -2
100
AcDbLine
 10
0.0
 20
0.0
 30
0.0
 11
-1.0
 21
0.0
 31
0.0
  0
ENDBLK
  5
74
330
72
100
AcDbEntity
  8
0
100
AcDbBlockEnd
  0
BLOCK
  5
F7
330
7B
100
AcDbEntity
  8
0
100
AcDbBlockBegin
  2
a
 70
     0
 10
144.350449
 20
119.896828
 30
0.0
  3
a
  1

  0
ARC
  5
7C
330
7B
100
AcDbEntity
  8
0
  6
Continuous
 62
     0
370
    30
100
AcDbCircle
 10
210.883263
 20
332.940377
 30
0.0
 40
15.00000000000004
100
AcDbArc
 50
90.0
 51
125.915586
  0
LINE
  5
7D
330
7B
100
AcDbEntity
  8
0
  6
Continuous
 62
     0
370
    30
100
AcDbLine
 10
201.883544
 20
317.838608
 30
0.0
 11
219.477107
 21
317.838608
 31
0.0
  0
LWPOLYLINE
  5
7E
330
7B
100
AcDbEntity
  8
0
  6
Continuous
 62
     0
370
    30
100
AcDbPolyline
 90
        5
 70
     0
 43
0.0
 10
219.88327
 20
317.838623
 10
219.859299
 20
317.838623
 10
219.789459
 20
317.838623
 10
219.677231
 20
317.838623
 10
219.477112
 20
317.838623
  0
LINE
  5
7F
330
7B
100
AcDbEntity
  8
0
  6
Continuous
 62
     0
370
     0
100
AcDbLine
 10
219.477107
 20
314.338608
 30
0.0
 11
219.883263
 21
314.338608
 31
0.0
  0
LINE
  5
80
330
7B
100
AcDbEntity
  8
0
  6
Continuous
 62
     0
370
     0
100
AcDbLine
 10
201.883263
 20
314.338608
 30
0.0
 11
219.477107
 21
314.338608
 31
0.0
  0
LINE
  5
81
330
7B
100
AcDbEntity
  8
0
  6
Continuous
 62
     0
370
    30
100
AcDbLine
 10
200.383263
 20
312.838608
 30
0.0
 11
220.909415
 21
312.838608
 31
0.0
  0
LINE
  5
82
330
7B
100
AcDbEntity
  8
0
  6
Continuous
 62
     0
370
    30
100
AcDbLine
 10
200.319966
 20
312.838608
 30
0.0
 11
220.970275
 21
312.838608
 31
0.0
  0
LWPOLYLINE
  5
83
330
7B
100
AcDbEntity
  8
0
  6
Continuous
 62
     0
370
    30
100
AcDbPolyline
 90
        5
 70
     0
 43
0.0
 10
221.942749
 20
312.403625
 10
221.910812
 20
312.403625
 10
221.817871
 20
312.403625
 10
221.668777
 20
312.403625
 10
221.443649
 20
312.403625
  0
LINE
  5
84
330
7B
100
AcDbEntity
  8
0
  6
Continuous
 62
     0
370
     0
100
AcDbLine
 10
226.115535
 20
288.724421
 30
0.0
 11
226.835431
 21
288.724421
 31
0.0
  0
LINE
  5
85
330
7B
100
AcDbEntity
  8
0
  6
Continuous
 62
     0
370
     0
100
AcDbLine
 10
194.931094
 20
288.724421
 30
0.0
 11
226.115536
 21
288.724421
 31
0.0
  0
LWPOLYLINE
  5
86
330
7B
100
AcDbEntity
  8
0
  6
Continuous
 62
     0
370
    30
100
AcDbPolyline
 90
       35
 70
     0
 43
0.0
 10
199.824127
 20
312.403625
 10
199.862747
 20
312.403625
 10
199.978729
 20
312.403625
 10
200.170776
 20
312.403625
 10
200.437057
 20
312.403625
 10
200.775726
 20
312.403625
 10
201.184937
 20
312.403625
 10
201.662231
 20
312.403625
 10
202.203705
 20
312.403625
 10
202.805283
 20
312.403625
 10
203.462891
 20
312.403625
 10
204.17244
 20
312.403625
 10
204.929016
 20
312.403625
 10
205.726974
 20
312.403625
 10
206.560623
 20
312.403625
 10
207.424271
 20
312.403625
 10
208.312164
 20
312.403625
 10
209.218079
 20
312.403625
 10
210.135574
 20
312.403625
 10
211.058243
 20
312.403625
 10
211.979614
 20
312.403625
 10
212.893341
 20
312.403625
 10
213.793137
 20
312.403625
 10
214.672775
 20
312.403625
 10
215.526016
 20
312.403625
 10
216.346649
 20
312.403625
 10
217.128967
 20
312.403625
 10
217.867996
 20
312.403625
 10
218.558792
 20
312.403625
 10
219.196411
 20
312.403625
 10
219.77597
 20
312.403625
 10
220.293533
 20
312.403625
 10
220.745621
 20
312.403625
 10
221.12883
 20
312.403625
 10
221.443649
 20
312.403625
  0
LINE
  5
87
330
7B
100
AcDbEntity
  8
0
  6
Continuous
 62
     0
370
    30
100
AcDbLine
 10
220.970275
 20
312.838608
 30
0.0
 11
200.367567
 21
312.838608
 31
0.0
  0
LINE
  5
88
330
7B
100
AcDbEntity
  8
0
  6
Continuous
 62
     0
370
    30
100
AcDbLine
 10
221.399399
 20
312.838608
 30
0.0
 11
220.970275
 21
312.838608
 31
0.0
  0
LINE
  5
89
330
7B
100
AcDbEntity
  8
0
  6
Continuous
 62
     0
370
    30
100
AcDbLine
 10
236.737758
 20
278.897381
 30
0.0
 11
237.959673
 21
278.897381
 31
0.0
  0
LWPOLYLINE
  5
8A
330
7B
100
AcDbEntity
  8
0
  6
Continuous
 62
     0
370
    30
100
AcDbPolyline
 90
        7
 70
     0
 43
0.0
 10
238.38327
 20
278.403259
 10
238.34613
 20
278.403259
 10
238.236938
 20
278.403259
 10
238.05925
 20
278.403259
 10
237.816971
 20
278.403259
 10
237.514328
 20
278.403259
 10
237.142227
 20
278.403259
  0
LINE
  5
8B
330
7B
100
AcDbEntity
  8
0
  6
Continuous
 62
     0
370
    30
100
AcDbLine
 10
237.142232
 20
271.838608
 30
0.0
 11
238.383263
 21
271.838608
 31
0.0
  0
LINE
  5
8C
330
7B
100
AcDbEntity
  8
0
  6
Continuous
 62
     0
370
    30
100
AcDbLine
 10
183.38415
 20
278.403254
 30
0.0
 11
237.142233
 21
278.403254
 31
0.0
  0
LINE
  5
8D
330
7B
100
AcDbEntity
  8
0
  6
Continuous
 62
     0
370
    30
100
AcDbLine
 10
236.737758
 20
278.897381
 30
0.0
 11
183.812061
 21
278.897281
 31
0.0
  0
LWPOLYLINE
  5
8E
330
7B
100
AcDbEntity
  8
0
  6
Continuous
 62
     0
370
    30
100
AcDbPolyline
 90
       54
 70
     0
 43
0.0
 10
183.382919
 20
271.838623
 10
183.422607
 20
271.838623
 10
183.541306
 20
271.838623
 10
183.738281
 20
271.838623
 10
184.012848
 20
271.838623
 10
184.364273
 20
271.838623
 10
184.79187
 20
271.838623
 10
185.294785
 20
271.838623
 10
185.871307
 20
271.838623
 10
186.51944
 20
271.838623
 10
187.237228
 20
271.838623
 10
188.02269
 20
271.838623
 10
188.87384
 20
271.838623
 10
189.788498
 20
271.838623
 10
190.763794
 20
271.838623
 10
191.796661
 20
271.838623
 10
192.884094
 20
271.838623
 10
194.023041
 20
271.838623
 10
195.210464
 20
271.838623
 10
196.443115
 20
271.838623
 10
197.71727
 20
271.838623
 10
199.029114
 20
271.838623
 10
200.374832
 20
271.838623
 10
201.75061
 20
271.838623
 10
203.152664
 20
271.838623
 10
204.577026
 20
271.838623
 10
206.019531
 20
271.838623
 10
207.475952
 20
271.838623
 10
208.942108
 20
271.838623
 10
210.413788
 20
271.838623
 10
211.886795
 20
271.838623
 10
213.356918
 20
271.838623
 10
214.820007
 20
271.838623
 10
216.271851
 20
271.838623
 10
217.708267
 20
271.838623
 10
219.125076
 20
271.838623
 10
220.518112
 20
271.838623
 10
221.883438
 20
271.838623
 10
223.217255
 20
271.838623
 10
224.515823
 20
271.838623
 10
225.775375
 20
271.838623
 10
226.992157
 20
271.838623
 10
228.16243
 20
271.838623
 10
229.28299
 20
271.838623
 10
230.350861
 20
271.838623
 10
231.363098
 20
271.838623
 10
232.316742
 20
271.838623
 10
233.208847
 20
271.838623
 10
234.03656
 20
271.838623
 10
234.797699
 20
271.838623
 10
235.490356
 20
271.838623
 10
236.112595
 20
271.838623
 10
236.662506
 20
271.838623
 10
237.142227
 20
271.838623
  0
LINE
  5
8F
330
7B
100
AcDbEntity
  8
0
  6
Continuous
 62
     0
370
     0
100
AcDbLine
 10
199.976956
 20
344.37074
 30
0.0
 11
209.732058
 21
344.37074
 31
0.0
  0
LINE
  5
90
330
7B
100
AcDbEntity
  8
0
  6
Continuous
 62
     0
370
     0
100
AcDbLine
 10
209.732058
 20
344.37074
 30
0.0
 11
221.78957
 21
344.37074
 31
0.0
  0
LWPOLYLINE
  5
91
330
7B
100
AcDbEntity
  8
0
  6
Continuous
 62
     0
370
    30
100
AcDbPolyline
 90
       21
 70
     0
 43
0.0
 10
220.99379
 20
345.088623
 10
220.963303
 20
345.088623
 10
220.87413
 20
345.088623
 10
220.722244
 20
345.088623
 10
220.503418
 20
345.088623
 10
220.214722
 20
345.088623
 10
219.854523
 20
345.088623
 10
219.422668
 20
345.088623
 10
218.920685
 20
345.088623
 10
218.351822
 20
345.088623
 10
217.721008
 20
345.088623
 10
217.034821
 20
345.088623
 10
216.301178
 20
345.088623
 10
215.529099
 20
345.088623
 10
214.728256
 20
345.088623
 10
213.908722
 20
345.088623
 10
213.080414
 20
345.088623
 10
212.252869
 20
345.088623
 10
211.434875
 20
345.088623
 10
210.634262
 20
345.088623
 10
209.816055
 20
345.088623
  0
LINE
  5
92
330
7B
100
AcDbEntity
  8
0
  6
Continuous
 62
     0
370
     0
100
AcDbLine
 10
196.665549
 20
340.83748
 30
0.0
 11
209.382526
 21
340.83748
 31
0.0
  0
LINE
  5
93
330
7B
100
AcDbEntity
  8
0
  6
Continuous
 62
     0
370
     0
100
AcDbLine
 10
209.382526
 20
340.83748
 30
0.0
 11
225.100976
 21
340.83748
 31
0.0
  0
LINE
  5
94
330
7B
100
AcDbEntity
  8
0
  6
Continuous
 62
     0
370
     0
100
AcDbLine
 10
196.499196
 20
340.650751
 30
0.0
 11
209.364966
 21
340.650751
 31
0.0
  0
LINE
  5
95
330
7B
100
AcDbEntity
  8
0
  6
Continuous
 62
     0
370
     0
100
AcDbLine
 10
209.364966
 20
340.650751
 30
0.0
 11
225.267329
 21
340.650751
 31
0.0
  0
LINE
  5
96
330
7B
100
AcDbEntity
  8
0
  6
Continuous
 62
     0
370
    30
100
AcDbLine
 10
196.410838
 20
338.964779
 30
0.0
 11
209.35564
 21
338.964779
 31
0.0
  0
LINE
  5
97
330
7B
100
AcDbEntity
  8
0
  6
Continuous
 62
     0
370
    30
100
AcDbLine
 10
196.899129
 20
338.438763
 30
0.0
 11
224.867749
 21
338.43877
 31
0.0
  0
LWPOLYLINE
  5
98
330
7B
100
AcDbEntity
  8
0
  6
Continuous
 62
     0
370
    30
100
AcDbPolyline
 90
       24
 70
     0
 43
0.0
 10
225.355179
 20
338.964783
 10
225.316803
 20
338.964783
 10
225.201447
 20
338.964783
 10
225.009766
 20
338.964783
 10
224.743393
 20
338.964783
 10
224.403992
 20
338.964783
 10
223.993256
 20
338.964783
 10
223.512833
 20
338.964783
 10
222.964905
 20
338.964783
 10
222.352875
 20
338.964783
 10
221.680359
 20
338.964783
 10
220.950928
 20
338.964783
 10
220.168213
 20
338.964783
 10
219.335907
 20
338.964783
 10
218.458588
 20
338.964783
 10
217.541199
 20
338.964783
 10
216.588745
 20
338.964783
 10
215.606201
 20
338.964783
 10
214.598557
 20
338.964783
 10
213.57103
 20
338.964783
 10
212.529205
 20
338.964783
 10
211.478683
 20
338.964783
 10
210.425079
 20
338.964783
 10
209.355637
 20
338.964783
  0
LWPOLYLINE
  5
99
330
7B
100
AcDbEntity
  8
0
  6
Continuous
 62
     0
370
    30
100
AcDbPolyline
 90
       21
 70
     0
 43
0.0
 10
200.772827
 20
345.088623
 10
200.812256
 20
345.088623
 10
200.927216
 20
345.088623
 10
201.112717
 20
345.088623
 10
201.363495
 20
345.088623
 10
201.67276
 20
345.088623
 10
202.033325
 20
345.088623
 10
202.437912
 20
345.088623
 10
202.879486
 20
345.088623
 10
203.353149
 20
345.088623
 10
203.855286
 20
345.088623
 10
204.382294
 20
345.088623
 10
204.930649
 20
345.088623
 10
205.497375
 20
345.088623
 10
206.080246
 20
345.088623
 10
206.677078
 20
345.088623
 10
207.285675
 20
345.088623
 10
207.904099
 20
345.088623
 10
208.531021
 20
345.088623
 10
209.165192
 20
345.088623
 10
209.816055
 20
345.088623
  0
LINE
  5
9A
330
7B
100
AcDbEntity
  8
0
  6
Continuous
 62
     0
370
    30
100
AcDbLine
 10
209.816055
 20
345.088608
 30
0.0
 11
220.993692
 21
345.088608
 31
0.0
  0
LINE
  5
9B
330
7B
100
AcDbEntity
  8
0
  6
Continuous
 62
     0
370
     0
100
AcDbLine
 10
184.438693
 20
331.688891
 30
0.0
 11
184.395999
 21
335.881872
 31
0.0
  0
LINE
  5
9C
330
7B
100
AcDbEntity
  8
0
  6
Continuous
 62
     0
370
     0
100
AcDbLine
 10
184.395979
 20
325.595429
 30
0.0
 11
184.438693
 21
331.688891
 31
0.0
  0
LINE
  5
9D
330
7B
100
AcDbEntity
  8
0
  6
Continuous
 62
     0
370
     0
100
AcDbLine
 10
188.652574
 20
331.366802
 30
0.0
 11
188.62411
 21
334.13866
 31
0.0
  0
LINE
  5
9E
330
7B
100
AcDbEntity
  8
0
  6
Continuous
 62
     0
370
     0
100
AcDbLine
 10
188.624106
 20
327.33866
 30
0.0
 11
188.652574
 21
331.366802
 31
0.0
  0
LINE
  5
9F
330
7B
100
AcDbEntity
  8
0
  6
Continuous
 62
     0
370
     0
100
AcDbLine
 10
189.020032
 20
331.366802
 30
0.0
 11
188.991564
 21
334.13866
 31
0.0
  0
LWPOLYLINE
  5
A0
330
7B
100
AcDbEntity
  8
0
  6
Continuous
 62
     0
370
     0
100
AcDbPolyline
 90
       13
 70
     0
 43
0.0
 10
188.991562
 20
327.338654
 10
188.995544
 20
327.371002
 10
188.999359
 20
327.463867
 10
189.003174
 20
327.623535
 10
189.006912
 20
327.854706
 10
189.010422
 20
328.157257
 10
189.013565
 20
328.526031
 10
189.016205
 20
328.950592
 10
189.01825
 20
329.416199
 10
189.019653
 20
329.905518
 10
189.020386
 20
330.400513
 10
189.020508
 20
330.884613
 10
189.020035
 20
331.366791
  0
LWPOLYLINE
  5
A1
330
7B
100
AcDbEntity
  8
0
  6
Continuous
 62
     0
370
    30
100
AcDbPolyline
 90
       14
 70
     0
 43
0.0
 10
189.927536
 20
331.533081
 10
189.926514
 20
332.013733
 10
189.924973
 20
332.496368
 10
189.922852
 20
332.969177
 10
189.920181
 20
333.419128
 10
189.916977
 20
333.832916
 10
189.913284
 20
334.197998
 10
189.909225
 20
334.503906
 10
189.904877
 20
334.743103
 10
189.900375
 20
334.91156
 10
189.895828
 20
335.009003
 10
189.891357
 20
335.038605
 10
189.887039
 20
335.006226
 10
189.882706
 20
334.911865
  0
LWPOLYLINE
  5
A2
330
7B
100
AcDbEntity
  8
0
  6
Continuous
 62
     0
370
    30
100
AcDbPolyline
 90
       17
 70
     0
 43
0.0
 10
189.879303
 20
326.587341
 10
189.884003
 20
326.436096
 10
189.88884
 20
326.357819
 10
189.893707
 20
326.353851
 10
189.898544
 20
326.424072
 10
189.903259
 20
326.567596
 10
189.907776
 20
326.781677
 10
189.912018
 20
327.062927
 10
189.915909
 20
327.406464
 10
189.919388
 20
327.806396
 10
189.922394
 20
328.256165
 10
189.924881
 20
328.747894
 10
189.926804
 20
329.273438
 10
189.928131
 20
329.823822
 10
189.928833
 20
330.389648
 10
189.928909
 20
330.961456
 10
189.928314
 20
331.55011
  0
LWPOLYLINE
  5
A3
330
7B
100
AcDbEntity
  8
0
  6
Continuous
 62
     0
370
    30
100
AcDbPolyline
 90
       16
 70
     0
 43
0.0
 10
189.927536
 20
331.533081
 10
189.928116
 20
330.965149
 10
189.928055
 20
330.393219
 10
189.927338
 20
329.827454
 10
189.92598
 20
329.27774
 10
189.924026
 20
328.753876
 10
189.921494
 20
328.265198
 10
189.918442
 20
327.82019
 10
189.914902
 20
327.426941
 10
189.91095
 20
327.092163
 10
189.906647
 20
326.821991
 10
189.902084
 20
326.621124
 10
189.897339
 20
326.493011
 10
189.892487
 20
326.440186
 10
189.887619
 20
326.463196
 10
189.882706
 20
326.56546
  0
LINE
  5
A4
330
7B
100
AcDbEntity
  8
0
  6
Continuous
 62
     0
370
     0
100
AcDbLine
 10
193.116516
 20
331.601615
 30
0.0
 11
193.077376
 21
335.409651
 31
0.0
  0
LWPOLYLINE
  5
A5
330
7B
100
AcDbEntity
  8
0
  6
Continuous
 62
     0
370
     0
100
AcDbPolyline
 90
       15
 70
     0
 43
0.0
 10
193.077377
 20
326.067657
 10
193.082092
 20
326.10025
 10
193.086594
 20
326.194
 10
193.091095
 20
326.352936
 10
193.095581
 20
326.582977
 10
193.099915
 20
326.886047
 10
193.103973
 20
327.260559
 10
193.107635
 20
327.700989
 10
193.110794
 20
328.197968
 10
193.113373
 20
328.738831
 10
193.115295
 20
329.308746
 10
193.116547
 20
329.892029
 10
193.117142
 20
330.473389
 10
193.117111
 20
331.039215
 10
193.116516
 20
331.601624
  0
LINE
  5
A6
330
7B
100
AcDbEntity
  8
0
  6
Continuous
 62
     0
370
     0
100
AcDbLine
 10
194.823443
 20
331.774435
 30
0.0
 11
194.771337
 21
336.312232
 31
0.0
  0
LWPOLYLINE
  5
A7
330
7B
100
AcDbEntity
  8
0
  6
Continuous
 62
     0
370
     0
100
AcDbPolyline
 90
       16
 70
     0
 43
0.0
 10
194.77597
 20
325.132568
 10
194.781342
 20
325.161041
 10
194.786453
 20
325.255127
 10
194.791519
 20
325.416687
 10
194.7966
 20
325.652771
 10
194.801559
 20
325.966248
 10
194.80629
 20
326.356842
 10
194.810669
 20
326.820648
 10
194.81456
 20
327.350037
 10
194.817856
 20
327.933929
 10
194.820511
 20
328.558655
 10
194.822449
 20
329.208862
 10
194.823685
 20
329.868805
 10
194.824234
 20
330.523499
 10
194.824127
 20
331.159729
 10
194.823441
 20
331.774445
  0
LINE
  5
A8
330
7B
100
AcDbEntity
  8
0
  6
Continuous
 62
     0
370
     0
100
AcDbLine
 10
195.621847
 20
331.847147
 30
0.0
 11
195.571593
 21
336.73866
 31
0.0
  0
LWPOLYLINE
  5
A9
330
7B
100
AcDbEntity
  8
0
  6
Continuous
 62
     0
370
     0
100
AcDbPolyline
 90
       17
 70
     0
 43
0.0
 10
195.571594
 20
324.738647
 10
195.57692
 20
324.77121
 10
195.582016
 20
324.864166
 10
195.587051
 20
325.019043
 10
195.592102
 20
325.242279
 10
195.597076
 20
325.536804
 10
195.601868
 20
325.902985
 10
195.606354
 20
326.338409
 10
195.610443
 20
326.837708
 10
195.614044
 20
327.392548
 10
195.61705
 20
327.992279
 10
195.619446
 20
328.624329
 10
195.621185
 20
329.275269
 10
195.622269
 20
329.931702
 10
195.622711
 20
330.580963
 10
195.622574
 20
331.211975
 10
195.621841
 20
331.847137
  0
LWPOLYLINE
  5
AA
330
7B
100
AcDbEntity
  8
0
  6
Continuous
 62
     0
370
     0
100
AcDbPolyline
 90
       16
 70
     0
 43
0.0
 10
237.370926
 20
335.881866
 10
237.375824
 20
335.854553
 10
237.380478
 20
335.7677
 10
237.385117
 20
335.619446
 10
237.389755
 20
335.403442
 10
237.394287
 20
335.117157
 10
237.398605
 20
334.760773
 10
237.402588
 20
334.33786
 10
237.406143
 20
333.855286
 10
237.40918
 20
333.322968
 10
237.411606
 20
332.753326
 10
237.413406
 20
332.160156
 10
237.414551
 20
331.557739
 10
237.41507
 20
330.959625
 10
237.415009
 20
330.377869
 10
237.414352
 20
329.788422
  0
LINE
  5
AB
330
7B
100
AcDbEntity
  8
0
  6
Continuous
 62
     0
370
     0
100
AcDbLine
 10
237.414356
 20
329.788429
 30
0.0
 11
237.37092
 21
325.595448
 31
0.0
  0
LWPOLYLINE
  5
AC
330
7B
100
AcDbEntity
  8
0
  6
Continuous
 62
     0
370
     0
100
AcDbPolyline
 90
       13
 70
     0
 43
0.0
 10
233.142807
 20
334.138672
 10
233.146805
 20
334.106323
 10
233.150604
 20
334.013458
 10
233.154419
 20
333.85379
 10
233.158157
 20
333.62262
 10
233.161667
 20
333.320068
 10
233.16481
 20
332.951294
 10
233.16745
 20
332.526733
 10
233.169495
 20
332.061096
 10
233.170898
 20
331.571808
 10
233.171631
 20
331.076813
 10
233.171753
 20
330.592682
 10
233.17128
 20
330.110504
  0
LINE
  5
AD
330
7B
100
AcDbEntity
  8
0
  6
Continuous
 62
     0
370
     0
100
AcDbLine
 10
233.171281
 20
330.110518
 30
0.0
 11
233.142813
 21
327.33866
 31
0.0
  0
LINE
  5
AE
330
7B
100
AcDbEntity
  8
0
  6
Continuous
 62
     0
370
     0
100
AcDbLine
 10
232.775355
 20
334.13866
 30
0.0
 11
232.803823
 21
330.110518
 31
0.0
  0
LINE
  5
AF
330
7B
100
AcDbEntity
  8
0
  6
Continuous
 62
     0
370
     0
100
AcDbLine
 10
232.803823
 20
330.110518
 30
0.0
 11
232.775359
 21
327.33866
 31
0.0
  0
LINE
  5
B0
330
7B
100
AcDbEntity
  8
0
  6
Continuous
 62
     0
370
    30
100
AcDbLine
 10
231.875413
 20
335.130868
 30
0.0
 11
231.912164
 21
329.927201
 31
0.0
  0
LINE
  5
B1
330
7B
100
AcDbEntity
  8
0
  6
Continuous
 62
     0
370
    30
100
AcDbLine
 10
231.911391
 20
329.944245
 30
0.0
 11
231.874522
 21
335.037432
 31
0.0
  0
LINE
  5
B2
330
7B
100
AcDbEntity
  8
0
  6
Continuous
 62
     0
370
     0
100
AcDbLine
 10
228.689536
 20
335.409652
 30
0.0
 11
228.728623
 21
329.875705
 31
0.0
  0
LINE
  5
B3
330
7B
100
AcDbEntity
  8
0
  6
Continuous
 62
     0
370
     0
100
AcDbLine
 10
228.728623
 20
329.875705
 30
0.0
 11
228.689542
 21
326.067669
 31
0.0
  0
LINE
  5
B4
330
7B
100
AcDbEntity
  8
0
  6
Continuous
 62
     0
370
     0
100
AcDbLine
 10
226.990951
 20
336.344741
 30
0.0
 11
227.037361
 21
329.702885
 31
0.0
  0
LINE
  5
B5
330
7B
100
AcDbEntity
  8
0
  6
Continuous
 62
     0
370
     0
100
AcDbLine
 10
227.037361
 20
329.702885
 30
0.0
 11
226.990952
 21
325.132581
 31
0.0
  0
LINE
  5
B6
330
7B
100
AcDbEntity
  8
0
  6
Continuous
 62
     0
370
     0
100
AcDbLine
 10
226.19531
 20
336.73866
 30
0.0
 11
226.245548
 21
329.630174
 31
0.0
  0
LINE
  5
B7
330
7B
100
AcDbEntity
  8
0
  6
Continuous
 62
     0
370
     0
100
AcDbLine
 10
226.245548
 20
329.630174
 30
0.0
 11
226.195301
 21
324.73866
 31
0.0
  0
LINE
  5
B8
330
7B
100
AcDbEntity
  8
0
  6
Continuous
 62
     0
370
     0
100
AcDbLine
 10
196.42257
 20
338.089868
 30
0.0
 11
225.344308
 21
338.089868
 31
0.0
  0
LINE
  5
B9
330
7B
100
AcDbEntity
  8
0
  6
Continuous
 62
     0
370
     0
100
AcDbLine
 10
196.373659
 20
323.54321
 30
0.0
 11
225.393219
 21
323.54321
 31
0.0
  0
ARC
  5
BA
330
7B
100
AcDbEntity
  8
0
  6
Continuous
 62
     0
370
    30
100
AcDbCircle
 10
276.973943
 20
331.179647
 30
0.0
 40
51.70393049002449
100
AcDbArc
 50
180.488691
 51
187.323743
  0
ARC
  5
BB
330
7B
100
AcDbEntity
  8
0
  6
Continuous
 62
     0
370
    30
100
AcDbCircle
 10
276.973194
 20
330.298071
 30
0.0
 40
51.70317719970988
100
AcDbArc
 50
172.676604
 51
179.511752
  0
ARC
  5
BC
330
7B
100
AcDbEntity
  8
0
  6
Continuous
 62
     0
370
    30
100
AcDbCircle
 10
161.098353
 20
330.618028
 30
0.0
 40
35.50162747617586
100
AcDbArc
 50
350.301359
 51
0.194681
  0
ARC
  5
BD
330
7B
100
AcDbEntity
  8
0
  6
Continuous
 62
     0
370
    30
100
AcDbCircle
 10
161.098351
 20
330.858994
 30
0.0
 40
35.50162862618507
100
AcDbArc
 50
359.805786
 51
9.698768
  0
LINE
  5
BE
330
7B
100
AcDbEntity
  8
0
  6
Continuous
 62
     0
370
     0
100
AcDbLine
 10
196.70504
 20
323.213106
 30
0.0
 11
225.061838
 21
323.213106
 31
0.0
  0
LWPOLYLINE
  5
BF
330
7B
100
AcDbEntity
  8
0
  6
Continuous
 62
     0
370
    30
100
AcDbPolyline
 90
       30
 70
     0
 43
0.0
 10
217.274734
 20
320.832275
 10
217.239639
 20
320.832123
 10
217.126923
 20
320.832001
 10
216.94072
 20
320.83194
 10
216.685181
 20
320.831879
 10
216.364471
 20
320.831848
 10
215.982742
 20
320.831848
 10
215.544128
 20
320.831848
 10
215.052811
 20
320.831848
 10
214.512909
 20
320.831848
 10
213.928619
 20
320.831879
 10
213.30571
 20
320.831879
 10
212.652435
 20
320.831879
 10
211.97728
 20
320.831879
 10
211.288742
 20
320.831879
 10
210.595276
 20
320.831879
 10
209.90538
 20
320.831879
 10
209.227539
 20
320.831879
 10
208.570236
 20
320.831879
 10
207.94194
 20
320.831879
 10
207.350952
 20
320.831848
 10
206.803146
 20
320.831848
 10
206.302856
 20
320.831848
 10
205.854385
 20
320.831848
 10
205.462021
 20
320.831879
 10
205.130066
 20
320.831909
 10
204.862823
 20
320.83194
 10
204.664566
 20
320.832031
 10
204.539597
 20
320.832123
 10
204.492142
 20
320.832275
  0
LINE
  5
C0
330
7B
100
AcDbEntity
  8
0
  6
Continuous
 62
     0
370
    30
100
AcDbLine
 10
204.633666
 20
320.641002
 30
0.0
 11
217.133212
 21
320.641002
 31
0.0
  0
LINE
  5
C1
330
7B
100
AcDbEntity
  8
0
  6
Continuous
 62
     0
370
    30
100
AcDbLine
 10
204.633439
 20
320.641002
 30
0.0
 11
204.633439
 21
317.838608
 31
0.0
  0
LINE
  5
C2
330
7B
100
AcDbEntity
  8
0
  6
Continuous
 62
     0
370
    30
100
AcDbLine
 10
225.062353
 20
323.213106
 30
0.0
 11
222.584621
 21
322.455588
 31
0.0
  0
LINE
  5
C3
330
7B
100
AcDbEntity
  8
0
  6
Continuous
 62
     0
370
    30
100
AcDbLine
 10
204.491913
 20
320.832263
 30
0.0
 11
196.704525
 21
323.213106
 31
0.0
  0
LINE
  5
C4
330
7B
100
AcDbEntity
  8
0
  6
Continuous
 62
     0
370
    30
100
AcDbLine
 10
217.274965
 20
320.832263
 30
0.0
 11
217.521223
 21
320.907552
 31
0.0
  0
LINE
  5
C5
330
7B
100
AcDbEntity
  8
0
  6
Continuous
 62
     0
370
    30
100
AcDbLine
 10
225.344833
 20
338.089868
 30
0.0
 11
225.692927
 21
336.88635
 31
0.0
  0
LINE
  5
C6
330
7B
100
AcDbEntity
  8
0
  6
Continuous
 62
     0
370
    30
100
AcDbLine
 10
196.422045
 20
338.089868
 30
0.0
 11
196.0743
 21
336.887686
 31
0.0
  0
LINE
  5
C7
330
7B
100
AcDbEntity
  8
0
  6
Continuous
 62
     0
370
    30
100
AcDbLine
 10
196.373132
 20
323.54321
 30
0.0
 11
196.074264
 21
324.589602
 31
0.0
  0
LINE
  5
C8
330
7B
100
AcDbEntity
  8
0
  6
Continuous
 62
     0
370
    30
100
AcDbLine
 10
225.393746
 20
323.54321
 30
0.0
 11
225.69297
 21
324.590965
 31
0.0
  0
CIRCLE
  5
C9
330
7B
100
AcDbEntity
  8
0
  6
Continuous
 62
     0
370
    30
100
AcDbCircle
 10
211.152667
 20
330.73866
 30
0.0
 40
7.249999999995739
  0
LINE
  5
CA
330
7B
100
AcDbEntity
  8
0
  6
Continuous
 62
     0
370
    30
100
AcDbLine
 10
226.19531
 20
324.73866
 30
0.0
 11
225.68178
 21
324.73866
 31
0.0
  0
LINE
  5
CB
330
7B
100
AcDbEntity
  8
0
  6
Continuous
 62
     0
370
    30
100
AcDbLine
 10
226.19531
 20
336.73866
 30
0.0
 11
225.681729
 21
336.73866
 31
0.0
  0
ARC
  5
CC
330
7B
100
AcDbEntity
  8
0
  6
Continuous
 62
     0
370
    30
100
AcDbCircle
 10
226.195108
 20
325.739548
 30
0.0
 40
1.000887738356349
100
AcDbArc
 50
270.011535
 51
322.668268
  0
ARC
  5
CD
330
7B
100
AcDbEntity
  8
0
  6
Continuous
 62
     0
370
    30
100
AcDbCircle
 10
226.195108
 20
335.737772
 30
0.0
 40
1.000887739388721
100
AcDbArc
 50
37.331732
 51
89.988465
  0
ARC
  5
CE
330
7B
100
AcDbEntity
  8
0
  6
Continuous
 62
     0
370
    30
100
AcDbCircle
 10
228.899063
 20
323.676783
 30
0.0
 40
2.400048849280379
100
AcDbArc
 50
95.008212
 51
142.658098
  0
ARC
  5
CF
330
7B
100
AcDbEntity
  8
0
  6
Continuous
 62
     0
370
    30
100
AcDbCircle
 10
228.898574
 20
337.799654
 30
0.0
 40
2.399126494015873
100
AcDbArc
 50
218.268993
 51
265.00158
  0
LINE
  5
D0
330
7B
100
AcDbEntity
  8
0
  6
Continuous
 62
     0
370
    30
100
AcDbLine
 10
231.875415
 20
326.346407
 30
0.0
 11
228.689542
 21
326.067669
 31
0.0
  0
LINE
  5
D1
330
7B
100
AcDbEntity
  8
0
  6
Continuous
 62
     0
370
    30
100
AcDbLine
 10
231.875415
 20
335.130913
 30
0.0
 11
228.689542
 21
335.409651
 31
0.0
  0
ARC
  5
D2
330
7B
100
AcDbEntity
  8
0
  6
Continuous
 62
     0
370
    30
100
AcDbCircle
 10
232.770386
 20
326.446785
 30
0.0
 40
0.8918887831624314
100
AcDbArc
 50
89.68082
 51
174.641917
  0
ARC
  5
D3
330
7B
100
AcDbEntity
  8
0
  6
Continuous
 62
     0
370
    30
100
AcDbCircle
 10
232.776664
 20
335.040337
 30
0.0
 40
0.9016774852344095
100
AcDbArc
 50
189.598518
 51
269.916835
  0
ARC
  5
D4
330
7B
100
AcDbEntity
  8
0
  6
Continuous
 62
     0
370
    30
100
AcDbCircle
 10
233.141937
 20
321.337358
 30
0.0
 40
6.001301937016469
100
AcDbArc
 50
45.1965
 51
89.99164
  0
ARC
  5
D5
330
7B
100
AcDbEntity
  8
0
  6
Continuous
 62
     0
370
    30
100
AcDbCircle
 10
233.141937
 20
340.139962
 30
0.0
 40
6.001301934715363
100
AcDbArc
 50
270.00836
 51
314.8035
  0
ARC
  5
D6
330
7B
100
AcDbEntity
  8
0
  6
Continuous
 62
     0
370
    30
100
AcDbCircle
 10
242.480703
 20
330.738664
 30
0.0
 40
7.249998127235697
100
AcDbArc
 50
2.550196
 51
134.81322
  0
ARC
  5
D7
330
7B
100
AcDbEntity
  8
0
  6
Continuous
 62
     0
370
    30
100
AcDbCircle
 10
242.480704
 20
330.738656
 30
0.0
 40
7.249998104309621
100
AcDbArc
 50
225.18678
 51
357.450091
  0
LINE
  5
D8
330
7B
100
AcDbEntity
  8
0
  6
Continuous
 62
     0
370
    30
100
AcDbLine
 10
195.571609
 20
324.73866
 30
0.0
 11
196.115594
 21
324.73866
 31
0.0
  0
LINE
  5
D9
330
7B
100
AcDbEntity
  8
0
  6
Continuous
 62
     0
370
    30
100
AcDbLine
 10
195.571609
 20
336.73866
 30
0.0
 11
196.115603
 21
336.73866
 31
0.0
  0
ARC
  5
DA
330
7B
100
AcDbEntity
  8
0
  6
Continuous
 62
     0
370
    30
100
AcDbCircle
 10
195.57181
 20
325.739548
 30
0.0
 40
1.000887738353982
100
AcDbArc
 50
217.331732
 51
269.988465
  0
ARC
  5
DB
330
7B
100
AcDbEntity
  8
0
  6
Continuous
 62
     0
370
    30
100
AcDbCircle
 10
195.57181
 20
335.737772
 30
0.0
 40
1.000887739391153
100
AcDbArc
 50
90.011535
 51
142.668268
  0
ARC
  5
DC
330
7B
100
AcDbEntity
  8
0
  6
Continuous
 62
     0
370
    30
100
AcDbCircle
 10
192.867856
 20
323.676783
 30
0.0
 40
2.400048849280167
100
AcDbArc
 50
37.341902
 51
84.991788
  0
ARC
  5
DD
330
7B
100
AcDbEntity
  8
0
  6
Continuous
 62
     0
370
    30
100
AcDbCircle
 10
192.868345
 20
337.799654
 30
0.0
 40
2.39912649401592
100
AcDbArc
 50
274.99842
 51
321.731007
  0
LINE
  5
DE
330
7B
100
AcDbEntity
  8
0
  6
Continuous
 62
     0
370
    30
100
AcDbLine
 10
189.891503
 20
326.346407
 30
0.0
 11
193.077376
 21
326.067669
 31
0.0
  0
LINE
  5
DF
330
7B
100
AcDbEntity
  8
0
  6
Continuous
 62
     0
370
    30
100
AcDbLine
 10
189.891503
 20
335.130913
 30
0.0
 11
193.077376
 21
335.409651
 31
0.0
  0
ARC
  5
E0
330
7B
100
AcDbEntity
  8
0
  6
Continuous
 62
     0
370
    30
100
AcDbCircle
 10
188.996532
 20
326.446785
 30
0.0
 40
0.8918887831618814
100
AcDbArc
 50
5.358083
 51
90.31918
  0
ARC
  5
E1
330
7B
100
AcDbEntity
  8
0
  6
Continuous
 62
     0
370
    30
100
AcDbCircle
 10
188.99652
 20
335.030553
 30
0.0
 40
0.8919068730048417
100
AcDbArc
 50
269.681621
 51
354.642131
  0
ARC
  5
E2
330
7B
100
AcDbEntity
  8
0
  6
Continuous
 62
     0
370
    30
100
AcDbCircle
 10
188.624982
 20
321.337358
 30
0.0
 40
6.001301937016507
100
AcDbArc
 50
90.00836
 51
134.8035
  0
ARC
  5
E3
330
7B
100
AcDbEntity
  8
0
  6
Continuous
 62
     0
370
    30
100
AcDbCircle
 10
188.624982
 20
340.139962
 30
0.0
 40
6.001301934714515
100
AcDbArc
 50
225.1965
 51
269.99164
  0
ARC
  5
E4
330
7B
100
AcDbEntity
  8
0
  6
Continuous
 62
     0
370
    30
100
AcDbCircle
 10
179.286215
 20
330.738664
 30
0.0
 40
7.249998127235667
100
AcDbArc
 50
45.18678
 51
177.449804
  0
ARC
  5
E5
330
7B
100
AcDbEntity
  8
0
  6
Continuous
 62
     0
370
    30
100
AcDbCircle
 10
179.286215
 20
330.738656
 30
0.0
 40
7.249998104309618
100
AcDbArc
 50
182.549909
 51
314.81322
  0
LINE
  5
E6
330
7B
100
AcDbEntity
  8
0
  6
Continuous
 62
     0
370
    30
100
AcDbLine
 10
196.499196
 20
340.650751
 30
0.0
 11
196.412978
 21
339.005605
 31
0.0
  0
LINE
  5
E7
330
7B
100
AcDbEntity
  8
0
  6
Continuous
 62
     0
370
    30
100
AcDbLine
 10
225.355687
 20
338.964779
 30
0.0
 11
225.267329
 21
340.650751
 31
0.0
  0
ARC
  5
E8
330
7B
100
AcDbEntity
  8
0
  6
Continuous
 62
     0
370
    30
100
AcDbCircle
 10
195.998117
 20
344.781376
 30
0.0
 40
3.999972062089809
100
AcDbArc
 50
281.012406
 51
354.107655
  0
ARC
  5
E9
330
7B
100
AcDbEntity
  8
0
  6
Continuous
 62
     0
370
    30
100
AcDbCircle
 10
225.768588
 20
344.781544
 30
0.0
 40
4.000168104365375
100
AcDbArc
 50
185.894472
 51
260.392614
  0
ARC
  5
EA
330
7B
100
AcDbEntity
  8
0
  6
Continuous
 62
     0
370
    30
100
AcDbCircle
 10
200.77293
 20
344.288385
 30
0.0
 40
0.80022322568987
100
AcDbArc
 50
90.014417
 51
174.092942
  0
ARC
  5
EB
330
7B
100
AcDbEntity
  8
0
  6
Continuous
 62
     0
370
    30
100
AcDbCircle
 10
220.993595
 20
344.288385
 30
0.0
 40
0.8002232256905062
100
AcDbArc
 50
5.907058
 51
89.985583
  0
LINE
  5
EC
330
7B
100
AcDbEntity
  8
0
  6
Continuous
 62
     0
370
    30
100
AcDbLine
 10
183.383262
 20
278.403254
 30
0.0
 11
183.383262
 21
271.838608
 31
0.0
  0
LINE
  5
ED
330
7B
100
AcDbEntity
  8
0
  6
Continuous
 62
     0
370
    30
100
AcDbLine
 10
238.383263
 20
278.403254
 30
0.0
 11
238.383263
 21
271.838608
 31
0.0
  0
ARC
  5
EE
330
7B
100
AcDbEntity
  8
0
  6
Continuous
 62
     0
370
    30
100
AcDbCircle
 10
240.061987
 20
292.487066
 30
0.0
 40
13.75133673415089
100
AcDbArc
 50
195.879807
 51
261.206096
  0
ARC
  5
EF
330
7B
100
AcDbEntity
  8
0
  6
Continuous
 62
     0
370
    30
100
AcDbCircle
 10
181.704539
 20
292.487066
 30
0.0
 40
13.75133673415086
100
AcDbArc
 50
278.793904
 51
344.120193
  0
ARC
  5
F0
330
7B
100
AcDbEntity
  8
0
  6
Continuous
 62
     0
370
    30
100
AcDbCircle
 10
36.2226
 20
333.862377
 30
0.0
 40
165.0024881865781
100
AcDbArc
 50
344.123827
 51
352.527459
  0
ARC
  5
F1
330
7B
100
AcDbEntity
  8
0
  6
Continuous
 62
     0
370
    30
100
AcDbCircle
 10
385.543925
 20
333.862377
 30
0.0
 40
165.0024881865811
100
AcDbArc
 50
187.472541
 51
195.876173
  0
ARC
  5
F2
330
7B
100
AcDbEntity
  8
0
  6
Continuous
 62
     0
370
    30
100
AcDbCircle
 10
200.382869
 20
314.339002
 30
0.0
 40
1.5003941655639
100
AcDbArc
 50
270.01505
 51
359.98495
  0
ARC
  5
F3
330
7B
100
AcDbEntity
  8
0
  6
Continuous
 62
     0
370
    30
100
AcDbCircle
 10
221.363255
 20
314.332257
 30
0.0
 40
1.48000611705547
100
AcDbArc
 50
179.754122
 51
253.140855
  0
LINE
  5
F4
330
7B
100
AcDbEntity
  8
0
  6
Continuous
 62
     0
370
    30
100
AcDbLine
 10
219.883263
 20
317.838608
 30
0.0
 11
219.883263
 21
314.338608
 31
0.0
  0
LINE
  5
F5
330
7B
100
AcDbEntity
  8
0
  6
Continuous
 62
     0
370
    30
100
AcDbLine
 10
201.883263
 20
314.338608
 30
0.0
 11
201.883263
 21
317.838608
 31
0.0
  0
ARC
  5
F6
330
7B
100
AcDbEntity
  8
0
  6
Continuous
 62
     0
370
    30
100
AcDbCircle
 10
210.882044
 20
332.936617
 30
0.0
 40
15.00375960469292
100
AcDbArc
 50
54.089066
 51
89.991368
  0
ENDBLK
  5
F8
330
7B
100
AcDbEntity
  8
0
100
AcDbBlockEnd
  0
BLOCK
  5
17C
330
FA
100
AcDbEntity
  8
0
100
AcDbBlockBegin
  2
b
 70
     0
 10
144.350449
 20
119.896828
 30
0.0
  3
b
  1

  0
CIRCLE
  5
FB
330
FA
100
AcDbEntity
  8
0
  6
Continuous
 62
     0
370
    30
100
AcDbCircle
 10
210.883263
 20
163.92309
 30
0.0
 40
8.798890428219662
  0
ARC
  5
FC
330
FA
100
AcDbEntity
  8
0
  6
Continuous
 62
     0
370
     0
100
AcDbCircle
 10
210.883263
 20
163.906529
 30
0.0
 40
15.95216863363211
100
AcDbArc
 50
112.581208
 51
158.394094
  0
ARC
  5
FD
330
FA
100
AcDbEntity
  8
0
  6
Continuous
 62
     0
370
     0
100
AcDbCircle
 10
210.883263
 20
163.906529
 30
0.0
 40
15.95216863363261
100
AcDbArc
 50
22.5822
 51
68.393557
  0
ARC
  5
FE
330
FA
100
AcDbEntity
  8
0
  6
Continuous
 62
     0
370
     0
100
AcDbCircle
 10
210.883263
 20
163.906529
 30
0.0
 40
15.95216863363189
100
AcDbArc
 50
292.582737
 51
338.39455
  0
ARC
  5
FF
330
FA
100
AcDbEntity
  8
0
  6
Continuous
 62
     0
370
     0
100
AcDbCircle
 10
210.883263
 20
163.906529
 30
0.0
 40
15.95216863363187
100
AcDbArc
 50
202.581744
 51
248.395086
  0
ARC
  5
100
330
FA
100
AcDbEntity
  8
0
  6
Continuous
 62
     0
370
    30
100
AcDbCircle
 10
210.883263
 20
163.906529
 30
0.0
 40
27.0764101519204
100
AcDbArc
 50
101.60553
 51
162.721363
  0
ARC
  5
101
330
FA
100
AcDbEntity
  8
0
  6
Continuous
 62
     0
370
    30
100
AcDbCircle
 10
210.883263
 20
163.906529
 30
0.0
 40
27.07641015192038
100
AcDbArc
 50
11.605753
 51
79.370047
  0
LINE
  5
102
330
FA
100
AcDbEntity
  8
0
  6
Continuous
 62
     0
370
    30
100
AcDbLine
 10
236.737758
 20
155.864325
 30
0.0
 11
237.495077
 21
158.912202
 31
0.0
  0
ARC
  5
103
330
FA
100
AcDbEntity
  8
0
  6
Continuous
 62
     0
370
    30
100
AcDbCircle
 10
210.883263
 20
163.906529
 30
0.0
 40
27.07641015192038
100
AcDbArc
 50
281.60645
 51
342.721363
  0
ARC
  5
104
330
FA
100
AcDbEntity
  8
0
  6
Continuous
 62
     0
370
    30
100
AcDbCircle
 10
210.883263
 20
163.906529
 30
0.0
 40
27.07641015192045
100
AcDbArc
 50
191.606227
 51
259.370558
  0
LINE
  5
105
330
FA
100
AcDbEntity
  8
0
  6
Continuous
 62
     0
370
    30
100
AcDbLine
 10
185.028767
 20
171.948734
 30
0.0
 11
184.271526
 21
168.901275
 31
0.0
  0
LINE
  5
106
330
FA
100
AcDbEntity
  8
0
  6
Continuous
 62
     0
370
    30
100
AcDbLine
 10
183.902717
 20
169.226322
 30
0.0
 11
184.624293
 21
172.074548
 31
0.0
  0
ARC
  5
107
330
FA
100
AcDbEntity
  8
0
  6
Continuous
 62
     0
370
    30
100
AcDbCircle
 10
210.883263
 20
163.906529
 30
0.0
 40
27.50000060101104
100
AcDbArc
 50
192.130095
 51
258.846659
  0
ARC
  5
108
330
FA
100
AcDbEntity
  8
0
  6
Continuous
 62
     0
370
    30
100
AcDbCircle
 10
210.883263
 20
163.906529
 30
0.0
 40
27.50000060101111
100
AcDbArc
 50
282.130349
 51
342.721367
  0
LINE
  5
109
330
FA
100
AcDbEntity
  8
0
  6
Continuous
 62
     0
370
    30
100
AcDbLine
 10
237.863884
 20
158.587119
 30
0.0
 11
237.142232
 21
155.738509
 31
0.0
  0
ARC
  5
10A
330
FA
100
AcDbEntity
  8
0
  6
Continuous
 62
     0
370
    30
100
AcDbCircle
 10
210.883263
 20
163.906529
 30
0.0
 40
27.50000060101104
100
AcDbArc
 50
12.12971
 51
78.846122
  0
ARC
  5
10B
330
FA
100
AcDbEntity
  8
0
  6
Continuous
 62
     0
370
    30
100
AcDbCircle
 10
210.883263
 20
163.906529
 30
0.0
 40
27.50000060101096
100
AcDbArc
 50
102.129455
 51
162.721363
  0
ARC
  5
10C
330
FA
100
AcDbEntity
  8
0
  6
Continuous
 62
     0
370
     0
100
AcDbCircle
 10
210.883263
 20
163.906526
 30
0.0
 40
10.9063069637465
100
AcDbArc
 50
83.940912
 51
263.940912
  0
ARC
  5
10D
330
FA
100
AcDbEntity
  8
0
  6
Continuous
 62
     0
370
     0
100
AcDbCircle
 10
210.883263
 20
163.906526
 30
0.0
 40
10.9063069637465
100
AcDbArc
 50
263.940912
 51
83.940912
  0
ARC
  5
10E
330
FA
100
AcDbEntity
  8
0
  6
Continuous
 62
     0
370
    30
100
AcDbCircle
 10
210.883263
 20
163.906526
 30
0.0
 40
10.11053415505075
100
AcDbArc
 50
263.940912
 51
83.940912
  0
ARC
  5
10F
330
FA
100
AcDbEntity
  8
0
  6
Continuous
 62
     0
370
    30
100
AcDbCircle
 10
210.883263
 20
163.906526
 30
0.0
 40
10.11053415505076
100
AcDbArc
 50
83.940912
 51
263.940912
  0
ARC
  5
110
330
FA
100
AcDbEntity
  8
0
  6
Continuous
 62
     0
370
     0
100
AcDbCircle
 10
210.883263
 20
163.906526
 30
0.0
 40
14.21771363397426
100
AcDbArc
 50
83.940912
 51
263.940912
  0
ARC
  5
111
330
FA
100
AcDbEntity
  8
0
  6
Continuous
 62
     0
370
     0
100
AcDbCircle
 10
210.883263
 20
163.906526
 30
0.0
 40
14.21771363397426
100
AcDbArc
 50
263.940912
 51
83.940912
  0
ARC
  5
112
330
FA
100
AcDbEntity
  8
0
  6
Continuous
 62
     0
370
     0
100
AcDbCircle
 10
210.883263
 20
163.906526
 30
0.0
 40
14.38406667226271
100
AcDbArc
 50
83.940912
 51
263.940912
  0
ARC
  5
113
330
FA
100
AcDbEntity
  8
0
  6
Continuous
 62
     0
370
     0
100
AcDbCircle
 10
210.883263
 20
163.906526
 30
0.0
 40
14.3840666722627
100
AcDbArc
 50
263.940912
 51
83.940912
  0
ARC
  5
114
330
FA
100
AcDbEntity
  8
0
  6
Continuous
 62
     0
370
    30
100
AcDbCircle
 10
210.883245
 20
163.90636
 30
0.0
 40
9.350000002981282
100
AcDbArc
 50
353.941935
 51
173.939889
  0
ARC
  5
115
330
FA
100
AcDbEntity
  8
0
  6
Continuous
 62
     0
370
    30
100
AcDbCircle
 10
210.88328
 20
163.906692
 30
0.0
 40
9.350000002981282
100
AcDbArc
 50
173.941935
 51
353.939889
  0
LINE
  5
116
330
FA
100
AcDbEntity
  8
0
  6
Continuous
 62
     0
370
     0
100
AcDbLine
 10
184.438693
 20
158.626238
 30
0.0
 11
184.351808
 21
168.824121
 31
0.0
  0
LINE
  5
117
330
FA
100
AcDbEntity
  8
0
  6
Continuous
 62
     0
370
     0
100
AcDbLine
 10
188.652574
 20
160.375587
 30
0.0
 11
188.595139
 21
167.116815
 31
0.0
  0
LINE
  5
118
330
FA
100
AcDbEntity
  8
0
  6
Continuous
 62
     0
370
     0
100
AcDbLine
 10
189.020032
 20
160.378718
 30
0.0
 11
188.962597
 21
167.119946
 31
0.0
  0
LINE
  5
119
330
FA
100
AcDbEntity
  8
0
  6
Continuous
 62
     0
370
    30
100
AcDbLine
 10
189.928308
 20
159.411247
 30
0.0
 11
189.854111
 21
168.119809
 31
0.0
  0
LINE
  5
11A
330
FA
100
AcDbEntity
  8
0
  6
Continuous
 62
     0
370
     0
100
AcDbLine
 10
193.116516
 20
159.164461
 30
0.0
 11
193.037611
 21
168.425703
 31
0.0
  0
LINE
  5
11B
330
FA
100
AcDbEntity
  8
0
  6
Continuous
 62
     0
370
     0
100
AcDbLine
 10
194.823443
 20
158.259636
 30
0.0
 11
194.728735
 21
169.375582
 31
0.0
  0
LINE
  5
11C
330
FA
100
AcDbEntity
  8
0
  6
Continuous
 62
     0
370
     0
100
AcDbLine
 10
195.621847
 20
157.879629
 30
0.0
 11
195.520491
 21
169.775913
 31
0.0
  0
LINE
  5
11D
330
FA
100
AcDbEntity
  8
0
  6
Continuous
 62
     0
370
     0
100
AcDbLine
 10
195.622727
 20
157.776348
 30
0.0
 11
195.621847
 21
157.879629
 31
0.0
  0
LINE
  5
11E
330
FA
100
AcDbEntity
  8
0
  6
Continuous
 62
     0
370
     0
100
AcDbLine
 10
205.60311
 20
190.351353
 30
0.0
 11
215.800993
 21
190.438239
 31
0.0
  0
LINE
  5
11F
330
FA
100
AcDbEntity
  8
0
  6
Continuous
 62
     0
370
     0
100
AcDbLine
 10
207.352459
 20
186.137473
 30
0.0
 11
214.093687
 21
186.194908
 31
0.0
  0
LINE
  5
120
330
FA
100
AcDbEntity
  8
0
  6
Continuous
 62
     0
370
     0
100
AcDbLine
 10
207.35559
 20
185.770015
 30
0.0
 11
214.096818
 21
185.82745
 31
0.0
  0
LINE
  5
121
330
FA
100
AcDbEntity
  8
0
  6
Continuous
 62
     0
370
    30
100
AcDbLine
 10
206.388119
 20
184.861739
 30
0.0
 11
215.096681
 21
184.935936
 31
0.0
  0
LINE
  5
122
330
FA
100
AcDbEntity
  8
0
  6
Continuous
 62
     0
370
     0
100
AcDbLine
 10
206.141333
 20
181.673531
 30
0.0
 11
215.402575
 21
181.752436
 31
0.0
  0
LINE
  5
123
330
FA
100
AcDbEntity
  8
0
  6
Continuous
 62
     0
370
     0
100
AcDbLine
 10
205.236508
 20
179.966604
 30
0.0
 11
216.352454
 21
180.061311
 31
0.0
  0
LINE
  5
124
330
FA
100
AcDbEntity
  8
0
  6
Continuous
 62
     0
370
     0
100
AcDbLine
 10
204.856501
 20
179.1682
 30
0.0
 11
216.752785
 21
179.269556
 31
0.0
  0
LINE
  5
125
330
FA
100
AcDbEntity
  8
0
  6
Continuous
 62
     0
370
     0
100
AcDbLine
 10
204.75322
 20
179.16732
 30
0.0
 11
204.856501
 21
179.1682
 31
0.0
  0
ARC
  5
126
330
FA
100
AcDbEntity
  8
0
  6
Continuous
 62
     0
370
    30
100
AcDbCircle
 10
211.158159
 20
136.115663
 30
0.0
 40
42.62270091878891
100
AcDbArc
 50
82.508323
 51
98.491817
  0
LINE
  5
127
330
FA
100
AcDbEntity
  8
0
  6
Continuous
 62
     0
370
     0
100
AcDbLine
 10
237.328225
 20
169.186937
 30
0.0
 11
237.415111
 21
158.989053
 31
0.0
  0
LINE
  5
128
330
FA
100
AcDbEntity
  8
0
  6
Continuous
 62
     0
370
     0
100
AcDbLine
 10
233.114345
 20
167.437587
 30
0.0
 11
233.17178
 21
160.69636
 31
0.0
  0
LINE
  5
129
330
FA
100
AcDbEntity
  8
0
  6
Continuous
 62
     0
370
     0
100
AcDbLine
 10
232.746887
 20
167.434457
 30
0.0
 11
232.804322
 21
160.693229
 31
0.0
  0
LINE
  5
12A
330
FA
100
AcDbEntity
  8
0
  6
Continuous
 62
     0
370
    30
100
AcDbLine
 10
231.838611
 20
168.401927
 30
0.0
 11
231.912808
 21
159.693366
 31
0.0
  0
LINE
  5
12B
330
FA
100
AcDbEntity
  8
0
  6
Continuous
 62
     0
370
     0
100
AcDbLine
 10
228.650403
 20
168.648714
 30
0.0
 11
228.729308
 21
159.387472
 31
0.0
  0
LINE
  5
12C
330
FA
100
AcDbEntity
  8
0
  6
Continuous
 62
     0
370
     0
100
AcDbLine
 10
226.943476
 20
169.553538
 30
0.0
 11
227.038183
 21
158.437592
 31
0.0
  0
LINE
  5
12D
330
FA
100
AcDbEntity
  8
0
  6
Continuous
 62
     0
370
     0
100
AcDbLine
 10
226.145072
 20
169.933546
 30
0.0
 11
226.246428
 21
158.037262
 31
0.0
  0
LINE
  5
12E
330
FA
100
AcDbEntity
  8
0
  6
Continuous
 62
     0
370
     0
100
AcDbLine
 10
226.144192
 20
170.036826
 30
0.0
 11
226.145072
 21
169.933546
 31
0.0
  0
LINE
  5
12F
330
FA
100
AcDbEntity
  8
0
  6
Continuous
 62
     0
370
     0
100
AcDbLine
 10
216.163809
 20
137.461821
 30
0.0
 11
205.965925
 21
137.374936
 31
0.0
  0
LINE
  5
130
330
FA
100
AcDbEntity
  8
0
  6
Continuous
 62
     0
370
     0
100
AcDbLine
 10
214.414459
 20
141.675702
 30
0.0
 11
207.673232
 21
141.618267
 31
0.0
  0
LINE
  5
131
330
FA
100
AcDbEntity
  8
0
  6
Continuous
 62
     0
370
     0
100
AcDbLine
 10
214.411329
 20
142.04316
 30
0.0
 11
207.670101
 21
141.985725
 31
0.0
  0
LINE
  5
132
330
FA
100
AcDbEntity
  8
0
  6
Continuous
 62
     0
370
    30
100
AcDbLine
 10
215.378799
 20
142.951436
 30
0.0
 11
206.670238
 21
142.877239
 31
0.0
  0
LINE
  5
133
330
FA
100
AcDbEntity
  8
0
  6
Continuous
 62
     0
370
     0
100
AcDbLine
 10
215.625586
 20
146.139644
 30
0.0
 11
206.364344
 21
146.060739
 31
0.0
  0
LINE
  5
134
330
FA
100
AcDbEntity
  8
0
  6
Continuous
 62
     0
370
     0
100
AcDbLine
 10
216.53041
 20
147.846571
 30
0.0
 11
205.414464
 21
147.751863
 31
0.0
  0
LINE
  5
135
330
FA
100
AcDbEntity
  8
0
  6
Continuous
 62
     0
370
     0
100
AcDbLine
 10
216.910418
 20
148.644975
 30
0.0
 11
205.014134
 21
148.543619
 31
0.0
  0
LINE
  5
136
330
FA
100
AcDbEntity
  8
0
  6
Continuous
 62
     0
370
     0
100
AcDbLine
 10
217.013698
 20
148.645855
 30
0.0
 11
216.910418
 21
148.644975
 31
0.0
  0
ARC
  5
137
330
FA
100
AcDbEntity
  8
0
  6
Continuous
 62
     0
370
    30
100
AcDbCircle
 10
210.608636
 20
191.697388
 30
0.0
 40
42.62261163586746
100
AcDbArc
 50
262.508474
 51
278.492002
  0
ARC
  5
138
330
FA
100
AcDbEntity
  8
0
  6
Continuous
 62
     0
370
    30
100
AcDbCircle
 10
185.223105
 20
163.674055
 30
0.0
 40
40.47027100711875
100
AcDbArc
 50
0.507812
 51
9.249026
  0
ARC
  5
139
330
FA
100
AcDbEntity
  8
0
  6
Continuous
 62
     0
370
    30
100
AcDbCircle
 10
237.896165
 20
164.136741
 30
0.0
 40
41.8051300852713
100
AcDbArc
 50
172.028661
 51
188.947727
  0
LINE
  5
13A
330
FA
100
AcDbEntity
  8
0
  6
Continuous
 62
     0
370
    30
100
AcDbLine
 10
217.005065
 20
149.556848
 30
0.0
 11
216.903084
 21
149.540061
 31
0.0
  0
LINE
  5
13B
330
FA
100
AcDbEntity
  8
0
  6
Continuous
 62
     0
370
    30
100
AcDbLine
 10
216.902775
 20
149.54207
 30
0.0
 11
217.005065
 21
149.556848
 31
0.0
  0
LINE
  5
13C
330
FA
100
AcDbEntity
  8
0
  6
Continuous
 62
     0
370
    30
100
AcDbLine
 10
204.761854
 20
178.256312
 30
0.0
 11
204.863834
 21
178.273099
 31
0.0
  0
LINE
  5
13D
330
FA
100
AcDbEntity
  8
0
  6
Continuous
 62
     0
370
    30
100
AcDbLine
 10
204.864144
 20
178.27109
 30
0.0
 11
204.761854
 21
178.256312
 31
0.0
  0
ARC
  5
13E
330
FA
100
AcDbEntity
  8
0
  6
Continuous
 62
     0
370
    30
100
AcDbCircle
 10
157.561775
 20
161.72827
 30
0.0
 40
68.1689737818199
100
AcDbArc
 50
1.937266
 51
7.076851
  0
ARC
  5
13F
330
FA
100
AcDbEntity
  8
0
  6
Continuous
 62
     0
370
    30
100
AcDbCircle
 10
185.228099
 20
163.702474
 30
0.0
 40
40.46503553980501
100
AcDbArc
 50
351.725529
 51
0.467636
  0
ARC
  5
140
330
FA
100
AcDbEntity
  8
0
  6
Continuous
 62
     0
370
    30
100
AcDbCircle
 10
210.88342
 20
163.906552
 30
0.0
 40
15.60002573736904
100
AcDbArc
 50
23.707049
 51
67.8704
  0
ARC
  5
141
330
FA
100
AcDbEntity
  8
0
  6
Continuous
 62
     0
370
    30
100
AcDbCircle
 10
210.883419
 20
163.906591
 30
0.0
 40
15.60002578230431
100
AcDbArc
 50
293.102254
 51
337.2701
  0
ARC
  5
142
330
FA
100
AcDbEntity
  8
0
  6
Continuous
 62
     0
370
    30
100
AcDbCircle
 10
210.883459
 20
163.906552
 30
0.0
 40
15.60002578093376
100
AcDbArc
 50
113.10209
 51
157.270195
  0
ARC
  5
143
330
FA
100
AcDbEntity
  8
0
  6
Continuous
 62
     0
370
    30
100
AcDbCircle
 10
210.883419
 20
163.906551
 30
0.0
 40
15.59997420275453
100
AcDbArc
 50
203.706116
 51
247.87064
  0
LINE
  5
144
330
FA
100
AcDbEntity
  8
0
  6
Continuous
 62
     0
370
    30
100
AcDbLine
 10
217.013698
 20
148.645855
 30
0.0
 11
217.005949
 21
149.555381
 31
0.0
  0
LINE
  5
145
330
FA
100
AcDbEntity
  8
0
  6
Continuous
 62
     0
370
    30
100
AcDbLine
 10
205.014134
 20
148.543619
 30
0.0
 11
205.006375
 21
149.454291
 31
0.0
  0
ARC
  5
146
330
FA
100
AcDbEntity
  8
0
  6
Continuous
 62
     0
370
    30
100
AcDbCircle
 10
216.013377
 20
148.637508
 30
0.0
 40
1.000356323986739
100
AcDbArc
 50
307.830013
 51
0.478044
  0
ARC
  5
147
330
FA
100
AcDbEntity
  8
0
  6
Continuous
 62
     0
370
    30
100
AcDbCircle
 10
206.014452
 20
148.552318
 30
0.0
 40
1.000356323982015
100
AcDbArc
 50
180.498247
 51
233.146278
  0
ARC
  5
148
330
FA
100
AcDbEntity
  8
0
  6
Continuous
 62
     0
370
    30
100
AcDbCircle
 10
218.099398
 20
145.951076
 30
0.0
 40
2.400879582866361
100
AcDbArc
 50
127.829184
 51
175.478873
  0
ARC
  5
149
330
FA
100
AcDbEntity
  8
0
  6
Continuous
 62
     0
370
    30
100
AcDbCircle
 10
203.974507
 20
145.830732
 30
0.0
 40
2.400879582867777
100
AcDbArc
 50
5.497418
 51
53.147107
  0
LINE
  5
14A
330
FA
100
AcDbEntity
  8
0
  6
Continuous
 62
     0
370
    30
100
AcDbLine
 10
215.454405
 20
142.95208
 30
0.0
 11
215.705989
 21
146.140329
 31
0.0
  0
LINE
  5
14B
330
FA
100
AcDbEntity
  8
0
  6
Continuous
 62
     0
370
    30
100
AcDbLine
 10
206.670215
 20
142.877239
 30
0.0
 11
206.364344
 21
146.060739
 31
0.0
  0
ARC
  5
14C
330
FA
100
AcDbEntity
  8
0
  6
Continuous
 62
     0
370
    30
100
AcDbCircle
 10
215.37006
 20
142.051092
 30
0.0
 40
0.9002366628873344
100
AcDbArc
 50
90.503206
 51
180.473085
  0
ARC
  5
14D
330
FA
100
AcDbEntity
  8
0
  6
Continuous
 62
     0
370
    30
100
AcDbCircle
 10
206.769899
 20
141.977819
 30
0.0
 40
0.9002366628880841
100
AcDbArc
 50
0.503206
 51
90.473085
  0
ARC
  5
14E
330
FA
100
AcDbEntity
  8
0
  6
Continuous
 62
     0
370
    30
100
AcDbCircle
 10
220.474991
 20
141.728258
 30
0.0
 40
6.002231827880711
100
AcDbArc
 50
180.496929
 51
225.290483
  0
ARC
  5
14F
330
FA
100
AcDbEntity
  8
0
  6
Continuous
 62
     0
370
    30
100
AcDbCircle
 10
201.67121
 20
141.56805
 30
0.0
 40
6.002231827881658
100
AcDbArc
 50
315.685808
 51
0.479362
  0
ARC
  5
150
330
FA
100
AcDbEntity
  8
0
  6
Continuous
 62
     0
370
    30
100
AcDbCircle
 10
211.153979
 20
132.309904
 30
0.0
 40
7.250548183529437
100
AcDbArc
 50
135.687433
 51
270.477738
  0
ARC
  5
151
330
FA
100
AcDbEntity
  8
0
  6
Continuous
 62
     0
370
    30
100
AcDbCircle
 10
211.151345
 20
132.309882
 30
0.0
 40
7.250548183529487
100
AcDbArc
 50
270.498553
 51
45.288859
  0
LINE
  5
152
330
FA
100
AcDbEntity
  8
0
  6
Continuous
 62
     0
370
    30
100
AcDbLine
 10
226.144192
 20
170.036826
 30
0.0
 11
225.22234
 21
170.028972
 31
0.0
  0
LINE
  5
153
330
FA
100
AcDbEntity
  8
0
  6
Continuous
 62
     0
370
    30
100
AcDbLine
 10
226.246428
 20
158.037262
 30
0.0
 11
225.293579
 21
158.029144
 31
0.0
  0
ARC
  5
154
330
FA
100
AcDbEntity
  8
0
  6
Continuous
 62
     0
370
    30
100
AcDbCircle
 10
226.152538
 20
169.036505
 30
0.0
 40
1.000356323988972
100
AcDbArc
 50
37.830013
 51
90.478044
  0
ARC
  5
155
330
FA
100
AcDbEntity
  8
0
  6
Continuous
 62
     0
370
    30
100
AcDbCircle
 10
226.237729
 20
159.03758
 30
0.0
 40
1.000356323979156
100
AcDbArc
 50
270.498247
 51
323.146278
  0
ARC
  5
156
330
FA
100
AcDbEntity
  8
0
  6
Continuous
 62
     0
370
    30
100
AcDbCircle
 10
228.838971
 20
171.122526
 30
0.0
 40
2.400879582865555
100
AcDbArc
 50
217.829184
 51
265.478873
  0
ARC
  5
157
330
FA
100
AcDbEntity
  8
0
  6
Continuous
 62
     0
370
    30
100
AcDbCircle
 10
228.959314
 20
156.997635
 30
0.0
 40
2.400879582866872
100
AcDbArc
 50
95.497418
 51
143.147107
  0
LINE
  5
158
330
FA
100
AcDbEntity
  8
0
  6
Continuous
 62
     0
370
    30
100
AcDbLine
 10
231.837967
 20
168.477533
 30
0.0
 11
228.649718
 21
168.729117
 31
0.0
  0
LINE
  5
159
330
FA
100
AcDbEntity
  8
0
  6
Continuous
 62
     0
370
    30
100
AcDbLine
 10
231.912808
 20
159.693343
 30
0.0
 11
228.729308
 21
159.387472
 31
0.0
  0
ARC
  5
15A
330
FA
100
AcDbEntity
  8
0
  6
Continuous
 62
     0
370
    30
100
AcDbCircle
 10
232.738955
 20
168.393188
 30
0.0
 40
0.9002366628866756
100
AcDbArc
 50
180.503206
 51
270.473085
  0
ARC
  5
15B
330
FA
100
AcDbEntity
  8
0
  6
Continuous
 62
     0
370
    30
100
AcDbCircle
 10
232.812228
 20
159.793027
 30
0.0
 40
0.9002366628884547
100
AcDbArc
 50
90.503206
 51
180.473085
  0
ARC
  5
15C
330
FA
100
AcDbEntity
  8
0
  6
Continuous
 62
     0
370
    30
100
AcDbCircle
 10
233.061789
 20
173.498119
 30
0.0
 40
6.00223182788215
100
AcDbArc
 50
270.496929
 51
315.290483
  0
ARC
  5
15D
330
FA
100
AcDbEntity
  8
0
  6
Continuous
 62
     0
370
    30
100
AcDbCircle
 10
233.221996
 20
154.694338
 30
0.0
 40
6.002231827882046
100
AcDbArc
 50
45.685808
 51
90.479362
  0
ARC
  5
15E
330
FA
100
AcDbEntity
  8
0
  6
Continuous
 62
     0
370
    30
100
AcDbCircle
 10
242.480143
 20
164.177107
 30
0.0
 40
7.250548183529478
100
AcDbArc
 50
225.687433
 51
0.477738
  0
ARC
  5
15F
330
FA
100
AcDbEntity
  8
0
  6
Continuous
 62
     0
370
    30
100
AcDbCircle
 10
242.480165
 20
164.174473
 30
0.0
 40
7.250548183529554
100
AcDbArc
 50
0.498553
 51
135.288859
  0
LINE
  5
160
330
FA
100
AcDbEntity
  8
0
  6
Continuous
 62
     0
370
    30
100
AcDbLine
 10
204.75322
 20
179.16732
 30
0.0
 11
204.76097
 21
178.257779
 31
0.0
  0
LINE
  5
161
330
FA
100
AcDbEntity
  8
0
  6
Continuous
 62
     0
370
    30
100
AcDbLine
 10
216.752785
 20
179.269556
 30
0.0
 11
216.760544
 21
178.358835
 31
0.0
  0
ARC
  5
162
330
FA
100
AcDbEntity
  8
0
  6
Continuous
 62
     0
370
    30
100
AcDbCircle
 10
205.753542
 20
179.175666
 30
0.0
 40
1.00035632398934
100
AcDbArc
 50
127.830013
 51
180.478044
  0
ARC
  5
163
330
FA
100
AcDbEntity
  8
0
  6
Continuous
 62
     0
370
    30
100
AcDbCircle
 10
215.752466
 20
179.260857
 30
0.0
 40
1.00035632398226
100
AcDbArc
 50
0.498247
 51
53.146278
  0
ARC
  5
164
330
FA
100
AcDbEntity
  8
0
  6
Continuous
 62
     0
370
    30
100
AcDbCircle
 10
203.66752
 20
181.862099
 30
0.0
 40
2.400879582867441
100
AcDbArc
 50
307.829184
 51
355.478873
  0
ARC
  5
165
330
FA
100
AcDbEntity
  8
0
  6
Continuous
 62
     0
370
    30
100
AcDbCircle
 10
217.792412
 20
181.982442
 30
0.0
 40
2.400879582870654
100
AcDbArc
 50
185.497418
 51
233.147107
  0
LINE
  5
166
330
FA
100
AcDbEntity
  8
0
  6
Continuous
 62
     0
370
    30
100
AcDbLine
 10
206.312514
 20
184.861095
 30
0.0
 11
206.060929
 21
181.672846
 31
0.0
  0
LINE
  5
167
330
FA
100
AcDbEntity
  8
0
  6
Continuous
 62
     0
370
    30
100
AcDbLine
 10
215.096704
 20
184.935936
 30
0.0
 11
215.402575
 21
181.752436
 31
0.0
  0
ARC
  5
168
330
FA
100
AcDbEntity
  8
0
  6
Continuous
 62
     0
370
    30
100
AcDbCircle
 10
206.396858
 20
185.762083
 30
0.0
 40
0.900236662888112
100
AcDbArc
 50
270.503206
 51
0.473085
  0
ARC
  5
169
330
FA
100
AcDbEntity
  8
0
  6
Continuous
 62
     0
370
    30
100
AcDbCircle
 10
214.99702
 20
185.835356
 30
0.0
 40
0.9002366628885756
100
AcDbArc
 50
180.503206
 51
270.473085
  0
ARC
  5
16A
330
FA
100
AcDbEntity
  8
0
  6
Continuous
 62
     0
370
    30
100
AcDbCircle
 10
201.291928
 20
186.084917
 30
0.0
 40
6.002231827879561
100
AcDbArc
 50
0.496929
 51
45.290483
  0
ARC
  5
16B
330
FA
100
AcDbEntity
  8
0
  6
Continuous
 62
     0
370
    30
100
AcDbCircle
 10
220.095709
 20
186.245124
 30
0.0
 40
6.002231827881186
100
AcDbArc
 50
135.685808
 51
180.479362
  0
ARC
  5
16C
330
FA
100
AcDbEntity
  8
0
  6
Continuous
 62
     0
370
    30
100
AcDbCircle
 10
210.61294
 20
195.503271
 30
0.0
 40
7.250548183529521
100
AcDbArc
 50
315.687433
 51
90.477738
  0
ARC
  5
16D
330
FA
100
AcDbEntity
  8
0
  6
Continuous
 62
     0
370
    30
100
AcDbCircle
 10
210.615574
 20
195.503293
 30
0.0
 40
7.250548183529446
100
AcDbArc
 50
90.498553
 51
225.288859
  0
LINE
  5
16E
330
FA
100
AcDbEntity
  8
0
  6
Continuous
 62
     0
370
    30
100
AcDbLine
 10
195.622727
 20
157.776348
 30
0.0
 11
196.575622
 21
157.784467
 31
0.0
  0
LINE
  5
16F
330
FA
100
AcDbEntity
  8
0
  6
Continuous
 62
     0
370
    30
100
AcDbLine
 10
195.520491
 20
169.775913
 30
0.0
 11
196.473388
 21
169.784032
 31
0.0
  0
ARC
  5
170
330
FA
100
AcDbEntity
  8
0
  6
Continuous
 62
     0
370
    30
100
AcDbCircle
 10
195.61438
 20
158.77667
 30
0.0
 40
1.000356323984366
100
AcDbArc
 50
217.830013
 51
270.478044
  0
ARC
  5
171
330
FA
100
AcDbEntity
  8
0
  6
Continuous
 62
     0
370
    30
100
AcDbCircle
 10
195.52919
 20
168.775594
 30
0.0
 40
1.000356323984578
100
AcDbArc
 50
90.498247
 51
143.146278
  0
ARC
  5
172
330
FA
100
AcDbEntity
  8
0
  6
Continuous
 62
     0
370
    30
100
AcDbCircle
 10
192.927948
 20
156.690648
 30
0.0
 40
2.400879582869647
100
AcDbArc
 50
37.829184
 51
85.478873
  0
ARC
  5
173
330
FA
100
AcDbEntity
  8
0
  6
Continuous
 62
     0
370
    30
100
AcDbCircle
 10
192.807604
 20
170.81554
 30
0.0
 40
2.400879582868077
100
AcDbArc
 50
275.497418
 51
323.147107
  0
LINE
  5
174
330
FA
100
AcDbEntity
  8
0
  6
Continuous
 62
     0
370
    30
100
AcDbLine
 10
189.928952
 20
159.335642
 30
0.0
 11
193.117201
 21
159.084057
 31
0.0
  0
LINE
  5
175
330
FA
100
AcDbEntity
  8
0
  6
Continuous
 62
     0
370
    30
100
AcDbLine
 10
189.854111
 20
168.119832
 30
0.0
 11
193.037611
 21
168.425703
 31
0.0
  0
ARC
  5
176
330
FA
100
AcDbEntity
  8
0
  6
Continuous
 62
     0
370
    30
100
AcDbCircle
 10
189.027964
 20
159.419986
 30
0.0
 40
0.9002366628880392
100
AcDbArc
 50
0.503206
 51
90.473085
  0
ARC
  5
177
330
FA
100
AcDbEntity
  8
0
  6
Continuous
 62
     0
370
    30
100
AcDbCircle
 10
188.954691
 20
168.020148
 30
0.0
 40
0.9002366628899392
100
AcDbArc
 50
270.503206
 51
0.473085
  0
ARC
  5
178
330
FA
100
AcDbEntity
  8
0
  6
Continuous
 62
     0
370
    30
100
AcDbCircle
 10
188.70513
 20
154.315056
 30
0.0
 40
6.002231827881489
100
AcDbArc
 50
90.496929
 51
135.290483
  0
ARC
  5
179
330
FA
100
AcDbEntity
  8
0
  6
Continuous
 62
     0
370
    30
100
AcDbCircle
 10
188.544922
 20
173.118837
 30
0.0
 40
6.002231827882397
100
AcDbArc
 50
225.685808
 51
270.479362
  0
ARC
  5
17A
330
FA
100
AcDbEntity
  8
0
  6
Continuous
 62
     0
370
    30
100
AcDbCircle
 10
179.286776
 20
163.636068
 30
0.0
 40
7.250548183529513
100
AcDbArc
 50
45.687433
 51
180.477738
  0
ARC
  5
17B
330
FA
100
AcDbEntity
  8
0
  6
Continuous
 62
     0
370
    30
100
AcDbCircle
 10
179.286754
 20
163.638702
 30
0.0
 40
7.250548183529569
100
AcDbArc
 50
180.498553
 51
315.288859
  0
ENDBLK
  5
17D
330
FA
100
AcDbEntity
  8
0
100
AcDbBlockEnd
  0
BLOCK
  5
202
330
17F
100
AcDbEntity
  8
0
100
AcDbBlockBegin
  2
c
 70
     0
 10
144.350449
 20
119.896828
 30
0.0
  3
c
  1

  0
LINE
  5
180
330
17F
100
AcDbEntity
  8
0
  6
Continuous
 62
     0
370
    30
100
AcDbLine
 10
374.124378
 20
317.838623
 30
0.0
 11
380.450335
 21
317.838623
 31
0.0
  0
LINE
  5
181
330
17F
100
AcDbEntity
  8
0
  6
Continuous
 62
     0
370
    30
100
AcDbLine
 10
380.450335
 20
317.838623
 30
0.0
 11
392.122631
 21
317.838623
 31
0.0
  0
LINE
  5
182
330
17F
100
AcDbEntity
  8
0
  6
Continuous
 62
     0
370
    30
100
AcDbLine
 10
380.450335
 20
317.838624
 30
0.0
 11
374.123505
 21
317.838624
 31
0.0
  0
LINE
  5
183
330
17F
100
AcDbEntity
  8
0
  6
Continuous
 62
     0
370
     0
100
AcDbLine
 10
374.123505
 20
314.338623
 30
0.0
 11
380.450335
 21
314.338623
 31
0.0
  0
LINE
  5
184
330
17F
100
AcDbEntity
  8
0
  6
Continuous
 62
     0
370
     0
100
AcDbLine
 10
380.450335
 20
314.338623
 30
0.0
 11
392.123505
 21
314.338623
 31
0.0
  0
LWPOLYLINE
  5
185
330
17F
100
AcDbEntity
  8
0
  6
Continuous
 62
     0
370
    30
100
AcDbPolyline
 90
       21
 70
     0
 43
0.0
 10
392.123505
 20
317.838623
 10
392.08493
 20
317.838623
 10
391.973572
 20
317.838623
 10
391.796906
 20
317.838623
 10
391.559418
 20
317.838623
 10
391.250427
 20
317.838623
 10
390.866119
 20
317.838623
 10
390.405273
 20
317.838623
 10
389.868805
 20
317.838623
 10
389.259949
 20
317.838623
 10
388.584259
 20
317.838623
 10
387.849579
 20
317.838623
 10
387.065735
 20
317.838623
 10
386.244202
 20
317.838623
 10
385.397491
 20
317.838623
 10
384.538422
 20
317.838623
 10
383.679749
 20
317.838623
 10
382.833344
 20
317.838623
 10
382.009857
 20
317.838623
 10
381.218323
 20
317.838623
 10
380.450348
 20
317.838623
  0
LINE
  5
186
330
17F
100
AcDbEntity
  8
0
  6
Continuous
 62
     0
370
    30
100
AcDbLine
 10
372.561116
 20
312.838623
 30
0.0
 11
379.985876
 21
312.838623
 31
0.0
  0
LINE
  5
187
330
17F
100
AcDbEntity
  8
0
  6
Continuous
 62
     0
370
    30
100
AcDbLine
 10
379.985876
 20
312.838623
 30
0.0
 11
393.685894
 21
312.838623
 31
0.0
  0
LWPOLYLINE
  5
188
330
17F
100
AcDbEntity
  8
0
  6
Continuous
 62
     0
370
    30
100
AcDbPolyline
 90
       23
 70
     0
 43
0.0
 10
394.182983
 20
312.403656
 10
394.143677
 20
312.403656
 10
394.029724
 20
312.403656
 10
393.847931
 20
312.403656
 10
393.605042
 20
312.403656
 10
393.293182
 20
312.403656
 10
392.905884
 20
312.403656
 10
392.441132
 20
312.403656
 10
391.898682
 20
312.403656
 10
391.279968
 20
312.403656
 10
390.588501
 20
312.403656
 10
389.829712
 20
312.403656
 10
389.010986
 20
312.403656
 10
388.141327
 20
312.403656
 10
387.231201
 20
312.403656
 10
386.291992
 20
312.403656
 10
385.335571
 20
312.403656
 10
384.37384
 20
312.403656
 10
383.418213
 20
312.403656
 10
382.479279
 20
312.403656
 10
381.566406
 20
312.403656
 10
380.687592
 20
312.403656
 10
379.838623
 20
312.403656
  0
LINE
  5
189
330
17F
100
AcDbEntity
  8
0
  6
Continuous
 62
     0
370
    30
100
AcDbLine
 10
379.838628
 20
312.403649
 30
0.0
 11
372.064014
 21
312.403649
 31
0.0
  0
LINE
  5
18A
330
17F
100
AcDbEntity
  8
0
  6
Continuous
 62
     0
370
     0
100
AcDbLine
 10
367.171336
 20
288.724437
 30
0.0
 11
378.38541
 21
288.724437
 31
0.0
  0
LINE
  5
18B
330
17F
100
AcDbEntity
  8
0
  6
Continuous
 62
     0
370
     0
100
AcDbLine
 10
378.38541
 20
288.724437
 30
0.0
 11
399.075673
 21
288.724437
 31
0.0
  0
LINE
  5
18C
330
17F
100
AcDbEntity
  8
0
  6
Continuous
 62
     0
370
    30
100
AcDbLine
 10
379.838628
 20
312.403648
 30
0.0
 11
394.18271
 21
312.403648
 31
0.0
  0
LWPOLYLINE
  5
18D
330
17F
100
AcDbEntity
  8
0
  6
Continuous
 62
     0
370
    30
100
AcDbPolyline
 90
       23
 70
     0
 43
0.0
 10
393.689819
 20
312.838623
 10
393.65094
 20
312.838623
 10
393.535706
 20
312.838623
 10
393.3461
 20
312.838623
 10
393.084167
 20
312.838623
 10
392.751953
 20
312.838623
 10
392.35144
 20
312.838623
 10
391.884705
 20
312.838623
 10
391.353729
 20
312.838623
 10
390.760559
 20
312.838623
 10
390.107239
 20
312.838623
 10
389.397614
 20
312.838623
 10
388.638855
 20
312.838623
 10
387.83844
 20
312.838623
 10
387.003937
 20
312.838623
 10
386.142853
 20
312.838623
 10
385.262665
 20
312.838623
 10
384.370911
 20
312.838623
 10
383.475098
 20
312.838623
 10
382.582764
 20
312.838623
 10
381.701385
 20
312.838623
 10
380.838501
 20
312.838623
 10
379.98587
 20
312.838623
  0
LINE
  5
18E
330
17F
100
AcDbEntity
  8
0
  6
Continuous
 62
     0
370
    30
100
AcDbLine
 10
372.064383
 20
312.403648
 30
0.0
 11
379.838628
 21
312.403648
 31
0.0
  0
LINE
  5
18F
330
17F
100
AcDbEntity
  8
0
  6
Continuous
 62
     0
370
    30
100
AcDbLine
 10
356.047094
 20
278.897396
 30
0.0
 11
375.081301
 21
278.897396
 31
0.0
  0
LWPOLYLINE
  5
190
330
17F
100
AcDbEntity
  8
0
  6
Continuous
 62
     0
370
    30
100
AcDbPolyline
 90
       36
 70
     0
 43
0.0
 10
410.623505
 20
278.403259
 10
410.584534
 20
278.403259
 10
410.469971
 20
278.403259
 10
410.283691
 20
278.403259
 10
410.029907
 20
278.403259
 10
409.713165
 20
278.403259
 10
409.338135
 20
278.403259
 10
408.898407
 20
278.403259
 10
408.386261
 20
278.403259
 10
407.799805
 20
278.403259
 10
407.137726
 20
278.403259
 10
406.399231
 20
278.403259
 10
405.58429
 20
278.403259
 10
404.69342
 20
278.403259
 10
403.728027
 20
278.403259
 10
402.690186
 20
278.403259
 10
401.582855
 20
278.403259
 10
400.409637
 20
278.403259
 10
399.174957
 20
278.403259
 10
397.883911
 20
278.403259
 10
396.542267
 20
278.403259
 10
395.15625
 20
278.403259
 10
393.732605
 20
278.403259
 10
392.278381
 20
278.403259
 10
390.800842
 20
278.403259
 10
389.307434
 20
278.403259
 10
387.805511
 20
278.403259
 10
386.302277
 20
278.403259
 10
384.804779
 20
278.403259
 10
383.319702
 20
278.403259
 10
381.853241
 20
278.403259
 10
380.411255
 20
278.403259
 10
378.998962
 20
278.403259
 10
377.620972
 20
278.403259
 10
376.281433
 20
278.403259
 10
374.955475
 20
278.403259
  0
LINE
  5
191
330
17F
100
AcDbEntity
  8
0
  6
Continuous
 62
     0
370
    30
100
AcDbLine
 10
374.955487
 20
278.403269
 30
0.0
 11
355.623504
 21
278.403269
 31
0.0
  0
LINE
  5
192
330
17F
100
AcDbEntity
  8
0
  6
Continuous
 62
     0
370
    30
100
AcDbLine
 10
355.623504
 20
271.838623
 30
0.0
 11
374.955487
 21
271.838623
 31
0.0
  0
LINE
  5
193
330
17F
100
AcDbEntity
  8
0
  6
Continuous
 62
     0
370
    30
100
AcDbLine
 10
374.955487
 20
271.838623
 30
0.0
 11
410.623505
 21
271.838623
 31
0.0
  0
LINE
  5
194
330
17F
100
AcDbEntity
  8
0
  6
Continuous
 62
     0
370
    30
100
AcDbLine
 10
355.624567
 20
278.403269
 30
0.0
 11
374.955487
 21
278.403269
 31
0.0
  0
LINE
  5
195
330
17F
100
AcDbEntity
  8
0
  6
Continuous
 62
     0
370
    30
100
AcDbLine
 10
374.955487
 20
278.403269
 30
0.0
 11
410.623393
 21
278.403269
 31
0.0
  0
LWPOLYLINE
  5
196
330
17F
100
AcDbEntity
  8
0
  6
Continuous
 62
     0
370
    30
100
AcDbPolyline
 90
       36
 70
     0
 43
0.0
 10
410.197021
 20
278.897461
 10
410.158112
 20
278.897491
 10
410.040924
 20
278.897491
 10
409.845947
 20
278.897491
 10
409.574371
 20
278.897491
 10
409.227448
 20
278.897491
 10
408.806458
 20
278.897461
 10
408.312622
 20
278.897461
 10
407.747192
 20
278.897461
 10
407.11145
 20
278.89743
 10
406.406647
 20
278.89743
 10
405.63446
 20
278.89743
 10
404.797638
 20
278.89743
 10
403.899078
 20
278.8974
 10
402.94165
 20
278.8974
 10
401.928223
 20
278.8974
 10
400.861664
 20
278.8974
 10
399.744873
 20
278.8974
 10
398.58075
 20
278.897369
 10
397.372192
 20
278.897369
 10
396.122681
 20
278.897339
 10
394.835938
 20
278.897308
 10
393.515625
 20
278.897278
 10
392.165466
 20
278.897278
 10
390.789154
 20
278.897247
 10
389.390381
 20
278.897247
 10
387.972839
 20
278.897247
 10
386.540283
 20
278.897247
 10
385.096832
 20
278.897247
 10
383.647369
 20
278.897278
 10
382.196686
 20
278.897308
 10
380.749695
 20
278.897339
 10
379.311218
 20
278.897369
 10
377.886108
 20
278.8974
 10
376.479218
 20
278.8974
 10
375.081299
 20
278.8974
  0
LINE
  5
197
330
17F
100
AcDbEntity
  8
0
  6
Continuous
 62
     0
370
    30
100
AcDbLine
 10
355.623134
 20
271.838623
 30
0.0
 11
374.955487
 21
271.838623
 31
0.0
  0
LINE
  5
198
330
17F
100
AcDbEntity
  8
0
  6
Continuous
 62
     0
370
    30
100
AcDbLine
 10
374.955487
 20
271.838623
 30
0.0
 11
410.623876
 21
271.838623
 31
0.0
  0
LINE
  5
199
330
17F
100
AcDbEntity
  8
0
  6
Continuous
 62
     0
370
     0
100
AcDbLine
 10
372.217198
 20
344.370755
 30
0.0
 11
393.968884
 21
344.370755
 31
0.0
  0
LINE
  5
19A
330
17F
100
AcDbEntity
  8
0
  6
Continuous
 62
     0
370
    30
100
AcDbLine
 10
393.177557
 20
345.088623
 30
0.0
 11
373.01297
 21
345.088623
 31
0.0
  0
LINE
  5
19B
330
17F
100
AcDbEntity
  8
0
  6
Continuous
 62
     0
370
     0
100
AcDbLine
 10
368.905791
 20
340.837495
 30
0.0
 11
397.261792
 21
340.837495
 31
0.0
  0
LINE
  5
19C
330
17F
100
AcDbEntity
  8
0
  6
Continuous
 62
     0
370
     0
100
AcDbLine
 10
368.739438
 20
340.650766
 30
0.0
 11
397.427216
 21
340.650766
 31
0.0
  0
LINE
  5
19D
330
17F
100
AcDbEntity
  8
0
  6
Continuous
 62
     0
370
    30
100
AcDbLine
 10
397.51508
 20
338.964795
 30
0.0
 11
368.652248
 21
338.964795
 31
0.0
  0
LINE
  5
19E
330
17F
100
AcDbEntity
  8
0
  6
Continuous
 62
     0
370
    30
100
AcDbLine
 10
383.242607
 20
338.438778
 30
0.0
 11
397.105236
 21
338.438735
 31
0.0
  0
LINE
  5
19F
330
17F
100
AcDbEntity
  8
0
  6
Continuous
 62
     0
370
     0
100
AcDbLine
 10
356.678678
 20
331.688906
 30
0.0
 11
356.635984
 21
335.881887
 31
0.0
  0
LINE
  5
1A0
330
17F
100
AcDbEntity
  8
0
  6
Continuous
 62
     0
370
     0
100
AcDbLine
 10
356.635964
 20
325.595445
 30
0.0
 11
356.678678
 21
331.688906
 31
0.0
  0
LINE
  5
1A1
330
17F
100
AcDbEntity
  8
0
  6
Continuous
 62
     0
370
     0
100
AcDbLine
 10
360.892559
 20
331.366818
 30
0.0
 11
360.864095
 21
334.138675
 31
0.0
  0
LINE
  5
1A2
330
17F
100
AcDbEntity
  8
0
  6
Continuous
 62
     0
370
     0
100
AcDbLine
 10
360.864091
 20
327.338675
 30
0.0
 11
360.892559
 21
331.366818
 31
0.0
  0
LINE
  5
1A3
330
17F
100
AcDbEntity
  8
0
  6
Continuous
 62
     0
370
     0
100
AcDbLine
 10
361.260017
 20
331.366817
 30
0.0
 11
361.23155
 21
334.138675
 31
0.0
  0
LWPOLYLINE
  5
1A4
330
17F
100
AcDbEntity
  8
0
  6
Continuous
 62
     0
370
     0
100
AcDbPolyline
 90
       13
 70
     0
 43
0.0
 10
361.231537
 20
327.338684
 10
361.235535
 20
327.371033
 10
361.239349
 20
327.463898
 10
361.243164
 20
327.623566
 10
361.246887
 20
327.854706
 10
361.250397
 20
328.157288
 10
361.25354
 20
328.526031
 10
361.256195
 20
328.950592
 10
361.25824
 20
329.416229
 10
361.259644
 20
329.905518
 10
361.260376
 20
330.400513
 10
361.260498
 20
330.884644
 10
361.26001
 20
331.366821
  0
LWPOLYLINE
  5
1A5
330
17F
100
AcDbEntity
  8
0
  6
Continuous
 62
     0
370
    30
100
AcDbPolyline
 90
       14
 70
     0
 43
0.0
 10
362.167511
 20
331.533081
 10
362.166504
 20
332.013733
 10
362.164948
 20
332.496399
 10
362.162842
 20
332.969208
 10
362.160156
 20
333.419159
 10
362.156952
 20
333.832916
 10
362.15329
 20
334.198029
 10
362.1492
 20
334.503937
 10
362.144867
 20
334.743103
 10
362.14035
 20
334.91156
 10
362.135803
 20
335.009033
 10
362.131348
 20
335.038635
 10
362.127014
 20
335.006226
 10
362.122681
 20
334.911896
  0
LWPOLYLINE
  5
1A6
330
17F
100
AcDbEntity
  8
0
  6
Continuous
 62
     0
370
    30
100
AcDbPolyline
 90
       17
 70
     0
 43
0.0
 10
362.119293
 20
326.587372
 10
362.123993
 20
326.436127
 10
362.128815
 20
326.357819
 10
362.133698
 20
326.353882
 10
362.138519
 20
326.424072
 10
362.14325
 20
326.567627
 10
362.147766
 20
326.781708
 10
362.152008
 20
327.062927
 10
362.155884
 20
327.406464
 10
362.159363
 20
327.806396
 10
362.162384
 20
328.256165
 10
362.164886
 20
328.747894
 10
362.166779
 20
329.273438
 10
362.168121
 20
329.823822
 10
362.168823
 20
330.389679
 10
362.168884
 20
330.961456
 10
362.168304
 20
331.55014
  0
LWPOLYLINE
  5
1A7
330
17F
100
AcDbEntity
  8
0
  6
Continuous
 62
     0
370
    30
100
AcDbPolyline
 90
       16
 70
     0
 43
0.0
 10
362.167511
 20
331.533081
 10
362.168091
 20
330.965179
 10
362.16803
 20
330.39325
 10
362.167328
 20
329.827454
 10
362.165985
 20
329.27774
 10
362.164001
 20
328.753906
 10
362.161469
 20
328.265228
 10
362.158417
 20
327.82019
 10
362.154877
 20
327.426971
 10
362.15094
 20
327.092194
 10
362.146637
 20
326.822021
 10
362.142059
 20
326.621124
 10
362.137329
 20
326.493011
 10
362.132477
 20
326.440186
 10
362.127594
 20
326.463226
 10
362.122681
 20
326.565491
  0
LINE
  5
1A8
330
17F
100
AcDbEntity
  8
0
  6
Continuous
 62
     0
370
     0
100
AcDbLine
 10
365.356501
 20
331.601631
 30
0.0
 11
365.317361
 21
335.409667
 31
0.0
  0
LWPOLYLINE
  5
1A9
330
17F
100
AcDbEntity
  8
0
  6
Continuous
 62
     0
370
     0
100
AcDbPolyline
 90
       15
 70
     0
 43
0.0
 10
365.317352
 20
326.067688
 10
365.322083
 20
326.100281
 10
365.326569
 20
326.194
 10
365.331085
 20
326.352966
 10
365.335571
 20
326.582977
 10
365.339905
 20
326.886047
 10
365.343964
 20
327.260559
 10
365.347626
 20
327.701019
 10
365.350769
 20
328.197968
 10
365.353363
 20
328.738831
 10
365.355286
 20
329.308746
 10
365.356537
 20
329.892029
 10
365.357117
 20
330.473389
 10
365.357117
 20
331.039246
 10
365.356506
 20
331.601624
  0
LINE
  5
1AA
330
17F
100
AcDbEntity
  8
0
  6
Continuous
 62
     0
370
     0
100
AcDbLine
 10
367.063428
 20
331.77445
 30
0.0
 11
367.011321
 21
336.312247
 31
0.0
  0
LWPOLYLINE
  5
1AB
330
17F
100
AcDbEntity
  8
0
  6
Continuous
 62
     0
370
     0
100
AcDbPolyline
 90
       16
 70
     0
 43
0.0
 10
367.015961
 20
325.132599
 10
367.021332
 20
325.161041
 10
367.026428
 20
325.255127
 10
367.031494
 20
325.416718
 10
367.036591
 20
325.652802
 10
367.041565
 20
325.966278
 10
367.046295
 20
326.356842
 10
367.050659
 20
326.820648
 10
367.054535
 20
327.350037
 10
367.057831
 20
327.93396
 10
367.060486
 20
328.558685
 10
367.062439
 20
329.208893
 10
367.06366
 20
329.868835
 10
367.064209
 20
330.523529
 10
367.064117
 20
331.159729
 10
367.063416
 20
331.774445
  0
LINE
  5
1AC
330
17F
100
AcDbEntity
  8
0
  6
Continuous
 62
     0
370
     0
100
AcDbLine
 10
367.861832
 20
331.847162
 30
0.0
 11
367.811578
 21
336.738675
 31
0.0
  0
LWPOLYLINE
  5
1AD
330
17F
100
AcDbEntity
  8
0
  6
Continuous
 62
     0
370
     0
100
AcDbPolyline
 90
       17
 70
     0
 43
0.0
 10
367.811584
 20
324.738678
 10
367.816925
 20
324.77124
 10
367.821991
 20
324.864166
 10
367.827026
 20
325.019043
 10
367.832092
 20
325.24231
 10
367.837067
 20
325.536835
 10
367.841858
 20
325.902985
 10
367.846344
 20
326.33844
 10
367.850433
 20
326.837708
 10
367.854034
 20
327.392578
 10
367.857056
 20
327.992279
 10
367.859436
 20
328.624329
 10
367.861176
 20
329.275299
 10
367.862244
 20
329.931702
 10
367.862701
 20
330.580994
 10
367.862549
 20
331.212006
 10
367.861847
 20
331.847168
  0
ARC
  5
1AE
330
17F
100
AcDbEntity
  8
0
  6
Continuous
 62
     0
370
    30
100
AcDbCircle
 10
333.997211
 20
330.641647
 30
0.0
 40
34.78262769093099
100
AcDbArc
 50
350.246309
 51
1.986187
  0
LINE
  5
1AF
330
17F
100
AcDbEntity
  8
0
  6
Continuous
 62
     0
370
    30
100
AcDbLine
 10
368.758942
 20
331.847161
 30
0.0
 11
368.292005
 21
336.680857
 31
0.0
  0
LWPOLYLINE
  5
1B0
330
17F
100
AcDbEntity
  8
0
  6
Continuous
 62
     0
370
     0
100
AcDbPolyline
 90
       16
 70
     0
 43
0.0
 10
409.610901
 20
335.881897
 10
409.615814
 20
335.854553
 10
409.620453
 20
335.767731
 10
409.625092
 20
335.619446
 10
409.62973
 20
335.403473
 10
409.634277
 20
335.117157
 10
409.63858
 20
334.760803
 10
409.642578
 20
334.337891
 10
409.646149
 20
333.855286
 10
409.64917
 20
333.322998
 10
409.651581
 20
332.753357
 10
409.653381
 20
332.160187
 10
409.654541
 20
331.55777
 10
409.65506
 20
330.959625
 10
409.654999
 20
330.377899
 10
409.654327
 20
329.788452
  0
LINE
  5
1B1
330
17F
100
AcDbEntity
  8
0
  6
Continuous
 62
     0
370
     0
100
AcDbLine
 10
409.654341
 20
329.788445
 30
0.0
 11
409.610905
 21
325.595463
 31
0.0
  0
LWPOLYLINE
  5
1B2
330
17F
100
AcDbEntity
  8
0
  6
Continuous
 62
     0
370
     0
100
AcDbPolyline
 90
       13
 70
     0
 43
0.0
 10
405.382782
 20
334.138672
 10
405.38678
 20
334.106323
 10
405.390594
 20
334.013458
 10
405.394409
 20
333.85379
 10
405.398132
 20
333.62265
 10
405.401642
 20
333.320068
 10
405.404785
 20
332.951324
 10
405.40744
 20
332.526764
 10
405.409485
 20
332.061127
 10
405.410889
 20
331.571808
 10
405.411621
 20
331.076843
 10
405.411743
 20
330.592712
 10
405.411255
 20
330.110535
  0
LINE
  5
1B3
330
17F
100
AcDbEntity
  8
0
  6
Continuous
 62
     0
370
     0
100
AcDbLine
 10
405.411266
 20
330.110533
 30
0.0
 11
405.382798
 21
327.338675
 31
0.0
  0
LINE
  5
1B4
330
17F
100
AcDbEntity
  8
0
  6
Continuous
 62
     0
370
     0
100
AcDbLine
 10
405.015339
 20
334.138675
 30
0.0
 11
405.043808
 21
330.110533
 31
0.0
  0
LINE
  5
1B5
330
17F
100
AcDbEntity
  8
0
  6
Continuous
 62
     0
370
     0
100
AcDbLine
 10
405.043808
 20
330.110533
 30
0.0
 11
405.015343
 21
327.338675
 31
0.0
  0
LINE
  5
1B6
330
17F
100
AcDbEntity
  8
0
  6
Continuous
 62
     0
370
    30
100
AcDbLine
 10
404.115398
 20
335.130883
 30
0.0
 11
404.152149
 21
329.927216
 31
0.0
  0
LINE
  5
1B7
330
17F
100
AcDbEntity
  8
0
  6
Continuous
 62
     0
370
    30
100
AcDbLine
 10
404.151376
 20
329.94426
 30
0.0
 11
404.114507
 21
335.037447
 31
0.0
  0
LINE
  5
1B8
330
17F
100
AcDbEntity
  8
0
  6
Continuous
 62
     0
370
     0
100
AcDbLine
 10
400.929521
 20
335.409667
 30
0.0
 11
400.968608
 21
329.87572
 31
0.0
  0
LINE
  5
1B9
330
17F
100
AcDbEntity
  8
0
  6
Continuous
 62
     0
370
     0
100
AcDbLine
 10
400.968608
 20
329.87572
 30
0.0
 11
400.929529
 21
326.067684
 31
0.0
  0
LINE
  5
1BA
330
17F
100
AcDbEntity
  8
0
  6
Continuous
 62
     0
370
     0
100
AcDbLine
 10
399.230936
 20
336.344756
 30
0.0
 11
399.277346
 21
329.7029
 31
0.0
  0
LINE
  5
1BB
330
17F
100
AcDbEntity
  8
0
  6
Continuous
 62
     0
370
     0
100
AcDbLine
 10
399.277346
 20
329.7029
 30
0.0
 11
399.230937
 21
325.132596
 31
0.0
  0
LINE
  5
1BC
330
17F
100
AcDbEntity
  8
0
  6
Continuous
 62
     0
370
     0
100
AcDbLine
 10
398.435295
 20
336.738675
 30
0.0
 11
398.485533
 21
329.630189
 31
0.0
  0
LINE
  5
1BD
330
17F
100
AcDbEntity
  8
0
  6
Continuous
 62
     0
370
     0
100
AcDbLine
 10
398.485533
 20
329.630189
 30
0.0
 11
398.435286
 21
324.738675
 31
0.0
  0
LINE
  5
1BE
330
17F
100
AcDbEntity
  8
0
  6
Continuous
 62
     0
370
     0
100
AcDbLine
 10
368.662066
 20
338.089883
 30
0.0
 11
383.246667
 21
338.089883
 31
0.0
  0
LINE
  5
1BF
330
17F
100
AcDbEntity
  8
0
  6
Continuous
 62
     0
370
     0
100
AcDbLine
 10
383.246667
 20
338.089883
 30
0.0
 11
397.584854
 21
338.089883
 31
0.0
  0
LINE
  5
1C0
330
17F
100
AcDbEntity
  8
0
  6
Continuous
 62
     0
370
    30
100
AcDbLine
 10
383.242607
 20
338.438627
 30
0.0
 11
369.138639
 21
338.438627
 31
0.0
  0
LINE
  5
1C1
330
17F
100
AcDbEntity
  8
0
  6
Continuous
 62
     0
370
     0
100
AcDbLine
 10
368.613153
 20
323.543225
 30
0.0
 11
382.529758
 21
323.543225
 31
0.0
  0
LINE
  5
1C2
330
17F
100
AcDbEntity
  8
0
  6
Continuous
 62
     0
370
     0
100
AcDbLine
 10
384.286408
 20
323.543225
 30
0.0
 11
397.633767
 21
323.543225
 31
0.0
  0
LWPOLYLINE
  5
1C3
330
17F
100
AcDbEntity
  8
0
  6
Continuous
 62
     0
370
    30
100
AcDbPolyline
 90
       59
 70
     0
 43
0.0
 10
397.487976
 20
331.847168
 10
397.475433
 20
331.215088
 10
397.473755
 20
330.573151
 10
397.482452
 20
329.92981
 10
397.500916
 20
329.293488
 10
397.528656
 20
328.672729
 10
397.565125
 20
328.075958
 10
397.609131
 20
327.51062
 10
397.658478
 20
326.98233
 10
397.710815
 20
326.496643
 10
397.763824
 20
326.05896
 10
397.815125
 20
325.674774
 10
397.862396
 20
325.349579
 10
397.90332
 20
325.088867
 10
397.935547
 20
324.898102
 10
397.956818
 20
324.782562
 10
397.966431
 20
324.74353
 10
397.965454
 20
324.777954
 10
397.954926
 20
324.88266
 10
397.936005
 20
325.054352
 10
397.909729
 20
325.289886
 10
397.877228
 20
325.585999
 10
397.8396
 20
325.939484
 10
397.798004
 20
326.347046
 10
397.754425
 20
326.804626
 10
397.711426
 20
327.307648
 10
397.671631
 20
327.85144
 10
397.637329
 20
328.430878
 10
397.60965
 20
329.038635
 10
397.589478
 20
329.666901
 10
397.577728
 20
330.307892
 10
397.575256
 20
330.953766
 10
397.582977
 20
331.596802
 10
397.600922
 20
332.229492
 10
397.627502
 20
332.845062
 10
397.66095
 20
333.436768
 10
397.699493
 20
333.997925
 10
397.741394
 20
334.521759
 10
397.784882
 20
335.001556
 10
397.828156
 20
335.431122
 10
397.869141
 20
335.806061
 10
397.905701
 20
336.122528
 10
397.935791
 20
336.376648
 10
397.957275
 20
336.564514
 10
397.968079
 20
336.682312
 10
397.967346
 20
336.728333
 10
397.956177
 20
336.704102
 10
397.935699
 20
336.611328
 10
397.907104
 20
336.451752
 10
397.871613
 20
336.227142
 10
397.830383
 20
335.939209
 10
397.784607
 20
335.589661
 10
397.735474
 20
335.18042
 10
397.684753
 20
334.71637
 10
397.634735
 20
334.205322
 10
397.587769
 20
333.655273
 10
397.546112
 20
333.074158
 10
397.512085
 20
332.469971
 10
397.487976
 20
331.847168
  0
LINE
  5
1C4
330
17F
100
AcDbEntity
  8
0
  6
Continuous
 62
     0
370
     0
100
AcDbLine
 10
368.944546
 20
323.213121
 30
0.0
 11
383.24426
 21
323.213121
 31
0.0
  0
LINE
  5
1C5
330
17F
100
AcDbEntity
  8
0
  6
Continuous
 62
     0
370
     0
100
AcDbLine
 10
383.24426
 20
323.213121
 30
0.0
 11
397.302374
 21
323.213121
 31
0.0
  0
LINE
  5
1C6
330
17F
100
AcDbEntity
  8
0
  6
Continuous
 62
     0
370
    30
100
AcDbLine
 10
376.731934
 20
320.832278
 30
0.0
 11
383.177914
 21
320.832278
 31
0.0
  0
LWPOLYLINE
  5
1C7
330
17F
100
AcDbEntity
  8
0
  6
Continuous
 62
     0
370
    30
100
AcDbPolyline
 90
       29
 70
     0
 43
0.0
 10
383.069
 20
320.832275
 10
383.757019
 20
320.832123
 10
384.445892
 20
320.832031
 10
385.126221
 20
320.83194
 10
385.788574
 20
320.831879
 10
386.423523
 20
320.831879
 10
387.021637
 20
320.831848
 10
387.573517
 20
320.831848
 10
388.069733
 20
320.831848
 10
388.500824
 20
320.831879
 10
388.857819
 20
320.831879
 10
389.137146
 20
320.831879
 10
389.338623
 20
320.831909
 10
389.462158
 20
320.831909
 10
389.507721
 20
320.831909
 10
389.475189
 20
320.831909
 10
389.364471
 20
320.831909
 10
389.175537
 20
320.831879
 10
388.908264
 20
320.831879
 10
388.562622
 20
320.831879
 10
388.142059
 20
320.831879
 10
387.655457
 20
320.831848
 10
387.112122
 20
320.831848
 10
386.521454
 20
320.831879
 10
385.892731
 20
320.831909
 10
385.235352
 20
320.83197
 10
384.558655
 20
320.832031
 10
383.871979
 20
320.832123
 10
383.177917
 20
320.832275
  0
LINE
  5
1C8
330
17F
100
AcDbEntity
  8
0
  6
Continuous
 62
     0
370
    30
100
AcDbLine
 10
383.177914
 20
320.832278
 30
0.0
 11
376.752868
 21
320.831903
 31
0.0
  0
LINE
  5
1C9
330
17F
100
AcDbEntity
  8
0
  6
Continuous
 62
     0
370
    30
100
AcDbLine
 10
376.873461
 20
320.641017
 30
0.0
 11
383.176708
 21
320.641017
 31
0.0
  0
LINE
  5
1CA
330
17F
100
AcDbEntity
  8
0
  6
Continuous
 62
     0
370
    30
100
AcDbLine
 10
383.176708
 20
320.641017
 30
0.0
 11
389.373456
 21
320.641017
 31
0.0
  0
LINE
  5
1CB
330
17F
100
AcDbEntity
  8
0
  6
Continuous
 62
     0
370
    30
100
AcDbLine
 10
376.87346
 20
320.641017
 30
0.0
 11
376.87346
 21
317.838623
 31
0.0
  0
LINE
  5
1CC
330
17F
100
AcDbEntity
  8
0
  6
Continuous
 62
     0
370
    30
100
AcDbLine
 10
389.37346
 20
317.838623
 30
0.0
 11
389.37346
 21
320.641017
 31
0.0
  0
LINE
  5
1CD
330
17F
100
AcDbEntity
  8
0
  6
Continuous
 62
     0
370
    30
100
AcDbLine
 10
397.302374
 20
323.213121
 30
0.0
 11
389.514986
 21
320.832278
 31
0.0
  0
LINE
  5
1CE
330
17F
100
AcDbEntity
  8
0
  6
Continuous
 62
     0
370
    30
100
AcDbLine
 10
368.944546
 20
323.213121
 30
0.0
 11
376.731934
 21
320.832278
 31
0.0
  0
LINE
  5
1CF
330
17F
100
AcDbEntity
  8
0
  6
Continuous
 62
     0
370
    30
100
AcDbLine
 10
397.584854
 20
338.089883
 30
0.0
 11
397.971798
 21
336.735829
 31
0.0
  0
LINE
  5
1D0
330
17F
100
AcDbEntity
  8
0
  6
Continuous
 62
     0
370
    30
100
AcDbLine
 10
368.662066
 20
338.089883
 30
0.0
 11
368.275122
 21
336.73583
 31
0.0
  0
LINE
  5
1D1
330
17F
100
AcDbEntity
  8
0
  6
Continuous
 62
     0
370
    30
100
AcDbLine
 10
368.613153
 20
323.543225
 30
0.0
 11
368.274917
 21
324.742153
 31
0.0
  0
LINE
  5
1D2
330
17F
100
AcDbEntity
  8
0
  6
Continuous
 62
     0
370
    30
100
AcDbLine
 10
397.633767
 20
323.543225
 30
0.0
 11
397.972003
 21
324.742154
 31
0.0
  0
LINE
  5
1D3
330
17F
100
AcDbEntity
  8
0
  6
Continuous
 62
     0
370
    30
100
AcDbLine
 10
398.435295
 20
324.738675
 30
0.0
 11
397.969493
 21
324.738675
 31
0.0
  0
LINE
  5
1D4
330
17F
100
AcDbEntity
  8
0
  6
Continuous
 62
     0
370
    30
100
AcDbLine
 10
398.435295
 20
336.738675
 30
0.0
 11
397.969428
 21
336.738675
 31
0.0
  0
ARC
  5
1D5
330
17F
100
AcDbEntity
  8
0
  6
Continuous
 62
     0
370
    30
100
AcDbCircle
 10
398.435093
 20
325.739563
 30
0.0
 40
1.000887744177407
100
AcDbArc
 50
270.011535
 51
322.668268
  0
ARC
  5
1D6
330
17F
100
AcDbEntity
  8
0
  6
Continuous
 62
     0
370
    30
100
AcDbCircle
 10
398.435093
 20
335.737788
 30
0.0
 40
1.000887745216981
100
AcDbArc
 50
37.331732
 51
89.988465
  0
ARC
  5
1D7
330
17F
100
AcDbEntity
  8
0
  6
Continuous
 62
     0
370
    30
100
AcDbCircle
 10
401.139048
 20
323.676798
 30
0.0
 40
2.400048840573267
100
AcDbArc
 50
95.008212
 51
142.658098
  0
ARC
  5
1D8
330
17F
100
AcDbEntity
  8
0
  6
Continuous
 62
     0
370
    30
100
AcDbCircle
 10
401.138559
 20
337.799669
 30
0.0
 40
2.39912648548753
100
AcDbArc
 50
218.268993
 51
265.00158
  0
LINE
  5
1D9
330
17F
100
AcDbEntity
  8
0
  6
Continuous
 62
     0
370
    30
100
AcDbLine
 10
404.1154
 20
326.346422
 30
0.0
 11
400.929527
 21
326.067684
 31
0.0
  0
LINE
  5
1DA
330
17F
100
AcDbEntity
  8
0
  6
Continuous
 62
     0
370
    30
100
AcDbLine
 10
404.1154
 20
335.130929
 30
0.0
 11
400.929527
 21
335.409667
 31
0.0
  0
ARC
  5
1DB
330
17F
100
AcDbEntity
  8
0
  6
Continuous
 62
     0
370
    30
100
AcDbCircle
 10
405.010371
 20
326.4468
 30
0.0
 40
0.8918887311307282
100
AcDbArc
 50
89.680818
 51
174.64192
  0
ARC
  5
1DC
330
17F
100
AcDbEntity
  8
0
  6
Continuous
 62
     0
370
    30
100
AcDbCircle
 10
405.016648
 20
335.040352
 30
0.0
 40
0.9016774665711552
100
AcDbArc
 50
189.598517
 51
269.916835
  0
ARC
  5
1DD
330
17F
100
AcDbEntity
  8
0
  6
Continuous
 62
     0
370
    30
100
AcDbCircle
 10
405.381922
 20
321.337373
 30
0.0
 40
6.001301927517318
100
AcDbArc
 50
45.1965
 51
89.99164
  0
ARC
  5
1DE
330
17F
100
AcDbEntity
  8
0
  6
Continuous
 62
     0
370
    30
100
AcDbCircle
 10
405.381922
 20
340.139977
 30
0.0
 40
6.001301925215216
100
AcDbArc
 50
270.00836
 51
314.8035
  0
ARC
  5
1DF
330
17F
100
AcDbEntity
  8
0
  6
Continuous
 62
     0
370
    30
100
AcDbCircle
 10
414.720688
 20
330.73868
 30
0.0
 40
7.249998127234861
100
AcDbArc
 50
2.550196
 51
134.81322
  0
ARC
  5
1E0
330
17F
100
AcDbEntity
  8
0
  6
Continuous
 62
     0
370
    30
100
AcDbCircle
 10
414.720688
 20
330.738671
 30
0.0
 40
7.249998104309677
100
AcDbArc
 50
225.18678
 51
357.450091
  0
LINE
  5
1E1
330
17F
100
AcDbEntity
  8
0
  6
Continuous
 62
     0
370
    30
100
AcDbLine
 10
367.811594
 20
324.738675
 30
0.0
 11
368.277427
 21
324.738675
 31
0.0
  0
LINE
  5
1E2
330
17F
100
AcDbEntity
  8
0
  6
Continuous
 62
     0
370
    30
100
AcDbLine
 10
367.811594
 20
336.738675
 30
0.0
 11
368.277491
 21
336.738675
 31
0.0
  0
ARC
  5
1E3
330
17F
100
AcDbEntity
  8
0
  6
Continuous
 62
     0
370
    30
100
AcDbCircle
 10
367.811795
 20
325.739563
 30
0.0
 40
1.000887744172692
100
AcDbArc
 50
217.331732
 51
269.988465
  0
ARC
  5
1E4
330
17F
100
AcDbEntity
  8
0
  6
Continuous
 62
     0
370
    30
100
AcDbCircle
 10
367.811795
 20
335.737788
 30
0.0
 40
1.000887745215929
100
AcDbArc
 50
90.011535
 51
142.668268
  0
ARC
  5
1E5
330
17F
100
AcDbEntity
  8
0
  6
Continuous
 62
     0
370
    30
100
AcDbCircle
 10
365.10784
 20
323.676798
 30
0.0
 40
2.400048840575244
100
AcDbArc
 50
37.341902
 51
84.991788
  0
ARC
  5
1E6
330
17F
100
AcDbEntity
  8
0
  6
Continuous
 62
     0
370
    30
100
AcDbCircle
 10
365.108329
 20
337.799669
 30
0.0
 40
2.399126485479559
100
AcDbArc
 50
274.99842
 51
321.731007
  0
LINE
  5
1E7
330
17F
100
AcDbEntity
  8
0
  6
Continuous
 62
     0
370
    30
100
AcDbLine
 10
362.131488
 20
326.346422
 30
0.0
 11
365.317361
 21
326.067684
 31
0.0
  0
LINE
  5
1E8
330
17F
100
AcDbEntity
  8
0
  6
Continuous
 62
     0
370
    30
100
AcDbLine
 10
362.131488
 20
335.130929
 30
0.0
 11
365.317361
 21
335.409667
 31
0.0
  0
ARC
  5
1E9
330
17F
100
AcDbEntity
  8
0
  6
Continuous
 62
     0
370
    30
100
AcDbCircle
 10
361.236517
 20
326.4468
 30
0.0
 40
0.8918887311335741
100
AcDbArc
 50
5.35808
 51
90.319182
  0
ARC
  5
1EA
330
17F
100
AcDbEntity
  8
0
  6
Continuous
 62
     0
370
    30
100
AcDbCircle
 10
361.236505
 20
335.030568
 30
0.0
 40
0.891906821030293
100
AcDbArc
 50
269.68162
 51
354.642134
  0
ARC
  5
1EB
330
17F
100
AcDbEntity
  8
0
  6
Continuous
 62
     0
370
    30
100
AcDbCircle
 10
360.864966
 20
321.337373
 30
0.0
 40
6.001301927517469
100
AcDbArc
 50
90.00836
 51
134.8035
  0
ARC
  5
1EC
330
17F
100
AcDbEntity
  8
0
  6
Continuous
 62
     0
370
    30
100
AcDbCircle
 10
360.864966
 20
340.139977
 30
0.0
 40
6.001301925214305
100
AcDbArc
 50
225.1965
 51
269.99164
  0
ARC
  5
1ED
330
17F
100
AcDbEntity
  8
0
  6
Continuous
 62
     0
370
    30
100
AcDbCircle
 10
351.5262
 20
330.73868
 30
0.0
 40
7.249998127234632
100
AcDbArc
 50
45.18678
 51
177.449804
  0
ARC
  5
1EE
330
17F
100
AcDbEntity
  8
0
  6
Continuous
 62
     0
370
    30
100
AcDbCircle
 10
351.5262
 20
330.738671
 30
0.0
 40
7.249998104309702
100
AcDbArc
 50
182.549909
 51
314.81322
  0
CIRCLE
  5
1EF
330
17F
100
AcDbEntity
  8
0
  6
Continuous
 62
     0
370
    30
100
AcDbCircle
 10
383.392653
 20
330.738675
 30
0.0
 40
7.249999999995739
  0
LINE
  5
1F0
330
17F
100
AcDbEntity
  8
0
  6
Continuous
 62
     0
370
    30
100
AcDbLine
 10
368.739438
 20
340.650766
 30
0.0
 11
368.65322
 21
339.005621
 31
0.0
  0
LINE
  5
1F1
330
17F
100
AcDbEntity
  8
0
  6
Continuous
 62
     0
370
    30
100
AcDbLine
 10
397.595929
 20
338.964794
 30
0.0
 11
397.507571
 21
340.650766
 31
0.0
  0
ARC
  5
1F2
330
17F
100
AcDbEntity
  8
0
  6
Continuous
 62
     0
370
    30
100
AcDbCircle
 10
368.238359
 20
344.781391
 30
0.0
 40
3.999972062089045
100
AcDbArc
 50
281.012406
 51
354.107655
  0
ARC
  5
1F3
330
17F
100
AcDbEntity
  8
0
  6
Continuous
 62
     0
370
    30
100
AcDbCircle
 10
398.00883
 20
344.781559
 30
0.0
 40
4.000168104365612
100
AcDbArc
 50
185.894472
 51
260.392614
  0
ARC
  5
1F4
330
17F
100
AcDbEntity
  8
0
  6
Continuous
 62
     0
370
    30
100
AcDbCircle
 10
373.013172
 20
344.2884
 30
0.0
 40
0.800223225688
100
AcDbArc
 50
90.014417
 51
174.092942
  0
ARC
  5
1F5
330
17F
100
AcDbEntity
  8
0
  6
Continuous
 62
     0
370
    30
100
AcDbCircle
 10
393.233837
 20
344.2884
 30
0.0
 40
0.8002232256906332
100
AcDbArc
 50
5.907058
 51
89.985583
  0
LINE
  5
1F6
330
17F
100
AcDbEntity
  8
0
  6
Continuous
 62
     0
370
    30
100
AcDbLine
 10
410.623505
 20
278.403269
 30
0.0
 11
410.623505
 21
271.838623
 31
0.0
  0
LINE
  5
1F7
330
17F
100
AcDbEntity
  8
0
  6
Continuous
 62
     0
370
    30
100
AcDbLine
 10
355.623504
 20
278.403269
 30
0.0
 11
355.623504
 21
271.838623
 31
0.0
  0
ARC
  5
1F8
330
17F
100
AcDbEntity
  8
0
  6
Continuous
 62
     0
370
    30
100
AcDbCircle
 10
353.944781
 20
292.487081
 30
0.0
 40
13.7513367341511
100
AcDbArc
 50
278.793904
 51
344.120193
  0
ARC
  5
1F9
330
17F
100
AcDbEntity
  8
0
  6
Continuous
 62
     0
370
    30
100
AcDbCircle
 10
412.302229
 20
292.487081
 30
0.0
 40
13.75133673415076
100
AcDbArc
 50
195.879807
 51
261.206096
  0
ARC
  5
1FA
330
17F
100
AcDbEntity
  8
0
  6
Continuous
 62
     0
370
    30
100
AcDbCircle
 10
557.784167
 20
333.862393
 30
0.0
 40
165.002488186581
100
AcDbArc
 50
187.472541
 51
195.876173
  0
ARC
  5
1FB
330
17F
100
AcDbEntity
  8
0
  6
Continuous
 62
     0
370
    30
100
AcDbCircle
 10
208.462842
 20
333.862393
 30
0.0
 40
165.002488186585
100
AcDbArc
 50
344.123827
 51
352.527459
  0
ARC
  5
1FC
330
17F
100
AcDbEntity
  8
0
  6
Continuous
 62
     0
370
    30
100
AcDbCircle
 10
393.623899
 20
314.339018
 30
0.0
 40
1.500394165563439
100
AcDbArc
 50
180.01505
 51
269.98495
  0
ARC
  5
1FD
330
17F
100
AcDbEntity
  8
0
  6
Continuous
 62
     0
370
    30
100
AcDbCircle
 10
372.623111
 20
314.339018
 30
0.0
 40
1.500394165564171
100
AcDbArc
 50
270.01505
 51
359.98495
  0
LINE
  5
1FE
330
17F
100
AcDbEntity
  8
0
  6
Continuous
 62
     0
370
    30
100
AcDbLine
 10
374.123505
 20
317.838624
 30
0.0
 11
374.123505
 21
314.338623
 31
0.0
  0
LINE
  5
1FF
330
17F
100
AcDbEntity
  8
0
  6
Continuous
 62
     0
370
    30
100
AcDbLine
 10
392.123505
 20
314.338623
 30
0.0
 11
392.123505
 21
317.838624
 31
0.0
  0
ARC
  5
200
330
17F
100
AcDbEntity
  8
0
  6
Continuous
 62
     0
370
    30
100
AcDbCircle
 10
383.10816
 20
332.936632
 30
0.0
 40
15.00375960469511
100
AcDbArc
 50
90.008632
 51
125.910934
  0
ARC
  5
201
330
17F
100
AcDbEntity
  8
0
  6
Continuous
 62
     0
370
    30
100
AcDbCircle
 10
383.105723
 20
332.936632
 30
0.0
 40
15.00375960469232
100
AcDbArc
 50
54.089066
 51
89.991368
  0
ENDBLK
  5
203
330
17F
100
AcDbEntity
  8
0
100
AcDbBlockEnd
  0
BLOCK
  5
295
330
205
100
AcDbEntity
  8
0
100
AcDbBlockBegin
  2
d
 70
     0
 10
144.350449
 20
119.896828
 30
0.0
  3
d
  1

  0
LWPOLYLINE
  5
206
330
205
100
AcDbEntity
  8
0
  6
Continuous
 62
     0
370
    30
100
AcDbPolyline
 90
       25
 70
     0
 43
0.0
 10
366.424683
 20
222.359634
 10
365.637543
 20
222.236465
 10
364.884308
 20
222.074387
 10
364.172791
 20
221.877319
 10
363.509247
 20
221.64975
 10
362.898285
 20
221.3965
 10
362.342773
 20
221.122543
 10
361.839386
 20
220.829773
 10
361.367767
 20
220.506134
 10
360.93277
 20
220.150589
 10
360.542999
 20
219.764877
 10
360.206787
 20
219.351761
 10
359.931854
 20
218.914917
 10
359.724854
 20
218.458969
 10
359.590973
 20
217.989288
 10
359.533752
 20
217.511826
 10
359.554657
 20
217.032867
 10
359.653137
 20
216.558792
 10
359.82666
 20
216.095749
 10
360.070709
 20
215.649384
 10
360.379272
 20
215.224701
 10
360.745117
 20
214.825836
 10
361.160095
 20
214.455948
 10
361.615753
 20
214.117294
 10
362.108765
 20
213.80806
  0
LWPOLYLINE
  5
207
330
205
100
AcDbEntity
  8
0
  6
Continuous
 62
     0
370
    30
100
AcDbPolyline
 90
       43
 70
     0
 43
0.0
 10
362.108765
 20
213.80806
 10
362.632416
 20
213.529266
 10
363.211151
 20
213.268509
 10
363.842896
 20
213.030533
 10
364.523987
 20
212.820145
 10
365.249146
 20
212.641846
 10
366.011536
 20
212.499756
 10
366.802917
 20
212.397293
 10
367.613861
 20
212.337036
 10
368.434082
 20
212.320511
 10
369.25296
 20
212.348145
 10
370.059906
 20
212.419235
 10
370.844818
 20
212.531967
 10
371.598541
 20
212.683548
 10
372.313171
 20
212.870346
 10
372.982269
 20
213.088135
 10
373.600922
 20
213.332306
 10
374.165924
 20
213.598068
 10
374.676544
 20
213.881271
 10
375.152313
 20
214.191696
 10
375.594818
 20
214.533691
 10
375.995697
 20
214.905853
 10
376.346832
 20
215.305817
 10
376.640442
 20
215.730316
 10
376.869751
 20
216.175186
 10
377.029144
 20
216.635468
 10
377.114594
 20
217.105591
 10
377.123932
 20
217.579529
 10
377.056854
 20
218.051147
 10
376.915161
 20
218.514359
 10
376.702423
 20
218.963455
 10
376.423889
 20
219.393341
 10
376.08609
 20
219.799606
 10
375.696564
 20
220.178787
 10
375.263428
 20
220.528305
 10
374.794983
 20
220.846497
 10
374.295135
 20
221.134888
 10
373.7435
 20
221.405182
 10
373.137695
 20
221.65506
 10
372.480499
 20
221.879715
 10
371.776428
 20
222.074463
 10
371.031525
 20
222.23497
 10
370.235962
 20
222.359695
  0
ARC
  5
208
330
205
100
AcDbEntity
  8
0
  6
Continuous
 62
     0
370
     0
100
AcDbCircle
 10
362.740648
 20
192.290944
 30
0.0
 40
3.385361942805277
100
AcDbArc
 50
166.120909
 51
225.675942
  0
LWPOLYLINE
  5
209
330
205
100
AcDbEntity
  8
0
  6
Continuous
 62
     0
370
     0
100
AcDbPolyline
 90
       33
 70
     0
 43
0.0
 10
360.375244
 20
189.869064
 10
360.735077
 20
189.509399
 10
361.156616
 20
189.15741
 10
361.640381
 20
188.817963
 10
362.185364
 20
188.49614
 10
362.788971
 20
188.197098
 10
363.44696
 20
187.925873
 10
364.153412
 20
187.687103
 10
364.900879
 20
187.484879
 10
365.680573
 20
187.322433
 10
366.482819
 20
187.202118
 10
367.297302
 20
187.125153
 10
368.113586
 20
187.09169
 10
368.92157
 20
187.100784
 10
369.711853
 20
187.150528
 10
370.475983
 20
187.238159
 10
371.206818
 20
187.360245
 10
371.89859
 20
187.512894
 10
372.546997
 20
187.691971
 10
373.169678
 20
187.900757
 10
373.778839
 20
188.145172
 10
374.366028
 20
188.425507
 10
374.922424
 20
188.741165
 10
375.439087
 20
189.090607
 10
375.907318
 20
189.471375
 10
376.319122
 20
189.880005
 10
376.66748
 20
190.312164
 10
376.946747
 20
190.762787
 10
377.152985
 20
191.226242
 10
377.284119
 20
191.696594
 10
377.339905
 20
192.167831
 10
377.322021
 20
192.634094
 10
377.230377
 20
193.102783
  0
ARC
  5
20A
330
205
100
AcDbEntity
  8
0
  6
Continuous
 62
     0
370
    30
100
AcDbCircle
 10
368.344775
 20
202.76387
 30
0.0
 40
12.81625143366755
100
AcDbArc
 50
231.550085
 51
308.344424
  0
LWPOLYLINE
  5
20B
330
205
100
AcDbEntity
  8
0
  6
Continuous
 62
     0
370
    30
100
AcDbPolyline
 90
       13
 70
     0
 43
0.0
 10
359.047424
 20
188.24147
 10
358.730042
 20
188.621307
 10
358.459106
 20
189.013901
 10
358.235504
 20
189.418518
 10
358.060089
 20
189.834442
 10
357.934235
 20
190.26088
 10
357.860718
 20
190.696976
 10
357.842468
 20
191.141846
 10
357.882446
 20
191.594589
 10
357.983917
 20
192.054016
 10
358.150787
 20
192.518356
 10
358.386902
 20
192.985855
 10
358.705566
 20
193.467255
  0
ARC
  5
20C
330
205
100
AcDbEntity
  8
0
  6
Continuous
 62
     0
370
    30
100
AcDbCircle
 10
361.38168
 20
190.70088
 30
0.0
 40
4.098357902667347
100
AcDbArc
 50
135.174231
 51
226.337551
  0
ARC
  5
20D
330
205
100
AcDbEntity
  8
0
  6
Continuous
 62
     0
370
     0
100
AcDbCircle
 10
358.346636
 20
171.352701
 30
0.0
 40
5.933623072158754
100
AcDbArc
 50
161.611762
 51
225.949591
  0
LWPOLYLINE
  5
20E
330
205
100
AcDbEntity
  8
0
  6
Continuous
 62
     0
370
     0
100
AcDbPolyline
 90
       44
 70
     0
 43
0.0
 10
354.221039
 20
167.088043
 10
354.693512
 20
166.604874
 10
355.228271
 20
166.128357
 10
355.826111
 20
165.662079
 10
356.486969
 20
165.209885
 10
357.20993
 20
164.775711
 10
357.993134
 20
164.36351
 10
358.833771
 20
163.977203
 10
359.728027
 20
163.620544
 10
360.671143
 20
163.297073
 10
361.65744
 20
163.009949
 10
362.680481
 20
162.761887
 10
363.733185
 20
162.555084
 10
364.807983
 20
162.391159
 10
365.896942
 20
162.271133
 10
366.992096
 20
162.195328
 10
368.085419
 20
162.163467
 10
369.169312
 20
162.174667
 10
370.23645
 20
162.227448
 10
371.280212
 20
162.319824
 10
372.294525
 20
162.449432
 10
373.2742
 20
162.61351
 10
374.214813
 20
162.809082
 10
375.112762
 20
163.032974
 10
375.966553
 20
163.282333
 10
376.801178
 20
163.563766
 10
377.622803
 20
163.881332
 10
378.42511
 20
164.235352
 10
379.201385
 20
164.625671
 10
379.944824
 20
165.051636
 10
380.648499
 20
165.512039
 10
381.305725
 20
166.005112
 10
381.910065
 20
166.528519
 10
382.455536
 20
167.079391
 10
382.936829
 20
167.654343
 10
383.349457
 20
168.249542
 10
383.68985
 20
168.860825
 10
383.955444
 20
169.48378
 10
384.144775
 20
170.113785
 10
384.257507
 20
170.746216
 10
384.294403
 20
171.376541
 10
384.257263
 20
172.000351
 10
384.148865
 20
172.613525
 10
383.968475
 20
173.224472
  0
LWPOLYLINE
  5
20F
330
205
100
AcDbEntity
  8
0
  6
Continuous
 62
     0
370
    30
100
AcDbPolyline
 90
       34
 70
     0
 43
0.0
 10
358.552124
 20
187.736053
 10
359.014282
 20
187.276276
 10
359.541138
 20
186.840256
 10
360.128693
 20
186.430862
 10
360.772919
 20
186.051025
 10
361.469757
 20
185.703583
 10
362.214569
 20
185.391052
 10
363.001862
 20
185.11528
 10
363.825989
 20
184.878036
 10
364.681244
 20
184.681107
 10
365.561981
 20
184.526199
 10
366.462158
 20
184.414322
 10
367.375366
 20
184.345917
 10
368.295227
 20
184.321335
 10
369.215363
 20
184.341003
 10
370.129333
 20
184.405136
 10
371.031006
 20
184.513031
 10
371.914124
 20
184.663666
 10
372.772614
 20
184.855957
 10
373.60025
 20
185.088867
 10
374.391174
 20
185.361023
 10
375.140259
 20
185.670227
 10
375.842499
 20
186.01416
 10
376.492859
 20
186.390503
 10
377.086395
 20
186.796906
 10
377.618927
 20
187.230637
 10
378.087402
 20
187.6884
 10
378.488739
 20
188.166901
 10
378.819946
 20
188.662827
 10
379.078125
 20
189.172882
 10
379.261658
 20
189.693588
 10
379.369751
 20
190.22142
 10
379.401581
 20
190.752838
 10
379.354706
 20
191.294281
  0
LWPOLYLINE
  5
210
330
205
100
AcDbEntity
  8
0
  6
Continuous
 62
     0
370
    30
100
AcDbPolyline
 90
       37
 70
     0
 43
0.0
 10
378.026031
 20
193.491486
 10
378.327209
 20
193.019379
 10
378.558197
 20
192.528458
 10
378.718903
 20
192.023087
 10
378.809174
 20
191.50766
 10
378.828888
 20
190.986557
 10
378.777924
 20
190.464142
 10
378.656128
 20
189.944794
 10
378.463379
 20
189.432907
 10
378.199524
 20
188.932831
 10
377.864471
 20
188.448959
 10
377.458069
 20
187.985657
 10
376.980377
 20
187.547241
 10
376.434814
 20
187.136597
 10
375.827301
 20
186.7556
 10
375.163818
 20
186.406052
 10
374.450439
 20
186.089813
 10
373.693115
 20
185.80867
 10
372.897888
 20
185.564468
 10
372.07077
 20
185.359024
 10
371.217773
 20
185.194168
 10
370.344879
 20
185.071716
 10
369.45813
 20
184.9935
 10
368.563538
 20
184.961334
 10
367.667084
 20
184.977036
 10
366.774872
 20
185.040924
 10
365.893036
 20
185.150726
 10
365.02771
 20
185.303894
 10
364.18512
 20
185.497879
 10
363.371368
 20
185.730133
 10
362.592651
 20
185.998093
 10
361.855133
 20
186.29924
 10
361.164948
 20
186.630997
 10
360.52829
 20
186.990845
 10
359.951324
 20
187.376205
 10
359.440186
 20
187.784546
 10
358.990997
 20
188.22435
  0
LWPOLYLINE
  5
211
330
205
100
AcDbEntity
  8
0
  6
Continuous
 62
     0
370
    30
100
AcDbPolyline
 90
       30
 70
     0
 43
0.0
 10
353.832214
 20
176.546906
 10
352.754974
 20
176.13092
 10
351.696503
 20
175.67804
 10
350.661987
 20
175.188293
 10
349.656738
 20
174.662003
 10
348.686127
 20
174.099792
 10
347.755524
 20
173.502655
 10
346.870209
 20
172.871918
 10
346.03537
 20
172.209229
 10
345.255859
 20
171.516586
 10
344.536285
 20
170.796326
 10
343.880829
 20
170.051071
 10
343.293213
 20
169.283707
 10
342.776642
 20
168.497375
 10
342.333649
 20
167.695404
 10
341.966278
 20
166.881271
 10
341.675781
 20
166.058533
 10
341.462799
 20
165.230835
 10
341.327332
 20
164.401764
 10
341.268646
 20
163.57489
 10
341.285431
 20
162.753662
 10
341.375732
 20
161.941391
 10
341.537109
 20
161.141159
 10
341.766602
 20
160.355865
 10
342.060852
 20
159.58815
 10
342.416138
 20
158.840378
 10
342.828491
 20
158.114609
 10
343.293701
 20
157.412659
 10
343.807434
 20
156.736008
 10
344.373627
 20
156.076691
  0
ARC
  5
212
330
205
100
AcDbEntity
  8
0
  6
Continuous
 62
     0
370
    30
100
AcDbCircle
 10
375.358249
 20
154.075667
 30
0.0
 40
23.68789168205859
100
AcDbArc
 50
44.302392
 51
71.556873
  0
LWPOLYLINE
  5
213
330
205
100
AcDbEntity
  8
0
  6
Continuous
 62
     0
370
    30
100
AcDbPolyline
 90
       23
 70
     0
 43
0.0
 10
343.998657
 20
155.559464
 10
343.428131
 20
156.223511
 10
342.902893
 20
156.914841
 10
342.427582
 20
157.632172
 10
342.006592
 20
158.373978
 10
341.644318
 20
159.138412
 10
341.344879
 20
159.923294
 10
341.112091
 20
160.726196
 10
340.949463
 20
161.544373
 10
340.859955
 20
162.374832
 10
340.846191
 20
163.214355
 10
340.910065
 20
164.059525
 10
341.052917
 20
164.906738
 10
341.275513
 20
165.75235
 10
341.577759
 20
166.592606
 10
341.959015
 20
167.423767
 10
342.417847
 20
168.242126
 10
342.952148
 20
169.044113
 10
343.559235
 20
169.826294
 10
344.235718
 20
170.585449
 10
344.977692
 20
171.318604
 10
345.780792
 20
172.023102
 10
346.640686
 20
172.696869
  0
ARC
  5
214
330
205
100
AcDbEntity
  8
0
  6
Continuous
 62
     0
370
    30
100
AcDbCircle
 10
351.193113
 20
157.585208
 30
0.0
 40
10.3106415745694
100
AcDbArc
 50
164.935174
 51
225.751718
  0
LWPOLYLINE
  5
215
330
205
100
AcDbEntity
  8
0
  6
Continuous
 62
     0
370
    30
100
AcDbPolyline
 90
       50
 70
     0
 43
0.0
 10
343.998657
 20
155.559464
 10
344.728699
 20
154.808136
 10
345.528564
 20
154.080826
 10
346.395477
 20
153.379532
 10
347.326691
 20
152.706223
 10
348.319397
 20
152.062881
 10
349.370819
 20
151.451523
 10
350.47818
 20
150.874115
 10
351.638611
 20
150.332581
 10
352.848541
 20
149.828384
 10
354.104126
 20
149.362732
 10
355.401459
 20
148.936874
 10
356.736664
 20
148.552002
 10
358.105835
 20
148.209351
 10
359.505096
 20
147.910126
 10
360.930573
 20
147.655518
 10
362.378052
 20
147.446274
 10
363.84317
 20
147.282669
 10
365.321564
 20
147.164978
 10
366.808777
 20
147.093475
 10
368.300446
 20
147.068436
 10
369.792145
 20
147.090118
 10
371.27951
 20
147.158798
 10
372.758209
 20
147.274414
 10
374.223907
 20
147.436249
 10
375.672455
 20
147.6436
 10
377.099518
 20
147.895706
 10
378.500916
 20
148.191833
 10
379.872375
 20
148.53125
 10
381.209656
 20
148.913208
 10
382.508667
 20
149.336807
 10
383.7659
 20
149.800613
 10
384.977875
 20
150.30307
 10
386.141174
 20
150.842636
 10
387.25238
 20
151.41777
 10
388.308105
 20
152.026901
 10
389.304871
 20
152.668503
 10
390.239349
 20
153.340927
 10
391.1091
 20
154.041977
 10
391.911926
 20
154.769165
 10
392.645691
 20
155.520065
 10
393.308228
 20
156.292221
 10
393.897369
 20
157.083145
 10
394.41095
 20
157.890411
 10
394.846893
 20
158.711563
 10
395.204193
 20
159.544235
 10
395.482697
 20
160.386154
 10
395.682251
 20
161.235046
 10
395.802612
 20
162.088699
 10
395.843079
 20
162.947693
  0
LWPOLYLINE
  5
216
330
205
100
AcDbEntity
  8
0
  6
Continuous
 62
     0
370
    30
100
AcDbPolyline
 90
       60
 70
     0
 43
0.0
 10
392.310822
 20
170.620361
 10
392.942993
 20
169.878738
 10
393.506683
 20
169.116302
 10
394.000458
 20
168.335739
 10
394.423004
 20
167.539719
 10
394.772949
 20
166.730927
 10
395.04895
 20
165.912064
 10
395.249634
 20
165.0858
 10
395.373688
 20
164.254822
 10
395.419769
 20
163.421799
 10
395.387787
 20
162.589157
 10
395.278595
 20
161.75914
 10
395.093079
 20
160.933975
 10
394.832062
 20
160.115875
 10
394.49646
 20
159.307083
 10
394.087128
 20
158.509811
 10
393.60498
 20
157.726303
 10
393.050873
 20
156.958771
 10
392.426056
 20
156.209366
 10
391.732849
 20
155.480072
 10
390.973602
 20
154.772827
 10
390.150757
 20
154.089584
 10
389.266724
 20
153.432281
 10
388.323883
 20
152.802856
 10
387.324677
 20
152.203278
 10
386.271484
 20
151.635468
 10
385.166809
 20
151.101334
 10
384.013885
 20
150.602249
 10
382.816376
 20
150.139313
 10
381.577911
 20
149.713654
 10
380.302185
 20
149.32634
 10
378.992798
 20
148.978485
 10
377.653473
 20
148.671188
 10
376.287781
 20
148.405563
 10
374.899475
 20
148.182709
 10
373.49231
 20
148.003342
 10
372.070404
 20
147.867599
 10
370.637878
 20
147.775543
 10
369.198914
 20
147.727234
 10
367.757599
 20
147.722733
 10
366.318054
 20
147.762115
 10
364.88446
 20
147.845428
 10
363.460907
 20
147.972748
 10
362.051483
 20
148.144028
 10
360.660004
 20
148.358643
 10
359.290161
 20
148.615753
 10
357.945648
 20
148.91449
 10
356.630127
 20
149.254013
 10
355.347351
 20
149.633484
 10
354.100952
 20
150.052032
 10
352.894623
 20
150.50882
 10
351.732086
 20
151.00296
 10
350.61673
 20
151.533035
 10
349.551544
 20
152.096893
 10
348.53952
 20
152.692337
 10
347.58374
 20
153.3172
 10
346.687103
 20
153.969269
 10
345.852722
 20
154.646378
 10
345.083496
 20
155.346344
 10
344.373627
 20
156.076691
  0
LWPOLYLINE
  5
217
330
205
100
AcDbEntity
  8
0
  6
Continuous
 62
     0
370
    30
100
AcDbPolyline
 90
       54
 70
     0
 43
0.0
 10
343.998657
 20
150.199463
 10
344.715118
 20
149.460693
 10
345.499023
 20
148.745102
 10
346.34787
 20
148.054611
 10
347.259064
 20
147.391144
 10
348.230103
 20
146.756622
 10
349.258453
 20
146.152969
 10
350.341339
 20
145.582001
 10
351.475464
 20
145.045181
 10
352.65744
 20
144.543884
 10
353.88382
 20
144.079544
 10
355.151215
 20
143.653549
 10
356.456207
 20
143.267303
 10
357.795197
 20
142.921997
 10
359.164246
 20
142.618393
 10
360.559357
 20
142.357224
 10
361.976501
 20
142.139206
 10
363.411713
 20
141.965042
 10
364.860931
 20
141.835464
 10
366.320129
 20
141.7509
 10
367.785095
 20
141.711349
 10
369.251648
 20
141.716797
 10
370.715637
 20
141.767197
 10
372.172821
 20
141.862534
 10
373.619049
 20
142.002762
 10
375.050232
 20
142.187515
 10
376.462372
 20
142.416046
 10
377.851532
 20
142.687561
 10
379.213715
 20
143.001282
 10
380.544983
 20
143.356445
 10
381.841339
 20
143.752258
 10
383.099213
 20
144.187561
 10
384.315186
 20
144.66095
 10
385.485901
 20
145.170959
 10
386.608002
 20
145.716141
 10
387.678131
 20
146.295059
 10
388.692993
 20
146.90625
 10
389.649811
 20
147.547928
 10
390.546112
 20
148.218109
 10
391.379547
 20
148.914841
 10
392.147644
 20
149.636154
 10
392.847992
 20
150.380051
 10
393.478302
 20
151.144547
 10
394.036926
 20
151.927429
 10
394.522614
 20
152.726395
 10
394.934143
 20
153.539124
 10
395.270264
 20
154.363297
 10
395.529694
 20
155.19664
 10
395.711365
 20
156.036789
 10
395.815033
 20
156.881378
 10
395.840729
 20
157.727982
 10
395.788544
 20
158.574188
 10
395.658508
 20
159.417572
 10
395.447815
 20
160.265625
  0
LWPOLYLINE
  5
218
330
205
100
AcDbEntity
  8
0
  6
Continuous
 62
     0
370
    30
100
AcDbPolyline
 90
       13
 70
     0
 43
0.0
 10
373.076324
 20
191.785461
 10
372.387756
 20
191.497742
 10
371.647308
 20
191.256836
 10
370.864258
 20
191.065994
 10
370.048889
 20
190.927353
 10
369.211639
 20
190.842941
 10
368.363159
 20
190.813843
 10
367.514404
 20
190.840195
 10
366.676361
 20
190.921936
 10
365.85965
 20
191.057907
 10
365.074768
 20
191.246231
 10
364.332031
 20
191.484787
 10
363.607788
 20
191.785614
  0
LWPOLYLINE
  5
219
330
205
100
AcDbEntity
  8
0
  6
Continuous
 62
     0
370
     0
100
AcDbPolyline
 90
       30
 70
     0
 43
0.0
 10
357.464996
 20
217.266846
 10
357.436615
 20
216.73584
 10
357.485443
 20
216.207962
 10
357.609406
 20
215.688675
 10
357.804993
 20
215.18309
 10
358.067352
 20
214.695847
 10
358.390656
 20
214.230881
 10
358.768188
 20
213.791489
 10
359.19281
 20
213.380157
 10
359.657196
 20
212.998642
 10
360.159271
 20
212.644485
 10
360.718018
 20
212.304733
 10
361.33548
 20
211.981918
 10
362.009949
 20
211.680573
 10
362.738495
 20
211.405273
 10
363.516724
 20
211.160416
 10
364.338928
 20
210.950073
 10
365.19809
 20
210.777863
 10
366.086151
 20
210.646729
 10
366.994049
 20
210.558838
 10
367.912292
 20
210.515427
 10
368.831024
 20
210.516861
 10
369.74054
 20
210.5625
 10
370.631531
 20
210.650818
 10
371.495483
 20
210.779465
 10
372.324829
 20
210.945374
 10
373.113129
 20
211.144974
 10
373.855316
 20
211.374268
 10
374.547485
 20
211.629074
 10
375.197052
 20
211.909714
  0
ARC
  5
21A
330
205
100
AcDbEntity
  8
0
  6
Continuous
 62
     0
370
     0
100
AcDbCircle
 10
373.53239
 20
217.348295
 30
0.0
 40
5.68763997077567
100
AcDbArc
 50
287.01839
 51
359.179468
  0
LWPOLYLINE
  5
21B
330
205
100
AcDbEntity
  8
0
  6
Continuous
 62
     0
370
    30
100
AcDbPolyline
 90
       39
 70
     0
 43
0.0
 10
374.696869
 20
212.853195
 10
374.08548
 20
212.58934
 10
373.422363
 20
212.346481
 10
372.710144
 20
212.128952
 10
371.952789
 20
211.94101
 10
371.15564
 20
211.786667
 10
370.325348
 20
211.66951
 10
369.469788
 20
211.592529
 10
368.597778
 20
211.557983
 10
367.718903
 20
211.567215
 10
366.843048
 20
211.620636
 10
365.980164
 20
211.717651
 10
365.139862
 20
211.856659
 10
364.330933
 20
212.035187
 10
363.561279
 20
212.249985
 10
362.837463
 20
212.497162
 10
362.164734
 20
212.772415
 10
361.546844
 20
213.071182
 10
360.986145
 20
213.388809
 10
360.483643
 20
213.720764
 10
360.026276
 20
214.07341
 10
359.605164
 20
214.455933
 10
359.227875
 20
214.866821
 10
358.901703
 20
215.303802
 10
358.633698
 20
215.763794
 10
358.429993
 20
216.242966
 10
358.295868
 20
216.736786
 10
358.235168
 20
217.240173
 10
358.250305
 20
217.747589
 10
358.34198
 20
218.253311
 10
358.509155
 20
218.751602
 10
358.749146
 20
219.236938
 10
359.057617
 20
219.704193
 10
359.428986
 20
220.148849
 10
359.856506
 20
220.567047
 10
360.332764
 20
220.955811
 10
360.849823
 20
221.312912
 10
361.399658
 20
221.637009
 10
361.987579
 20
221.93367
  0
LWPOLYLINE
  5
21C
330
205
100
AcDbEntity
  8
0
  6
Continuous
 62
     0
370
     0
100
AcDbPolyline
 90
       45
 70
     0
 43
0.0
 10
358.825073
 20
220.020676
 10
358.157104
 20
219.649734
 10
357.518555
 20
219.245056
 10
356.91626
 20
218.807434
 10
356.357086
 20
218.338272
 10
355.847778
 20
217.839554
 10
355.394745
 20
217.313873
 10
355.003845
 20
216.764389
 10
354.680176
 20
216.194839
 10
354.428009
 20
215.609406
 10
354.250458
 20
215.012619
 10
354.149536
 20
214.409271
 10
354.125977
 20
213.804321
 10
354.17926
 20
213.202682
 10
354.307648
 20
212.609116
 10
354.50824
 20
212.028137
 10
354.777161
 20
211.463928
 10
355.109558
 20
210.920166
 10
355.500031
 20
210.400024
 10
355.942566
 20
209.906097
 10
356.430878
 20
209.44046
 10
356.958557
 20
209.004562
 10
357.521759
 20
208.59758
 10
358.138977
 20
208.205841
 10
358.814911
 20
207.829407
 10
359.548615
 20
207.472183
 10
360.338104
 20
207.138168
 10
361.18042
 20
206.831284
 10
362.071472
 20
206.555328
 10
363.006226
 20
206.313843
 10
363.978638
 20
206.10997
 10
364.98175
 20
205.946381
 10
366.007965
 20
205.82518
 10
367.049164
 20
205.747818
 10
368.096802
 20
205.715027
 10
369.142395
 20
205.726807
 10
370.17749
 20
205.782471
 10
371.194031
 20
205.88063
 10
372.18457
 20
206.019241
 10
373.142365
 20
206.195786
 10
374.061462
 20
206.407227
 10
374.936951
 20
206.650238
 10
375.764893
 20
206.921265
 10
376.542267
 20
207.216614
 10
377.27832
 20
207.537796
  0
LWPOLYLINE
  5
21D
330
205
100
AcDbEntity
  8
0
  6
Continuous
 62
     0
370
     0
100
AcDbPolyline
 90
       26
 70
     0
 43
0.0
 10
377.27832
 20
207.537796
 10
377.961304
 20
207.877655
 10
378.62088
 20
208.251053
 10
379.250519
 20
208.657654
 10
379.843445
 20
209.096603
 10
380.392975
 20
209.566437
 10
380.892456
 20
210.06517
 10
381.335754
 20
210.590164
 10
381.717163
 20
211.138245
 10
382.031738
 20
211.705734
 10
382.275421
 20
212.288467
 10
382.445282
 20
212.882004
 10
382.539429
 20
213.481583
 10
382.557251
 20
214.082397
 10
382.499329
 20
214.679611
 10
382.367462
 20
215.26857
 10
382.16452
 20
215.844849
 10
381.89444
 20
216.404404
 10
381.56189
 20
216.943649
 10
381.172272
 20
217.459488
 10
380.731476
 20
217.949387
 10
380.245636
 20
218.411346
 10
379.7211
 20
218.843948
 10
379.161469
 20
219.248047
 10
378.548492
 20
219.637161
 10
377.861359
 20
220.019653
  0
LWPOLYLINE
  5
21E
330
205
100
AcDbEntity
  8
0
  6
Continuous
 62
     0
370
     0
100
AcDbPolyline
 90
       34
 70
     0
 43
0.0
 10
353.968048
 20
214.077698
 10
353.967438
 20
213.471909
 10
354.042725
 20
212.870789
 10
354.191864
 20
212.279007
 10
354.411743
 20
211.700897
 10
354.698242
 20
211.140442
 10
355.046448
 20
210.601135
 10
355.450897
 20
210.085953
 10
355.905579
 20
209.597366
 10
356.404266
 20
209.137207
 10
356.940643
 20
208.706833
 10
357.514221
 20
208.303192
 10
358.144226
 20
207.913269
 10
358.832397
 20
207.539246
 10
359.577637
 20
207.185028
 10
360.377808
 20
206.854507
 10
361.229858
 20
206.551544
 10
362.129639
 20
206.279831
 10
363.071991
 20
206.042801
 10
364.050842
 20
205.843506
 10
365.059296
 20
205.684479
 10
366.089783
 20
205.567749
 10
367.134247
 20
205.494629
 10
368.184357
 20
205.46579
 10
369.231689
 20
205.481186
 10
370.267975
 20
205.540054
 10
371.285339
 20
205.640991
 10
372.276489
 20
205.781967
 10
373.234802
 20
205.960449
 10
374.15451
 20
206.173477
 10
375.030823
 20
206.41774
 10
375.859802
 20
206.689743
 10
376.638611
 20
206.985855
 10
377.382874
 20
207.310638
  0
LWPOLYLINE
  5
21F
330
205
100
AcDbEntity
  8
0
  6
Continuous
 62
     0
370
     0
100
AcDbPolyline
 90
       15
 70
     0
 43
0.0
 10
377.382874
 20
207.310638
 10
378.033173
 20
207.63298
 10
378.662903
 20
207.985336
 10
379.266541
 20
208.367447
 10
379.83844
 20
208.778671
 10
380.372925
 20
209.217896
 10
380.864441
 20
209.683548
 10
381.307587
 20
210.173599
 10
381.697418
 20
210.685562
 10
382.02951
 20
211.216507
 10
382.300018
 20
211.763153
 10
382.50592
 20
212.321854
 10
382.645081
 20
212.888779
 10
382.716278
 20
213.4599
 10
382.7164
 20
214.077698
  0
LWPOLYLINE
  5
220
330
205
100
AcDbEntity
  8
0
  6
Continuous
 62
     0
370
    30
100
AcDbPolyline
 90
       16
 70
     0
 43
0.0
 10
377.438416
 20
205.894363
 10
378.102386
 20
206.223785
 10
378.744934
 20
206.584305
 10
379.36026
 20
206.975662
 10
379.942444
 20
207.397156
 10
380.485474
 20
207.847565
 10
380.983551
 20
208.325256
 10
381.431
 20
208.828003
 10
381.822693
 20
209.353165
 10
382.153992
 20
209.897629
 10
382.421021
 20
210.457855
 10
382.620697
 20
211.029999
 10
382.750916
 20
211.610001
 10
382.810516
 20
212.193573
 10
382.799438
 20
212.776474
 10
382.711243
 20
213.390335
  0
LWPOLYLINE
  5
221
330
205
100
AcDbEntity
  8
0
  6
Continuous
 62
     0
370
    30
100
AcDbPolyline
 90
       33
 70
     0
 43
0.0
 10
377.438416
 20
205.894363
 10
376.580536
 20
205.523819
 10
375.677338
 20
205.190964
 10
374.7341
 20
204.897369
 10
373.756073
 20
204.644653
 10
372.748444
 20
204.434387
 10
371.716492
 20
204.268082
 10
370.665924
 20
204.146515
 10
369.6026
 20
204.069977
 10
368.53241
 20
204.038788
 10
367.461243
 20
204.053268
 10
366.394989
 20
204.113708
 10
365.339447
 20
204.219849
 10
364.300262
 20
204.370728
 10
363.283081
 20
204.565338
 10
362.293579
 20
204.802643
 10
361.337372
 20
205.08165
 10
360.419861
 20
205.401077
 10
359.545776
 20
205.758881
 10
358.719604
 20
206.152893
 10
357.945923
 20
206.580902
 10
357.229248
 20
207.040726
 10
356.573975
 20
207.530106
 10
355.983398
 20
208.046265
 10
355.460297
 20
208.586197
 10
355.007385
 20
209.146881
 10
354.627502
 20
209.725311
 10
354.323303
 20
210.318436
 10
354.096436
 20
210.923065
 10
353.947479
 20
211.535751
 10
353.876892
 20
212.153091
 10
353.885101
 20
212.771637
 10
353.973175
 20
213.390518
  0
LWPOLYLINE
  5
222
330
205
100
AcDbEntity
  8
0
  6
Continuous
 62
     0
370
    30
100
AcDbPolyline
 90
       43
 70
     0
 43
0.0
 10
374.696869
 20
212.853195
 10
375.190186
 20
213.09877
 10
375.65567
 20
213.362747
 10
376.092224
 20
213.64476
 10
376.498688
 20
213.944412
 10
376.873871
 20
214.261368
 10
377.215729
 20
214.595352
 10
377.52179
 20
214.946152
 10
377.789612
 20
215.313538
 10
378.016785
 20
215.697296
 10
378.200165
 20
216.096924
 10
378.336182
 20
216.511703
 10
378.421295
 20
216.940948
 10
378.451874
 20
217.383926
 10
378.423492
 20
217.83902
 10
378.330627
 20
218.303406
 10
378.167664
 20
218.774246
 10
377.929016
 20
219.248642
 10
377.61142
 20
219.722305
 10
377.21701
 20
220.187744
 10
376.748505
 20
220.63707
 10
376.208679
 20
221.062347
 10
375.60202
 20
221.456451
 10
374.939667
 20
221.815353
 10
374.234375
 20
222.135849
 10
373.498993
 20
222.414703
 10
372.745758
 20
222.649155
 10
371.982666
 20
222.840134
 10
371.215729
 20
222.990189
 10
370.450989
 20
223.101868
 10
369.694397
 20
223.177704
 10
368.949554
 20
223.219894
 10
368.218536
 20
223.230286
 10
367.503235
 20
223.210754
 10
366.805634
 20
223.163177
 10
366.127167
 20
223.089203
 10
365.468781
 20
222.990158
 10
364.83136
 20
222.867386
 10
364.215759
 20
222.722214
 10
363.622894
 20
222.55574
 10
363.053619
 20
222.368591
 10
362.508789
 20
222.161316
 10
361.987579
 20
221.93367
  0
LWPOLYLINE
  5
223
330
205
100
AcDbEntity
  8
0
  6
Continuous
 62
     0
370
    30
100
AcDbPolyline
 90
       41
 70
     0
 43
0.0
 10
375.614594
 20
220.786316
 10
376.140869
 20
220.372284
 10
376.590759
 20
219.934967
 10
376.963043
 20
219.48233
 10
377.256439
 20
219.0224
 10
377.470856
 20
218.562363
 10
377.610504
 20
218.106339
 10
377.680817
 20
217.657623
 10
377.687164
 20
217.219513
 10
377.634705
 20
216.794861
 10
377.527802
 20
216.384766
 10
377.370667
 20
215.989838
 10
377.167389
 20
215.610703
 10
376.921875
 20
215.247955
 10
376.63681
 20
214.901932
 10
376.314575
 20
214.572952
 10
375.95752
 20
214.261337
 10
375.567932
 20
213.967377
 10
375.147339
 20
213.691437
 10
374.697235
 20
213.433838
 10
374.219055
 20
213.194931
 10
373.714142
 20
212.975128
 10
373.183441
 20
212.775116
 10
372.627869
 20
212.595612
 10
372.048309
 20
212.437363
 10
371.445679
 20
212.301208
 10
370.820953
 20
212.188339
 10
370.175171
 20
212.100037
 10
369.509338
 20
212.037567
 10
368.824646
 20
212.00238
 10
368.122864
 20
211.996552
 10
367.405975
 20
212.022263
 10
366.675842
 20
212.081757
 10
365.935272
 20
212.177261
 10
365.190155
 20
212.311111
 10
364.447205
 20
212.485626
 10
363.713165
 20
212.703171
 10
362.99585
 20
212.965302
 10
362.307434
 20
213.270416
 10
361.661224
 20
213.616135
 10
361.069855
 20
214.000549
  0
LWPOLYLINE
  5
224
330
205
100
AcDbEntity
  8
0
  6
Continuous
 62
     0
370
    30
100
AcDbPolyline
 90
       35
 70
     0
 43
0.0
 10
361.069855
 20
214.000549
 10
360.558655
 20
214.40242
 10
360.113892
 20
214.829834
 10
359.739166
 20
215.279053
 10
359.438049
 20
215.746353
 10
359.212952
 20
216.227737
 10
359.06546
 20
216.71904
 10
358.997131
 20
217.216064
 10
359.00885
 20
217.714615
 10
359.100006
 20
218.210464
 10
359.269806
 20
218.699326
 10
359.517303
 20
219.177002
 10
359.840118
 20
219.639496
 10
360.235199
 20
220.08287
 10
360.699524
 20
220.503265
 10
361.229248
 20
220.897049
 10
361.819489
 20
221.261063
 10
362.465271
 20
221.592102
 10
363.161407
 20
221.887161
 10
363.901703
 20
222.143967
 10
364.679749
 20
222.360336
 10
365.489136
 20
222.534225
 10
366.322906
 20
222.664185
 10
367.173859
 20
222.749344
 10
368.034729
 20
222.788803
 10
368.898254
 20
222.782059
 10
369.75708
 20
222.729462
 10
370.603821
 20
222.631439
 10
371.431183
 20
222.488556
 10
372.232239
 20
222.3022
 10
373.000214
 20
222.074112
 10
373.728394
 20
221.806046
 10
374.410492
 20
221.500244
 10
375.040955
 20
221.159485
 10
375.614594
 20
220.786316
  0
ARC
  5
225
330
205
100
AcDbEntity
  8
0
  6
Continuous
 62
     0
370
     0
100
AcDbCircle
 10
345.382373
 20
192.155738
 30
0.0
 40
8.106840620179506
100
AcDbArc
 50
9.551876
 51
57.156864
  0
LINE
  5
226
330
205
100
AcDbEntity
  8
0
  6
Continuous
 62
     0
370
     0
100
AcDbLine
 10
353.439755
 20
192.733352
 30
0.0
 11
353.376818
 21
193.500991
 31
0.0
  0
LWPOLYLINE
  5
227
330
205
100
AcDbEntity
  8
0
  6
Continuous
 62
     0
370
     0
100
AcDbPolyline
 90
       16
 70
     0
 43
0.0
 10
355.119507
 20
195.672485
 10
355.038025
 20
196.079529
 10
354.908264
 20
196.514114
 10
354.72821
 20
196.965073
 10
354.499023
 20
197.418335
 10
354.225525
 20
197.858078
 10
353.915894
 20
198.268387
 10
353.581055
 20
198.635117
 10
353.233307
 20
198.947433
 10
352.884918
 20
199.198837
 10
352.546906
 20
199.387375
 10
352.227386
 20
199.515305
 10
351.911469
 20
199.59082
 10
351.597443
 20
199.609253
 10
351.296295
 20
199.562744
 10
351.014923
 20
199.443893
  0
ARC
  5
228
330
205
100
AcDbEntity
  8
0
  6
Continuous
 62
     0
370
     0
100
AcDbCircle
 10
353.203631
 20
195.127287
 30
0.0
 40
1.991936785156287
100
AcDbArc
 50
309.04652
 51
15.884725
  0
LWPOLYLINE
  5
229
330
205
100
AcDbEntity
  8
0
  6
Continuous
 62
     0
370
     0
100
AcDbPolyline
 90
       16
 70
     0
 43
0.0
 10
355.377136
 20
195.823776
 10
355.295654
 20
196.230835
 10
355.165894
 20
196.665421
 10
354.985809
 20
197.116379
 10
354.756653
 20
197.569626
 10
354.483124
 20
198.009369
 10
354.173523
 20
198.419693
 10
353.838684
 20
198.786407
 10
353.490936
 20
199.098724
 10
353.142548
 20
199.350143
 10
352.804504
 20
199.538681
 10
352.485016
 20
199.666611
 10
352.169098
 20
199.742111
 10
351.855072
 20
199.760559
 10
351.553925
 20
199.714035
 10
351.272522
 20
199.595184
  0
ARC
  5
22A
330
205
100
AcDbEntity
  8
0
  6
Continuous
 62
     0
370
     0
100
AcDbCircle
 10
353.461251
 20
195.278579
 30
0.0
 40
1.991935261466765
100
AcDbArc
 50
309.046423
 51
15.884748
  0
LWPOLYLINE
  5
22B
330
205
100
AcDbEntity
  8
0
  6
Continuous
 62
     0
370
    30
100
AcDbPolyline
 90
       14
 70
     0
 43
0.0
 10
354.072479
 20
193.306686
 10
354.411011
 20
193.194229
 10
354.751648
 20
193.129105
 10
355.088654
 20
193.117996
 10
355.413239
 20
193.166779
 10
355.716217
 20
193.279053
 10
355.988678
 20
193.455536
 10
356.222687
 20
193.69368
 10
356.41217
 20
193.987747
 10
356.553253
 20
194.329269
 10
356.644623
 20
194.70784
 10
356.687408
 20
195.11203
 10
356.684845
 20
195.53038
 10
356.638824
 20
195.972076
  0
LWPOLYLINE
  5
22C
330
205
100
AcDbEntity
  8
0
  6
Continuous
 62
     0
370
    30
100
AcDbPolyline
 90
       23
 70
     0
 43
0.0
 10
356.703461
 20
195.949295
 10
356.603607
 20
196.453323
 10
356.454407
 20
196.96698
 10
356.25827
 20
197.48172
 10
356.018463
 20
197.989075
 10
355.739075
 20
198.480591
 10
355.42453
 20
198.948074
 10
355.080261
 20
199.383926
 10
354.711823
 20
199.780731
 10
354.325378
 20
200.132034
 10
353.927338
 20
200.432037
 10
353.524292
 20
200.675583
 10
353.122894
 20
200.858932
 10
352.729858
 20
200.978714
 10
352.351654
 20
201.033203
 10
351.994537
 20
201.021408
 10
351.66452
 20
200.943405
 10
351.366882
 20
200.800766
 10
351.106812
 20
200.59552
 10
350.888397
 20
200.331345
 10
350.715393
 20
200.012482
 10
350.590668
 20
199.64418
 10
350.513947
 20
199.213272
  0
LWPOLYLINE
  5
22D
330
205
100
AcDbEntity
  8
0
  6
Continuous
 62
     0
370
    30
100
AcDbPolyline
 90
       22
 70
     0
 43
0.0
 10
350.587921
 20
199.240051
 10
350.67157
 20
199.653214
 10
350.808105
 20
200.01947
 10
350.995361
 20
200.33197
 10
351.229797
 20
200.585327
 10
351.507202
 20
200.774918
 10
351.822723
 20
200.897247
 10
352.170532
 20
200.950348
 10
352.544556
 20
200.932938
 10
352.937927
 20
200.845673
 10
353.343628
 20
200.68985
 10
353.754425
 20
200.468414
 10
354.162872
 20
200.185333
 10
354.561676
 20
199.845581
 10
354.943695
 20
199.455444
 10
355.301971
 20
199.021713
 10
355.630219
 20
198.552368
 10
355.922394
 20
198.055725
 10
356.17334
 20
197.54071
 10
356.378571
 20
197.016647
 10
356.534271
 20
196.492859
 10
356.638824
 20
195.972076
  0
LWPOLYLINE
  5
22E
330
205
100
AcDbEntity
  8
0
  6
Continuous
 62
     0
370
     0
100
AcDbPolyline
 90
       23
 70
     0
 43
0.0
 10
359.132385
 20
197.192169
 10
359.041077
 20
197.666
 10
358.902069
 20
198.168747
 10
358.713074
 20
198.691528
 10
358.47406
 20
199.22319
 10
358.187469
 20
199.750839
 10
357.858429
 20
200.260803
 10
357.494415
 20
200.739655
 10
357.104797
 20
201.175385
 10
356.700012
 20
201.558395
 10
356.290619
 20
201.882202
 10
355.886597
 20
202.14357
 10
355.496552
 20
202.342468
 10
355.12558
 20
202.482101
 10
354.755615
 20
202.570404
 10
354.386749
 20
202.602356
 10
354.028229
 20
202.570923
 10
353.690002
 20
202.471268
 10
353.381989
 20
202.301544
 10
353.113251
 20
202.0634
 10
352.891174
 20
201.761993
 10
352.720764
 20
201.405685
 10
352.604034
 20
201.003799
  0
ARC
  5
22F
330
205
100
AcDbEntity
  8
0
  6
Continuous
 62
     0
370
     0
100
AcDbCircle
 10
356.630302
 20
196.424025
 30
0.0
 40
2.617337170247877
100
AcDbArc
 50
303.378817
 51
17.066517
  0
LWPOLYLINE
  5
230
330
205
100
AcDbEntity
  8
0
  6
Continuous
 62
     0
370
     0
100
AcDbPolyline
 90
       26
 70
     0
 43
0.0
 10
360.979156
 20
197.660736
 10
360.88446
 20
198.164597
 10
360.744781
 20
198.696732
 10
360.557983
 20
199.249985
 10
360.323395
 20
199.81543
 10
360.042267
 20
200.382675
 10
359.717834
 20
200.940353
 10
359.355194
 20
201.476868
 10
358.961212
 20
201.98111
 10
358.544006
 20
202.443222
 10
358.112396
 20
202.85524
 10
357.675415
 20
203.211502
 10
357.241547
 20
203.50885
 10
356.818481
 20
203.746567
 10
356.412506
 20
203.926086
 10
356.02002
 20
204.052917
 10
355.624451
 20
204.131073
 10
355.231842
 20
204.154053
 10
354.850128
 20
204.116165
 10
354.487732
 20
204.013458
 10
354.153046
 20
203.844223
 10
353.853943
 20
203.60936
 10
353.597076
 20
203.312454
 10
353.387543
 20
202.959579
 10
353.228424
 20
202.55899
 10
353.118225
 20
202.106384
  0
LWPOLYLINE
  5
231
330
205
100
AcDbEntity
  8
0
  6
Continuous
 62
     0
370
     0
100
AcDbPolyline
 90
       15
 70
     0
 43
0.0
 10
357.808258
 20
194.12027
 10
358.207062
 20
194.006729
 10
358.607849
 20
193.94516
 10
359.00296
 20
193.942398
 10
359.383881
 20
194.003815
 10
359.741821
 20
194.132751
 10
360.068146
 20
194.330002
 10
360.355072
 20
194.593567
 10
360.596283
 20
194.918655
 10
360.787292
 20
195.297943
 10
360.925781
 20
195.722107
 10
361.011627
 20
196.180588
 10
361.046753
 20
196.662262
 10
361.034698
 20
197.156311
 10
360.979156
 20
197.660736
  0
LWPOLYLINE
  5
232
330
205
100
AcDbEntity
  8
0
  6
Continuous
 62
     0
370
     0
100
AcDbPolyline
 90
       25
 70
     0
 43
0.0
 10
361.812439
 20
197.890915
 10
361.712616
 20
198.42337
 10
361.565857
 20
198.985413
 10
361.369904
 20
199.569748
 10
361.124054
 20
200.16716
 10
360.829529
 20
200.767029
 10
360.489471
 20
201.357651
 10
360.10907
 20
201.927048
 10
359.695251
 20
202.463684
 10
359.256317
 20
202.95726
 10
358.801331
 20
203.399323
 10
358.339569
 20
203.783737
 10
357.879944
 20
204.106918
 10
357.430481
 20
204.367798
 10
356.997925
 20
204.567535
 10
356.582428
 20
204.710678
 10
356.164551
 20
204.803543
 10
355.74823
 20
204.840134
 10
355.341492
 20
204.814255
 10
354.952972
 20
204.72142
 10
354.5914
 20
204.559296
 10
354.265076
 20
204.32814
 10
353.981201
 20
204.03096
 10
353.745514
 20
203.673401
 10
353.560577
 20
203.26001
  0
LWPOLYLINE
  5
233
330
205
100
AcDbEntity
  8
0
  6
Continuous
 62
     0
370
     0
100
AcDbPolyline
 90
       14
 70
     0
 43
0.0
 10
359.03125
 20
193.944641
 10
359.44455
 20
193.905411
 10
359.848846
 20
193.927368
 10
360.235748
 20
194.015045
 10
360.596741
 20
194.170822
 10
360.923615
 20
194.394669
 10
361.209259
 20
194.683868
 10
361.447906
 20
195.033112
 10
361.635712
 20
195.43486
 10
361.770782
 20
195.879822
 10
361.853333
 20
196.357635
 10
361.885406
 20
196.857544
 10
361.870605
 20
197.369125
 10
361.812439
 20
197.890915
  0
LINE
  5
234
330
205
100
AcDbEntity
  8
0
  6
Continuous
 62
     0
370
    30
100
AcDbLine
 10
361.129057
 20
194.59137
 30
0.0
 11
361.707286
 21
194.822118
 31
0.0
  0
LINE
  5
235
330
205
100
AcDbEntity
  8
0
  6
Continuous
 62
     0
370
    30
100
AcDbLine
 10
355.147263
 20
204.777088
 30
0.0
 11
355.630342
 21
205.169178
 31
0.0
  0
LWPOLYLINE
  5
236
330
205
100
AcDbEntity
  8
0
  6
Continuous
 62
     0
370
     0
100
AcDbPolyline
 90
       26
 70
     0
 43
0.0
 10
345.909271
 20
215.093048
 10
345.998749
 20
215.574387
 10
346.132019
 20
216.083862
 10
346.311218
 20
216.614059
 10
346.536774
 20
217.15564
 10
346.80722
 20
217.697769
 10
347.118988
 20
218.228668
 10
347.466431
 20
218.736404
 10
347.842377
 20
219.209763
 10
348.238281
 20
219.639053
 10
348.645172
 20
220.016724
 10
349.054077
 20
220.33783
 10
349.456696
 20
220.600052
 10
349.845825
 20
220.803589
 10
350.216858
 20
220.951172
 10
350.586243
 20
221.050629
 10
350.955811
 20
221.098343
 10
351.317902
 20
221.087814
 10
351.664093
 20
221.014206
 10
351.98584
 20
220.874847
 10
352.275055
 20
220.669785
 10
352.524597
 20
220.401917
 10
352.729004
 20
220.076904
 10
352.884766
 20
219.702805
 10
352.990509
 20
219.289398
 10
353.048279
 20
218.830811
  0
LWPOLYLINE
  5
237
330
205
100
AcDbEntity
  8
0
  6
Continuous
 62
     0
370
     0
100
AcDbPolyline
 90
       16
 70
     0
 43
0.0
 10
349.207306
 20
212.064224
 10
348.83432
 20
211.897705
 10
348.471588
 20
211.780945
 10
348.10614
 20
211.711761
 10
347.74472
 20
211.696747
 10
347.395142
 20
211.741318
 10
347.065613
 20
211.84906
 10
346.764221
 20
212.021118
 10
346.498291
 20
212.256027
 10
346.273956
 20
212.549591
 10
346.09549
 20
212.895142
 10
345.965332
 20
213.284042
 10
345.883667
 20
213.706345
 10
345.848938
 20
214.15155
 10
345.857849
 20
214.609314
 10
345.909271
 20
215.093048
  0
ARC
  5
238
330
205
100
AcDbEntity
  8
0
  6
Continuous
 62
     0
370
     0
100
AcDbCircle
 10
354.813858
 20
213.280538
 30
0.0
 40
4.71932932254154
100
AcDbArc
 50
107.093369
 51
173.388224
  0
ARC
  5
239
330
205
100
AcDbEntity
  8
0
  6
Continuous
 62
     0
370
     0
100
AcDbCircle
 10
352.751045
 20
213.323687
 30
0.0
 40
2.67236559904877
100
AcDbArc
 50
169.211159
 51
203.165685
  0
ARC
  5
23A
330
205
100
AcDbEntity
  8
0
  6
Continuous
 62
     0
370
     0
100
AcDbCircle
 10
355.730527
 20
212.805431
 30
0.0
 40
5.412899549994193
100
AcDbArc
 50
123.161922
 51
170.753461
  0
ARC
  5
23B
330
205
100
AcDbEntity
  8
0
  6
Continuous
 62
     0
370
    30
100
AcDbCircle
 10
352.943435
 20
212.404811
 30
0.0
 40
2.622833739659172
100
AcDbArc
 50
165.025774
 51
226.206879
  0
LWPOLYLINE
  5
23C
330
205
100
AcDbEntity
  8
0
  6
Continuous
 62
     0
370
    30
100
AcDbPolyline
 90
       18
 70
     0
 43
0.0
 10
350.3461
 20
213.059097
 10
350.448944
 20
213.583298
 10
350.603882
 20
214.118042
 10
350.808258
 20
214.653763
 10
351.05838
 20
215.180954
 10
351.349762
 20
215.69014
 10
351.677277
 20
216.172256
 10
352.034973
 20
216.61879
 10
352.416595
 20
217.021591
 10
352.815216
 20
217.373703
 10
353.223785
 20
217.668625
 10
353.63504
 20
217.901215
 10
354.041595
 20
218.067368
 10
354.436188
 20
218.16391
 10
354.811829
 20
218.189438
 10
355.161713
 20
218.143143
 10
355.479767
 20
218.026154
 10
355.761719
 20
217.839081
  0
LWPOLYLINE
  5
23D
330
205
100
AcDbEntity
  8
0
  6
Continuous
 62
     0
370
    30
100
AcDbPolyline
 90
       18
 70
     0
 43
0.0
 10
355.699097
 20
217.772476
 10
355.424011
 20
217.950974
 10
355.112549
 20
218.062561
 10
354.770325
 20
218.105377
 10
354.40329
 20
218.0784
 10
354.018036
 20
217.982452
 10
353.621307
 20
217.818909
 10
353.220184
 20
217.590866
 10
352.821777
 20
217.302338
 10
352.433105
 20
216.958313
 10
352.061035
 20
216.565109
 10
351.71225
 20
216.129425
 10
351.392792
 20
215.65918
 10
351.108459
 20
215.162598
 10
350.864197
 20
214.648499
 10
350.664307
 20
214.126007
 10
350.512451
 20
213.604355
 10
350.409668
 20
213.082504
  0
ARC
  5
23E
330
205
100
AcDbEntity
  8
0
  6
Continuous
 62
     0
370
     0
100
AcDbCircle
 10
360.050441
 20
210.400362
 30
0.0
 40
7.734210657440685
100
AcDbArc
 50
138.08721
 51
170.335172
  0
ARC
  5
23F
330
205
100
AcDbEntity
  8
0
  6
Continuous
 62
     0
370
     0
100
AcDbCircle
 10
355.481602
 20
210.990006
 30
0.0
 40
3.136731585800661
100
AcDbArc
 50
166.940056
 51
216.610302
  0
ARC
  5
240
330
205
100
AcDbEntity
  8
0
  6
Continuous
 62
     0
370
     0
100
AcDbCircle
 10
361.577488
 20
209.400492
 30
0.0
 40
8.69344883558553
100
AcDbArc
 50
151.55457
 51
170.911703
  0
ARC
  5
241
330
205
100
AcDbEntity
  8
0
  6
Continuous
 62
     0
370
     0
100
AcDbCircle
 10
358.184298
 20
209.931255
 30
0.0
 40
5.259032559363813
100
AcDbArc
 50
170.782308
 51
189.98667
  0
LWPOLYLINE
  5
242
330
205
100
AcDbEntity
  8
0
  6
Continuous
 62
     0
370
     0
100
AcDbPolyline
 90
       28
 70
     0
 43
0.0
 10
383.307831
 20
219.404434
 10
383.400696
 20
219.787659
 10
383.539673
 20
220.147064
 10
383.726959
 20
220.472275
 10
383.962952
 20
220.752945
 10
384.245911
 20
220.979614
 10
384.571899
 20
221.144409
 10
384.934723
 20
221.241882
 10
385.326477
 20
221.269455
 10
385.738037
 20
221.227661
 10
386.159668
 20
221.120041
 10
386.58194
 20
220.952682
 10
386.996094
 20
220.733597
 10
387.394806
 20
220.471924
 10
387.776093
 20
220.173904
 10
388.158752
 20
219.824905
 10
388.539703
 20
219.422623
 10
388.910461
 20
218.970306
 10
389.262024
 20
218.47377
 10
389.585266
 20
217.941422
 10
389.871796
 20
217.383835
 10
390.114532
 20
216.813141
 10
390.308289
 20
216.242126
 10
390.450134
 20
215.68335
 10
390.53949
 20
215.148178
 10
390.578094
 20
214.646179
 10
390.569427
 20
214.184601
 10
390.51712
 20
213.760757
  0
ARC
  5
243
330
205
100
AcDbEntity
  8
0
  6
Continuous
 62
     0
370
     0
100
AcDbCircle
 10
388.419022
 20
213.948663
 30
0.0
 40
2.106491177021015
100
AcDbArc
 50
234.352367
 51
354.882247
  0
ARC
  5
244
330
205
100
AcDbEntity
  8
0
  6
Continuous
 62
     0
370
     0
100
AcDbCircle
 10
381.577271
 20
213.383115
 30
0.0
 40
4.770888344113798
100
AcDbArc
 50
355.108032
 51
72.532337
  0
ARC
  5
245
330
205
100
AcDbEntity
  8
0
  6
Continuous
 62
     0
370
     0
100
AcDbCircle
 10
380.828477
 20
213.009649
 30
0.0
 40
5.29857841148788
100
AcDbArc
 50
3.980311
 51
56.866442
  0
ARC
  5
246
330
205
100
AcDbEntity
  8
0
  6
Continuous
 62
     0
370
    30
100
AcDbCircle
 10
384.12668
 20
212.219625
 30
0.0
 40
1.963429699341554
100
AcDbArc
 50
309.379207
 51
352.421051
  0
LWPOLYLINE
  5
247
330
205
100
AcDbEntity
  8
0
  6
Continuous
 62
     0
370
    30
100
AcDbPolyline
 90
       21
 70
     0
 43
0.0
 10
380.727356
 20
218.037506
 10
381.017059
 20
218.198044
 10
381.341095
 20
218.293457
 10
381.693848
 20
218.322403
 10
382.06955
 20
218.284042
 10
382.461853
 20
218.179352
 10
382.864136
 20
218.009903
 10
383.269745
 20
217.778534
 10
383.671783
 20
217.489288
 10
384.063538
 20
217.146744
 10
384.438538
 20
216.756927
 10
384.790314
 20
216.326172
 10
385.113129
 20
215.861786
 10
385.40152
 20
215.371582
 10
385.650543
 20
214.863693
 10
385.856262
 20
214.346695
 10
386.014954
 20
213.829285
 10
386.124146
 20
213.320038
 10
386.181976
 20
212.827591
 10
386.187378
 20
212.360168
 10
386.137604
 20
211.910049
  0
LWPOLYLINE
  5
248
330
205
100
AcDbEntity
  8
0
  6
Continuous
 62
     0
370
    30
100
AcDbPolyline
 90
       20
 70
     0
 43
0.0
 10
386.072968
 20
211.960663
 10
386.121033
 20
212.387939
 10
386.117096
 20
212.848038
 10
386.061096
 20
213.333191
 10
385.95401
 20
213.835144
 10
385.797821
 20
214.345306
 10
385.59491
 20
214.855042
 10
385.348969
 20
215.355698
 10
385.064026
 20
215.838684
 10
384.745026
 20
216.295883
 10
384.397369
 20
216.719467
 10
384.026886
 20
217.102188
 10
383.640015
 20
217.437698
 10
383.243256
 20
217.720016
 10
382.843353
 20
217.944641
 10
382.447144
 20
218.107544
 10
382.06131
 20
218.206009
 10
381.692474
 20
218.23848
 10
381.346924
 20
218.204132
 10
381.015503
 20
218.097214
  0
ARC
  5
249
330
205
100
AcDbEntity
  8
0
  6
Continuous
 62
     0
370
     0
100
AcDbCircle
 10
377.483195
 20
211.00934
 30
0.0
 40
6.640194209869321
100
AcDbArc
 50
355.128242
 51
41.673274
  0
ARC
  5
24A
330
205
100
AcDbEntity
  8
0
  6
Continuous
 62
     0
370
     0
100
AcDbCircle
 10
381.768519
 20
210.80726
 30
0.0
 40
2.358800238117906
100
AcDbArc
 50
321.885157
 51
351.175894
  0
LINE
  5
24B
330
205
100
AcDbEntity
  8
0
  6
Continuous
 62
     0
370
     0
100
AcDbLine
 10
382.760726
 20
213.387746
 30
0.0
 11
383.254078
 21
212.198372
 31
0.0
  0
ARC
  5
24C
330
205
100
AcDbEntity
  8
0
  6
Continuous
 62
     0
370
     0
100
AcDbCircle
 10
391.679769
 20
192.430627
 30
0.0
 40
8.058944907940727
100
AcDbArc
 50
123.046054
 51
177.795805
  0
LWPOLYLINE
  5
24D
330
205
100
AcDbEntity
  8
0
  6
Continuous
 62
     0
370
     0
100
AcDbPolyline
 90
       19
 70
     0
 43
0.0
 10
385.89447
 20
199.62384
 10
385.627777
 20
199.732849
 10
385.329681
 20
199.775421
 10
385.010071
 20
199.750748
 10
384.679901
 20
199.662323
 10
384.349915
 20
199.517197
 10
384.029724
 20
199.325027
 10
383.726654
 20
199.096375
 10
383.427368
 20
198.823364
 10
383.129089
 20
198.4991
 10
382.841461
 20
198.127502
 10
382.574829
 20
197.71608
 10
382.339233
 20
197.275818
 10
382.143341
 20
196.820221
 10
381.993408
 20
196.364075
 10
381.89267
 20
195.921844
 10
381.841064
 20
195.506195
 10
381.835693
 20
195.126984
 10
381.873596
 20
194.778336
  0
ARC
  5
24E
330
205
100
AcDbEntity
  8
0
  6
Continuous
 62
     0
370
     0
100
AcDbCircle
 10
383.333238
 20
194.94525
 30
0.0
 40
1.469150006267864
100
AcDbArc
 50
186.523575
 51
237.221062
  0
LWPOLYLINE
  5
24F
330
205
100
AcDbEntity
  8
0
  6
Continuous
 62
     0
370
     0
100
AcDbPolyline
 90
       19
 70
     0
 43
0.0
 10
385.632446
 20
199.772568
 10
385.365723
 20
199.881577
 10
385.067627
 20
199.924149
 10
384.748016
 20
199.89949
 10
384.417847
 20
199.81105
 10
384.08786
 20
199.665939
 10
383.7677
 20
199.47377
 10
383.4646
 20
199.245117
 10
383.165314
 20
198.972107
 10
382.867065
 20
198.647842
 10
382.579437
 20
198.27623
 10
382.312775
 20
197.864822
 10
382.077179
 20
197.424561
 10
381.881287
 20
196.968964
 10
381.731384
 20
196.512817
 10
381.630615
 20
196.070572
 10
381.57901
 20
195.654938
 10
381.573639
 20
195.275711
 10
381.611542
 20
194.927078
  0
ARC
  5
250
330
205
100
AcDbEntity
  8
0
  6
Continuous
 62
     0
370
     0
100
AcDbCircle
 10
383.071192
 20
195.093986
 30
0.0
 40
1.469149434814591
100
AcDbArc
 50
186.523568
 51
237.221124
  0
ARC
  5
251
330
205
100
AcDbEntity
  8
0
  6
Continuous
 62
     0
370
    30
100
AcDbCircle
 10
382.029193
 20
194.899091
 30
0.0
 40
1.682970690762102
100
AcDbArc
 50
183.667761
 51
301.369214
  0
LWPOLYLINE
  5
252
330
205
100
AcDbEntity
  8
0
  6
Continuous
 62
     0
370
    30
100
AcDbPolyline
 90
       25
 70
     0
 43
0.0
 10
386.338531
 20
199.61972
 10
386.238525
 20
200.014786
 10
386.088654
 20
200.361542
 10
385.891327
 20
200.6539
 10
385.649994
 20
200.887009
 10
385.368805
 20
201.056931
 10
385.05246
 20
201.160522
 10
384.706482
 20
201.196365
 10
384.33667
 20
201.163498
 10
383.949371
 20
201.062744
 10
383.551239
 20
200.895737
 10
383.148987
 20
200.665207
 10
382.749542
 20
200.375351
 10
382.359711
 20
200.030807
 10
381.986115
 20
199.637711
 10
381.635162
 20
199.202637
 10
381.312866
 20
198.733017
 10
381.024597
 20
198.236954
 10
380.775513
 20
197.722794
 10
380.56958
 20
197.199387
 10
380.410583
 20
196.675674
 10
380.301025
 20
196.160522
 10
380.242859
 20
195.662796
 10
380.237122
 20
195.190964
 10
380.286102
 20
194.740189
  0
LWPOLYLINE
  5
253
330
205
100
AcDbEntity
  8
0
  6
Continuous
 62
     0
370
    30
100
AcDbPolyline
 90
       25
 70
     0
 43
0.0
 10
380.34967
 20
194.791428
 10
380.302368
 20
195.218781
 10
380.306335
 20
195.679535
 10
380.361633
 20
196.165894
 10
380.467224
 20
196.669571
 10
380.621246
 20
197.1819
 10
380.821289
 20
197.694214
 10
381.06366
 20
198.197784
 10
381.344482
 20
198.683945
 10
381.658813
 20
199.144516
 10
382.001312
 20
199.571579
 10
382.366211
 20
199.957825
 10
382.747192
 20
200.296799
 10
383.137848
 20
200.582489
 10
383.531464
 20
200.810318
 10
383.921326
 20
200.976151
 10
384.300842
 20
201.077255
 10
384.663483
 20
201.112015
 10
385.003052
 20
201.079575
 10
385.313873
 20
200.980804
 10
385.590485
 20
200.817093
 10
385.828308
 20
200.591431
 10
386.023254
 20
200.307648
 10
386.171906
 20
199.970444
 10
386.274963
 20
199.568481
  0
LWPOLYLINE
  5
254
330
205
100
AcDbEntity
  8
0
  6
Continuous
 62
     0
370
     0
100
AcDbPolyline
 90
       22
 70
     0
 43
0.0
 10
383.485931
 20
202.442017
 10
383.185791
 20
202.610764
 10
382.847473
 20
202.711304
 10
382.479065
 20
202.740448
 10
382.090271
 20
202.698593
 10
381.691315
 20
202.589508
 10
381.292236
 20
202.419968
 10
380.902161
 20
202.198792
 10
380.528748
 20
201.93605
 10
380.168976
 20
201.634094
 10
379.806732
 20
201.277863
 10
379.449097
 20
200.86824
 10
379.105377
 20
200.409897
 10
378.785248
 20
199.910461
 10
378.498108
 20
199.380371
 10
378.252167
 20
198.832169
 10
378.053741
 20
198.279541
 10
377.906738
 20
197.736282
 10
377.812378
 20
197.215088
 10
377.769318
 20
196.726715
 10
377.774078
 20
196.279327
 10
377.822113
 20
195.874908
  0
ARC
  5
255
330
205
100
AcDbEntity
  8
0
  6
Continuous
 62
     0
370
     0
100
AcDbCircle
 10
379.626716
 20
195.979594
 30
0.0
 40
1.807637327825664
100
AcDbArc
 50
183.320263
 51
297.377498
  0
LWPOLYLINE
  5
256
330
205
100
AcDbEntity
  8
0
  6
Continuous
 62
     0
370
     0
100
AcDbPolyline
 90
       29
 70
     0
 43
0.0
 10
383.691467
 20
202.271439
 10
383.596283
 20
202.673798
 10
383.455261
 20
203.05191
 10
383.266144
 20
203.395615
 10
383.028412
 20
203.694763
 10
382.743439
 20
203.939941
 10
382.414734
 20
204.123184
 10
382.04776
 20
204.238693
 10
381.649872
 20
204.28334
 10
381.229584
 20
204.256943
 10
380.796112
 20
204.162186
 10
380.358765
 20
204.004349
 10
379.926239
 20
203.790741
 10
379.506165
 20
203.530029
 10
379.104889
 20
203.231506
 10
378.711456
 20
202.889923
 10
378.315704
 20
202.493561
 10
377.925171
 20
202.044312
 10
377.54834
 20
201.546463
 10
377.19397
 20
201.006775
 10
376.870667
 20
200.434341
 10
376.586212
 20
199.840164
 10
376.346954
 20
199.23642
 10
376.157379
 20
198.635712
 10
376.019867
 20
198.050171
 10
375.93454
 20
197.490692
 10
375.899536
 20
196.966324
 10
375.911316
 20
196.483902
 10
375.965942
 20
196.04303
  0
ARC
  5
257
330
205
100
AcDbEntity
  8
0
  6
Continuous
 62
     0
370
     0
100
AcDbCircle
 10
378.129445
 20
196.167259
 30
0.0
 40
2.167077935250482
100
AcDbArc
 50
183.286168
 51
296.904084
  0
LWPOLYLINE
  5
258
330
205
100
AcDbEntity
  8
0
  6
Continuous
 62
     0
370
     0
100
AcDbPolyline
 90
       29
 70
     0
 43
0.0
 10
383.218597
 20
203.464767
 10
383.051392
 20
203.830399
 10
382.83786
 20
204.158478
 10
382.578217
 20
204.440063
 10
382.274506
 20
204.667114
 10
381.930481
 20
204.833038
 10
381.551666
 20
204.933273
 10
381.144867
 20
204.965607
 10
380.717987
 20
204.930328
 10
380.279388
 20
204.830185
 10
379.837402
 20
204.670059
 10
379.399902
 20
204.456573
 10
378.973785
 20
204.197495
 10
378.564911
 20
203.901184
 10
378.168091
 20
203.567352
 10
377.768036
 20
203.181625
 10
377.370758
 20
202.744644
 10
376.983612
 20
202.259552
 10
376.614471
 20
201.731598
 10
376.27124
 20
201.168106
 10
375.961365
 20
200.578201
 10
375.691315
 20
199.972382
 10
375.466187
 20
199.361847
 10
375.289459
 20
198.757935
 10
375.162628
 20
198.17131
 10
375.085449
 20
197.611465
 10
375.055847
 20
197.086212
 10
375.070557
 20
196.601486
 10
375.127747
 20
196.146255
  0
ARC
  5
259
330
205
100
AcDbEntity
  8
0
  6
Continuous
 62
     0
370
     0
100
AcDbCircle
 10
377.396695
 20
196.260744
 30
0.0
 40
2.27183349940348
100
AcDbArc
 50
182.888643
 51
281.978973
  0
ARC
  5
25A
330
205
100
AcDbEntity
  8
0
  6
Continuous
 62
     0
370
     0
100
AcDbCircle
 10
361.047429
 20
212.302375
 30
0.0
 40
7.16551538044745
100
AcDbArc
 50
182.664499
 51
246.620897
  0
LWPOLYLINE
  5
25B
330
205
100
AcDbEntity
  8
0
  6
Continuous
 62
     0
370
     0
100
AcDbPolyline
 90
       35
 70
     0
 43
0.0
 10
358.204071
 20
205.725159
 10
358.882446
 20
205.363937
 10
359.617523
 20
205.020508
 10
360.407867
 20
204.698715
 10
361.25116
 20
204.402466
 10
362.144012
 20
204.13559
 10
363.082001
 20
203.901733
 10
364.059753
 20
203.7043
 10
365.070831
 20
203.546234
 10
366.108093
 20
203.430038
 10
367.163605
 20
203.357559
 10
368.229034
 20
203.330048
 10
369.295715
 20
203.347946
 10
370.35498
 20
203.411041
 10
371.398315
 20
203.518341
 10
372.417664
 20
203.668182
 10
373.405548
 20
203.858261
 10
374.355286
 20
204.085739
 10
375.261169
 20
204.347382
 10
376.118408
 20
204.639557
 10
376.923248
 20
204.958481
 10
377.673065
 20
205.300232
 10
378.366119
 20
205.660904
 10
379.006683
 20
206.039825
 10
379.615997
 20
206.449783
 10
380.190796
 20
206.89209
 10
380.724335
 20
207.365631
 10
381.20993
 20
207.868713
 10
381.641052
 20
208.399078
 10
382.011658
 20
208.953827
 10
382.316223
 20
209.529541
 10
382.550079
 20
210.122253
 10
382.709503
 20
210.727554
 10
382.79184
 20
211.340759
 10
382.79538
 20
211.962372
  0
ARC
  5
25C
330
205
100
AcDbEntity
  8
0
  6
Continuous
 62
     0
370
     0
100
AcDbCircle
 10
368.294802
 20
213.936203
 30
0.0
 40
22.51371772911735
100
AcDbArc
 50
243.273808
 51
298.841493
  0
ARC
  5
25D
330
205
100
AcDbEntity
  8
0
  6
Continuous
 62
     0
370
    30
100
AcDbCircle
 10
359.617258
 20
197.006024
 30
0.0
 40
3.072597362904207
100
AcDbArc
 50
290.025709
 51
5.210381
  0
LWPOLYLINE
  5
25E
330
205
100
AcDbEntity
  8
0
  6
Continuous
 62
     0
370
    30
100
AcDbPolyline
 90
       25
 70
     0
 43
0.0
 10
354.540436
 20
204.569412
 10
354.779877
 20
204.817352
 10
355.054352
 20
205.009293
 10
355.3638
 20
205.142365
 10
355.708191
 20
205.213654
 10
356.087463
 20
205.220291
 10
356.499573
 20
205.161377
 10
356.938538
 20
205.040131
 10
357.397858
 20
204.860214
 10
357.871033
 20
204.62529
 10
358.351562
 20
204.33905
 10
358.832977
 20
204.005188
 10
359.308716
 20
203.627365
 10
359.772339
 20
203.209259
 10
360.217346
 20
202.754578
 10
360.638184
 20
202.267578
 10
361.030609
 20
201.753494
 10
361.390564
 20
201.21759
 10
361.713928
 20
200.665146
 10
361.996704
 20
200.10141
 10
362.234985
 20
199.531616
 10
362.424927
 20
198.960938
 10
362.562988
 20
198.394791
 10
362.64743
 20
197.839828
 10
362.677155
 20
197.285049
  0
LWPOLYLINE
  5
25F
330
205
100
AcDbEntity
  8
0
  6
Continuous
 62
     0
370
    30
100
AcDbPolyline
 90
       30
 70
     0
 43
0.0
 10
375.840881
 20
194.518188
 10
375.501617
 20
194.742111
 10
375.202148
 20
195.024796
 10
374.946075
 20
195.362366
 10
374.736725
 20
195.750336
 10
374.576599
 20
196.183014
 10
374.468079
 20
196.654556
 10
374.413635
 20
197.159164
 10
374.415649
 20
197.690979
 10
374.47644
 20
198.244186
 10
374.595123
 20
198.812622
 10
374.767792
 20
199.389877
 10
374.990448
 20
199.969467
 10
375.259125
 20
200.544983
 10
375.569733
 20
201.109955
 10
375.918304
 20
201.657944
 10
376.30014
 20
202.18309
 10
376.709503
 20
202.680435
 10
377.140503
 20
203.145111
 10
377.58728
 20
203.572266
 10
378.044006
 20
203.957031
 10
378.504852
 20
204.294693
 10
378.964478
 20
204.581924
 10
379.417877
 20
204.816299
 10
379.860107
 20
204.995377
 10
380.286102
 20
205.116745
 10
380.690857
 20
205.177963
 10
381.069427
 20
205.176605
 10
381.416779
 20
205.110245
 10
381.733917
 20
204.974075
  0
LINE
  5
260
330
205
100
AcDbEntity
  8
0
  6
Continuous
 62
     0
370
    30
100
AcDbLine
 10
355.013197
 20
204.981123
 30
0.0
 11
355.121858
 21
205.044936
 31
0.0
  0
LINE
  5
261
330
205
100
AcDbEntity
  8
0
  6
Continuous
 62
     0
370
    30
100
AcDbLine
 10
361.241955
 20
194.374871
 30
0.0
 11
361.346745
 21
194.436411
 31
0.0
  0
ARC
  5
262
330
205
100
AcDbEntity
  8
0
  6
Continuous
 62
     0
370
    30
100
AcDbCircle
 10
362.634922
 20
205.682329
 30
0.0
 40
21.30761463711377
100
AcDbArc
 50
351.224736
 51
18.741532
  0
ARC
  5
263
330
205
100
AcDbEntity
  8
0
  6
Continuous
 62
     0
370
    30
100
AcDbCircle
 10
374.052724
 20
205.681696
 30
0.0
 40
21.31067011693992
100
AcDbArc
 50
161.254346
 51
189.79135
  0
ARC
  5
264
330
205
100
AcDbEntity
  8
0
  6
Continuous
 62
     0
370
    30
100
AcDbCircle
 10
377.765275
 20
197.111439
 30
0.0
 40
3.205008942516329
100
AcDbArc
 50
242.793268
 51
295.519059
  0
ARC
  5
265
330
205
100
AcDbEntity
  8
0
  6
Continuous
 62
     0
370
    30
100
AcDbCircle
 10
380.587458
 20
202.029076
 30
0.0
 40
3.129680375800425
100
AcDbArc
 50
7.396354
 51
58.484705
  0
LINE
  5
266
330
205
100
AcDbEntity
  8
0
  6
Continuous
 62
     0
370
    30
100
AcDbLine
 10
381.281789
 20
193.291449
 30
0.0
 11
378.880982
 21
194.334227
 31
0.0
  0
LINE
  5
267
330
205
100
AcDbEntity
  8
0
  6
Continuous
 62
     0
370
    30
100
AcDbLine
 10
385.609937
 20
200.91686
 30
0.0
 11
383.483799
 21
202.443555
 31
0.0
  0
ARC
  5
268
330
205
100
AcDbEntity
  8
0
  6
Continuous
 62
     0
370
    30
100
AcDbCircle
 10
381.299968
 20
191.443628
 30
0.0
 40
2.582431057720455
100
AcDbArc
 50
29.186884
 51
61.357418
  0
ARC
  5
269
330
205
100
AcDbEntity
  8
0
  6
Continuous
 62
     0
370
    30
100
AcDbCircle
 10
387.225116
 20
201.919099
 30
0.0
 40
2.653078906739779
100
AcDbArc
 50
239.897879
 51
271.193079
  0
ARC
  5
26A
330
205
100
AcDbEntity
  8
0
  6
Continuous
 62
     0
370
    30
100
AcDbCircle
 10
390.875246
 20
192.887115
 30
0.0
 40
7.250078451754017
100
AcDbArc
 50
10.110888
 51
119.681945
  0
ARC
  5
26B
330
205
100
AcDbEntity
  8
0
  6
Continuous
 62
     0
370
    30
100
AcDbCircle
 10
390.875211
 20
192.888171
 30
0.0
 40
7.249926949729112
100
AcDbArc
 50
181.166468
 51
10.102629
  0
ARC
  5
26C
330
205
100
AcDbEntity
  8
0
  6
Continuous
 62
     0
370
    30
100
AcDbCircle
 10
376.825554
 20
209.943695
 30
0.0
 40
6.812450519926986
100
AcDbArc
 50
355.406844
 51
19.327303
  0
LINE
  5
26D
330
205
100
AcDbEntity
  8
0
  6
Continuous
 62
     0
370
    30
100
AcDbLine
 10
385.417442
 20
210.620948
 30
0.0
 11
383.633733
 21
209.297285
 31
0.0
  0
LINE
  5
26E
330
205
100
AcDbEntity
  8
0
  6
Continuous
 62
     0
370
    30
100
AcDbLine
 10
380.977677
 20
218.180918
 30
0.0
 11
380.706075
 21
218.058453
 31
0.0
  0
LINE
  5
26F
330
205
100
AcDbEntity
  8
0
  6
Continuous
 62
     0
370
    30
100
AcDbLine
 10
387.197567
 20
212.249815
 30
0.0
 11
386.170655
 21
212.140437
 31
0.0
  0
LINE
  5
270
330
205
100
AcDbEntity
  8
0
  6
Continuous
 62
     0
370
    30
100
AcDbLine
 10
383.266827
 20
218.943408
 30
0.0
 11
382.669637
 21
218.099448
 31
0.0
  0
ARC
  5
271
330
205
100
AcDbEntity
  8
0
  6
Continuous
 62
     0
370
    30
100
AcDbCircle
 10
390.493997
 20
218.689343
 30
0.0
 40
7.24887492851292
100
AcDbArc
 50
242.892666
 51
169.760681
  0
LINE
  5
272
330
205
100
AcDbEntity
  8
0
  6
Continuous
 62
     0
370
    30
100
AcDbLine
 10
383.284488
 20
219.44587
 30
0.0
 11
383.360569
 21
219.977904
 31
0.0
  0
LINE
  5
273
330
205
100
AcDbEntity
  8
0
  6
Continuous
 62
     0
370
    30
100
AcDbLine
 10
353.186802
 20
211.682848
 30
0.0
 11
352.98871
 21
210.751595
 31
0.0
  0
LINE
  5
274
330
205
100
AcDbEntity
  8
0
  6
Continuous
 62
     0
370
    30
100
AcDbLine
 10
352.991809
 20
208.935238
 30
0.0
 11
352.98871
 21
210.751595
 31
0.0
  0
LINE
  5
275
330
205
100
AcDbEntity
  8
0
  6
Continuous
 62
     0
370
    30
100
AcDbLine
 10
351.074704
 20
210.436851
 30
0.0
 11
352.969634
 21
209.076176
 31
0.0
  0
LINE
  5
276
330
205
100
AcDbEntity
  8
0
  6
Continuous
 62
     0
370
    30
100
AcDbLine
 10
355.402852
 20
218.062261
 30
0.0
 11
355.807242
 21
217.886616
 31
0.0
  0
ARC
  5
277
330
205
100
AcDbEntity
  8
0
  6
Continuous
 62
     0
370
    30
100
AcDbCircle
 10
349.54474
 20
209.925489
 30
0.0
 40
2.164188591814106
100
AcDbArc
 50
67.04103
 51
100.040121
  0
ARC
  5
278
330
205
100
AcDbEntity
  8
0
  6
Continuous
 62
     0
370
    30
100
AcDbCircle
 10
354.993898
 20
219.601575
 30
0.0
 40
2.091689859605222
100
AcDbArc
 50
200.485806
 51
232.516985
  0
ARC
  5
279
330
205
100
AcDbEntity
  8
0
  6
Continuous
 62
     0
370
    30
100
AcDbCircle
 10
345.809344
 20
218.46717
 30
0.0
 40
7.249904936421388
100
AcDbArc
 50
3.187532
 51
171.618711
  0
ARC
  5
27A
330
205
100
AcDbEntity
  8
0
  6
Continuous
 62
     0
370
    30
100
AcDbCircle
 10
345.810834
 20
218.468703
 30
0.0
 40
7.251155257343783
100
AcDbArc
 50
171.632492
 51
297.630851
  0
LINE
  5
27B
330
205
100
AcDbEntity
  8
0
  6
Continuous
 62
     0
370
    30
100
AcDbLine
 10
360.645874
 20
194.198779
 30
0.0
 11
361.707286
 21
194.822118
 31
0.0
  0
ARC
  5
27C
330
205
100
AcDbEntity
  8
0
  6
Continuous
 62
     0
370
    30
100
AcDbCircle
 10
359.109147
 20
197.077108
 30
0.0
 40
3.262867827168871
100
AcDbArc
 50
245.740936
 51
298.097563
  0
ARC
  5
27D
330
205
100
AcDbEntity
  8
0
  6
Continuous
 62
     0
370
    30
100
AcDbCircle
 10
356.335065
 20
201.801606
 30
0.0
 40
3.2638061877963
100
AcDbArc
 50
122.758256
 51
175.100211
  0
LINE
  5
27E
330
205
100
AcDbEntity
  8
0
  6
Continuous
 62
     0
370
    30
100
AcDbLine
 10
355.706964
 20
193.172792
 30
0.0
 11
358.072632
 21
194.239469
 31
0.0
  0
LINE
  5
27F
330
205
100
AcDbEntity
  8
0
  6
Continuous
 62
     0
370
    30
100
AcDbLine
 10
351.267199
 20
200.732762
 30
0.0
 11
353.351114
 21
202.279204
 31
0.0
  0
ARC
  5
280
330
205
100
AcDbEntity
  8
0
  6
Continuous
 62
     0
370
    30
100
AcDbCircle
 10
355.583994
 20
191.52484
 30
0.0
 40
2.343431643106448
100
AcDbArc
 50
118.704706
 51
156.362193
  0
ARC
  5
281
330
205
100
AcDbEntity
  8
0
  6
Continuous
 62
     0
370
    30
100
AcDbCircle
 10
349.768087
 20
201.42808
 30
0.0
 40
2.343406311689736
100
AcDbArc
 50
264.485698
 51
302.144505
  0
ARC
  5
282
330
205
100
AcDbEntity
  8
0
  6
Continuous
 62
     0
370
    30
100
AcDbCircle
 10
346.191401
 20
192.668223
 30
0.0
 40
7.248645839757954
100
AcDbArc
 50
60.33422
 51
0.514897
  0
LINE
  5
283
330
205
100
AcDbEntity
  8
0
  6
Continuous
 62
     0
370
    30
100
AcDbLine
 10
353.880643
 20
212.708503
 30
0.0
 11
353.870021
 21
212.383892
 31
0.0
  0
LINE
  5
284
330
205
100
AcDbEntity
  8
0
  6
Continuous
 62
     0
370
    30
100
AcDbLine
 10
382.804096
 20
212.700188
 30
0.0
 11
382.814746
 21
212.374073
 31
0.0
  0
ARC
  5
285
330
205
100
AcDbEntity
  8
0
  6
Continuous
 62
     0
370
    30
100
AcDbCircle
 10
363.876509
 20
215.822044
 30
0.0
 40
6.572280491754397
100
AcDbArc
 50
109.808322
 51
167.300861
  0
LWPOLYLINE
  5
286
330
205
100
AcDbEntity
  8
0
  6
Continuous
 62
     0
370
    30
100
AcDbPolyline
 90
       28
 70
     0
 43
0.0
 10
379.219452
 20
217.26683
 10
379.110382
 20
217.822906
 10
378.927399
 20
218.3685
 10
378.673889
 20
218.899307
 10
378.353271
 20
219.411026
 10
377.968994
 20
219.899399
 10
377.524628
 20
220.36145
 10
377.023926
 20
220.795746
 10
376.470642
 20
221.200867
 10
375.86853
 20
221.575455
 10
375.221405
 20
221.918106
 10
374.53302
 20
222.227432
 10
373.807098
 20
222.50206
 10
373.047455
 20
222.740601
 10
372.25824
 20
222.941925
 10
371.444519
 20
223.105469
 10
370.611511
 20
223.230774
 10
369.764404
 20
223.317352
 10
368.908386
 20
223.364716
 10
368.048676
 20
223.372421
 10
367.19043
 20
223.339966
 10
366.338867
 20
223.266876
 10
365.499207
 20
223.152832
 10
364.676849
 20
222.998825
 10
363.87735
 20
222.806458
 10
363.106171
 20
222.577377
 10
362.368896
 20
222.313202
 10
361.649323
 20
222.005447
  0
LINE
  5
287
330
205
100
AcDbEntity
  8
0
  6
Continuous
 62
     0
370
    30
100
AcDbLine
 10
340.843127
 20
162.937023
 30
0.0
 11
340.857521
 21
163.460229
 31
0.0
  0
LINE
  5
288
330
205
100
AcDbEntity
  8
0
  6
Continuous
 62
     0
370
    30
100
AcDbLine
 10
395.843087
 20
162.94769
 30
0.0
 11
395.828752
 21
163.467191
 31
0.0
  0
ARC
  5
289
330
205
100
AcDbEntity
  8
0
  6
Continuous
 62
     0
370
    30
100
AcDbCircle
 10
384.502155
 20
162.59859
 30
0.0
 40
11.34630307769696
100
AcDbArc
 50
1.763142
 51
44.370142
  0
LWPOLYLINE
  5
28A
330
205
100
AcDbEntity
  8
0
  6
Continuous
 62
     0
370
    30
100
AcDbPolyline
 90
       21
 70
     0
 43
0.0
 10
353.859314
 20
176.632568
 10
352.6987
 20
176.189056
 10
351.577911
 20
175.711639
 10
350.499542
 20
175.201599
 10
349.466095
 20
174.660278
 10
348.480072
 20
174.088989
 10
347.544037
 20
173.489029
 10
346.660522
 20
172.86171
 10
345.832062
 20
172.208344
 10
345.061188
 20
171.530258
 10
344.350159
 20
170.828857
 10
343.700439
 20
170.105881
 10
343.113342
 20
169.363129
 10
342.590118
 20
168.602417
 10
342.13205
 20
167.825562
 10
341.740479
 20
167.034332
 10
341.416656
 20
166.230576
 10
341.163055
 20
165.416382
 10
340.984039
 20
164.594391
 10
340.883484
 20
163.767273
 10
340.84314
 20
162.937027
  0
LWPOLYLINE
  5
28B
330
205
100
AcDbEntity
  8
0
  6
Continuous
 62
     0
370
    30
100
AcDbPolyline
 90
       11
 70
     0
 43
0.0
 10
392.612915
 20
170.532959
 10
391.900482
 20
171.267303
 10
391.122894
 20
171.977631
 10
390.283142
 20
172.662338
 10
389.384308
 20
173.319839
 10
388.429138
 20
173.948578
 10
387.420258
 20
174.547028
 10
386.360229
 20
175.113617
 10
385.251648
 20
175.64682
 10
384.097137
 20
176.145081
 10
382.824738
 20
176.633881
  0
LINE
  5
28C
330
205
100
AcDbEntity
  8
0
  6
Continuous
 62
     0
370
    30
100
AcDbLine
 10
395.842225
 20
162.94507
 30
0.0
 11
395.842225
 21
157.585059
 31
0.0
  0
LINE
  5
28D
330
205
100
AcDbEntity
  8
0
  6
Continuous
 62
     0
370
    30
100
AcDbLine
 10
340.842224
 20
162.94507
 30
0.0
 11
340.842224
 21
157.585059
 31
0.0
  0
ARC
  5
28E
330
205
100
AcDbEntity
  8
0
  6
Continuous
 62
     0
370
    30
100
AcDbCircle
 10
374.535202
 20
190.421488
 30
0.0
 40
4.897900845695768
100
AcDbArc
 50
10.264754
 51
41.324355
  0
LWPOLYLINE
  5
28F
330
205
100
AcDbEntity
  8
0
  6
Continuous
 62
     0
370
    30
100
AcDbPolyline
 90
        6
 70
     0
 43
0.0
 10
358.472717
 20
193.654831
 10
358.134369
 20
193.217789
 10
357.846832
 20
192.763809
 10
357.615906
 20
192.294998
 10
357.449677
 20
191.813751
 10
357.331024
 20
191.297867
  0
ARC
  5
290
330
205
100
AcDbEntity
  8
0
  6
Continuous
 62
     0
370
    30
100
AcDbCircle
 10
480.972109
 20
207.616286
 30
0.0
 40
102.919881008906
100
AcDbArc
 50
189.122669
 51
199.521548
  0
ARC
  5
291
330
205
100
AcDbEntity
  8
0
  6
Continuous
 62
     0
370
    30
100
AcDbCircle
 10
255.712328
 20
207.616289
 30
0.0
 40
102.9198928192311
100
AcDbArc
 50
340.478457
 51
350.877331
  0
LINE
  5
292
330
205
100
AcDbEntity
  8
0
  6
Continuous
 62
     0
370
    30
100
AcDbLine
 10
359.342224
 20
193.206644
 30
0.0
 11
359.342224
 21
192.286164
 31
0.0
  0
LINE
  5
293
330
205
100
AcDbEntity
  8
0
  6
Continuous
 62
     0
370
    30
100
AcDbLine
 10
377.342224
 20
192.286164
 30
0.0
 11
377.342224
 21
193.206555
 31
0.0
  0
ARC
  5
294
330
205
100
AcDbEntity
  8
0
  6
Continuous
 62
     0
370
    30
100
AcDbCircle
 10
368.330512
 20
207.477597
 30
0.0
 40
15.00358010847075
100
AcDbArc
 50
82.703789
 51
97.29774
  0
ENDBLK
  5
296
330
205
100
AcDbEntity
  8
0
100
AcDbBlockEnd
  0
BLOCK
  5
31B
330
298
100
AcDbEntity
  8
0
100
AcDbBlockBegin
  2
e
 70
     0
 10
135.003418
 20
0.0
 30
0.0
  3
e
  1

  0
LINE
  5
299
330
298
100
AcDbEntity
  8
0
  6
Continuous
 62
     0
370
    30
100
AcDbLine
 10
69.950727
 20
317.838631
 30
0.0
 11
81.623024
 21
317.838631
 31
0.0
  0
LWPOLYLINE
  5
29A
330
298
100
AcDbEntity
  8
0
  6
Continuous
 62
     0
370
    30
100
AcDbPolyline
 90
       18
 70
     0
 43
0.0
 10
63.624771
 20
317.838623
 10
63.660206
 20
317.838623
 10
63.763577
 20
317.838623
 10
63.928352
 20
317.838623
 10
64.147644
 20
317.838623
 10
64.414581
 20
317.838623
 10
64.723083
 20
317.838623
 10
65.069138
 20
317.838623
 10
65.449043
 20
317.838623
 10
65.859123
 20
317.838623
 10
66.295967
 20
317.838623
 10
66.757057
 20
317.838623
 10
67.240036
 20
317.838623
 10
67.742569
 20
317.838623
 10
68.262497
 20
317.838623
 10
68.798393
 20
317.838623
 10
69.348999
 20
317.838623
 10
69.950729
 20
317.838623
  0
LINE
  5
29B
330
298
100
AcDbEntity
  8
0
  6
Continuous
 62
     0
370
    30
100
AcDbLine
 10
81.623898
 20
317.838631
 30
0.0
 11
69.950727
 21
317.838631
 31
0.0
  0
LINE
  5
29C
330
298
100
AcDbEntity
  8
0
  6
Continuous
 62
     0
370
     0
100
AcDbLine
 10
69.950727
 20
314.338631
 30
0.0
 11
81.623898
 21
314.338631
 31
0.0
  0
LWPOLYLINE
  5
29D
330
298
100
AcDbEntity
  8
0
  6
Continuous
 62
     0
370
     0
100
AcDbPolyline
 90
       15
 70
     0
 43
0.0
 10
63.623898
 20
314.338623
 10
63.660194
 20
314.338623
 10
63.771435
 20
314.338623
 10
63.959843
 20
314.338623
 10
64.225723
 20
314.338623
 10
64.567307
 20
314.338623
 10
64.980789
 20
314.338623
 10
65.460434
 20
314.338623
 10
65.99884
 20
314.338623
 10
66.587318
 20
314.338623
 10
67.216316
 20
314.338623
 10
67.87587
 20
314.338623
 10
68.55603
 20
314.338623
 10
69.247292
 20
314.338623
 10
69.950729
 20
314.338623
  0
LINE
  5
29E
330
298
100
AcDbEntity
  8
0
  6
Continuous
 62
     0
370
    30
100
AcDbLine
 10
69.950728
 20
317.838631
 30
0.0
 11
63.623898
 21
317.838631
 31
0.0
  0
LINE
  5
29F
330
298
100
AcDbEntity
  8
0
  6
Continuous
 62
     0
370
    30
100
AcDbLine
 10
69.486268
 20
312.838631
 30
0.0
 11
83.186286
 21
312.838631
 31
0.0
  0
LWPOLYLINE
  5
2A0
330
298
100
AcDbEntity
  8
0
  6
Continuous
 62
     0
370
    30
100
AcDbPolyline
 90
       19
 70
     0
 43
0.0
 10
62.061508
 20
312.838623
 10
62.099735
 20
312.838623
 10
62.211365
 20
312.838623
 10
62.389431
 20
312.838623
 10
62.626469
 20
312.838623
 10
62.915016
 20
312.838623
 10
63.247997
 20
312.838623
 10
63.620808
 20
312.838623
 10
64.029839
 20
312.838623
 10
64.471481
 20
312.838623
 10
64.942162
 20
312.838623
 10
65.438957
 20
312.838623
 10
65.959557
 20
312.838623
 10
66.501633
 20
312.838623
 10
67.062881
 20
312.838623
 10
67.641388
 20
312.838623
 10
68.23597
 20
312.838623
 10
68.845528
 20
312.838623
 10
69.486267
 20
312.838623
  0
LINE
  5
2A1
330
298
100
AcDbEntity
  8
0
  6
Continuous
 62
     0
370
    30
100
AcDbLine
 10
69.33902
 20
312.403656
 30
0.0
 11
61.564407
 21
312.403656
 31
0.0
  0
LINE
  5
2A2
330
298
100
AcDbEntity
  8
0
  6
Continuous
 62
     0
370
    30
100
AcDbLine
 10
83.683388
 20
312.403656
 30
0.0
 11
69.339019
 21
312.403656
 31
0.0
  0
LINE
  5
2A3
330
298
100
AcDbEntity
  8
0
  6
Continuous
 62
     0
370
     0
100
AcDbLine
 10
67.885801
 20
288.724444
 30
0.0
 11
88.576066
 21
288.724444
 31
0.0
  0
LWPOLYLINE
  5
2A4
330
298
100
AcDbEntity
  8
0
  6
Continuous
 62
     0
370
     0
100
AcDbPolyline
 90
       20
 70
     0
 43
0.0
 10
56.67173
 20
288.724457
 10
56.706429
 20
288.724457
 10
56.812351
 20
288.724457
 10
56.991573
 20
288.724457
 10
57.245232
 20
288.724457
 10
57.573425
 20
288.724457
 10
57.975193
 20
288.724457
 10
58.448483
 20
288.724457
 10
58.990185
 20
288.724457
 10
59.596199
 20
288.724457
 10
60.261551
 20
288.724457
 10
60.980503
 20
288.724457
 10
61.746716
 20
288.724457
 10
62.553432
 20
288.724457
 10
63.393631
 20
288.724457
 10
64.260223
 20
288.724457
 10
65.146202
 20
288.724457
 10
66.044769
 20
288.724457
 10
66.949493
 20
288.724457
 10
67.885803
 20
288.724457
  0
LWPOLYLINE
  5
2A5
330
298
100
AcDbEntity
  8
0
  6
Continuous
 62
     0
370
    30
100
AcDbPolyline
 90
       16
 70
     0
 43
0.0
 10
61.564693
 20
312.403656
 10
61.604362
 20
312.403656
 10
61.723499
 20
312.403656
 10
61.920673
 20
312.403656
 10
62.193886
 20
312.403656
 10
62.541149
 20
312.403656
 10
62.960464
 20
312.403656
 10
63.449181
 20
312.403656
 10
64.003479
 20
312.403656
 10
64.619438
 20
312.403656
 10
65.293129
 20
312.403656
 10
66.020477
 20
312.403656
 10
66.795662
 20
312.403656
 10
67.611656
 20
312.403656
 10
68.461395
 20
312.403656
 10
69.33902
 20
312.403656
  0
LINE
  5
2A6
330
298
100
AcDbEntity
  8
0
  6
Continuous
 62
     0
370
    30
100
AcDbLine
 10
83.190407
 20
312.838631
 30
0.0
 11
69.486268
 21
312.838631
 31
0.0
  0
LINE
  5
2A7
330
298
100
AcDbEntity
  8
0
  6
Continuous
 62
     0
370
    30
100
AcDbLine
 10
69.33902
 20
312.403656
 30
0.0
 11
83.683019
 21
312.403656
 31
0.0
  0
LWPOLYLINE
  5
2A8
330
298
100
AcDbEntity
  8
0
  6
Continuous
 62
     0
370
    30
100
AcDbPolyline
 90
       25
 70
     0
 43
0.0
 10
45.547489
 20
278.8974
 10
45.584423
 20
278.8974
 10
45.696842
 20
278.8974
 10
45.886742
 20
278.8974
 10
46.15551
 20
278.8974
 10
46.503872
 20
278.8974
 10
46.931862
 20
278.8974
 10
47.438782
 20
278.8974
 10
48.023216
 20
278.8974
 10
48.683022
 20
278.8974
 10
49.415348
 20
278.8974
 10
50.216705
 20
278.8974
 10
51.082985
 20
278.8974
 10
52.009556
 20
278.8974
 10
52.991329
 20
278.8974
 10
54.022846
 20
278.8974
 10
55.098373
 20
278.8974
 10
56.212006
 20
278.8974
 10
57.357731
 20
278.8974
 10
58.529552
 20
278.8974
 10
59.72155
 20
278.8974
 10
60.927967
 20
278.8974
 10
62.143272
 20
278.8974
 10
63.362213
 20
278.8974
 10
64.581696
 20
278.8974
  0
LINE
  5
2A9
330
298
100
AcDbEntity
  8
0
  6
Continuous
 62
     0
370
    30
100
AcDbLine
 10
64.455879
 20
278.403277
 30
0.0
 11
45.123897
 21
278.403277
 31
0.0
  0
LINE
  5
2AA
330
298
100
AcDbEntity
  8
0
  6
Continuous
 62
     0
370
    30
100
AcDbLine
 10
100.123898
 20
278.403277
 30
0.0
 11
64.455876
 21
278.403277
 31
0.0
  0
LINE
  5
2AB
330
298
100
AcDbEntity
  8
0
  6
Continuous
 62
     0
370
    30
100
AcDbLine
 10
64.455876
 20
271.838631
 30
0.0
 11
100.123898
 21
271.838631
 31
0.0
  0
LWPOLYLINE
  5
2AC
330
298
100
AcDbEntity
  8
0
  6
Continuous
 62
     0
370
    30
100
AcDbPolyline
 90
       26
 70
     0
 43
0.0
 10
45.123898
 20
271.838623
 10
45.158356
 20
271.838623
 10
45.263187
 20
271.838623
 10
45.440208
 20
271.838623
 10
45.69072
 20
271.838623
 10
46.015461
 20
271.838623
 10
46.414581
 20
271.838623
 10
46.887604
 20
271.838623
 10
47.433437
 20
271.838623
 10
48.050358
 20
271.838623
 10
48.736042
 20
271.838623
 10
49.487576
 20
271.838623
 10
50.301525
 20
271.838623
 10
51.173954
 20
271.838623
 10
52.100513
 20
271.838623
 10
53.076492
 20
271.838623
 10
54.096897
 20
271.838623
 10
55.156528
 20
271.838623
 10
56.250065
 20
271.838623
 10
57.372124
 20
271.838623
 10
58.517342
 20
271.838623
 10
59.680454
 20
271.838623
 10
60.856327
 20
271.838623
 10
62.040039
 20
271.838623
 10
63.22691
 20
271.838623
 10
64.455879
 20
271.838623
  0
LINE
  5
2AD
330
298
100
AcDbEntity
  8
0
  6
Continuous
 62
     0
370
    30
100
AcDbLine
 10
64.455878
 20
278.403277
 30
0.0
 11
100.122836
 21
278.403277
 31
0.0
  0
LWPOLYLINE
  5
2AE
330
298
100
AcDbEntity
  8
0
  6
Continuous
 62
     0
370
    30
100
AcDbPolyline
 90
       25
 70
     0
 43
0.0
 10
45.124008
 20
278.40329
 10
45.162682
 20
278.40329
 10
45.279015
 20
278.40329
 10
45.472866
 20
278.40329
 10
45.742966
 20
278.40329
 10
46.087944
 20
278.40329
 10
46.506424
 20
278.40329
 10
46.997032
 20
278.40329
 10
47.558395
 20
278.40329
 10
48.189133
 20
278.40329
 10
48.887753
 20
278.40329
 10
49.652031
 20
278.40329
 10
50.479469
 20
278.40329
 10
51.367573
 20
278.40329
 10
52.314075
 20
278.40329
 10
53.31736
 20
278.40329
 10
54.375896
 20
278.40329
 10
55.488129
 20
278.40329
 10
56.651176
 20
278.40329
 10
57.860489
 20
278.40329
 10
59.111389
 20
278.40329
 10
60.399208
 20
278.40329
 10
61.719284
 20
278.40329
 10
63.06694
 20
278.40329
 10
64.455879
 20
278.40329
  0
LINE
  5
2AF
330
298
100
AcDbEntity
  8
0
  6
Continuous
 62
     0
370
    30
100
AcDbLine
 10
99.696722
 20
278.897427
 30
0.0
 11
64.581692
 21
278.897404
 31
0.0
  0
LINE
  5
2B0
330
298
100
AcDbEntity
  8
0
  6
Continuous
 62
     0
370
    30
100
AcDbLine
 10
64.455878
 20
271.838631
 30
0.0
 11
100.124268
 21
271.838631
 31
0.0
  0
LWPOLYLINE
  5
2B1
330
298
100
AcDbEntity
  8
0
  6
Continuous
 62
     0
370
    30
100
AcDbPolyline
 90
       25
 70
     0
 43
0.0
 10
45.123528
 20
271.838623
 10
45.162167
 20
271.838623
 10
45.277683
 20
271.838623
 10
45.469398
 20
271.838623
 10
45.736622
 20
271.838623
 10
46.078659
 20
271.838623
 10
46.494823
 20
271.838623
 10
46.984318
 20
271.838623
 10
47.545578
 20
271.838623
 10
48.176712
 20
271.838623
 10
48.875824
 20
271.838623
 10
49.641022
 20
271.838623
 10
50.470417
 20
271.838623
 10
51.361996
 20
271.838623
 10
52.313091
 20
271.838623
 10
53.32077
 20
271.838623
 10
54.382122
 20
271.838623
 10
55.494221
 20
271.838623
 10
56.654144
 20
271.838623
 10
57.858875
 20
271.838623
 10
59.104927
 20
271.838623
 10
60.388664
 20
271.838623
 10
61.706451
 20
271.838623
 10
63.054649
 20
271.838623
 10
64.455879
 20
271.838623
  0
LWPOLYLINE
  5
2B2
330
298
100
AcDbEntity
  8
0
  6
Continuous
 62
     0
370
     0
100
AcDbPolyline
 90
       38
 70
     0
 43
0.0
 10
61.71759
 20
344.370758
 10
61.750462
 20
344.370758
 10
61.852131
 20
344.370758
 10
62.026417
 20
344.370758
 10
62.275902
 20
344.370758
 10
62.601727
 20
344.370758
 10
63.00341
 20
344.370758
 10
63.478767
 20
344.370758
 10
64.023895
 20
344.370758
 10
64.633255
 20
344.370758
 10
65.299896
 20
344.370758
 10
66.015656
 20
344.370758
 10
66.771538
 20
344.370758
 10
67.558044
 20
344.370758
 10
68.365547
 20
344.370758
 10
69.184593
 20
344.370758
 10
70.006264
 20
344.370758
 10
70.82235
 20
344.370758
 10
71.626472
 20
344.370758
 10
72.444374
 20
344.370758
 10
73.286194
 20
344.370758
 10
74.145164
 20
344.370758
 10
75.013466
 20
344.370758
 10
75.882347
 20
344.370758
 10
76.742348
 20
344.370758
 10
77.583595
 20
344.370758
 10
78.396149
 20
344.370758
 10
79.170319
 20
344.370758
 10
79.897102
 20
344.370758
 10
80.568459
 20
344.370758
 10
81.177666
 20
344.370758
 10
81.719505
 20
344.370758
 10
82.190376
 20
344.370758
 10
82.588379
 20
344.370758
 10
82.913223
 20
344.370758
 10
83.16613
 20
344.370758
 10
83.349617
 20
344.370758
 10
83.469276
 20
344.370758
  0
LINE
  5
2B3
330
298
100
AcDbEntity
  8
0
  6
Continuous
 62
     0
370
    30
100
AcDbLine
 10
82.67795
 20
345.088631
 30
0.0
 11
62.513363
 21
345.088631
 31
0.0
  0
LWPOLYLINE
  5
2B4
330
298
100
AcDbEntity
  8
0
  6
Continuous
 62
     0
370
     0
100
AcDbPolyline
 90
       43
 70
     0
 43
0.0
 10
58.406185
 20
340.837494
 10
58.439358
 20
340.837494
 10
58.541656
 20
340.837494
 10
58.716656
 20
340.837494
 10
58.967026
 20
340.837494
 10
59.294338
 20
340.837494
 10
59.698959
 20
340.837494
 10
60.179939
 20
340.837494
 10
60.734974
 20
340.837494
 10
61.360416
 20
340.837494
 10
62.05135
 20
340.837494
 10
62.801704
 20
340.837494
 10
63.604439
 20
340.837494
 10
64.451767
 20
340.837494
 10
65.335381
 20
340.837494
 10
66.246704
 20
340.837494
 10
67.17717
 20
340.837494
 10
68.118401
 20
340.837494
 10
69.062447
 20
340.837494
 10
70.00193
 20
340.837494
 10
70.930183
 20
340.837494
 10
71.856743
 20
340.837494
 10
72.80941
 20
340.837494
 10
73.783806
 20
340.837494
 10
74.773575
 20
340.837494
 10
75.771553
 20
340.837494
 10
76.769859
 20
340.837494
 10
77.760071
 20
340.837494
 10
78.733421
 20
340.837494
 10
79.681
 20
340.837494
 10
80.594048
 20
340.837494
 10
81.464165
 20
340.837494
 10
82.283607
 20
340.837494
 10
83.045479
 20
340.837494
 10
83.743942
 20
340.837494
 10
84.374367
 20
340.837494
 10
84.933403
 20
340.837494
 10
85.419014
 20
340.837494
 10
85.830482
 20
340.837494
 10
86.168297
 20
340.837494
 10
86.434059
 20
340.837494
 10
86.630333
 20
340.837494
 10
86.762184
 20
340.837494
  0
LWPOLYLINE
  5
2B5
330
298
100
AcDbEntity
  8
0
  6
Continuous
 62
     0
370
     0
100
AcDbPolyline
 90
       43
 70
     0
 43
0.0
 10
58.23983
 20
340.650787
 10
58.273403
 20
340.650787
 10
58.376926
 20
340.650787
 10
58.554028
 20
340.650787
 10
58.807404
 20
340.650787
 10
59.138641
 20
340.650787
 10
59.548119
 20
340.650787
 10
60.034866
 20
340.650787
 10
60.596558
 20
340.650787
 10
61.229496
 20
340.650787
 10
61.928699
 20
340.650787
 10
62.688026
 20
340.650787
 10
63.500351
 20
340.650787
 10
64.357788
 20
340.650787
 10
65.25193
 20
340.650787
 10
66.174103
 20
340.650787
 10
67.115623
 20
340.650787
 10
68.068024
 20
340.650787
 10
69.023247
 20
340.650787
 10
69.973839
 20
340.650787
 10
70.913048
 20
340.650787
 10
71.850639
 20
340.650787
 10
72.814667
 20
340.650787
 10
73.800667
 20
340.650787
 10
74.802208
 20
340.650787
 10
75.812019
 20
340.650787
 10
76.822136
 20
340.650787
 10
77.824036
 20
340.650787
 10
78.808823
 20
340.650787
 10
79.767509
 20
340.650787
 10
80.6912
 20
340.650787
 10
81.571419
 20
340.650787
 10
82.400322
 20
340.650787
 10
83.170929
 20
340.650787
 10
83.877342
 20
340.650787
 10
84.514885
 20
340.650787
 10
85.08017
 20
340.650787
 10
85.571144
 20
340.650787
 10
85.987076
 20
340.650787
 10
86.328484
 20
340.650787
 10
86.596985
 20
340.650787
 10
86.795181
 20
340.650787
 10
86.927612
 20
340.650787
  0
LWPOLYLINE
  5
2B6
330
298
100
AcDbEntity
  8
0
  6
Continuous
 62
     0
370
    30
100
AcDbPolyline
 90
       22
 70
     0
 43
0.0
 10
58.642166
 20
338.438751
 10
58.681351
 20
338.438751
 10
58.798878
 20
338.438751
 10
58.994705
 20
338.438751
 10
59.268475
 20
338.438751
 10
59.618061
 20
338.438782
 10
60.040749
 20
338.438782
 10
60.533836
 20
338.438782
 10
61.094604
 20
338.438782
 10
61.720352
 20
338.438782
 10
62.408131
 20
338.438782
 10
63.153843
 20
338.438782
 10
63.953037
 20
338.438782
 10
64.801262
 20
338.438751
 10
65.694069
 20
338.438751
 10
66.627007
 20
338.438751
 10
67.595261
 20
338.438751
 10
68.592407
 20
338.438751
 10
69.611557
 20
338.438782
 10
70.645828
 20
338.438782
 10
71.688339
 20
338.438782
 10
72.743088
 20
338.438782
  0
LINE
  5
2B7
330
298
100
AcDbEntity
  8
0
  6
Continuous
 62
     0
370
    30
100
AcDbLine
 10
87.015473
 20
338.964802
 30
0.0
 11
58.152047
 21
338.964802
 31
0.0
  0
LWPOLYLINE
  5
2B8
330
298
100
AcDbEntity
  8
0
  6
Continuous
 62
     0
370
     0
100
AcDbPolyline
 90
       16
 70
     0
 43
0.0
 10
99.11142
 20
335.881897
 10
99.116318
 20
335.854584
 10
99.120979
 20
335.767731
 10
99.12561
 20
335.619476
 10
99.130249
 20
335.403473
 10
99.134781
 20
335.117188
 10
99.139099
 20
334.760803
 10
99.143089
 20
334.337891
 10
99.146645
 20
333.855316
 10
99.149673
 20
333.322998
 10
99.152107
 20
332.753357
 10
99.1539
 20
332.160187
 10
99.155052
 20
331.55777
 10
99.155571
 20
330.959656
 10
99.155502
 20
330.377899
 10
99.154854
 20
329.788452
  0
LINE
  5
2B9
330
298
100
AcDbEntity
  8
0
  6
Continuous
 62
     0
370
     0
100
AcDbLine
 10
99.154855
 20
329.788452
 30
0.0
 11
99.111419
 21
325.595471
 31
0.0
  0
LWPOLYLINE
  5
2BA
330
298
100
AcDbEntity
  8
0
  6
Continuous
 62
     0
370
     0
100
AcDbPolyline
 90
       13
 70
     0
 43
0.0
 10
94.883308
 20
334.138672
 10
94.887299
 20
334.106323
 10
94.891098
 20
334.013458
 10
94.89492
 20
333.85379
 10
94.898651
 20
333.62265
 10
94.902161
 20
333.320068
 10
94.905304
 20
332.951324
 10
94.907951
 20
332.526764
 10
94.909996
 20
332.061127
 10
94.911392
 20
331.571838
 10
94.912132
 20
331.076843
 10
94.912254
 20
330.592712
 10
94.911781
 20
330.110535
  0
LINE
  5
2BB
330
298
100
AcDbEntity
  8
0
  6
Continuous
 62
     0
370
     0
100
AcDbLine
 10
94.91178
 20
330.110541
 30
0.0
 11
94.883312
 21
327.338683
 31
0.0
  0
LINE
  5
2BC
330
298
100
AcDbEntity
  8
0
  6
Continuous
 62
     0
370
     0
100
AcDbLine
 10
94.515852
 20
334.138683
 30
0.0
 11
94.544321
 21
330.110541
 31
0.0
  0
LINE
  5
2BD
330
298
100
AcDbEntity
  8
0
  6
Continuous
 62
     0
370
     0
100
AcDbLine
 10
94.544321
 20
330.110541
 30
0.0
 11
94.515857
 21
327.338683
 31
0.0
  0
LINE
  5
2BE
330
298
100
AcDbEntity
  8
0
  6
Continuous
 62
     0
370
    30
100
AcDbLine
 10
93.615912
 20
335.130891
 30
0.0
 11
93.652662
 21
329.927224
 31
0.0
  0
LINE
  5
2BF
330
298
100
AcDbEntity
  8
0
  6
Continuous
 62
     0
370
    30
100
AcDbLine
 10
93.65189
 20
329.944268
 30
0.0
 11
93.615021
 21
335.037455
 31
0.0
  0
LINE
  5
2C0
330
298
100
AcDbEntity
  8
0
  6
Continuous
 62
     0
370
     0
100
AcDbLine
 10
90.430034
 20
335.409675
 30
0.0
 11
90.469121
 21
329.875728
 31
0.0
  0
LINE
  5
2C1
330
298
100
AcDbEntity
  8
0
  6
Continuous
 62
     0
370
     0
100
AcDbLine
 10
90.469121
 20
329.875728
 30
0.0
 11
90.430041
 21
326.067692
 31
0.0
  0
LINE
  5
2C2
330
298
100
AcDbEntity
  8
0
  6
Continuous
 62
     0
370
     0
100
AcDbLine
 10
88.73145
 20
336.344764
 30
0.0
 11
88.777859
 21
329.702908
 31
0.0
  0
LINE
  5
2C3
330
298
100
AcDbEntity
  8
0
  6
Continuous
 62
     0
370
     0
100
AcDbLine
 10
88.777859
 20
329.702908
 30
0.0
 11
88.731451
 21
325.132603
 31
0.0
  0
LINE
  5
2C4
330
298
100
AcDbEntity
  8
0
  6
Continuous
 62
     0
370
     0
100
AcDbLine
 10
87.935809
 20
336.738683
 30
0.0
 11
87.986046
 21
329.630197
 31
0.0
  0
LINE
  5
2C5
330
298
100
AcDbEntity
  8
0
  6
Continuous
 62
     0
370
     0
100
AcDbLine
 10
87.986046
 20
329.630197
 30
0.0
 11
87.9358
 21
324.738683
 31
0.0
  0
LINE
  5
2C6
330
298
100
AcDbEntity
  8
0
  6
Continuous
 62
     0
370
     0
100
AcDbLine
 10
46.179192
 20
331.688914
 30
0.0
 11
46.136497
 21
335.881895
 31
0.0
  0
LINE
  5
2C7
330
298
100
AcDbEntity
  8
0
  6
Continuous
 62
     0
370
     0
100
AcDbLine
 10
46.136478
 20
325.595452
 30
0.0
 11
46.179192
 21
331.688914
 31
0.0
  0
LINE
  5
2C8
330
298
100
AcDbEntity
  8
0
  6
Continuous
 62
     0
370
     0
100
AcDbLine
 10
50.393073
 20
331.366825
 30
0.0
 11
50.364609
 21
334.138683
 31
0.0
  0
LINE
  5
2C9
330
298
100
AcDbEntity
  8
0
  6
Continuous
 62
     0
370
     0
100
AcDbLine
 10
50.364605
 20
327.338683
 30
0.0
 11
50.393073
 21
331.366825
 31
0.0
  0
LINE
  5
2CA
330
298
100
AcDbEntity
  8
0
  6
Continuous
 62
     0
370
     0
100
AcDbLine
 10
50.760531
 20
331.366825
 30
0.0
 11
50.732063
 21
334.138683
 31
0.0
  0
LWPOLYLINE
  5
2CB
330
298
100
AcDbEntity
  8
0
  6
Continuous
 62
     0
370
     0
100
AcDbPolyline
 90
       13
 70
     0
 43
0.0
 10
50.732059
 20
327.338684
 10
50.73605
 20
327.371033
 10
50.739853
 20
327.463898
 10
50.743668
 20
327.623566
 10
50.747406
 20
327.854706
 10
50.750916
 20
328.157288
 10
50.754055
 20
328.526062
 10
50.756699
 20
328.950623
 10
50.758747
 20
329.416229
 10
50.760147
 20
329.905548
 10
50.760887
 20
330.400543
 10
50.761002
 20
330.884644
 10
50.760532
 20
331.366821
  0
LWPOLYLINE
  5
2CC
330
298
100
AcDbEntity
  8
0
  6
Continuous
 62
     0
370
    30
100
AcDbPolyline
 90
       14
 70
     0
 43
0.0
 10
51.668034
 20
331.533112
 10
51.667015
 20
332.013763
 10
51.665462
 20
332.496399
 10
51.663349
 20
332.969208
 10
51.660675
 20
333.419159
 10
51.657467
 20
333.832947
 10
51.65379
 20
334.198029
 10
51.649723
 20
334.503937
 10
51.645378
 20
334.743103
 10
51.640873
 20
334.91156
 10
51.636326
 20
335.009033
 10
51.631847
 20
335.038635
 10
51.627537
 20
335.006256
 10
51.623199
 20
334.911896
  0
LWPOLYLINE
  5
2CD
330
298
100
AcDbEntity
  8
0
  6
Continuous
 62
     0
370
    30
100
AcDbPolyline
 90
       17
 70
     0
 43
0.0
 10
51.619808
 20
326.587372
 10
51.624504
 20
326.436127
 10
51.629333
 20
326.357849
 10
51.634205
 20
326.353882
 10
51.639038
 20
326.424103
 10
51.643753
 20
326.567627
 10
51.648273
 20
326.781708
 10
51.652515
 20
327.062927
 10
51.65641
 20
327.406494
 10
51.659889
 20
327.806427
 10
51.662899
 20
328.256195
 10
51.665386
 20
328.747925
 10
51.667305
 20
329.273468
 10
51.668629
 20
329.823822
 10
51.669331
 20
330.389679
 10
51.669403
 20
330.961487
 10
51.668808
 20
331.55014
  0
LWPOLYLINE
  5
2CE
330
298
100
AcDbEntity
  8
0
  6
Continuous
 62
     0
370
    30
100
AcDbPolyline
 90
       16
 70
     0
 43
0.0
 10
51.668034
 20
331.533112
 10
51.668613
 20
330.965179
 10
51.668545
 20
330.39325
 10
51.667831
 20
329.827454
 10
51.666485
 20
329.277771
 10
51.664528
 20
328.753906
 10
51.661995
 20
328.265228
 10
51.658936
 20
327.820221
 10
51.655396
 20
327.426971
 10
51.651443
 20
327.092194
 10
51.647152
 20
326.822021
 10
51.642586
 20
326.621155
 10
51.637836
 20
326.493011
 10
51.632984
 20
326.440186
 10
51.628117
 20
326.463226
 10
51.623199
 20
326.565491
  0
LINE
  5
2CF
330
298
100
AcDbEntity
  8
0
  6
Continuous
 62
     0
370
     0
100
AcDbLine
 10
54.857015
 20
331.601638
 30
0.0
 11
54.817875
 21
335.409674
 31
0.0
  0
LWPOLYLINE
  5
2D0
330
298
100
AcDbEntity
  8
0
  6
Continuous
 62
     0
370
     0
100
AcDbPolyline
 90
       15
 70
     0
 43
0.0
 10
54.817871
 20
326.067688
 10
54.822598
 20
326.100281
 10
54.827095
 20
326.194
 10
54.8316
 20
326.352966
 10
54.836075
 20
326.583008
 10
54.840405
 20
326.886078
 10
54.844467
 20
327.26059
 10
54.848137
 20
327.701019
 10
54.851299
 20
328.197968
 10
54.853867
 20
328.738831
 10
54.855789
 20
329.308777
 10
54.85704
 20
329.892029
 10
54.857635
 20
330.473419
 10
54.857616
 20
331.039246
 10
54.857014
 20
331.601624
  0
LINE
  5
2D1
330
298
100
AcDbEntity
  8
0
  6
Continuous
 62
     0
370
     0
100
AcDbLine
 10
56.563941
 20
331.774458
 30
0.0
 11
56.511835
 21
336.312255
 31
0.0
  0
LWPOLYLINE
  5
2D2
330
298
100
AcDbEntity
  8
0
  6
Continuous
 62
     0
370
     0
100
AcDbPolyline
 90
       16
 70
     0
 43
0.0
 10
56.516464
 20
325.132599
 10
56.521835
 20
325.161041
 10
56.526943
 20
325.255157
 10
56.532021
 20
325.416718
 10
56.537098
 20
325.652802
 10
56.542065
 20
325.966278
 10
56.546795
 20
326.356873
 10
56.551163
 20
326.820679
 10
56.55505
 20
327.350037
 10
56.558357
 20
327.93396
 10
56.561005
 20
328.558685
 10
56.56295
 20
329.208893
 10
56.564186
 20
329.868835
 10
56.564728
 20
330.523529
 10
56.564629
 20
331.159729
 10
56.563942
 20
331.774445
  0
LINE
  5
2D3
330
298
100
AcDbEntity
  8
0
  6
Continuous
 62
     0
370
     0
100
AcDbLine
 10
57.362345
 20
331.847169
 30
0.0
 11
57.312092
 21
336.738683
 31
0.0
  0
LWPOLYLINE
  5
2D4
330
298
100
AcDbEntity
  8
0
  6
Continuous
 62
     0
370
     0
100
AcDbPolyline
 90
       17
 70
     0
 43
0.0
 10
57.312099
 20
324.738678
 10
57.317425
 20
324.77124
 10
57.322506
 20
324.864166
 10
57.327549
 20
325.019043
 10
57.332607
 20
325.24231
 10
57.337582
 20
325.536835
 10
57.342369
 20
325.903015
 10
57.346859
 20
326.33844
 10
57.350948
 20
326.837738
 10
57.354538
 20
327.392578
 10
57.357555
 20
327.992279
 10
57.359947
 20
328.624329
 10
57.361683
 20
329.275299
 10
57.362762
 20
329.931732
 10
57.363209
 20
330.580994
 10
57.363068
 20
331.212006
 10
57.362347
 20
331.847168
  0
ARC
  5
2D5
330
298
100
AcDbEntity
  8
0
  6
Continuous
 62
     0
370
    30
100
AcDbCircle
 10
23.498977
 20
330.641639
 30
0.0
 40
34.78136160862523
100
AcDbArc
 50
350.245953
 51
1.986285
  0
LINE
  5
2D6
330
298
100
AcDbEntity
  8
0
  6
Continuous
 62
     0
370
    30
100
AcDbLine
 10
58.25944
 20
331.847169
 30
0.0
 11
57.792485
 21
336.680868
 31
0.0
  0
LINE
  5
2D7
330
298
100
AcDbEntity
  8
0
  6
Continuous
 62
     0
370
     0
100
AcDbLine
 10
72.747148
 20
338.089891
 30
0.0
 11
87.085336
 21
338.089891
 31
0.0
  0
LWPOLYLINE
  5
2D8
330
298
100
AcDbEntity
  8
0
  6
Continuous
 62
     0
370
     0
100
AcDbPolyline
 90
       23
 70
     0
 43
0.0
 10
58.162548
 20
338.089905
 10
58.193333
 20
338.089905
 10
58.288651
 20
338.089905
 10
58.45261
 20
338.089905
 10
58.688614
 20
338.089905
 10
58.999191
 20
338.089905
 10
59.385838
 20
338.089905
 10
59.848866
 20
338.089905
 10
60.38731
 20
338.089905
 10
60.998882
 20
338.089905
 10
61.679955
 20
338.089905
 10
62.42561
 20
338.089905
 10
63.229771
 20
338.089905
 10
64.08535
 20
338.089905
 10
64.984474
 20
338.089905
 10
65.918686
 20
338.089905
 10
66.879234
 20
338.089905
 10
67.857307
 20
338.089905
 10
68.844276
 20
338.089905
 10
69.831909
 20
338.089905
 10
70.812553
 20
338.089905
 10
71.779259
 20
338.089905
 10
72.747147
 20
338.089905
  0
LINE
  5
2D9
330
298
100
AcDbEntity
  8
0
  6
Continuous
 62
     0
370
    30
100
AcDbLine
 10
86.530656
 20
338.438634
 30
0.0
 11
72.743087
 21
338.438634
 31
0.0
  0
LINE
  5
2DA
330
298
100
AcDbEntity
  8
0
  6
Continuous
 62
     0
370
     0
100
AcDbLine
 10
73.786921
 20
323.543233
 30
0.0
 11
87.134249
 21
323.543233
 31
0.0
  0
LWPOLYLINE
  5
2DB
330
298
100
AcDbEntity
  8
0
  6
Continuous
 62
     0
370
     0
100
AcDbPolyline
 90
       22
 70
     0
 43
0.0
 10
58.113636
 20
323.543243
 10
58.14529
 20
323.543243
 10
58.243343
 20
323.543243
 10
58.412052
 20
323.543243
 10
58.654934
 20
323.543243
 10
58.974583
 20
323.543243
 10
59.372478
 20
323.543243
 10
59.848866
 20
323.543243
 10
60.402637
 20
323.543243
 10
61.031277
 20
323.543243
 10
61.730865
 20
323.543243
 10
62.496147
 20
323.543243
 10
63.320648
 20
323.543243
 10
64.196869
 20
323.543243
 10
65.116501
 20
323.543243
 10
66.070686
 20
323.543243
 10
67.050285
 20
323.543243
 10
68.04615
 20
323.543243
 10
69.049355
 20
323.543243
 10
70.051468
 20
323.543243
 10
71.04467
 20
323.543243
 10
72.030273
 20
323.543243
  0
LWPOLYLINE
  5
2DC
330
298
100
AcDbEntity
  8
0
  6
Continuous
 62
     0
370
    30
100
AcDbPolyline
 90
       59
 70
     0
 43
0.0
 10
86.988464
 20
331.847168
 10
86.975929
 20
331.215118
 10
86.974266
 20
330.573151
 10
86.982941
 20
329.92981
 10
87.001419
 20
329.293518
 10
87.02916
 20
328.672729
 10
87.06562
 20
328.075958
 10
87.109634
 20
327.51062
 10
87.158981
 20
326.982361
 10
87.211319
 20
326.496643
 10
87.264305
 20
326.05896
 10
87.315613
 20
325.674774
 10
87.362892
 20
325.349609
 10
87.403816
 20
325.088867
 10
87.436043
 20
324.898102
 10
87.457298
 20
324.782562
 10
87.466919
 20
324.74353
 10
87.465927
 20
324.777985
 10
87.455414
 20
324.88266
 10
87.43647
 20
325.054382
 10
87.41021
 20
325.289886
 10
87.377708
 20
325.585999
 10
87.34008
 20
325.939484
 10
87.29847
 20
326.347046
 10
87.254883
 20
326.804626
 10
87.211899
 20
327.307648
 10
87.172104
 20
327.851471
 10
87.137794
 20
328.430908
 10
87.110107
 20
329.038635
 10
87.089943
 20
329.666901
 10
87.078186
 20
330.307892
 10
87.075729
 20
330.953796
 10
87.083458
 20
331.596802
 10
87.101387
 20
332.229492
 10
87.12796
 20
332.845062
 10
87.1614
 20
333.436768
 10
87.199959
 20
333.997925
 10
87.241859
 20
334.521759
 10
87.285355
 20
335.001556
 10
87.328621
 20
335.431122
 10
87.369598
 20
335.806091
 10
87.406189
 20
336.122559
 10
87.436279
 20
336.376648
 10
87.457756
 20
336.564545
 10
87.468552
 20
336.682312
 10
87.467834
 20
336.728333
 10
87.45665
 20
336.704102
 10
87.43618
 20
336.611328
 10
87.407608
 20
336.451782
 10
87.372116
 20
336.227142
 10
87.330887
 20
335.939209
 10
87.285103
 20
335.589691
 10
87.235977
 20
335.18045
 10
87.185257
 20
334.71637
 10
87.135246
 20
334.205353
 10
87.088257
 20
333.655273
 10
87.0466
 20
333.074188
 10
87.012596
 20
332.469971
 10
86.988464
 20
331.847168
  0
LINE
  5
2DD
330
298
100
AcDbEntity
  8
0
  6
Continuous
 62
     0
370
     0
100
AcDbLine
 10
72.744741
 20
323.213129
 30
0.0
 11
86.802856
 21
323.213129
 31
0.0
  0
LWPOLYLINE
  5
2DE
330
298
100
AcDbEntity
  8
0
  6
Continuous
 62
     0
370
     0
100
AcDbPolyline
 90
       23
 70
     0
 43
0.0
 10
58.44503
 20
323.213135
 10
58.475182
 20
323.213135
 10
58.568546
 20
323.213135
 10
58.729141
 20
323.213135
 10
58.9603
 20
323.213135
 10
59.264503
 20
323.213135
 10
59.643215
 20
323.213135
 10
60.096745
 20
323.213135
 10
60.624157
 20
323.213135
 10
61.223206
 20
323.213135
 10
61.890347
 20
323.213135
 10
62.620777
 20
323.213135
 10
63.40855
 20
323.213135
 10
64.246735
 20
323.213135
 10
65.127617
 20
323.213135
 10
66.042923
 20
323.213135
 10
66.9841
 20
323.213135
 10
67.942497
 20
323.213135
 10
68.909683
 20
323.213135
 10
69.877586
 20
323.213135
 10
70.838707
 20
323.213135
 10
71.78624
 20
323.213135
 10
72.744743
 20
323.213135
  0
LWPOLYLINE
  5
2DF
330
298
100
AcDbEntity
  8
0
  6
Continuous
 62
     0
370
    30
100
AcDbPolyline
 90
       16
 70
     0
 43
0.0
 10
66.232414
 20
320.832275
 10
66.261871
 20
320.832275
 10
66.35421
 20
320.832275
 10
66.51442
 20
320.832275
 10
66.745773
 20
320.832275
 10
67.049316
 20
320.832275
 10
67.423553
 20
320.832275
 10
67.864296
 20
320.832275
 10
68.364746
 20
320.832275
 10
68.91584
 20
320.832275
 10
69.506767
 20
320.832275
 10
70.125671
 20
320.832275
 10
70.760391
 20
320.832275
 10
71.399162
 20
320.832275
 10
72.031242
 20
320.832275
 10
72.678398
 20
320.832275
  0
LINE
  5
2E0
330
298
100
AcDbEntity
  8
0
  6
Continuous
 62
     0
370
    30
100
AcDbLine
 10
72.678395
 20
320.832286
 30
0.0
 11
66.253346
 21
320.831911
 31
0.0
  0
LWPOLYLINE
  5
2E1
330
298
100
AcDbEntity
  8
0
  6
Continuous
 62
     0
370
    30
100
AcDbPolyline
 90
       29
 70
     0
 43
0.0
 10
72.569489
 20
320.832275
 10
73.257492
 20
320.832153
 10
73.946381
 20
320.832031
 10
74.626717
 20
320.83197
 10
75.289085
 20
320.831909
 10
75.924049
 20
320.831879
 10
76.522186
 20
320.831879
 10
77.074066
 20
320.831879
 10
77.570267
 20
320.831879
 10
78.001358
 20
320.831879
 10
78.358376
 20
320.831879
 10
78.63768
 20
320.831909
 10
78.839134
 20
320.831909
 10
78.962669
 20
320.831909
 10
79.008194
 20
320.831909
 10
78.975639
 20
320.831909
 10
78.864922
 20
320.831909
 10
78.675957
 20
320.831909
 10
78.408676
 20
320.831879
 10
78.063042
 20
320.831879
 10
77.642494
 20
320.831879
 10
77.155891
 20
320.831848
 10
76.612579
 20
320.831848
 10
76.021904
 20
320.831879
 10
75.393219
 20
320.831909
 10
74.735855
 20
320.83194
 10
74.059166
 20
320.832031
 10
73.372505
 20
320.832153
 10
72.678398
 20
320.832275
  0
LINE
  5
2E2
330
298
100
AcDbEntity
  8
0
  6
Continuous
 62
     0
370
    30
100
AcDbLine
 10
72.67719
 20
320.641025
 30
0.0
 11
78.873941
 21
320.641025
 31
0.0
  0
LWPOLYLINE
  5
2E3
330
298
100
AcDbEntity
  8
0
  6
Continuous
 62
     0
370
    30
100
AcDbPolyline
 90
       15
 70
     0
 43
0.0
 10
66.373947
 20
320.641022
 10
66.413963
 20
320.641022
 10
66.532814
 20
320.641022
 10
66.728706
 20
320.641022
 10
66.999786
 20
320.641022
 10
67.342682
 20
320.641022
 10
67.752312
 20
320.641022
 10
68.22348
 20
320.641022
 10
68.750694
 20
320.641022
 10
69.327217
 20
320.641022
 10
69.945908
 20
320.641022
 10
70.599609
 20
320.641022
 10
71.279556
 20
320.641022
 10
71.975365
 20
320.641022
 10
72.677193
 20
320.641022
  0
LINE
  5
2E4
330
298
100
AcDbEntity
  8
0
  6
Continuous
 62
     0
370
    30
100
AcDbLine
 10
78.873942
 20
320.641025
 30
0.0
 11
78.873942
 21
317.838631
 31
0.0
  0
LINE
  5
2E5
330
298
100
AcDbEntity
  8
0
  6
Continuous
 62
     0
370
    30
100
AcDbLine
 10
66.373942
 20
317.838631
 30
0.0
 11
66.373942
 21
320.641025
 31
0.0
  0
LINE
  5
2E6
330
298
100
AcDbEntity
  8
0
  6
Continuous
 62
     0
370
    30
100
AcDbLine
 10
58.445028
 20
323.213129
 30
0.0
 11
66.232416
 21
320.832286
 31
0.0
  0
LINE
  5
2E7
330
298
100
AcDbEntity
  8
0
  6
Continuous
 62
     0
370
    30
100
AcDbLine
 10
86.802856
 20
323.213129
 30
0.0
 11
79.015468
 21
320.832286
 31
0.0
  0
LINE
  5
2E8
330
298
100
AcDbEntity
  8
0
  6
Continuous
 62
     0
370
    30
100
AcDbLine
 10
58.162548
 20
338.089891
 30
0.0
 11
57.775604
 21
336.735837
 31
0.0
  0
LINE
  5
2E9
330
298
100
AcDbEntity
  8
0
  6
Continuous
 62
     0
370
    30
100
AcDbLine
 10
87.085336
 20
338.089891
 30
0.0
 11
87.47228
 21
336.735838
 31
0.0
  0
LINE
  5
2EA
330
298
100
AcDbEntity
  8
0
  6
Continuous
 62
     0
370
    30
100
AcDbLine
 10
87.134249
 20
323.543233
 30
0.0
 11
87.472485
 21
324.742161
 31
0.0
  0
LINE
  5
2EB
330
298
100
AcDbEntity
  8
0
  6
Continuous
 62
     0
370
    30
100
AcDbLine
 10
58.113635
 20
323.543233
 30
0.0
 11
57.775399
 21
324.742162
 31
0.0
  0
LINE
  5
2EC
330
298
100
AcDbEntity
  8
0
  6
Continuous
 62
     0
370
    30
100
AcDbLine
 10
57.312107
 20
324.738683
 30
0.0
 11
57.777909
 21
324.738683
 31
0.0
  0
LINE
  5
2ED
330
298
100
AcDbEntity
  8
0
  6
Continuous
 62
     0
370
    30
100
AcDbLine
 10
57.312107
 20
336.738683
 30
0.0
 11
57.777974
 21
336.738683
 31
0.0
  0
ARC
  5
2EE
330
298
100
AcDbEntity
  8
0
  6
Continuous
 62
     0
370
    30
100
AcDbCircle
 10
57.312309
 20
325.739571
 30
0.0
 40
1.000887732534218
100
AcDbArc
 50
217.331732
 51
269.988465
  0
ARC
  5
2EF
330
298
100
AcDbEntity
  8
0
  6
Continuous
 62
     0
370
    30
100
AcDbCircle
 10
57.312309
 20
335.737795
 30
0.0
 40
1.000887733564578
100
AcDbArc
 50
90.011535
 51
142.668268
  0
ARC
  5
2F0
330
298
100
AcDbEntity
  8
0
  6
Continuous
 62
     0
370
    30
100
AcDbCircle
 10
54.608354
 20
323.676806
 30
0.0
 40
2.4000488579915
100
AcDbArc
 50
37.341902
 51
84.991788
  0
ARC
  5
2F1
330
298
100
AcDbEntity
  8
0
  6
Continuous
 62
     0
370
    30
100
AcDbCircle
 10
54.608843
 20
337.799677
 30
0.0
 40
2.39912650254575
100
AcDbArc
 50
274.99842
 51
321.731007
  0
LINE
  5
2F2
330
298
100
AcDbEntity
  8
0
  6
Continuous
 62
     0
370
    30
100
AcDbLine
 10
51.632002
 20
326.34643
 30
0.0
 11
54.817875
 21
326.067692
 31
0.0
  0
LINE
  5
2F3
330
298
100
AcDbEntity
  8
0
  6
Continuous
 62
     0
370
    30
100
AcDbLine
 10
51.632002
 20
335.130936
 30
0.0
 11
54.817875
 21
335.409674
 31
0.0
  0
ARC
  5
2F4
330
298
100
AcDbEntity
  8
0
  6
Continuous
 62
     0
370
    30
100
AcDbCircle
 10
50.737031
 20
326.446808
 30
0.0
 40
0.8918888351905327
100
AcDbArc
 50
5.358086
 51
90.319179
  0
ARC
  5
2F5
330
298
100
AcDbEntity
  8
0
  6
Continuous
 62
     0
370
    30
100
AcDbCircle
 10
50.737019
 20
335.030576
 30
0.0
 40
0.8919069249844287
100
AcDbArc
 50
269.681623
 51
354.642128
  0
ARC
  5
2F6
330
298
100
AcDbEntity
  8
0
  6
Continuous
 62
     0
370
    30
100
AcDbCircle
 10
50.36548
 20
321.337381
 30
0.0
 40
6.001301946517291
100
AcDbArc
 50
90.00836
 51
134.8035
  0
ARC
  5
2F7
330
298
100
AcDbEntity
  8
0
  6
Continuous
 62
     0
370
    30
100
AcDbCircle
 10
50.36548
 20
340.139985
 30
0.0
 40
6.001301944214472
100
AcDbArc
 50
225.1965
 51
269.99164
  0
ARC
  5
2F8
330
298
100
AcDbEntity
  8
0
  6
Continuous
 62
     0
370
    30
100
AcDbCircle
 10
41.026714
 20
330.738687
 30
0.0
 40
7.249998127236481
100
AcDbArc
 50
45.18678
 51
177.449804
  0
ARC
  5
2F9
330
298
100
AcDbEntity
  8
0
  6
Continuous
 62
     0
370
    30
100
AcDbCircle
 10
41.026714
 20
330.738679
 30
0.0
 40
7.249998104309412
100
AcDbArc
 50
182.549909
 51
314.81322
  0
CIRCLE
  5
2FA
330
298
100
AcDbEntity
  8
0
  6
Continuous
 62
     0
370
    30
100
AcDbCircle
 10
72.893164
 20
330.738683
 30
0.0
 40
7.249999999995728
  0
LINE
  5
2FB
330
298
100
AcDbEntity
  8
0
  6
Continuous
 62
     0
370
    30
100
AcDbLine
 10
87.935809
 20
324.738683
 30
0.0
 11
87.469975
 21
324.738683
 31
0.0
  0
LINE
  5
2FC
330
298
100
AcDbEntity
  8
0
  6
Continuous
 62
     0
370
    30
100
AcDbLine
 10
87.935809
 20
336.738683
 30
0.0
 11
87.469911
 21
336.738683
 31
0.0
  0
ARC
  5
2FD
330
298
100
AcDbEntity
  8
0
  6
Continuous
 62
     0
370
    30
100
AcDbCircle
 10
87.935607
 20
325.739571
 30
0.0
 40
1.000887732530947
100
AcDbArc
 50
270.011535
 51
322.668268
  0
ARC
  5
2FE
330
298
100
AcDbEntity
  8
0
  6
Continuous
 62
     0
370
    30
100
AcDbCircle
 10
87.935607
 20
335.737795
 30
0.0
 40
1.00088773356408
100
AcDbArc
 50
37.331732
 51
89.988465
  0
ARC
  5
2FF
330
298
100
AcDbEntity
  8
0
  6
Continuous
 62
     0
370
    30
100
AcDbCircle
 10
90.639562
 20
323.676806
 30
0.0
 40
2.400048857986809
100
AcDbArc
 50
95.008212
 51
142.658098
  0
ARC
  5
300
330
298
100
AcDbEntity
  8
0
  6
Continuous
 62
     0
370
    30
100
AcDbCircle
 10
90.639073
 20
337.799677
 30
0.0
 40
2.399126502545156
100
AcDbArc
 50
218.268993
 51
265.00158
  0
LINE
  5
301
330
298
100
AcDbEntity
  8
0
  6
Continuous
 62
     0
370
    30
100
AcDbLine
 10
93.615914
 20
326.34643
 30
0.0
 11
90.430041
 21
326.067692
 31
0.0
  0
LINE
  5
302
330
298
100
AcDbEntity
  8
0
  6
Continuous
 62
     0
370
    30
100
AcDbLine
 10
93.615914
 20
335.130936
 30
0.0
 11
90.430041
 21
335.409674
 31
0.0
  0
ARC
  5
303
330
298
100
AcDbEntity
  8
0
  6
Continuous
 62
     0
370
    30
100
AcDbCircle
 10
94.510885
 20
326.446808
 30
0.0
 40
0.8918888351917329
100
AcDbArc
 50
89.680821
 51
174.641914
  0
ARC
  5
304
330
298
100
AcDbEntity
  8
0
  6
Continuous
 62
     0
370
    30
100
AcDbCircle
 10
94.517162
 20
335.04036
 30
0.0
 40
0.9016775039008771
100
AcDbArc
 50
189.598519
 51
269.916835
  0
ARC
  5
305
330
298
100
AcDbEntity
  8
0
  6
Continuous
 62
     0
370
    30
100
AcDbCircle
 10
94.882436
 20
321.337381
 30
0.0
 40
6.001301946516209
100
AcDbArc
 50
45.1965
 51
89.99164
  0
ARC
  5
306
330
298
100
AcDbEntity
  8
0
  6
Continuous
 62
     0
370
    30
100
AcDbCircle
 10
94.882436
 20
340.139985
 30
0.0
 40
6.001301944213065
100
AcDbArc
 50
270.00836
 51
314.8035
  0
ARC
  5
307
330
298
100
AcDbEntity
  8
0
  6
Continuous
 62
     0
370
    30
100
AcDbCircle
 10
104.221202
 20
330.738687
 30
0.0
 40
7.249998127236454
100
AcDbArc
 50
2.550196
 51
134.81322
  0
ARC
  5
308
330
298
100
AcDbEntity
  8
0
  6
Continuous
 62
     0
370
    30
100
AcDbCircle
 10
104.221202
 20
330.738679
 30
0.0
 40
7.249998104309409
100
AcDbArc
 50
225.18678
 51
357.450091
  0
LINE
  5
309
330
298
100
AcDbEntity
  8
0
  6
Continuous
 62
     0
370
    30
100
AcDbLine
 10
87.007964
 20
340.650774
 30
0.0
 11
87.094183
 21
339.005628
 31
0.0
  0
LINE
  5
30A
330
298
100
AcDbEntity
  8
0
  6
Continuous
 62
     0
370
    30
100
AcDbLine
 10
58.151473
 20
338.964802
 30
0.0
 11
58.239831
 21
340.650774
 31
0.0
  0
ARC
  5
30B
330
298
100
AcDbEntity
  8
0
  6
Continuous
 62
     0
370
    30
100
AcDbCircle
 10
87.509043
 20
344.781399
 30
0.0
 40
3.999972062089045
100
AcDbArc
 50
185.892345
 51
258.987594
  0
ARC
  5
30C
330
298
100
AcDbEntity
  8
0
  6
Continuous
 62
     0
370
    30
100
AcDbCircle
 10
57.738572
 20
344.781566
 30
0.0
 40
4.000168104365612
100
AcDbArc
 50
279.607386
 51
354.105528
  0
ARC
  5
30D
330
298
100
AcDbEntity
  8
0
  6
Continuous
 62
     0
370
    30
100
AcDbCircle
 10
82.73423
 20
344.288408
 30
0.0
 40
0.800223225688
100
AcDbArc
 50
5.907058
 51
89.985583
  0
ARC
  5
30E
330
298
100
AcDbEntity
  8
0
  6
Continuous
 62
     0
370
    30
100
AcDbCircle
 10
62.513565
 20
344.288408
 30
0.0
 40
0.8002232256906332
100
AcDbArc
 50
90.014417
 51
174.092942
  0
LINE
  5
30F
330
298
100
AcDbEntity
  8
0
  6
Continuous
 62
     0
370
    30
100
AcDbLine
 10
45.123897
 20
278.403277
 30
0.0
 11
45.123897
 21
271.838631
 31
0.0
  0
LINE
  5
310
330
298
100
AcDbEntity
  8
0
  6
Continuous
 62
     0
370
    30
100
AcDbLine
 10
100.123898
 20
278.403277
 30
0.0
 11
100.123898
 21
271.838631
 31
0.0
  0
ARC
  5
311
330
298
100
AcDbEntity
  8
0
  6
Continuous
 62
     0
370
    30
100
AcDbCircle
 10
101.802622
 20
292.487089
 30
0.0
 40
13.7513367341511
100
AcDbArc
 50
195.879807
 51
261.206096
  0
ARC
  5
312
330
298
100
AcDbEntity
  8
0
  6
Continuous
 62
     0
370
    30
100
AcDbCircle
 10
43.445173
 20
292.487089
 30
0.0
 40
13.75133673415076
100
AcDbArc
 50
278.793904
 51
344.120193
  0
ARC
  5
313
330
298
100
AcDbEntity
  8
0
  6
Continuous
 62
     0
370
    30
100
AcDbCircle
 10
-102.036765
 20
333.8624
 30
0.0
 40
165.002488186581
100
AcDbArc
 50
344.123827
 51
352.527459
  0
ARC
  5
314
330
298
100
AcDbEntity
  8
0
  6
Continuous
 62
     0
370
    30
100
AcDbCircle
 10
247.28456
 20
333.8624
 30
0.0
 40
165.002488186585
100
AcDbArc
 50
187.472541
 51
195.876173
  0
ARC
  5
315
330
298
100
AcDbEntity
  8
0
  6
Continuous
 62
     0
370
    30
100
AcDbCircle
 10
62.123503
 20
314.339025
 30
0.0
 40
1.500394165563439
100
AcDbArc
 50
270.01505
 51
359.98495
  0
ARC
  5
316
330
298
100
AcDbEntity
  8
0
  6
Continuous
 62
     0
370
    30
100
AcDbCircle
 10
83.124292
 20
314.339025
 30
0.0
 40
1.500394165564171
100
AcDbArc
 50
180.01505
 51
269.98495
  0
LINE
  5
317
330
298
100
AcDbEntity
  8
0
  6
Continuous
 62
     0
370
    30
100
AcDbLine
 10
81.623898
 20
317.838631
 30
0.0
 11
81.623898
 21
314.338631
 31
0.0
  0
LINE
  5
318
330
298
100
AcDbEntity
  8
0
  6
Continuous
 62
     0
370
    30
100
AcDbLine
 10
63.623898
 20
314.338631
 30
0.0
 11
63.623898
 21
317.838631
 31
0.0
  0
ARC
  5
319
330
298
100
AcDbEntity
  8
0
  6
Continuous
 62
     0
370
    30
100
AcDbCircle
 10
72.639242
 20
332.93664
 30
0.0
 40
15.00375960469511
100
AcDbArc
 50
54.089066
 51
89.991368
  0
ARC
  5
31A
330
298
100
AcDbEntity
  8
0
  6
Continuous
 62
     0
370
    30
100
AcDbCircle
 10
72.64168
 20
332.93664
 30
0.0
 40
15.00375960469232
100
AcDbArc
 50
90.008632
 51
125.910934
  0
ENDBLK
  5
31C
330
298
100
AcDbEntity
  8
0
100
AcDbBlockEnd
  0
ENDSEC
  0
SECTION
  2
ENTITIES
  0
INSERT
  5
F9
330
1F
100
AcDbEntity
  8
0
  6
Continuous
 62
     7
420
 16250871
370
     0
100
AcDbBlockReference
  2
a
 10
144.350449
 20
119.896828
 30
0.0
  0
INSERT
  5
17E
330
1F
100
AcDbEntity
  8
0
  6
Continuous
 62
     7
420
 16250871
370
     0
100
AcDbBlockReference
  2
b
 10
144.350449
 20
119.896828
 30
0.0
  0
INSERT
  5
204
330
1F
100
AcDbEntity
  8
0
  6
Continuous
 62
     7
420
 16250871
370
     0
100
AcDbBlockReference
  2
c
 10
144.350449
 20
119.896828
 30
0.0
  0
INSERT
  5
297
330
1F
100
AcDbEntity
  8
0
  6
Continuous
 62
     7
420
 16250871
370
     0
100
AcDbBlockReference
  2
d
 10
144.350449
 20
119.896828
 30
0.0
  0
INSERT
  5
31D
330
1F
100
AcDbEntity
  8
0
  6
Continuous
 62
     7
420
 16250871
370
     0
100
AcDbBlockReference
  2
e
 10
135.003418
 20
0.0
 30
0.0
  0
ENDSEC
  0
SECTION
  2
OBJECTS
  0
DICTIONARY
  5
C
330
0
100
AcDbDictionary
281
     1
  3
ACAD_DETAILVIEWSTYLE
350
355
  3
ACAD_GROUP
350
D
  3
ACAD_LAYOUT
350
1A
  3
ACAD_MATERIAL
350
43
  3
ACAD_MLEADERSTYLE
350
6B
  3
ACAD_MLINESTYLE
350
17
  3
ACAD_PLOTSETTINGS
350
19
  3
ACAD_PLOTSTYLENAME
350
E
  3
ACAD_SCALELIST
350
47
  3
ACAD_SECTIONVIEWSTYLE
350
356
  3
ACAD_TABLESTYLE
350
69
  3
ACAD_VISUALSTYLE
350
2A
  3
ACDB_RECOMPOSE_DATA
350
352
  3
AcDbVariableDictionary
350
31E
  0
SUN
  5
6D
330
29
100
AcDbSun
 90
        1
290
     0
 63
     7
421
 16777215
 40
1.0
291
     1
 91
  2455826
 92
 54000000
292
     0
 70
     2
 71
   256
280
     1
  0
DICTIONARY
  5
355
102
{ACAD_REACTORS
330
C
102
}
330
C
100
AcDbDictionary
281
     1
  0
DICTIONARY
  5
D
102
{ACAD_REACTORS
330
C
102
}
330
C
100
AcDbDictionary
281
     1
  0
DICTIONARY
  5
1A
102
{ACAD_REACTORS
330
C
102
}
330
C
100
AcDbDictionary
281
     1
  3
Layout1
350
1E
  3
Layout2
350
26
  3
Model
350
22
  0
DICTIONARY
  5
43
102
{ACAD_REACTORS
330
C
102
}
330
C
100
AcDbDictionary
281
     1
  3
ByBlock
350
45
  3
ByLayer
350
44
  3
Global
350
46
  0
DICTIONARY
  5
6B
102
{ACAD_REACTORS
330
C
102
}
330
C
100
AcDbDictionary
281
     1
  3
Standard
350
6C
  0
DICTIONARY
  5
17
102
{ACAD_REACTORS
330
C
102
}
330
C
100
AcDbDictionary
281
     1
  3
Standard
350
18
  0
DICTIONARY
  5
19
102
{ACAD_REACTORS
330
C
102
}
330
C
100
AcDbDictionary
281
     1
  0
ACDBDICTIONARYWDFLT
  5
E
102
{ACAD_REACTORS
330
C
102
}
330
C
100
AcDbDictionary
281
     1
  3
Normal
350
F
100
AcDbDictionaryWithDefault
340
F
  0
DICTIONARY
  5
47
102
{ACAD_REACTORS
330
C
102
}
330
C
100
AcDbDictionary
281
     1
  3
A0
350
48
  3
A1
350
49
  3
A2
350
4A
  3
A3
350
4B
  3
A4
350
4C
  3
A5
350
4D
  3
A6
350
4E
  3
A7
350
4F
  3
A8
350
50
  3
A9
350
51
  3
B0
350
52
  3
B1
350
53
  3
B2
350
54
  3
B3
350
55
  3
B4
350
56
  3
B5
350
57
  3
B6
350
58
  3
B7
350
59
  3
B8
350
5A
  3
B9
350
5B
  3
C0
350
5C
  3
C1
350
5D
  3
C2
350
5E
  3
C3
350
5F
  3
C4
350
60
  3
C5
350
61
  3
C6
350
62
  3
C7
350
63
  3
C8
350
64
  3
C9
350
65
  3
D0
350
66
  3
D1
350
67
  3
D2
350
68
  0
DICTIONARY
  5
356
102
{ACAD_REACTORS
330
C
102
}
330
C
100
AcDbDictionary
281
     1
  0
DICTIONARY
  5
69
102
{ACAD_REACTORS
330
C
102
}
330
C
100
AcDbDictionary
281
     1
  3
Standard
350
6A
  0
DICTIONARY
  5
2A
102
{ACAD_REACTORS
330
C
102
}
330
C
100
AcDbDictionary
281
     1
  3
2dWireframe
350
2F
  3
Basic
350
32
  3
Brighten
350
36
  3
ColorChange
350
3A
  3
Conceptual
350
34
  3
Dim
350
35
  3
EdgeColorOff
350
3D
  3
Facepattern
350
39
  3
Flat
350
2B
  3
FlatWithEdges
350
2C
  3
Gouraud
350
2D
  3
GouraudWithEdges
350
2E
  3
Hidden
350
31
  3
JitterOff
350
3B
  3
Linepattern
350
38
  3
OverhangOff
350
3C
  3
Realistic
350
33
  3
Shaded
350
42
  3
Shaded with edges
350
41
  3
Shades of Gray
350
3E
  3
Sketchy
350
3F
  3
Thicken
350
37
  3
Wireframe
350
30
  3
X-Ray
350
40
  0
XRECORD
  5
352
102
{ACAD_REACTORS
330
C
102
}
330
C
100
AcDbXrecord
280
     1
 90
        1
330
6A
  0
DICTIONARY
  5
31E
102
{ACAD_REACTORS
330
C
102
}
330
C
100
AcDbDictionary
281
     1
  3
CANNOSCALE
350
31F
  3
CMLEADERSTYLE
350
354
  3
CTABLESTYLE
350
353
  0
LAYOUT
  5
1E
102
{ACAD_REACTORS
330
1A
102
}
330
1A
100
AcDbPlotSettings
  1

  2
none_device
  4

  6

 40
0.0
 41
0.0
 42
0.0
 43
0.0
 44
0.0
 45
0.0
 46
0.0
 47
0.0
 48
0.0
 49
0.0
140
0.0
141
0.0
142
1.0
143
1.0
 70
   688
 72
     1
 73
     0
 74
     5
  7

 75
    16
 76
     0
 77
     2
 78
   300
147
1.0
148
0.0
149
0.0
100
AcDbLayout
  1
Layout1
 70
     1
 71
     1
 10
0.0
 20
0.0
 11
420.0
 21
297.0
 12
0.0
 22
0.0
 32
0.0
 14
1.000000E+20
 24
1.000000E+20
 34
1.000000E+20
 15
-1.000000E+20
 25
-1.000000E+20
 35
-1.000000E+20
146
0.0
 13
0.0
 23
0.0
 33
0.0
 16
1.0
 26
0.0
 36
0.0
 17
0.0
 27
1.0
 37
0.0
 76
     0
330
1B
  0
LAYOUT
  5
26
102
{ACAD_REACTORS
330
1A
102
}
330
1A
100
AcDbPlotSettings
  1

  2
none_device
  4

  6

 40
0.0
 41
0.0
 42
0.0
 43
0.0
 44
0.0
 45
0.0
 46
0.0
 47
0.0
 48
0.0
 49
0.0
140
0.0
141
0.0
142
1.0
143
1.0
 70
   688
 72
     1
 73
     0
 74
     5
  7

 75
    16
 76
     0
 77
     2
 78
   300
147
1.0
148
0.0
149
0.0
100
AcDbLayout
  1
Layout2
 70
     1
 71
     2
 10
0.0
 20
0.0
 11
0.0
 21
0.0
 12
0.0
 22
0.0
 32
0.0
 14
0.0
 24
0.0
 34
0.0
 15
0.0
 25
0.0
 35
0.0
146
0.0
 13
0.0
 23
0.0
 33
0.0
 16
1.0
 26
0.0
 36
0.0
 17
0.0
 27
1.0
 37
0.0
 76
     0
330
23
  0
LAYOUT
  5
22
102
{ACAD_REACTORS
330
1A
102
}
330
1A
100
AcDbPlotSettings
  1

  2
none_device
  4
Letter_(8.50_x_11.00_Inches)
  6

 40
6.35
 41
6.35
 42
6.350005
 43
6.350005
 44
215.9
 45
279.4
 46
0.0
 47
0.0
 48
0.0
 49
0.0
140
0.0
141
0.0
142
1.0
143
1.0
 70
  1712
 72
     1
 73
     0
 74
     0
  7

 75
     0
 76
     0
 77
     2
 78
   300
147
1.0
148
0.0
149
0.0
100
AcDbLayout
  1
Model
 70
     1
 71
     0
 10
0.0
 20
0.0
 11
420.0
 21
297.0
 12
0.0
 22
0.0
 32
0.0
 14
1.000000E+20
 24
1.000000E+20
 34
1.000000E+20
 15
-1.000000E+20
 25
-1.000000E+20
 35
-1.000000E+20
146
0.0
 13
0.0
 23
0.0
 33
0.0
 16
1.0
 26
0.0
 36
0.0
 17
0.0
 27
1.0
 37
0.0
 76
     0
330
1F
331
29
  0
MATERIAL
  5
45
102
{ACAD_REACTORS
330
43
102
}
330
43
100
AcDbMaterial
  1
ByBlock
 72
     1
 94
      127
  0
MATERIAL
  5
44
102
{ACAD_REACTORS
330
43
102
}
330
43
100
AcDbMaterial
  1
ByLayer
 72
     1
 94
      127
  0
MATERIAL
  5
46
102
{ACAD_REACTORS
330
43
102
}
330
43
100
AcDbMaterial
  1
Global
 72
     1
 94
      127
  0
MLEADERSTYLE
  5
6C
102
{ACAD_REACTORS
330
6B
102
}
330
6B
100
AcDbMLeaderStyle
179
     2
170
     2
171
     1
172
     0
 90
        2
 40
0.0
 41
0.0
173
     1
 91
-1056964608
340
14
 92
       -2
290
     1
 42
2.0
291
     1
 43
8.0
  3
Standard
341
0
 44
4.0
300

342
11
174
     1
178
     6
175
     1
176
     0
 93
-1056964608
 45
4.0
292
     0
297
     0
 46
4.0
343
0
 94
-1056964608
 47
1.0
 49
1.0
140
1.0
293
     1
141
0.0
294
     1
177
     0
142
1.0
295
     0
296
     0
143
3.75
271
     0
272
     9
273
     9
  0
MLINESTYLE
  5
18
102
{ACAD_REACTORS
330
17
102
}
330
17
100
AcDbMlineStyle
  2
Standard
 70
     0
  3

 62
   256
 51
90.0
 52
90.0
 71
     2
 49
0.5
 62
   256
  6
BYLAYER
 49
-0.5
 62
   256
  6
BYLAYER
  0
ACDBPLACEHOLDER
  5
F
102
{ACAD_REACTORS
330
E
102
}
330
E
  0
SCALE
  5
48
102
{ACAD_REACTORS
330
47
102
}
330
47
100
AcDbScale
 70
     0
300
1:1
140
1.0
141
1.0
290
     1
  0
SCALE
  5
49
102
{ACAD_REACTORS
330
47
102
}
330
47
100
AcDbScale
 70
     0
300
1:2
140
1.0
141
2.0
290
     0
  0
SCALE
  5
4A
102
{ACAD_REACTORS
330
47
102
}
330
47
100
AcDbScale
 70
     0
300
1:4
140
1.0
141
4.0
290
     0
  0
SCALE
  5
4B
102
{ACAD_REACTORS
330
47
102
}
330
47
100
AcDbScale
 70
     0
300
1:5
140
1.0
141
5.0
290
     0
  0
SCALE
  5
4C
102
{ACAD_REACTORS
330
47
102
}
330
47
100
AcDbScale
 70
     0
300
1:8
140
1.0
141
8.0
290
     0
  0
SCALE
  5
4D
102
{ACAD_REACTORS
330
47
102
}
330
47
100
AcDbScale
 70
     0
300
1:10
140
1.0
141
10.0
290
     0
  0
SCALE
  5
4E
102
{ACAD_REACTORS
330
47
102
}
330
47
100
AcDbScale
 70
     0
300
1:16
140
1.0
141
16.0
290
     0
  0
SCALE
  5
4F
102
{ACAD_REACTORS
330
47
102
}
330
47
100
AcDbScale
 70
     0
300
1:20
140
1.0
141
20.0
290
     0
  0
SCALE
  5
50
102
{ACAD_REACTORS
330
47
102
}
330
47
100
AcDbScale
 70
     0
300
1:30
140
1.0
141
30.0
290
     0
  0
SCALE
  5
51
102
{ACAD_REACTORS
330
47
102
}
330
47
100
AcDbScale
 70
     0
300
1:40
140
1.0
141
40.0
290
     0
  0
SCALE
  5
52
102
{ACAD_REACTORS
330
47
102
}
330
47
100
AcDbScale
 70
     0
300
1:50
140
1.0
141
50.0
290
     0
  0
SCALE
  5
53
102
{ACAD_REACTORS
330
47
102
}
330
47
100
AcDbScale
 70
     0
300
1:100
140
1.0
141
100.0
290
     0
  0
SCALE
  5
54
102
{ACAD_REACTORS
330
47
102
}
330
47
100
AcDbScale
 70
     0
300
2:1
140
2.0
141
1.0
290
     0
  0
SCALE
  5
55
102
{ACAD_REACTORS
330
47
102
}
330
47
100
AcDbScale
 70
     0
300
4:1
140
4.0
141
1.0
290
     0
  0
SCALE
  5
56
102
{ACAD_REACTORS
330
47
102
}
330
47
100
AcDbScale
 70
     0
300
8:1
140
8.0
141
1.0
290
     0
  0
SCALE
  5
57
102
{ACAD_REACTORS
330
47
102
}
330
47
100
AcDbScale
 70
     0
300
10:1
140
10.0
141
1.0
290
     0
  0
SCALE
  5
58
102
{ACAD_REACTORS
330
47
102
}
330
47
100
AcDbScale
 70
     0
300
100:1
140
100.0
141
1.0
290
     0
  0
SCALE
  5
59
102
{ACAD_REACTORS
330
47
102
}
330
47
100
AcDbScale
 70
     0
300
1/128" = 1'-0"
140
0.007812
141
12.0
290
     0
  0
SCALE
  5
5A
102
{ACAD_REACTORS
330
47
102
}
330
47
100
AcDbScale
 70
     0
300
1/64" = 1'-0"
140
0.015625
141
12.0
290
     0
  0
SCALE
  5
5B
102
{ACAD_REACTORS
330
47
102
}
330
47
100
AcDbScale
 70
     0
300
1/32" = 1'-0"
140
0.03125
141
12.0
290
     0
  0
SCALE
  5
5C
102
{ACAD_REACTORS
330
47
102
}
330
47
100
AcDbScale
 70
     0
300
1/16" = 1'-0"
140
0.0625
141
12.0
290
     0
  0
SCALE
  5
5D
102
{ACAD_REACTORS
330
47
102
}
330
47
100
AcDbScale
 70
     0
300
3/32" = 1'-0"
140
0.09375
141
12.0
290
     0
  0
SCALE
  5
5E
102
{ACAD_REACTORS
330
47
102
}
330
47
100
AcDbScale
 70
     0
300
1/8" = 1'-0"
140
0.125
141
12.0
290
     0
  0
SCALE
  5
5F
102
{ACAD_REACTORS
330
47
102
}
330
47
100
AcDbScale
 70
     0
300
3/16" = 1'-0"
140
0.1875
141
12.0
290
     0
  0
SCALE
  5
60
102
{ACAD_REACTORS
330
47
102
}
330
47
100
AcDbScale
 70
     0
300
1/4" = 1'-0"
140
0.25
141
12.0
290
     0
  0
SCALE
  5
61
102
{ACAD_REACTORS
330
47
102
}
330
47
100
AcDbScale
 70
     0
300
3/8" = 1'-0"
140
0.375
141
12.0
290
     0
  0
SCALE
  5
62
102
{ACAD_REACTORS
330
47
102
}
330
47
100
AcDbScale
 70
     0
300
1/2" = 1'-0"
140
0.5
141
12.0
290
     0
  0
SCALE
  5
63
102
{ACAD_REACTORS
330
47
102
}
330
47
100
AcDbScale
 70
     0
300
3/4" = 1'-0"
140
0.75
141
12.0
290
     0
  0
SCALE
  5
64
102
{ACAD_REACTORS
330
47
102
}
330
47
100
AcDbScale
 70
     0
300
1" = 1'-0"
140
1.0
141
12.0
290
     0
  0
SCALE
  5
65
102
{ACAD_REACTORS
330
47
102
}
330
47
100
AcDbScale
 70
     0
300
1-1/2" = 1'-0"
140
1.5
141
12.0
290
     0
  0
SCALE
  5
66
102
{ACAD_REACTORS
330
47
102
}
330
47
100
AcDbScale
 70
     0
300
3" = 1'-0"
140
3.0
141
12.0
290
     0
  0
SCALE
  5
67
102
{ACAD_REACTORS
330
47
102
}
330
47
100
AcDbScale
 70
     0
300
6" = 1'-0"
140
6.0
141
12.0
290
     0
  0
SCALE
  5
68
102
{ACAD_REACTORS
330
47
102
}
330
47
100
AcDbScale
 70
     0
300
1'-0" = 1'-0"
140
12.0
141
12.0
290
     0
  0
TABLESTYLE
  5
6A
102
{ACAD_REACTORS
330
69
102
}
102
{ACAD_XDICTIONARY
360
350
102
}
330
69
100
AcDbTableStyle
  3
Standard
 70
     0
 71
     0
 40
0.06
 41
0.06
280
     0
281
     0
  7
Standard
140
4.5
170
     2
 62
     0
 63
   257
283
     0
 90
        4
 91
        0
  1

274
    -2
284
     1
 64
     0
275
    -2
285
     1
 65
     0
276
    -2
286
     1
 66
     0
277
    -2
287
     1
 67
     0
278
    -2
288
     1
 68
     0
279
    -2
289
     1
 69
     0
  7
Standard
140
6.0
170
     5
 62
     0
 63
   257
283
     0
 90
        4
 91
        0
  1

274
    -2
284
     1
 64
     0
275
    -2
285
     1
 65
     0
276
    -2
286
     1
 66
     0
277
    -2
287
     1
 67
     0
278
    -2
288
     1
 68
     0
279
    -2
289
     1
 69
     0
  7
Standard
140
4.5
170
     5
 62
     0
 63
   257
283
     0
 90
        4
 91
        0
  1

274
    -2
284
     1
 64
     0
275
    -2
285
     1
 65
     0
276
    -2
286
     1
 66
     0
277
    -2
287
     1
 67
     0
278
    -2
288
     1
 68
     0
279
    -2
289
     1
 69
     0
  0
VISUALSTYLE
  5
2F
102
{ACAD_REACTORS
330
2A
102
}
102
{ACAD_XDICTIONARY
360
328
102
}
330
2A
100
AcDbVisualStyle
  2
2dWireframe
 70
     4
177
     2
291
     0
 71
     0
176
     1
 72
     2
176
     1
 73
     0
176
     1
 90
        0
176
     1
 40
0.6
176
     1
 41
30.0
176
     1
 62
     5
 63
     7
421
 16777215
176
     1
 74
     1
176
     1
 91
        4
176
     1
 64
     7
176
     1
 65
   257
176
     1
 75
     1
176
     1
175
     1
176
     1
 42
1.0
176
     1
 92
        0
176
     1
 66
   257
176
     1
 43
1.0
176
     1
 76
     1
176
     1
 77
     6
176
     1
 78
     2
176
     1
 67
     7
176
     1
 79
     5
176
     1
170
     0
176
     1
171
     0
176
     1
290
     0
176
     1
 93
        1
176
     1
 44
0.0
176
     1
173
     0
176
     1
  0
VISUALSTYLE
  5
32
102
{ACAD_REACTORS
330
2A
102
}
102
{ACAD_XDICTIONARY
360
32E
102
}
330
2A
100
AcDbVisualStyle
  2
Basic
 70
     7
177
     2
291
     1
 71
     1
176
     1
 72
     0
176
     1
 73
     1
176
     1
 90
        0
176
     1
 40
0.6
176
     1
 41
30.0
176
     1
 62
     5
 63
     7
421
 16777215
176
     1
 74
     0
176
     1
 91
        4
176
     1
 64
     7
176
     1
 65
   257
176
     1
 75
     1
176
     1
175
     1
176
     1
 42
1.0
176
     1
 92
        8
176
     1
 66
     7
176
     1
 43
1.0
176
     1
 76
     1
176
     1
 77
     6
176
     1
 78
     2
176
     1
 67
     7
176
     1
 79
     5
176
     1
170
     0
176
     1
171
     0
176
     1
290
     0
176
     1
 93
        1
176
     1
 44
0.0
176
     1
173
     0
176
     1
  0
VISUALSTYLE
  5
36
102
{ACAD_REACTORS
330
2A
102
}
102
{ACAD_XDICTIONARY
360
336
102
}
330
2A
100
AcDbVisualStyle
  2
Brighten
 70
    12
177
     2
291
     1
 71
     2
176
     1
 72
     2
176
     1
 73
     0
176
     1
 90
        0
176
     1
 40
0.6
176
     1
 41
30.0
176
     1
 62
     5
 63
     7
421
 16777215
176
     1
 74
     1
176
     1
 91
        4
176
     1
 64
     7
176
     1
 65
   257
176
     1
 75
     1
176
     1
175
     1
176
     1
 42
1.0
176
     1
 92
        8
176
     1
 66
     7
176
     1
 43
1.0
176
     1
 76
     1
176
     1
 77
     6
176
     1
 78
     2
176
     1
 67
     7
176
     1
 79
     5
176
     1
170
     0
176
     1
171
     0
176
     1
290
     0
176
     1
 93
        1
176
     1
 44
50.0
176
     1
173
     0
176
     1
  0
VISUALSTYLE
  5
3A
102
{ACAD_REACTORS
330
2A
102
}
102
{ACAD_XDICTIONARY
360
33E
102
}
330
2A
100
AcDbVisualStyle
  2
ColorChange
 70
    16
177
     2
291
     1
 71
     2
176
     1
 72
     2
176
     1
 73
     3
176
     1
 90
        0
176
     1
 40
0.6
176
     1
 41
30.0
176
     1
 62
     5
 63
     8
421
  8421504
176
     1
 74
     1
176
     1
 91
        4
176
     1
 64
     7
176
     1
 65
   257
176
     1
 75
     1
176
     1
175
     1
176
     1
 42
1.0
176
     1
 92
        8
176
     1
 66
     8
424
  8421504
176
     1
 43
1.0
176
     1
 76
     1
176
     1
 77
     6
176
     1
 78
     2
176
     1
 67
     7
176
     1
 79
     5
176
     1
170
     0
176
     1
171
     0
176
     1
290
     0
176
     1
 93
        1
176
     1
 44
0.0
176
     1
173
     0
176
     1
  0
VISUALSTYLE
  5
34
102
{ACAD_REACTORS
330
2A
102
}
102
{ACAD_XDICTIONARY
360
332
102
}
330
2A
100
AcDbVisualStyle
  2
Conceptual
 70
     9
177
     2
291
     0
 71
     3
176
     1
 72
     2
176
     1
 73
     0
176
     1
 90
        0
176
     1
 40
0.6
176
     1
 41
30.0
176
     1
 62
     5
 63
     7
421
 16777215
176
     1
 74
     2
176
     1
 91
        2
176
     1
 64
     7
176
     1
 65
   257
176
     1
 75
     1
176
     1
175
     1
176
     1
 42
179.0
176
     1
 92
        8
176
     1
 66
     7
176
     1
 43
1.0
176
     1
 76
     1
176
     1
 77
     6
176
     1
 78
     2
176
     1
 67
     7
176
     1
 79
     3
176
     1
170
     0
176
     1
171
     0
176
     1
290
     0
176
     1
 93
        1
176
     1
 44
0.0
176
     1
173
     0
176
     1
  0
VISUALSTYLE
  5
35
102
{ACAD_REACTORS
330
2A
102
}
102
{ACAD_XDICTIONARY
360
334
102
}
330
2A
100
AcDbVisualStyle
  2
Dim
 70
    11
177
     2
291
     1
 71
     2
176
     1
 72
     2
176
     1
 73
     0
176
     1
 90
        0
176
     1
 40
0.6
176
     1
 41
30.0
176
     1
 62
     5
 63
     7
421
 16777215
176
     1
 74
     1
176
     1
 91
        4
176
     1
 64
     7
176
     1
 65
   257
176
     1
 75
     1
176
     1
175
     1
176
     1
 42
1.0
176
     1
 92
        8
176
     1
 66
     7
176
     1
 43
1.0
176
     1
 76
     1
176
     1
 77
     6
176
     1
 78
     2
176
     1
 67
     7
176
     1
 79
     5
176
     1
170
     0
176
     1
171
     0
176
     1
290
     0
176
     1
 93
        1
176
     1
 44
-50.0
176
     1
173
     0
176
     1
  0
VISUALSTYLE
  5
3D
102
{ACAD_REACTORS
330
2A
102
}
102
{ACAD_XDICTIONARY
360
344
102
}
330
2A
100
AcDbVisualStyle
  2
EdgeColorOff
 70
    22
177
     2
291
     1
 71
     2
176
     0
 72
     2
176
     0
 73
     0
176
     0
 90
        0
176
     0
 40
0.6
176
     0
 41
30.0
176
     0
 62
     5
 63
     7
421
 16777215
176
     0
 74
     1
176
     0
 91
        4
176
     0
 64
     7
176
     0
 65
   257
176
     0
 75
     1
176
     0
175
     1
176
     0
 42
1.0
176
     0
 92
        8
176
     2
 66
     7
176
     0
 43
1.0
176
     0
 76
     1
176
     0
 77
     6
176
     0
 78
     2
176
     0
 67
     7
176
     0
 79
     5
176
     0
170
     0
176
     0
171
     0
176
     0
290
     0
176
     0
 93
        1
176
     0
 44
0.0
176
     0
173
     0
176
     0
  0
VISUALSTYLE
  5
39
102
{ACAD_REACTORS
330
2A
102
}
102
{ACAD_XDICTIONARY
360
33C
102
}
330
2A
100
AcDbVisualStyle
  2
Facepattern
 70
    15
177
     2
291
     1
 71
     2
176
     1
 72
     2
176
     1
 73
     0
176
     1
 90
        0
176
     1
 40
0.6
176
     1
 41
30.0
176
     1
 62
     5
 63
     7
421
 16777215
176
     1
 74
     1
176
     1
 91
        4
176
     1
 64
     7
176
     1
 65
   257
176
     1
 75
     1
176
     1
175
     1
176
     1
 42
1.0
176
     1
 92
        8
176
     1
 66
     7
176
     1
 43
1.0
176
     1
 76
     1
176
     1
 77
     6
176
     1
 78
     2
176
     1
 67
     7
176
     1
 79
     5
176
     1
170
     0
176
     1
171
     0
176
     1
290
     0
176
     1
 93
        1
176
     1
 44
0.0
176
     1
173
     0
176
     1
  0
VISUALSTYLE
  5
2B
102
{ACAD_REACTORS
330
2A
102
}
102
{ACAD_XDICTIONARY
360
320
102
}
330
2A
100
AcDbVisualStyle
  2
Flat
 70
     0
177
     2
291
     1
 71
     2
176
     1
 72
     1
176
     1
 73
     1
176
     1
 90
        2
176
     1
 40
0.6
176
     1
 41
30.0
176
     1
 62
     5
 63
     7
421
 16777215
176
     1
 74
     0
176
     1
 91
        0
176
     1
 64
     7
176
     1
 65
   257
176
     1
 75
     1
176
     1
175
     1
176
     1
 42
1.0
176
     1
 92
        8
176
     1
 66
     7
176
     1
 43
1.0
176
     1
 76
     1
176
     1
 77
     6
176
     1
 78
     2
176
     1
 67
     7
176
     1
 79
     5
176
     1
170
     0
176
     1
171
     0
176
     1
290
     0
176
     1
 93
       13
176
     1
 44
0.0
176
     1
173
     0
176
     1
  0
VISUALSTYLE
  5
2C
102
{ACAD_REACTORS
330
2A
102
}
102
{ACAD_XDICTIONARY
360
322
102
}
330
2A
100
AcDbVisualStyle
  2
FlatWithEdges
 70
     1
177
     2
291
     1
 71
     2
176
     1
 72
     1
176
     1
 73
     1
176
     1
 90
        2
176
     1
 40
0.6
176
     1
 41
30.0
176
     1
 62
     5
 63
     7
421
 16777215
176
     1
 74
     1
176
     1
 91
        0
176
     1
 64
     7
176
     1
 65
   257
176
     1
 75
     1
176
     1
175
     1
176
     1
 42
1.0
176
     1
 92
        0
176
     1
 66
   257
176
     1
 43
1.0
176
     1
 76
     1
176
     1
 77
     6
176
     1
 78
     2
176
     1
 67
     7
176
     1
 79
     5
176
     1
170
     0
176
     1
171
     0
176
     1
290
     0
176
     1
 93
       13
176
     1
 44
0.0
176
     1
173
     0
176
     1
  0
VISUALSTYLE
  5
2D
102
{ACAD_REACTORS
330
2A
102
}
102
{ACAD_XDICTIONARY
360
324
102
}
330
2A
100
AcDbVisualStyle
  2
Gouraud
 70
     2
177
     2
291
     1
 71
     2
176
     1
 72
     2
176
     1
 73
     1
176
     1
 90
        2
176
     1
 40
0.6
176
     1
 41
30.0
176
     1
 62
     5
 63
     7
421
 16777215
176
     1
 74
     0
176
     1
 91
        0
176
     1
 64
     7
176
     1
 65
   257
176
     1
 75
     1
176
     1
175
     1
176
     1
 42
1.0
176
     1
 92
        0
176
     1
 66
     7
176
     1
 43
1.0
176
     1
 76
     1
176
     1
 77
     6
176
     1
 78
     2
176
     1
 67
     7
176
     1
 79
     5
176
     1
170
     0
176
     1
171
     0
176
     1
290
     0
176
     1
 93
       13
176
     1
 44
0.0
176
     1
173
     0
176
     1
  0
VISUALSTYLE
  5
2E
102
{ACAD_REACTORS
330
2A
102
}
102
{ACAD_XDICTIONARY
360
326
102
}
330
2A
100
AcDbVisualStyle
  2
GouraudWithEdges
 70
     3
177
     2
291
     1
 71
     2
176
     1
 72
     2
176
     1
 73
     1
176
     1
 90
        2
176
     1
 40
0.6
176
     1
 41
30.0
176
     1
 62
     5
 63
     7
421
 16777215
176
     1
 74
     1
176
     1
 91
        0
176
     1
 64
     7
176
     1
 65
   257
176
     1
 75
     1
176
     1
175
     1
176
     1
 42
1.0
176
     1
 92
        0
176
     1
 66
   257
176
     1
 43
1.0
176
     1
 76
     1
176
     1
 77
     6
176
     1
 78
     2
176
     1
 67
     7
176
     1
 79
     5
176
     1
170
     0
176
     1
171
     0
176
     1
290
     0
176
     1
 93
       13
176
     1
 44
0.0
176
     1
173
     0
176
     1
  0
VISUALSTYLE
  5
31
102
{ACAD_REACTORS
330
2A
102
}
102
{ACAD_XDICTIONARY
360
32C
102
}
330
2A
100
AcDbVisualStyle
  2
Hidden
 70
     6
177
     2
291
     0
 71
     1
176
     1
 72
     2
176
     1
 73
     2
176
     1
 90
        0
176
     1
 40
0.6
176
     1
 41
30.0
176
     1
 62
     5
 63
     7
421
 16777215
176
     1
 74
     2
176
     1
 91
        2
176
     1
 64
     7
176
     1
 65
   257
176
     1
 75
     2
176
     1
175
     1
176
     1
 42
40.0
176
     1
 92
        0
176
     1
 66
   257
176
     1
 43
1.0
176
     1
 76
     1
176
     1
 77
     6
176
     1
 78
     2
176
     1
 67
     7
176
     1
 79
     3
176
     1
170
     0
176
     1
171
     0
176
     1
290
     0
176
     1
 93
        1
176
     1
 44
0.0
176
     1
173
     0
176
     1
  0
VISUALSTYLE
  5
3B
102
{ACAD_REACTORS
330
2A
102
}
102
{ACAD_XDICTIONARY
360
340
102
}
330
2A
100
AcDbVisualStyle
  2
JitterOff
 70
    20
177
     2
291
     1
 71
     2
176
     0
 72
     2
176
     0
 73
     0
176
     0
 90
        0
176
     0
 40
0.6
176
     0
 41
30.0
176
     0
 62
     5
 63
     7
421
 16777215
176
     0
 74
     1
176
     0
 91
        4
176
     0
 64
     7
176
     0
 65
   257
176
     0
 75
     1
176
     0
175
     1
176
     0
 42
1.0
176
     0
 92
       10
176
     2
 66
     7
176
     0
 43
1.0
176
     0
 76
     1
176
     0
 77
     6
176
     0
 78
     2
176
     0
 67
     7
176
     0
 79
     5
176
     0
170
     0
176
     0
171
     0
176
     0
290
     0
176
     0
 93
        1
176
     0
 44
0.0
176
     0
173
     0
176
     0
  0
VISUALSTYLE
  5
38
102
{ACAD_REACTORS
330
2A
102
}
102
{ACAD_XDICTIONARY
360
33A
102
}
330
2A
100
AcDbVisualStyle
  2
Linepattern
 70
    14
177
     2
291
     1
 71
     2
176
     1
 72
     2
176
     1
 73
     0
176
     1
 90
        0
176
     1
 40
0.6
176
     1
 41
30.0
176
     1
 62
     5
 63
     7
421
 16777215
176
     1
 74
     1
176
     1
 91
        4
176
     1
 64
     7
176
     1
 65
   257
176
     1
 75
     7
176
     1
175
     7
176
     1
 42
1.0
176
     1
 92
        8
176
     1
 66
     7
176
     1
 43
1.0
176
     1
 76
     1
176
     1
 77
     6
176
     1
 78
     2
176
     1
 67
     7
176
     1
 79
     5
176
     1
170
     0
176
     1
171
     0
176
     1
290
     0
176
     1
 93
        1
176
     1
 44
0.0
176
     1
173
     0
176
     1
  0
VISUALSTYLE
  5
3C
102
{ACAD_REACTORS
330
2A
102
}
102
{ACAD_XDICTIONARY
360
342
102
}
330
2A
100
AcDbVisualStyle
  2
OverhangOff
 70
    21
177
     2
291
     1
 71
     2
176
     0
 72
     2
176
     0
 73
     0
176
     0
 90
        0
176
     0
 40
0.6
176
     0
 41
30.0
176
     0
 62
     5
 63
     7
421
 16777215
176
     0
 74
     1
176
     0
 91
        4
176
     0
 64
     7
176
     0
 65
   257
176
     0
 75
     1
176
     0
175
     1
176
     0
 42
1.0
176
     0
 92
        9
176
     2
 66
     7
176
     0
 43
1.0
176
     0
 76
     1
176
     0
 77
     6
176
     0
 78
     2
176
     0
 67
     7
176
     0
 79
     5
176
     0
170
     0
176
     0
171
     0
176
     0
290
     0
176
     0
 93
        1
176
     0
 44
0.0
176
     0
173
     0
176
     0
  0
VISUALSTYLE
  5
33
102
{ACAD_REACTORS
330
2A
102
}
102
{ACAD_XDICTIONARY
360
330
102
}
330
2A
100
AcDbVisualStyle
  2
Realistic
 70
     8
177
     2
291
     0
 71
     2
176
     1
 72
     3
176
     1
 73
     0
176
     1
 90
        2
176
     1
 40
0.6
176
     1
 41
30.0
176
     1
 62
     5
 63
     7
421
 16777215
176
     1
 74
     0
176
     1
 91
        0
176
     1
 64
     7
176
     1
 65
   257
176
     1
 75
     1
176
     1
175
     1
176
     1
 42
1.0
176
     1
 92
        8
176
     1
 66
   257
176
     1
 43
1.0
176
     1
 76
     1
176
     1
 77
     6
176
     1
 78
     2
176
     1
 67
     7
176
     1
 79
     3
176
     1
170
     0
176
     1
171
     0
176
     1
290
     0
176
     1
 93
       13
176
     1
 44
0.0
176
     1
173
     0
176
     1
  0
VISUALSTYLE
  5
42
102
{ACAD_REACTORS
330
2A
102
}
102
{ACAD_XDICTIONARY
360
34E
102
}
330
2A
100
AcDbVisualStyle
  2
Shaded
 70
    27
177
     2
291
     0
 71
     2
176
     1
 72
     2
176
     1
 73
     1
176
     1
 90
        2
176
     1
 40
0.6
176
     1
 41
30.0
176
     1
 62
     5
 63
     7
421
 16777215
176
     1
 74
     0
176
     1
 91
        4
176
     1
 64
     7
176
     1
 65
   257
176
     1
 75
     1
176
     1
175
     1
176
     1
 42
1.0
176
     1
 92
        8
176
     1
 66
   257
176
     1
 43
1.0
176
     1
 76
     1
176
     1
 77
     6
176
     1
 78
     2
176
     1
 67
     8
425
  7895160
176
     1
 79
     3
176
     1
170
     0
176
     1
171
     0
176
     1
290
     0
176
     1
 93
        5
176
     1
 44
0.0
176
     1
173
     0
176
     1
  0
VISUALSTYLE
  5
41
102
{ACAD_REACTORS
330
2A
102
}
102
{ACAD_XDICTIONARY
360
34C
102
}
330
2A
100
AcDbVisualStyle
  2
Shaded with edges
 70
    26
177
     2
291
     0
 71
     2
176
     1
 72
     2
176
     1
 73
     1
176
     1
 90
        2
176
     1
 40
0.6
176
     1
 41
30.0
176
     1
 62
     5
 63
     7
421
 16777215
176
     1
 74
     1
176
     1
 91
       10
176
     1
 64
     7
176
     1
 65
   257
176
     1
 75
     2
176
     1
175
     1
176
     1
 42
1.0
176
     1
 92
        8
176
     1
 66
   257
176
     1
 43
1.0
176
     1
 76
     1
176
     1
 77
     6
176
     1
 78
     2
176
     1
 67
     7
176
     1
 79
     3
176
     1
170
     0
176
     1
171
     0
176
     1
290
     0
176
     1
 93
        5
176
     1
 44
0.0
176
     1
173
     0
176
     1
  0
VISUALSTYLE
  5
3E
102
{ACAD_REACTORS
330
2A
102
}
102
{ACAD_XDICTIONARY
360
346
102
}
330
2A
100
AcDbVisualStyle
  2
Shades of Gray
 70
    23
177
     2
291
     0
 71
     2
176
     1
 72
     2
176
     1
 73
     3
176
     1
 90
        0
176
     1
 40
0.6
176
     1
 41
30.0
176
     1
 62
     5
 63
     7
421
 16777215
176
     1
 74
     2
176
     1
 91
        2
176
     1
 64
     7
176
     1
 65
     7
176
     1
 75
     1
176
     1
175
     1
176
     1
 42
40.0
176
     1
 92
        8
176
     1
 66
     7
176
     1
 43
1.0
176
     1
 76
     1
176
     1
 77
     6
176
     1
 78
     2
176
     1
 67
     7
176
     1
 79
     3
176
     1
170
     0
176
     1
171
     0
176
     1
290
     0
176
     1
 93
        1
176
     1
 44
0.0
176
     1
173
     0
176
     1
  0
VISUALSTYLE
  5
3F
102
{ACAD_REACTORS
330
2A
102
}
102
{ACAD_XDICTIONARY
360
348
102
}
330
2A
100
AcDbVisualStyle
  2
Sketchy
 70
    24
177
     2
291
     0
 71
     1
176
     1
 72
     2
176
     1
 73
     2
176
     1
 90
        0
176
     1
 40
0.6
176
     1
 41
30.0
176
     1
 62
     5
 63
     7
421
 16777215
176
     1
 74
     2
176
     1
 91
        2
176
     1
 64
     7
176
     1
 65
     7
176
     1
 75
     1
176
     1
175
     1
176
     1
 42
40.0
176
     1
 92
       11
176
     1
 66
     7
176
     1
 43
1.0
176
     1
 76
     1
176
     1
 77
     6
176
     1
 78
     2
176
     1
 67
     7
176
     1
 79
     6
176
     1
170
     0
176
     1
171
     0
176
     1
290
     0
176
     1
 93
        1
176
     1
 44
0.0
176
     1
173
     0
176
     1
  0
VISUALSTYLE
  5
37
102
{ACAD_REACTORS
330
2A
102
}
102
{ACAD_XDICTIONARY
360
338
102
}
330
2A
100
AcDbVisualStyle
  2
Thicken
 70
    13
177
     2
291
     1
 71
     2
176
     1
 72
     2
176
     1
 73
     0
176
     1
 90
        0
176
     1
 40
0.6
176
     1
 41
30.0
176
     1
 62
     5
 63
     7
421
 16777215
176
     1
 74
     1
176
     1
 91
        4
176
     1
 64
     7
176
     1
 65
   257
176
     1
 75
     1
176
     1
175
     1
176
     1
 42
1.0
176
     1
 92
       12
176
     1
 66
     7
176
     1
 43
1.0
176
     1
 76
     1
176
     1
 77
     6
176
     1
 78
     2
176
     1
 67
     7
176
     1
 79
     5
176
     1
170
     0
176
     1
171
     0
176
     1
290
     0
176
     1
 93
        1
176
     1
 44
0.0
176
     1
173
     0
176
     1
  0
VISUALSTYLE
  5
30
102
{ACAD_REACTORS
330
2A
102
}
102
{ACAD_XDICTIONARY
360
32A
102
}
330
2A
100
AcDbVisualStyle
  2
Wireframe
 70
     5
177
     2
291
     0
 71
     0
176
     1
 72
     2
176
     1
 73
     0
176
     1
 90
        0
176
     1
 40
0.6
176
     1
 41
30.0
176
     1
 62
     5
 63
     7
421
 16777215
176
     1
 74
     1
176
     1
 91
        4
176
     1
 64
     7
176
     1
 65
   257
176
     1
 75
     1
176
     1
175
     1
176
     1
 42
1.0
176
     1
 92
        0
176
     1
 66
   257
176
     1
 43
1.0
176
     1
 76
     1
176
     1
 77
     6
176
     1
 78
     2
176
     1
 67
     7
176
     1
 79
     3
176
     1
170
     0
176
     1
171
     0
176
     1
290
     0
176
     1
 93
        1
176
     1
 44
0.0
176
     1
173
     0
176
     1
  0
VISUALSTYLE
  5
40
102
{ACAD_REACTORS
330
2A
102
}
102
{ACAD_XDICTIONARY
360
34A
102
}
330
2A
100
AcDbVisualStyle
  2
X-Ray
 70
    25
177
     2
291
     0
 71
     2
176
     1
 72
     2
176
     1
 73
     1
176
     1
 90
        1
176
     1
 40
0.5
176
     1
 41
30.0
176
     1
 62
     5
 63
     7
421
 16777215
176
     1
 74
     1
176
     1
 91
        0
176
     1
 64
     7
176
     1
 65
   257
176
     1
 75
     1
176
     1
175
     1
176
     1
 42
1.0
176
     1
 92
        8
176
     1
 66
     7
176
     1
 43
1.0
176
     1
 76
     1
176
     1
 77
     6
176
     1
 78
     2
176
     1
 67
     7
176
     1
 79
     3
176
     1
170
     0
176
     1
171
     0
176
     1
290
     0
176
     1
 93
       13
176
     1
 44
0.0
176
     1
173
     0
176
     1
  0
DICTIONARYVAR
  5
31F
102
{ACAD_REACTORS
330
31E
102
}
330
31E
100
DictionaryVariables
280
     0
  1
1:1
  0
DICTIONARYVAR
  5
354
102
{ACAD_REACTORS
330
31E
102
}
330
31E
100
DictionaryVariables
280
     0
  1
Standard
  0
DICTIONARYVAR
  5
353
102
{ACAD_REACTORS
330
31E
102
}
330
31E
100
DictionaryVariables
280
     0
  1
Standard
  0
DICTIONARY
  5
350
330
6A
100
AcDbDictionary
280
     1
281
     1
  3
ACAD_ROUNDTRIP_2008_TABLESTYLE_CELLSTYLEMAP
360
351
  0
DICTIONARY
  5
328
330
2F
100
AcDbDictionary
280
     1
281
     1
  3
ACAD_XREC_ROUNDTRIP
360
329
  0
DICTIONARY
  5
32E
330
32
100
AcDbDictionary
280
     1
281
     1
  3
ACAD_XREC_ROUNDTRIP
360
32F
  0
DICTIONARY
  5
336
330
36
100
AcDbDictionary
280
     1
281
     1
  3
ACAD_XREC_ROUNDTRIP
360
337
  0
DICTIONARY
  5
33E
330
3A
100
AcDbDictionary
280
     1
281
     1
  3
ACAD_XREC_ROUNDTRIP
360
33F
  0
DICTIONARY
  5
332
330
34
100
AcDbDictionary
280
     1
281
     1
  3
ACAD_XREC_ROUNDTRIP
360
333
  0
DICTIONARY
  5
334
330
35
100
AcDbDictionary
280
     1
281
     1
  3
ACAD_XREC_ROUNDTRIP
360
335
  0
DICTIONARY
  5
344
330
3D
100
AcDbDictionary
280
     1
281
     1
  3
ACAD_XREC_ROUNDTRIP
360
345
  0
DICTIONARY
  5
33C
330
39
100
AcDbDictionary
280
     1
281
     1
  3
ACAD_XREC_ROUNDTRIP
360
33D
  0
DICTIONARY
  5
320
330
2B
100
AcDbDictionary
280
     1
281
     1
  3
ACAD_XREC_ROUNDTRIP
360
321
  0
DICTIONARY
  5
322
330
2C
100
AcDbDictionary
280
     1
281
     1
  3
ACAD_XREC_ROUNDTRIP
360
323
  0
DICTIONARY
  5
324
330
2D
100
AcDbDictionary
280
     1
281
     1
  3
ACAD_XREC_ROUNDTRIP
360
325
  0
DICTIONARY
  5
326
330
2E
100
AcDbDictionary
280
     1
281
     1
  3
ACAD_XREC_ROUNDTRIP
360
327
  0
DICTIONARY
  5
32C
330
31
100
AcDbDictionary
280
     1
281
     1
  3
ACAD_XREC_ROUNDTRIP
360
32D
  0
DICTIONARY
  5
340
330
3B
100
AcDbDictionary
280
     1
281
     1
  3
ACAD_XREC_ROUNDTRIP
360
341
  0
DICTIONARY
  5
33A
330
38
100
AcDbDictionary
280
     1
281
     1
  3
ACAD_XREC_ROUNDTRIP
360
33B
  0
DICTIONARY
  5
342
330
3C
100
AcDbDictionary
280
     1
281
     1
  3
ACAD_XREC_ROUNDTRIP
360
343
  0
DICTIONARY
  5
330
330
33
100
AcDbDictionary
280
     1
281
     1
  3
ACAD_XREC_ROUNDTRIP
360
331
  0
DICTIONARY
  5
34E
330
42
100
AcDbDictionary
280
     1
281
     1
  3
ACAD_XREC_ROUNDTRIP
360
34F
  0
DICTIONARY
  5
34C
330
41
100
AcDbDictionary
280
     1
281
     1
  3
ACAD_XREC_ROUNDTRIP
360
34D
  0
DICTIONARY
  5
346
330
3E
100
AcDbDictionary
280
     1
281
     1
  3
ACAD_XREC_ROUNDTRIP
360
347
  0
DICTIONARY
  5
348
330
3F
100
AcDbDictionary
280
     1
281
     1
  3
ACAD_XREC_ROUNDTRIP
360
349
  0
DICTIONARY
  5
338
330
37
100
AcDbDictionary
280
     1
281
     1
  3
ACAD_XREC_ROUNDTRIP
360
339
  0
DICTIONARY
  5
32A
330
30
100
AcDbDictionary
280
     1
281
     1
  3
ACAD_XREC_ROUNDTRIP
360
32B
  0
DICTIONARY
  5
34A
330
40
100
AcDbDictionary
280
     1
281
     1
  3
ACAD_XREC_ROUNDTRIP
360
34B
  0
CELLSTYLEMAP
  5
351
102
{ACAD_REACTORS
330
350
102
}
330
350
100
AcDbCellStyleMap
 90
        3
300
CELLSTYLE
  1
TABLEFORMAT_BEGIN
 90
        5
170
     1
 91
        0
 92
    32768
 62
   257
 93
        1
300
CONTENTFORMAT
  1
CONTENTFORMAT_BEGIN
 90
        0
 91
        0
 92
        4
 93
        0
300

 40
0.0
140
1.0
 94
        5
 62
     0
340
11
144
6.0
309
CONTENTFORMAT_END
171
     1
301
MARGIN
  1
CELLMARGIN_BEGIN
 40
1.5
 40
1.5
 40
1.5
 40
1.5
 40
1.5
 40
1.5
309
CELLMARGIN_END
 94
        6
 95
        1
302
GRIDFORMAT
  1
GRIDFORMAT_BEGIN
 90
        0
 91
        1
 62
     0
 92
       -2
340
14
 93
        0
 40
0.045
309
GRIDFORMAT_END
 95
        2
302
GRIDFORMAT
  1
GRIDFORMAT_BEGIN
 90
        0
 91
        1
 62
     0
 92
       -2
340
14
 93
        0
 40
0.045
309
GRIDFORMAT_END
 95
        4
302
GRIDFORMAT
  1
GRIDFORMAT_BEGIN
 90
        0
 91
        1
 62
     0
 92
       -2
340
14
 93
        0
 40
0.045
309
GRIDFORMAT_END
 95
        8
302
GRIDFORMAT
  1
GRIDFORMAT_BEGIN
 90
        0
 91
        1
 62
     0
 92
       -2
340
14
 93
        0
 40
0.045
309
GRIDFORMAT_END
 95
       16
302
GRIDFORMAT
  1
GRIDFORMAT_BEGIN
 90
        0
 91
        1
 62
     0
 92
       -2
340
14
 93
        0
 40
0.045
309
GRIDFORMAT_END
 95
       32
302
GRIDFORMAT
  1
GRIDFORMAT_BEGIN
 90
        0
 91
        1
 62
     0
 92
       -2
340
14
 93
        0
 40
0.045
309
GRIDFORMAT_END
309
TABLEFORMAT_END
  1
CELLSTYLE_BEGIN
 90
        1
 91
        1
300
_TITLE
309
CELLSTYLE_END
300
CELLSTYLE
  1
TABLEFORMAT_BEGIN
 90
        5
170
     1
 91
        0
 92
        0
 62
   257
 93
        1
300
CONTENTFORMAT
  1
CONTENTFORMAT_BEGIN
 90
        0
 91
        0
 92
        4
 93
        0
300

 40
0.0
140
1.0
 94
        5
 62
     0
340
11
144
4.5
309
CONTENTFORMAT_END
171
     1
301
MARGIN
  1
CELLMARGIN_BEGIN
 40
1.5
 40
1.5
 40
1.5
 40
1.5
 40
1.5
 40
1.5
309
CELLMARGIN_END
 94
        6
 95
        1
302
GRIDFORMAT
  1
GRIDFORMAT_BEGIN
 90
        0
 91
        1
 62
     0
 92
       -2
340
14
 93
        0
 40
0.045
309
GRIDFORMAT_END
 95
        2
302
GRIDFORMAT
  1
GRIDFORMAT_BEGIN
 90
        0
 91
        1
 62
     0
 92
       -2
340
14
 93
        0
 40
0.045
309
GRIDFORMAT_END
 95
        4
302
GRIDFORMAT
  1
GRIDFORMAT_BEGIN
 90
        0
 91
        1
 62
     0
 92
       -2
340
14
 93
        0
 40
0.045
309
GRIDFORMAT_END
 95
        8
302
GRIDFORMAT
  1
GRIDFORMAT_BEGIN
 90
        0
 91
        1
 62
     0
 92
       -2
340
14
 93
        0
 40
0.045
309
GRIDFORMAT_END
 95
       16
302
GRIDFORMAT
  1
GRIDFORMAT_BEGIN
 90
        0
 91
        1
 62
     0
 92
       -2
340
14
 93
        0
 40
0.045
309
GRIDFORMAT_END
 95
       32
302
GRIDFORMAT
  1
GRIDFORMAT_BEGIN
 90
        0
 91
        1
 62
     0
 92
       -2
340
14
 93
        0
 40
0.045
309
GRIDFORMAT_END
309
TABLEFORMAT_END
  1
CELLSTYLE_BEGIN
 90
        2
 91
        1
300
_HEADER
309
CELLSTYLE_END
300
CELLSTYLE
  1
TABLEFORMAT_BEGIN
 90
        5
170
     1
 91
        0
 92
        0
 62
   257
 93
        1
300
CONTENTFORMAT
  1
CONTENTFORMAT_BEGIN
 90
        0
 91
        0
 92
        4
 93
        0
300

 40
0.0
140
1.0
 94
        2
 62
     0
340
11
144
4.5
309
CONTENTFORMAT_END
171
     1
301
MARGIN
  1
CELLMARGIN_BEGIN
 40
1.5
 40
1.5
 40
1.5
 40
1.5
 40
1.5
 40
1.5
309
CELLMARGIN_END
 94
        6
 95
        1
302
GRIDFORMAT
  1
GRIDFORMAT_BEGIN
 90
        0
 91
        1
 62
     0
 92
       -2
340
14
 93
        0
 40
0.045
309
GRIDFORMAT_END
 95
        2
302
GRIDFORMAT
  1
GRIDFORMAT_BEGIN
 90
        0
 91
        1
 62
     0
 92
       -2
340
14
 93
        0
 40
0.045
309
GRIDFORMAT_END
 95
        4
302
GRIDFORMAT
  1
GRIDFORMAT_BEGIN
 90
        0
 91
        1
 62
     0
 92
       -2
340
14
 93
        0
 40
0.045
309
GRIDFORMAT_END
 95
        8
302
GRIDFORMAT
  1
GRIDFORMAT_BEGIN
 90
        0
 91
        1
 62
     0
 92
       -2
340
14
 93
        0
 40
0.045
309
GRIDFORMAT_END
 95
       16
302
GRIDFORMAT
  1
GRIDFORMAT_BEGIN
 90
        0
 91
        1
 62
     0
 92
       -2
340
14
 93
        0
 40
0.045
309
GRIDFORMAT_END
 95
       32
302
GRIDFORMAT
  1
GRIDFORMAT_BEGIN
 90
        0
 91
        1
 62
     0
 92
       -2
340
14
 93
        0
 40
0.045
309
GRIDFORMAT_END
309
TABLEFORMAT_END
  1
CELLSTYLE_BEGIN
 90
        3
 91
        2
300
_DATA
309
CELLSTYLE_END
  0
XRECORD
  5
329
102
{ACAD_REACTORS
330
328
102
}
330
328
100
AcDbXrecord
280
     1
102
RTVSPost2010Prop28
280
     1
102
RTVSPost2010PropOp28
 70
     1
102
RTVSPost2010Prop29
280
     1
102
RTVSPost2010PropOp29
 70
     1
102
RTVSPost2010Prop30
280
     0
102
RTVSPost2010PropOp30
 70
     1
102
RTVSPost2010Prop31
280
     0
102
RTVSPost2010PropOp31
 70
     1
102
RTVSPost2010Prop32
280
     0
102
RTVSPost2010PropOp32
 70
     1
102
RTVSPost2010Prop33
280
     0
102
RTVSPost2010PropOp33
 70
     1
102
RTVSPost2010Prop34
280
     0
102
RTVSPost2010PropOp34
 70
     1
102
RTVSPost2010Prop35
280
     0
102
RTVSPost2010PropOp35
 70
     1
102
RTVSPost2010Prop36
280
     0
102
RTVSPost2010PropOp36
 70
     1
102
RTVSPost2010Prop37
 90
       50
102
RTVSPost2010PropOp37
 70
     1
102
RTVSPost2010Prop38
140
0.0
102
RTVSPost2010PropOp38
 70
     1
102
RTVSPost2010Prop39
140
1.0
102
RTVSPost2010PropOp39
 70
     1
102
RTVSPost2010Prop40
 90
        0
102
RTVSPost2010PropOp40
 70
     1
102
RTVSPost2010Prop41ColorIndex
 90
       18
102
RTVSPost2010Prop41ColorRGB
 90
        0
102
RTVSPost2010PropOp41
 70
     1
102
RTVSPost2010Prop42
 90
       50
102
RTVSPost2010PropOp42
 70
     1
102
RTVSPost2010Prop43
 90
        3
102
RTVSPost2010PropOp43
 70
     1
102
RTVSPost2010Prop44ColorIndex
 90
        5
102
RTVSPost2010Prop44ColorRGB
 90
      255
102
RTVSPost2010PropOp44
 70
     1
102
RTVSPost2010Prop45
280
     0
102
RTVSPost2010PropOp45
 70
     1
102
RTVSPost2010Prop46
 90
       50
102
RTVSPost2010PropOp46
 70
     1
102
RTVSPost2010Prop47
 90
       50
102
RTVSPost2010PropOp47
 70
     1
102
RTVSPost2010Prop48
 90
       50
102
RTVSPost2010PropOp48
 70
     1
102
RTVSPost2010Prop49
280
     0
102
RTVSPost2010PropOp49
 70
     1
102
RTVSPost2010Prop50
 90
       50
102
RTVSPost2010PropOp50
 70
     1
102
RTVSPost2010Prop51ColorIndex
 90
      256
102
RTVSPost2010Prop51ColorRGB
 90
-16777216
102
RTVSPost2010PropOp51
 70
     0
102
RTVSPost2010Prop52
140
1.0
102
RTVSPost2010PropOp52
 70
     0
102
RTVSPost2010Prop53
 90
        2
102
RTVSPost2010PropOp53
 70
     1
102
RTVSPost2010Prop54
  1
strokes_ogs.tif
102
RTVSPost2010PropOp54
 70
     1
102
RTVSPost2010Prop55
280
     0
102
RTVSPost2010PropOp55
 70
     1
102
RTVSPost2010Prop56
140
1.0
102
RTVSPost2010PropOp56
 70
     1
102
RTVSPost2010Prop57
140
1.0
102
RTVSPost2010PropOp57
 70
     1
  0
XRECORD
  5
32F
102
{ACAD_REACTORS
330
32E
102
}
330
32E
100
AcDbXrecord
280
     1
102
RTVSPost2010Prop28
280
     0
102
RTVSPost2010PropOp28
 70
     1
102
RTVSPost2010Prop29
280
     1
102
RTVSPost2010PropOp29
 70
     1
102
RTVSPost2010Prop30
280
     1
102
RTVSPost2010PropOp30
 70
     1
102
RTVSPost2010Prop31
280
     0
102
RTVSPost2010PropOp31
 70
     1
102
RTVSPost2010Prop32
280
     0
102
RTVSPost2010PropOp32
 70
     1
102
RTVSPost2010Prop33
280
     0
102
RTVSPost2010PropOp33
 70
     1
102
RTVSPost2010Prop34
280
     0
102
RTVSPost2010PropOp34
 70
     1
102
RTVSPost2010Prop35
280
     0
102
RTVSPost2010PropOp35
 70
     1
102
RTVSPost2010Prop36
280
     0
102
RTVSPost2010PropOp36
 70
     1
102
RTVSPost2010Prop37
 90
       50
102
RTVSPost2010PropOp37
 70
     1
102
RTVSPost2010Prop38
140
0.0
102
RTVSPost2010PropOp38
 70
     1
102
RTVSPost2010Prop39
140
1.0
102
RTVSPost2010PropOp39
 70
     1
102
RTVSPost2010Prop40
 90
        0
102
RTVSPost2010PropOp40
 70
     1
102
RTVSPost2010Prop41ColorIndex
 90
       18
102
RTVSPost2010Prop41ColorRGB
 90
        0
102
RTVSPost2010PropOp41
 70
     1
102
RTVSPost2010Prop42
 90
       50
102
RTVSPost2010PropOp42
 70
     1
102
RTVSPost2010Prop43
 90
        3
102
RTVSPost2010PropOp43
 70
     1
102
RTVSPost2010Prop44ColorIndex
 90
        5
102
RTVSPost2010Prop44ColorRGB
 90
      255
102
RTVSPost2010PropOp44
 70
     1
102
RTVSPost2010Prop45
280
     0
102
RTVSPost2010PropOp45
 70
     1
102
RTVSPost2010Prop46
 90
       50
102
RTVSPost2010PropOp46
 70
     1
102
RTVSPost2010Prop47
 90
       50
102
RTVSPost2010PropOp47
 70
     1
102
RTVSPost2010Prop48
 90
       50
102
RTVSPost2010PropOp48
 70
     1
102
RTVSPost2010Prop49
280
     0
102
RTVSPost2010PropOp49
 70
     1
102
RTVSPost2010Prop50
 90
       50
102
RTVSPost2010PropOp50
 70
     1
102
RTVSPost2010Prop51ColorIndex
 90
      256
102
RTVSPost2010Prop51ColorRGB
 90
-16777216
102
RTVSPost2010PropOp51
 70
     0
102
RTVSPost2010Prop52
140
1.0
102
RTVSPost2010PropOp52
 70
     0
102
RTVSPost2010Prop53
 90
        2
102
RTVSPost2010PropOp53
 70
     1
102
RTVSPost2010Prop54
  1
strokes_ogs.tif
102
RTVSPost2010PropOp54
 70
     1
102
RTVSPost2010Prop55
280
     0
102
RTVSPost2010PropOp55
 70
     1
102
RTVSPost2010Prop56
140
1.0
102
RTVSPost2010PropOp56
 70
     1
102
RTVSPost2010Prop57
140
1.0
102
RTVSPost2010PropOp57
 70
     1
  0
XRECORD
  5
337
102
{ACAD_REACTORS
330
336
102
}
330
336
100
AcDbXrecord
280
     1
102
RTVSPost2010Prop28
280
     0
102
RTVSPost2010PropOp28
 70
     1
102
RTVSPost2010Prop29
280
     1
102
RTVSPost2010PropOp29
 70
     1
102
RTVSPost2010Prop30
280
     1
102
RTVSPost2010PropOp30
 70
     1
102
RTVSPost2010Prop31
280
     0
102
RTVSPost2010PropOp31
 70
     1
102
RTVSPost2010Prop32
280
     0
102
RTVSPost2010PropOp32
 70
     1
102
RTVSPost2010Prop33
280
     0
102
RTVSPost2010PropOp33
 70
     1
102
RTVSPost2010Prop34
280
     0
102
RTVSPost2010PropOp34
 70
     1
102
RTVSPost2010Prop35
280
     0
102
RTVSPost2010PropOp35
 70
     1
102
RTVSPost2010Prop36
280
     0
102
RTVSPost2010PropOp36
 70
     1
102
RTVSPost2010Prop37
 90
       50
102
RTVSPost2010PropOp37
 70
     1
102
RTVSPost2010Prop38
140
0.0
102
RTVSPost2010PropOp38
 70
     1
102
RTVSPost2010Prop39
140
1.0
102
RTVSPost2010PropOp39
 70
     1
102
RTVSPost2010Prop40
 90
        0
102
RTVSPost2010PropOp40
 70
     1
102
RTVSPost2010Prop41ColorIndex
 90
       18
102
RTVSPost2010Prop41ColorRGB
 90
        0
102
RTVSPost2010PropOp41
 70
     1
102
RTVSPost2010Prop42
 90
       50
102
RTVSPost2010PropOp42
 70
     1
102
RTVSPost2010Prop43
 90
        3
102
RTVSPost2010PropOp43
 70
     1
102
RTVSPost2010Prop44ColorIndex
 90
        5
102
RTVSPost2010Prop44ColorRGB
 90
      255
102
RTVSPost2010PropOp44
 70
     1
102
RTVSPost2010Prop45
280
     0
102
RTVSPost2010PropOp45
 70
     1
102
RTVSPost2010Prop46
 90
       50
102
RTVSPost2010PropOp46
 70
     1
102
RTVSPost2010Prop47
 90
       50
102
RTVSPost2010PropOp47
 70
     1
102
RTVSPost2010Prop48
 90
       50
102
RTVSPost2010PropOp48
 70
     1
102
RTVSPost2010Prop49
280
     0
102
RTVSPost2010PropOp49
 70
     1
102
RTVSPost2010Prop50
 90
       50
102
RTVSPost2010PropOp50
 70
     1
102
RTVSPost2010Prop51ColorIndex
 90
      256
102
RTVSPost2010Prop51ColorRGB
 90
-16777216
102
RTVSPost2010PropOp51
 70
     0
102
RTVSPost2010Prop52
140
1.0
102
RTVSPost2010PropOp52
 70
     0
102
RTVSPost2010Prop53
 90
        2
102
RTVSPost2010PropOp53
 70
     1
102
RTVSPost2010Prop54
  1
strokes_ogs.tif
102
RTVSPost2010PropOp54
 70
     1
102
RTVSPost2010Prop55
280
     0
102
RTVSPost2010PropOp55
 70
     1
102
RTVSPost2010Prop56
140
1.0
102
RTVSPost2010PropOp56
 70
     1
102
RTVSPost2010Prop57
140
1.0
102
RTVSPost2010PropOp57
 70
     1
  0
XRECORD
  5
33F
102
{ACAD_REACTORS
330
33E
102
}
330
33E
100
AcDbXrecord
280
     1
102
RTVSPost2010Prop28
280
     0
102
RTVSPost2010PropOp28
 70
     1
102
RTVSPost2010Prop29
280
     1
102
RTVSPost2010PropOp29
 70
     1
102
RTVSPost2010Prop30
280
     1
102
RTVSPost2010PropOp30
 70
     1
102
RTVSPost2010Prop31
280
     0
102
RTVSPost2010PropOp31
 70
     1
102
RTVSPost2010Prop32
280
     0
102
RTVSPost2010PropOp32
 70
     1
102
RTVSPost2010Prop33
280
     0
102
RTVSPost2010PropOp33
 70
     1
102
RTVSPost2010Prop34
280
     0
102
RTVSPost2010PropOp34
 70
     1
102
RTVSPost2010Prop35
280
     0
102
RTVSPost2010PropOp35
 70
     1
102
RTVSPost2010Prop36
280
     0
102
RTVSPost2010PropOp36
 70
     1
102
RTVSPost2010Prop37
 90
       50
102
RTVSPost2010PropOp37
 70
     1
102
RTVSPost2010Prop38
140
0.0
102
RTVSPost2010PropOp38
 70
     1
102
RTVSPost2010Prop39
140
1.0
102
RTVSPost2010PropOp39
 70
     1
102
RTVSPost2010Prop40
 90
        0
102
RTVSPost2010PropOp40
 70
     1
102
RTVSPost2010Prop41ColorIndex
 90
       18
102
RTVSPost2010Prop41ColorRGB
 90
        0
102
RTVSPost2010PropOp41
 70
     1
102
RTVSPost2010Prop42
 90
       50
102
RTVSPost2010PropOp42
 70
     1
102
RTVSPost2010Prop43
 90
        3
102
RTVSPost2010PropOp43
 70
     1
102
RTVSPost2010Prop44ColorIndex
 90
        5
102
RTVSPost2010Prop44ColorRGB
 90
      255
102
RTVSPost2010PropOp44
 70
     1
102
RTVSPost2010Prop45
280
     0
102
RTVSPost2010PropOp45
 70
     1
102
RTVSPost2010Prop46
 90
       50
102
RTVSPost2010PropOp46
 70
     1
102
RTVSPost2010Prop47
 90
       50
102
RTVSPost2010PropOp47
 70
     1
102
RTVSPost2010Prop48
 90
       50
102
RTVSPost2010PropOp48
 70
     1
102
RTVSPost2010Prop49
280
     0
102
RTVSPost2010PropOp49
 70
     1
102
RTVSPost2010Prop50
 90
       50
102
RTVSPost2010PropOp50
 70
     1
102
RTVSPost2010Prop51ColorIndex
 90
      256
102
RTVSPost2010Prop51ColorRGB
 90
-16777216
102
RTVSPost2010PropOp51
 70
     0
102
RTVSPost2010Prop52
140
1.0
102
RTVSPost2010PropOp52
 70
     0
102
RTVSPost2010Prop53
 90
        2
102
RTVSPost2010PropOp53
 70
     1
102
RTVSPost2010Prop54
  1
strokes_ogs.tif
102
RTVSPost2010PropOp54
 70
     1
102
RTVSPost2010Prop55
280
     0
102
RTVSPost2010PropOp55
 70
     1
102
RTVSPost2010Prop56
140
1.0
102
RTVSPost2010PropOp56
 70
     1
102
RTVSPost2010Prop57
140
1.0
102
RTVSPost2010PropOp57
 70
     1
  0
XRECORD
  5
333
102
{ACAD_REACTORS
330
332
102
}
330
332
100
AcDbXrecord
280
     1
102
RTVSPost2010Prop28
280
     0
102
RTVSPost2010PropOp28
 70
     1
102
RTVSPost2010Prop29
280
     1
102
RTVSPost2010PropOp29
 70
     1
102
RTVSPost2010Prop30
280
     1
102
RTVSPost2010PropOp30
 70
     1
102
RTVSPost2010Prop31
280
     0
102
RTVSPost2010PropOp31
 70
     1
102
RTVSPost2010Prop32
280
     0
102
RTVSPost2010PropOp32
 70
     1
102
RTVSPost2010Prop33
280
     0
102
RTVSPost2010PropOp33
 70
     1
102
RTVSPost2010Prop34
280
     0
102
RTVSPost2010PropOp34
 70
     1
102
RTVSPost2010Prop35
280
     0
102
RTVSPost2010PropOp35
 70
     1
102
RTVSPost2010Prop36
280
     0
102
RTVSPost2010PropOp36
 70
     1
102
RTVSPost2010Prop37
 90
       50
102
RTVSPost2010PropOp37
 70
     1
102
RTVSPost2010Prop38
140
0.0
102
RTVSPost2010PropOp38
 70
     1
102
RTVSPost2010Prop39
140
1.0
102
RTVSPost2010PropOp39
 70
     1
102
RTVSPost2010Prop40
 90
        0
102
RTVSPost2010PropOp40
 70
     1
102
RTVSPost2010Prop41ColorIndex
 90
       18
102
RTVSPost2010Prop41ColorRGB
 90
        0
102
RTVSPost2010PropOp41
 70
     1
102
RTVSPost2010Prop42
 90
       50
102
RTVSPost2010PropOp42
 70
     1
102
RTVSPost2010Prop43
 90
        3
102
RTVSPost2010PropOp43
 70
     1
102
RTVSPost2010Prop44ColorIndex
 90
        5
102
RTVSPost2010Prop44ColorRGB
 90
      255
102
RTVSPost2010PropOp44
 70
     1
102
RTVSPost2010Prop45
280
     0
102
RTVSPost2010PropOp45
 70
     1
102
RTVSPost2010Prop46
 90
       50
102
RTVSPost2010PropOp46
 70
     1
102
RTVSPost2010Prop47
 90
       50
102
RTVSPost2010PropOp47
 70
     1
102
RTVSPost2010Prop48
 90
       50
102
RTVSPost2010PropOp48
 70
     1
102
RTVSPost2010Prop49
280
     0
102
RTVSPost2010PropOp49
 70
     1
102
RTVSPost2010Prop50
 90
       50
102
RTVSPost2010PropOp50
 70
     1
102
RTVSPost2010Prop51ColorIndex
 90
      256
102
RTVSPost2010Prop51ColorRGB
 90
-16777216
102
RTVSPost2010PropOp51
 70
     0
102
RTVSPost2010Prop52
140
1.0
102
RTVSPost2010PropOp52
 70
     0
102
RTVSPost2010Prop53
 90
        2
102
RTVSPost2010PropOp53
 70
     1
102
RTVSPost2010Prop54
  1
strokes_ogs.tif
102
RTVSPost2010PropOp54
 70
     1
102
RTVSPost2010Prop55
280
     0
102
RTVSPost2010PropOp55
 70
     1
102
RTVSPost2010Prop56
140
1.0
102
RTVSPost2010PropOp56
 70
     1
102
RTVSPost2010Prop57
140
1.0
102
RTVSPost2010PropOp57
 70
     1
  0
XRECORD
  5
335
102
{ACAD_REACTORS
330
334
102
}
330
334
100
AcDbXrecord
280
     1
102
RTVSPost2010Prop28
280
     0
102
RTVSPost2010PropOp28
 70
     1
102
RTVSPost2010Prop29
280
     1
102
RTVSPost2010PropOp29
 70
     1
102
RTVSPost2010Prop30
280
     1
102
RTVSPost2010PropOp30
 70
     1
102
RTVSPost2010Prop31
280
     0
102
RTVSPost2010PropOp31
 70
     1
102
RTVSPost2010Prop32
280
     0
102
RTVSPost2010PropOp32
 70
     1
102
RTVSPost2010Prop33
280
     0
102
RTVSPost2010PropOp33
 70
     1
102
RTVSPost2010Prop34
280
     0
102
RTVSPost2010PropOp34
 70
     1
102
RTVSPost2010Prop35
280
     0
102
RTVSPost2010PropOp35
 70
     1
102
RTVSPost2010Prop36
280
     0
102
RTVSPost2010PropOp36
 70
     1
102
RTVSPost2010Prop37
 90
       50
102
RTVSPost2010PropOp37
 70
     1
102
RTVSPost2010Prop38
140
0.0
102
RTVSPost2010PropOp38
 70
     1
102
RTVSPost2010Prop39
140
1.0
102
RTVSPost2010PropOp39
 70
     1
102
RTVSPost2010Prop40
 90
        0
102
RTVSPost2010PropOp40
 70
     1
102
RTVSPost2010Prop41ColorIndex
 90
       18
102
RTVSPost2010Prop41ColorRGB
 90
        0
102
RTVSPost2010PropOp41
 70
     1
102
RTVSPost2010Prop42
 90
       50
102
RTVSPost2010PropOp42
 70
     1
102
RTVSPost2010Prop43
 90
        3
102
RTVSPost2010PropOp43
 70
     1
102
RTVSPost2010Prop44ColorIndex
 90
        5
102
RTVSPost2010Prop44ColorRGB
 90
      255
102
RTVSPost2010PropOp44
 70
     1
102
RTVSPost2010Prop45
280
     0
102
RTVSPost2010PropOp45
 70
     1
102
RTVSPost2010Prop46
 90
       50
102
RTVSPost2010PropOp46
 70
     1
102
RTVSPost2010Prop47
 90
       50
102
RTVSPost2010PropOp47
 70
     1
102
RTVSPost2010Prop48
 90
       50
102
RTVSPost2010PropOp48
 70
     1
102
RTVSPost2010Prop49
280
     0
102
RTVSPost2010PropOp49
 70
     1
102
RTVSPost2010Prop50
 90
       50
102
RTVSPost2010PropOp50
 70
     1
102
RTVSPost2010Prop51ColorIndex
 90
      256
102
RTVSPost2010Prop51ColorRGB
 90
-16777216
102
RTVSPost2010PropOp51
 70
     0
102
RTVSPost2010Prop52
140
1.0
102
RTVSPost2010PropOp52
 70
     0
102
RTVSPost2010Prop53
 90
        2
102
RTVSPost2010PropOp53
 70
     1
102
RTVSPost2010Prop54
  1
strokes_ogs.tif
102
RTVSPost2010PropOp54
 70
     1
102
RTVSPost2010Prop55
280
     0
102
RTVSPost2010PropOp55
 70
     1
102
RTVSPost2010Prop56
140
1.0
102
RTVSPost2010PropOp56
 70
     1
102
RTVSPost2010Prop57
140
1.0
102
RTVSPost2010PropOp57
 70
     1
  0
XRECORD
  5
345
102
{ACAD_REACTORS
330
344
102
}
330
344
100
AcDbXrecord
280
     1
102
RTVSPost2010Prop28
280
     0
102
RTVSPost2010PropOp28
 70
     0
102
RTVSPost2010Prop29
280
     1
102
RTVSPost2010PropOp29
 70
     0
102
RTVSPost2010Prop30
280
     1
102
RTVSPost2010PropOp30
 70
     0
102
RTVSPost2010Prop31
280
     0
102
RTVSPost2010PropOp31
 70
     0
102
RTVSPost2010Prop32
280
     0
102
RTVSPost2010PropOp32
 70
     0
102
RTVSPost2010Prop33
280
     0
102
RTVSPost2010PropOp33
 70
     0
102
RTVSPost2010Prop34
280
     0
102
RTVSPost2010PropOp34
 70
     0
102
RTVSPost2010Prop35
280
     0
102
RTVSPost2010PropOp35
 70
     0
102
RTVSPost2010Prop36
280
     0
102
RTVSPost2010PropOp36
 70
     0
102
RTVSPost2010Prop37
 90
       50
102
RTVSPost2010PropOp37
 70
     0
102
RTVSPost2010Prop38
140
0.0
102
RTVSPost2010PropOp38
 70
     0
102
RTVSPost2010Prop39
140
1.0
102
RTVSPost2010PropOp39
 70
     0
102
RTVSPost2010Prop40
 90
        0
102
RTVSPost2010PropOp40
 70
     0
102
RTVSPost2010Prop41ColorIndex
 90
       18
102
RTVSPost2010Prop41ColorRGB
 90
        0
102
RTVSPost2010PropOp41
 70
     0
102
RTVSPost2010Prop42
 90
       50
102
RTVSPost2010PropOp42
 70
     0
102
RTVSPost2010Prop43
 90
        3
102
RTVSPost2010PropOp43
 70
     0
102
RTVSPost2010Prop44ColorIndex
 90
        5
102
RTVSPost2010Prop44ColorRGB
 90
      255
102
RTVSPost2010PropOp44
 70
     0
102
RTVSPost2010Prop45
280
     0
102
RTVSPost2010PropOp45
 70
     0
102
RTVSPost2010Prop46
 90
       50
102
RTVSPost2010PropOp46
 70
     0
102
RTVSPost2010Prop47
 90
       50
102
RTVSPost2010PropOp47
 70
     0
102
RTVSPost2010Prop48
 90
       50
102
RTVSPost2010PropOp48
 70
     0
102
RTVSPost2010Prop49
280
     0
102
RTVSPost2010PropOp49
 70
     0
102
RTVSPost2010Prop50
 90
       50
102
RTVSPost2010PropOp50
 70
     0
102
RTVSPost2010Prop51ColorIndex
 90
      256
102
RTVSPost2010Prop51ColorRGB
 90
-16777216
102
RTVSPost2010PropOp51
 70
     0
102
RTVSPost2010Prop52
140
1.0
102
RTVSPost2010PropOp52
 70
     0
102
RTVSPost2010Prop53
 90
        2
102
RTVSPost2010PropOp53
 70
     0
102
RTVSPost2010Prop54
  1
strokes_ogs.tif
102
RTVSPost2010PropOp54
 70
     0
102
RTVSPost2010Prop55
280
     0
102
RTVSPost2010PropOp55
 70
     0
102
RTVSPost2010Prop56
140
1.0
102
RTVSPost2010PropOp56
 70
     0
102
RTVSPost2010Prop57
140
1.0
102
RTVSPost2010PropOp57
 70
     0
  0
XRECORD
  5
33D
102
{ACAD_REACTORS
330
33C
102
}
330
33C
100
AcDbXrecord
280
     1
102
RTVSPost2010Prop28
280
     0
102
RTVSPost2010PropOp28
 70
     1
102
RTVSPost2010Prop29
280
     1
102
RTVSPost2010PropOp29
 70
     1
102
RTVSPost2010Prop30
280
     1
102
RTVSPost2010PropOp30
 70
     1
102
RTVSPost2010Prop31
280
     0
102
RTVSPost2010PropOp31
 70
     1
102
RTVSPost2010Prop32
280
     0
102
RTVSPost2010PropOp32
 70
     1
102
RTVSPost2010Prop33
280
     0
102
RTVSPost2010PropOp33
 70
     1
102
RTVSPost2010Prop34
280
     0
102
RTVSPost2010PropOp34
 70
     1
102
RTVSPost2010Prop35
280
     0
102
RTVSPost2010PropOp35
 70
     1
102
RTVSPost2010Prop36
280
     0
102
RTVSPost2010PropOp36
 70
     1
102
RTVSPost2010Prop37
 90
       50
102
RTVSPost2010PropOp37
 70
     1
102
RTVSPost2010Prop38
140
0.0
102
RTVSPost2010PropOp38
 70
     1
102
RTVSPost2010Prop39
140
1.0
102
RTVSPost2010PropOp39
 70
     1
102
RTVSPost2010Prop40
 90
        0
102
RTVSPost2010PropOp40
 70
     1
102
RTVSPost2010Prop41ColorIndex
 90
       18
102
RTVSPost2010Prop41ColorRGB
 90
        0
102
RTVSPost2010PropOp41
 70
     1
102
RTVSPost2010Prop42
 90
       50
102
RTVSPost2010PropOp42
 70
     1
102
RTVSPost2010Prop43
 90
        3
102
RTVSPost2010PropOp43
 70
     1
102
RTVSPost2010Prop44ColorIndex
 90
        5
102
RTVSPost2010Prop44ColorRGB
 90
      255
102
RTVSPost2010PropOp44
 70
     1
102
RTVSPost2010Prop45
280
     0
102
RTVSPost2010PropOp45
 70
     1
102
RTVSPost2010Prop46
 90
       50
102
RTVSPost2010PropOp46
 70
     1
102
RTVSPost2010Prop47
 90
       50
102
RTVSPost2010PropOp47
 70
     1
102
RTVSPost2010Prop48
 90
       50
102
RTVSPost2010PropOp48
 70
     1
102
RTVSPost2010Prop49
280
     0
102
RTVSPost2010PropOp49
 70
     1
102
RTVSPost2010Prop50
 90
       50
102
RTVSPost2010PropOp50
 70
     1
102
RTVSPost2010Prop51ColorIndex
 90
      256
102
RTVSPost2010Prop51ColorRGB
 90
-16777216
102
RTVSPost2010PropOp51
 70
     0
102
RTVSPost2010Prop52
140
1.0
102
RTVSPost2010PropOp52
 70
     0
102
RTVSPost2010Prop53
 90
        2
102
RTVSPost2010PropOp53
 70
     1
102
RTVSPost2010Prop54
  1
strokes_ogs.tif
102
RTVSPost2010PropOp54
 70
     1
102
RTVSPost2010Prop55
280
     0
102
RTVSPost2010PropOp55
 70
     1
102
RTVSPost2010Prop56
140
1.0
102
RTVSPost2010PropOp56
 70
     1
102
RTVSPost2010Prop57
140
1.0
102
RTVSPost2010PropOp57
 70
     1
  0
XRECORD
  5
321
102
{ACAD_REACTORS
330
320
102
}
330
320
100
AcDbXrecord
280
     1
102
RTVSPost2010Prop28
280
     0
102
RTVSPost2010PropOp28
 70
     1
102
RTVSPost2010Prop29
280
     1
102
RTVSPost2010PropOp29
 70
     1
102
RTVSPost2010Prop30
280
     1
102
RTVSPost2010PropOp30
 70
     1
102
RTVSPost2010Prop31
280
     0
102
RTVSPost2010PropOp31
 70
     1
102
RTVSPost2010Prop32
280
     0
102
RTVSPost2010PropOp32
 70
     1
102
RTVSPost2010Prop33
280
     0
102
RTVSPost2010PropOp33
 70
     1
102
RTVSPost2010Prop34
280
     0
102
RTVSPost2010PropOp34
 70
     1
102
RTVSPost2010Prop35
280
     0
102
RTVSPost2010PropOp35
 70
     1
102
RTVSPost2010Prop36
280
     0
102
RTVSPost2010PropOp36
 70
     1
102
RTVSPost2010Prop37
 90
       50
102
RTVSPost2010PropOp37
 70
     1
102
RTVSPost2010Prop38
140
0.0
102
RTVSPost2010PropOp38
 70
     1
102
RTVSPost2010Prop39
140
1.0
102
RTVSPost2010PropOp39
 70
     1
102
RTVSPost2010Prop40
 90
        0
102
RTVSPost2010PropOp40
 70
     1
102
RTVSPost2010Prop41ColorIndex
 90
       18
102
RTVSPost2010Prop41ColorRGB
 90
        0
102
RTVSPost2010PropOp41
 70
     1
102
RTVSPost2010Prop42
 90
       50
102
RTVSPost2010PropOp42
 70
     1
102
RTVSPost2010Prop43
 90
        3
102
RTVSPost2010PropOp43
 70
     1
102
RTVSPost2010Prop44ColorIndex
 90
        5
102
RTVSPost2010Prop44ColorRGB
 90
      255
102
RTVSPost2010PropOp44
 70
     1
102
RTVSPost2010Prop45
280
     0
102
RTVSPost2010PropOp45
 70
     1
102
RTVSPost2010Prop46
 90
       50
102
RTVSPost2010PropOp46
 70
     1
102
RTVSPost2010Prop47
 90
       50
102
RTVSPost2010PropOp47
 70
     1
102
RTVSPost2010Prop48
 90
       50
102
RTVSPost2010PropOp48
 70
     1
102
RTVSPost2010Prop49
280
     0
102
RTVSPost2010PropOp49
 70
     1
102
RTVSPost2010Prop50
 90
       50
102
RTVSPost2010PropOp50
 70
     1
102
RTVSPost2010Prop51ColorIndex
 90
      256
102
RTVSPost2010Prop51ColorRGB
 90
-16777216
102
RTVSPost2010PropOp51
 70
     0
102
RTVSPost2010Prop52
140
1.0
102
RTVSPost2010PropOp52
 70
     0
102
RTVSPost2010Prop53
 90
        2
102
RTVSPost2010PropOp53
 70
     1
102
RTVSPost2010Prop54
  1
strokes_ogs.tif
102
RTVSPost2010PropOp54
 70
     1
102
RTVSPost2010Prop55
280
     0
102
RTVSPost2010PropOp55
 70
     1
102
RTVSPost2010Prop56
140
1.0
102
RTVSPost2010PropOp56
 70
     1
102
RTVSPost2010Prop57
140
1.0
102
RTVSPost2010PropOp57
 70
     1
  0
XRECORD
  5
323
102
{ACAD_REACTORS
330
322
102
}
330
322
100
AcDbXrecord
280
     1
102
RTVSPost2010Prop28
280
     0
102
RTVSPost2010PropOp28
 70
     1
102
RTVSPost2010Prop29
280
     1
102
RTVSPost2010PropOp29
 70
     1
102
RTVSPost2010Prop30
280
     1
102
RTVSPost2010PropOp30
 70
     1
102
RTVSPost2010Prop31
280
     0
102
RTVSPost2010PropOp31
 70
     1
102
RTVSPost2010Prop32
280
     0
102
RTVSPost2010PropOp32
 70
     1
102
RTVSPost2010Prop33
280
     0
102
RTVSPost2010PropOp33
 70
     1
102
RTVSPost2010Prop34
280
     0
102
RTVSPost2010PropOp34
 70
     1
102
RTVSPost2010Prop35
280
     0
102
RTVSPost2010PropOp35
 70
     1
102
RTVSPost2010Prop36
280
     0
102
RTVSPost2010PropOp36
 70
     1
102
RTVSPost2010Prop37
 90
       50
102
RTVSPost2010PropOp37
 70
     1
102
RTVSPost2010Prop38
140
0.0
102
RTVSPost2010PropOp38
 70
     1
102
RTVSPost2010Prop39
140
1.0
102
RTVSPost2010PropOp39
 70
     1
102
RTVSPost2010Prop40
 90
        0
102
RTVSPost2010PropOp40
 70
     1
102
RTVSPost2010Prop41ColorIndex
 90
       18
102
RTVSPost2010Prop41ColorRGB
 90
        0
102
RTVSPost2010PropOp41
 70
     1
102
RTVSPost2010Prop42
 90
       50
102
RTVSPost2010PropOp42
 70
     1
102
RTVSPost2010Prop43
 90
        3
102
RTVSPost2010PropOp43
 70
     1
102
RTVSPost2010Prop44ColorIndex
 90
        5
102
RTVSPost2010Prop44ColorRGB
 90
      255
102
RTVSPost2010PropOp44
 70
     1
102
RTVSPost2010Prop45
280
     0
102
RTVSPost2010PropOp45
 70
     1
102
RTVSPost2010Prop46
 90
       50
102
RTVSPost2010PropOp46
 70
     1
102
RTVSPost2010Prop47
 90
       50
102
RTVSPost2010PropOp47
 70
     1
102
RTVSPost2010Prop48
 90
       50
102
RTVSPost2010PropOp48
 70
     1
102
RTVSPost2010Prop49
280
     0
102
RTVSPost2010PropOp49
 70
     1
102
RTVSPost2010Prop50
 90
       50
102
RTVSPost2010PropOp50
 70
     1
102
RTVSPost2010Prop51ColorIndex
 90
      256
102
RTVSPost2010Prop51ColorRGB
 90
-16777216
102
RTVSPost2010PropOp51
 70
     0
102
RTVSPost2010Prop52
140
1.0
102
RTVSPost2010PropOp52
 70
     0
102
RTVSPost2010Prop53
 90
        2
102
RTVSPost2010PropOp53
 70
     1
102
RTVSPost2010Prop54
  1
strokes_ogs.tif
102
RTVSPost2010PropOp54
 70
     1
102
RTVSPost2010Prop55
280
     0
102
RTVSPost2010PropOp55
 70
     1
102
RTVSPost2010Prop56
140
1.0
102
RTVSPost2010PropOp56
 70
     1
102
RTVSPost2010Prop57
140
1.0
102
RTVSPost2010PropOp57
 70
     1
  0
XRECORD
  5
325
102
{ACAD_REACTORS
330
324
102
}
330
324
100
AcDbXrecord
280
     1
102
RTVSPost2010Prop28
280
     0
102
RTVSPost2010PropOp28
 70
     1
102
RTVSPost2010Prop29
280
     1
102
RTVSPost2010PropOp29
 70
     1
102
RTVSPost2010Prop30
280
     1
102
RTVSPost2010PropOp30
 70
     1
102
RTVSPost2010Prop31
280
     0
102
RTVSPost2010PropOp31
 70
     1
102
RTVSPost2010Prop32
280
     0
102
RTVSPost2010PropOp32
 70
     1
102
RTVSPost2010Prop33
280
     0
102
RTVSPost2010PropOp33
 70
     1
102
RTVSPost2010Prop34
280
     0
102
RTVSPost2010PropOp34
 70
     1
102
RTVSPost2010Prop35
280
     0
102
RTVSPost2010PropOp35
 70
     1
102
RTVSPost2010Prop36
280
     0
102
RTVSPost2010PropOp36
 70
     1
102
RTVSPost2010Prop37
 90
       50
102
RTVSPost2010PropOp37
 70
     1
102
RTVSPost2010Prop38
140
0.0
102
RTVSPost2010PropOp38
 70
     1
102
RTVSPost2010Prop39
140
1.0
102
RTVSPost2010PropOp39
 70
     1
102
RTVSPost2010Prop40
 90
        0
102
RTVSPost2010PropOp40
 70
     1
102
RTVSPost2010Prop41ColorIndex
 90
       18
102
RTVSPost2010Prop41ColorRGB
 90
        0
102
RTVSPost2010PropOp41
 70
     1
102
RTVSPost2010Prop42
 90
       50
102
RTVSPost2010PropOp42
 70
     1
102
RTVSPost2010Prop43
 90
        3
102
RTVSPost2010PropOp43
 70
     1
102
RTVSPost2010Prop44ColorIndex
 90
        5
102
RTVSPost2010Prop44ColorRGB
 90
      255
102
RTVSPost2010PropOp44
 70
     1
102
RTVSPost2010Prop45
280
     0
102
RTVSPost2010PropOp45
 70
     1
102
RTVSPost2010Prop46
 90
       50
102
RTVSPost2010PropOp46
 70
     1
102
RTVSPost2010Prop47
 90
       50
102
RTVSPost2010PropOp47
 70
     1
102
RTVSPost2010Prop48
 90
       50
102
RTVSPost2010PropOp48
 70
     1
102
RTVSPost2010Prop49
280
     0
102
RTVSPost2010PropOp49
 70
     1
102
RTVSPost2010Prop50
 90
       50
102
RTVSPost2010PropOp50
 70
     1
102
RTVSPost2010Prop51ColorIndex
 90
      256
102
RTVSPost2010Prop51ColorRGB
 90
-16777216
102
RTVSPost2010PropOp51
 70
     0
102
RTVSPost2010Prop52
140
1.0
102
RTVSPost2010PropOp52
 70
     0
102
RTVSPost2010Prop53
 90
        2
102
RTVSPost2010PropOp53
 70
     1
102
RTVSPost2010Prop54
  1
strokes_ogs.tif
102
RTVSPost2010PropOp54
 70
     1
102
RTVSPost2010Prop55
280
     0
102
RTVSPost2010PropOp55
 70
     1
102
RTVSPost2010Prop56
140
1.0
102
RTVSPost2010PropOp56
 70
     1
102
RTVSPost2010Prop57
140
1.0
102
RTVSPost2010PropOp57
 70
     1
  0
XRECORD
  5
327
102
{ACAD_REACTORS
330
326
102
}
330
326
100
AcDbXrecord
280
     1
102
RTVSPost2010Prop28
280
     0
102
RTVSPost2010PropOp28
 70
     1
102
RTVSPost2010Prop29
280
     1
102
RTVSPost2010PropOp29
 70
     1
102
RTVSPost2010Prop30
280
     1
102
RTVSPost2010PropOp30
 70
     1
102
RTVSPost2010Prop31
280
     0
102
RTVSPost2010PropOp31
 70
     1
102
RTVSPost2010Prop32
280
     0
102
RTVSPost2010PropOp32
 70
     1
102
RTVSPost2010Prop33
280
     0
102
RTVSPost2010PropOp33
 70
     1
102
RTVSPost2010Prop34
280
     0
102
RTVSPost2010PropOp34
 70
     1
102
RTVSPost2010Prop35
280
     0
102
RTVSPost2010PropOp35
 70
     1
102
RTVSPost2010Prop36
280
     0
102
RTVSPost2010PropOp36
 70
     1
102
RTVSPost2010Prop37
 90
       50
102
RTVSPost2010PropOp37
 70
     1
102
RTVSPost2010Prop38
140
0.0
102
RTVSPost2010PropOp38
 70
     1
102
RTVSPost2010Prop39
140
1.0
102
RTVSPost2010PropOp39
 70
     1
102
RTVSPost2010Prop40
 90
        0
102
RTVSPost2010PropOp40
 70
     1
102
RTVSPost2010Prop41ColorIndex
 90
       18
102
RTVSPost2010Prop41ColorRGB
 90
        0
102
RTVSPost2010PropOp41
 70
     1
102
RTVSPost2010Prop42
 90
       50
102
RTVSPost2010PropOp42
 70
     1
102
RTVSPost2010Prop43
 90
        3
102
RTVSPost2010PropOp43
 70
     1
102
RTVSPost2010Prop44ColorIndex
 90
        5
102
RTVSPost2010Prop44ColorRGB
 90
      255
102
RTVSPost2010PropOp44
 70
     1
102
RTVSPost2010Prop45
280
     0
102
RTVSPost2010PropOp45
 70
     1
102
RTVSPost2010Prop46
 90
       50
102
RTVSPost2010PropOp46
 70
     1
102
RTVSPost2010Prop47
 90
       50
102
RTVSPost2010PropOp47
 70
     1
102
RTVSPost2010Prop48
 90
       50
102
RTVSPost2010PropOp48
 70
     1
102
RTVSPost2010Prop49
280
     0
102
RTVSPost2010PropOp49
 70
     1
102
RTVSPost2010Prop50
 90
       50
102
RTVSPost2010PropOp50
 70
     1
102
RTVSPost2010Prop51ColorIndex
 90
      256
102
RTVSPost2010Prop51ColorRGB
 90
-16777216
102
RTVSPost2010PropOp51
 70
     0
102
RTVSPost2010Prop52
140
1.0
102
RTVSPost2010PropOp52
 70
     0
102
RTVSPost2010Prop53
 90
        2
102
RTVSPost2010PropOp53
 70
     1
102
RTVSPost2010Prop54
  1
strokes_ogs.tif
102
RTVSPost2010PropOp54
 70
     1
102
RTVSPost2010Prop55
280
     0
102
RTVSPost2010PropOp55
 70
     1
102
RTVSPost2010Prop56
140
1.0
102
RTVSPost2010PropOp56
 70
     1
102
RTVSPost2010Prop57
140
1.0
102
RTVSPost2010PropOp57
 70
     1
  0
XRECORD
  5
32D
102
{ACAD_REACTORS
330
32C
102
}
330
32C
100
AcDbXrecord
280
     1
102
RTVSPost2010Prop28
280
     0
102
RTVSPost2010PropOp28
 70
     1
102
RTVSPost2010Prop29
280
     1
102
RTVSPost2010PropOp29
 70
     1
102
RTVSPost2010Prop30
280
     1
102
RTVSPost2010PropOp30
 70
     1
102
RTVSPost2010Prop31
280
     0
102
RTVSPost2010PropOp31
 70
     1
102
RTVSPost2010Prop32
280
     0
102
RTVSPost2010PropOp32
 70
     1
102
RTVSPost2010Prop33
280
     0
102
RTVSPost2010PropOp33
 70
     1
102
RTVSPost2010Prop34
280
     0
102
RTVSPost2010PropOp34
 70
     1
102
RTVSPost2010Prop35
280
     0
102
RTVSPost2010PropOp35
 70
     1
102
RTVSPost2010Prop36
280
     0
102
RTVSPost2010PropOp36
 70
     1
102
RTVSPost2010Prop37
 90
       50
102
RTVSPost2010PropOp37
 70
     1
102
RTVSPost2010Prop38
140
0.0
102
RTVSPost2010PropOp38
 70
     1
102
RTVSPost2010Prop39
140
1.0
102
RTVSPost2010PropOp39
 70
     1
102
RTVSPost2010Prop40
 90
        0
102
RTVSPost2010PropOp40
 70
     1
102
RTVSPost2010Prop41ColorIndex
 90
       18
102
RTVSPost2010Prop41ColorRGB
 90
        0
102
RTVSPost2010PropOp41
 70
     1
102
RTVSPost2010Prop42
 90
       50
102
RTVSPost2010PropOp42
 70
     1
102
RTVSPost2010Prop43
 90
        3
102
RTVSPost2010PropOp43
 70
     1
102
RTVSPost2010Prop44ColorIndex
 90
        5
102
RTVSPost2010Prop44ColorRGB
 90
      255
102
RTVSPost2010PropOp44
 70
     1
102
RTVSPost2010Prop45
280
     0
102
RTVSPost2010PropOp45
 70
     1
102
RTVSPost2010Prop46
 90
       50
102
RTVSPost2010PropOp46
 70
     1
102
RTVSPost2010Prop47
 90
       50
102
RTVSPost2010PropOp47
 70
     1
102
RTVSPost2010Prop48
 90
       50
102
RTVSPost2010PropOp48
 70
     1
102
RTVSPost2010Prop49
280
     0
102
RTVSPost2010PropOp49
 70
     1
102
RTVSPost2010Prop50
 90
       50
102
RTVSPost2010PropOp50
 70
     1
102
RTVSPost2010Prop51ColorIndex
 90
      256
102
RTVSPost2010Prop51ColorRGB
 90
-16777216
102
RTVSPost2010PropOp51
 70
     0
102
RTVSPost2010Prop52
140
1.0
102
RTVSPost2010PropOp52
 70
     0
102
RTVSPost2010Prop53
 90
        2
102
RTVSPost2010PropOp53
 70
     1
102
RTVSPost2010Prop54
  1
strokes_ogs.tif
102
RTVSPost2010PropOp54
 70
     1
102
RTVSPost2010Prop55
280
     0
102
RTVSPost2010PropOp55
 70
     1
102
RTVSPost2010Prop56
140
1.0
102
RTVSPost2010PropOp56
 70
     1
102
RTVSPost2010Prop57
140
1.0
102
RTVSPost2010PropOp57
 70
     1
  0
XRECORD
  5
341
102
{ACAD_REACTORS
330
340
102
}
330
340
100
AcDbXrecord
280
     1
102
RTVSPost2010Prop28
280
     0
102
RTVSPost2010PropOp28
 70
     0
102
RTVSPost2010Prop29
280
     1
102
RTVSPost2010PropOp29
 70
     0
102
RTVSPost2010Prop30
280
     1
102
RTVSPost2010PropOp30
 70
     0
102
RTVSPost2010Prop31
280
     0
102
RTVSPost2010PropOp31
 70
     0
102
RTVSPost2010Prop32
280
     0
102
RTVSPost2010PropOp32
 70
     0
102
RTVSPost2010Prop33
280
     0
102
RTVSPost2010PropOp33
 70
     0
102
RTVSPost2010Prop34
280
     0
102
RTVSPost2010PropOp34
 70
     0
102
RTVSPost2010Prop35
280
     0
102
RTVSPost2010PropOp35
 70
     0
102
RTVSPost2010Prop36
280
     0
102
RTVSPost2010PropOp36
 70
     0
102
RTVSPost2010Prop37
 90
       50
102
RTVSPost2010PropOp37
 70
     0
102
RTVSPost2010Prop38
140
0.0
102
RTVSPost2010PropOp38
 70
     0
102
RTVSPost2010Prop39
140
1.0
102
RTVSPost2010PropOp39
 70
     0
102
RTVSPost2010Prop40
 90
        0
102
RTVSPost2010PropOp40
 70
     0
102
RTVSPost2010Prop41ColorIndex
 90
       18
102
RTVSPost2010Prop41ColorRGB
 90
        0
102
RTVSPost2010PropOp41
 70
     0
102
RTVSPost2010Prop42
 90
       50
102
RTVSPost2010PropOp42
 70
     0
102
RTVSPost2010Prop43
 90
        3
102
RTVSPost2010PropOp43
 70
     0
102
RTVSPost2010Prop44ColorIndex
 90
        5
102
RTVSPost2010Prop44ColorRGB
 90
      255
102
RTVSPost2010PropOp44
 70
     0
102
RTVSPost2010Prop45
280
     0
102
RTVSPost2010PropOp45
 70
     0
102
RTVSPost2010Prop46
 90
       50
102
RTVSPost2010PropOp46
 70
     0
102
RTVSPost2010Prop47
 90
       50
102
RTVSPost2010PropOp47
 70
     0
102
RTVSPost2010Prop48
 90
       50
102
RTVSPost2010PropOp48
 70
     0
102
RTVSPost2010Prop49
280
     0
102
RTVSPost2010PropOp49
 70
     0
102
RTVSPost2010Prop50
 90
       50
102
RTVSPost2010PropOp50
 70
     0
102
RTVSPost2010Prop51ColorIndex
 90
      256
102
RTVSPost2010Prop51ColorRGB
 90
-16777216
102
RTVSPost2010PropOp51
 70
     0
102
RTVSPost2010Prop52
140
1.0
102
RTVSPost2010PropOp52
 70
     0
102
RTVSPost2010Prop53
 90
        2
102
RTVSPost2010PropOp53
 70
     0
102
RTVSPost2010Prop54
  1
strokes_ogs.tif
102
RTVSPost2010PropOp54
 70
     0
102
RTVSPost2010Prop55
280
     0
102
RTVSPost2010PropOp55
 70
     0
102
RTVSPost2010Prop56
140
1.0
102
RTVSPost2010PropOp56
 70
     0
102
RTVSPost2010Prop57
140
1.0
102
RTVSPost2010PropOp57
 70
     0
  0
XRECORD
  5
33B
102
{ACAD_REACTORS
330
33A
102
}
330
33A
100
AcDbXrecord
280
     1
102
RTVSPost2010Prop28
280
     0
102
RTVSPost2010PropOp28
 70
     1
102
RTVSPost2010Prop29
280
     1
102
RTVSPost2010PropOp29
 70
     1
102
RTVSPost2010Prop30
280
     1
102
RTVSPost2010PropOp30
 70
     1
102
RTVSPost2010Prop31
280
     0
102
RTVSPost2010PropOp31
 70
     1
102
RTVSPost2010Prop32
280
     0
102
RTVSPost2010PropOp32
 70
     1
102
RTVSPost2010Prop33
280
     0
102
RTVSPost2010PropOp33
 70
     1
102
RTVSPost2010Prop34
280
     0
102
RTVSPost2010PropOp34
 70
     1
102
RTVSPost2010Prop35
280
     0
102
RTVSPost2010PropOp35
 70
     1
102
RTVSPost2010Prop36
280
     0
102
RTVSPost2010PropOp36
 70
     1
102
RTVSPost2010Prop37
 90
       50
102
RTVSPost2010PropOp37
 70
     1
102
RTVSPost2010Prop38
140
0.0
102
RTVSPost2010PropOp38
 70
     1
102
RTVSPost2010Prop39
140
1.0
102
RTVSPost2010PropOp39
 70
     1
102
RTVSPost2010Prop40
 90
        0
102
RTVSPost2010PropOp40
 70
     1
102
RTVSPost2010Prop41ColorIndex
 90
       18
102
RTVSPost2010Prop41ColorRGB
 90
        0
102
RTVSPost2010PropOp41
 70
     1
102
RTVSPost2010Prop42
 90
       50
102
RTVSPost2010PropOp42
 70
     1
102
RTVSPost2010Prop43
 90
        3
102
RTVSPost2010PropOp43
 70
     1
102
RTVSPost2010Prop44ColorIndex
 90
        5
102
RTVSPost2010Prop44ColorRGB
 90
      255
102
RTVSPost2010PropOp44
 70
     1
102
RTVSPost2010Prop45
280
     0
102
RTVSPost2010PropOp45
 70
     1
102
RTVSPost2010Prop46
 90
       50
102
RTVSPost2010PropOp46
 70
     1
102
RTVSPost2010Prop47
 90
       50
102
RTVSPost2010PropOp47
 70
     1
102
RTVSPost2010Prop48
 90
       50
102
RTVSPost2010PropOp48
 70
     1
102
RTVSPost2010Prop49
280
     0
102
RTVSPost2010PropOp49
 70
     1
102
RTVSPost2010Prop50
 90
       50
102
RTVSPost2010PropOp50
 70
     1
102
RTVSPost2010Prop51ColorIndex
 90
      256
102
RTVSPost2010Prop51ColorRGB
 90
-16777216
102
RTVSPost2010PropOp51
 70
     0
102
RTVSPost2010Prop52
140
1.0
102
RTVSPost2010PropOp52
 70
     0
102
RTVSPost2010Prop53
 90
        2
102
RTVSPost2010PropOp53
 70
     1
102
RTVSPost2010Prop54
  1
strokes_ogs.tif
102
RTVSPost2010PropOp54
 70
     1
102
RTVSPost2010Prop55
280
     0
102
RTVSPost2010PropOp55
 70
     1
102
RTVSPost2010Prop56
140
1.0
102
RTVSPost2010PropOp56
 70
     1
102
RTVSPost2010Prop57
140
1.0
102
RTVSPost2010PropOp57
 70
     1
  0
XRECORD
  5
343
102
{ACAD_REACTORS
330
342
102
}
330
342
100
AcDbXrecord
280
     1
102
RTVSPost2010Prop28
280
     0
102
RTVSPost2010PropOp28
 70
     0
102
RTVSPost2010Prop29
280
     1
102
RTVSPost2010PropOp29
 70
     0
102
RTVSPost2010Prop30
280
     1
102
RTVSPost2010PropOp30
 70
     0
102
RTVSPost2010Prop31
280
     0
102
RTVSPost2010PropOp31
 70
     0
102
RTVSPost2010Prop32
280
     0
102
RTVSPost2010PropOp32
 70
     0
102
RTVSPost2010Prop33
280
     0
102
RTVSPost2010PropOp33
 70
     0
102
RTVSPost2010Prop34
280
     0
102
RTVSPost2010PropOp34
 70
     0
102
RTVSPost2010Prop35
280
     0
102
RTVSPost2010PropOp35
 70
     0
102
RTVSPost2010Prop36
280
     0
102
RTVSPost2010PropOp36
 70
     0
102
RTVSPost2010Prop37
 90
       50
102
RTVSPost2010PropOp37
 70
     0
102
RTVSPost2010Prop38
140
0.0
102
RTVSPost2010PropOp38
 70
     0
102
RTVSPost2010Prop39
140
1.0
102
RTVSPost2010PropOp39
 70
     0
102
RTVSPost2010Prop40
 90
        0
102
RTVSPost2010PropOp40
 70
     0
102
RTVSPost2010Prop41ColorIndex
 90
       18
102
RTVSPost2010Prop41ColorRGB
 90
        0
102
RTVSPost2010PropOp41
 70
     0
102
RTVSPost2010Prop42
 90
       50
102
RTVSPost2010PropOp42
 70
     0
102
RTVSPost2010Prop43
 90
        3
102
RTVSPost2010PropOp43
 70
     0
102
RTVSPost2010Prop44ColorIndex
 90
        5
102
RTVSPost2010Prop44ColorRGB
 90
      255
102
RTVSPost2010PropOp44
 70
     0
102
RTVSPost2010Prop45
280
     0
102
RTVSPost2010PropOp45
 70
     0
102
RTVSPost2010Prop46
 90
       50
102
RTVSPost2010PropOp46
 70
     0
102
RTVSPost2010Prop47
 90
       50
102
RTVSPost2010PropOp47
 70
     0
102
RTVSPost2010Prop48
 90
       50
102
RTVSPost2010PropOp48
 70
     0
102
RTVSPost2010Prop49
280
     0
102
RTVSPost2010PropOp49
 70
     0
102
RTVSPost2010Prop50
 90
       50
102
RTVSPost2010PropOp50
 70
     0
102
RTVSPost2010Prop51ColorIndex
 90
      256
102
RTVSPost2010Prop51ColorRGB
 90
-16777216
102
RTVSPost2010PropOp51
 70
     0
102
RTVSPost2010Prop52
140
1.0
102
RTVSPost2010PropOp52
 70
     0
102
RTVSPost2010Prop53
 90
        2
102
RTVSPost2010PropOp53
 70
     0
102
RTVSPost2010Prop54
  1
strokes_ogs.tif
102
RTVSPost2010PropOp54
 70
     0
102
RTVSPost2010Prop55
280
     0
102
RTVSPost2010PropOp55
 70
     0
102
RTVSPost2010Prop56
140
1.0
102
RTVSPost2010PropOp56
 70
     0
102
RTVSPost2010Prop57
140
1.0
102
RTVSPost2010PropOp57
 70
     0
  0
XRECORD
  5
331
102
{ACAD_REACTORS
330
330
102
}
330
330
100
AcDbXrecord
280
     1
102
RTVSPost2010Prop28
280
     0
102
RTVSPost2010PropOp28
 70
     1
102
RTVSPost2010Prop29
280
     1
102
RTVSPost2010PropOp29
 70
     1
102
RTVSPost2010Prop30
280
     1
102
RTVSPost2010PropOp30
 70
     1
102
RTVSPost2010Prop31
280
     0
102
RTVSPost2010PropOp31
 70
     1
102
RTVSPost2010Prop32
280
     0
102
RTVSPost2010PropOp32
 70
     1
102
RTVSPost2010Prop33
280
     0
102
RTVSPost2010PropOp33
 70
     1
102
RTVSPost2010Prop34
280
     0
102
RTVSPost2010PropOp34
 70
     1
102
RTVSPost2010Prop35
280
     0
102
RTVSPost2010PropOp35
 70
     1
102
RTVSPost2010Prop36
280
     0
102
RTVSPost2010PropOp36
 70
     1
102
RTVSPost2010Prop37
 90
       50
102
RTVSPost2010PropOp37
 70
     1
102
RTVSPost2010Prop38
140
0.0
102
RTVSPost2010PropOp38
 70
     1
102
RTVSPost2010Prop39
140
1.0
102
RTVSPost2010PropOp39
 70
     1
102
RTVSPost2010Prop40
 90
        0
102
RTVSPost2010PropOp40
 70
     1
102
RTVSPost2010Prop41ColorIndex
 90
       18
102
RTVSPost2010Prop41ColorRGB
 90
        0
102
RTVSPost2010PropOp41
 70
     1
102
RTVSPost2010Prop42
 90
       50
102
RTVSPost2010PropOp42
 70
     1
102
RTVSPost2010Prop43
 90
        3
102
RTVSPost2010PropOp43
 70
     1
102
RTVSPost2010Prop44ColorIndex
 90
        5
102
RTVSPost2010Prop44ColorRGB
 90
      255
102
RTVSPost2010PropOp44
 70
     1
102
RTVSPost2010Prop45
280
     0
102
RTVSPost2010PropOp45
 70
     1
102
RTVSPost2010Prop46
 90
       50
102
RTVSPost2010PropOp46
 70
     1
102
RTVSPost2010Prop47
 90
       50
102
RTVSPost2010PropOp47
 70
     1
102
RTVSPost2010Prop48
 90
       50
102
RTVSPost2010PropOp48
 70
     1
102
RTVSPost2010Prop49
280
     0
102
RTVSPost2010PropOp49
 70
     1
102
RTVSPost2010Prop50
 90
       50
102
RTVSPost2010PropOp50
 70
     1
102
RTVSPost2010Prop51ColorIndex
 90
      256
102
RTVSPost2010Prop51ColorRGB
 90
-16777216
102
RTVSPost2010PropOp51
 70
     0
102
RTVSPost2010Prop52
140
1.0
102
RTVSPost2010PropOp52
 70
     0
102
RTVSPost2010Prop53
 90
        2
102
RTVSPost2010PropOp53
 70
     1
102
RTVSPost2010Prop54
  1
strokes_ogs.tif
102
RTVSPost2010PropOp54
 70
     1
102
RTVSPost2010Prop55
280
     0
102
RTVSPost2010PropOp55
 70
     1
102
RTVSPost2010Prop56
140
1.0
102
RTVSPost2010PropOp56
 70
     1
102
RTVSPost2010Prop57
140
1.0
102
RTVSPost2010PropOp57
 70
     1
  0
XRECORD
  5
34F
102
{ACAD_REACTORS
330
34E
102
}
330
34E
100
AcDbXrecord
280
     1
102
RTVSPost2010Prop28
280
     0
102
RTVSPost2010PropOp28
 70
     1
102
RTVSPost2010Prop29
280
     1
102
RTVSPost2010PropOp29
 70
     1
102
RTVSPost2010Prop30
280
     1
102
RTVSPost2010PropOp30
 70
     1
102
RTVSPost2010Prop31
280
     0
102
RTVSPost2010PropOp31
 70
     1
102
RTVSPost2010Prop32
280
     0
102
RTVSPost2010PropOp32
 70
     1
102
RTVSPost2010Prop33
280
     0
102
RTVSPost2010PropOp33
 70
     1
102
RTVSPost2010Prop34
280
     0
102
RTVSPost2010PropOp34
 70
     1
102
RTVSPost2010Prop35
280
     0
102
RTVSPost2010PropOp35
 70
     1
102
RTVSPost2010Prop36
280
     0
102
RTVSPost2010PropOp36
 70
     1
102
RTVSPost2010Prop37
 90
       50
102
RTVSPost2010PropOp37
 70
     1
102
RTVSPost2010Prop38
140
0.0
102
RTVSPost2010PropOp38
 70
     1
102
RTVSPost2010Prop39
140
1.0
102
RTVSPost2010PropOp39
 70
     1
102
RTVSPost2010Prop40
 90
        0
102
RTVSPost2010PropOp40
 70
     1
102
RTVSPost2010Prop41ColorIndex
 90
       18
102
RTVSPost2010Prop41ColorRGB
 90
        0
102
RTVSPost2010PropOp41
 70
     1
102
RTVSPost2010Prop42
 90
       50
102
RTVSPost2010PropOp42
 70
     1
102
RTVSPost2010Prop43
 90
        3
102
RTVSPost2010PropOp43
 70
     1
102
RTVSPost2010Prop44ColorIndex
 90
        5
102
RTVSPost2010Prop44ColorRGB
 90
      255
102
RTVSPost2010PropOp44
 70
     1
102
RTVSPost2010Prop45
280
     0
102
RTVSPost2010PropOp45
 70
     1
102
RTVSPost2010Prop46
 90
       50
102
RTVSPost2010PropOp46
 70
     1
102
RTVSPost2010Prop47
 90
       50
102
RTVSPost2010PropOp47
 70
     1
102
RTVSPost2010Prop48
 90
       50
102
RTVSPost2010PropOp48
 70
     1
102
RTVSPost2010Prop49
280
     0
102
RTVSPost2010PropOp49
 70
     1
102
RTVSPost2010Prop50
 90
       50
102
RTVSPost2010PropOp50
 70
     1
102
RTVSPost2010Prop51ColorIndex
 90
      256
102
RTVSPost2010Prop51ColorRGB
 90
-16777216
102
RTVSPost2010PropOp51
 70
     0
102
RTVSPost2010Prop52
140
1.0
102
RTVSPost2010PropOp52
 70
     0
102
RTVSPost2010Prop53
 90
        2
102
RTVSPost2010PropOp53
 70
     1
102
RTVSPost2010Prop54
  1
strokes_ogs.tif
102
RTVSPost2010PropOp54
 70
     1
102
RTVSPost2010Prop55
280
     0
102
RTVSPost2010PropOp55
 70
     1
102
RTVSPost2010Prop56
140
1.0
102
RTVSPost2010PropOp56
 70
     1
102
RTVSPost2010Prop57
140
1.0
102
RTVSPost2010PropOp57
 70
     1
  0
XRECORD
  5
34D
102
{ACAD_REACTORS
330
34C
102
}
330
34C
100
AcDbXrecord
280
     1
102
RTVSPost2010Prop28
280
     0
102
RTVSPost2010PropOp28
 70
     1
102
RTVSPost2010Prop29
280
     1
102
RTVSPost2010PropOp29
 70
     1
102
RTVSPost2010Prop30
280
     1
102
RTVSPost2010PropOp30
 70
     1
102
RTVSPost2010Prop31
280
     0
102
RTVSPost2010PropOp31
 70
     1
102
RTVSPost2010Prop32
280
     0
102
RTVSPost2010PropOp32
 70
     1
102
RTVSPost2010Prop33
280
     0
102
RTVSPost2010PropOp33
 70
     1
102
RTVSPost2010Prop34
280
     0
102
RTVSPost2010PropOp34
 70
     1
102
RTVSPost2010Prop35
280
     0
102
RTVSPost2010PropOp35
 70
     1
102
RTVSPost2010Prop36
280
     0
102
RTVSPost2010PropOp36
 70
     1
102
RTVSPost2010Prop37
 90
       50
102
RTVSPost2010PropOp37
 70
     1
102
RTVSPost2010Prop38
140
0.0
102
RTVSPost2010PropOp38
 70
     1
102
RTVSPost2010Prop39
140
1.0
102
RTVSPost2010PropOp39
 70
     1
102
RTVSPost2010Prop40
 90
        0
102
RTVSPost2010PropOp40
 70
     1
102
RTVSPost2010Prop41ColorIndex
 90
       18
102
RTVSPost2010Prop41ColorRGB
 90
        0
102
RTVSPost2010PropOp41
 70
     1
102
RTVSPost2010Prop42
 90
       50
102
RTVSPost2010PropOp42
 70
     1
102
RTVSPost2010Prop43
 90
        3
102
RTVSPost2010PropOp43
 70
     1
102
RTVSPost2010Prop44ColorIndex
 90
        5
102
RTVSPost2010Prop44ColorRGB
 90
      255
102
RTVSPost2010PropOp44
 70
     1
102
RTVSPost2010Prop45
280
     0
102
RTVSPost2010PropOp45
 70
     1
102
RTVSPost2010Prop46
 90
       50
102
RTVSPost2010PropOp46
 70
     1
102
RTVSPost2010Prop47
 90
       50
102
RTVSPost2010PropOp47
 70
     1
102
RTVSPost2010Prop48
 90
       50
102
RTVSPost2010PropOp48
 70
     1
102
RTVSPost2010Prop49
280
     0
102
RTVSPost2010PropOp49
 70
     1
102
RTVSPost2010Prop50
 90
       50
102
RTVSPost2010PropOp50
 70
     1
102
RTVSPost2010Prop51ColorIndex
 90
      256
102
RTVSPost2010Prop51ColorRGB
 90
-16777216
102
RTVSPost2010PropOp51
 70
     0
102
RTVSPost2010Prop52
140
1.0
102
RTVSPost2010PropOp52
 70
     0
102
RTVSPost2010Prop53
 90
        2
102
RTVSPost2010PropOp53
 70
     1
102
RTVSPost2010Prop54
  1
strokes_ogs.tif
102
RTVSPost2010PropOp54
 70
     1
102
RTVSPost2010Prop55
280
     0
102
RTVSPost2010PropOp55
 70
     1
102
RTVSPost2010Prop56
140
1.0
102
RTVSPost2010PropOp56
 70
     1
102
RTVSPost2010Prop57
140
1.0
102
RTVSPost2010PropOp57
 70
     1
  0
XRECORD
  5
347
102
{ACAD_REACTORS
330
346
102
}
330
346
100
AcDbXrecord
280
     1
102
RTVSPost2010Prop28
280
     0
102
RTVSPost2010PropOp28
 70
     1
102
RTVSPost2010Prop29
280
     1
102
RTVSPost2010PropOp29
 70
     1
102
RTVSPost2010Prop30
280
     1
102
RTVSPost2010PropOp30
 70
     1
102
RTVSPost2010Prop31
280
     0
102
RTVSPost2010PropOp31
 70
     1
102
RTVSPost2010Prop32
280
     0
102
RTVSPost2010PropOp32
 70
     1
102
RTVSPost2010Prop33
280
     0
102
RTVSPost2010PropOp33
 70
     1
102
RTVSPost2010Prop34
280
     0
102
RTVSPost2010PropOp34
 70
     1
102
RTVSPost2010Prop35
280
     0
102
RTVSPost2010PropOp35
 70
     1
102
RTVSPost2010Prop36
280
     0
102
RTVSPost2010PropOp36
 70
     1
102
RTVSPost2010Prop37
 90
       50
102
RTVSPost2010PropOp37
 70
     1
102
RTVSPost2010Prop38
140
0.0
102
RTVSPost2010PropOp38
 70
     1
102
RTVSPost2010Prop39
140
1.0
102
RTVSPost2010PropOp39
 70
     1
102
RTVSPost2010Prop40
 90
        0
102
RTVSPost2010PropOp40
 70
     1
102
RTVSPost2010Prop41ColorIndex
 90
       18
102
RTVSPost2010Prop41ColorRGB
 90
        0
102
RTVSPost2010PropOp41
 70
     1
102
RTVSPost2010Prop42
 90
       50
102
RTVSPost2010PropOp42
 70
     1
102
RTVSPost2010Prop43
 90
        3
102
RTVSPost2010PropOp43
 70
     1
102
RTVSPost2010Prop44ColorIndex
 90
        5
102
RTVSPost2010Prop44ColorRGB
 90
      255
102
RTVSPost2010PropOp44
 70
     1
102
RTVSPost2010Prop45
280
     0
102
RTVSPost2010PropOp45
 70
     1
102
RTVSPost2010Prop46
 90
       50
102
RTVSPost2010PropOp46
 70
     1
102
RTVSPost2010Prop47
 90
       50
102
RTVSPost2010PropOp47
 70
     1
102
RTVSPost2010Prop48
 90
       50
102
RTVSPost2010PropOp48
 70
     1
102
RTVSPost2010Prop49
280
     0
102
RTVSPost2010PropOp49
 70
     1
102
RTVSPost2010Prop50
 90
       50
102
RTVSPost2010PropOp50
 70
     1
102
RTVSPost2010Prop51ColorIndex
 90
      256
102
RTVSPost2010Prop51ColorRGB
 90
-16777216
102
RTVSPost2010PropOp51
 70
     0
102
RTVSPost2010Prop52
140
1.0
102
RTVSPost2010PropOp52
 70
     0
102
RTVSPost2010Prop53
 90
        2
102
RTVSPost2010PropOp53
 70
     1
102
RTVSPost2010Prop54
  1
strokes_ogs.tif
102
RTVSPost2010PropOp54
 70
     1
102
RTVSPost2010Prop55
280
     0
102
RTVSPost2010PropOp55
 70
     1
102
RTVSPost2010Prop56
140
1.0
102
RTVSPost2010PropOp56
 70
     1
102
RTVSPost2010Prop57
140
1.0
102
RTVSPost2010PropOp57
 70
     1
  0
XRECORD
  5
349
102
{ACAD_REACTORS
330
348
102
}
330
348
100
AcDbXrecord
280
     1
102
RTVSPost2010Prop28
280
     0
102
RTVSPost2010PropOp28
 70
     1
102
RTVSPost2010Prop29
280
     1
102
RTVSPost2010PropOp29
 70
     1
102
RTVSPost2010Prop30
280
     1
102
RTVSPost2010PropOp30
 70
     1
102
RTVSPost2010Prop31
280
     0
102
RTVSPost2010PropOp31
 70
     1
102
RTVSPost2010Prop32
280
     0
102
RTVSPost2010PropOp32
 70
     1
102
RTVSPost2010Prop33
280
     0
102
RTVSPost2010PropOp33
 70
     1
102
RTVSPost2010Prop34
280
     0
102
RTVSPost2010PropOp34
 70
     1
102
RTVSPost2010Prop35
280
     0
102
RTVSPost2010PropOp35
 70
     1
102
RTVSPost2010Prop36
280
     0
102
RTVSPost2010PropOp36
 70
     1
102
RTVSPost2010Prop37
 90
       50
102
RTVSPost2010PropOp37
 70
     1
102
RTVSPost2010Prop38
140
0.0
102
RTVSPost2010PropOp38
 70
     1
102
RTVSPost2010Prop39
140
1.0
102
RTVSPost2010PropOp39
 70
     1
102
RTVSPost2010Prop40
 90
        0
102
RTVSPost2010PropOp40
 70
     1
102
RTVSPost2010Prop41ColorIndex
 90
       18
102
RTVSPost2010Prop41ColorRGB
 90
        0
102
RTVSPost2010PropOp41
 70
     1
102
RTVSPost2010Prop42
 90
       50
102
RTVSPost2010PropOp42
 70
     1
102
RTVSPost2010Prop43
 90
        3
102
RTVSPost2010PropOp43
 70
     1
102
RTVSPost2010Prop44ColorIndex
 90
        5
102
RTVSPost2010Prop44ColorRGB
 90
      255
102
RTVSPost2010PropOp44
 70
     1
102
RTVSPost2010Prop45
280
     0
102
RTVSPost2010PropOp45
 70
     1
102
RTVSPost2010Prop46
 90
       50
102
RTVSPost2010PropOp46
 70
     1
102
RTVSPost2010Prop47
 90
       50
102
RTVSPost2010PropOp47
 70
     1
102
RTVSPost2010Prop48
 90
       50
102
RTVSPost2010PropOp48
 70
     1
102
RTVSPost2010Prop49
280
     0
102
RTVSPost2010PropOp49
 70
     1
102
RTVSPost2010Prop50
 90
       50
102
RTVSPost2010PropOp50
 70
     1
102
RTVSPost2010Prop51ColorIndex
 90
      256
102
RTVSPost2010Prop51ColorRGB
 90
-16777216
102
RTVSPost2010PropOp51
 70
     0
102
RTVSPost2010Prop52
140
1.0
102
RTVSPost2010PropOp52
 70
     0
102
RTVSPost2010Prop53
 90
        2
102
RTVSPost2010PropOp53
 70
     1
102
RTVSPost2010Prop54
  1
strokes_ogs.tif
102
RTVSPost2010PropOp54
 70
     1
102
RTVSPost2010Prop55
280
     0
102
RTVSPost2010PropOp55
 70
     1
102
RTVSPost2010Prop56
140
1.0
102
RTVSPost2010PropOp56
 70
     1
102
RTVSPost2010Prop57
140
1.0
102
RTVSPost2010PropOp57
 70
     1
  0
XRECORD
  5
339
102
{ACAD_REACTORS
330
338
102
}
330
338
100
AcDbXrecord
280
     1
102
RTVSPost2010Prop28
280
     0
102
RTVSPost2010PropOp28
 70
     1
102
RTVSPost2010Prop29
280
     1
102
RTVSPost2010PropOp29
 70
     1
102
RTVSPost2010Prop30
280
     1
102
RTVSPost2010PropOp30
 70
     1
102
RTVSPost2010Prop31
280
     0
102
RTVSPost2010PropOp31
 70
     1
102
RTVSPost2010Prop32
280
     0
102
RTVSPost2010PropOp32
 70
     1
102
RTVSPost2010Prop33
280
     0
102
RTVSPost2010PropOp33
 70
     1
102
RTVSPost2010Prop34
280
     0
102
RTVSPost2010PropOp34
 70
     1
102
RTVSPost2010Prop35
280
     0
102
RTVSPost2010PropOp35
 70
     1
102
RTVSPost2010Prop36
280
     0
102
RTVSPost2010PropOp36
 70
     1
102
RTVSPost2010Prop37
 90
       50
102
RTVSPost2010PropOp37
 70
     1
102
RTVSPost2010Prop38
140
0.0
102
RTVSPost2010PropOp38
 70
     1
102
RTVSPost2010Prop39
140
1.0
102
RTVSPost2010PropOp39
 70
     1
102
RTVSPost2010Prop40
 90
        0
102
RTVSPost2010PropOp40
 70
     1
102
RTVSPost2010Prop41ColorIndex
 90
       18
102
RTVSPost2010Prop41ColorRGB
 90
        0
102
RTVSPost2010PropOp41
 70
     1
102
RTVSPost2010Prop42
 90
       50
102
RTVSPost2010PropOp42
 70
     1
102
RTVSPost2010Prop43
 90
        3
102
RTVSPost2010PropOp43
 70
     1
102
RTVSPost2010Prop44ColorIndex
 90
        5
102
RTVSPost2010Prop44ColorRGB
 90
      255
102
RTVSPost2010PropOp44
 70
     1
102
RTVSPost2010Prop45
280
     0
102
RTVSPost2010PropOp45
 70
     1
102
RTVSPost2010Prop46
 90
       50
102
RTVSPost2010PropOp46
 70
     1
102
RTVSPost2010Prop47
 90
       50
102
RTVSPost2010PropOp47
 70
     1
102
RTVSPost2010Prop48
 90
       50
102
RTVSPost2010PropOp48
 70
     1
102
RTVSPost2010Prop49
280
     0
102
RTVSPost2010PropOp49
 70
     1
102
RTVSPost2010Prop50
 90
       50
102
RTVSPost2010PropOp50
 70
     1
102
RTVSPost2010Prop51ColorIndex
 90
      256
102
RTVSPost2010Prop51ColorRGB
 90
-16777216
102
RTVSPost2010PropOp51
 70
     0
102
RTVSPost2010Prop52
140
1.0
102
RTVSPost2010PropOp52
 70
     0
102
RTVSPost2010Prop53
 90
        2
102
RTVSPost2010PropOp53
 70
     1
102
RTVSPost2010Prop54
  1
strokes_ogs.tif
102
RTVSPost2010PropOp54
 70
     1
102
RTVSPost2010Prop55
280
     0
102
RTVSPost2010PropOp55
 70
     1
102
RTVSPost2010Prop56
140
1.0
102
RTVSPost2010PropOp56
 70
     1
102
RTVSPost2010Prop57
140
1.0
102
RTVSPost2010PropOp57
 70
     1
  0
XRECORD
  5
32B
102
{ACAD_REACTORS
330
32A
102
}
330
32A
100
AcDbXrecord
280
     1
102
RTVSPost2010Prop28
280
     0
102
RTVSPost2010PropOp28
 70
     1
102
RTVSPost2010Prop29
280
     1
102
RTVSPost2010PropOp29
 70
     1
102
RTVSPost2010Prop30
280
     1
102
RTVSPost2010PropOp30
 70
     1
102
RTVSPost2010Prop31
280
     0
102
RTVSPost2010PropOp31
 70
     1
102
RTVSPost2010Prop32
280
     0
102
RTVSPost2010PropOp32
 70
     1
102
RTVSPost2010Prop33
280
     0
102
RTVSPost2010PropOp33
 70
     1
102
RTVSPost2010Prop34
280
     0
102
RTVSPost2010PropOp34
 70
     1
102
RTVSPost2010Prop35
280
     0
102
RTVSPost2010PropOp35
 70
     1
102
RTVSPost2010Prop36
280
     0
102
RTVSPost2010PropOp36
 70
     1
102
RTVSPost2010Prop37
 90
       50
102
RTVSPost2010PropOp37
 70
     1
102
RTVSPost2010Prop38
140
0.0
102
RTVSPost2010PropOp38
 70
     1
102
RTVSPost2010Prop39
140
1.0
102
RTVSPost2010PropOp39
 70
     1
102
RTVSPost2010Prop40
 90
        0
102
RTVSPost2010PropOp40
 70
     1
102
RTVSPost2010Prop41ColorIndex
 90
       18
102
RTVSPost2010Prop41ColorRGB
 90
        0
102
RTVSPost2010PropOp41
 70
     1
102
RTVSPost2010Prop42
 90
       50
102
RTVSPost2010PropOp42
 70
     1
102
RTVSPost2010Prop43
 90
        3
102
RTVSPost2010PropOp43
 70
     1
102
RTVSPost2010Prop44ColorIndex
 90
        5
102
RTVSPost2010Prop44ColorRGB
 90
      255
102
RTVSPost2010PropOp44
 70
     1
102
RTVSPost2010Prop45
280
     0
102
RTVSPost2010PropOp45
 70
     1
102
RTVSPost2010Prop46
 90
       50
102
RTVSPost2010PropOp46
 70
     1
102
RTVSPost2010Prop47
 90
       50
102
RTVSPost2010PropOp47
 70
     1
102
RTVSPost2010Prop48
 90
       50
102
RTVSPost2010PropOp48
 70
     1
102
RTVSPost2010Prop49
280
     0
102
RTVSPost2010PropOp49
 70
     1
102
RTVSPost2010Prop50
 90
       50
102
RTVSPost2010PropOp50
 70
     1
102
RTVSPost2010Prop51ColorIndex
 90
      256
102
RTVSPost2010Prop51ColorRGB
 90
-16777216
102
RTVSPost2010PropOp51
 70
     0
102
RTVSPost2010Prop52
140
1.0
102
RTVSPost2010PropOp52
 70
     0
102
RTVSPost2010Prop53
 90
        2
102
RTVSPost2010PropOp53
 70
     1
102
RTVSPost2010Prop54
  1
strokes_ogs.tif
102
RTVSPost2010PropOp54
 70
     1
102
RTVSPost2010Prop55
280
     0
102
RTVSPost2010PropOp55
 70
     1
102
RTVSPost2010Prop56
140
1.0
102
RTVSPost2010PropOp56
 70
     1
102
RTVSPost2010Prop57
140
1.0
102
RTVSPost2010PropOp57
 70
     1
  0
XRECORD
  5
34B
102
{ACAD_REACTORS
330
34A
102
}
330
34A
100
AcDbXrecord
280
     1
102
RTVSPost2010Prop28
280
     0
102
RTVSPost2010PropOp28
 70
     1
102
RTVSPost2010Prop29
280
     1
102
RTVSPost2010PropOp29
 70
     1
102
RTVSPost2010Prop30
280
     1
102
RTVSPost2010PropOp30
 70
     1
102
RTVSPost2010Prop31
280
     0
102
RTVSPost2010PropOp31
 70
     1
102
RTVSPost2010Prop32
280
     0
102
RTVSPost2010PropOp32
 70
     1
102
RTVSPost2010Prop33
280
     0
102
RTVSPost2010PropOp33
 70
     1
102
RTVSPost2010Prop34
280
     0
102
RTVSPost2010PropOp34
 70
     1
102
RTVSPost2010Prop35
280
     0
102
RTVSPost2010PropOp35
 70
     1
102
RTVSPost2010Prop36
280
     0
102
RTVSPost2010PropOp36
 70
     1
102
RTVSPost2010Prop37
 90
       50
102
RTVSPost2010PropOp37
 70
     1
102
RTVSPost2010Prop38
140
0.0
102
RTVSPost2010PropOp38
 70
     1
102
RTVSPost2010Prop39
140
1.0
102
RTVSPost2010PropOp39
 70
     1
102
RTVSPost2010Prop40
 90
        0
102
RTVSPost2010PropOp40
 70
     1
102
RTVSPost2010Prop41ColorIndex
 90
       18
102
RTVSPost2010Prop41ColorRGB
 90
        0
102
RTVSPost2010PropOp41
 70
     1
102
RTVSPost2010Prop42
 90
       50
102
RTVSPost2010PropOp42
 70
     1
102
RTVSPost2010Prop43
 90
        3
102
RTVSPost2010PropOp43
 70
     1
102
RTVSPost2010Prop44ColorIndex
 90
        5
102
RTVSPost2010Prop44ColorRGB
 90
      255
102
RTVSPost2010PropOp44
 70
     1
102
RTVSPost2010Prop45
280
     0
102
RTVSPost2010PropOp45
 70
     1
102
RTVSPost2010Prop46
 90
       50
102
RTVSPost2010PropOp46
 70
     1
102
RTVSPost2010Prop47
 90
       50
102
RTVSPost2010PropOp47
 70
     1
102
RTVSPost2010Prop48
 90
       50
102
RTVSPost2010PropOp48
 70
     1
102
RTVSPost2010Prop49
280
     0
102
RTVSPost2010PropOp49
 70
     1
102
RTVSPost2010Prop50
 90
       50
102
RTVSPost2010PropOp50
 70
     1
102
RTVSPost2010Prop51ColorIndex
 90
      256
102
RTVSPost2010Prop51ColorRGB
 90
-16777216
102
RTVSPost2010PropOp51
 70
     0
102
RTVSPost2010Prop52
140
1.0
102
RTVSPost2010PropOp52
 70
     0
102
RTVSPost2010Prop53
 90
        2
102
RTVSPost2010PropOp53
 70
     1
102
RTVSPost2010Prop54
  1
strokes_ogs.tif
102
RTVSPost2010PropOp54
 70
     1
102
RTVSPost2010Prop55
280
     0
102
RTVSPost2010PropOp55
 70
     1
102
RTVSPost2010Prop56
140
1.0
102
RTVSPost2010PropOp56
 70
     1
102
RTVSPost2010Prop57
140
1.0
102
RTVSPost2010PropOp57
 70
     1
  0
ENDSEC
  0
EOF
