  0
SECTION
  2
HEADER
  9
$ACADVER
  1
AC1015
  9
$ACADMAINTVER
 70
     6
  9
$DWGCODEPAGE
  3
ANSI_1252
  9
$INSBASE
 10
0.0
 20
0.0
 30
0.0
  9
$EXTMIN
 10
-66.044418
 20
66.810387
 30
0.0
  9
$EXTMAX
 10
439.813293
 20
595.085388
 30
0.0
  9
$LIMMIN
 10
-66.044418
 20
66.810387
  9
$LIMMAX
 10
439.813293
 20
595.085388
  9
$ORTHOMODE
 70
     0
  9
$REGENMODE
 70
     1
  9
$FILLMODE
 70
     1
  9
$QTEXTMODE
 70
     0
  9
$MIRRTEXT
 70
     1
  9
$LTSCALE
 40
1.0
  9
$ATTMODE
 70
     1
  9
$TEXTSIZE
 40
2.5
  9
$TRACEWID
 40
1.0
  9
$TEXTSTYLE
  7
Standard
  9
$CLAYER
  8
0
  9
$CELTYPE
  6
ByLayer
  9
$CECOLOR
 62
   256
  9
$CELTSCALE
 40
1.0
  9
$DISPSILH
 70
     0
  9
$DIMSCALE
 40
1.0
  9
$DIMASZ
 40
2.5
  9
$DIMEXO
 40
0.625
  9
$DIMDLI
 40
3.75
  9
$DIMRND
 40
0.0
  9
$DIMDLE
 40
0.0
  9
$DIMEXE
 40
1.25
  9
$DIMTP
 40
0.0
  9
$DIMTM
 40
0.0
  9
$DIMTXT
 40
2.5
  9
$DIMCEN
 40
2.5
  9
$DIMTSZ
 40
0.0
  9
$DIMTOL
 70
     0
  9
$DIMLIM
 70
     0
  9
$DIMTIH
 70
     0
  9
$DIMTOH
 70
     0
  9
$DIMSE1
 70
     0
  9
$DIMSE2
 70
     0
  9
$DIMTAD
 70
     1
  9
$DIMZIN
 70
     8
  9
$DIMBLK
  1

  9
$DIMASO
 70
     1
  9
$DIMSHO
 70
     1
  9
$DIMPOST
  1

  9
$DIMAPOST
  1

  9
$DIMALT
 70
     0
  9
$DIMALTD
 70
     3
  9
$DIMALTF
 40
0.03937
  9
$DIMLFAC
 40
1.0
  9
$DIMTOFL
 70
     1
  9
$DIMTVP
 40
0.0
  9
$DIMTIX
 70
     0
  9
$DIMSOXD
 70
     0
  9
$DIMSAH
 70
     0
  9
$DIMBLK1
  1

  9
$DIMBLK2
  1

  9
$DIMSTYLE
  2
ISO-25
  9
$DIMCLRD
 70
     0
  9
$DIMCLRE
 70
     0
  9
$DIMCLRT
 70
     0
  9
$DIMTFAC
 40
1.0
  9
$DIMGAP
 40
0.625
  9
$DIMJUST
 70
     0
  9
$DIMSD1
 70
     0
  9
$DIMSD2
 70
     0
  9
$DIMTOLJ
 70
     0
  9
$DIMTZIN
 70
     8
  9
$DIMALTZ
 70
     0
  9
$DIMALTTZ
 70
     0
  9
$DIMUPT
 70
     0
  9
$DIMDEC
 70
     2
  9
$DIMTDEC
 70
     2
  9
$DIMALTU
 70
     2
  9
$DIMALTTD
 70
     3
  9
$DIMTXSTY
  7
Standard
  9
$DIMAUNIT
 70
     0
  9
$DIMADEC
 70
     0
  9
$DIMALTRND
 40
0.0
  9
$DIMAZIN
 70
     0
  9
$DIMDSEP
 70
    44
  9
$DIMATFIT
 70
     3
  9
$DIMFRAC
 70
     0
  9
$DIMLDRBLK
  1

  9
$DIMLUNIT
 70
     2
  9
$DIMLWD
 70
    -2
  9
$DIMLWE
 70
    -2
  9
$DIMTMOVE
 70
     0
  9
$LUNITS
 70
     2
  9
$LUPREC
 70
     4
  9
$SKETCHINC
 40
1.0
  9
$FILLETRAD
 40
10.0
  9
$AUNITS
 70
     0
  9
$AUPREC
 70
     0
  9
$MENU
  1
.
  9
$ELEVATION
 40
0.0
  9
$PELEVATION
 40
0.0
  9
$THICKNESS
 40
0.0
  9
$LIMCHECK
 70
     0
  9
$CHAMFERA
 40
0.0
  9
$CHAMFERB
 40
0.0
  9
$CHAMFERC
 40
0.0
  9
$CHAMFERD
 40
0.0
  9
$SKPOLY
 70
     0
  9
$TDCREATE
 40
2459488.469086713
  9
$TDUCREATE
 40
2459488.38575338
  9
$TDUPDATE
 40
2459488.46908706
  9
$TDUUPDATE
 40
2459488.385753727
  9
$TDINDWG
 40
0.0000000116
  9
$TDUSRTIMER
 40
0.0000000116
  9
$USRTIMER
 70
     1
  9
$ANGBASE
 50
0.0
  9
$ANGDIR
 70
     0
  9
$PDMODE
 70
     0
  9
$PDSIZE
 40
0.0
  9
$PLINEWID
 40
0.0
  9
$SPLFRAME
 70
     0
  9
$SPLINETYPE
 70
     6
  9
$SPLINESEGS
 70
     8
  9
$HANDSEED
  5
119
  9
$SURFTAB1
 70
     6
  9
$SURFTAB2
 70
     6
  9
$SURFTYPE
 70
     6
  9
$SURFU
 70
     6
  9
$SURFV
 70
     6
  9
$UCSBASE
  2

  9
$UCSNAME
  2

  9
$UCSORG
 10
0.0
 20
0.0
 30
0.0
  9
$UCSXDIR
 10
1.0
 20
0.0
 30
0.0
  9
$UCSYDIR
 10
0.0
 20
1.0
 30
0.0
  9
$UCSORTHOREF
  2

  9
$UCSORTHOVIEW
 70
     0
  9
$UCSORGTOP
 10
0.0
 20
0.0
 30
0.0
  9
$UCSORGBOTTOM
 10
0.0
 20
0.0
 30
0.0
  9
$UCSORGLEFT
 10
0.0
 20
0.0
 30
0.0
  9
$UCSORGRIGHT
 10
0.0
 20
0.0
 30
0.0
  9
$UCSORGFRONT
 10
0.0
 20
0.0
 30
0.0
  9
$UCSORGBACK
 10
0.0
 20
0.0
 30
0.0
  9
$PUCSBASE
  2

  9
$PUCSNAME
  2

  9
$PUCSORG
 10
0.0
 20
0.0
 30
0.0
  9
$PUCSXDIR
 10
1.0
 20
0.0
 30
0.0
  9
$PUCSYDIR
 10
0.0
 20
1.0
 30
0.0
  9
$PUCSORTHOREF
  2

  9
$PUCSORTHOVIEW
 70
     0
  9
$PUCSORGTOP
 10
0.0
 20
0.0
 30
0.0
  9
$PUCSORGBOTTOM
 10
0.0
 20
0.0
 30
0.0
  9
$PUCSORGLEFT
 10
0.0
 20
0.0
 30
0.0
  9
$PUCSORGRIGHT
 10
0.0
 20
0.0
 30
0.0
  9
$PUCSORGFRONT
 10
0.0
 20
0.0
 30
0.0
  9
$PUCSORGBACK
 10
0.0
 20
0.0
 30
0.0
  9
$USERI1
 70
     0
  9
$USERI2
 70
     0
  9
$USERI3
 70
     0
  9
$USERI4
 70
     0
  9
$USERI5
 70
     0
  9
$USERR1
 40
0.0
  9
$USERR2
 40
0.0
  9
$USERR3
 40
0.0
  9
$USERR4
 40
0.0
  9
$USERR5
 40
0.0
  9
$WORLDVIEW
 70
     1
  9
$SHADEDGE
 70
     3
  9
$SHADEDIF
 70
    70
  9
$TILEMODE
 70
     1
  9
$MAXACTVP
 70
    64
  9
$PINSBASE
 10
0.0
 20
0.0
 30
0.0
  9
$PLIMCHECK
 70
     0
  9
$PEXTMIN
 10
1.000000E+20
 20
1.000000E+20
 30
1.000000E+20
  9
$PEXTMAX
 10
-1.000000E+20
 20
-1.000000E+20
 30
-1.000000E+20
  9
$PLIMMIN
 10
0.0
 20
0.0
  9
$PLIMMAX
 10
420.0
 20
297.0
  9
$UNITMODE
 70
     0
  9
$VISRETAIN
 70
     1
  9
$PLINEGEN
 70
     0
  9
$PSLTSCALE
 70
     1
  9
$TREEDEPTH
 70
  3020
  9
$CMLSTYLE
  2
Standard
  9
$CMLJUST
 70
     0
  9
$CMLSCALE
 40
20.0
  9
$PROXYGRAPHICS
 70
     1
  9
$MEASUREMENT
 70
     1
  9
$CELWEIGHT
370
    -1
  9
$ENDCAPS
280
     0
  9
$JOINSTYLE
280
     0
  9
$LWDISPLAY
290
     0
  9
$INSUNITS
 70
     4
  9
$HYPERLINKBASE
  1

  9
$STYLESHEET
  1

  9
$XEDIT
290
     1
  9
$CEPSNTYPE
380
     0
  9
$PSTYLEMODE
290
     1
  9
$FINGERPRINTGUID
  2
{d51122eb-4dd5-4f7e-b218-fe0015384b51}
  9
$VERSIONGUID
  2
{FAEB1C32-E019-11D5-929B-00C0DF256EC4}
  9
$EXTNAMES
290
     1
  9
$PSVPSCALE
 40
0.0
  9
$OLESTARTUP
290
     0
  0
ENDSEC
  0
SECTION
  2
CLASSES
  0
CLASS
  1
ACDBDICTIONARYWDFLT
  2
AcDbDictionaryWithDefault
  3
ObjectDBX Classes
 90
        0
280
     0
281
     0
  0
CLASS
  1
VISUALSTYLE
  2
AcDbVisualStyle
  3
ObjectDBX Classes
 90
     4095
280
     0
281
     0
  0
CLASS
  1
MATERIAL
  2
AcDbMaterial
  3
ObjectDBX Classes
 90
     1153
280
     0
281
     0
  0
CLASS
  1
SCALE
  2
AcDbScale
  3
ObjectDBX Classes
 90
     1153
280
     0
281
     0
  0
CLASS
  1
TABLESTYLE
  2
AcDbTableStyle
  3
ObjectDBX Classes
 90
     4095
280
     0
281
     0
  0
CLASS
  1
MLEADERSTYLE
  2
AcDbMLeaderStyle
  3
ACDB_MLEADERSTYLE_CLASS
 90
     4095
280
     0
281
     0
  0
CLASS
  1
SUN
  2
AcDbSun
  3
SCENEOE
 90
     1153
280
     0
281
     0
  0
CLASS
  1
DICTIONARYVAR
  2
AcDbDictionaryVar
  3
ObjectDBX Classes
 90
        0
280
     0
281
     0
  0
CLASS
  1
ACDBPLACEHOLDER
  2
AcDbPlaceHolder
  3
ObjectDBX Classes
 90
        0
280
     0
281
     0
  0
CLASS
  1
LAYOUT
  2
AcDbLayout
  3
ObjectDBX Classes
 90
        0
280
     0
281
     0
  0
ENDSEC
  0
SECTION
  2
TABLES
  0
TABLE
  2
VPORT
  5
8
102
{ACAD_XDICTIONARY
360
DC
102
}
330
0
100
AcDbSymbolTable
 70
     1
  0
VPORT
  5
29
330
8
100
AcDbSymbolTableRecord
100
AcDbViewportTableRecord
  2
*Active
 70
     0
 10
0.0
 20
0.0
 11
1.0
 21
1.0
 12
344.186916
 22
148.5
 13
0.0
 23
0.0
 14
10.0
 24
10.0
 15
10.0
 25
10.0
 16
0.0
 26
0.0
 36
1.0
 17
0.0
 27
0.0
 37
0.0
 40
297.0
 41
1.972973
 42
50.0
 43
0.0
 44
0.0
 50
0.0
 51
0.0
 71
     0
 72
   100
 73
     1
 74
     3
 75
     0
 76
     0
 77
     0
 78
     0
281
     0
 65
     1
110
0.0
120
0.0
130
0.0
111
1.0
121
0.0
131
0.0
112
0.0
122
1.0
132
0.0
 79
     0
146
0.0
  0
ENDTAB
  0
TABLE
  2
LTYPE
  5
5
330
0
100
AcDbSymbolTable
 70
     1
  0
LTYPE
  5
14
330
5
100
AcDbSymbolTableRecord
100
AcDbLinetypeTableRecord
  2
ByBlock
 70
     0
  3

 72
    65
 73
     0
 40
0.0
  0
LTYPE
  5
15
330
5
100
AcDbSymbolTableRecord
100
AcDbLinetypeTableRecord
  2
ByLayer
 70
     0
  3

 72
    65
 73
     0
 40
0.0
  0
LTYPE
  5
16
330
5
100
AcDbSymbolTableRecord
100
AcDbLinetypeTableRecord
  2
Continuous
 70
     0
  3
Solid line
 72
    65
 73
     0
 40
0.0
  0
ENDTAB
  0
TABLE
  2
LAYER
  5
2
330
0
100
AcDbSymbolTable
 70
     1
  0
LAYER
  5
10
330
2
100
AcDbSymbolTableRecord
100
AcDbLayerTableRecord
  2
0
 70
     0
 62
   106
  6
Continuous
370
     0
390
F
  0
ENDTAB
  0
TABLE
  2
STYLE
  5
3
330
0
100
AcDbSymbolTable
 70
     4
  0
STYLE
  5
11
330
3
100
AcDbSymbolTableRecord
100
AcDbTextStyleTableRecord
  2
Standard
 70
     0
 40
0.0
 41
1.0
 50
0.0
 71
     0
 42
2.5
  3
txt
  4

  0
STYLE
  5
6E
330
3
100
AcDbSymbolTableRecord
100
AcDbTextStyleTableRecord
  2
Default
 70
     0
 40
0.0
 41
1.0
 50
0.0
 71
     0
 42
2.5
  3

  4

1001
ACAD
1000
txt
1071
        0
  0
STYLE
  5
6F
330
3
100
AcDbSymbolTableRecord
100
AcDbTextStyleTableRecord
  2
ISO
 70
     0
 40
0.0
 41
1.0
 50
0.0
 71
     0
 42
2.5
  3

  4

1001
ACAD
1000
txt
1071
        0
  0
STYLE
  5
70
330
3
100
AcDbSymbolTableRecord
100
AcDbTextStyleTableRecord
  2
zucchetti
 70
     0
 40
0.0
 41
1.0
 50
0.0
 71
     0
 42
2.5
  3

  4

1001
ACAD
1000
Arial
1071
        0
  0
ENDTAB
  0
TABLE
  2
VIEW
  5
6
330
0
100
AcDbSymbolTable
 70
     0
  0
ENDTAB
  0
TABLE
  2
UCS
  5
7
330
0
100
AcDbSymbolTable
 70
     0
  0
ENDTAB
  0
TABLE
  2
APPID
  5
9
330
0
100
AcDbSymbolTable
 70
     2
  0
APPID
  5
12
330
9
100
AcDbSymbolTableRecord
100
AcDbRegAppTableRecord
  2
ACAD
 70
     0
  0
APPID
  5
116
330
9
100
AcDbSymbolTableRecord
100
AcDbRegAppTableRecord
  2
ACAD_MLEADERVER
 70
     0
  0
ENDTAB
  0
TABLE
  2
DIMSTYLE
  5
A
330
0
100
AcDbSymbolTable
 70
     4
100
AcDbDimStyleTable
  0
DIMSTYLE
105
27
330
A
100
AcDbSymbolTableRecord
100
AcDbDimStyleTableRecord
  2
ISO-25
 70
     0
 41
2.5
 42
0.625
 43
3.75
 44
1.25
 73
     0
 74
     0
 77
     1
 78
     8
140
2.5
141
2.5
143
0.03937
147
0.625
171
     3
172
     1
178
     0
271
     2
272
     2
274
     3
278
    44
283
     0
284
     8
340
11
  0
DIMSTYLE
105
71
330
A
100
AcDbSymbolTableRecord
100
AcDbDimStyleTableRecord
  2
Default
 70
     0
  3
<>
 41
4.375
 42
1.05
 44
2.1
 73
     0
 74
     0
 77
     1
 78
     8
140
3.5
146
0.4
147
1.75
172
     1
271
     2
178
     3
271
     2
272
     3
284
     8
340
6E
341
72
342
72
  0
DIMSTYLE
105
79
330
A
100
AcDbSymbolTableRecord
100
AcDbDimStyleTableRecord
  2
ISO
 70
     0
  3
<>
 41
4.375
 42
1.05
 44
2.1
 73
     0
 74
     0
 77
     1
 78
     8
140
3.5
146
0.4
147
1.75
172
     1
271
     2
178
     3
271
     2
272
     3
284
     8
340
6F
341
72
342
72
  0
DIMSTYLE
105
7A
330
A
100
AcDbSymbolTableRecord
100
AcDbDimStyleTableRecord
  2
zucchetti
 70
     0
  3
<>
 41
3.0
 42
0.9
 44
1.8
 73
     0
 74
     0
 77
     1
 78
     8
140
3.0
146
0.6
147
1.5
172
     1
176
     3
177
     3
271
     2
178
     3
271
     2
272
     2
284
     8
340
70
  0
ENDTAB
  0
TABLE
  2
BLOCK_RECORD
  5
1
330
0
100
AcDbSymbolTable
 70
     7
  0
BLOCK_RECORD
  5
1F
330
1
100
AcDbSymbolTableRecord
100
AcDbBlockTableRecord
  2
*Model_Space
340
22
  0
BLOCK_RECORD
  5
1B
330
1
100
AcDbSymbolTableRecord
100
AcDbBlockTableRecord
  2
*Paper_Space
340
1E
  0
BLOCK_RECORD
  5
23
330
1
100
AcDbSymbolTableRecord
100
AcDbBlockTableRecord
  2
*Paper_Space0
340
26
  0
BLOCK_RECORD
  5
72
330
1
100
AcDbSymbolTableRecord
100
AcDbBlockTableRecord
  2
_Closed
340
0
  0
BLOCK_RECORD
  5
7B
330
1
100
AcDbSymbolTableRecord
100
AcDbBlockTableRecord
  2
a
340
0
102
{BLKREFS
331
8C
102
}
  0
BLOCK_RECORD
  5
8D
330
1
100
AcDbSymbolTableRecord
100
AcDbBlockTableRecord
  2
b
340
0
102
{BLKREFS
331
96
102
}
  0
BLOCK_RECORD
  5
97
330
1
100
AcDbSymbolTableRecord
100
AcDbBlockTableRecord
  2
c
340
0
102
{BLKREFS
331
A9
102
}
  0
BLOCK_RECORD
  5
AA
330
1
100
AcDbSymbolTableRecord
100
AcDbBlockTableRecord
  2
d
340
0
102
{BLKREFS
331
BF
102
}
  0
BLOCK_RECORD
  5
C0
330
1
100
AcDbSymbolTableRecord
100
AcDbBlockTableRecord
  2
e
340
0
102
{BLKREFS
331
D0
102
}
  0
ENDTAB
  0
ENDSEC
  0
SECTION
  2
BLOCKS
  0
BLOCK
  5
20
330
1F
100
AcDbEntity
  8
0
100
AcDbBlockBegin
  2
*Model_Space
 70
     0
 10
0.0
 20
0.0
 30
0.0
  3
*Model_Space
  1

  0
ENDBLK
  5
21
330
1F
100
AcDbEntity
  8
0
100
AcDbBlockEnd
  0
BLOCK
  5
1C
330
1B
100
AcDbEntity
 67
     1
  8
0
100
AcDbBlockBegin
  2
*Paper_Space
 70
     0
 10
0.0
 20
0.0
 30
0.0
  3
*Paper_Space
  1

  0
ENDBLK
  5
1D
330
1B
100
AcDbEntity
 67
     1
  8
0
100
AcDbBlockEnd
  0
BLOCK
  5
24
330
23
100
AcDbEntity
  8
0
100
AcDbBlockBegin
  2
*Paper_Space0
 70
     0
 10
0.0
 20
0.0
 30
0.0
  3
*Paper_Space0
  1

  0
ENDBLK
  5
25
330
23
100
AcDbEntity
  8
0
100
AcDbBlockEnd
  0
BLOCK
  5
73
330
72
100
AcDbEntity
  8
0
100
AcDbBlockBegin
  2
_Closed
 70
     0
 10
0.0
 20
0.0
 30
0.0
  3
_Closed
  1

  0
LINE
  5
75
330
72
100
AcDbEntity
  8
0
  6
ByBlock
 62
     0
370
    -2
100
AcDbLine
 10
-1.0
 20
0.166667
 30
0.0
 11
0.0
 21
0.0
 31
0.0
  0
LINE
  5
76
330
72
100
AcDbEntity
  8
0
  6
ByBlock
 62
     0
370
    -2
100
AcDbLine
 10
0.0
 20
0.0
 30
0.0
 11
-1.0
 21
-0.166667
 31
0.0
  0
LINE
  5
77
330
72
100
AcDbEntity
  8
0
  6
ByBlock
 62
     0
370
    -2
100
AcDbLine
 10
-1.0
 20
0.166667
 30
0.0
 11
-1.0
 21
-0.166667
 31
0.0
  0
LINE
  5
78
330
72
100
AcDbEntity
  8
0
  6
ByBlock
 62
     0
370
    -2
100
AcDbLine
 10
0.0
 20
0.0
 30
0.0
 11
-1.0
 21
0.0
 31
0.0
  0
ENDBLK
  5
74
330
72
100
AcDbEntity
  8
0
100
AcDbBlockEnd
  0
BLOCK
  5
8A
330
7B
100
AcDbEntity
  8
0
100
AcDbBlockBegin
  2
a
 70
     0
 10
126.803879
 20
72.87455
 30
0.0
  3
a
  1

  0
SPLINE
  5
7C
330
7B
100
AcDbEntity
  8
0
  6
Continuous
 62
     0
370
    30
100
AcDbSpline
210
0.0
220
0.0
230
1.0
 70
     8
 71
     7
 72
    71
 73
    63
 74
     0
 42
0.000000001
 43
0.0
 40
0.0
 40
0.0
 40
0.0
 40
0.0
 40
0.0
 40
0.0
 40
0.0
 40
0.0
 40
0.18
 40
0.18
 40
0.18
 40
0.18
 40
0.18
 40
0.2071359999999999
 40
0.2071359999999999
 40
0.2071359999999999
 40
0.2071359999999999
 40
0.2071359999999999
 40
0.2312
 40
0.2312
 40
0.2312
 40
0.2312
 40
0.2312
 40
0.3548480000000001
 40
0.3548480000000001
 40
0.3548480000000001
 40
0.3548480000000001
 40
0.3548480000000001
 40
0.4216179200000001
 40
0.4216179200000001
 40
0.4216179200000001
 40
0.4216179200000001
 40
0.4216179200000001
 40
0.4976195072
 40
0.4976195072
 40
0.4976195072
 40
0.4976195072
 40
0.4976195072
 40
0.4999999254134589
 40
0.4999999254134589
 40
0.4999999254134589
 40
0.4999999254134589
 40
0.4999999254134589
 40
0.645152
 40
0.645152
 40
0.645152
 40
0.645152
 40
0.645152
 40
0.7687999999999999
 40
0.7687999999999999
 40
0.7687999999999999
 40
0.7687999999999999
 40
0.7687999999999999
 40
0.7928639999999999
 40
0.7928639999999999
 40
0.7928639999999999
 40
0.7928639999999999
 40
0.7928639999999999
 40
0.82
 40
0.82
 40
0.82
 40
0.82
 40
0.82
 40
0.8229515105357269
 40
0.8229515105357269
 40
0.8229515105357269
 40
0.8229515105357269
 40
0.8229515105357269
 40
0.8229515105357269
 40
0.8229515105357269
 40
0.8229515105357269
 10
189.1866313495987
 20
256.5549901702032
 30
0.0
 10
187.8791883921327
 20
256.5549898135337
 30
0.0
 10
186.5717454346667
 20
256.5549894568644
 30
0.0
 10
185.2643024978659
 20
256.5549891002038
 30
0.0
 10
183.9568595912363
 20
256.5549887435319
 30
0.0
 10
182.6494167153567
 20
256.554988386823
 30
0.0
 10
181.144869590713
 20
256.5549879764286
 30
0.0
 10
179.6403224846781
 20
256.5549875661731
 30
0.0
 10
179.4432248803639
 20
256.5555976485025
 30
0.0
 10
179.246099171626
 20
256.5535412014663
 30
0.0
 10
179.0490218105926
 20
256.556356223067
 30
0.0
 10
178.6770970999827
 20
256.5526243880807
 30
0.0
 10
178.3052453377355
 20
256.558797860273
 30
0.0
 10
178.1305522158248
 20
256.569535112479
 30
0.0
 10
177.9561230160089
 20
256.5795777679411
 30
0.0
 10
177.7819611781433
 20
256.5957607403707
 30
0.0
 10
176.7153957048702
 20
256.7145496289007
 30
0.0
 10
175.6673300279726
 20
256.9724373692114
 30
0.0
 10
174.814173885655
 20
257.2816564983768
 30
0.0
 10
174.0062909160015
 20
257.6956532095053
 30
0.0
 10
173.2420358745322
 20
258.18344762255
 30
0.0
 10
172.1624897599797
 20
259.061777167116
 30
0.0
 10
171.2529975428342
 20
260.1071386430344
 30
0.0
 10
170.9561434122579
 20
260.4924306705756
 30
0.0
 10
170.6823024599292
 20
260.8943720834282
 30
0.0
 10
170.431933119965
 20
261.3113939449685
 30
0.0
 10
169.9518133002632
 20
262.2327405048155
 30
0.0
 10
169.5944564528324
 20
263.2088782252113
 30
0.0
 10
169.4391231896152
 20
263.7411932865834
 30
0.0
 10
169.3244478308338
 20
264.2826261209079
 30
0.0
 10
169.2401819497928
 20
264.8304515660785
 30
0.0
 10
169.1931888313253
 20
265.399222414273
 30
0.0
 10
169.1870053791134
 20
265.9685237239894
 30
0.0
 10
169.186855185083
 20
265.9858134839563
 30
0.0
 10
169.1867425413641
 20
266.003103542137
 30
0.0
 10
169.1866674054415
 20
266.0203938033318
 30
0.0
 10
169.1843327416357
 20
267.092008553793
 30
0.0
 10
169.3257599806642
 20
268.1636739337532
 30
0.0
 10
169.5949326038393
 20
269.1965970507172
 30
0.0
 10
170.0002030583302
 20
270.1890614962628
 30
0.0
 10
170.5330500057508
 20
271.1139104549197
 30
0.0
 10
171.7181026099513
 20
272.6866371949809
 30
0.0
 10
173.242023759674
 20
273.926518776071
 30
0.0
 10
174.0062787275712
 20
274.4143145760181
 30
0.0
 10
174.8141616286752
 20
274.8283128941367
 30
0.0
 10
175.6673180669389
 20
275.1375334160442
 30
0.0
 10
176.7153842779706
 20
275.3954226554965
 30
0.0
 10
177.7819504794128
 20
275.5142128510813
 30
0.0
 10
177.9561124403585
 20
275.5303960266077
 30
0.0
 10
178.1305417698944
 20
275.5404389211645
 30
0.0
 10
178.3052350217444
 20
275.5511762870796
 30
0.0
 10
178.6770870781088
 20
275.5573503126857
 30
0.0
 10
179.0490120922581
 20
275.5536185813046
 30
0.0
 10
179.2460896091542
 20
275.5564336722472
 30
0.0
 10
179.4432154779566
 20
275.5543774045505
 30
0.0
 10
179.6403132393729
 20
275.5549875657694
 30
0.0
 10
179.85885619175
 20
275.5549876254144
 30
0.0
 10
180.0773991437346
 20
275.5549876850565
 30
0.0
 10
180.0988376680156
 20
275.5549876909072
 30
0.0
 10
180.1202761922928
 20
275.5549876967579
 30
0.0
 10
180.1417147165661
 20
275.5549877026085
 30
0.0
 10
180.1631532408354
 20
275.5549877084592
 30
0.0
 10
180.1845917651006
 20
275.5549877143098
 30
0.0
  0
SPLINE
  5
7D
330
7B
100
AcDbEntity
  8
0
  6
Continuous
 62
     0
370
    30
100
AcDbSpline
210
0.0
220
0.0
230
1.0
 70
     8
 71
     7
 72
    71
 73
    63
 74
     0
 42
0.000000001
 43
0.0
 40
0.1770177253840994
 40
0.1770177253840994
 40
0.1770177253840994
 40
0.1770177253840994
 40
0.1770177253840994
 40
0.1770177253840994
 40
0.1770177253840994
 40
0.1770177253840994
 40
0.18
 40
0.18
 40
0.18
 40
0.18
 40
0.18
 40
0.2071359999999999
 40
0.2071359999999999
 40
0.2071359999999999
 40
0.2071359999999999
 40
0.2071359999999999
 40
0.2312
 40
0.2312
 40
0.2312
 40
0.2312
 40
0.2312
 40
0.3548480000000001
 40
0.3548480000000001
 40
0.3548480000000001
 40
0.3548480000000001
 40
0.3548480000000001
 40
0.500000074586541
 40
0.500000074586541
 40
0.500000074586541
 40
0.500000074586541
 40
0.500000074586541
 40
0.5023804928
 40
0.5023804928
 40
0.5023804928
 40
0.5023804928
 40
0.5023804928
 40
0.5783820799999999
 40
0.5783820799999999
 40
0.5783820799999999
 40
0.5783820799999999
 40
0.5783820799999999
 40
0.645152
 40
0.645152
 40
0.645152
 40
0.645152
 40
0.645152
 40
0.7687999999999999
 40
0.7687999999999999
 40
0.7687999999999999
 40
0.7687999999999999
 40
0.7687999999999999
 40
0.7928639999999999
 40
0.7928639999999999
 40
0.7928639999999999
 40
0.7928639999999999
 40
0.7928639999999999
 40
0.82
 40
0.82
 40
0.82
 40
0.82
 40
0.82
 40
1.0
 40
1.0
 40
1.0
 40
1.0
 40
1.0
 40
1.0
 40
1.0
 40
1.0
 10
198.1871015512532
 20
275.554990170065
 30
0.0
 10
198.2087635327892
 20
275.5549901700628
 30
0.0
 10
198.2304255143293
 20
275.5549901700605
 30
0.0
 10
198.2520874958734
 20
275.5549901700583
 30
0.0
 10
198.2737494774216
 20
275.554990170056
 30
0.0
 10
198.2954114589737
 20
275.5549901700537
 30
0.0
 10
198.5141778682607
 20
275.5549901700301
 30
0.0
 10
198.7329442779412
 20
275.5549901700035
 30
0.0
 10
198.9300420395556
 20
275.5543800625528
 30
0.0
 10
199.1271679078288
 20
275.5564363840255
 30
0.0
 10
199.3242454255246
 20
275.5536213468456
 30
0.0
 10
199.6961704387156
 20
275.5573531796878
 30
0.0
 10
200.0680224968243
 20
275.5511792555229
 30
0.0
 10
200.2427157516317
 20
275.5404419372642
 30
0.0
 10
200.4171450839353
 20
275.5303990902916
 30
0.0
 10
200.5913070493241
 20
275.5142159622767
 30
0.0
 10
201.6578732833453
 20
275.3954260576511
 30
0.0
 10
202.7059395649007
 20
275.1375371041112
 30
0.0
 10
203.5590960876605
 20
274.8283168149446
 30
0.0
 10
204.3669791018381
 20
274.4143187172164
 30
0.0
 10
205.1312342029346
 20
273.926523125758
 30
0.0
 10
206.6551556911565
 20
272.6866419603935
 30
0.0
 10
207.8402087246058
 20
271.1139155436146
 30
0.0
 10
208.3730559244214
 20
270.1890667303184
 30
0.0
 10
208.7783266497334
 20
269.1966023953306
 30
0.0
 10
209.0474995547451
 20
268.1636793517969
 30
0.0
 10
209.1889270861592
 20
267.092014010418
 30
0.0
 10
209.1865927147018
 20
266.02039925932
 30
0.0
 10
209.1865175834962
 20
266.0031089981047
 30
0.0
 10
209.1864049444942
 20
265.9858189398933
 30
0.0
 10
209.1862547551806
 20
265.9685291798854
 30
0.0
 10
209.1800714582797
 20
265.3992278684822
 30
0.0
 10
209.1330784949719
 20
264.830457007468
 30
0.0
 10
209.0488127633704
 20
264.2826315393098
 30
0.0
 10
208.9341375522798
 20
263.7411986737018
 30
0.0
 10
208.7788044342593
 20
263.2088835699547
 30
0.0
 10
208.4214478530727
 20
262.2327457520722
 30
0.0
 10
207.9413282846477
 20
261.3113990612485
 30
0.0
 10
207.6909590584115
 20
260.8943771314073
 30
0.0
 10
207.4171182156931
 20
260.4924356438511
 30
0.0
 10
207.1202641901811
 20
260.1071435353281
 30
0.0
 10
206.210772258076
 20
259.0617818113004
 30
0.0
 10
205.1312263829684
 20
258.1834519722343
 30
0.0
 10
204.366971474452
 20
257.6956573507008
 30
0.0
 10
203.5590886176116
 20
257.2816604191821
 30
0.0
 10
202.7059325595154
 20
256.9724410572757
 30
0.0
 10
201.657866952804
 20
256.7145530310528
 30
0.0
 10
200.5913015117662
 20
256.5957638515638
 30
0.0
 10
200.4171396782875
 20
256.5795808316228
 30
0.0
 10
200.2427104811833
 20
256.5695381285765
 30
0.0
 10
200.0680173621737
 20
256.5588008287143
 30
0.0
 10
199.6961656015508
 20
256.5526272550808
 30
0.0
 10
199.3242408898632
 20
256.5563589886061
 30
0.0
 10
199.1271635295659
 20
256.5535439132425
 30
0.0
 10
198.9300378202354
 20
256.5556003065029
 30
0.0
 10
198.7329402160557
 20
256.5549901704053
 30
0.0
 10
197.2283931097787
 20
256.5549901702205
 30
0.0
 10
195.723845984893
 20
256.5549901701746
 30
0.0
 10
194.4164031088029
 20
256.5549901702132
 30
0.0
 10
193.1089602019628
 20
256.5549901702148
 30
0.0
 10
191.8015172649516
 20
256.554990170205
 30
0.0
 10
190.4940743072752
 20
256.5549901702041
 30
0.0
 10
189.1866313495987
 20
256.5549901702032
 30
0.0
  0
SPLINE
  5
7E
330
7B
100
AcDbEntity
  8
0
  6
Continuous
 62
     0
370
    30
100
AcDbSpline
210
0.0
220
0.0
230
1.0
 70
     8
 71
     3
 72
    34
 73
    30
 74
     0
 42
0.000000001
 43
0.0
 40
17.41591316336607
 40
17.41591316336607
 40
17.41591316336607
 40
17.41591316336607
 40
17.57824467098947
 40
18.0377979604661
 40
19.11887399136381
 40
19.9776602067418
 40
21.04171201996026
 40
21.73244831571114
 40
22.0071467390219
 40
22.14216064070773
 40
22.54564671137328
 40
22.67967526811242
 40
22.81234988187567
 40
22.94625503270193
 40
23.22103742375197
 40
23.48563051871054
 40
23.62227239987324
 40
23.77290560732373
 40
23.94100200202187
 40
24.11459098075337
 40
24.80845945849811
 40
25.50252105511291
 40
27.4985214108961
 40
29.49556721515726
 40
32.4891020378959
 40
35.48286969649331
 40
39.97088672178216
 40
44.45424588830559
 40
53.22715451255909
 40
53.22715451255909
 40
53.22715451255909
 40
53.22715451255909
 10
198.4062789898705
 20
269.9643253007224
 30
0.0
 10
198.406267259875
 20
269.9643228130523
 30
0.0
 10
198.405555487843
 20
269.9674575103158
 30
0.0
 10
198.3964723366658
 20
270.0136111242122
 30
0.0
 10
198.3656788933644
 20
270.1988386810945
 30
0.0
 10
198.3136906695991
 20
270.6262318643578
 30
0.0
 10
198.2668055304134
 20
271.1531036276264
 30
0.0
 10
198.2359159021414
 20
271.6554228454144
 30
0.0
 10
198.2217865673292
 20
271.9513179607693
 30
0.0
 10
198.2122683268015
 20
272.1768478678671
 30
0.0
 10
198.2054642204428
 20
272.3701416234522
 30
0.0
 10
198.1998519390271
 20
272.5697098993479
 30
0.0
 10
198.1969091851187
 20
272.6889791994988
 30
0.0
 10
198.1934224040625
 20
272.854779908719
 30
0.0
 10
198.1899207359706
 20
273.0674668110752
 30
0.0
 10
198.1879263312084
 20
273.2772504988381
 30
0.0
 10
198.1872741093719
 20
273.4554022350651
 30
0.0
 10
198.1871318584975
 20
273.6064976400074
 30
0.0
 10
198.1871435527398
 20
273.770738026006
 30
0.0
 10
198.1871294899141
 20
274.115857070923
 30
0.0
 10
198.1871232751114
 20
274.6364133993518
 30
0.0
 10
198.1870960902863
 20
275.7643647161673
 30
0.0
 10
198.1870632195015
 20
277.326750032764
 30
0.0
 10
198.1870108239432
 20
279.6556042626296
 30
0.0
 10
198.1869521504265
 20
282.3170560479406
 30
0.0
 10
198.1868770889076
 20
285.8088284287848
 30
0.0
 10
198.1867971758947
 20
289.7972100153309
 30
0.0
 10
198.1866972828531
 20
295.7119715068027
 30
0.0
 10
198.1866457620095
 20
300.1307274784663
 30
0.0
 10
198.186636109702
 20
303.0550303531899
 30
0.0
  0
SPLINE
  5
7F
330
7B
100
AcDbEntity
  8
0
  6
Continuous
 62
     0
370
    30
100
AcDbSpline
210
0.0
220
0.0
230
1.0
 70
     8
 71
     3
 72
    33
 73
    29
 74
     0
 42
0.000000001
 43
0.0
 40
17.41568554180382
 40
17.41568554180382
 40
17.41568554180382
 40
17.41568554180382
 40
17.6026551161909
 40
18.06081823651956
 40
19.14000556259098
 40
19.99987494357198
 40
21.06525219342071
 40
21.75695723146608
 40
22.03205291104844
 40
22.1672692973721
 40
22.57137422722704
 40
22.70557205220635
 40
22.83832850781031
 40
22.97298233730908
 40
23.24877796635818
 40
23.51470097606321
 40
23.6544334842812
 40
23.98178622467537
 40
24.15628404988125
 40
24.85431940495543
 40
25.55254952555619
 40
27.66937742282444
 40
29.78734555500499
 40
32.96199357059509
 40
36.13669894457926
 40
40.89595580378845
 40
45.64953264581048
 40
53.22841510660583
 40
53.22841510660583
 40
53.22841510660583
 40
53.22841510660583
 10
179.9654181296054
 20
269.9640391016165
 30
0.0
 10
179.9654308895282
 20
269.9640363785287
 30
0.0
 10
179.966260169567
 20
269.9677064672658
 30
0.0
 10
179.9758802570099
 20
270.0169466869683
 30
0.0
 10
180.0070070945955
 20
270.205488076959
 30
0.0
 10
180.0591573151914
 20
270.6369963929923
 30
0.0
 10
180.1060218813463
 20
271.1678763246989
 30
0.0
 10
180.1367601311718
 20
271.673139590421
 30
0.0
 10
180.1507716656497
 20
271.9705724937637
 30
0.0
 10
180.1601925590882
 20
272.1972251101979
 30
0.0
 10
180.1669023966575
 20
272.3913996405705
 30
0.0
 10
180.1724127504257
 20
272.591784753991
 30
0.0
 10
180.1752818739758
 20
272.7114404639541
 30
0.0
 10
180.1787007483294
 20
272.8789441192962
 30
0.0
 10
180.1820930660487
 20
273.0923056654093
 30
0.0
 10
180.1839305346582
 20
273.303971358445
 30
0.0
 10
180.184623590469
 20
273.5425561199658
 30
0.0
 10
180.1845303620761
 20
273.7576175477573
 30
0.0
 10
180.1845678927423
 20
274.1572475218675
 30
0.0
 10
180.1845633427312
 20
274.681054925375
 30
0.0
 10
180.1846031541459
 20
275.8519710897367
 30
0.0
 10
180.1846400919592
 20
277.4963880270087
 30
0.0
 10
180.1847075171813
 20
279.9661740684561
 30
0.0
 10
180.1847805488424
 20
282.7886256476302
 30
0.0
 10
180.1848749309922
 20
286.491492031616
 30
0.0
 10
180.1849752145512
 20
290.720673152361
 30
0.0
 10
180.1850898504178
 20
296.4179113764299
 30
0.0
 10
180.1851509248597
 20
300.5287313020879
 30
0.0
 10
180.1851696397835
 20
303.0550254556088
 30
0.0
  0
LINE
  5
80
330
7B
100
AcDbEntity
  8
0
  6
Continuous
 62
     0
370
    30
100
AcDbLine
 10
204.185156
 20
397.054991
 30
0.0
 11
174.185156
 21
397.054991
 31
0.0
  0
LINE
  5
81
330
7B
100
AcDbEntity
  8
0
  6
Continuous
 62
     0
370
    30
100
AcDbLine
 10
204.185156
 20
394.054991
 30
0.0
 11
174.185156
 21
394.054991
 31
0.0
  0
LINE
  5
82
330
7B
100
AcDbEntity
  8
0
  6
Continuous
 62
     0
370
    30
100
AcDbLine
 10
174.185156
 20
394.054991
 30
0.0
 11
174.185156
 21
397.054991
 31
0.0
  0
LINE
  5
83
330
7B
100
AcDbEntity
  8
0
  6
Continuous
 62
     0
370
    30
100
AcDbLine
 10
204.185156
 20
394.054991
 30
0.0
 11
204.185156
 21
397.054991
 31
0.0
  0
LINE
  5
84
330
7B
100
AcDbEntity
  8
0
  6
Continuous
 62
     0
370
    30
100
AcDbLine
 10
180.185156
 20
394.054991
 30
0.0
 11
180.185156
 21
304.054991
 31
0.0
  0
LINE
  5
85
330
7B
100
AcDbEntity
  8
0
  6
Continuous
 62
     0
370
    30
100
AcDbLine
 10
198.185156
 20
304.054991
 30
0.0
 11
198.185156
 21
394.054991
 31
0.0
  0
LINE
  5
86
330
7B
100
AcDbEntity
  8
0
  6
Continuous
 62
     0
370
    30
100
AcDbLine
 10
154.186674
 20
303.054981
 30
0.0
 11
224.186674
 21
303.055
 31
0.0
  0
LINE
  5
87
330
7B
100
AcDbEntity
  8
0
  6
Continuous
 62
     0
370
    30
100
AcDbLine
 10
154.186674
 20
304.054981
 30
0.0
 11
224.186674
 21
304.055
 31
0.0
  0
LINE
  5
88
330
7B
100
AcDbEntity
  8
0
  6
Continuous
 62
     0
370
    30
100
AcDbLine
 10
154.186674
 20
303.054981
 30
0.0
 11
154.186674
 21
304.054981
 31
0.0
  0
LINE
  5
89
330
7B
100
AcDbEntity
  8
0
  6
Continuous
 62
     0
370
    30
100
AcDbLine
 10
224.186674
 20
303.055
 30
0.0
 11
224.186674
 21
304.055
 31
0.0
  0
ENDBLK
  5
8B
330
7B
100
AcDbEntity
  8
0
100
AcDbBlockEnd
  0
BLOCK
  5
94
330
8D
100
AcDbEntity
  8
0
100
AcDbBlockBegin
  2
b
 70
     0
 10
123.61903
 20
72.87455
 30
0.0
  3
b
  1

  0
SPLINE
  5
8E
330
8D
100
AcDbEntity
  8
0
  6
Continuous
 62
     0
370
    30
100
AcDbSpline
210
0.0
220
0.0
230
1.0
 70
     8
 71
     7
 72
    36
 73
    28
 74
     0
 42
0.000000001
 43
0.0
 40
0.5
 40
0.5
 40
0.5
 40
0.5
 40
0.5
 40
0.5
 40
0.5
 40
0.5
 40
0.645152
 40
0.645152
 40
0.645152
 40
0.645152
 40
0.645152
 40
0.7687999999999999
 40
0.7687999999999999
 40
0.7687999999999999
 40
0.7687999999999999
 40
0.7687999999999999
 40
0.7928639999999999
 40
0.7928639999999999
 40
0.7928639999999999
 40
0.7928639999999999
 40
0.7928639999999999
 40
0.82
 40
0.82
 40
0.82
 40
0.82
 40
0.82
 40
1.0
 40
1.0
 40
1.0
 40
1.0
 40
1.0
 40
1.0
 40
1.0
 40
1.0
 10
169.1866333072077
 20
185.9451292403407
 30
0.0
 10
169.1866188960451
 20
185.9451300041376
 30
0.0
 10
169.325764486935
 20
185.9451306378536
 30
0.0
 10
169.5949372515312
 20
185.9451311344529
 30
0.0
 10
170.0002076944394
 20
185.9451314744899
 30
0.0
 10
170.5330544781039
 20
185.9451316462591
 30
0.0
 10
171.7181068475056
 20
185.9451316775499
 30
0.0
 10
173.2420275743713
 20
185.9451311508725
 30
0.0
 10
174.0062825422685
 20
185.9451307896588
 30
0.0
 10
174.8141654433725
 20
185.9451303341914
 30
0.0
 10
175.6673218816362
 20
185.9451297604887
 30
0.0
 10
176.7153880926678
 20
185.9451289673572
 30
0.0
 10
177.7819542941101
 20
185.9451280561607
 30
0.0
 10
177.9561162550558
 20
185.9451279050409
 30
0.0
 10
178.1305455845916
 20
185.9451277492228
 30
0.0
 10
178.3052388364416
 20
185.9451275936611
 30
0.0
 10
178.6770908928061
 20
185.9451272504478
 30
0.0
 10
179.0490159069554
 20
185.9451268999903
 30
0.0
 10
179.2460934238514
 20
185.9451267177599
 30
0.0
 10
179.4432192926538
 20
185.9451265319553
 30
0.0
 10
179.6403170540702
 20
185.9451263481087
 30
0.0
 10
181.1448653592496
 20
185.9451249413391
 30
0.0
 10
182.6494136458203
 20
185.9451235345696
 30
0.0
 10
183.9568574821421
 20
185.945122312095
 30
0.0
 10
185.2643012877142
 20
185.9451210896203
 30
0.0
 10
186.571745063115
 20
185.9451198671457
 30
0.0
 10
187.8791888178505
 20
185.9451186446711
 30
0.0
 10
189.1866325725861
 20
185.9451174221965
 30
0.0
  0
LINE
  5
8F
330
8D
100
AcDbEntity
  8
0
  6
Continuous
 62
     0
370
    30
100
AcDbLine
 10
189.186633
 20
185.945117
 30
0.0
 11
209.186634
 21
185.945092
 31
0.0
  0
LINE
  5
90
330
8D
100
AcDbEntity
  8
0
  6
Continuous
 62
     0
370
    30
100
AcDbLine
 10
202.910871
 20
143.142005
 30
0.0
 11
209.186634
 21
185.945099
 31
0.0
  0
LINE
  5
91
330
8D
100
AcDbEntity
  8
0
  6
Continuous
 62
     0
370
    30
100
AcDbLine
 10
169.186702
 20
185.945357
 30
0.0
 11
175.461597
 21
143.141627
 31
0.0
  0
CIRCLE
  5
92
330
8D
100
AcDbEntity
  8
0
  6
Continuous
 62
     0
370
    30
100
AcDbCircle
 10
189.18516
 20
110.945004
 30
0.0
 40
15.0
  0
CIRCLE
  5
93
330
8D
100
AcDbEntity
  8
0
  6
Continuous
 62
     0
370
    30
100
AcDbCircle
 10
189.186677
 20
110.945008
 30
0.0
 40
35.0
  0
ENDBLK
  5
95
330
8D
100
AcDbEntity
  8
0
100
AcDbBlockEnd
  0
BLOCK
  5
A7
330
97
100
AcDbEntity
  8
0
100
AcDbBlockBegin
  2
c
 70
     0
 10
126.803879
 20
72.87455
 30
0.0
  3
c
  1

  0
SPLINE
  5
98
330
97
100
AcDbEntity
  8
0
  6
Continuous
 62
     0
370
    30
100
AcDbSpline
210
0.0
220
0.0
230
1.0
 70
     8
 71
     7
 72
    71
 73
    63
 74
     0
 42
0.000000001
 43
0.0
 40
0.1666666666666667
 40
0.1666666666666667
 40
0.1666666666666667
 40
0.1666666666666667
 40
0.1666666666666667
 40
0.1666666666666667
 40
0.1666666666666667
 40
0.1666666666666667
 40
0.18
 40
0.18
 40
0.18
 40
0.18
 40
0.18
 40
0.2071359999999999
 40
0.2071359999999999
 40
0.2071359999999999
 40
0.2071359999999999
 40
0.2071359999999999
 40
0.2312
 40
0.2312
 40
0.2312
 40
0.2312
 40
0.2312
 40
0.3548480000000001
 40
0.3548480000000001
 40
0.3548480000000001
 40
0.3548480000000001
 40
0.3548480000000001
 40
0.4216179200000001
 40
0.4216179200000001
 40
0.4216179200000001
 40
0.4216179200000001
 40
0.4216179200000001
 40
0.4976195072
 40
0.4976195072
 40
0.4976195072
 40
0.4976195072
 40
0.4976195072
 40
0.4999999254134589
 40
0.4999999254134589
 40
0.4999999254134589
 40
0.4999999254134589
 40
0.4999999254134589
 40
0.645152
 40
0.645152
 40
0.645152
 40
0.645152
 40
0.645152
 40
0.7687999999999999
 40
0.7687999999999999
 40
0.7687999999999999
 40
0.7687999999999999
 40
0.7687999999999999
 40
0.7928639999999999
 40
0.7928639999999999
 40
0.7928639999999999
 40
0.7928639999999999
 40
0.7928639999999999
 40
0.82
 40
0.82
 40
0.82
 40
0.82
 40
0.82
 40
0.8333333333333334
 40
0.8333333333333334
 40
0.8333333333333334
 40
0.8333333333333334
 40
0.8333333333333334
 40
0.8333333333333334
 40
0.8333333333333334
 40
0.8333333333333334
 10
329.8131971926176
 20
256.5549878585439
 30
0.0
 10
329.8131971062973
 20
256.5549878321313
 30
0.0
 10
329.8131970199771
 20
256.5549878057192
 30
0.0
 10
329.8131969336568
 20
256.5549877793077
 30
0.0
 10
329.8131968473365
 20
256.5549877528967
 30
0.0
 10
329.8131967610162
 20
256.5549877264862
 30
0.0
 10
329.813196499017
 20
256.554987646327
 30
0.0
 10
329.8131962370177
 20
256.5549875661731
 30
0.0
 10
329.813196060876
 20
256.5555976485025
 30
0.0
 10
329.8131958867575
 20
256.5535412014663
 30
0.0
 10
329.8131957089402
 20
256.556356223067
 30
0.0
 10
329.8131953803102
 20
256.5526243880807
 30
0.0
 10
329.8131950441366
 20
256.558797860273
 30
0.0
 10
329.8131948801849
 20
256.569535112479
 30
0.0
 10
329.813194717002
 20
256.5795777679411
 30
0.0
 10
329.8131945493408
 20
256.5957607403707
 30
0.0
 10
329.8131935074643
 20
256.7145496289007
 30
0.0
 10
329.8131923752294
 20
256.9724373692114
 30
0.0
 10
329.8131913772876
 20
257.2816564983768
 30
0.0
 10
329.813190339214
 20
257.6956532095053
 30
0.0
 10
329.8131892833388
 20
258.18344762255
 30
0.0
 10
329.813187646459
 20
259.061777167116
 30
0.0
 10
329.8131860328443
 20
260.1071386430344
 30
0.0
 10
329.8131854722998
 20
260.4924306705756
 30
0.0
 10
329.813184919478
 20
260.8943720834282
 30
0.0
 10
329.8131843759925
 20
261.3113939449685
 30
0.0
 10
329.8131832403382
 20
262.2327405048155
 30
0.0
 10
329.8131821720153
 20
263.2088782252113
 30
0.0
 10
329.8131816246741
 20
263.7411932865834
 30
0.0
 10
329.8131811065675
 20
264.2826261209079
 30
0.0
 10
329.8131806106545
 20
264.8304515660785
 30
0.0
 10
329.8131801318738
 20
265.399222414273
 30
0.0
 10
329.8131796890591
 20
265.9685237239894
 30
0.0
 10
329.8131796756443
 20
265.9858134839563
 30
0.0
 10
329.8131796622627
 20
266.003103542137
 30
0.0
 10
329.8131796489144
 20
266.0203938033318
 30
0.0
 10
329.813178823683
 20
267.092008553793
 30
0.0
 10
329.8131781265477
 20
268.1636739337532
 30
0.0
 10
329.8131775730314
 20
269.1965970507172
 30
0.0
 10
329.813177171897
 20
270.1890614962628
 30
0.0
 10
329.8131769364097
 20
271.1139104549197
 30
0.0
 10
329.8131767845723
 20
272.6866371949809
 30
0.0
 10
329.8131771904402
 20
273.926518776071
 30
0.0
 10
329.8131774969251
 20
274.4143145760181
 30
0.0
 10
329.8131778989823
 20
274.8283128941367
 30
0.0
 10
329.8131784218759
 20
275.1375334160442
 30
0.0
 10
329.8131791579223
 20
275.3954226554965
 30
0.0
 10
329.8131800173052
 20
275.5142128510813
 30
0.0
 10
329.8131801601048
 20
275.5303960266077
 30
0.0
 10
329.8131803078593
 20
275.5404389211645
 30
0.0
 10
329.8131804553157
 20
275.5511762870796
 30
0.0
 10
329.8131807820049
 20
275.5573503126857
 30
0.0
 10
329.8131811163681
 20
275.5536185813046
 30
0.0
 10
329.8131812898609
 20
275.5564336722472
 30
0.0
 10
329.8131814671387
 20
275.5543774045505
 30
0.0
 10
329.8131816423433
 20
275.5549875657694
 30
0.0
 10
329.8131819043427
 20
275.5549876459952
 30
0.0
 10
329.8131821663422
 20
275.5549877262157
 30
0.0
 10
329.8131822526626
 20
275.5549877526452
 30
0.0
 10
329.8131823389829
 20
275.5549877790741
 30
0.0
 10
329.8131824253033
 20
275.5549878055024
 30
0.0
 10
329.8131825116236
 20
275.5549878319303
 30
0.0
 10
329.8131825979439
 20
275.5549878583577
 30
0.0
  0
SPLINE
  5
99
330
97
100
AcDbEntity
  8
0
  6
Continuous
 62
     0
370
    30
100
AcDbSpline
210
0.0
220
0.0
230
1.0
 70
     8
 71
     7
 72
   116
 73
   108
 74
     0
 42
0.000000001
 43
0.0
 40
0.020156114859317
 40
0.020156114859317
 40
0.020156114859317
 40
0.020156114859317
 40
0.020156114859317
 40
0.020156114859317
 40
0.020156114859317
 40
0.020156114859317
 40
0.2212
 40
0.2212
 40
0.2212
 40
0.2212
 40
0.2212
 40
0.232372
 40
0.232372
 40
0.232372
 40
0.232372
 40
0.232372
 40
0.236372752
 40
0.236372752
 40
0.236372752
 40
0.236372752
 40
0.236372752
 40
0.2395162
 40
0.2395162
 40
0.2395162
 40
0.2395162
 40
0.2395162
 40
0.28
 40
0.28
 40
0.28
 40
0.28
 40
0.28
 40
0.293879312128
 40
0.293879312128
 40
0.293879312128
 40
0.293879312128
 40
0.293879312128
 40
0.3430877824
 40
0.3430877824
 40
0.3430877824
 40
0.3430877824
 40
0.3430877824
 40
0.3479642974720001
 40
0.3479642974720001
 40
0.3479642974720001
 40
0.3479642974720001
 40
0.3479642974720001
 40
0.34917455984896
 40
0.34917455984896
 40
0.34917455984896
 40
0.34917455984896
 40
0.34917455984896
 40
0.36525376
 40
0.36525376
 40
0.36525376
 40
0.36525376
 40
0.36525376
 40
0.3719908864
 40
0.3719908864
 40
0.3719908864
 40
0.3719908864
 40
0.3719908864
 40
0.3779794432
 40
0.3779794432
 40
0.3779794432
 40
0.3779794432
 40
0.3779794432
 40
0.383968
 40
0.383968
 40
0.383968
 40
0.383968
 40
0.383968
 40
0.3908627199999999
 40
0.3908627199999999
 40
0.3908627199999999
 40
0.3908627199999999
 40
0.3908627199999999
 40
0.4168
 40
0.4168
 40
0.4168
 40
0.4168
 40
0.4168
 40
0.4418647696
 40
0.4418647696
 40
0.4418647696
 40
0.4418647696
 40
0.4418647696
 40
0.4453995447999999
 40
0.4453995447999999
 40
0.4453995447999999
 40
0.4453995447999999
 40
0.4453995447999999
 40
0.4489343200000001
 40
0.4489343200000001
 40
0.4489343200000001
 40
0.4489343200000001
 40
0.4489343200000001
 40
0.4525421488548259
 40
0.4525421488548259
 40
0.4525421488548259
 40
0.4525421488548259
 40
0.4525421488548259
 40
0.527608
 40
0.527608
 40
0.527608
 40
0.527608
 40
0.527608
 40
1.0
 40
1.0
 40
1.0
 40
1.0
 40
1.0
 40
1.0
 40
1.0
 40
1.0
 10
413.8132047126477
 20
303.0549901701908
 30
0.0
 10
413.8132047125271
 20
298.7769709745885
 30
0.0
 10
413.8132047123062
 20
294.483054418581
 30
0.0
 10
413.8132047123062
 20
290.1460827856833
 30
0.0
 10
413.8132047123063
 20
285.7610455013107
 30
0.0
 10
413.8132047123062
 20
281.3393792413716
 30
0.0
 10
413.8132047123062
 20
276.6567535333579
 30
0.0
 10
413.8132047123062
 20
271.9883749700157
 30
0.0
 10
413.8132047123062
 20
271.7426546544933
 30
0.0
 10
413.8132047123062
 20
271.4969832181774
 30
0.0
 10
413.8132047123062
 20
271.2513654272689
 30
0.0
 10
413.8132047123062
 20
270.9178699989868
 30
0.0
 10
413.8132047123062
 20
270.5844913263413
 30
0.0
 10
413.8126849728785
 20
270.4965944448714
 30
0.0
 10
413.8142505959212
 20
270.4087057937451
 30
0.0
 10
413.8125389926982
 20
270.3208264521313
 30
0.0
 10
413.8137518038995
 20
270.1639144734698
 30
0.0
 10
413.8127554795153
 20
270.0070322916448
 30
0.0
 10
413.8118895358287
 20
269.9380131890866
 30
0.0
 10
413.8105961924674
 20
269.8690064306059
 30
0.0
 10
413.8088756442667
 20
269.8000153001985
 30
0.0
 10
413.7790706045185
 20
268.8427644688983
 30
0.0
 10
413.6670714558151
 20
267.8897871561207
 30
0.0
 10
413.4929250810046
 20
267.0161545420031
 30
0.0
 10
413.2500408407018
 20
266.1601034919888
 30
0.0
 10
412.9407972466438
 20
265.3282593961022
 30
0.0
 10
412.4407186399337
 20
264.2520368776838
 30
0.0
 10
411.8337785126912
 20
263.2407357452812
 30
0.0
 10
411.6720138108651
 20
262.9870008657957
 30
0.0
 10
411.5036076083517
 20
262.7379422680375
 30
0.0
 10
411.3287358459064
 20
262.4937698612308
 30
0.0
 10
410.5053136807353
 20
261.407018522727
 30
0.0
 10
409.5560892442321
 20
260.4293289050893
 30
0.0
 10
408.7477256051224
 20
259.7416175198786
 30
0.0
 10
407.8812016659689
 20
259.1358344437072
 30
0.0
 10
406.9671897149452
 20
258.6172679561633
 30
0.0
 10
405.9225773900589
 20
258.1469562085874
 30
0.0
 10
404.8473502893621
 20
257.7881813496485
 30
0.0
 10
404.7501654741284
 20
257.7567411655002
 30
0.0
 10
404.6527533235911
 20
257.7262108046569
 30
0.0
 10
404.5551246076593
 20
257.6965915513094
 30
0.0
 10
404.4330093392517
 20
257.6607599568214
 30
0.0
 10
404.3105901856226
 20
257.6263510395495
 30
0.0
 10
404.2862371639392
 20
257.6195656142106
 30
0.0
 10
404.2618724567008
 20
257.6128364630154
 30
0.0
 10
404.2374962281447
 20
257.6061635991443
 30
0.0
 10
403.8891021468711
 20
257.5116412562237
 30
0.0
 10
403.5384237791193
 20
257.4286111116262
 30
0.0
 10
403.2107021113412
 20
257.361360597882
 30
0.0
 10
402.8817728182653
 20
257.3040856704496
 30
0.0
 10
402.5520158623821
 20
257.2567749313345
 30
0.0
 10
402.0834501441359
 20
257.2037373211048
 30
0.0
 10
401.6147177603693
 20
257.170604479033
 30
0.0
 10
401.4763247245897
 20
257.1625530227999
 30
0.0
 10
401.3379713390639
 20
257.1562293348978
 30
0.0
 10
401.1996844074615
 20
257.151628736857
 30
0.0
 10
400.9386515106592
 20
257.1461835836904
 30
0.0
 10
400.6780446526212
 20
257.1468471020441
 30
0.0
 10
400.5555526763476
 20
257.1424284706205
 30
0.0
 10
400.4331124758343
 20
257.1445258244819
 30
0.0
 10
400.3108151272387
 20
257.1424702557389
 30
0.0
 10
400.0664192875975
 20
257.1404336237453
 30
0.0
 10
399.8224586636416
 20
257.138400618549
 30
0.0
 10
399.700587741737
 20
257.1373850275348
 30
0.0
 10
399.5788267895331
 20
257.1363703529348
 30
0.0
 10
399.4571763800001
 20
257.1353565995237
 30
0.0
 10
399.1957069633972
 20
257.1331776877223
 30
0.0
 10
398.9347543645974
 20
257.1310030827359
 30
0.0
 10
398.7952497058085
 20
257.1298405439146
 30
0.0
 10
398.6558947610077
 20
257.1286792527099
 30
0.0
 10
398.5166903590668
 20
257.127519216029
 30
0.0
 10
397.8545330118382
 20
257.1220012381445
 30
0.0
 10
397.1958260547942
 20
257.1165120135117
 30
0.0
 10
396.6776437073312
 20
257.11219382729
 30
0.0
 10
396.1616976692031
 20
257.1078942769794
 30
0.0
 10
395.6480252980759
 20
257.1036136738938
 30
0.0
 10
394.6424985000577
 20
257.0952342839242
 30
0.0
 10
393.6460162321018
 20
257.0869302650385
 30
0.0
 10
393.1585112208948
 20
257.0828677232852
 30
0.0
 10
392.6732440447301
 20
257.0788238301572
 30
0.0
 10
392.190237034607
 20
257.0747987717462
 30
0.0
 10
391.6417144524727
 20
257.070227750236
 30
0.0
 10
391.0961801168688
 20
257.0656816307802
 30
0.0
 10
391.0288002173504
 20
257.0651201316185
 30
0.0
 10
390.9614660535631
 20
257.0645590135879
 30
0.0
 10
390.894177667395
 20
257.0639982770374
 30
0.0
 10
390.7596925314115
 20
257.0628775675727
 30
0.0
 10
390.6253908250049
 20
257.0617583866879
 30
0.0
 10
390.5582858684133
 20
257.0611991787172
 30
0.0
 10
390.4912268463115
 20
257.0606403535339
 30
0.0
 10
390.4242137952274
 20
257.0600819114425
 30
0.0
 10
390.2888956888822
 20
257.0589542605582
 30
0.0
 10
390.1537655682106
 20
257.0578281762212
 30
0.0
 10
390.085557459644
 20
257.0572597753173
 30
0.0
 10
390.0173973842554
 20
257.0566917746901
 30
0.0
 10
389.9492853749954
 20
257.0561241746138
 30
0.0
 10
388.4650579838764
 20
257.0437556130418
 30
0.0
 10
387.0037160784719
 20
257.0315777638504
 30
0.0
 10
385.6304926924
 20
257.0201342356521
 30
0.0
 10
384.2783591240438
 20
257.0088664559346
 30
0.0
 10
382.9470469937496
 20
256.9977721882005
 30
0.0
 10
373.386020389376
 20
256.9180969666301
 30
0.0
 10
364.8701630115169
 20
256.8471314885993
 30
0.0
 10
358.1304105950055
 20
256.7909668852218
 30
0.0
 10
351.5296457044536
 20
256.7359605112255
 30
0.0
 10
344.605482690512
 20
256.6782591528719
 30
0.0
 10
337.2093437180766
 20
256.6166246615376
 30
0.0
 10
329.8132047456411
 20
256.5549901702032
 30
0.0
  0
SPLINE
  5
9A
330
97
100
AcDbEntity
  8
0
  6
Continuous
 62
     0
370
    30
100
AcDbSpline
210
0.0
220
0.0
230
1.0
 70
     8
 71
     7
 72
   116
 73
   108
 74
     0
 42
0.000000001
 43
0.0
 40
0.0000000000000001
 40
0.0000000000000001
 40
0.0000000000000001
 40
0.0000000000000001
 40
0.0000000000000001
 40
0.0000000000000001
 40
0.0000000000000001
 40
0.0000000000000001
 40
0.472392
 40
0.472392
 40
0.472392
 40
0.472392
 40
0.472392
 40
0.5474578511451741
 40
0.5474578511451741
 40
0.5474578511451741
 40
0.5474578511451741
 40
0.5474578511451741
 40
0.55106568
 40
0.55106568
 40
0.55106568
 40
0.55106568
 40
0.55106568
 40
0.5546004552000001
 40
0.5546004552000001
 40
0.5546004552000001
 40
0.5546004552000001
 40
0.5546004552000001
 40
0.5581352303999999
 40
0.5581352303999999
 40
0.5581352303999999
 40
0.5581352303999999
 40
0.5581352303999999
 40
0.5832
 40
0.5832
 40
0.5832
 40
0.5832
 40
0.5832
 40
0.60913728
 40
0.60913728
 40
0.60913728
 40
0.60913728
 40
0.60913728
 40
0.6160319999999999
 40
0.6160319999999999
 40
0.6160319999999999
 40
0.6160319999999999
 40
0.6160319999999999
 40
0.6220205567999999
 40
0.6220205567999999
 40
0.6220205567999999
 40
0.6220205567999999
 40
0.6220205567999999
 40
0.6280091136
 40
0.6280091136
 40
0.6280091136
 40
0.6280091136
 40
0.6280091136
 40
0.63474624
 40
0.63474624
 40
0.63474624
 40
0.63474624
 40
0.63474624
 40
0.65082544015104
 40
0.65082544015104
 40
0.65082544015104
 40
0.65082544015104
 40
0.65082544015104
 40
0.6520357025280001
 40
0.6520357025280001
 40
0.6520357025280001
 40
0.6520357025280001
 40
0.6520357025280001
 40
0.6569122175999998
 40
0.6569122175999998
 40
0.6569122175999998
 40
0.6569122175999998
 40
0.6569122175999998
 40
0.706120687872
 40
0.706120687872
 40
0.706120687872
 40
0.706120687872
 40
0.706120687872
 40
0.72
 40
0.72
 40
0.72
 40
0.72
 40
0.72
 40
0.7604838
 40
0.7604838
 40
0.7604838
 40
0.7604838
 40
0.7604838
 40
0.7636272479999999
 40
0.7636272479999999
 40
0.7636272479999999
 40
0.7636272479999999
 40
0.7636272479999999
 40
0.767628
 40
0.767628
 40
0.767628
 40
0.767628
 40
0.767628
 40
0.7787999999999999
 40
0.7787999999999999
 40
0.7787999999999999
 40
0.7787999999999999
 40
0.7787999999999999
 40
0.96096922692471
 40
0.96096922692471
 40
0.96096922692471
 40
0.96096922692471
 40
0.96096922692471
 40
0.96096922692471
 40
0.96096922692471
 40
0.96096922692471
 10
329.8132047456413
 20
275.5549901702032
 30
0.0
 10
337.2093437180766
 20
275.4933556788691
 30
0.0
 10
344.6054826905121
 20
275.4317211875351
 30
0.0
 10
352.393937024846
 20
275.3668174015241
 30
0.0
 10
360.4512060085952
 20
275.2996734934384
 30
0.0
 10
368.3929459265839
 20
275.2334923275656
 30
0.0
 10
377.0105665711844
 20
275.1616788223139
 30
0.0
 10
384.759422745972
 20
275.0971050209652
 30
0.0
 10
385.8050237037612
 20
275.0883916796648
 30
0.0
 10
386.8333174876119
 20
275.0798225648138
 30
0.0
 10
387.844081015269
 20
275.0713995354307
 30
0.0
 10
388.885038811744
 20
275.0627248871413
 30
0.0
 10
389.9069737587524
 20
275.054208762597
 30
0.0
 10
389.9537978179192
 20
275.0538185621047
 30
0.0
 10
390.0005819236088
 20
275.0534286945579
 30
0.0
 10
390.0473261032105
 20
275.0530391597285
 30
0.0
 10
390.1397889690111
 20
275.0522686358481
 30
0.0
 10
390.2320955775569
 20
275.0514994141115
 30
0.0
 10
390.2777385904309
 20
275.0511190556715
 30
0.0
 10
390.3233433913239
 20
275.0507390156648
 30
0.0
 10
390.3689100105981
 20
275.0503592938381
 30
0.0
 10
390.4599669488798
 20
275.0496004860204
 30
0.0
 10
390.5508714170206
 20
275.0488429487871
 30
0.0
 10
390.59628727854
 20
275.0487155727453
 30
0.0
 10
390.6416580606474
 20
275.0475610279742
 30
0.0
 10
390.6870023388252
 20
275.0480811298244
 30
0.0
 10
391.0534971785879
 20
275.0416004936509
 30
0.0
 10
391.4177311944746
 20
275.066431562942
 30
0.0
 10
391.7330604149288
 20
275.111744605819
 30
0.0
 10
392.0424685715084
 20
275.1798765611542
 30
0.0
 10
392.3440692086268
 20
275.2698929442977
 30
0.0
 10
392.9383841335493
 20
275.495347583383
 30
0.0
 10
393.4868709750985
 20
275.8017337945018
 30
0.0
 10
393.7511187453549
 20
275.9758087374875
 30
0.0
 10
394.0050095742467
 20
276.1732805530266
 30
0.0
 10
394.2350145386661
 20
276.3787427332811
 30
0.0
 10
394.5102421422512
 20
276.664079248028
 30
0.0
 10
394.7553772006478
 20
276.9694071699591
 30
0.0
 10
394.8054966651148
 20
277.0343512123893
 30
0.0
 10
394.8542630537909
 20
277.1000994216324
 30
0.0
 10
394.9017020588021
 20
277.1666748574349
 30
0.0
 10
394.9878197301701
 20
277.2925324058382
 30
0.0
 10
395.0691810775453
 20
277.4209996326285
 30
0.0
 10
395.1059648841241
 20
277.4812571606759
 30
0.0
 10
395.1417058973637
 20
277.5420345193164
 30
0.0
 10
395.1763974383974
 20
277.6033096333031
 30
0.0
 10
395.2436693632146
 20
277.7268111979338
 30
0.0
 10
395.3066968080296
 20
277.8521271126348
 30
0.0
 10
395.3371438690609
 20
277.915216576692
 30
0.0
 10
395.3665192923842
 20
277.9787154728518
 30
0.0
 10
395.3948186593053
 20
278.0426017506956
 30
0.0
 10
395.4526599721919
 20
278.1791365078163
 30
0.0
 10
395.5056097168864
 20
278.3172220253418
 30
0.0
 10
395.5322662025874
 20
278.3907295097728
 30
0.0
 10
395.557543083659
 20
278.4646092180187
 30
0.0
 10
395.5814373382989
 20
278.5388301084157
 30
0.0
 10
395.6576690597003
 20
278.7912415426057
 30
0.0
 10
395.7180020139791
 20
279.0468595025779
 30
0.0
 10
395.752605531187
 20
279.2281743417628
 30
0.0
 10
395.7793023641429
 20
279.4102521166512
 30
0.0
 10
395.798125484856
 20
279.5926885531306
 30
0.0
 10
395.8099598852244
 20
279.7888177485204
 30
0.0
 10
395.8128470195072
 20
279.9844607250891
 30
0.0
 10
395.8130061284367
 20
279.9981532061448
 30
0.0
 10
395.8131132512751
 20
280.0118428976014
 30
0.0
 10
395.813204767855
 20
280.0255298518783
 30
0.0
 10
395.813204767855
 20
280.094349847963
 30
0.0
 10
395.813204767855
 20
280.1630902870008
 30
0.0
 10
395.813204767855
 20
280.2181119914223
 30
0.0
 10
395.813204767855
 20
280.2730832580478
 30
0.0
 10
395.813204767855
 20
280.3280044028919
 30
0.0
 10
395.813204767855
 20
280.9365774537094
 30
0.0
 10
395.813204767855
 20
281.5390634305907
 30
0.0
 10
395.813204767855
 20
282.0825159094547
 30
0.0
 10
395.813204767855
 20
282.6216011650341
 30
0.0
 10
395.813204767855
 20
283.1566746742886
 30
0.0
 10
395.813204767855
 20
283.8379885024814
 30
0.0
 10
395.813204767855
 20
284.5139073334
 30
0.0
 10
395.813204767855
 20
284.6623565797742
 30
0.0
 10
395.813204767855
 20
284.8105611725763
 30
0.0
 10
395.813204767855
 20
284.9585293686473
 30
0.0
 10
395.813204767855
 20
285.5372042714325
 30
0.0
 10
395.813204767855
 20
286.1125059880371
 30
0.0
 10
395.813204767855
 20
286.5392632311196
 30
0.0
 10
395.813204767855
 20
286.9645598470006
 30
0.0
 10
395.813204767855
 20
287.3885991871982
 30
0.0
 10
395.813204767855
 20
287.844424727603
 30
0.0
 10
395.813204767855
 20
288.2992495057683
 30
0.0
 10
395.813204767855
 20
288.3320156193691
 30
0.0
 10
395.813204767855
 20
288.3647767202223
 30
0.0
 10
395.813204767855
 20
288.3975328994427
 30
0.0
 10
395.813204767855
 20
288.4719677824426
 30
0.0
 10
395.813204767855
 20
288.5463781822059
 30
0.0
 10
395.813204767855
 20
288.5880405152126
 30
0.0
 10
395.813204767855
 20
288.6296955439512
 30
0.0
 10
395.813204767855
 20
288.6713434545096
 30
0.0
 10
395.813204767855
 20
288.8292658229608
 30
0.0
 10
395.813204767855
 20
288.9870911419142
 30
0.0
 10
395.813204767855
 20
289.1032524851148
 30
0.0
 10
395.813204767855
 20
289.2193692372361
 30
0.0
 10
395.813204767855
 20
289.3354453600346
 30
0.0
 10
395.813204767855
 20
291.3436089293451
 30
0.0
 10
395.813204767855
 20
293.3419428853481
 30
0.0
 10
395.813204767855
 20
295.2329188672277
 30
0.0
 10
395.813204767855
 20
297.1460198982998
 30
0.0
 10
395.813204767855
 20
299.0895352482191
 30
0.0
 10
395.8132047678228
 20
301.0631378296695
 30
0.0
 10
395.8132047677886
 20
303.0549901701983
 30
0.0
  0
LINE
  5
9B
330
97
100
AcDbEntity
  8
0
  6
Continuous
 62
     0
370
    30
100
AcDbLine
 10
389.813299
 20
394.054991
 30
0.0
 11
389.813299
 21
397.054991
 31
0.0
  0
LINE
  5
9C
330
97
100
AcDbEntity
  8
0
  6
Continuous
 62
     0
370
    30
100
AcDbLine
 10
419.813299
 20
397.054991
 30
0.0
 11
389.813299
 21
397.054991
 31
0.0
  0
LINE
  5
9D
330
97
100
AcDbEntity
  8
0
  6
Continuous
 62
     0
370
    30
100
AcDbLine
 10
419.813299
 20
394.054991
 30
0.0
 11
389.813299
 21
394.054991
 31
0.0
  0
LINE
  5
9E
330
97
100
AcDbEntity
  8
0
  6
Continuous
 62
     0
370
    30
100
AcDbLine
 10
419.813299
 20
394.054991
 30
0.0
 11
419.813299
 21
397.054991
 31
0.0
  0
LINE
  5
9F
330
97
100
AcDbEntity
  8
0
  6
Continuous
 62
     0
370
    30
100
AcDbLine
 10
413.813299
 20
304.054991
 30
0.0
 11
413.813299
 21
394.054991
 31
0.0
  0
LINE
  5
A0
330
97
100
AcDbEntity
  8
0
  6
Continuous
 62
     0
370
    30
100
AcDbLine
 10
395.813299
 20
304.054991
 30
0.0
 11
395.813299
 21
394.054991
 31
0.0
  0
LINE
  5
A1
330
97
100
AcDbEntity
  8
0
  6
Continuous
 62
     0
370
    30
100
AcDbLine
 10
369.813298
 20
303.05499
 30
0.0
 11
404.810192
 21
303.05499
 31
0.0
  0
LINE
  5
A2
330
97
100
AcDbEntity
  8
0
  6
Continuous
 62
     0
370
    30
100
AcDbLine
 10
404.810192
 20
303.05499
 30
0.0
 11
439.813298
 21
303.05499
 31
0.0
  0
LINE
  5
A3
330
97
100
AcDbEntity
  8
0
  6
Continuous
 62
     0
370
    30
100
AcDbLine
 10
369.813298
 20
304.05499
 30
0.0
 11
404.810192
 21
304.05499
 31
0.0
  0
LINE
  5
A4
330
97
100
AcDbEntity
  8
0
  6
Continuous
 62
     0
370
    30
100
AcDbLine
 10
404.810192
 20
304.05499
 30
0.0
 11
439.813298
 21
304.05499
 31
0.0
  0
LINE
  5
A5
330
97
100
AcDbEntity
  8
0
  6
Continuous
 62
     0
370
    30
100
AcDbLine
 10
439.813298
 20
303.05499
 30
0.0
 11
439.813298
 21
304.05499
 31
0.0
  0
LINE
  5
A6
330
97
100
AcDbEntity
  8
0
  6
Continuous
 62
     0
370
    30
100
AcDbLine
 10
369.813298
 20
303.05499
 30
0.0
 11
369.813298
 21
304.05499
 31
0.0
  0
ENDBLK
  5
A8
330
97
100
AcDbEntity
  8
0
100
AcDbBlockEnd
  0
BLOCK
  5
BD
330
AA
100
AcDbEntity
  8
0
100
AcDbBlockBegin
  2
d
 70
     0
 10
-53.126892
 20
440.490547
 30
0.0
  3
d
  1

  0
SPLINE
  5
AB
330
AA
100
AcDbEntity
  8
0
  6
Continuous
 62
     0
370
    30
100
AcDbSpline
210
0.0
220
0.0
230
1.0
 70
     8
 71
     7
 72
    31
 73
    23
 74
     0
 42
0.000000001
 43
0.0
 40
0.7390210995371491
 40
0.7390210995371491
 40
0.7390210995371491
 40
0.7390210995371491
 40
0.7390210995371491
 40
0.7390210995371491
 40
0.7390210995371491
 40
0.7390210995371491
 40
0.7687999999999999
 40
0.7687999999999999
 40
0.7687999999999999
 40
0.7687999999999999
 40
0.7687999999999999
 40
0.7928639999999999
 40
0.7928639999999999
 40
0.7928639999999999
 40
0.7928639999999999
 40
0.7928639999999999
 40
0.82
 40
0.82
 40
0.82
 40
0.82
 40
0.82
 40
1.0
 40
1.0
 40
1.0
 40
1.0
 40
1.0
 40
1.0
 40
1.0
 40
1.0
 10
218.1606715535957
 20
484.4535597783329
 30
0.0
 10
218.3069603318311
 20
484.4895513321243
 30
0.0
 10
218.454499808494
 20
484.5198927345673
 30
0.0
 10
218.6031600622267
 20
484.5445727388261
 30
0.0
 10
218.7528049988235
 20
484.5636006113524
 30
0.0
 10
218.9032950635678
 20
484.5770001954795
 30
0.0
 10
219.1766791326693
 20
484.5910834580914
 30
0.0
 10
219.4520251232241
 20
484.5867014084646
 30
0.0
 10
219.5754108487544
 20
484.5815785556735
 30
0.0
 10
219.6990586417933
 20
484.5703873035266
 30
0.0
 10
219.8228855170407
 20
484.5598468703961
 30
0.0
 10
220.086659977434
 20
484.5210119715342
 30
0.0
 10
220.3506029333359
 20
484.4724305544976
 30
0.0
 10
220.4904058942884
 20
484.4513991626451
 30
0.0
 10
220.6303005668577
 20
484.4255732148287
 30
0.0
 10
220.7701438749459
 20
484.4023718547251
 30
0.0
 10
221.8376944525106
 20
484.220685719538
 30
0.0
 10
222.905245016873
 20
484.0389995864616
 30
0.0
 10
223.8329403376529
 20
483.881115378243
 30
0.0
 10
224.7606356366138
 20
483.7232311737739
 30
0.0
 10
225.6883309141667
 20
483.5653469729594
 30
0.0
 10
226.6160261770566
 20
483.4074627746318
 30
0.0
 10
227.5437214399465
 20
483.2495785763042
 30
0.0
  0
SPLINE
  5
AC
330
AA
100
AcDbEntity
  8
0
  6
Continuous
 62
     0
370
    30
100
AcDbSpline
210
0.0
220
0.0
230
1.0
 70
     8
 71
     7
 72
    56
 73
    48
 74
     0
 42
0.000000001
 43
0.0
 40
0.0
 40
0.0
 40
0.0
 40
0.0
 40
0.0
 40
0.0
 40
0.0
 40
0.0
 40
0.18
 40
0.18
 40
0.18
 40
0.18
 40
0.18
 40
0.2071359999999999
 40
0.2071359999999999
 40
0.2071359999999999
 40
0.2071359999999999
 40
0.2071359999999999
 40
0.2312
 40
0.2312
 40
0.2312
 40
0.2312
 40
0.2312
 40
0.3548480000000001
 40
0.3548480000000001
 40
0.3548480000000001
 40
0.3548480000000001
 40
0.3548480000000001
 40
0.500000074586541
 40
0.500000074586541
 40
0.500000074586541
 40
0.500000074586541
 40
0.500000074586541
 40
0.5023804928
 40
0.5023804928
 40
0.5023804928
 40
0.5023804928
 40
0.5023804928
 40
0.5783820799999999
 40
0.5783820799999999
 40
0.5783820799999999
 40
0.5783820799999999
 40
0.5783820799999999
 40
0.645152
 40
0.645152
 40
0.645152
 40
0.645152
 40
0.645152
 40
0.7502887996556722
 40
0.7502887996556722
 40
0.7502887996556722
 40
0.7502887996556722
 40
0.7502887996556722
 40
0.7502887996556722
 40
0.7502887996556722
 40
0.7502887996556722
 10
227.5437214399465
 20
483.2495785763042
 30
0.0
 10
228.4714167071887
 20
483.0916940273333
 30
0.0
 10
229.3991119744309
 20
482.9338094783624
 30
0.0
 10
230.3268072563362
 20
482.7759249268873
 30
0.0
 10
231.2545025596493
 20
482.61804037178
 30
0.0
 10
232.1821978847806
 20
482.4601558129957
 30
0.0
 10
233.2497484541526
 20
482.2784692763264
 30
0.0
 10
234.3172990367298
 20
482.0967827372735
 30
0.0
 10
234.4571567244756
 20
482.0723818100752
 30
0.0
 10
234.5970029343534
 20
482.0505986822906
 30
0.0
 10
234.736872240708
 20
482.0240326761465
 30
0.0
 10
235.0007272460781
 20
481.9827882056673
 30
0.0
 10
235.2646472146439
 20
481.9318148371684
 30
0.0
 10
235.388727147398
 20
481.9001640329619
 30
0.0
 10
235.5126116306559
 20
481.8692277892891
 30
0.0
 10
235.6363787604384
 20
481.8322877198837
 30
0.0
 10
236.3945594573598
 20
481.58671644662
 30
0.0
 10
237.1412526620023
 20
481.2066399311382
 30
0.0
 10
237.7502527463488
 20
480.7996398560516
 30
0.0
 10
238.3283637534795
 20
480.2951066528804
 30
0.0
 10
238.8763882451031
 20
479.7232963428528
 30
0.0
 10
239.9722956766545
 20
478.3204234885748
 30
0.0
 10
240.8316815849598
 20
476.6312731750764
 30
0.0
 10
241.2206610456738
 20
475.6577685589242
 30
0.0
 10
241.5199155344609
 20
474.6332014089302
 30
0.0
 10
241.7230787268402
 20
473.5852968510187
 30
0.0
 10
241.8360568661101
 20
472.5147335509532
 30
0.0
 10
241.8470283103827
 20
471.4615804109324
 30
0.0
 10
241.8471787477295
 20
471.4445925480342
 30
0.0
 10
241.8473025690687
 20
471.4276094140697
 30
0.0
 10
241.8473997431121
 20
471.4106311077578
 30
0.0
 10
241.8497209781253
 20
470.8517345559343
 30
0.0
 10
241.8230795087987
 20
470.2982875572088
 30
0.0
 10
241.7697443697446
 20
469.7699316094511
 30
0.0
 10
241.6947568884699
 20
469.2515320089783
 30
0.0
 10
241.5908131916535
 20
468.7470052649596
 30
0.0
 10
241.3487539304059
 20
467.8305811537858
 30
0.0
 10
241.0189426747756
 20
466.9828432866918
 30
0.0
 10
240.8462076101319
 20
466.6031301813424
 30
0.0
 10
240.6566405796897
 20
466.2410760718376
 30
0.0
 10
240.4505483763799
 20
465.8981679186218
 30
0.0
 10
239.8790750143283
 20
465.0695916086222
 30
0.0
 10
239.2076554375997
 20
464.3915775294905
 30
0.0
 10
238.7632356149464
 20
464.0399230206614
 30
0.0
 10
238.2929018535428
 20
463.7465488326671
 30
0.0
 10
237.798249056838
 20
463.5235118609067
 30
0.0
 10
237.2851869375847
 20
463.3713570672171
 30
0.0
 10
236.7596828917048
 20
463.2895906976556
 30
0.0
  0
SPLINE
  5
AD
330
AA
100
AcDbEntity
  8
0
  6
Continuous
 62
     0
370
    30
100
AcDbSpline
210
0.0
220
0.0
230
1.0
 70
     8
 71
     3
 72
    60
 73
    56
 74
     0
 42
0.000000001
 43
0.0
 40
3.823187712711738
 40
3.823187712711738
 40
3.823187712711738
 40
3.823187712711738
 40
4.060811747576055
 40
4.388412557748515
 40
4.631846646317995
 40
4.758157608260947
 40
5.024358017497671
 40
5.165597279328392
 40
5.313346245936479
 40
5.463741388802166
 40
5.708046532483991
 40
5.949292372316185
 40
6.190657612838741
 40
6.431069429359907
 40
6.635328365925191
 40
7.049594877638682
 40
7.255566032994274
 40
7.416052335034362
 40
7.575396307870445
 40
7.733040335986299
 40
7.888661834123734
 40
7.960156630033784
 40
8.040413508013778
 40
8.080755317495711
 40
8.115134055166799
 40
8.165645146688325
 40
8.21607201001941
 40
8.41687879645356
 40
8.61611103369795
 40
8.931668295961877
 40
9.24201018879425
 40
9.546540053472215
 40
9.990931843220276
 40
10.55741394454416
 40
10.82842889061548
 40
11.27453724290881
 40
11.44475918955954
 40
11.59429441508409
 40
11.79106837962823
 40
11.90910210746973
 40
12.01937394594934
 40
12.07221990632558
 40
12.12249810325208
 40
13.79150435952104
 40
14.31865593832357
 40
14.84312889521637
 40
15.364851900304
 40
15.88380554026137
 40
16.40004122763013
 40
16.90797423166225
 40
17.36333988564926
 40
17.81917305774763
 40
21.01622199043419
 40
24.23447486567451
 40
28.15518860609952
 40
28.15518860609952
 40
28.15518860609952
 40
28.15518860609952
 10
184.6479134531259
 20
473.9861368335543
 30
0.0
 10
184.6479124740582
 20
473.9861354363492
 30
0.0
 10
184.6439419904859
 20
473.9889181768893
 30
0.0
 10
184.6254532431493
 20
474.0032454928715
 30
0.0
 10
184.599463512673
 20
474.0253966739281
 30
0.0
 10
184.5695999486841
 20
474.0523947565863
 30
0.0
 10
184.5381804252726
 20
474.0823707551631
 30
0.0
 10
184.4991022616475
 20
474.1221421654094
 30
0.0
 10
184.4657301977371
 20
474.1575892032415
 30
0.0
 10
184.4172218755318
 20
474.2117397592739
 30
0.0
 10
184.3958403920349
 20
474.2376379185068
 30
0.0
 10
184.359009329396
 20
474.2845826488718
 30
0.0
 10
184.3230899186705
 20
474.3351374376537
 30
0.0
 10
184.2898222459258
 20
474.3855865385718
 30
0.0
 10
184.2390351186805
 20
474.4695488398816
 30
0.0
 10
184.1891708846274
 20
474.5619173278182
 30
0.0
 10
184.1433123912385
 20
474.6585122091007
 30
0.0
 10
184.1131637324967
 20
474.7271929719045
 30
0.0
 10
184.0864563635566
 20
474.7925875061253
 30
0.0
 10
184.0611583534023
 20
474.8593113100654
 30
0.0
 10
184.0410344119074
 20
474.9167459762991
 30
0.0
 10
184.0265123125167
 20
474.9608548420222
 30
0.0
 10
184.0153149492716
 20
474.9957045663112
 30
0.0
 10
184.0062854474923
 20
475.0264842285063
 30
0.0
 10
184.0030756561295
 20
475.0356234714135
 30
0.0
 10
183.9877452339748
 20
475.0880370213963
 30
0.0
 10
183.9620460746499
 20
475.1759237818325
 30
0.0
 10
183.9214183104096
 20
475.3193494503774
 30
0.0
 10
183.8620519412531
 20
475.5392158049481
 30
0.0
 10
183.7971467759025
 20
475.7952661563348
 30
0.0
 10
183.7300816796867
 20
476.0823792419285
 30
0.0
 10
183.660249126442
 20
476.4079800707397
 30
0.0
 10
183.5837356120202
 20
476.8080334087877
 30
0.0
 10
183.5231280456572
 20
477.1881403209326
 30
0.0
 10
183.4753184956793
 20
477.5494845459202
 30
0.0
 10
183.4505927416158
 20
477.7807881575364
 30
0.0
 10
183.4357223877448
 20
477.9566473373734
 30
0.0
 10
183.4279631386764
 20
478.0643652388987
 30
0.0
 10
183.423148462065
 20
478.1479722023792
 30
0.0
 10
183.4203141582654
 20
478.2118287529358
 30
0.0
 10
183.4191175861324
 20
478.245808471447
 30
0.0
 10
183.4184739783441
 20
478.2698236508322
 30
0.0
 10
183.4152310585517
 20
478.3822418127338
 30
0.0
 10
183.4696604277864
 20
479.3204318863409
 30
0.0
 10
183.497073125558
 20
480.2001690188677
 30
0.0
 10
183.5110832995541
 20
480.7281216095043
 30
0.0
 10
183.5206920635733
 20
481.2482095994577
 30
0.0
 10
183.526437049948
 20
481.7671384570812
 30
0.0
 10
183.5283614748936
 20
482.2801628513148
 30
0.0
 10
183.5258223198334
 20
482.7751902874185
 30
0.0
 10
183.5222475398274
 20
483.2374151293257
 30
0.0
 10
183.5126803292275
 20
484.5847302033344
 30
0.0
 10
183.4962825039579
 20
486.8341874575244
 30
0.0
 10
183.470799635439
 20
490.2214593211602
 30
0.0
 10
183.4511406187113
 20
492.5607506952866
 30
0.0
 10
183.4397602640708
 20
493.8455249251241
 30
0.0
  0
SPLINE
  5
AE
330
AA
100
AcDbEntity
  8
0
  6
Continuous
 62
     0
370
    30
100
AcDbSpline
210
0.0
220
0.0
230
1.0
 70
     8
 71
     3
 72
    68
 73
    64
 74
     0
 42
0.000000001
 43
0.0
 40
0.0
 40
0.0
 40
0.0
 40
0.0
 40
1.099334531823237
 40
1.653690843725493
 40
2.212264607963468
 40
2.49339291186246
 40
3.059853811285473
 40
3.345394762783068
 40
3.632614383968111
 40
3.921615721632305
 40
4.859917920806738
 40
5.327395680321023
 40
5.793521082373698
 40
6.025463416638464
 40
6.256216808888698
 40
6.485042880501912
 40
6.713419162392098
 40
7.623188743258988
 40
8.526821936611656
 40
9.39516924424048
 40
11.11446599847734
 40
11.9654461574605
 40
12.8107064291074
 40
13.65033252327154
 40
14.06814310507059
 40
14.27681427401802
 40
14.48511970393814
 40
14.90058347853094
 40
15.31453922288265
 40
16.13791782694529
 40
16.95524593330433
 40
18.57176331418914
 40
20.16424038072275
 40
21.73302853457235
 40
29.43444087718554
 40
31.89070167344399
 40
34.30454114475477
 40
35.82930318489998
 40
36.55482787183804
 40
37.27836071611416
 40
38.00000845858972
 40
38.36029301766329
 40
39.44167181325977
 40
39.80093505932258
 40
40.15966306678419
 40
40.87906412658116
 40
41.42084986313322
 40
41.59915977031964
 40
41.95168525381282
 40
42.30118068678215
 40
42.99678908286079
 40
43.690246524723
 40
45.07306954461149
 40
46.45221681668789
 40
47.9937001403047
 40
49.53342459710299
 40
52.61338094366653
 40
54.15686722922253
 40
55.7044769767863
 40
57.25701218983539
 40
61.99021795343325
 40
66.8103689904681
 40
76.24097613485331
 40
76.24097613485331
 40
76.24097613485331
 40
76.24097613485331
 10
175.4026527433577
 20
455.3157593220847
 30
0.0
 10
175.7635003871025
 20
455.2543467448234
 30
0.0
 10
176.3105233495037
 20
455.1858652143318
 30
0.0
 10
177.0455831993505
 20
455.1420370461884
 30
0.0
 10
177.5094026545995
 20
455.1344698102628
 30
0.0
 10
177.9770466947088
 20
455.1419230017831
 30
0.0
 10
178.3534504008777
 20
455.1601196329615
 30
0.0
 10
178.73099450593
 20
455.1905267021016
 30
0.0
 10
179.0158469877684
 20
455.2196743702581
 30
0.0
 10
179.5161325964149
 20
455.2813741650605
 30
0.0
 10
180.0640413493798
 20
455.3777495740837
 30
0.0
 10
180.5282536517836
 20
455.459439195302
 30
0.0
 10
180.8359140560981
 20
455.5155286090574
 30
0.0
 10
181.0728427392498
 20
455.559625233727
 30
0.0
 10
181.2501085098482
 20
455.5931720940154
 30
0.0
 10
181.4052735015665
 20
455.622723123131
 30
0.0
 10
181.7178002147343
 20
455.6819012839705
 30
0.0
 10
182.1892337141182
 20
455.7708891827327
 30
0.0
 10
182.8094075494477
 20
455.8867315708841
 30
0.0
 10
183.6231322932138
 20
456.0373043208826
 30
0.0
 10
184.4325838201837
 20
456.1846752474694
 30
0.0
 10
185.247792531964
 20
456.3302607530246
 30
0.0
 10
185.8584648524859
 20
456.4377795550106
 30
0.0
 10
186.3712056110153
 20
456.5267012545596
 30
0.0
 10
186.7294385606141
 20
456.5879706211708
 30
0.0
 10
186.9402505264337
 20
456.6239034488542
 30
0.0
 10
187.149655555677
 20
456.6595735148705
 30
0.0
 10
187.4110892766341
 20
456.7040399046554
 30
0.0
 10
187.8279858289237
 20
456.7748123664128
 30
0.0
 10
188.3473835345809
 20
456.8627205026598
 30
0.0
 10
189.173253023177
 20
457.0019118602153
 30
0.0
 10
190.1988996731045
 20
457.1736356701615
 30
0.0
 10
191.4240627530393
 20
457.3767879377573
 30
0.0
 10
194.2294909647792
 20
457.8369712455498
 30
0.0
 10
197.3254357524253
 20
458.3279378933503
 30
0.0
 10
200.7622933797471
 20
458.8374184586604
 30
0.0
 10
202.5426166012792
 20
459.0909743234274
 30
0.0
 10
203.8619885411615
 20
459.271684272823
 30
0.0
 10
204.711129943153
 20
459.3850831323373
 30
0.0
 10
205.3349476694503
 20
459.4669646358317
 30
0.0
 10
205.8565132743687
 20
459.5341777950618
 30
0.0
 10
206.4833884153896
 20
459.6138275191189
 30
0.0
 10
207.0144559252106
 20
459.6799406819268
 30
0.0
 10
207.5420435232244
 20
459.7441875360252
 30
0.0
 10
207.9634652162349
 20
459.7949560275533
 30
0.0
 10
208.4419357804095
 20
459.8516779060247
 30
0.0
 10
208.8793814440195
 20
459.9023417708968
 30
0.0
 10
209.1943653865528
 20
459.9383616026032
 30
0.0
 10
209.4444368287153
 20
459.9667446396763
 30
0.0
 10
209.8284849983709
 20
460.0100323337916
 30
0.0
 10
210.2963867473342
 20
460.0623746089786
 30
0.0
 10
211.0387091632086
 20
460.1447892285243
 30
0.0
 10
211.9615907172168
 20
460.2462630855923
 30
0.0
 10
213.1138520106905
 20
460.3717119515309
 30
0.0
 10
214.3097464115966
 20
460.5009036508629
 30
0.0
 10
215.9585344807317
 20
460.6782691424946
 30
0.0
 10
217.6005406000159
 20
460.8550018063163
 30
0.0
 10
219.2439731269473
 20
461.0341061354388
 30
0.0
 10
220.4806827948318
 20
461.1704414231027
 30
0.0
 10
222.5624362880822
 20
461.4033381723656
 30
0.0
 10
225.5087173791138
 20
461.7449226826946
 30
0.0
 10
230.5290575032658
 20
462.3719300910499
 30
0.0
 10
234.2818107678535
 20
462.9030837525244
 30
0.0
 10
236.7614117085737
 20
463.2898603586022
 30
0.0
  0
SPLINE
  5
AF
330
AA
100
AcDbEntity
  8
0
  6
Continuous
 62
     0
370
    30
100
AcDbSpline
210
0.0
220
0.0
230
1.0
 70
     8
 71
     3
 72
    35
 73
    31
 74
     0
 42
0.000000001
 43
0.0
 40
7.49104397010839
 40
7.49104397010839
 40
7.49104397010839
 40
7.49104397010839
 40
8.346879023275962
 40
9.396696912339914
 40
11.55004406100186
 40
12.32231558895694
 40
13.10382165917343
 40
13.89469644868517
 40
15.50535464288685
 40
16.32531772845943
 40
17.15677255347648
 40
17.99769375142874
 40
18.66714821746339
 40
19.00685995311381
 40
19.34529410081657
 40
19.67596462037573
 40
20.00093934115219
 40
20.6473019392682
 40
21.94341714419082
 40
23.90260418911203
 40
25.87290093437992
 40
27.19196248939988
 40
28.51501678636478
 40
30.18718394810856
 40
33.54096779021314
 40
36.89967772532832
 40
43.63766825286588
 40
48.73470830017872
 40
56.73816615301598
 40
65.67375751193988
 40
65.67375751193988
 40
65.67375751193988
 40
65.67375751193988
 10
184.0949287213646
 20
474.7721236619882
 30
0.0
 10
184.2570901920196
 20
474.8115752399967
 30
0.0
 10
184.6162326814003
 20
474.8992978655544
 30
0.0
 10
185.370391657006
 20
475.0851864200959
 30
0.0
 10
186.0904022749141
 20
475.2655826614238
 30
0.0
 10
186.7439544970745
 20
475.4320884538156
 30
0.0
 10
187.1506468644463
 20
475.5366807424539
 30
0.0
 10
187.6936310740693
 20
475.6777318962841
 30
0.0
 10
188.2265649785593
 20
475.8184279023297
 30
0.0
 10
188.7518904534568
 20
475.9596605525639
 30
0.0
 10
189.1383608083567
 20
476.0649154520625
 30
0.0
 10
189.4948184496969
 20
476.1634038901213
 30
0.0
 10
189.7740569468621
 20
476.2415801372149
 30
0.0
 10
189.962341592086
 20
476.2948042047807
 30
0.0
 10
190.1055855583309
 20
476.3355685634349
 30
0.0
 10
190.2687377741431
 20
476.3822696480887
 30
0.0
 10
190.5048211255414
 20
476.4501266328123
 30
0.0
 10
190.9322851608683
 20
476.5735467585218
 30
0.0
 10
191.675638292335
 20
476.7897673538626
 30
0.0
 10
192.6654372240182
 20
477.0809150989493
 30
0.0
 10
193.6799336127864
 20
477.3826497980158
 30
0.0
 10
194.576910797978
 20
477.6512611875271
 30
0.0
 10
195.418746760146
 20
477.9045475868329
 30
0.0
 10
196.6669093087323
 20
478.2816726825669
 30
0.0
 10
198.3284852206231
 20
478.786236667042
 30
0.0
 10
201.019858007085
 20
479.6050124628645
 30
0.0
 10
204.0955752119379
 20
480.5370952833778
 30
0.0
 10
208.1533962247228
 20
481.7426573833663
 30
0.0
 10
212.7083924647881
 20
483.0482944040624
 30
0.0
 10
216.2632496018126
 20
483.9867608022149
 30
0.0
 10
218.1608017842763
 20
484.4536155778211
 30
0.0
  0
SPLINE
  5
B0
330
AA
100
AcDbEntity
  8
0
  6
Continuous
 62
     0
370
    30
100
AcDbSpline
210
0.0
220
0.0
230
1.0
 70
     8
 71
     3
 72
    51
 73
    47
 74
     0
 42
0.000000001
 43
0.0
 40
6.295904523756782
 40
6.295904523756782
 40
6.295904523756782
 40
6.295904523756782
 40
8.35836551954909
 40
12.57985991208143
 40
16.83270213790417
 40
21.11263716851527
 40
25.41327693863959
 40
27.5682488225139
 40
29.72434523019626
 40
29.90915668788
 40
30.09064757687377
 40
30.27755200630722
 40
30.4719372417964
 40
30.69376445026487
 40
30.91820436458902
 40
31.14536979262415
 40
31.3753606457081
 40
31.89033569985657
 40
32.15351472574635
 40
32.69217353493563
 40
33.24828762040713
 40
34.11991647975699
 40
34.42098524436879
 40
34.93892969412423
 40
35.59712867476713
 40
35.84083619764781
 40
36.78736417417824
 40
37.23249754090356
 40
37.45365401993713
 40
37.72743832804171
 40
38.00461512194814
 40
38.35904452828449
 40
38.63270159053277
 40
38.90054118388477
 40
39.44626709939335
 40
39.96010600818271
 40
40.21002567368647
 40
40.4549324596216
 40
40.9295696798893
 40
41.38549552682748
 40
42.24532416188859
 40
43.60668698382013
 40
45.73431681448699
 40
47.80351324643775
 40
49.02331884376316
 40
49.95949940446775
 40
49.95949940446775
 40
49.95949940446775
 40
49.95949940446775
 10
165.4550235199207
 20
493.630376809649
 30
0.0
 10
165.4639313378974
 20
492.9543426466577
 30
0.0
 10
165.491398074662
 20
490.8945444643424
 30
0.0
 10
165.5389441504134
 20
487.4405317094688
 30
0.0
 10
165.5983577738685
 20
483.2594647947154
 30
0.0
 10
165.6595032104203
 20
479.0520091687726
 30
0.0
 10
165.711309699317
 20
475.5331927480727
 30
0.0
 10
165.7531572695468
 20
472.7084050170639
 30
0.0
 10
165.7748180125811
 20
471.2376716881594
 30
0.0
 10
165.7872067073064
 20
470.4078854454622
 30
0.0
 10
165.7898082108363
 20
470.2279218683368
 30
0.0
 10
165.7926768438416
 20
470.0424388116243
 30
0.0
 10
165.7954138027458
 20
469.8424768957406
 30
0.0
 10
165.7997890644003
 20
469.6291070101156
 30
0.0
 10
165.8059420276789
 20
469.4050190070736
 30
0.0
 10
165.8138311950129
 20
469.1781041293822
 30
0.0
 10
165.8275170074047
 20
468.8544829715744
 30
0.0
 10
165.8459116245619
 20
468.5189287085296
 30
0.0
 10
165.875915918232
 20
468.0810049994506
 30
0.0
 10
165.9133408179903
 20
467.6299515600217
 30
0.0
 10
165.9808631180641
 20
466.9785956546393
 30
0.0
 10
166.0560821951406
 20
466.4089533655726
 30
0.0
 10
166.1430363785134
 20
465.8555918633943
 30
0.0
 10
166.2273136995386
 20
465.3746127632573
 30
0.0
 10
166.3200653257304
 20
464.9164924853727
 30
0.0
 10
166.4526460128485
 20
464.3261952084756
 30
0.0
 10
166.5839497434753
 20
463.8111428811718
 30
0.0
 10
166.7300317775571
 20
463.3132171442537
 30
0.0
 10
166.8198928203835
 20
463.0258898596159
 30
0.0
 10
166.8963939085615
 20
462.7923633009132
 30
0.0
 10
166.9904371261463
 20
462.519207472123
 30
0.0
 10
167.0923872794239
 20
462.241608542628
 30
0.0
 10
167.2001505069886
 20
461.9684957458019
 30
0.0
 10
167.3376410517199
 20
461.6404933788547
 30
0.0
 10
167.5163280776674
 20
461.2490373753932
 30
0.0
 10
167.7086730579044
 20
460.8699552921559
 30
0.0
 10
167.8652539749345
 20
460.5839190920406
 30
0.0
 10
168.0211162070115
 20
460.3124243492153
 30
0.0
 10
168.2195763589835
 20
459.9895782314628
 30
0.0
 10
168.5405166744298
 20
459.511178570331
 30
0.0
 10
169.0600197672165
 20
458.8255608897348
 30
0.0
 10
170.0122293468135
 20
457.8019047211605
 30
0.0
 10
171.442794623648
 20
456.7029118908637
 30
0.0
 10
173.0511989914174
 20
455.9268924563403
 30
0.0
 10
174.39198011152
 20
455.5150701552728
 30
0.0
 10
175.0949837315238
 20
455.368109081214
 30
0.0
 10
175.4022780396767
 20
455.3158231058301
 30
0.0
  0
ELLIPSE
  5
B1
330
AA
100
AcDbEntity
  8
0
  6
Continuous
 62
     0
370
    30
100
AcDbEllipse
 10
173.269016
 20
592.334305
 30
0.0
 11
14.99892230971102
 21
0.1798041914226947
 31
0.0
210
0.0
220
0.0
230
-1.0
 40
0.183039
 41
0.0
 42
6.283185307179586
  0
ELLIPSE
  5
B2
330
AA
100
AcDbEntity
  8
0
  6
Continuous
 62
     0
370
    30
100
AcDbEllipse
 10
173.304369
 20
589.385199
 30
0.0
 11
14.99892230971102
 21
0.1798041914226947
 31
0.0
210
0.0
220
0.0
230
-1.0
 40
0.183039
 41
-0.0000000192332523
 42
3.141592634356536
  0
LINE
  5
B3
330
AA
100
AcDbEntity
  8
0
  6
Continuous
 62
     0
370
    30
100
AcDbLine
 10
158.305447
 20
589.205395
 30
0.0
 11
158.270094
 21
592.154501
 31
0.0
  0
LINE
  5
B4
330
AA
100
AcDbEntity
  8
0
  6
Continuous
 62
     0
370
    30
100
AcDbLine
 10
188.303292
 20
589.565004
 30
0.0
 11
188.267938
 21
592.514109
 31
0.0
  0
ELLIPSE
  5
B5
330
AA
100
AcDbEntity
  8
0
  6
Continuous
 62
     0
370
    30
100
AcDbEllipse
 10
174.364969
 20
500.91204
 30
0.0
 11
-8.999353385826609
 21
-0.1078825148536168
 31
0.0
210
0.0
220
0.0
230
1.0
 40
0.183039
 41
0.0000000192332585
 42
3.141592672823047
  0
LINE
  5
B6
330
AA
100
AcDbEntity
  8
0
  6
Continuous
 62
     0
370
    30
100
AcDbLine
 10
165.365615
 20
500.804157
 30
0.0
 11
164.331345
 21
587.081012
 31
0.0
  0
LINE
  5
B7
330
AA
100
AcDbEntity
  8
0
  6
Continuous
 62
     0
370
    30
100
AcDbLine
 10
183.364322
 20
501.019922
 30
0.0
 11
182.330052
 21
587.296777
 31
0.0
  0
ELLIPSE
  5
B8
330
AA
100
AcDbEntity
  8
0
  6
Continuous
 62
     0
370
    30
100
AcDbEllipse
 10
174.37783
 20
499.928821
 30
0.0
 11
-34.99748530689188
 21
-0.4195499897356137
 31
0.0
210
0.0
220
0.0
230
1.0
 40
0.183038
 41
0.0000000192332568
 42
3.141592672823049
  0
ELLIPSE
  5
B9
330
AA
100
AcDbEntity
  8
0
  6
Continuous
 62
     0
370
    30
100
AcDbEllipse
 10
174.366046
 20
500.911856
 30
0.0
 11
-34.99748530689188
 21
-0.4195499897356137
 31
0.0
210
0.0
220
0.0
230
1.0
 40
0.183038
 41
4.972485218413171
 42
5.499034599933883
  0
ELLIPSE
  5
BA
330
AA
100
AcDbEntity
  8
0
  6
Continuous
 62
     0
370
    30
100
AcDbEllipse
 10
174.366046
 20
500.911856
 30
0.0
 11
-34.99748530689188
 21
-0.4195499897356137
 31
0.0
210
0.0
220
0.0
230
1.0
 40
0.183038
 41
5.499034599933883
 42
10.73554157989519
  0
LINE
  5
BB
330
AA
100
AcDbEntity
  8
0
  6
Continuous
 62
     0
370
    30
100
AcDbLine
 10
139.380345
 20
499.509271
 30
0.0
 11
139.368561
 21
500.492306
 31
0.0
  0
LINE
  5
BC
330
AA
100
AcDbEntity
  8
0
  6
Continuous
 62
     0
370
    30
100
AcDbLine
 10
209.375316
 20
500.348371
 30
0.0
 11
209.363531
 21
501.331406
 31
0.0
  0
ENDBLK
  5
BE
330
AA
100
AcDbEntity
  8
0
100
AcDbBlockEnd
  0
BLOCK
  5
CE
330
C0
100
AcDbEntity
  8
0
100
AcDbBlockBegin
  2
e
 70
     0
 10
85.982422
 20
0.0
 30
0.0
  3
e
  1

  0
SPLINE
  5
C1
330
C0
100
AcDbEntity
  8
0
  6
Continuous
 62
     0
370
    30
100
AcDbSpline
210
0.0
220
0.0
230
1.0
 70
     8
 71
     7
 72
   116
 73
   108
 74
     0
 42
0.000000001
 43
0.0
 40
0.020156114859317
 40
0.020156114859317
 40
0.020156114859317
 40
0.020156114859317
 40
0.020156114859317
 40
0.020156114859317
 40
0.020156114859317
 40
0.020156114859317
 40
0.2212
 40
0.2212
 40
0.2212
 40
0.2212
 40
0.2212
 40
0.232372
 40
0.232372
 40
0.232372
 40
0.232372
 40
0.232372
 40
0.236372752
 40
0.236372752
 40
0.236372752
 40
0.236372752
 40
0.236372752
 40
0.2395162
 40
0.2395162
 40
0.2395162
 40
0.2395162
 40
0.2395162
 40
0.28
 40
0.28
 40
0.28
 40
0.28
 40
0.28
 40
0.293879312128
 40
0.293879312128
 40
0.293879312128
 40
0.293879312128
 40
0.293879312128
 40
0.3430877824
 40
0.3430877824
 40
0.3430877824
 40
0.3430877824
 40
0.3430877824
 40
0.3479642974720001
 40
0.3479642974720001
 40
0.3479642974720001
 40
0.3479642974720001
 40
0.3479642974720001
 40
0.34917455984896
 40
0.34917455984896
 40
0.34917455984896
 40
0.34917455984896
 40
0.34917455984896
 40
0.36525376
 40
0.36525376
 40
0.36525376
 40
0.36525376
 40
0.36525376
 40
0.3719908864
 40
0.3719908864
 40
0.3719908864
 40
0.3719908864
 40
0.3719908864
 40
0.3779794432
 40
0.3779794432
 40
0.3779794432
 40
0.3779794432
 40
0.3779794432
 40
0.383968
 40
0.383968
 40
0.383968
 40
0.383968
 40
0.383968
 40
0.3908627199999999
 40
0.3908627199999999
 40
0.3908627199999999
 40
0.3908627199999999
 40
0.3908627199999999
 40
0.4168
 40
0.4168
 40
0.4168
 40
0.4168
 40
0.4168
 40
0.4418647696
 40
0.4418647696
 40
0.4418647696
 40
0.4418647696
 40
0.4418647696
 40
0.4453995447999999
 40
0.4453995447999999
 40
0.4453995447999999
 40
0.4453995447999999
 40
0.4453995447999999
 40
0.4489343200000001
 40
0.4489343200000001
 40
0.4489343200000001
 40
0.4489343200000001
 40
0.4489343200000001
 40
0.4525421488548259
 40
0.4525421488548259
 40
0.4525421488548259
 40
0.4525421488548259
 40
0.4525421488548259
 40
0.527608
 40
0.527608
 40
0.527608
 40
0.527608
 40
0.527608
 40
1.0
 40
1.0
 40
1.0
 40
1.0
 40
1.0
 40
1.0
 40
1.0
 40
1.0
 10
-22.0443235206956
 20
303.0549825407962
 30
0.0
 10
-22.04432352057495
 20
298.776963345194
 30
0.0
 10
-22.04432352035415
 20
294.4830467891865
 30
0.0
 10
-22.04432352035415
 20
290.1460751562888
 30
0.0
 10
-22.0443235203542
 20
285.7610378719161
 30
0.0
 10
-22.04432352035414
 20
281.3393716119771
 30
0.0
 10
-22.04432352035414
 20
276.6567459039634
 30
0.0
 10
-22.04432352035415
 20
271.9883673406211
 30
0.0
 10
-22.0443235203541
 20
271.7426470250987
 30
0.0
 10
-22.0443235203541
 20
271.496975588783
 30
0.0
 10
-22.04432352035415
 20
271.2513577978744
 30
0.0
 10
-22.04432352035414
 20
270.9178623695923
 30
0.0
 10
-22.04432352035415
 20
270.5844836969468
 30
0.0
 10
-22.04380378092637
 20
270.4965868154769
 30
0.0
 10
-22.04536940396909
 20
270.4086981643506
 30
0.0
 10
-22.04365780074609
 20
270.3208188227367
 30
0.0
 10
-22.04487061194745
 20
270.1639068440753
 30
0.0
 10
-22.04387428756323
 20
270.0070246622503
 30
0.0
 10
-22.04300834387661
 20
269.9380055596921
 30
0.0
 10
-22.0417150005153
 20
269.8689988012114
 30
0.0
 10
-22.03999445231462
 20
269.800007670804
 30
0.0
 10
-22.01018941256656
 20
268.8427568395037
 30
0.0
 10
-21.8981902638637
 20
267.8897795267262
 30
0.0
 10
-21.72404388905414
 20
267.0161469126086
 30
0.0
 10
-21.48115964875264
 20
266.1600958625943
 30
0.0
 10
-21.17191605469627
 20
265.3282517667077
 30
0.0
 10
-20.67183744798874
 20
264.2520292482893
 30
0.0
 10
-20.06489732074942
 20
263.2407281158867
 30
0.0
 10
-19.90313261892413
 20
262.9869932364011
 30
0.0
 10
-19.73472641641165
 20
262.737934638643
 30
0.0
 10
-19.55985465396729
 20
262.4937622318363
 30
0.0
 10
-18.73643248880049
 20
261.4070108933324
 30
0.0
 10
-17.78720805230223
 20
260.4293212756948
 30
0.0
 10
-16.97884441319674
 20
259.741609890484
 30
0.0
 10
-16.11232047404786
 20
259.1358268143126
 30
0.0
 10
-15.19830852302889
 20
258.6172603267688
 30
0.0
 10
-14.15369619814805
 20
258.1469485791928
 30
0.0
 10
-13.07846909745686
 20
257.788173720254
 30
0.0
 10
-12.98128428222365
 20
257.7567335361056
 30
0.0
 10
-12.88387213168687
 20
257.7262031752624
 30
0.0
 10
-12.78624341575556
 20
257.6965839219149
 30
0.0
 10
-12.66412814734859
 20
257.6607523274268
 30
0.0
 10
-12.54170899372019
 20
257.626343410155
 30
0.0
 10
-12.51735597203684
 20
257.6195579848161
 30
0.0
 10
-12.49299126479863
 20
257.6128288336209
 30
0.0
 10
-12.46861503624267
 20
257.6061559697498
 30
0.0
 10
-12.12022095497088
 20
257.5116336268292
 30
0.0
 10
-11.76954258722095
 20
257.4286034822317
 30
0.0
 10
-11.44182091944451
 20
257.3613529684874
 30
0.0
 10
-11.11289162637033
 20
257.304078041055
 30
0.0
 10
-10.78313467048879
 20
257.25676730194
 30
0.0
 10
-10.31456895224511
 20
257.2037296917103
 30
0.0
 10
-9.845836568480962
 20
257.1705968496385
 30
0.0
 10
-9.707443532702086
 20
257.1625453934053
 30
0.0
 10
-9.569090147177022
 20
257.1562217055032
 30
0.0
 10
-9.430803215575281
 20
257.1516211074624
 30
0.0
 10
-9.169770318774326
 20
257.1461759542959
 30
0.0
 10
-8.909163460737702
 20
257.1468394726496
 30
0.0
 10
-8.786671484459902
 20
257.1424208412259
 30
0.0
 10
-8.664231283951167
 20
257.1445181950873
 30
0.0
 10
-8.54193393535401
 20
257.1424626263443
 30
0.0
 10
-8.29753809571271
 20
257.1404259943507
 30
0.0
 10
-8.053577471756824
 20
257.1383929891545
 30
0.0
 10
-7.931706549852237
 20
257.1373773981402
 30
0.0
 10
-7.809945597648365
 20
257.1363627235403
 30
0.0
 10
-7.688295188115362
 20
257.1353489701291
 30
0.0
 10
-7.426825771512497
 20
257.1331700583278
 30
0.0
 10
-7.165873172712665
 20
257.1309954533414
 30
0.0
 10
-7.026368513923757
 20
257.1298329145201
 30
0.0
 10
-6.887013569122971
 20
257.1286716233154
 30
0.0
 10
-6.747809167182126
 20
257.1275115866345
 30
0.0
 10
-6.085651819953469
 20
257.12199360875
 30
0.0
 10
-5.426944862909494
 20
257.1165043841171
 30
0.0
 10
-4.908762515446455
 20
257.1121861978955
 30
0.0
 10
-4.392816477318405
 20
257.1078866475849
 30
0.0
 10
-3.879144106191148
 20
257.1036060444993
 30
0.0
 10
-2.87361730817301
 20
257.0952266545298
 30
0.0
 10
-1.877135040217155
 20
257.0869226356439
 30
0.0
 10
-1.38963002901005
 20
257.0828600938906
 30
0.0
 10
-0.9043628528454235
 20
257.0788162007627
 30
0.0
 10
-0.4213558427222637
 20
257.0747911423517
 30
0.0
 10
0.1271667394119902
 20
257.0702201208415
 30
0.0
 10
0.6727010750159081
 20
257.0656740013857
 30
0.0
 10
0.7400809745342798
 20
257.065112502224
 30
0.0
 10
0.8074151383215735
 20
257.0645513841934
 30
0.0
 10
0.8747035244897745
 20
257.0639906476429
 30
0.0
 10
1.009188660473171
 20
257.0628699381782
 30
0.0
 10
1.143490366879803
 20
257.0617507572933
 30
0.0
 10
1.210595323471324
 20
257.0611915493227
 30
0.0
 10
1.277654345573225
 20
257.0606327241395
 30
0.0
 10
1.344667396657229
 20
257.060074282048
 30
0.0
 10
1.479985503002439
 20
257.0589466311637
 30
0.0
 10
1.615115623674072
 20
257.0578205468266
 30
0.0
 10
1.683323732240666
 20
257.0572521459228
 30
0.0
 10
1.751483807629313
 20
257.0566841452955
 30
0.0
 10
1.81959581688929
 20
257.0561165452193
 30
0.0
 10
3.303823208008339
 20
257.0437479836472
 30
0.0
 10
4.765165113412735
 20
257.0315701344558
 30
0.0
 10
6.138388499484677
 20
257.0201266062576
 30
0.0
 10
7.490522067840828
 20
257.00885882654
 30
0.0
 10
8.821834198135122
 20
256.9977645588061
 30
0.0
 10
18.38286080250865
 20
256.9180893372355
 30
0.0
 10
26.89871818036779
 20
256.8471238592048
 30
0.0
 10
33.63847059687916
 20
256.7909592558273
 30
0.0
 10
40.23923548743095
 20
256.7359528818309
 30
0.0
 10
47.16339850137255
 20
256.6782515234774
 30
0.0
 10
54.55953747380796
 20
256.616617032143
 30
0.0
 10
61.95567644624339
 20
256.5549825408086
 30
0.0
  0
SPLINE
  5
C2
330
C0
100
AcDbEntity
  8
0
  6
Continuous
 62
     0
370
    30
100
AcDbSpline
210
0.0
220
0.0
230
1.0
 70
     8
 71
     7
 72
   116
 73
   108
 74
     0
 42
0.000000001
 43
0.0
 40
0.0000000000000001
 40
0.0000000000000001
 40
0.0000000000000001
 40
0.0000000000000001
 40
0.0000000000000001
 40
0.0000000000000001
 40
0.0000000000000001
 40
0.0000000000000001
 40
0.472392
 40
0.472392
 40
0.472392
 40
0.472392
 40
0.472392
 40
0.5474578511451741
 40
0.5474578511451741
 40
0.5474578511451741
 40
0.5474578511451741
 40
0.5474578511451741
 40
0.55106568
 40
0.55106568
 40
0.55106568
 40
0.55106568
 40
0.55106568
 40
0.5546004552000001
 40
0.5546004552000001
 40
0.5546004552000001
 40
0.5546004552000001
 40
0.5546004552000001
 40
0.5581352303999999
 40
0.5581352303999999
 40
0.5581352303999999
 40
0.5581352303999999
 40
0.5581352303999999
 40
0.5832
 40
0.5832
 40
0.5832
 40
0.5832
 40
0.5832
 40
0.60913728
 40
0.60913728
 40
0.60913728
 40
0.60913728
 40
0.60913728
 40
0.6160319999999999
 40
0.6160319999999999
 40
0.6160319999999999
 40
0.6160319999999999
 40
0.6160319999999999
 40
0.6220205567999999
 40
0.6220205567999999
 40
0.6220205567999999
 40
0.6220205567999999
 40
0.6220205567999999
 40
0.6280091136
 40
0.6280091136
 40
0.6280091136
 40
0.6280091136
 40
0.6280091136
 40
0.63474624
 40
0.63474624
 40
0.63474624
 40
0.63474624
 40
0.63474624
 40
0.65082544015104
 40
0.65082544015104
 40
0.65082544015104
 40
0.65082544015104
 40
0.65082544015104
 40
0.6520357025280001
 40
0.6520357025280001
 40
0.6520357025280001
 40
0.6520357025280001
 40
0.6520357025280001
 40
0.6569122175999998
 40
0.6569122175999998
 40
0.6569122175999998
 40
0.6569122175999998
 40
0.6569122175999998
 40
0.706120687872
 40
0.706120687872
 40
0.706120687872
 40
0.706120687872
 40
0.706120687872
 40
0.72
 40
0.72
 40
0.72
 40
0.72
 40
0.72
 40
0.7604838
 40
0.7604838
 40
0.7604838
 40
0.7604838
 40
0.7604838
 40
0.7636272479999999
 40
0.7636272479999999
 40
0.7636272479999999
 40
0.7636272479999999
 40
0.7636272479999999
 40
0.767628
 40
0.767628
 40
0.767628
 40
0.767628
 40
0.767628
 40
0.7787999999999999
 40
0.7787999999999999
 40
0.7787999999999999
 40
0.7787999999999999
 40
0.7787999999999999
 40
0.96096922692471
 40
0.96096922692471
 40
0.96096922692471
 40
0.96096922692471
 40
0.96096922692471
 40
0.96096922692471
 40
0.96096922692471
 40
0.96096922692471
 10
61.9556764462435
 20
275.5549825408086
 30
0.0
 10
54.55953747380806
 20
275.4933480494746
 30
0.0
 10
47.16339850137262
 20
275.4317135581406
 30
0.0
 10
39.37494416703875
 20
275.3668097721296
 30
0.0
 10
31.31767518328941
 20
275.2996658640438
 30
0.0
 10
23.37593526530075
 20
275.2334846981711
 30
0.0
 10
14.7583146207002
 20
275.1616711929194
 30
0.0
 10
7.009458445912657
 20
275.0970973915707
 30
0.0
 10
5.963857488123409
 20
275.0883840502703
 30
0.0
 10
4.935563704272752
 20
275.0798149354192
 30
0.0
 10
3.924800176615619
 20
275.0713919060362
 30
0.0
 10
2.883842380140607
 20
275.0627172577467
 30
0.0
 10
1.861907433132131
 20
275.0542011332025
 30
0.0
 10
1.815083373965393
 20
275.0538109327101
 30
0.0
 10
1.768299268275797
 20
275.0534210651633
 30
0.0
 10
1.721555088674052
 20
275.053031530334
 30
0.0
 10
1.629092222873481
 20
275.0522610064536
 30
0.0
 10
1.536785614327613
 20
275.051491784717
 30
0.0
 10
1.491142601453632
 20
275.051111426277
 30
0.0
 10
1.445537800560743
 20
275.0507313862702
 30
0.0
 10
1.399971181286432
 20
275.0503516644436
 30
0.0
 10
1.308914243004864
 20
275.0495928566258
 30
0.0
 10
1.218009774863987
 20
275.0488353193925
 30
0.0
 10
1.172593913344585
 20
275.0487079433507
 30
0.0
 10
1.127223131237173
 20
275.0475533985797
 30
0.0
 10
1.081878853059465
 20
275.0480735004298
 30
0.0
 10
0.7153840132966565
 20
275.0415928642564
 30
0.0
 10
0.3511499974099763
 20
275.0664239335475
 30
0.0
 10
0.0358207769557737
 20
275.1117369764244
 30
0.0
 10
-0.2735873796238337
 20
275.1798689317596
 30
0.0
 10
-0.5751880167421746
 20
275.2698853149031
 30
0.0
 10
-1.169502941664746
 20
275.4953399539885
 30
0.0
 10
-1.717989783213909
 20
275.8017261651073
 30
0.0
 10
-1.982237553470583
 20
275.975801108093
 30
0.0
 10
-2.236128382361414
 20
276.1732729236321
 30
0.0
 10
-2.466133346782058
 20
276.3787351038865
 30
0.0
 10
-2.741360950366825
 20
276.6640716186334
 30
0.0
 10
-2.986496008761776
 20
276.9693995405646
 30
0.0
 10
-3.036615473228423
 20
277.0343435829948
 30
0.0
 10
-3.085381861904025
 20
277.1000917922379
 30
0.0
 10
-3.132820866914699
 20
277.1666672280404
 30
0.0
 10
-3.218938538281591
 20
277.2925247764437
 30
0.0
 10
-3.300299885655548
 20
277.4209920032339
 30
0.0
 10
-3.337083692233733
 20
277.4812495312813
 30
0.0
 10
-3.372824705472723
 20
277.5420268899218
 30
0.0
 10
-3.407516246505637
 20
277.6033020039086
 30
0.0
 10
-3.474788171321364
 20
277.7268035685393
 30
0.0
 10
-3.537815616134694
 20
277.8521194832403
 30
0.0
 10
-3.568262677165094
 20
277.9152089472975
 30
0.0
 10
-3.597638100487529
 20
277.9787078434572
 30
0.0
 10
-3.625937467407695
 20
278.042594121301
 30
0.0
 10
-3.683778780292187
 20
278.1791288784217
 30
0.0
 10
-3.736728524984386
 20
278.3172143959474
 30
0.0
 10
-3.763385010684217
 20
278.3907218803782
 30
0.0
 10
-3.788661891754444
 20
278.4646015886241
 30
0.0
 10
-3.812556146392993
 20
278.5388224790212
 30
0.0
 10
-3.888787867789702
 20
278.7912339132112
 30
0.0
 10
-3.949120822063392
 20
279.0468518731834
 30
0.0
 10
-3.983724339267425
 20
279.2281667123683
 30
0.0
 10
-4.010421172219225
 20
279.4102444872567
 30
0.0
 10
-4.029244292927928
 20
279.5926809237361
 30
0.0
 10
-4.04107869329151
 20
279.7888101191259
 30
0.0
 10
-4.043965827569238
 20
279.9844530956946
 30
0.0
 10
-4.044124936497795
 20
279.9981455767502
 30
0.0
 10
-4.044232059337475
 20
280.0118352682068
 30
0.0
 10
-4.044323575915328
 20
280.0255222224837
 30
0.0
 10
-4.044323575915371
 20
280.0943422185684
 30
0.0
 10
-4.044323575915328
 20
280.1630826576063
 30
0.0
 10
-4.044323575915371
 20
280.2181043620278
 30
0.0
 10
-4.044323575915328
 20
280.2730756286533
 30
0.0
 10
-4.044323575915328
 20
280.3279967734974
 30
0.0
 10
-4.044323575915328
 20
280.9365698243149
 30
0.0
 10
-4.044323575915328
 20
281.5390558011962
 30
0.0
 10
-4.044323575915371
 20
282.0825082800603
 30
0.0
 10
-4.044323575915328
 20
282.6215935356395
 30
0.0
 10
-4.044323575915328
 20
283.156667044894
 30
0.0
 10
-4.044323575915328
 20
283.8379808730868
 30
0.0
 10
-4.044323575915328
 20
284.5138997040054
 30
0.0
 10
-4.044323575915371
 20
284.6623489503797
 30
0.0
 10
-4.044323575915328
 20
284.8105535431817
 30
0.0
 10
-4.044323575915328
 20
284.9585217392528
 30
0.0
 10
-4.044323575915371
 20
285.5371966420381
 30
0.0
 10
-4.044323575915328
 20
286.1124983586425
 30
0.0
 10
-4.044323575915371
 20
286.5392556017251
 30
0.0
 10
-4.044323575915328
 20
286.9645522176061
 30
0.0
 10
-4.044323575915328
 20
287.3885915578036
 30
0.0
 10
-4.044323575915328
 20
287.8444170982085
 30
0.0
 10
-4.044323575915328
 20
288.2992418763738
 30
0.0
 10
-4.044323575915371
 20
288.3320079899746
 30
0.0
 10
-4.044323575915328
 20
288.3647690908278
 30
0.0
 10
-4.044323575915328
 20
288.3975252700482
 30
0.0
 10
-4.044323575915328
 20
288.4719601530481
 30
0.0
 10
-4.044323575915328
 20
288.5463705528114
 30
0.0
 10
-4.044323575915371
 20
288.5880328858181
 30
0.0
 10
-4.044323575915328
 20
288.6296879145567
 30
0.0
 10
-4.044323575915328
 20
288.671335825115
 30
0.0
 10
-4.044323575915328
 20
288.8292581935663
 30
0.0
 10
-4.044323575915328
 20
288.9870835125197
 30
0.0
 10
-4.044323575915371
 20
289.1032448557203
 30
0.0
 10
-4.044323575915328
 20
289.2193616078416
 30
0.0
 10
-4.044323575915328
 20
289.33543773064
 30
0.0
 10
-4.044323575915328
 20
291.3436012999505
 30
0.0
 10
-4.044323575915328
 20
293.3419352559536
 30
0.0
 10
-4.044323575915371
 20
295.2329112378332
 30
0.0
 10
-4.044323575915328
 20
297.1460122689053
 30
0.0
 10
-4.044323575915328
 20
299.0895276188246
 30
0.0
 10
-4.044323575883141
 20
301.063130200275
 30
0.0
 10
-4.04432357584902
 20
303.0549825408038
 30
0.0
  0
SPLINE
  5
C3
330
C0
100
AcDbEntity
  8
0
  6
Continuous
 62
     0
370
    30
100
AcDbSpline
210
0.0
220
0.0
230
1.0
 70
     8
 71
     7
 72
    71
 73
    63
 74
     0
 42
0.000000001
 43
0.0
 40
0.1666666666666667
 40
0.1666666666666667
 40
0.1666666666666667
 40
0.1666666666666667
 40
0.1666666666666667
 40
0.1666666666666667
 40
0.1666666666666667
 40
0.1666666666666667
 40
0.18
 40
0.18
 40
0.18
 40
0.18
 40
0.18
 40
0.2071359999999999
 40
0.2071359999999999
 40
0.2071359999999999
 40
0.2071359999999999
 40
0.2071359999999999
 40
0.2312
 40
0.2312
 40
0.2312
 40
0.2312
 40
0.2312
 40
0.3548480000000001
 40
0.3548480000000001
 40
0.3548480000000001
 40
0.3548480000000001
 40
0.3548480000000001
 40
0.500000074586541
 40
0.500000074586541
 40
0.500000074586541
 40
0.500000074586541
 40
0.500000074586541
 40
0.5023804928
 40
0.5023804928
 40
0.5023804928
 40
0.5023804928
 40
0.5023804928
 40
0.5783820799999999
 40
0.5783820799999999
 40
0.5783820799999999
 40
0.5783820799999999
 40
0.5783820799999999
 40
0.645152
 40
0.645152
 40
0.645152
 40
0.645152
 40
0.645152
 40
0.7687999999999999
 40
0.7687999999999999
 40
0.7687999999999999
 40
0.7687999999999999
 40
0.7687999999999999
 40
0.7928639999999999
 40
0.7928639999999999
 40
0.7928639999999999
 40
0.7928639999999999
 40
0.7928639999999999
 40
0.82
 40
0.82
 40
0.82
 40
0.82
 40
0.82
 40
0.8333333333333334
 40
0.8333333333333334
 40
0.8333333333333334
 40
0.8333333333333334
 40
0.8333333333333334
 40
0.8333333333333334
 40
0.8333333333333334
 40
0.8333333333333334
 10
61.95568274704596
 20
275.5549825407169
 30
0.0
 10
61.9556826522589
 20
275.5549825407095
 30
0.0
 10
61.95568255747185
 20
275.5549825407017
 30
0.0
 10
61.95568246268479
 20
275.5549825406933
 30
0.0
 10
61.95568236789774
 20
275.5549825406844
 30
0.0
 10
61.95568227311069
 20
275.554982540675
 30
0.0
 10
61.95568198541305
 20
275.5549825406446
 30
0.0
 10
61.95568169771541
 20
275.554982540609
 30
0.0
 10
61.95568150434268
 20
275.5543724331583
 30
0.0
 10
61.95568131299063
 20
275.556428754631
 30
0.0
 10
61.95568111794404
 20
275.5536137174511
 30
0.0
 10
61.95568075679911
 20
275.5573455502932
 30
0.0
 10
61.95568038811658
 20
275.5511716261284
 30
0.0
 10
61.95568020889255
 20
275.5404343078697
 30
0.0
 10
61.95568003046026
 20
275.5303914608971
 30
0.0
 10
61.95567984757306
 20
275.5142083328822
 30
0.0
 10
61.95567871245304
 20
275.3954184282565
 30
0.0
 10
61.95567748859176
 20
275.1375294747166
 30
0.0
 10
61.95567641606344
 20
274.8283091855501
 30
0.0
 10
61.95567530736128
 20
274.4143110878219
 30
0.0
 10
61.95567418467191
 20
273.9265154963635
 30
0.0
 10
61.95567174077247
 20
272.686634330999
 30
0.0
 10
61.95566937285945
 20
271.1139079142201
 30
0.0
 10
61.95566814093607
 20
270.1890591009239
 30
0.0
 10
61.95566698193649
 20
269.1965947659361
 30
0.0
 10
61.95566592506098
 20
268.1636717224023
 30
0.0
 10
61.95566496345327
 20
267.0920063810235
 30
0.0
 10
61.95566414258747
 20
266.0203916299255
 30
0.0
 10
61.95566412937966
 20
266.0031013687102
 30
0.0
 10
61.9556641162087
 20
265.9858113104987
 30
0.0
 10
61.95566410307474
 20
265.9685215504909
 30
0.0
 10
61.95566367182317
 20
265.3992202390876
 30
0.0
 10
61.95566328092042
 20
264.8304493780735
 30
0.0
 10
61.95566294258639
 20
264.2826239099152
 30
0.0
 10
61.9556626389252
 20
263.7411910443073
 30
0.0
 10
61.95566238206058
 20
263.2088759405602
 30
0.0
 10
61.95566198200279
 20
262.2327381226776
 30
0.0
 10
61.95566174418322
 20
261.311391431854
 30
0.0
 10
61.95566166889392
 20
260.8943695020128
 30
0.0
 10
61.95566162816074
 20
260.4924280144566
 30
0.0
 10
61.95566162274014
 20
260.1071359059335
 30
0.0
 10
61.95566170989614
 20
259.0617741819058
 30
0.0
 10
61.95566209179174
 20
258.1834443428398
 30
0.0
 10
61.95566246509073
 20
257.6956497213063
 30
0.0
 10
61.95566293777637
 20
257.2816527897875
 30
0.0
 10
61.9556635352558
 20
256.9724334278812
 30
0.0
 10
61.95566436292732
 20
256.7145454016583
 30
0.0
 10
61.95566531555249
 20
256.5957562221693
 30
0.0
 10
61.95566547357782
 20
256.5795732022283
 30
0.0
 10
61.95566563658144
 20
256.569530499182
 30
0.0
 10
61.95566579930983
 20
256.5587931993197
 30
0.0
 10
61.95566615850746
 20
256.5526196256862
 30
0.0
 10
61.95566652538515
 20
256.5563513592115
 30
0.0
 10
61.95566671610689
 20
256.553536283848
 30
0.0
 10
61.95566691061791
 20
256.5555926771085
 30
0.0
 10
61.95566710305317
 20
256.5549825410107
 30
0.0
 10
61.95566739075059
 20
256.5549825409746
 30
0.0
 10
61.95566767844801
 20
256.5549825409439
 30
0.0
 10
61.95566777323498
 20
256.5549825409343
 30
0.0
 10
61.95566786802195
 20
256.5549825409253
 30
0.0
 10
61.95566796280892
 20
256.5549825409167
 30
0.0
 10
61.95566805759589
 20
256.5549825409087
 30
0.0
 10
61.95566815238286
 20
256.5549825409012
 30
0.0
  0
LINE
  5
C4
330
C0
100
AcDbEntity
  8
0
  6
Continuous
 62
     0
370
    30
100
AcDbLine
 10
1.955582
 20
394.054983
 30
0.0
 11
1.955582
 21
397.054983
 31
0.0
  0
LINE
  5
C5
330
C0
100
AcDbEntity
  8
0
  6
Continuous
 62
     0
370
    30
100
AcDbLine
 10
1.955582
 20
397.054983
 30
0.0
 11
-28.044418
 21
397.054983
 31
0.0
  0
LINE
  5
C6
330
C0
100
AcDbEntity
  8
0
  6
Continuous
 62
     0
370
    30
100
AcDbLine
 10
1.955582
 20
394.054983
 30
0.0
 11
-28.044418
 21
394.054983
 31
0.0
  0
LINE
  5
C7
330
C0
100
AcDbEntity
  8
0
  6
Continuous
 62
     0
370
    30
100
AcDbLine
 10
-28.044418
 20
394.054983
 30
0.0
 11
-28.044418
 21
397.054983
 31
0.0
  0
LINE
  5
C8
330
C0
100
AcDbEntity
  8
0
  6
Continuous
 62
     0
370
    30
100
AcDbLine
 10
-22.044418
 20
304.054983
 30
0.0
 11
-22.044418
 21
394.054983
 31
0.0
  0
LINE
  5
C9
330
C0
100
AcDbEntity
  8
0
  6
Continuous
 62
     0
370
    30
100
AcDbLine
 10
-4.044418
 20
304.054983
 30
0.0
 11
-4.044418
 21
394.054983
 31
0.0
  0
LINE
  5
CA
330
C0
100
AcDbEntity
  8
0
  6
Continuous
 62
     0
370
    30
100
AcDbLine
 10
-48.044417
 20
303.054983
 30
0.0
 11
21.955583
 21
303.054983
 31
0.0
  0
LINE
  5
CB
330
C0
100
AcDbEntity
  8
0
  6
Continuous
 62
     0
370
    30
100
AcDbLine
 10
-48.044417
 20
304.054983
 30
0.0
 11
21.955583
 21
304.054983
 31
0.0
  0
LINE
  5
CC
330
C0
100
AcDbEntity
  8
0
  6
Continuous
 62
     0
370
    30
100
AcDbLine
 10
-48.044417
 20
303.054983
 30
0.0
 11
-48.044417
 21
304.054983
 31
0.0
  0
LINE
  5
CD
330
C0
100
AcDbEntity
  8
0
  6
Continuous
 62
     0
370
    30
100
AcDbLine
 10
21.955583
 20
303.054983
 30
0.0
 11
21.955583
 21
304.054983
 31
0.0
  0
ENDBLK
  5
CF
330
C0
100
AcDbEntity
  8
0
100
AcDbBlockEnd
  0
ENDSEC
  0
SECTION
  2
ENTITIES
  0
INSERT
  5
8C
330
1F
100
AcDbEntity
  8
0
  6
Continuous
 62
     7
370
     0
100
AcDbBlockReference
  2
a
 10
126.803879
 20
72.87455
 30
0.0
  0
INSERT
  5
96
330
1F
100
AcDbEntity
  8
0
  6
Continuous
 62
     7
370
     0
100
AcDbBlockReference
  2
b
 10
123.61903
 20
72.87455
 30
0.0
  0
INSERT
  5
A9
330
1F
100
AcDbEntity
  8
0
  6
Continuous
 62
     7
370
     0
100
AcDbBlockReference
  2
c
 10
126.803879
 20
72.87455
 30
0.0
  0
INSERT
  5
BF
330
1F
100
AcDbEntity
  8
0
  6
Continuous
 62
     7
370
     0
100
AcDbBlockReference
  2
d
 10
-53.126892
 20
440.490547
 30
0.0
  0
INSERT
  5
D0
330
1F
100
AcDbEntity
  8
0
  6
Continuous
 62
     7
370
     0
100
AcDbBlockReference
  2
e
 10
85.982422
 20
0.0
 30
0.0
  0
ENDSEC
  0
SECTION
  2
OBJECTS
  0
DICTIONARY
  5
C
330
0
100
AcDbDictionary
281
     1
  3
ACAD_GROUP
350
D
  3
ACAD_LAYOUT
350
1A
  3
ACAD_MATERIAL
350
43
  3
ACAD_MLEADERSTYLE
350
6B
  3
ACAD_MLINESTYLE
350
17
  3
ACAD_PLOTSETTINGS
350
19
  3
ACAD_PLOTSTYLENAME
350
E
  3
ACAD_SCALELIST
350
47
  3
ACAD_TABLESTYLE
350
69
  3
ACAD_VISUALSTYLE
350
2A
  3
AcDbVariableDictionary
350
D1
  0
DICTIONARY
  5
DC
330
8
100
AcDbDictionary
280
     1
281
     1
  3
ACAD_XREC_ROUNDTRIP
360
DD
  0
DICTIONARY
  5
D
102
{ACAD_REACTORS
330
C
102
}
330
C
100
AcDbDictionary
281
     1
  0
DICTIONARY
  5
1A
102
{ACAD_REACTORS
330
C
102
}
330
C
100
AcDbDictionary
281
     1
  3
Layout1
350
1E
  3
Layout2
350
26
  3
Model
350
22
  0
DICTIONARY
  5
43
102
{ACAD_REACTORS
330
C
102
}
330
C
100
AcDbDictionary
281
     1
  3
ByBlock
350
45
  3
ByLayer
350
44
  3
Global
350
46
  0
DICTIONARY
  5
6B
102
{ACAD_REACTORS
330
C
102
}
330
C
100
AcDbDictionary
281
     1
  3
Standard
350
6C
  0
DICTIONARY
  5
17
102
{ACAD_REACTORS
330
C
102
}
330
C
100
AcDbDictionary
281
     1
  3
Standard
350
18
  0
DICTIONARY
  5
19
102
{ACAD_REACTORS
330
C
102
}
330
C
100
AcDbDictionary
281
     1
  0
ACDBDICTIONARYWDFLT
  5
E
102
{ACAD_REACTORS
330
C
102
}
330
C
100
AcDbDictionary
281
     1
  3
Normal
350
F
100
AcDbDictionaryWithDefault
340
F
  0
DICTIONARY
  5
47
102
{ACAD_REACTORS
330
C
102
}
330
C
100
AcDbDictionary
281
     1
  3
A0
350
48
  3
A1
350
49
  3
A2
350
4A
  3
A3
350
4B
  3
A4
350
4C
  3
A5
350
4D
  3
A6
350
4E
  3
A7
350
4F
  3
A8
350
50
  3
A9
350
51
  3
B0
350
52
  3
B1
350
53
  3
B2
350
54
  3
B3
350
55
  3
B4
350
56
  3
B5
350
57
  3
B6
350
58
  3
B7
350
59
  3
B8
350
5A
  3
B9
350
5B
  3
C0
350
5C
  3
C1
350
5D
  3
C2
350
5E
  3
C3
350
5F
  3
C4
350
60
  3
C5
350
61
  3
C6
350
62
  3
C7
350
63
  3
C8
350
64
  3
C9
350
65
  3
D0
350
66
  3
D1
350
67
  3
D2
350
68
  0
DICTIONARY
  5
69
102
{ACAD_REACTORS
330
C
102
}
330
C
100
AcDbDictionary
281
     1
  3
Standard
350
6A
  0
DICTIONARY
  5
2A
102
{ACAD_REACTORS
330
C
102
}
330
C
100
AcDbDictionary
281
     1
  3
2dWireframe
350
2F
  3
Basic
350
32
  3
Brighten
350
36
  3
ColorChange
350
3A
  3
Conceptual
350
34
  3
Dim
350
35
  3
EdgeColorOff
350
3D
  3
Facepattern
350
39
  3
Flat
350
2B
  3
FlatWithEdges
350
2C
  3
Gouraud
350
2D
  3
GouraudWithEdges
350
2E
  3
Hidden
350
31
  3
JitterOff
350
3B
  3
Linepattern
350
38
  3
OverhangOff
350
3C
  3
Realistic
350
33
  3
Shaded
350
42
  3
Shaded with edges
350
41
  3
Shades of Gray
350
3E
  3
Sketchy
350
3F
  3
Thicken
350
37
  3
Wireframe
350
30
  3
X-Ray
350
40
  0
DICTIONARY
  5
D1
102
{ACAD_REACTORS
330
C
102
}
330
C
100
AcDbDictionary
281
     1
  3
CANNOSCALE
350
DE
  3
CENTEREXE
350
D8
  3
CENTERLTYPEFILE
350
D9
  3
CMLEADERSTYLE
350
D3
  3
CTABLESTYLE
350
D2
  3
DIMASSOC
350
DA
  3
HIDETEXT
350
DB
  3
MSLTSCALE
350
DF
  3
PSOLHEIGHT
350
D5
  3
PSOLWIDTH
350
D4
  0
XRECORD
  5
DD
102
{ACAD_REACTORS
330
DC
102
}
330
DC
100
AcDbXrecord
280
     1
102
VTR_0.000_0.000_1.000_1.000_VISUALSTYLE
340
2F
102
VTR_0.000_0.000_1.000_1.000_GRIDDISPLAY
 70
     3
102
VTR_0.000_0.000_1.000_1.000_GRIDMAJOR
 70
     5
102
VTR_0.000_0.000_1.000_1.000_DEFAULTLIGHTING
280
     1
102
VTR_0.000_0.000_1.000_1.000_DEFAULTLIGHTINGTYPE
 70
     1
102
VTR_0.000_0.000_1.000_1.000_BRIGHTNESS
141
0.0
102
VTR_0.000_0.000_1.000_1.000_CONTRAST
142
0.0
  0
LAYOUT
  5
1E
102
{ACAD_REACTORS
330
1A
102
}
330
1A
100
AcDbPlotSettings
  1

  2
none_device
  4

  6

 40
0.0
 41
0.0
 42
0.0
 43
0.0
 44
0.0
 45
0.0
 46
0.0
 47
0.0
 48
0.0
 49
0.0
140
0.0
141
0.0
142
1.0
143
1.0
 70
   688
 72
     1
 73
     0
 74
     5
  7

 75
    16
147
1.0
148
0.0
149
0.0
100
AcDbLayout
  1
Layout1
 70
     1
 71
     1
 10
0.0
 20
0.0
 11
420.0
 21
297.0
 12
0.0
 22
0.0
 32
0.0
 14
1.000000E+20
 24
1.000000E+20
 34
1.000000E+20
 15
-1.000000E+20
 25
-1.000000E+20
 35
-1.000000E+20
146
0.0
 13
0.0
 23
0.0
 33
0.0
 16
1.0
 26
0.0
 36
0.0
 17
0.0
 27
1.0
 37
0.0
 76
     0
330
1B
  0
LAYOUT
  5
26
102
{ACAD_REACTORS
330
1A
102
}
330
1A
100
AcDbPlotSettings
  1

  2
none_device
  4

  6

 40
0.0
 41
0.0
 42
0.0
 43
0.0
 44
0.0
 45
0.0
 46
0.0
 47
0.0
 48
0.0
 49
0.0
140
0.0
141
0.0
142
1.0
143
1.0
 70
   688
 72
     1
 73
     0
 74
     5
  7

 75
    16
147
1.0
148
0.0
149
0.0
100
AcDbLayout
  1
Layout2
 70
     1
 71
     2
 10
0.0
 20
0.0
 11
0.0
 21
0.0
 12
0.0
 22
0.0
 32
0.0
 14
0.0
 24
0.0
 34
0.0
 15
0.0
 25
0.0
 35
0.0
146
0.0
 13
0.0
 23
0.0
 33
0.0
 16
1.0
 26
0.0
 36
0.0
 17
0.0
 27
1.0
 37
0.0
 76
     0
330
23
  0
LAYOUT
  5
22
102
{ACAD_REACTORS
330
1A
102
}
330
1A
100
AcDbPlotSettings
  1

  2
none_device
  4
Letter_(8.50_x_11.00_Inches)
  6

 40
6.35
 41
6.35
 42
6.350005
 43
6.350005
 44
215.9
 45
279.4
 46
0.0
 47
0.0
 48
0.0
 49
0.0
140
0.0
141
0.0
142
1.0
143
1.0
 70
  1712
 72
     1
 73
     0
 74
     0
  7

 75
     0
147
1.0
148
0.0
149
0.0
100
AcDbLayout
  1
Model
 70
     1
 71
     0
 10
-66.044418
 20
66.810387
 11
439.813293
 21
595.085388
 12
0.0
 22
0.0
 32
0.0
 14
-66.044418
 24
66.810387
 34
0.0
 15
439.813293
 25
595.085388
 35
0.0
146
0.0
 13
0.0
 23
0.0
 33
0.0
 16
1.0
 26
0.0
 36
0.0
 17
0.0
 27
1.0
 37
0.0
 76
     0
330
1F
331
29
  0
MATERIAL
  5
45
102
{ACAD_REACTORS
330
43
102
}
102
{ACAD_XDICTIONARY
360
112
102
}
330
43
100
AcDbMaterial
  1
ByBlock
  0
MATERIAL
  5
44
102
{ACAD_REACTORS
330
43
102
}
102
{ACAD_XDICTIONARY
360
110
102
}
330
43
100
AcDbMaterial
  1
ByLayer
  0
MATERIAL
  5
46
102
{ACAD_REACTORS
330
43
102
}
102
{ACAD_XDICTIONARY
360
114
102
}
330
43
100
AcDbMaterial
  1
Global
  0
MLEADERSTYLE
  5
6C
102
{ACAD_REACTORS
330
6B
102
}
102
{ACAD_XDICTIONARY
360
117
102
}
330
6B
100
AcDbMLeaderStyle
170
     2
171
     1
172
     0
 90
        2
 40
0.0
 41
0.0
173
     1
 91
-1056964608
340
14
 92
       -2
290
     1
 42
2.0
291
     1
 43
8.0
  3
Standard
341
0
 44
4.0
300

342
11
174
     1
178
     6
175
     1
176
     0
 93
-1056964608
 45
4.0
292
     0
297
     0
 46
4.0
343
0
 94
-1056964608
 47
1.0
 49
1.0
140
1.0
293
     1
141
0.0
294
     1
177
     0
142
1.0
295
     0
296
     0
143
3.75
1001
ACAD_MLEADERVER
1070
     2
  0
MLINESTYLE
  5
18
102
{ACAD_REACTORS
330
17
102
}
330
17
100
AcDbMlineStyle
  2
Standard
 70
     0
  3

 62
   256
 51
90.0
 52
90.0
 71
     2
 49
0.5
 62
   256
  6
BYLAYER
 49
-0.5
 62
   256
  6
BYLAYER
  0
ACDBPLACEHOLDER
  5
F
102
{ACAD_REACTORS
330
E
102
}
330
E
  0
SCALE
  5
48
102
{ACAD_REACTORS
330
47
102
}
330
47
100
AcDbScale
 70
     0
300
1:1
140
1.0
141
1.0
290
     1
  0
SCALE
  5
49
102
{ACAD_REACTORS
330
47
102
}
330
47
100
AcDbScale
 70
     0
300
1:2
140
1.0
141
2.0
290
     0
  0
SCALE
  5
4A
102
{ACAD_REACTORS
330
47
102
}
330
47
100
AcDbScale
 70
     0
300
1:4
140
1.0
141
4.0
290
     0
  0
SCALE
  5
4B
102
{ACAD_REACTORS
330
47
102
}
330
47
100
AcDbScale
 70
     0
300
1:5
140
1.0
141
5.0
290
     0
  0
SCALE
  5
4C
102
{ACAD_REACTORS
330
47
102
}
330
47
100
AcDbScale
 70
     0
300
1:8
140
1.0
141
8.0
290
     0
  0
SCALE
  5
4D
102
{ACAD_REACTORS
330
47
102
}
330
47
100
AcDbScale
 70
     0
300
1:10
140
1.0
141
10.0
290
     0
  0
SCALE
  5
4E
102
{ACAD_REACTORS
330
47
102
}
330
47
100
AcDbScale
 70
     0
300
1:16
140
1.0
141
16.0
290
     0
  0
SCALE
  5
4F
102
{ACAD_REACTORS
330
47
102
}
330
47
100
AcDbScale
 70
     0
300
1:20
140
1.0
141
20.0
290
     0
  0
SCALE
  5
50
102
{ACAD_REACTORS
330
47
102
}
330
47
100
AcDbScale
 70
     0
300
1:30
140
1.0
141
30.0
290
     0
  0
SCALE
  5
51
102
{ACAD_REACTORS
330
47
102
}
330
47
100
AcDbScale
 70
     0
300
1:40
140
1.0
141
40.0
290
     0
  0
SCALE
  5
52
102
{ACAD_REACTORS
330
47
102
}
330
47
100
AcDbScale
 70
     0
300
1:50
140
1.0
141
50.0
290
     0
  0
SCALE
  5
53
102
{ACAD_REACTORS
330
47
102
}
330
47
100
AcDbScale
 70
     0
300
1:100
140
1.0
141
100.0
290
     0
  0
SCALE
  5
54
102
{ACAD_REACTORS
330
47
102
}
330
47
100
AcDbScale
 70
     0
300
2:1
140
2.0
141
1.0
290
     0
  0
SCALE
  5
55
102
{ACAD_REACTORS
330
47
102
}
330
47
100
AcDbScale
 70
     0
300
4:1
140
4.0
141
1.0
290
     0
  0
SCALE
  5
56
102
{ACAD_REACTORS
330
47
102
}
330
47
100
AcDbScale
 70
     0
300
8:1
140
8.0
141
1.0
290
     0
  0
SCALE
  5
57
102
{ACAD_REACTORS
330
47
102
}
330
47
100
AcDbScale
 70
     0
300
10:1
140
10.0
141
1.0
290
     0
  0
SCALE
  5
58
102
{ACAD_REACTORS
330
47
102
}
330
47
100
AcDbScale
 70
     0
300
100:1
140
100.0
141
1.0
290
     0
  0
SCALE
  5
59
102
{ACAD_REACTORS
330
47
102
}
330
47
100
AcDbScale
 70
     0
300
1/128" = 1'-0"
140
0.007812
141
12.0
290
     0
  0
SCALE
  5
5A
102
{ACAD_REACTORS
330
47
102
}
330
47
100
AcDbScale
 70
     0
300
1/64" = 1'-0"
140
0.015625
141
12.0
290
     0
  0
SCALE
  5
5B
102
{ACAD_REACTORS
330
47
102
}
330
47
100
AcDbScale
 70
     0
300
1/32" = 1'-0"
140
0.03125
141
12.0
290
     0
  0
SCALE
  5
5C
102
{ACAD_REACTORS
330
47
102
}
330
47
100
AcDbScale
 70
     0
300
1/16" = 1'-0"
140
0.0625
141
12.0
290
     0
  0
SCALE
  5
5D
102
{ACAD_REACTORS
330
47
102
}
330
47
100
AcDbScale
 70
     0
300
3/32" = 1'-0"
140
0.09375
141
12.0
290
     0
  0
SCALE
  5
5E
102
{ACAD_REACTORS
330
47
102
}
330
47
100
AcDbScale
 70
     0
300
1/8" = 1'-0"
140
0.125
141
12.0
290
     0
  0
SCALE
  5
5F
102
{ACAD_REACTORS
330
47
102
}
330
47
100
AcDbScale
 70
     0
300
3/16" = 1'-0"
140
0.1875
141
12.0
290
     0
  0
SCALE
  5
60
102
{ACAD_REACTORS
330
47
102
}
330
47
100
AcDbScale
 70
     0
300
1/4" = 1'-0"
140
0.25
141
12.0
290
     0
  0
SCALE
  5
61
102
{ACAD_REACTORS
330
47
102
}
330
47
100
AcDbScale
 70
     0
300
3/8" = 1'-0"
140
0.375
141
12.0
290
     0
  0
SCALE
  5
62
102
{ACAD_REACTORS
330
47
102
}
330
47
100
AcDbScale
 70
     0
300
1/2" = 1'-0"
140
0.5
141
12.0
290
     0
  0
SCALE
  5
63
102
{ACAD_REACTORS
330
47
102
}
330
47
100
AcDbScale
 70
     0
300
3/4" = 1'-0"
140
0.75
141
12.0
290
     0
  0
SCALE
  5
64
102
{ACAD_REACTORS
330
47
102
}
330
47
100
AcDbScale
 70
     0
300
1" = 1'-0"
140
1.0
141
12.0
290
     0
  0
SCALE
  5
65
102
{ACAD_REACTORS
330
47
102
}
330
47
100
AcDbScale
 70
     0
300
1-1/2" = 1'-0"
140
1.5
141
12.0
290
     0
  0
SCALE
  5
66
102
{ACAD_REACTORS
330
47
102
}
330
47
100
AcDbScale
 70
     0
300
3" = 1'-0"
140
3.0
141
12.0
290
     0
  0
SCALE
  5
67
102
{ACAD_REACTORS
330
47
102
}
330
47
100
AcDbScale
 70
     0
300
6" = 1'-0"
140
6.0
141
12.0
290
     0
  0
SCALE
  5
68
102
{ACAD_REACTORS
330
47
102
}
330
47
100
AcDbScale
 70
     0
300
1'-0" = 1'-0"
140
12.0
141
12.0
290
     0
  0
TABLESTYLE
  5
6A
102
{ACAD_REACTORS
330
69
102
}
330
69
100
AcDbTableStyle
  3
Standard
 70
     0
 71
     0
 40
1.5
 41
1.5
280
     0
281
     0
  7
Standard
140
4.5
170
     2
 62
     0
 63
   257
283
     0
274
    -2
284
     1
 64
     0
275
    -2
285
     1
 65
     0
276
    -2
286
     1
 66
     0
277
    -2
287
     1
 67
     0
278
    -2
288
     1
 68
     0
279
    -2
289
     1
 69
     0
  7
Standard
140
6.0
170
     5
 62
     0
 63
   257
283
     0
274
    -2
284
     1
 64
     0
275
    -2
285
     1
 65
     0
276
    -2
286
     1
 66
     0
277
    -2
287
     1
 67
     0
278
    -2
288
     1
 68
     0
279
    -2
289
     1
 69
     0
  7
Standard
140
4.5
170
     5
 62
     0
 63
   257
283
     0
274
    -2
284
     1
 64
     0
275
    -2
285
     1
 65
     0
276
    -2
286
     1
 66
     0
277
    -2
287
     1
 67
     0
278
    -2
288
     1
 68
     0
279
    -2
289
     1
 69
     0
  0
VISUALSTYLE
  5
2F
102
{ACAD_REACTORS
330
2A
102
}
102
{ACAD_XDICTIONARY
360
E8
102
}
330
2A
100
AcDbVisualStyle
  2
2dWireframe
 70
     4
 71
     0
 72
     2
 73
     0
 90
        0
 40
0.6
 41
30.0
 62
     5
 63
     7
 74
     1
 91
        4
 64
     7
 65
   257
 75
     1
175
     1
 42
1.0
 92
        0
 66
   257
 43
1.0
 76
     1
 77
     6
 78
     2
 67
     7
 79
     5
170
     0
171
     0
290
     0
174
     0
 93
        1
 44
0.0
173
     0
291
     0
 45
0.0
1001
ACAD
1000
AcDbSavedByObjectVersion
1070
     0
  0
VISUALSTYLE
  5
32
102
{ACAD_REACTORS
330
2A
102
}
102
{ACAD_XDICTIONARY
360
EE
102
}
330
2A
100
AcDbVisualStyle
  2
Basic
 70
     7
 71
     1
 72
     0
 73
     1
 90
        0
 40
0.6
 41
30.0
 62
     5
 63
     7
 74
     0
 91
        4
 64
     7
 65
   257
 75
     1
175
     1
 42
1.0
 92
        8
 66
     7
 43
1.0
 76
     1
 77
     6
 78
     2
 67
     7
 79
     5
170
     0
171
     0
290
     0
174
     0
 93
        1
 44
0.0
173
     0
291
     1
 45
0.0
1001
ACAD
1000
AcDbSavedByObjectVersion
1070
     0
  0
VISUALSTYLE
  5
36
102
{ACAD_REACTORS
330
2A
102
}
102
{ACAD_XDICTIONARY
360
F6
102
}
330
2A
100
AcDbVisualStyle
  2
Brighten
 70
    12
 71
     2
 72
     2
 73
     0
 90
        0
 40
0.6
 41
30.0
 62
     5
 63
     7
 74
     1
 91
        4
 64
     7
 65
   257
 75
     1
175
     1
 42
1.0
 92
        8
 66
     7
 43
1.0
 76
     1
 77
     6
 78
     2
 67
     7
 79
     5
170
     0
171
     0
290
     0
174
     0
 93
        1
 44
50.0
173
     0
291
     1
 45
0.0
1001
ACAD
1000
AcDbSavedByObjectVersion
1070
     0
  0
VISUALSTYLE
  5
3A
102
{ACAD_REACTORS
330
2A
102
}
102
{ACAD_XDICTIONARY
360
FE
102
}
330
2A
100
AcDbVisualStyle
  2
ColorChange
 70
    16
 71
     2
 72
     2
 73
     3
 90
        0
 40
0.6
 41
30.0
 62
     5
 63
     8
 74
     1
 91
        4
 64
     7
 65
   257
 75
     1
175
     1
 42
1.0
 92
        8
 66
     8
 43
1.0
 76
     1
 77
     6
 78
     2
 67
     7
 79
     5
170
     0
171
     0
290
     0
174
     0
 93
        1
 44
0.0
173
     0
291
     1
 45
0.0
1001
ACAD
1000
AcDbSavedByObjectVersion
1070
     0
  0
VISUALSTYLE
  5
34
102
{ACAD_REACTORS
330
2A
102
}
102
{ACAD_XDICTIONARY
360
F2
102
}
330
2A
100
AcDbVisualStyle
  2
Conceptual
 70
     9
 71
     3
 72
     2
 73
     0
 90
        0
 40
0.6
 41
30.0
 62
     5
 63
     7
 74
     2
 91
        2
 64
     7
 65
   257
 75
     1
175
     1
 42
179.0
 92
        8
 66
     7
 43
1.0
 76
     1
 77
     6
 78
     2
 67
     7
 79
     3
170
     0
171
     0
290
     0
174
     0
 93
        1
 44
0.0
173
     0
291
     0
 45
0.0
1001
ACAD
1000
AcDbSavedByObjectVersion
1070
     0
  0
VISUALSTYLE
  5
35
102
{ACAD_REACTORS
330
2A
102
}
102
{ACAD_XDICTIONARY
360
F4
102
}
330
2A
100
AcDbVisualStyle
  2
Dim
 70
    11
 71
     2
 72
     2
 73
     0
 90
        0
 40
0.6
 41
30.0
 62
     5
 63
     7
 74
     1
 91
        4
 64
     7
 65
   257
 75
     1
175
     1
 42
1.0
 92
        8
 66
     7
 43
1.0
 76
     1
 77
     6
 78
     2
 67
     7
 79
     5
170
     0
171
     0
290
     0
174
     0
 93
        1
 44
-50.0
173
     0
291
     1
 45
0.0
1001
ACAD
1000
AcDbSavedByObjectVersion
1070
     0
  0
VISUALSTYLE
  5
3D
102
{ACAD_REACTORS
330
2A
102
}
102
{ACAD_XDICTIONARY
360
104
102
}
330
2A
100
AcDbVisualStyle
  2
EdgeColorOff
 70
    22
 71
     2
 72
     2
 73
     0
 90
        0
 40
0.6
 41
30.0
 62
     5
 63
     7
 74
     1
 91
        4
 64
     7
 65
   257
 75
     1
175
     1
 42
1.0
 92
        8
 66
     7
 43
1.0
 76
     1
 77
     6
 78
     2
 67
     7
 79
     5
170
     0
171
     0
290
     0
174
     0
 93
        1
 44
0.0
173
     0
291
     1
 45
0.0
1001
ACAD
1000
AcDbSavedByObjectVersion
1070
     0
  0
VISUALSTYLE
  5
39
102
{ACAD_REACTORS
330
2A
102
}
102
{ACAD_XDICTIONARY
360
FC
102
}
330
2A
100
AcDbVisualStyle
  2
Facepattern
 70
    15
 71
     2
 72
     2
 73
     0
 90
        0
 40
0.6
 41
30.0
 62
     5
 63
     7
 74
     1
 91
        4
 64
     7
 65
   257
 75
     1
175
     1
 42
1.0
 92
        8
 66
     7
 43
1.0
 76
     1
 77
     6
 78
     2
 67
     7
 79
     5
170
     0
171
     0
290
     0
174
     0
 93
        1
 44
0.0
173
     0
291
     1
 45
0.0
1001
ACAD
1000
AcDbSavedByObjectVersion
1070
     0
  0
VISUALSTYLE
  5
2B
102
{ACAD_REACTORS
330
2A
102
}
102
{ACAD_XDICTIONARY
360
E0
102
}
330
2A
100
AcDbVisualStyle
  2
Flat
 70
     0
 71
     2
 72
     1
 73
     1
 90
        2
 40
0.6
 41
30.0
 62
     5
 63
     7
 74
     0
 91
        0
 64
     7
 65
   257
 75
     1
175
     1
 42
1.0
 92
        8
 66
     7
 43
1.0
 76
     1
 77
     6
 78
     2
 67
     7
 79
     5
170
     0
171
     0
290
     0
174
     0
 93
       13
 44
0.0
173
     0
291
     1
 45
0.0
1001
ACAD
1000
AcDbSavedByObjectVersion
1070
     0
  0
VISUALSTYLE
  5
2C
102
{ACAD_REACTORS
330
2A
102
}
102
{ACAD_XDICTIONARY
360
E2
102
}
330
2A
100
AcDbVisualStyle
  2
FlatWithEdges
 70
     1
 71
     2
 72
     1
 73
     1
 90
        2
 40
0.6
 41
30.0
 62
     5
 63
     7
 74
     1
 91
        0
 64
     7
 65
   257
 75
     1
175
     1
 42
1.0
 92
        0
 66
   257
 43
1.0
 76
     1
 77
     6
 78
     2
 67
     7
 79
     5
170
     0
171
     0
290
     0
174
     0
 93
       13
 44
0.0
173
     0
291
     1
 45
0.0
1001
ACAD
1000
AcDbSavedByObjectVersion
1070
     0
  0
VISUALSTYLE
  5
2D
102
{ACAD_REACTORS
330
2A
102
}
102
{ACAD_XDICTIONARY
360
E4
102
}
330
2A
100
AcDbVisualStyle
  2
Gouraud
 70
     2
 71
     2
 72
     2
 73
     1
 90
        2
 40
0.6
 41
30.0
 62
     5
 63
     7
 74
     0
 91
        0
 64
     7
 65
   257
 75
     1
175
     1
 42
1.0
 92
        0
 66
     7
 43
1.0
 76
     1
 77
     6
 78
     2
 67
     7
 79
     5
170
     0
171
     0
290
     0
174
     0
 93
       13
 44
0.0
173
     0
291
     1
 45
0.0
1001
ACAD
1000
AcDbSavedByObjectVersion
1070
     0
  0
VISUALSTYLE
  5
2E
102
{ACAD_REACTORS
330
2A
102
}
102
{ACAD_XDICTIONARY
360
E6
102
}
330
2A
100
AcDbVisualStyle
  2
GouraudWithEdges
 70
     3
 71
     2
 72
     2
 73
     1
 90
        2
 40
0.6
 41
30.0
 62
     5
 63
     7
 74
     1
 91
        0
 64
     7
 65
   257
 75
     1
175
     1
 42
1.0
 92
        0
 66
   257
 43
1.0
 76
     1
 77
     6
 78
     2
 67
     7
 79
     5
170
     0
171
     0
290
     0
174
     0
 93
       13
 44
0.0
173
     0
291
     1
 45
0.0
1001
ACAD
1000
AcDbSavedByObjectVersion
1070
     0
  0
VISUALSTYLE
  5
31
102
{ACAD_REACTORS
330
2A
102
}
102
{ACAD_XDICTIONARY
360
EC
102
}
330
2A
100
AcDbVisualStyle
  2
Hidden
 70
     6
 71
     1
 72
     2
 73
     2
 90
        0
 40
0.6
 41
30.0
 62
     5
 63
     7
 74
     2
 91
        2
 64
     7
 65
   257
 75
     2
175
     1
 42
40.0
 92
        0
 66
   257
 43
1.0
 76
     1
 77
     6
 78
     2
 67
     7
 79
     3
170
     0
171
     0
290
     0
174
     0
 93
        1
 44
0.0
173
     0
291
     0
 45
0.0
1001
ACAD
1000
AcDbSavedByObjectVersion
1070
     0
  0
VISUALSTYLE
  5
3B
102
{ACAD_REACTORS
330
2A
102
}
102
{ACAD_XDICTIONARY
360
100
102
}
330
2A
100
AcDbVisualStyle
  2
JitterOff
 70
    20
 71
     2
 72
     2
 73
     0
 90
        0
 40
0.6
 41
30.0
 62
     5
 63
     7
 74
     1
 91
        4
 64
     7
 65
   257
 75
     1
175
     1
 42
1.0
 92
       10
 66
     7
 43
1.0
 76
     1
 77
     6
 78
     2
 67
     7
 79
     5
170
     0
171
     0
290
     0
174
     0
 93
        1
 44
0.0
173
     0
291
     1
 45
0.0
1001
ACAD
1000
AcDbSavedByObjectVersion
1070
     0
  0
VISUALSTYLE
  5
38
102
{ACAD_REACTORS
330
2A
102
}
102
{ACAD_XDICTIONARY
360
FA
102
}
330
2A
100
AcDbVisualStyle
  2
Linepattern
 70
    14
 71
     2
 72
     2
 73
     0
 90
        0
 40
0.6
 41
30.0
 62
     5
 63
     7
 74
     1
 91
        4
 64
     7
 65
   257
 75
     7
175
     7
 42
1.0
 92
        8
 66
     7
 43
1.0
 76
     1
 77
     6
 78
     2
 67
     7
 79
     5
170
     0
171
     0
290
     0
174
     0
 93
        1
 44
0.0
173
     0
291
     1
 45
0.0
1001
ACAD
1000
AcDbSavedByObjectVersion
1070
     0
  0
VISUALSTYLE
  5
3C
102
{ACAD_REACTORS
330
2A
102
}
102
{ACAD_XDICTIONARY
360
102
102
}
330
2A
100
AcDbVisualStyle
  2
OverhangOff
 70
    21
 71
     2
 72
     2
 73
     0
 90
        0
 40
0.6
 41
30.0
 62
     5
 63
     7
 74
     1
 91
        4
 64
     7
 65
   257
 75
     1
175
     1
 42
1.0
 92
        9
 66
     7
 43
1.0
 76
     1
 77
     6
 78
     2
 67
     7
 79
     5
170
     0
171
     0
290
     0
174
     0
 93
        1
 44
0.0
173
     0
291
     1
 45
0.0
1001
ACAD
1000
AcDbSavedByObjectVersion
1070
     0
  0
VISUALSTYLE
  5
33
102
{ACAD_REACTORS
330
2A
102
}
102
{ACAD_XDICTIONARY
360
F0
102
}
330
2A
100
AcDbVisualStyle
  2
Realistic
 70
     8
 71
     2
 72
     3
 73
     0
 90
        2
 40
0.6
 41
30.0
 62
     5
 63
     7
 74
     0
 91
        0
 64
     7
 65
   257
 75
     1
175
     1
 42
1.0
 92
        8
 66
   257
 43
1.0
 76
     1
 77
     6
 78
     2
 67
     7
 79
     3
170
     0
171
     0
290
     0
174
     0
 93
       13
 44
0.0
173
     0
291
     0
 45
0.0
1001
ACAD
1000
AcDbSavedByObjectVersion
1070
     0
  0
VISUALSTYLE
  5
42
102
{ACAD_REACTORS
330
2A
102
}
102
{ACAD_XDICTIONARY
360
10E
102
}
330
2A
100
AcDbVisualStyle
  2
Shaded
 70
    27
 71
     2
 72
     2
 73
     1
 90
        2
 40
0.6
 41
30.0
 62
     5
 63
     7
 74
     0
 91
        4
 64
     7
 65
   257
 75
     1
175
     1
 42
1.0
 92
        8
 66
   257
 43
1.0
 76
     1
 77
     6
 78
     2
 67
     8
 79
     3
170
     0
171
     0
290
     0
174
     0
 93
        5
 44
0.0
173
     0
291
     0
 45
0.0
1001
ACAD
1000
AcDbSavedByObjectVersion
1070
     0
  0
VISUALSTYLE
  5
41
102
{ACAD_REACTORS
330
2A
102
}
102
{ACAD_XDICTIONARY
360
10C
102
}
330
2A
100
AcDbVisualStyle
  2
Shaded with edges
 70
    26
 71
     2
 72
     2
 73
     1
 90
        2
 40
0.6
 41
30.0
 62
     5
 63
     7
 74
     1
 91
       10
 64
     7
 65
   257
 75
     2
175
     1
 42
1.0
 92
        8
 66
   257
 43
1.0
 76
     1
 77
     6
 78
     2
 67
     7
 79
     3
170
     0
171
     0
290
     0
174
     0
 93
        5
 44
0.0
173
     0
291
     0
 45
0.0
1001
ACAD
1000
AcDbSavedByObjectVersion
1070
     0
  0
VISUALSTYLE
  5
3E
102
{ACAD_REACTORS
330
2A
102
}
102
{ACAD_XDICTIONARY
360
106
102
}
330
2A
100
AcDbVisualStyle
  2
Shades of Gray
 70
    23
 71
     2
 72
     2
 73
     3
 90
        0
 40
0.6
 41
30.0
 62
     5
 63
     7
 74
     2
 91
        2
 64
     7
 65
     7
 75
     1
175
     1
 42
40.0
 92
        8
 66
     7
 43
1.0
 76
     1
 77
     6
 78
     2
 67
     7
 79
     3
170
     0
171
     0
290
     0
174
     0
 93
        1
 44
0.0
173
     0
291
     0
 45
0.0
1001
ACAD
1000
AcDbSavedByObjectVersion
1070
     0
  0
VISUALSTYLE
  5
3F
102
{ACAD_REACTORS
330
2A
102
}
102
{ACAD_XDICTIONARY
360
108
102
}
330
2A
100
AcDbVisualStyle
  2
Sketchy
 70
    24
 71
     1
 72
     2
 73
     2
 90
        0
 40
0.6
 41
30.0
 62
     5
 63
     7
 74
     2
 91
        2
 64
     7
 65
     7
 75
     1
175
     1
 42
40.0
 92
       11
 66
     7
 43
1.0
 76
     1
 77
     6
 78
     2
 67
     7
 79
     6
170
     0
171
     0
290
     0
174
     0
 93
        1
 44
0.0
173
     0
291
     0
 45
0.0
1001
ACAD
1000
AcDbSavedByObjectVersion
1070
     0
  0
VISUALSTYLE
  5
37
102
{ACAD_REACTORS
330
2A
102
}
102
{ACAD_XDICTIONARY
360
F8
102
}
330
2A
100
AcDbVisualStyle
  2
Thicken
 70
    13
 71
     2
 72
     2
 73
     0
 90
        0
 40
0.6
 41
30.0
 62
     5
 63
     7
 74
     1
 91
        4
 64
     7
 65
   257
 75
     1
175
     1
 42
1.0
 92
       12
 66
     7
 43
1.0
 76
     1
 77
     6
 78
     2
 67
     7
 79
     5
170
     0
171
     0
290
     0
174
     0
 93
        1
 44
0.0
173
     0
291
     1
 45
0.0
1001
ACAD
1000
AcDbSavedByObjectVersion
1070
     0
  0
VISUALSTYLE
  5
30
102
{ACAD_REACTORS
330
2A
102
}
102
{ACAD_XDICTIONARY
360
EA
102
}
330
2A
100
AcDbVisualStyle
  2
Wireframe
 70
     5
 71
     0
 72
     2
 73
     0
 90
        0
 40
0.6
 41
30.0
 62
     5
 63
     7
 74
     1
 91
        4
 64
     7
 65
   257
 75
     1
175
     1
 42
1.0
 92
        0
 66
   257
 43
1.0
 76
     1
 77
     6
 78
     2
 67
     7
 79
     3
170
     0
171
     0
290
     0
174
     0
 93
        1
 44
0.0
173
     0
291
     0
 45
0.0
1001
ACAD
1000
AcDbSavedByObjectVersion
1070
     0
  0
VISUALSTYLE
  5
40
102
{ACAD_REACTORS
330
2A
102
}
102
{ACAD_XDICTIONARY
360
10A
102
}
330
2A
100
AcDbVisualStyle
  2
X-Ray
 70
    25
 71
     2
 72
     2
 73
     1
 90
        1
 40
0.5
 41
30.0
 62
     5
 63
     7
 74
     1
 91
        0
 64
     7
 65
   257
 75
     1
175
     1
 42
1.0
 92
        8
 66
     7
 43
1.0
 76
     1
 77
     6
 78
     2
 67
     7
 79
     3
170
     0
171
     0
290
     0
174
     0
 93
       13
 44
0.0
173
     0
291
     0
 45
0.0
1001
ACAD
1000
AcDbSavedByObjectVersion
1070
     0
  0
DICTIONARYVAR
  5
DE
102
{ACAD_REACTORS
330
D1
102
}
330
D1
100
DictionaryVariables
280
     0
  1
1:1
  0
DICTIONARYVAR
  5
D8
102
{ACAD_REACTORS
330
D1
102
}
330
D1
100
DictionaryVariables
280
     0
  1
3.500000
  0
DICTIONARYVAR
  5
D9
102
{ACAD_REACTORS
330
D1
102
}
330
D1
100
DictionaryVariables
280
     0
  1
acadiso.lin
  0
DICTIONARYVAR
  5
D3
102
{ACAD_REACTORS
330
D1
102
}
330
D1
100
DictionaryVariables
280
     0
  1
Standard
  0
DICTIONARYVAR
  5
D2
102
{ACAD_REACTORS
330
D1
102
}
330
D1
100
DictionaryVariables
280
     0
  1
Standard
  0
DICTIONARYVAR
  5
DA
102
{ACAD_REACTORS
330
D1
102
}
330
D1
100
DictionaryVariables
280
     0
  1
2
  0
DICTIONARYVAR
  5
DB
102
{ACAD_REACTORS
330
D1
102
}
330
D1
100
DictionaryVariables
280
     0
  1
1
  0
DICTIONARYVAR
  5
DF
102
{ACAD_REACTORS
330
D1
102
}
330
D1
100
DictionaryVariables
280
     0
  1
1
  0
DICTIONARYVAR
  5
D5
102
{ACAD_REACTORS
330
D1
102
}
330
D1
100
DictionaryVariables
280
     0
  1
80.000000
  0
DICTIONARYVAR
  5
D4
102
{ACAD_REACTORS
330
D1
102
}
330
D1
100
DictionaryVariables
280
     0
  1
5.000000
  0
DICTIONARY
  5
112
330
45
100
AcDbDictionary
280
     1
281
     1
  3
ACAD_XREC_ROUNDTRIP
360
113
  0
DICTIONARY
  5
110
330
44
100
AcDbDictionary
280
     1
281
     1
  3
ACAD_XREC_ROUNDTRIP
360
111
  0
DICTIONARY
  5
114
330
46
100
AcDbDictionary
280
     1
281
     1
  3
ACAD_XREC_ROUNDTRIP
360
115
  0
DICTIONARY
  5
117
330
6C
100
AcDbDictionary
280
     1
281
     1
  3
ACAD_XREC_ROUNDTRIP
360
118
  0
DICTIONARY
  5
E8
330
2F
100
AcDbDictionary
280
     1
281
     1
  3
ACAD_XREC_ROUNDTRIP
360
E9
  0
DICTIONARY
  5
EE
330
32
100
AcDbDictionary
280
     1
281
     1
  3
ACAD_XREC_ROUNDTRIP
360
EF
  0
DICTIONARY
  5
F6
330
36
100
AcDbDictionary
280
     1
281
     1
  3
ACAD_XREC_ROUNDTRIP
360
F7
  0
DICTIONARY
  5
FE
330
3A
100
AcDbDictionary
280
     1
281
     1
  3
ACAD_XREC_ROUNDTRIP
360
FF
  0
DICTIONARY
  5
F2
330
34
100
AcDbDictionary
280
     1
281
     1
  3
ACAD_XREC_ROUNDTRIP
360
F3
  0
DICTIONARY
  5
F4
330
35
100
AcDbDictionary
280
     1
281
     1
  3
ACAD_XREC_ROUNDTRIP
360
F5
  0
DICTIONARY
  5
104
330
3D
100
AcDbDictionary
280
     1
281
     1
  3
ACAD_XREC_ROUNDTRIP
360
105
  0
DICTIONARY
  5
FC
330
39
100
AcDbDictionary
280
     1
281
     1
  3
ACAD_XREC_ROUNDTRIP
360
FD
  0
DICTIONARY
  5
E0
330
2B
100
AcDbDictionary
280
     1
281
     1
  3
ACAD_XREC_ROUNDTRIP
360
E1
  0
DICTIONARY
  5
E2
330
2C
100
AcDbDictionary
280
     1
281
     1
  3
ACAD_XREC_ROUNDTRIP
360
E3
  0
DICTIONARY
  5
E4
330
2D
100
AcDbDictionary
280
     1
281
     1
  3
ACAD_XREC_ROUNDTRIP
360
E5
  0
DICTIONARY
  5
E6
330
2E
100
AcDbDictionary
280
     1
281
     1
  3
ACAD_XREC_ROUNDTRIP
360
E7
  0
DICTIONARY
  5
EC
330
31
100
AcDbDictionary
280
     1
281
     1
  3
ACAD_XREC_ROUNDTRIP
360
ED
  0
DICTIONARY
  5
100
330
3B
100
AcDbDictionary
280
     1
281
     1
  3
ACAD_XREC_ROUNDTRIP
360
101
  0
DICTIONARY
  5
FA
330
38
100
AcDbDictionary
280
     1
281
     1
  3
ACAD_XREC_ROUNDTRIP
360
FB
  0
DICTIONARY
  5
102
330
3C
100
AcDbDictionary
280
     1
281
     1
  3
ACAD_XREC_ROUNDTRIP
360
103
  0
DICTIONARY
  5
F0
330
33
100
AcDbDictionary
280
     1
281
     1
  3
ACAD_XREC_ROUNDTRIP
360
F1
  0
DICTIONARY
  5
10E
330
42
100
AcDbDictionary
280
     1
281
     1
  3
ACAD_XREC_ROUNDTRIP
360
10F
  0
DICTIONARY
  5
10C
330
41
100
AcDbDictionary
280
     1
281
     1
  3
ACAD_XREC_ROUNDTRIP
360
10D
  0
DICTIONARY
  5
106
330
3E
100
AcDbDictionary
280
     1
281
     1
  3
ACAD_XREC_ROUNDTRIP
360
107
  0
DICTIONARY
  5
108
330
3F
100
AcDbDictionary
280
     1
281
     1
  3
ACAD_XREC_ROUNDTRIP
360
109
  0
DICTIONARY
  5
F8
330
37
100
AcDbDictionary
280
     1
281
     1
  3
ACAD_XREC_ROUNDTRIP
360
F9
  0
DICTIONARY
  5
EA
330
30
100
AcDbDictionary
280
     1
281
     1
  3
ACAD_XREC_ROUNDTRIP
360
EB
  0
DICTIONARY
  5
10A
330
40
100
AcDbDictionary
280
     1
281
     1
  3
ACAD_XREC_ROUNDTRIP
360
10B
  0
XRECORD
  5
113
102
{ACAD_REACTORS
330
112
102
}
330
112
100
AcDbXrecord
280
     1
102
MATERIAL
148
0.0
149
0.0
149
0.0
 93
        0
 94
      127
282
     0
 72
     1
 77
     1
171
     1
175
     1
179
     1
273
     0
  0
XRECORD
  5
111
102
{ACAD_REACTORS
330
110
102
}
330
110
100
AcDbXrecord
280
     1
102
MATERIAL
148
0.0
149
0.0
149
0.0
 93
        0
 94
      127
282
     0
 72
     1
 77
     1
171
     1
175
     1
179
     1
273
     0
  0
XRECORD
  5
115
102
{ACAD_REACTORS
330
114
102
}
330
114
100
AcDbXrecord
280
     1
102
MATERIAL
148
0.0
149
0.0
149
0.0
 93
        0
 94
      127
282
     0
 72
     1
 77
     1
171
     1
175
     1
179
     1
273
     0
  0
XRECORD
  5
118
102
{ACAD_REACTORS
330
117
102
}
330
117
100
AcDbXrecord
280
     1
102
ACAD_ROUNDTRIP_2010_MLEADER_STYLE
  0
XRECORD
  5
E9
102
{ACAD_REACTORS
330
E8
102
}
330
E8
100
AcDbXrecord
280
     1
102
RTVSPropertyOp0
 70
     1
102
RTVSPropertyOp1
 70
     1
102
RTVSPropertyOp2
 70
     1
102
RTVSPropertyOp3
 70
     1
102
RTVSPropertyOp4
 70
     1
102
RTVSPropertyOp5
 70
     1
102
RTVSPropertyOp6
 70
     1
102
RTVSPropertyOp7
 70
     1
102
RTVSPropertyOp8
 70
     1
102
RTVSPropertyOp9
 70
     1
102
RTVSPropertyOp10
 70
     1
102
RTVSPropertyOp11
 70
     1
102
RTVSPropertyOp12
 70
     1
102
RTVSPropertyOp13
 70
     1
102
RTVSPropertyOp14
 70
     1
102
RTVSPropertyOp15
 70
     1
102
RTVSPropertyOp16
 70
     1
102
RTVSPropertyOp17
 70
     1
102
RTVSPropertyOp18
 70
     1
102
RTVSPropertyOp19
 70
     1
102
RTVSPropertyOp20
 70
     1
102
RTVSPropertyOp21
 70
     1
102
RTVSPropertyOp22
 70
     1
102
RTVSPropertyOp23
 70
     1
102
RTVSPropertyOp24
 70
     1
102
RTVSPropertyOp25
 70
     1
102
RTVSPropertyOp26
 70
     1
102
RTVSPropertyOp27
 70
     1
102
RTVSPropertyOp28
 70
     1
102
RTVSPropertyOp29
 70
     1
102
RTVSPropertyOp30
 70
     1
102
RTVSPropertyOp31
 70
     1
102
RTVSPropertyOp32
 70
     1
102
RTVSPropertyOp33
 70
     1
102
RTVSPropertyOp34
 70
     1
102
RTVSPropertyOp35
 70
     1
102
RTVSPropertyOp36
 70
     1
102
RTVSPropertyOp37
 70
     1
102
RTVSPropertyOp38
 70
     1
102
RTVSPropertyOp39
 70
     1
102
RTVSPropertyOp40
 70
     1
102
RTVSPropertyOp41
 70
     1
102
RTVSPropertyOp42
 70
     1
102
RTVSPropertyOp43
 70
     1
102
RTVSPropertyOp44
 70
     1
102
RTVSPropertyOp45
 70
     1
102
RTVSPropertyOp46
 70
     1
102
RTVSPropertyOp47
 70
     1
102
RTVSPropertyOp48
 70
     1
102
RTVSPropertyOp49
 70
     1
102
RTVSPropertyOp50
 70
     1
102
RTVSPropertyOp51
 70
     0
102
RTVSPropertyOp52
 70
     0
102
RTVSPropertyOp53
 70
     1
102
RTVSPropertyOp54
 70
     1
102
RTVSPropertyOp55
 70
     1
102
RTVSPropertyOp56
 70
     1
102
RTVSPropertyOp57
 70
     1
102
RTVSPost2010Prop28
280
     1
102
RTVSPost2010PropOp28
 70
     1
102
RTVSPost2010Prop29
280
     1
102
RTVSPost2010PropOp29
 70
     1
102
RTVSPost2010Prop30
280
     0
102
RTVSPost2010PropOp30
 70
     1
102
RTVSPost2010Prop31
280
     0
102
RTVSPost2010PropOp31
 70
     1
102
RTVSPost2010Prop32
280
     0
102
RTVSPost2010PropOp32
 70
     1
102
RTVSPost2010Prop33
280
     0
102
RTVSPost2010PropOp33
 70
     1
102
RTVSPost2010Prop34
280
     0
102
RTVSPost2010PropOp34
 70
     1
102
RTVSPost2010Prop35
280
     0
102
RTVSPost2010PropOp35
 70
     1
102
RTVSPost2010Prop36
280
     0
102
RTVSPost2010PropOp36
 70
     1
102
RTVSPost2010Prop37
 90
       50
102
RTVSPost2010PropOp37
 70
     1
102
RTVSPost2010Prop38
140
0.0
102
RTVSPost2010PropOp38
 70
     1
102
RTVSPost2010Prop39
140
1.0
102
RTVSPost2010PropOp39
 70
     1
102
RTVSPost2010Prop40
 90
        0
102
RTVSPost2010PropOp40
 70
     1
102
RTVSPost2010Prop41ColorIndex
 90
       18
102
RTVSPost2010Prop41ColorRGB
 90
        0
102
RTVSPost2010PropOp41
 70
     1
102
RTVSPost2010Prop42
 90
       50
102
RTVSPost2010PropOp42
 70
     1
102
RTVSPost2010Prop43
 90
        3
102
RTVSPost2010PropOp43
 70
     1
102
RTVSPost2010Prop44ColorIndex
 90
        5
102
RTVSPost2010Prop44ColorRGB
 90
      255
102
RTVSPost2010PropOp44
 70
     1
102
RTVSPost2010Prop45
280
     0
102
RTVSPost2010PropOp45
 70
     1
102
RTVSPost2010Prop46
 90
       50
102
RTVSPost2010PropOp46
 70
     1
102
RTVSPost2010Prop47
 90
       50
102
RTVSPost2010PropOp47
 70
     1
102
RTVSPost2010Prop48
 90
       50
102
RTVSPost2010PropOp48
 70
     1
102
RTVSPost2010Prop49
280
     0
102
RTVSPost2010PropOp49
 70
     1
102
RTVSPost2010Prop50
 90
       50
102
RTVSPost2010PropOp50
 70
     1
102
RTVSPost2010Prop51ColorIndex
 90
      256
102
RTVSPost2010Prop51ColorRGB
 90
-16777216
102
RTVSPost2010PropOp51
 70
     0
102
RTVSPost2010Prop52
140
1.0
102
RTVSPost2010PropOp52
 70
     0
102
RTVSPost2010Prop53
 90
        2
102
RTVSPost2010PropOp53
 70
     1
102
RTVSPost2010Prop54
  1
strokes_ogs.tif
102
RTVSPost2010PropOp54
 70
     1
102
RTVSPost2010Prop55
280
     0
102
RTVSPost2010PropOp55
 70
     1
102
RTVSPost2010Prop56
140
1.0
102
RTVSPost2010PropOp56
 70
     1
102
RTVSPost2010Prop57
140
1.0
102
RTVSPost2010PropOp57
 70
     1
  0
XRECORD
  5
EF
102
{ACAD_REACTORS
330
EE
102
}
330
EE
100
AcDbXrecord
280
     1
102
RTVSPropertyOp0
 70
     1
102
RTVSPropertyOp1
 70
     1
102
RTVSPropertyOp2
 70
     1
102
RTVSPropertyOp3
 70
     1
102
RTVSPropertyOp4
 70
     1
102
RTVSPropertyOp5
 70
     1
102
RTVSPropertyOp6
 70
     1
102
RTVSPropertyOp7
 70
     1
102
RTVSPropertyOp8
 70
     1
102
RTVSPropertyOp9
 70
     1
102
RTVSPropertyOp10
 70
     1
102
RTVSPropertyOp11
 70
     1
102
RTVSPropertyOp12
 70
     1
102
RTVSPropertyOp13
 70
     1
102
RTVSPropertyOp14
 70
     1
102
RTVSPropertyOp15
 70
     1
102
RTVSPropertyOp16
 70
     1
102
RTVSPropertyOp17
 70
     1
102
RTVSPropertyOp18
 70
     1
102
RTVSPropertyOp19
 70
     1
102
RTVSPropertyOp20
 70
     1
102
RTVSPropertyOp21
 70
     1
102
RTVSPropertyOp22
 70
     1
102
RTVSPropertyOp23
 70
     1
102
RTVSPropertyOp24
 70
     1
102
RTVSPropertyOp25
 70
     1
102
RTVSPropertyOp26
 70
     1
102
RTVSPropertyOp27
 70
     1
102
RTVSPropertyOp28
 70
     1
102
RTVSPropertyOp29
 70
     1
102
RTVSPropertyOp30
 70
     1
102
RTVSPropertyOp31
 70
     1
102
RTVSPropertyOp32
 70
     1
102
RTVSPropertyOp33
 70
     1
102
RTVSPropertyOp34
 70
     1
102
RTVSPropertyOp35
 70
     1
102
RTVSPropertyOp36
 70
     1
102
RTVSPropertyOp37
 70
     1
102
RTVSPropertyOp38
 70
     1
102
RTVSPropertyOp39
 70
     1
102
RTVSPropertyOp40
 70
     1
102
RTVSPropertyOp41
 70
     1
102
RTVSPropertyOp42
 70
     1
102
RTVSPropertyOp43
 70
     1
102
RTVSPropertyOp44
 70
     1
102
RTVSPropertyOp45
 70
     1
102
RTVSPropertyOp46
 70
     1
102
RTVSPropertyOp47
 70
     1
102
RTVSPropertyOp48
 70
     1
102
RTVSPropertyOp49
 70
     1
102
RTVSPropertyOp50
 70
     1
102
RTVSPropertyOp51
 70
     0
102
RTVSPropertyOp52
 70
     0
102
RTVSPropertyOp53
 70
     1
102
RTVSPropertyOp54
 70
     1
102
RTVSPropertyOp55
 70
     1
102
RTVSPropertyOp56
 70
     1
102
RTVSPropertyOp57
 70
     1
102
RTVSPost2010Prop28
280
     0
102
RTVSPost2010PropOp28
 70
     1
102
RTVSPost2010Prop29
280
     1
102
RTVSPost2010PropOp29
 70
     1
102
RTVSPost2010Prop30
280
     1
102
RTVSPost2010PropOp30
 70
     1
102
RTVSPost2010Prop31
280
     0
102
RTVSPost2010PropOp31
 70
     1
102
RTVSPost2010Prop32
280
     0
102
RTVSPost2010PropOp32
 70
     1
102
RTVSPost2010Prop33
280
     0
102
RTVSPost2010PropOp33
 70
     1
102
RTVSPost2010Prop34
280
     0
102
RTVSPost2010PropOp34
 70
     1
102
RTVSPost2010Prop35
280
     0
102
RTVSPost2010PropOp35
 70
     1
102
RTVSPost2010Prop36
280
     0
102
RTVSPost2010PropOp36
 70
     1
102
RTVSPost2010Prop37
 90
       50
102
RTVSPost2010PropOp37
 70
     1
102
RTVSPost2010Prop38
140
0.0
102
RTVSPost2010PropOp38
 70
     1
102
RTVSPost2010Prop39
140
1.0
102
RTVSPost2010PropOp39
 70
     1
102
RTVSPost2010Prop40
 90
        0
102
RTVSPost2010PropOp40
 70
     1
102
RTVSPost2010Prop41ColorIndex
 90
       18
102
RTVSPost2010Prop41ColorRGB
 90
        0
102
RTVSPost2010PropOp41
 70
     1
102
RTVSPost2010Prop42
 90
       50
102
RTVSPost2010PropOp42
 70
     1
102
RTVSPost2010Prop43
 90
        3
102
RTVSPost2010PropOp43
 70
     1
102
RTVSPost2010Prop44ColorIndex
 90
        5
102
RTVSPost2010Prop44ColorRGB
 90
      255
102
RTVSPost2010PropOp44
 70
     1
102
RTVSPost2010Prop45
280
     0
102
RTVSPost2010PropOp45
 70
     1
102
RTVSPost2010Prop46
 90
       50
102
RTVSPost2010PropOp46
 70
     1
102
RTVSPost2010Prop47
 90
       50
102
RTVSPost2010PropOp47
 70
     1
102
RTVSPost2010Prop48
 90
       50
102
RTVSPost2010PropOp48
 70
     1
102
RTVSPost2010Prop49
280
     0
102
RTVSPost2010PropOp49
 70
     1
102
RTVSPost2010Prop50
 90
       50
102
RTVSPost2010PropOp50
 70
     1
102
RTVSPost2010Prop51ColorIndex
 90
      256
102
RTVSPost2010Prop51ColorRGB
 90
-16777216
102
RTVSPost2010PropOp51
 70
     0
102
RTVSPost2010Prop52
140
1.0
102
RTVSPost2010PropOp52
 70
     0
102
RTVSPost2010Prop53
 90
        2
102
RTVSPost2010PropOp53
 70
     1
102
RTVSPost2010Prop54
  1
strokes_ogs.tif
102
RTVSPost2010PropOp54
 70
     1
102
RTVSPost2010Prop55
280
     0
102
RTVSPost2010PropOp55
 70
     1
102
RTVSPost2010Prop56
140
1.0
102
RTVSPost2010PropOp56
 70
     1
102
RTVSPost2010Prop57
140
1.0
102
RTVSPost2010PropOp57
 70
     1
  0
XRECORD
  5
F7
102
{ACAD_REACTORS
330
F6
102
}
330
F6
100
AcDbXrecord
280
     1
102
RTVSPropertyOp0
 70
     1
102
RTVSPropertyOp1
 70
     1
102
RTVSPropertyOp2
 70
     1
102
RTVSPropertyOp3
 70
     1
102
RTVSPropertyOp4
 70
     1
102
RTVSPropertyOp5
 70
     1
102
RTVSPropertyOp6
 70
     1
102
RTVSPropertyOp7
 70
     1
102
RTVSPropertyOp8
 70
     1
102
RTVSPropertyOp9
 70
     1
102
RTVSPropertyOp10
 70
     1
102
RTVSPropertyOp11
 70
     1
102
RTVSPropertyOp12
 70
     1
102
RTVSPropertyOp13
 70
     1
102
RTVSPropertyOp14
 70
     1
102
RTVSPropertyOp15
 70
     1
102
RTVSPropertyOp16
 70
     1
102
RTVSPropertyOp17
 70
     1
102
RTVSPropertyOp18
 70
     1
102
RTVSPropertyOp19
 70
     1
102
RTVSPropertyOp20
 70
     1
102
RTVSPropertyOp21
 70
     1
102
RTVSPropertyOp22
 70
     1
102
RTVSPropertyOp23
 70
     1
102
RTVSPropertyOp24
 70
     1
102
RTVSPropertyOp25
 70
     1
102
RTVSPropertyOp26
 70
     1
102
RTVSPropertyOp27
 70
     1
102
RTVSPropertyOp28
 70
     1
102
RTVSPropertyOp29
 70
     1
102
RTVSPropertyOp30
 70
     1
102
RTVSPropertyOp31
 70
     1
102
RTVSPropertyOp32
 70
     1
102
RTVSPropertyOp33
 70
     1
102
RTVSPropertyOp34
 70
     1
102
RTVSPropertyOp35
 70
     1
102
RTVSPropertyOp36
 70
     1
102
RTVSPropertyOp37
 70
     1
102
RTVSPropertyOp38
 70
     1
102
RTVSPropertyOp39
 70
     1
102
RTVSPropertyOp40
 70
     1
102
RTVSPropertyOp41
 70
     1
102
RTVSPropertyOp42
 70
     1
102
RTVSPropertyOp43
 70
     1
102
RTVSPropertyOp44
 70
     1
102
RTVSPropertyOp45
 70
     1
102
RTVSPropertyOp46
 70
     1
102
RTVSPropertyOp47
 70
     1
102
RTVSPropertyOp48
 70
     1
102
RTVSPropertyOp49
 70
     1
102
RTVSPropertyOp50
 70
     1
102
RTVSPropertyOp51
 70
     0
102
RTVSPropertyOp52
 70
     0
102
RTVSPropertyOp53
 70
     1
102
RTVSPropertyOp54
 70
     1
102
RTVSPropertyOp55
 70
     1
102
RTVSPropertyOp56
 70
     1
102
RTVSPropertyOp57
 70
     1
102
RTVSPost2010Prop28
280
     0
102
RTVSPost2010PropOp28
 70
     1
102
RTVSPost2010Prop29
280
     1
102
RTVSPost2010PropOp29
 70
     1
102
RTVSPost2010Prop30
280
     1
102
RTVSPost2010PropOp30
 70
     1
102
RTVSPost2010Prop31
280
     0
102
RTVSPost2010PropOp31
 70
     1
102
RTVSPost2010Prop32
280
     0
102
RTVSPost2010PropOp32
 70
     1
102
RTVSPost2010Prop33
280
     0
102
RTVSPost2010PropOp33
 70
     1
102
RTVSPost2010Prop34
280
     0
102
RTVSPost2010PropOp34
 70
     1
102
RTVSPost2010Prop35
280
     0
102
RTVSPost2010PropOp35
 70
     1
102
RTVSPost2010Prop36
280
     0
102
RTVSPost2010PropOp36
 70
     1
102
RTVSPost2010Prop37
 90
       50
102
RTVSPost2010PropOp37
 70
     1
102
RTVSPost2010Prop38
140
0.0
102
RTVSPost2010PropOp38
 70
     1
102
RTVSPost2010Prop39
140
1.0
102
RTVSPost2010PropOp39
 70
     1
102
RTVSPost2010Prop40
 90
        0
102
RTVSPost2010PropOp40
 70
     1
102
RTVSPost2010Prop41ColorIndex
 90
       18
102
RTVSPost2010Prop41ColorRGB
 90
        0
102
RTVSPost2010PropOp41
 70
     1
102
RTVSPost2010Prop42
 90
       50
102
RTVSPost2010PropOp42
 70
     1
102
RTVSPost2010Prop43
 90
        3
102
RTVSPost2010PropOp43
 70
     1
102
RTVSPost2010Prop44ColorIndex
 90
        5
102
RTVSPost2010Prop44ColorRGB
 90
      255
102
RTVSPost2010PropOp44
 70
     1
102
RTVSPost2010Prop45
280
     0
102
RTVSPost2010PropOp45
 70
     1
102
RTVSPost2010Prop46
 90
       50
102
RTVSPost2010PropOp46
 70
     1
102
RTVSPost2010Prop47
 90
       50
102
RTVSPost2010PropOp47
 70
     1
102
RTVSPost2010Prop48
 90
       50
102
RTVSPost2010PropOp48
 70
     1
102
RTVSPost2010Prop49
280
     0
102
RTVSPost2010PropOp49
 70
     1
102
RTVSPost2010Prop50
 90
       50
102
RTVSPost2010PropOp50
 70
     1
102
RTVSPost2010Prop51ColorIndex
 90
      256
102
RTVSPost2010Prop51ColorRGB
 90
-16777216
102
RTVSPost2010PropOp51
 70
     0
102
RTVSPost2010Prop52
140
1.0
102
RTVSPost2010PropOp52
 70
     0
102
RTVSPost2010Prop53
 90
        2
102
RTVSPost2010PropOp53
 70
     1
102
RTVSPost2010Prop54
  1
strokes_ogs.tif
102
RTVSPost2010PropOp54
 70
     1
102
RTVSPost2010Prop55
280
     0
102
RTVSPost2010PropOp55
 70
     1
102
RTVSPost2010Prop56
140
1.0
102
RTVSPost2010PropOp56
 70
     1
102
RTVSPost2010Prop57
140
1.0
102
RTVSPost2010PropOp57
 70
     1
  0
XRECORD
  5
FF
102
{ACAD_REACTORS
330
FE
102
}
330
FE
100
AcDbXrecord
280
     1
102
RTVSPropertyOp0
 70
     1
102
RTVSPropertyOp1
 70
     1
102
RTVSPropertyOp2
 70
     1
102
RTVSPropertyOp3
 70
     1
102
RTVSPropertyOp4
 70
     1
102
RTVSPropertyOp5
 70
     1
102
RTVSPropertyOp6
 70
     1
102
RTVSPropertyOp7
 70
     1
102
RTVSPropertyOp8
 70
     1
102
RTVSPropertyOp9
 70
     1
102
RTVSPropertyOp10
 70
     1
102
RTVSPropertyOp11
 70
     1
102
RTVSPropertyOp12
 70
     1
102
RTVSPropertyOp13
 70
     1
102
RTVSPropertyOp14
 70
     1
102
RTVSPropertyOp15
 70
     1
102
RTVSPropertyOp16
 70
     1
102
RTVSPropertyOp17
 70
     1
102
RTVSPropertyOp18
 70
     1
102
RTVSPropertyOp19
 70
     1
102
RTVSPropertyOp20
 70
     1
102
RTVSPropertyOp21
 70
     1
102
RTVSPropertyOp22
 70
     1
102
RTVSPropertyOp23
 70
     1
102
RTVSPropertyOp24
 70
     1
102
RTVSPropertyOp25
 70
     1
102
RTVSPropertyOp26
 70
     1
102
RTVSPropertyOp27
 70
     1
102
RTVSPropertyOp28
 70
     1
102
RTVSPropertyOp29
 70
     1
102
RTVSPropertyOp30
 70
     1
102
RTVSPropertyOp31
 70
     1
102
RTVSPropertyOp32
 70
     1
102
RTVSPropertyOp33
 70
     1
102
RTVSPropertyOp34
 70
     1
102
RTVSPropertyOp35
 70
     1
102
RTVSPropertyOp36
 70
     1
102
RTVSPropertyOp37
 70
     1
102
RTVSPropertyOp38
 70
     1
102
RTVSPropertyOp39
 70
     1
102
RTVSPropertyOp40
 70
     1
102
RTVSPropertyOp41
 70
     1
102
RTVSPropertyOp42
 70
     1
102
RTVSPropertyOp43
 70
     1
102
RTVSPropertyOp44
 70
     1
102
RTVSPropertyOp45
 70
     1
102
RTVSPropertyOp46
 70
     1
102
RTVSPropertyOp47
 70
     1
102
RTVSPropertyOp48
 70
     1
102
RTVSPropertyOp49
 70
     1
102
RTVSPropertyOp50
 70
     1
102
RTVSPropertyOp51
 70
     0
102
RTVSPropertyOp52
 70
     0
102
RTVSPropertyOp53
 70
     1
102
RTVSPropertyOp54
 70
     1
102
RTVSPropertyOp55
 70
     1
102
RTVSPropertyOp56
 70
     1
102
RTVSPropertyOp57
 70
     1
102
RTVSPost2010Prop28
280
     0
102
RTVSPost2010PropOp28
 70
     1
102
RTVSPost2010Prop29
280
     1
102
RTVSPost2010PropOp29
 70
     1
102
RTVSPost2010Prop30
280
     1
102
RTVSPost2010PropOp30
 70
     1
102
RTVSPost2010Prop31
280
     0
102
RTVSPost2010PropOp31
 70
     1
102
RTVSPost2010Prop32
280
     0
102
RTVSPost2010PropOp32
 70
     1
102
RTVSPost2010Prop33
280
     0
102
RTVSPost2010PropOp33
 70
     1
102
RTVSPost2010Prop34
280
     0
102
RTVSPost2010PropOp34
 70
     1
102
RTVSPost2010Prop35
280
     0
102
RTVSPost2010PropOp35
 70
     1
102
RTVSPost2010Prop36
280
     0
102
RTVSPost2010PropOp36
 70
     1
102
RTVSPost2010Prop37
 90
       50
102
RTVSPost2010PropOp37
 70
     1
102
RTVSPost2010Prop38
140
0.0
102
RTVSPost2010PropOp38
 70
     1
102
RTVSPost2010Prop39
140
1.0
102
RTVSPost2010PropOp39
 70
     1
102
RTVSPost2010Prop40
 90
        0
102
RTVSPost2010PropOp40
 70
     1
102
RTVSPost2010Prop41ColorIndex
 90
       18
102
RTVSPost2010Prop41ColorRGB
 90
        0
102
RTVSPost2010PropOp41
 70
     1
102
RTVSPost2010Prop42
 90
       50
102
RTVSPost2010PropOp42
 70
     1
102
RTVSPost2010Prop43
 90
        3
102
RTVSPost2010PropOp43
 70
     1
102
RTVSPost2010Prop44ColorIndex
 90
        5
102
RTVSPost2010Prop44ColorRGB
 90
      255
102
RTVSPost2010PropOp44
 70
     1
102
RTVSPost2010Prop45
280
     0
102
RTVSPost2010PropOp45
 70
     1
102
RTVSPost2010Prop46
 90
       50
102
RTVSPost2010PropOp46
 70
     1
102
RTVSPost2010Prop47
 90
       50
102
RTVSPost2010PropOp47
 70
     1
102
RTVSPost2010Prop48
 90
       50
102
RTVSPost2010PropOp48
 70
     1
102
RTVSPost2010Prop49
280
     0
102
RTVSPost2010PropOp49
 70
     1
102
RTVSPost2010Prop50
 90
       50
102
RTVSPost2010PropOp50
 70
     1
102
RTVSPost2010Prop51ColorIndex
 90
      256
102
RTVSPost2010Prop51ColorRGB
 90
-16777216
102
RTVSPost2010PropOp51
 70
     0
102
RTVSPost2010Prop52
140
1.0
102
RTVSPost2010PropOp52
 70
     0
102
RTVSPost2010Prop53
 90
        2
102
RTVSPost2010PropOp53
 70
     1
102
RTVSPost2010Prop54
  1
strokes_ogs.tif
102
RTVSPost2010PropOp54
 70
     1
102
RTVSPost2010Prop55
280
     0
102
RTVSPost2010PropOp55
 70
     1
102
RTVSPost2010Prop56
140
1.0
102
RTVSPost2010PropOp56
 70
     1
102
RTVSPost2010Prop57
140
1.0
102
RTVSPost2010PropOp57
 70
     1
  0
XRECORD
  5
F3
102
{ACAD_REACTORS
330
F2
102
}
330
F2
100
AcDbXrecord
280
     1
102
RTVSPropertyOp0
 70
     1
102
RTVSPropertyOp1
 70
     1
102
RTVSPropertyOp2
 70
     1
102
RTVSPropertyOp3
 70
     1
102
RTVSPropertyOp4
 70
     1
102
RTVSPropertyOp5
 70
     1
102
RTVSPropertyOp6
 70
     1
102
RTVSPropertyOp7
 70
     1
102
RTVSPropertyOp8
 70
     1
102
RTVSPropertyOp9
 70
     1
102
RTVSPropertyOp10
 70
     1
102
RTVSPropertyOp11
 70
     1
102
RTVSPropertyOp12
 70
     1
102
RTVSPropertyOp13
 70
     1
102
RTVSPropertyOp14
 70
     1
102
RTVSPropertyOp15
 70
     1
102
RTVSPropertyOp16
 70
     1
102
RTVSPropertyOp17
 70
     1
102
RTVSPropertyOp18
 70
     1
102
RTVSPropertyOp19
 70
     1
102
RTVSPropertyOp20
 70
     1
102
RTVSPropertyOp21
 70
     1
102
RTVSPropertyOp22
 70
     1
102
RTVSPropertyOp23
 70
     1
102
RTVSPropertyOp24
 70
     1
102
RTVSPropertyOp25
 70
     1
102
RTVSPropertyOp26
 70
     1
102
RTVSPropertyOp27
 70
     1
102
RTVSPropertyOp28
 70
     1
102
RTVSPropertyOp29
 70
     1
102
RTVSPropertyOp30
 70
     1
102
RTVSPropertyOp31
 70
     1
102
RTVSPropertyOp32
 70
     1
102
RTVSPropertyOp33
 70
     1
102
RTVSPropertyOp34
 70
     1
102
RTVSPropertyOp35
 70
     1
102
RTVSPropertyOp36
 70
     1
102
RTVSPropertyOp37
 70
     1
102
RTVSPropertyOp38
 70
     1
102
RTVSPropertyOp39
 70
     1
102
RTVSPropertyOp40
 70
     1
102
RTVSPropertyOp41
 70
     1
102
RTVSPropertyOp42
 70
     1
102
RTVSPropertyOp43
 70
     1
102
RTVSPropertyOp44
 70
     1
102
RTVSPropertyOp45
 70
     1
102
RTVSPropertyOp46
 70
     1
102
RTVSPropertyOp47
 70
     1
102
RTVSPropertyOp48
 70
     1
102
RTVSPropertyOp49
 70
     1
102
RTVSPropertyOp50
 70
     1
102
RTVSPropertyOp51
 70
     0
102
RTVSPropertyOp52
 70
     0
102
RTVSPropertyOp53
 70
     1
102
RTVSPropertyOp54
 70
     1
102
RTVSPropertyOp55
 70
     1
102
RTVSPropertyOp56
 70
     1
102
RTVSPropertyOp57
 70
     1
102
RTVSPost2010Prop28
280
     0
102
RTVSPost2010PropOp28
 70
     1
102
RTVSPost2010Prop29
280
     1
102
RTVSPost2010PropOp29
 70
     1
102
RTVSPost2010Prop30
280
     1
102
RTVSPost2010PropOp30
 70
     1
102
RTVSPost2010Prop31
280
     0
102
RTVSPost2010PropOp31
 70
     1
102
RTVSPost2010Prop32
280
     0
102
RTVSPost2010PropOp32
 70
     1
102
RTVSPost2010Prop33
280
     0
102
RTVSPost2010PropOp33
 70
     1
102
RTVSPost2010Prop34
280
     0
102
RTVSPost2010PropOp34
 70
     1
102
RTVSPost2010Prop35
280
     0
102
RTVSPost2010PropOp35
 70
     1
102
RTVSPost2010Prop36
280
     0
102
RTVSPost2010PropOp36
 70
     1
102
RTVSPost2010Prop37
 90
       50
102
RTVSPost2010PropOp37
 70
     1
102
RTVSPost2010Prop38
140
0.0
102
RTVSPost2010PropOp38
 70
     1
102
RTVSPost2010Prop39
140
1.0
102
RTVSPost2010PropOp39
 70
     1
102
RTVSPost2010Prop40
 90
        0
102
RTVSPost2010PropOp40
 70
     1
102
RTVSPost2010Prop41ColorIndex
 90
       18
102
RTVSPost2010Prop41ColorRGB
 90
        0
102
RTVSPost2010PropOp41
 70
     1
102
RTVSPost2010Prop42
 90
       50
102
RTVSPost2010PropOp42
 70
     1
102
RTVSPost2010Prop43
 90
        3
102
RTVSPost2010PropOp43
 70
     1
102
RTVSPost2010Prop44ColorIndex
 90
        5
102
RTVSPost2010Prop44ColorRGB
 90
      255
102
RTVSPost2010PropOp44
 70
     1
102
RTVSPost2010Prop45
280
     0
102
RTVSPost2010PropOp45
 70
     1
102
RTVSPost2010Prop46
 90
       50
102
RTVSPost2010PropOp46
 70
     1
102
RTVSPost2010Prop47
 90
       50
102
RTVSPost2010PropOp47
 70
     1
102
RTVSPost2010Prop48
 90
       50
102
RTVSPost2010PropOp48
 70
     1
102
RTVSPost2010Prop49
280
     0
102
RTVSPost2010PropOp49
 70
     1
102
RTVSPost2010Prop50
 90
       50
102
RTVSPost2010PropOp50
 70
     1
102
RTVSPost2010Prop51ColorIndex
 90
      256
102
RTVSPost2010Prop51ColorRGB
 90
-16777216
102
RTVSPost2010PropOp51
 70
     0
102
RTVSPost2010Prop52
140
1.0
102
RTVSPost2010PropOp52
 70
     0
102
RTVSPost2010Prop53
 90
        2
102
RTVSPost2010PropOp53
 70
     1
102
RTVSPost2010Prop54
  1
strokes_ogs.tif
102
RTVSPost2010PropOp54
 70
     1
102
RTVSPost2010Prop55
280
     0
102
RTVSPost2010PropOp55
 70
     1
102
RTVSPost2010Prop56
140
1.0
102
RTVSPost2010PropOp56
 70
     1
102
RTVSPost2010Prop57
140
1.0
102
RTVSPost2010PropOp57
 70
     1
  0
XRECORD
  5
F5
102
{ACAD_REACTORS
330
F4
102
}
330
F4
100
AcDbXrecord
280
     1
102
RTVSPropertyOp0
 70
     1
102
RTVSPropertyOp1
 70
     1
102
RTVSPropertyOp2
 70
     1
102
RTVSPropertyOp3
 70
     1
102
RTVSPropertyOp4
 70
     1
102
RTVSPropertyOp5
 70
     1
102
RTVSPropertyOp6
 70
     1
102
RTVSPropertyOp7
 70
     1
102
RTVSPropertyOp8
 70
     1
102
RTVSPropertyOp9
 70
     1
102
RTVSPropertyOp10
 70
     1
102
RTVSPropertyOp11
 70
     1
102
RTVSPropertyOp12
 70
     1
102
RTVSPropertyOp13
 70
     1
102
RTVSPropertyOp14
 70
     1
102
RTVSPropertyOp15
 70
     1
102
RTVSPropertyOp16
 70
     1
102
RTVSPropertyOp17
 70
     1
102
RTVSPropertyOp18
 70
     1
102
RTVSPropertyOp19
 70
     1
102
RTVSPropertyOp20
 70
     1
102
RTVSPropertyOp21
 70
     1
102
RTVSPropertyOp22
 70
     1
102
RTVSPropertyOp23
 70
     1
102
RTVSPropertyOp24
 70
     1
102
RTVSPropertyOp25
 70
     1
102
RTVSPropertyOp26
 70
     1
102
RTVSPropertyOp27
 70
     1
102
RTVSPropertyOp28
 70
     1
102
RTVSPropertyOp29
 70
     1
102
RTVSPropertyOp30
 70
     1
102
RTVSPropertyOp31
 70
     1
102
RTVSPropertyOp32
 70
     1
102
RTVSPropertyOp33
 70
     1
102
RTVSPropertyOp34
 70
     1
102
RTVSPropertyOp35
 70
     1
102
RTVSPropertyOp36
 70
     1
102
RTVSPropertyOp37
 70
     1
102
RTVSPropertyOp38
 70
     1
102
RTVSPropertyOp39
 70
     1
102
RTVSPropertyOp40
 70
     1
102
RTVSPropertyOp41
 70
     1
102
RTVSPropertyOp42
 70
     1
102
RTVSPropertyOp43
 70
     1
102
RTVSPropertyOp44
 70
     1
102
RTVSPropertyOp45
 70
     1
102
RTVSPropertyOp46
 70
     1
102
RTVSPropertyOp47
 70
     1
102
RTVSPropertyOp48
 70
     1
102
RTVSPropertyOp49
 70
     1
102
RTVSPropertyOp50
 70
     1
102
RTVSPropertyOp51
 70
     0
102
RTVSPropertyOp52
 70
     0
102
RTVSPropertyOp53
 70
     1
102
RTVSPropertyOp54
 70
     1
102
RTVSPropertyOp55
 70
     1
102
RTVSPropertyOp56
 70
     1
102
RTVSPropertyOp57
 70
     1
102
RTVSPost2010Prop28
280
     0
102
RTVSPost2010PropOp28
 70
     1
102
RTVSPost2010Prop29
280
     1
102
RTVSPost2010PropOp29
 70
     1
102
RTVSPost2010Prop30
280
     1
102
RTVSPost2010PropOp30
 70
     1
102
RTVSPost2010Prop31
280
     0
102
RTVSPost2010PropOp31
 70
     1
102
RTVSPost2010Prop32
280
     0
102
RTVSPost2010PropOp32
 70
     1
102
RTVSPost2010Prop33
280
     0
102
RTVSPost2010PropOp33
 70
     1
102
RTVSPost2010Prop34
280
     0
102
RTVSPost2010PropOp34
 70
     1
102
RTVSPost2010Prop35
280
     0
102
RTVSPost2010PropOp35
 70
     1
102
RTVSPost2010Prop36
280
     0
102
RTVSPost2010PropOp36
 70
     1
102
RTVSPost2010Prop37
 90
       50
102
RTVSPost2010PropOp37
 70
     1
102
RTVSPost2010Prop38
140
0.0
102
RTVSPost2010PropOp38
 70
     1
102
RTVSPost2010Prop39
140
1.0
102
RTVSPost2010PropOp39
 70
     1
102
RTVSPost2010Prop40
 90
        0
102
RTVSPost2010PropOp40
 70
     1
102
RTVSPost2010Prop41ColorIndex
 90
       18
102
RTVSPost2010Prop41ColorRGB
 90
        0
102
RTVSPost2010PropOp41
 70
     1
102
RTVSPost2010Prop42
 90
       50
102
RTVSPost2010PropOp42
 70
     1
102
RTVSPost2010Prop43
 90
        3
102
RTVSPost2010PropOp43
 70
     1
102
RTVSPost2010Prop44ColorIndex
 90
        5
102
RTVSPost2010Prop44ColorRGB
 90
      255
102
RTVSPost2010PropOp44
 70
     1
102
RTVSPost2010Prop45
280
     0
102
RTVSPost2010PropOp45
 70
     1
102
RTVSPost2010Prop46
 90
       50
102
RTVSPost2010PropOp46
 70
     1
102
RTVSPost2010Prop47
 90
       50
102
RTVSPost2010PropOp47
 70
     1
102
RTVSPost2010Prop48
 90
       50
102
RTVSPost2010PropOp48
 70
     1
102
RTVSPost2010Prop49
280
     0
102
RTVSPost2010PropOp49
 70
     1
102
RTVSPost2010Prop50
 90
       50
102
RTVSPost2010PropOp50
 70
     1
102
RTVSPost2010Prop51ColorIndex
 90
      256
102
RTVSPost2010Prop51ColorRGB
 90
-16777216
102
RTVSPost2010PropOp51
 70
     0
102
RTVSPost2010Prop52
140
1.0
102
RTVSPost2010PropOp52
 70
     0
102
RTVSPost2010Prop53
 90
        2
102
RTVSPost2010PropOp53
 70
     1
102
RTVSPost2010Prop54
  1
strokes_ogs.tif
102
RTVSPost2010PropOp54
 70
     1
102
RTVSPost2010Prop55
280
     0
102
RTVSPost2010PropOp55
 70
     1
102
RTVSPost2010Prop56
140
1.0
102
RTVSPost2010PropOp56
 70
     1
102
RTVSPost2010Prop57
140
1.0
102
RTVSPost2010PropOp57
 70
     1
  0
XRECORD
  5
105
102
{ACAD_REACTORS
330
104
102
}
330
104
100
AcDbXrecord
280
     1
102
RTVSPropertyOp0
 70
     0
102
RTVSPropertyOp1
 70
     0
102
RTVSPropertyOp2
 70
     0
102
RTVSPropertyOp3
 70
     0
102
RTVSPropertyOp4
 70
     0
102
RTVSPropertyOp5
 70
     0
102
RTVSPropertyOp6
 70
     0
102
RTVSPropertyOp7
 70
     0
102
RTVSPropertyOp8
 70
     0
102
RTVSPropertyOp9
 70
     0
102
RTVSPropertyOp10
 70
     0
102
RTVSPropertyOp11
 70
     0
102
RTVSPropertyOp12
 70
     0
102
RTVSPropertyOp13
 70
     0
102
RTVSPropertyOp14
 70
     2
102
RTVSPropertyOp15
 70
     0
102
RTVSPropertyOp16
 70
     0
102
RTVSPropertyOp17
 70
     0
102
RTVSPropertyOp18
 70
     0
102
RTVSPropertyOp19
 70
     0
102
RTVSPropertyOp20
 70
     0
102
RTVSPropertyOp21
 70
     0
102
RTVSPropertyOp22
 70
     0
102
RTVSPropertyOp23
 70
     0
102
RTVSPropertyOp24
 70
     0
102
RTVSPropertyOp25
 70
     0
102
RTVSPropertyOp26
 70
     0
102
RTVSPropertyOp27
 70
     0
102
RTVSPropertyOp28
 70
     0
102
RTVSPropertyOp29
 70
     0
102
RTVSPropertyOp30
 70
     0
102
RTVSPropertyOp31
 70
     0
102
RTVSPropertyOp32
 70
     0
102
RTVSPropertyOp33
 70
     0
102
RTVSPropertyOp34
 70
     0
102
RTVSPropertyOp35
 70
     0
102
RTVSPropertyOp36
 70
     0
102
RTVSPropertyOp37
 70
     0
102
RTVSPropertyOp38
 70
     0
102
RTVSPropertyOp39
 70
     0
102
RTVSPropertyOp40
 70
     0
102
RTVSPropertyOp41
 70
     0
102
RTVSPropertyOp42
 70
     0
102
RTVSPropertyOp43
 70
     0
102
RTVSPropertyOp44
 70
     0
102
RTVSPropertyOp45
 70
     0
102
RTVSPropertyOp46
 70
     0
102
RTVSPropertyOp47
 70
     0
102
RTVSPropertyOp48
 70
     0
102
RTVSPropertyOp49
 70
     0
102
RTVSPropertyOp50
 70
     0
102
RTVSPropertyOp51
 70
     0
102
RTVSPropertyOp52
 70
     0
102
RTVSPropertyOp53
 70
     0
102
RTVSPropertyOp54
 70
     0
102
RTVSPropertyOp55
 70
     0
102
RTVSPropertyOp56
 70
     0
102
RTVSPropertyOp57
 70
     0
102
RTVSPost2010Prop28
280
     0
102
RTVSPost2010PropOp28
 70
     0
102
RTVSPost2010Prop29
280
     1
102
RTVSPost2010PropOp29
 70
     0
102
RTVSPost2010Prop30
280
     1
102
RTVSPost2010PropOp30
 70
     0
102
RTVSPost2010Prop31
280
     0
102
RTVSPost2010PropOp31
 70
     0
102
RTVSPost2010Prop32
280
     0
102
RTVSPost2010PropOp32
 70
     0
102
RTVSPost2010Prop33
280
     0
102
RTVSPost2010PropOp33
 70
     0
102
RTVSPost2010Prop34
280
     0
102
RTVSPost2010PropOp34
 70
     0
102
RTVSPost2010Prop35
280
     0
102
RTVSPost2010PropOp35
 70
     0
102
RTVSPost2010Prop36
280
     0
102
RTVSPost2010PropOp36
 70
     0
102
RTVSPost2010Prop37
 90
       50
102
RTVSPost2010PropOp37
 70
     0
102
RTVSPost2010Prop38
140
0.0
102
RTVSPost2010PropOp38
 70
     0
102
RTVSPost2010Prop39
140
1.0
102
RTVSPost2010PropOp39
 70
     0
102
RTVSPost2010Prop40
 90
        0
102
RTVSPost2010PropOp40
 70
     0
102
RTVSPost2010Prop41ColorIndex
 90
       18
102
RTVSPost2010Prop41ColorRGB
 90
        0
102
RTVSPost2010PropOp41
 70
     0
102
RTVSPost2010Prop42
 90
       50
102
RTVSPost2010PropOp42
 70
     0
102
RTVSPost2010Prop43
 90
        3
102
RTVSPost2010PropOp43
 70
     0
102
RTVSPost2010Prop44ColorIndex
 90
        5
102
RTVSPost2010Prop44ColorRGB
 90
      255
102
RTVSPost2010PropOp44
 70
     0
102
RTVSPost2010Prop45
280
     0
102
RTVSPost2010PropOp45
 70
     0
102
RTVSPost2010Prop46
 90
       50
102
RTVSPost2010PropOp46
 70
     0
102
RTVSPost2010Prop47
 90
       50
102
RTVSPost2010PropOp47
 70
     0
102
RTVSPost2010Prop48
 90
       50
102
RTVSPost2010PropOp48
 70
     0
102
RTVSPost2010Prop49
280
     0
102
RTVSPost2010PropOp49
 70
     0
102
RTVSPost2010Prop50
 90
       50
102
RTVSPost2010PropOp50
 70
     0
102
RTVSPost2010Prop51ColorIndex
 90
      256
102
RTVSPost2010Prop51ColorRGB
 90
-16777216
102
RTVSPost2010PropOp51
 70
     0
102
RTVSPost2010Prop52
140
1.0
102
RTVSPost2010PropOp52
 70
     0
102
RTVSPost2010Prop53
 90
        2
102
RTVSPost2010PropOp53
 70
     0
102
RTVSPost2010Prop54
  1
strokes_ogs.tif
102
RTVSPost2010PropOp54
 70
     0
102
RTVSPost2010Prop55
280
     0
102
RTVSPost2010PropOp55
 70
     0
102
RTVSPost2010Prop56
140
1.0
102
RTVSPost2010PropOp56
 70
     0
102
RTVSPost2010Prop57
140
1.0
102
RTVSPost2010PropOp57
 70
     0
  0
XRECORD
  5
FD
102
{ACAD_REACTORS
330
FC
102
}
330
FC
100
AcDbXrecord
280
     1
102
RTVSPropertyOp0
 70
     1
102
RTVSPropertyOp1
 70
     1
102
RTVSPropertyOp2
 70
     1
102
RTVSPropertyOp3
 70
     1
102
RTVSPropertyOp4
 70
     1
102
RTVSPropertyOp5
 70
     1
102
RTVSPropertyOp6
 70
     1
102
RTVSPropertyOp7
 70
     1
102
RTVSPropertyOp8
 70
     1
102
RTVSPropertyOp9
 70
     1
102
RTVSPropertyOp10
 70
     1
102
RTVSPropertyOp11
 70
     1
102
RTVSPropertyOp12
 70
     1
102
RTVSPropertyOp13
 70
     1
102
RTVSPropertyOp14
 70
     1
102
RTVSPropertyOp15
 70
     1
102
RTVSPropertyOp16
 70
     1
102
RTVSPropertyOp17
 70
     1
102
RTVSPropertyOp18
 70
     1
102
RTVSPropertyOp19
 70
     1
102
RTVSPropertyOp20
 70
     1
102
RTVSPropertyOp21
 70
     1
102
RTVSPropertyOp22
 70
     1
102
RTVSPropertyOp23
 70
     1
102
RTVSPropertyOp24
 70
     1
102
RTVSPropertyOp25
 70
     1
102
RTVSPropertyOp26
 70
     1
102
RTVSPropertyOp27
 70
     1
102
RTVSPropertyOp28
 70
     1
102
RTVSPropertyOp29
 70
     1
102
RTVSPropertyOp30
 70
     1
102
RTVSPropertyOp31
 70
     1
102
RTVSPropertyOp32
 70
     1
102
RTVSPropertyOp33
 70
     1
102
RTVSPropertyOp34
 70
     1
102
RTVSPropertyOp35
 70
     1
102
RTVSPropertyOp36
 70
     1
102
RTVSPropertyOp37
 70
     1
102
RTVSPropertyOp38
 70
     1
102
RTVSPropertyOp39
 70
     1
102
RTVSPropertyOp40
 70
     1
102
RTVSPropertyOp41
 70
     1
102
RTVSPropertyOp42
 70
     1
102
RTVSPropertyOp43
 70
     1
102
RTVSPropertyOp44
 70
     1
102
RTVSPropertyOp45
 70
     1
102
RTVSPropertyOp46
 70
     1
102
RTVSPropertyOp47
 70
     1
102
RTVSPropertyOp48
 70
     1
102
RTVSPropertyOp49
 70
     1
102
RTVSPropertyOp50
 70
     1
102
RTVSPropertyOp51
 70
     0
102
RTVSPropertyOp52
 70
     0
102
RTVSPropertyOp53
 70
     1
102
RTVSPropertyOp54
 70
     1
102
RTVSPropertyOp55
 70
     1
102
RTVSPropertyOp56
 70
     1
102
RTVSPropertyOp57
 70
     1
102
RTVSPost2010Prop28
280
     0
102
RTVSPost2010PropOp28
 70
     1
102
RTVSPost2010Prop29
280
     1
102
RTVSPost2010PropOp29
 70
     1
102
RTVSPost2010Prop30
280
     1
102
RTVSPost2010PropOp30
 70
     1
102
RTVSPost2010Prop31
280
     0
102
RTVSPost2010PropOp31
 70
     1
102
RTVSPost2010Prop32
280
     0
102
RTVSPost2010PropOp32
 70
     1
102
RTVSPost2010Prop33
280
     0
102
RTVSPost2010PropOp33
 70
     1
102
RTVSPost2010Prop34
280
     0
102
RTVSPost2010PropOp34
 70
     1
102
RTVSPost2010Prop35
280
     0
102
RTVSPost2010PropOp35
 70
     1
102
RTVSPost2010Prop36
280
     0
102
RTVSPost2010PropOp36
 70
     1
102
RTVSPost2010Prop37
 90
       50
102
RTVSPost2010PropOp37
 70
     1
102
RTVSPost2010Prop38
140
0.0
102
RTVSPost2010PropOp38
 70
     1
102
RTVSPost2010Prop39
140
1.0
102
RTVSPost2010PropOp39
 70
     1
102
RTVSPost2010Prop40
 90
        0
102
RTVSPost2010PropOp40
 70
     1
102
RTVSPost2010Prop41ColorIndex
 90
       18
102
RTVSPost2010Prop41ColorRGB
 90
        0
102
RTVSPost2010PropOp41
 70
     1
102
RTVSPost2010Prop42
 90
       50
102
RTVSPost2010PropOp42
 70
     1
102
RTVSPost2010Prop43
 90
        3
102
RTVSPost2010PropOp43
 70
     1
102
RTVSPost2010Prop44ColorIndex
 90
        5
102
RTVSPost2010Prop44ColorRGB
 90
      255
102
RTVSPost2010PropOp44
 70
     1
102
RTVSPost2010Prop45
280
     0
102
RTVSPost2010PropOp45
 70
     1
102
RTVSPost2010Prop46
 90
       50
102
RTVSPost2010PropOp46
 70
     1
102
RTVSPost2010Prop47
 90
       50
102
RTVSPost2010PropOp47
 70
     1
102
RTVSPost2010Prop48
 90
       50
102
RTVSPost2010PropOp48
 70
     1
102
RTVSPost2010Prop49
280
     0
102
RTVSPost2010PropOp49
 70
     1
102
RTVSPost2010Prop50
 90
       50
102
RTVSPost2010PropOp50
 70
     1
102
RTVSPost2010Prop51ColorIndex
 90
      256
102
RTVSPost2010Prop51ColorRGB
 90
-16777216
102
RTVSPost2010PropOp51
 70
     0
102
RTVSPost2010Prop52
140
1.0
102
RTVSPost2010PropOp52
 70
     0
102
RTVSPost2010Prop53
 90
        2
102
RTVSPost2010PropOp53
 70
     1
102
RTVSPost2010Prop54
  1
strokes_ogs.tif
102
RTVSPost2010PropOp54
 70
     1
102
RTVSPost2010Prop55
280
     0
102
RTVSPost2010PropOp55
 70
     1
102
RTVSPost2010Prop56
140
1.0
102
RTVSPost2010PropOp56
 70
     1
102
RTVSPost2010Prop57
140
1.0
102
RTVSPost2010PropOp57
 70
     1
  0
XRECORD
  5
E1
102
{ACAD_REACTORS
330
E0
102
}
330
E0
100
AcDbXrecord
280
     1
102
RTVSPropertyOp0
 70
     1
102
RTVSPropertyOp1
 70
     1
102
RTVSPropertyOp2
 70
     1
102
RTVSPropertyOp3
 70
     1
102
RTVSPropertyOp4
 70
     1
102
RTVSPropertyOp5
 70
     1
102
RTVSPropertyOp6
 70
     1
102
RTVSPropertyOp7
 70
     1
102
RTVSPropertyOp8
 70
     1
102
RTVSPropertyOp9
 70
     1
102
RTVSPropertyOp10
 70
     1
102
RTVSPropertyOp11
 70
     1
102
RTVSPropertyOp12
 70
     1
102
RTVSPropertyOp13
 70
     1
102
RTVSPropertyOp14
 70
     1
102
RTVSPropertyOp15
 70
     1
102
RTVSPropertyOp16
 70
     1
102
RTVSPropertyOp17
 70
     1
102
RTVSPropertyOp18
 70
     1
102
RTVSPropertyOp19
 70
     1
102
RTVSPropertyOp20
 70
     1
102
RTVSPropertyOp21
 70
     1
102
RTVSPropertyOp22
 70
     1
102
RTVSPropertyOp23
 70
     1
102
RTVSPropertyOp24
 70
     1
102
RTVSPropertyOp25
 70
     1
102
RTVSPropertyOp26
 70
     1
102
RTVSPropertyOp27
 70
     1
102
RTVSPropertyOp28
 70
     1
102
RTVSPropertyOp29
 70
     1
102
RTVSPropertyOp30
 70
     1
102
RTVSPropertyOp31
 70
     1
102
RTVSPropertyOp32
 70
     1
102
RTVSPropertyOp33
 70
     1
102
RTVSPropertyOp34
 70
     1
102
RTVSPropertyOp35
 70
     1
102
RTVSPropertyOp36
 70
     1
102
RTVSPropertyOp37
 70
     1
102
RTVSPropertyOp38
 70
     1
102
RTVSPropertyOp39
 70
     1
102
RTVSPropertyOp40
 70
     1
102
RTVSPropertyOp41
 70
     1
102
RTVSPropertyOp42
 70
     1
102
RTVSPropertyOp43
 70
     1
102
RTVSPropertyOp44
 70
     1
102
RTVSPropertyOp45
 70
     1
102
RTVSPropertyOp46
 70
     1
102
RTVSPropertyOp47
 70
     1
102
RTVSPropertyOp48
 70
     1
102
RTVSPropertyOp49
 70
     1
102
RTVSPropertyOp50
 70
     1
102
RTVSPropertyOp51
 70
     0
102
RTVSPropertyOp52
 70
     0
102
RTVSPropertyOp53
 70
     1
102
RTVSPropertyOp54
 70
     1
102
RTVSPropertyOp55
 70
     1
102
RTVSPropertyOp56
 70
     1
102
RTVSPropertyOp57
 70
     1
102
RTVSPost2010Prop28
280
     0
102
RTVSPost2010PropOp28
 70
     1
102
RTVSPost2010Prop29
280
     1
102
RTVSPost2010PropOp29
 70
     1
102
RTVSPost2010Prop30
280
     1
102
RTVSPost2010PropOp30
 70
     1
102
RTVSPost2010Prop31
280
     0
102
RTVSPost2010PropOp31
 70
     1
102
RTVSPost2010Prop32
280
     0
102
RTVSPost2010PropOp32
 70
     1
102
RTVSPost2010Prop33
280
     0
102
RTVSPost2010PropOp33
 70
     1
102
RTVSPost2010Prop34
280
     0
102
RTVSPost2010PropOp34
 70
     1
102
RTVSPost2010Prop35
280
     0
102
RTVSPost2010PropOp35
 70
     1
102
RTVSPost2010Prop36
280
     0
102
RTVSPost2010PropOp36
 70
     1
102
RTVSPost2010Prop37
 90
       50
102
RTVSPost2010PropOp37
 70
     1
102
RTVSPost2010Prop38
140
0.0
102
RTVSPost2010PropOp38
 70
     1
102
RTVSPost2010Prop39
140
1.0
102
RTVSPost2010PropOp39
 70
     1
102
RTVSPost2010Prop40
 90
        0
102
RTVSPost2010PropOp40
 70
     1
102
RTVSPost2010Prop41ColorIndex
 90
       18
102
RTVSPost2010Prop41ColorRGB
 90
        0
102
RTVSPost2010PropOp41
 70
     1
102
RTVSPost2010Prop42
 90
       50
102
RTVSPost2010PropOp42
 70
     1
102
RTVSPost2010Prop43
 90
        3
102
RTVSPost2010PropOp43
 70
     1
102
RTVSPost2010Prop44ColorIndex
 90
        5
102
RTVSPost2010Prop44ColorRGB
 90
      255
102
RTVSPost2010PropOp44
 70
     1
102
RTVSPost2010Prop45
280
     0
102
RTVSPost2010PropOp45
 70
     1
102
RTVSPost2010Prop46
 90
       50
102
RTVSPost2010PropOp46
 70
     1
102
RTVSPost2010Prop47
 90
       50
102
RTVSPost2010PropOp47
 70
     1
102
RTVSPost2010Prop48
 90
       50
102
RTVSPost2010PropOp48
 70
     1
102
RTVSPost2010Prop49
280
     0
102
RTVSPost2010PropOp49
 70
     1
102
RTVSPost2010Prop50
 90
       50
102
RTVSPost2010PropOp50
 70
     1
102
RTVSPost2010Prop51ColorIndex
 90
      256
102
RTVSPost2010Prop51ColorRGB
 90
-16777216
102
RTVSPost2010PropOp51
 70
     0
102
RTVSPost2010Prop52
140
1.0
102
RTVSPost2010PropOp52
 70
     0
102
RTVSPost2010Prop53
 90
        2
102
RTVSPost2010PropOp53
 70
     1
102
RTVSPost2010Prop54
  1
strokes_ogs.tif
102
RTVSPost2010PropOp54
 70
     1
102
RTVSPost2010Prop55
280
     0
102
RTVSPost2010PropOp55
 70
     1
102
RTVSPost2010Prop56
140
1.0
102
RTVSPost2010PropOp56
 70
     1
102
RTVSPost2010Prop57
140
1.0
102
RTVSPost2010PropOp57
 70
     1
  0
XRECORD
  5
E3
102
{ACAD_REACTORS
330
E2
102
}
330
E2
100
AcDbXrecord
280
     1
102
RTVSPropertyOp0
 70
     1
102
RTVSPropertyOp1
 70
     1
102
RTVSPropertyOp2
 70
     1
102
RTVSPropertyOp3
 70
     1
102
RTVSPropertyOp4
 70
     1
102
RTVSPropertyOp5
 70
     1
102
RTVSPropertyOp6
 70
     1
102
RTVSPropertyOp7
 70
     1
102
RTVSPropertyOp8
 70
     1
102
RTVSPropertyOp9
 70
     1
102
RTVSPropertyOp10
 70
     1
102
RTVSPropertyOp11
 70
     1
102
RTVSPropertyOp12
 70
     1
102
RTVSPropertyOp13
 70
     1
102
RTVSPropertyOp14
 70
     1
102
RTVSPropertyOp15
 70
     1
102
RTVSPropertyOp16
 70
     1
102
RTVSPropertyOp17
 70
     1
102
RTVSPropertyOp18
 70
     1
102
RTVSPropertyOp19
 70
     1
102
RTVSPropertyOp20
 70
     1
102
RTVSPropertyOp21
 70
     1
102
RTVSPropertyOp22
 70
     1
102
RTVSPropertyOp23
 70
     1
102
RTVSPropertyOp24
 70
     1
102
RTVSPropertyOp25
 70
     1
102
RTVSPropertyOp26
 70
     1
102
RTVSPropertyOp27
 70
     1
102
RTVSPropertyOp28
 70
     1
102
RTVSPropertyOp29
 70
     1
102
RTVSPropertyOp30
 70
     1
102
RTVSPropertyOp31
 70
     1
102
RTVSPropertyOp32
 70
     1
102
RTVSPropertyOp33
 70
     1
102
RTVSPropertyOp34
 70
     1
102
RTVSPropertyOp35
 70
     1
102
RTVSPropertyOp36
 70
     1
102
RTVSPropertyOp37
 70
     1
102
RTVSPropertyOp38
 70
     1
102
RTVSPropertyOp39
 70
     1
102
RTVSPropertyOp40
 70
     1
102
RTVSPropertyOp41
 70
     1
102
RTVSPropertyOp42
 70
     1
102
RTVSPropertyOp43
 70
     1
102
RTVSPropertyOp44
 70
     1
102
RTVSPropertyOp45
 70
     1
102
RTVSPropertyOp46
 70
     1
102
RTVSPropertyOp47
 70
     1
102
RTVSPropertyOp48
 70
     1
102
RTVSPropertyOp49
 70
     1
102
RTVSPropertyOp50
 70
     1
102
RTVSPropertyOp51
 70
     0
102
RTVSPropertyOp52
 70
     0
102
RTVSPropertyOp53
 70
     1
102
RTVSPropertyOp54
 70
     1
102
RTVSPropertyOp55
 70
     1
102
RTVSPropertyOp56
 70
     1
102
RTVSPropertyOp57
 70
     1
102
RTVSPost2010Prop28
280
     0
102
RTVSPost2010PropOp28
 70
     1
102
RTVSPost2010Prop29
280
     1
102
RTVSPost2010PropOp29
 70
     1
102
RTVSPost2010Prop30
280
     1
102
RTVSPost2010PropOp30
 70
     1
102
RTVSPost2010Prop31
280
     0
102
RTVSPost2010PropOp31
 70
     1
102
RTVSPost2010Prop32
280
     0
102
RTVSPost2010PropOp32
 70
     1
102
RTVSPost2010Prop33
280
     0
102
RTVSPost2010PropOp33
 70
     1
102
RTVSPost2010Prop34
280
     0
102
RTVSPost2010PropOp34
 70
     1
102
RTVSPost2010Prop35
280
     0
102
RTVSPost2010PropOp35
 70
     1
102
RTVSPost2010Prop36
280
     0
102
RTVSPost2010PropOp36
 70
     1
102
RTVSPost2010Prop37
 90
       50
102
RTVSPost2010PropOp37
 70
     1
102
RTVSPost2010Prop38
140
0.0
102
RTVSPost2010PropOp38
 70
     1
102
RTVSPost2010Prop39
140
1.0
102
RTVSPost2010PropOp39
 70
     1
102
RTVSPost2010Prop40
 90
        0
102
RTVSPost2010PropOp40
 70
     1
102
RTVSPost2010Prop41ColorIndex
 90
       18
102
RTVSPost2010Prop41ColorRGB
 90
        0
102
RTVSPost2010PropOp41
 70
     1
102
RTVSPost2010Prop42
 90
       50
102
RTVSPost2010PropOp42
 70
     1
102
RTVSPost2010Prop43
 90
        3
102
RTVSPost2010PropOp43
 70
     1
102
RTVSPost2010Prop44ColorIndex
 90
        5
102
RTVSPost2010Prop44ColorRGB
 90
      255
102
RTVSPost2010PropOp44
 70
     1
102
RTVSPost2010Prop45
280
     0
102
RTVSPost2010PropOp45
 70
     1
102
RTVSPost2010Prop46
 90
       50
102
RTVSPost2010PropOp46
 70
     1
102
RTVSPost2010Prop47
 90
       50
102
RTVSPost2010PropOp47
 70
     1
102
RTVSPost2010Prop48
 90
       50
102
RTVSPost2010PropOp48
 70
     1
102
RTVSPost2010Prop49
280
     0
102
RTVSPost2010PropOp49
 70
     1
102
RTVSPost2010Prop50
 90
       50
102
RTVSPost2010PropOp50
 70
     1
102
RTVSPost2010Prop51ColorIndex
 90
      256
102
RTVSPost2010Prop51ColorRGB
 90
-16777216
102
RTVSPost2010PropOp51
 70
     0
102
RTVSPost2010Prop52
140
1.0
102
RTVSPost2010PropOp52
 70
     0
102
RTVSPost2010Prop53
 90
        2
102
RTVSPost2010PropOp53
 70
     1
102
RTVSPost2010Prop54
  1
strokes_ogs.tif
102
RTVSPost2010PropOp54
 70
     1
102
RTVSPost2010Prop55
280
     0
102
RTVSPost2010PropOp55
 70
     1
102
RTVSPost2010Prop56
140
1.0
102
RTVSPost2010PropOp56
 70
     1
102
RTVSPost2010Prop57
140
1.0
102
RTVSPost2010PropOp57
 70
     1
  0
XRECORD
  5
E5
102
{ACAD_REACTORS
330
E4
102
}
330
E4
100
AcDbXrecord
280
     1
102
RTVSPropertyOp0
 70
     1
102
RTVSPropertyOp1
 70
     1
102
RTVSPropertyOp2
 70
     1
102
RTVSPropertyOp3
 70
     1
102
RTVSPropertyOp4
 70
     1
102
RTVSPropertyOp5
 70
     1
102
RTVSPropertyOp6
 70
     1
102
RTVSPropertyOp7
 70
     1
102
RTVSPropertyOp8
 70
     1
102
RTVSPropertyOp9
 70
     1
102
RTVSPropertyOp10
 70
     1
102
RTVSPropertyOp11
 70
     1
102
RTVSPropertyOp12
 70
     1
102
RTVSPropertyOp13
 70
     1
102
RTVSPropertyOp14
 70
     1
102
RTVSPropertyOp15
 70
     1
102
RTVSPropertyOp16
 70
     1
102
RTVSPropertyOp17
 70
     1
102
RTVSPropertyOp18
 70
     1
102
RTVSPropertyOp19
 70
     1
102
RTVSPropertyOp20
 70
     1
102
RTVSPropertyOp21
 70
     1
102
RTVSPropertyOp22
 70
     1
102
RTVSPropertyOp23
 70
     1
102
RTVSPropertyOp24
 70
     1
102
RTVSPropertyOp25
 70
     1
102
RTVSPropertyOp26
 70
     1
102
RTVSPropertyOp27
 70
     1
102
RTVSPropertyOp28
 70
     1
102
RTVSPropertyOp29
 70
     1
102
RTVSPropertyOp30
 70
     1
102
RTVSPropertyOp31
 70
     1
102
RTVSPropertyOp32
 70
     1
102
RTVSPropertyOp33
 70
     1
102
RTVSPropertyOp34
 70
     1
102
RTVSPropertyOp35
 70
     1
102
RTVSPropertyOp36
 70
     1
102
RTVSPropertyOp37
 70
     1
102
RTVSPropertyOp38
 70
     1
102
RTVSPropertyOp39
 70
     1
102
RTVSPropertyOp40
 70
     1
102
RTVSPropertyOp41
 70
     1
102
RTVSPropertyOp42
 70
     1
102
RTVSPropertyOp43
 70
     1
102
RTVSPropertyOp44
 70
     1
102
RTVSPropertyOp45
 70
     1
102
RTVSPropertyOp46
 70
     1
102
RTVSPropertyOp47
 70
     1
102
RTVSPropertyOp48
 70
     1
102
RTVSPropertyOp49
 70
     1
102
RTVSPropertyOp50
 70
     1
102
RTVSPropertyOp51
 70
     0
102
RTVSPropertyOp52
 70
     0
102
RTVSPropertyOp53
 70
     1
102
RTVSPropertyOp54
 70
     1
102
RTVSPropertyOp55
 70
     1
102
RTVSPropertyOp56
 70
     1
102
RTVSPropertyOp57
 70
     1
102
RTVSPost2010Prop28
280
     0
102
RTVSPost2010PropOp28
 70
     1
102
RTVSPost2010Prop29
280
     1
102
RTVSPost2010PropOp29
 70
     1
102
RTVSPost2010Prop30
280
     1
102
RTVSPost2010PropOp30
 70
     1
102
RTVSPost2010Prop31
280
     0
102
RTVSPost2010PropOp31
 70
     1
102
RTVSPost2010Prop32
280
     0
102
RTVSPost2010PropOp32
 70
     1
102
RTVSPost2010Prop33
280
     0
102
RTVSPost2010PropOp33
 70
     1
102
RTVSPost2010Prop34
280
     0
102
RTVSPost2010PropOp34
 70
     1
102
RTVSPost2010Prop35
280
     0
102
RTVSPost2010PropOp35
 70
     1
102
RTVSPost2010Prop36
280
     0
102
RTVSPost2010PropOp36
 70
     1
102
RTVSPost2010Prop37
 90
       50
102
RTVSPost2010PropOp37
 70
     1
102
RTVSPost2010Prop38
140
0.0
102
RTVSPost2010PropOp38
 70
     1
102
RTVSPost2010Prop39
140
1.0
102
RTVSPost2010PropOp39
 70
     1
102
RTVSPost2010Prop40
 90
        0
102
RTVSPost2010PropOp40
 70
     1
102
RTVSPost2010Prop41ColorIndex
 90
       18
102
RTVSPost2010Prop41ColorRGB
 90
        0
102
RTVSPost2010PropOp41
 70
     1
102
RTVSPost2010Prop42
 90
       50
102
RTVSPost2010PropOp42
 70
     1
102
RTVSPost2010Prop43
 90
        3
102
RTVSPost2010PropOp43
 70
     1
102
RTVSPost2010Prop44ColorIndex
 90
        5
102
RTVSPost2010Prop44ColorRGB
 90
      255
102
RTVSPost2010PropOp44
 70
     1
102
RTVSPost2010Prop45
280
     0
102
RTVSPost2010PropOp45
 70
     1
102
RTVSPost2010Prop46
 90
       50
102
RTVSPost2010PropOp46
 70
     1
102
RTVSPost2010Prop47
 90
       50
102
RTVSPost2010PropOp47
 70
     1
102
RTVSPost2010Prop48
 90
       50
102
RTVSPost2010PropOp48
 70
     1
102
RTVSPost2010Prop49
280
     0
102
RTVSPost2010PropOp49
 70
     1
102
RTVSPost2010Prop50
 90
       50
102
RTVSPost2010PropOp50
 70
     1
102
RTVSPost2010Prop51ColorIndex
 90
      256
102
RTVSPost2010Prop51ColorRGB
 90
-16777216
102
RTVSPost2010PropOp51
 70
     0
102
RTVSPost2010Prop52
140
1.0
102
RTVSPost2010PropOp52
 70
     0
102
RTVSPost2010Prop53
 90
        2
102
RTVSPost2010PropOp53
 70
     1
102
RTVSPost2010Prop54
  1
strokes_ogs.tif
102
RTVSPost2010PropOp54
 70
     1
102
RTVSPost2010Prop55
280
     0
102
RTVSPost2010PropOp55
 70
     1
102
RTVSPost2010Prop56
140
1.0
102
RTVSPost2010PropOp56
 70
     1
102
RTVSPost2010Prop57
140
1.0
102
RTVSPost2010PropOp57
 70
     1
  0
XRECORD
  5
E7
102
{ACAD_REACTORS
330
E6
102
}
330
E6
100
AcDbXrecord
280
     1
102
RTVSPropertyOp0
 70
     1
102
RTVSPropertyOp1
 70
     1
102
RTVSPropertyOp2
 70
     1
102
RTVSPropertyOp3
 70
     1
102
RTVSPropertyOp4
 70
     1
102
RTVSPropertyOp5
 70
     1
102
RTVSPropertyOp6
 70
     1
102
RTVSPropertyOp7
 70
     1
102
RTVSPropertyOp8
 70
     1
102
RTVSPropertyOp9
 70
     1
102
RTVSPropertyOp10
 70
     1
102
RTVSPropertyOp11
 70
     1
102
RTVSPropertyOp12
 70
     1
102
RTVSPropertyOp13
 70
     1
102
RTVSPropertyOp14
 70
     1
102
RTVSPropertyOp15
 70
     1
102
RTVSPropertyOp16
 70
     1
102
RTVSPropertyOp17
 70
     1
102
RTVSPropertyOp18
 70
     1
102
RTVSPropertyOp19
 70
     1
102
RTVSPropertyOp20
 70
     1
102
RTVSPropertyOp21
 70
     1
102
RTVSPropertyOp22
 70
     1
102
RTVSPropertyOp23
 70
     1
102
RTVSPropertyOp24
 70
     1
102
RTVSPropertyOp25
 70
     1
102
RTVSPropertyOp26
 70
     1
102
RTVSPropertyOp27
 70
     1
102
RTVSPropertyOp28
 70
     1
102
RTVSPropertyOp29
 70
     1
102
RTVSPropertyOp30
 70
     1
102
RTVSPropertyOp31
 70
     1
102
RTVSPropertyOp32
 70
     1
102
RTVSPropertyOp33
 70
     1
102
RTVSPropertyOp34
 70
     1
102
RTVSPropertyOp35
 70
     1
102
RTVSPropertyOp36
 70
     1
102
RTVSPropertyOp37
 70
     1
102
RTVSPropertyOp38
 70
     1
102
RTVSPropertyOp39
 70
     1
102
RTVSPropertyOp40
 70
     1
102
RTVSPropertyOp41
 70
     1
102
RTVSPropertyOp42
 70
     1
102
RTVSPropertyOp43
 70
     1
102
RTVSPropertyOp44
 70
     1
102
RTVSPropertyOp45
 70
     1
102
RTVSPropertyOp46
 70
     1
102
RTVSPropertyOp47
 70
     1
102
RTVSPropertyOp48
 70
     1
102
RTVSPropertyOp49
 70
     1
102
RTVSPropertyOp50
 70
     1
102
RTVSPropertyOp51
 70
     0
102
RTVSPropertyOp52
 70
     0
102
RTVSPropertyOp53
 70
     1
102
RTVSPropertyOp54
 70
     1
102
RTVSPropertyOp55
 70
     1
102
RTVSPropertyOp56
 70
     1
102
RTVSPropertyOp57
 70
     1
102
RTVSPost2010Prop28
280
     0
102
RTVSPost2010PropOp28
 70
     1
102
RTVSPost2010Prop29
280
     1
102
RTVSPost2010PropOp29
 70
     1
102
RTVSPost2010Prop30
280
     1
102
RTVSPost2010PropOp30
 70
     1
102
RTVSPost2010Prop31
280
     0
102
RTVSPost2010PropOp31
 70
     1
102
RTVSPost2010Prop32
280
     0
102
RTVSPost2010PropOp32
 70
     1
102
RTVSPost2010Prop33
280
     0
102
RTVSPost2010PropOp33
 70
     1
102
RTVSPost2010Prop34
280
     0
102
RTVSPost2010PropOp34
 70
     1
102
RTVSPost2010Prop35
280
     0
102
RTVSPost2010PropOp35
 70
     1
102
RTVSPost2010Prop36
280
     0
102
RTVSPost2010PropOp36
 70
     1
102
RTVSPost2010Prop37
 90
       50
102
RTVSPost2010PropOp37
 70
     1
102
RTVSPost2010Prop38
140
0.0
102
RTVSPost2010PropOp38
 70
     1
102
RTVSPost2010Prop39
140
1.0
102
RTVSPost2010PropOp39
 70
     1
102
RTVSPost2010Prop40
 90
        0
102
RTVSPost2010PropOp40
 70
     1
102
RTVSPost2010Prop41ColorIndex
 90
       18
102
RTVSPost2010Prop41ColorRGB
 90
        0
102
RTVSPost2010PropOp41
 70
     1
102
RTVSPost2010Prop42
 90
       50
102
RTVSPost2010PropOp42
 70
     1
102
RTVSPost2010Prop43
 90
        3
102
RTVSPost2010PropOp43
 70
     1
102
RTVSPost2010Prop44ColorIndex
 90
        5
102
RTVSPost2010Prop44ColorRGB
 90
      255
102
RTVSPost2010PropOp44
 70
     1
102
RTVSPost2010Prop45
280
     0
102
RTVSPost2010PropOp45
 70
     1
102
RTVSPost2010Prop46
 90
       50
102
RTVSPost2010PropOp46
 70
     1
102
RTVSPost2010Prop47
 90
       50
102
RTVSPost2010PropOp47
 70
     1
102
RTVSPost2010Prop48
 90
       50
102
RTVSPost2010PropOp48
 70
     1
102
RTVSPost2010Prop49
280
     0
102
RTVSPost2010PropOp49
 70
     1
102
RTVSPost2010Prop50
 90
       50
102
RTVSPost2010PropOp50
 70
     1
102
RTVSPost2010Prop51ColorIndex
 90
      256
102
RTVSPost2010Prop51ColorRGB
 90
-16777216
102
RTVSPost2010PropOp51
 70
     0
102
RTVSPost2010Prop52
140
1.0
102
RTVSPost2010PropOp52
 70
     0
102
RTVSPost2010Prop53
 90
        2
102
RTVSPost2010PropOp53
 70
     1
102
RTVSPost2010Prop54
  1
strokes_ogs.tif
102
RTVSPost2010PropOp54
 70
     1
102
RTVSPost2010Prop55
280
     0
102
RTVSPost2010PropOp55
 70
     1
102
RTVSPost2010Prop56
140
1.0
102
RTVSPost2010PropOp56
 70
     1
102
RTVSPost2010Prop57
140
1.0
102
RTVSPost2010PropOp57
 70
     1
  0
XRECORD
  5
ED
102
{ACAD_REACTORS
330
EC
102
}
330
EC
100
AcDbXrecord
280
     1
102
RTVSPropertyOp0
 70
     1
102
RTVSPropertyOp1
 70
     1
102
RTVSPropertyOp2
 70
     1
102
RTVSPropertyOp3
 70
     1
102
RTVSPropertyOp4
 70
     1
102
RTVSPropertyOp5
 70
     1
102
RTVSPropertyOp6
 70
     1
102
RTVSPropertyOp7
 70
     1
102
RTVSPropertyOp8
 70
     1
102
RTVSPropertyOp9
 70
     1
102
RTVSPropertyOp10
 70
     1
102
RTVSPropertyOp11
 70
     1
102
RTVSPropertyOp12
 70
     1
102
RTVSPropertyOp13
 70
     1
102
RTVSPropertyOp14
 70
     1
102
RTVSPropertyOp15
 70
     1
102
RTVSPropertyOp16
 70
     1
102
RTVSPropertyOp17
 70
     1
102
RTVSPropertyOp18
 70
     1
102
RTVSPropertyOp19
 70
     1
102
RTVSPropertyOp20
 70
     1
102
RTVSPropertyOp21
 70
     1
102
RTVSPropertyOp22
 70
     1
102
RTVSPropertyOp23
 70
     1
102
RTVSPropertyOp24
 70
     1
102
RTVSPropertyOp25
 70
     1
102
RTVSPropertyOp26
 70
     1
102
RTVSPropertyOp27
 70
     1
102
RTVSPropertyOp28
 70
     1
102
RTVSPropertyOp29
 70
     1
102
RTVSPropertyOp30
 70
     1
102
RTVSPropertyOp31
 70
     1
102
RTVSPropertyOp32
 70
     1
102
RTVSPropertyOp33
 70
     1
102
RTVSPropertyOp34
 70
     1
102
RTVSPropertyOp35
 70
     1
102
RTVSPropertyOp36
 70
     1
102
RTVSPropertyOp37
 70
     1
102
RTVSPropertyOp38
 70
     1
102
RTVSPropertyOp39
 70
     1
102
RTVSPropertyOp40
 70
     1
102
RTVSPropertyOp41
 70
     1
102
RTVSPropertyOp42
 70
     1
102
RTVSPropertyOp43
 70
     1
102
RTVSPropertyOp44
 70
     1
102
RTVSPropertyOp45
 70
     1
102
RTVSPropertyOp46
 70
     1
102
RTVSPropertyOp47
 70
     1
102
RTVSPropertyOp48
 70
     1
102
RTVSPropertyOp49
 70
     1
102
RTVSPropertyOp50
 70
     1
102
RTVSPropertyOp51
 70
     0
102
RTVSPropertyOp52
 70
     0
102
RTVSPropertyOp53
 70
     1
102
RTVSPropertyOp54
 70
     1
102
RTVSPropertyOp55
 70
     1
102
RTVSPropertyOp56
 70
     1
102
RTVSPropertyOp57
 70
     1
102
RTVSPost2010Prop28
280
     0
102
RTVSPost2010PropOp28
 70
     1
102
RTVSPost2010Prop29
280
     1
102
RTVSPost2010PropOp29
 70
     1
102
RTVSPost2010Prop30
280
     1
102
RTVSPost2010PropOp30
 70
     1
102
RTVSPost2010Prop31
280
     0
102
RTVSPost2010PropOp31
 70
     1
102
RTVSPost2010Prop32
280
     0
102
RTVSPost2010PropOp32
 70
     1
102
RTVSPost2010Prop33
280
     0
102
RTVSPost2010PropOp33
 70
     1
102
RTVSPost2010Prop34
280
     0
102
RTVSPost2010PropOp34
 70
     1
102
RTVSPost2010Prop35
280
     0
102
RTVSPost2010PropOp35
 70
     1
102
RTVSPost2010Prop36
280
     0
102
RTVSPost2010PropOp36
 70
     1
102
RTVSPost2010Prop37
 90
       50
102
RTVSPost2010PropOp37
 70
     1
102
RTVSPost2010Prop38
140
0.0
102
RTVSPost2010PropOp38
 70
     1
102
RTVSPost2010Prop39
140
1.0
102
RTVSPost2010PropOp39
 70
     1
102
RTVSPost2010Prop40
 90
        0
102
RTVSPost2010PropOp40
 70
     1
102
RTVSPost2010Prop41ColorIndex
 90
       18
102
RTVSPost2010Prop41ColorRGB
 90
        0
102
RTVSPost2010PropOp41
 70
     1
102
RTVSPost2010Prop42
 90
       50
102
RTVSPost2010PropOp42
 70
     1
102
RTVSPost2010Prop43
 90
        3
102
RTVSPost2010PropOp43
 70
     1
102
RTVSPost2010Prop44ColorIndex
 90
        5
102
RTVSPost2010Prop44ColorRGB
 90
      255
102
RTVSPost2010PropOp44
 70
     1
102
RTVSPost2010Prop45
280
     0
102
RTVSPost2010PropOp45
 70
     1
102
RTVSPost2010Prop46
 90
       50
102
RTVSPost2010PropOp46
 70
     1
102
RTVSPost2010Prop47
 90
       50
102
RTVSPost2010PropOp47
 70
     1
102
RTVSPost2010Prop48
 90
       50
102
RTVSPost2010PropOp48
 70
     1
102
RTVSPost2010Prop49
280
     0
102
RTVSPost2010PropOp49
 70
     1
102
RTVSPost2010Prop50
 90
       50
102
RTVSPost2010PropOp50
 70
     1
102
RTVSPost2010Prop51ColorIndex
 90
      256
102
RTVSPost2010Prop51ColorRGB
 90
-16777216
102
RTVSPost2010PropOp51
 70
     0
102
RTVSPost2010Prop52
140
1.0
102
RTVSPost2010PropOp52
 70
     0
102
RTVSPost2010Prop53
 90
        2
102
RTVSPost2010PropOp53
 70
     1
102
RTVSPost2010Prop54
  1
strokes_ogs.tif
102
RTVSPost2010PropOp54
 70
     1
102
RTVSPost2010Prop55
280
     0
102
RTVSPost2010PropOp55
 70
     1
102
RTVSPost2010Prop56
140
1.0
102
RTVSPost2010PropOp56
 70
     1
102
RTVSPost2010Prop57
140
1.0
102
RTVSPost2010PropOp57
 70
     1
  0
XRECORD
  5
101
102
{ACAD_REACTORS
330
100
102
}
330
100
100
AcDbXrecord
280
     1
102
RTVSPropertyOp0
 70
     0
102
RTVSPropertyOp1
 70
     0
102
RTVSPropertyOp2
 70
     0
102
RTVSPropertyOp3
 70
     0
102
RTVSPropertyOp4
 70
     0
102
RTVSPropertyOp5
 70
     0
102
RTVSPropertyOp6
 70
     0
102
RTVSPropertyOp7
 70
     0
102
RTVSPropertyOp8
 70
     0
102
RTVSPropertyOp9
 70
     0
102
RTVSPropertyOp10
 70
     0
102
RTVSPropertyOp11
 70
     0
102
RTVSPropertyOp12
 70
     0
102
RTVSPropertyOp13
 70
     0
102
RTVSPropertyOp14
 70
     2
102
RTVSPropertyOp15
 70
     0
102
RTVSPropertyOp16
 70
     0
102
RTVSPropertyOp17
 70
     0
102
RTVSPropertyOp18
 70
     0
102
RTVSPropertyOp19
 70
     0
102
RTVSPropertyOp20
 70
     0
102
RTVSPropertyOp21
 70
     0
102
RTVSPropertyOp22
 70
     0
102
RTVSPropertyOp23
 70
     0
102
RTVSPropertyOp24
 70
     0
102
RTVSPropertyOp25
 70
     0
102
RTVSPropertyOp26
 70
     0
102
RTVSPropertyOp27
 70
     0
102
RTVSPropertyOp28
 70
     0
102
RTVSPropertyOp29
 70
     0
102
RTVSPropertyOp30
 70
     0
102
RTVSPropertyOp31
 70
     0
102
RTVSPropertyOp32
 70
     0
102
RTVSPropertyOp33
 70
     0
102
RTVSPropertyOp34
 70
     0
102
RTVSPropertyOp35
 70
     0
102
RTVSPropertyOp36
 70
     0
102
RTVSPropertyOp37
 70
     0
102
RTVSPropertyOp38
 70
     0
102
RTVSPropertyOp39
 70
     0
102
RTVSPropertyOp40
 70
     0
102
RTVSPropertyOp41
 70
     0
102
RTVSPropertyOp42
 70
     0
102
RTVSPropertyOp43
 70
     0
102
RTVSPropertyOp44
 70
     0
102
RTVSPropertyOp45
 70
     0
102
RTVSPropertyOp46
 70
     0
102
RTVSPropertyOp47
 70
     0
102
RTVSPropertyOp48
 70
     0
102
RTVSPropertyOp49
 70
     0
102
RTVSPropertyOp50
 70
     0
102
RTVSPropertyOp51
 70
     0
102
RTVSPropertyOp52
 70
     0
102
RTVSPropertyOp53
 70
     0
102
RTVSPropertyOp54
 70
     0
102
RTVSPropertyOp55
 70
     0
102
RTVSPropertyOp56
 70
     0
102
RTVSPropertyOp57
 70
     0
102
RTVSPost2010Prop28
280
     0
102
RTVSPost2010PropOp28
 70
     0
102
RTVSPost2010Prop29
280
     1
102
RTVSPost2010PropOp29
 70
     0
102
RTVSPost2010Prop30
280
     1
102
RTVSPost2010PropOp30
 70
     0
102
RTVSPost2010Prop31
280
     0
102
RTVSPost2010PropOp31
 70
     0
102
RTVSPost2010Prop32
280
     0
102
RTVSPost2010PropOp32
 70
     0
102
RTVSPost2010Prop33
280
     0
102
RTVSPost2010PropOp33
 70
     0
102
RTVSPost2010Prop34
280
     0
102
RTVSPost2010PropOp34
 70
     0
102
RTVSPost2010Prop35
280
     0
102
RTVSPost2010PropOp35
 70
     0
102
RTVSPost2010Prop36
280
     0
102
RTVSPost2010PropOp36
 70
     0
102
RTVSPost2010Prop37
 90
       50
102
RTVSPost2010PropOp37
 70
     0
102
RTVSPost2010Prop38
140
0.0
102
RTVSPost2010PropOp38
 70
     0
102
RTVSPost2010Prop39
140
1.0
102
RTVSPost2010PropOp39
 70
     0
102
RTVSPost2010Prop40
 90
        0
102
RTVSPost2010PropOp40
 70
     0
102
RTVSPost2010Prop41ColorIndex
 90
       18
102
RTVSPost2010Prop41ColorRGB
 90
        0
102
RTVSPost2010PropOp41
 70
     0
102
RTVSPost2010Prop42
 90
       50
102
RTVSPost2010PropOp42
 70
     0
102
RTVSPost2010Prop43
 90
        3
102
RTVSPost2010PropOp43
 70
     0
102
RTVSPost2010Prop44ColorIndex
 90
        5
102
RTVSPost2010Prop44ColorRGB
 90
      255
102
RTVSPost2010PropOp44
 70
     0
102
RTVSPost2010Prop45
280
     0
102
RTVSPost2010PropOp45
 70
     0
102
RTVSPost2010Prop46
 90
       50
102
RTVSPost2010PropOp46
 70
     0
102
RTVSPost2010Prop47
 90
       50
102
RTVSPost2010PropOp47
 70
     0
102
RTVSPost2010Prop48
 90
       50
102
RTVSPost2010PropOp48
 70
     0
102
RTVSPost2010Prop49
280
     0
102
RTVSPost2010PropOp49
 70
     0
102
RTVSPost2010Prop50
 90
       50
102
RTVSPost2010PropOp50
 70
     0
102
RTVSPost2010Prop51ColorIndex
 90
      256
102
RTVSPost2010Prop51ColorRGB
 90
-16777216
102
RTVSPost2010PropOp51
 70
     0
102
RTVSPost2010Prop52
140
1.0
102
RTVSPost2010PropOp52
 70
     0
102
RTVSPost2010Prop53
 90
        2
102
RTVSPost2010PropOp53
 70
     0
102
RTVSPost2010Prop54
  1
strokes_ogs.tif
102
RTVSPost2010PropOp54
 70
     0
102
RTVSPost2010Prop55
280
     0
102
RTVSPost2010PropOp55
 70
     0
102
RTVSPost2010Prop56
140
1.0
102
RTVSPost2010PropOp56
 70
     0
102
RTVSPost2010Prop57
140
1.0
102
RTVSPost2010PropOp57
 70
     0
  0
XRECORD
  5
FB
102
{ACAD_REACTORS
330
FA
102
}
330
FA
100
AcDbXrecord
280
     1
102
RTVSPropertyOp0
 70
     1
102
RTVSPropertyOp1
 70
     1
102
RTVSPropertyOp2
 70
     1
102
RTVSPropertyOp3
 70
     1
102
RTVSPropertyOp4
 70
     1
102
RTVSPropertyOp5
 70
     1
102
RTVSPropertyOp6
 70
     1
102
RTVSPropertyOp7
 70
     1
102
RTVSPropertyOp8
 70
     1
102
RTVSPropertyOp9
 70
     1
102
RTVSPropertyOp10
 70
     1
102
RTVSPropertyOp11
 70
     1
102
RTVSPropertyOp12
 70
     1
102
RTVSPropertyOp13
 70
     1
102
RTVSPropertyOp14
 70
     1
102
RTVSPropertyOp15
 70
     1
102
RTVSPropertyOp16
 70
     1
102
RTVSPropertyOp17
 70
     1
102
RTVSPropertyOp18
 70
     1
102
RTVSPropertyOp19
 70
     1
102
RTVSPropertyOp20
 70
     1
102
RTVSPropertyOp21
 70
     1
102
RTVSPropertyOp22
 70
     1
102
RTVSPropertyOp23
 70
     1
102
RTVSPropertyOp24
 70
     1
102
RTVSPropertyOp25
 70
     1
102
RTVSPropertyOp26
 70
     1
102
RTVSPropertyOp27
 70
     1
102
RTVSPropertyOp28
 70
     1
102
RTVSPropertyOp29
 70
     1
102
RTVSPropertyOp30
 70
     1
102
RTVSPropertyOp31
 70
     1
102
RTVSPropertyOp32
 70
     1
102
RTVSPropertyOp33
 70
     1
102
RTVSPropertyOp34
 70
     1
102
RTVSPropertyOp35
 70
     1
102
RTVSPropertyOp36
 70
     1
102
RTVSPropertyOp37
 70
     1
102
RTVSPropertyOp38
 70
     1
102
RTVSPropertyOp39
 70
     1
102
RTVSPropertyOp40
 70
     1
102
RTVSPropertyOp41
 70
     1
102
RTVSPropertyOp42
 70
     1
102
RTVSPropertyOp43
 70
     1
102
RTVSPropertyOp44
 70
     1
102
RTVSPropertyOp45
 70
     1
102
RTVSPropertyOp46
 70
     1
102
RTVSPropertyOp47
 70
     1
102
RTVSPropertyOp48
 70
     1
102
RTVSPropertyOp49
 70
     1
102
RTVSPropertyOp50
 70
     1
102
RTVSPropertyOp51
 70
     0
102
RTVSPropertyOp52
 70
     0
102
RTVSPropertyOp53
 70
     1
102
RTVSPropertyOp54
 70
     1
102
RTVSPropertyOp55
 70
     1
102
RTVSPropertyOp56
 70
     1
102
RTVSPropertyOp57
 70
     1
102
RTVSPost2010Prop28
280
     0
102
RTVSPost2010PropOp28
 70
     1
102
RTVSPost2010Prop29
280
     1
102
RTVSPost2010PropOp29
 70
     1
102
RTVSPost2010Prop30
280
     1
102
RTVSPost2010PropOp30
 70
     1
102
RTVSPost2010Prop31
280
     0
102
RTVSPost2010PropOp31
 70
     1
102
RTVSPost2010Prop32
280
     0
102
RTVSPost2010PropOp32
 70
     1
102
RTVSPost2010Prop33
280
     0
102
RTVSPost2010PropOp33
 70
     1
102
RTVSPost2010Prop34
280
     0
102
RTVSPost2010PropOp34
 70
     1
102
RTVSPost2010Prop35
280
     0
102
RTVSPost2010PropOp35
 70
     1
102
RTVSPost2010Prop36
280
     0
102
RTVSPost2010PropOp36
 70
     1
102
RTVSPost2010Prop37
 90
       50
102
RTVSPost2010PropOp37
 70
     1
102
RTVSPost2010Prop38
140
0.0
102
RTVSPost2010PropOp38
 70
     1
102
RTVSPost2010Prop39
140
1.0
102
RTVSPost2010PropOp39
 70
     1
102
RTVSPost2010Prop40
 90
        0
102
RTVSPost2010PropOp40
 70
     1
102
RTVSPost2010Prop41ColorIndex
 90
       18
102
RTVSPost2010Prop41ColorRGB
 90
        0
102
RTVSPost2010PropOp41
 70
     1
102
RTVSPost2010Prop42
 90
       50
102
RTVSPost2010PropOp42
 70
     1
102
RTVSPost2010Prop43
 90
        3
102
RTVSPost2010PropOp43
 70
     1
102
RTVSPost2010Prop44ColorIndex
 90
        5
102
RTVSPost2010Prop44ColorRGB
 90
      255
102
RTVSPost2010PropOp44
 70
     1
102
RTVSPost2010Prop45
280
     0
102
RTVSPost2010PropOp45
 70
     1
102
RTVSPost2010Prop46
 90
       50
102
RTVSPost2010PropOp46
 70
     1
102
RTVSPost2010Prop47
 90
       50
102
RTVSPost2010PropOp47
 70
     1
102
RTVSPost2010Prop48
 90
       50
102
RTVSPost2010PropOp48
 70
     1
102
RTVSPost2010Prop49
280
     0
102
RTVSPost2010PropOp49
 70
     1
102
RTVSPost2010Prop50
 90
       50
102
RTVSPost2010PropOp50
 70
     1
102
RTVSPost2010Prop51ColorIndex
 90
      256
102
RTVSPost2010Prop51ColorRGB
 90
-16777216
102
RTVSPost2010PropOp51
 70
     0
102
RTVSPost2010Prop52
140
1.0
102
RTVSPost2010PropOp52
 70
     0
102
RTVSPost2010Prop53
 90
        2
102
RTVSPost2010PropOp53
 70
     1
102
RTVSPost2010Prop54
  1
strokes_ogs.tif
102
RTVSPost2010PropOp54
 70
     1
102
RTVSPost2010Prop55
280
     0
102
RTVSPost2010PropOp55
 70
     1
102
RTVSPost2010Prop56
140
1.0
102
RTVSPost2010PropOp56
 70
     1
102
RTVSPost2010Prop57
140
1.0
102
RTVSPost2010PropOp57
 70
     1
  0
XRECORD
  5
103
102
{ACAD_REACTORS
330
102
102
}
330
102
100
AcDbXrecord
280
     1
102
RTVSPropertyOp0
 70
     0
102
RTVSPropertyOp1
 70
     0
102
RTVSPropertyOp2
 70
     0
102
RTVSPropertyOp3
 70
     0
102
RTVSPropertyOp4
 70
     0
102
RTVSPropertyOp5
 70
     0
102
RTVSPropertyOp6
 70
     0
102
RTVSPropertyOp7
 70
     0
102
RTVSPropertyOp8
 70
     0
102
RTVSPropertyOp9
 70
     0
102
RTVSPropertyOp10
 70
     0
102
RTVSPropertyOp11
 70
     0
102
RTVSPropertyOp12
 70
     0
102
RTVSPropertyOp13
 70
     0
102
RTVSPropertyOp14
 70
     2
102
RTVSPropertyOp15
 70
     0
102
RTVSPropertyOp16
 70
     0
102
RTVSPropertyOp17
 70
     0
102
RTVSPropertyOp18
 70
     0
102
RTVSPropertyOp19
 70
     0
102
RTVSPropertyOp20
 70
     0
102
RTVSPropertyOp21
 70
     0
102
RTVSPropertyOp22
 70
     0
102
RTVSPropertyOp23
 70
     0
102
RTVSPropertyOp24
 70
     0
102
RTVSPropertyOp25
 70
     0
102
RTVSPropertyOp26
 70
     0
102
RTVSPropertyOp27
 70
     0
102
RTVSPropertyOp28
 70
     0
102
RTVSPropertyOp29
 70
     0
102
RTVSPropertyOp30
 70
     0
102
RTVSPropertyOp31
 70
     0
102
RTVSPropertyOp32
 70
     0
102
RTVSPropertyOp33
 70
     0
102
RTVSPropertyOp34
 70
     0
102
RTVSPropertyOp35
 70
     0
102
RTVSPropertyOp36
 70
     0
102
RTVSPropertyOp37
 70
     0
102
RTVSPropertyOp38
 70
     0
102
RTVSPropertyOp39
 70
     0
102
RTVSPropertyOp40
 70
     0
102
RTVSPropertyOp41
 70
     0
102
RTVSPropertyOp42
 70
     0
102
RTVSPropertyOp43
 70
     0
102
RTVSPropertyOp44
 70
     0
102
RTVSPropertyOp45
 70
     0
102
RTVSPropertyOp46
 70
     0
102
RTVSPropertyOp47
 70
     0
102
RTVSPropertyOp48
 70
     0
102
RTVSPropertyOp49
 70
     0
102
RTVSPropertyOp50
 70
     0
102
RTVSPropertyOp51
 70
     0
102
RTVSPropertyOp52
 70
     0
102
RTVSPropertyOp53
 70
     0
102
RTVSPropertyOp54
 70
     0
102
RTVSPropertyOp55
 70
     0
102
RTVSPropertyOp56
 70
     0
102
RTVSPropertyOp57
 70
     0
102
RTVSPost2010Prop28
280
     0
102
RTVSPost2010PropOp28
 70
     0
102
RTVSPost2010Prop29
280
     1
102
RTVSPost2010PropOp29
 70
     0
102
RTVSPost2010Prop30
280
     1
102
RTVSPost2010PropOp30
 70
     0
102
RTVSPost2010Prop31
280
     0
102
RTVSPost2010PropOp31
 70
     0
102
RTVSPost2010Prop32
280
     0
102
RTVSPost2010PropOp32
 70
     0
102
RTVSPost2010Prop33
280
     0
102
RTVSPost2010PropOp33
 70
     0
102
RTVSPost2010Prop34
280
     0
102
RTVSPost2010PropOp34
 70
     0
102
RTVSPost2010Prop35
280
     0
102
RTVSPost2010PropOp35
 70
     0
102
RTVSPost2010Prop36
280
     0
102
RTVSPost2010PropOp36
 70
     0
102
RTVSPost2010Prop37
 90
       50
102
RTVSPost2010PropOp37
 70
     0
102
RTVSPost2010Prop38
140
0.0
102
RTVSPost2010PropOp38
 70
     0
102
RTVSPost2010Prop39
140
1.0
102
RTVSPost2010PropOp39
 70
     0
102
RTVSPost2010Prop40
 90
        0
102
RTVSPost2010PropOp40
 70
     0
102
RTVSPost2010Prop41ColorIndex
 90
       18
102
RTVSPost2010Prop41ColorRGB
 90
        0
102
RTVSPost2010PropOp41
 70
     0
102
RTVSPost2010Prop42
 90
       50
102
RTVSPost2010PropOp42
 70
     0
102
RTVSPost2010Prop43
 90
        3
102
RTVSPost2010PropOp43
 70
     0
102
RTVSPost2010Prop44ColorIndex
 90
        5
102
RTVSPost2010Prop44ColorRGB
 90
      255
102
RTVSPost2010PropOp44
 70
     0
102
RTVSPost2010Prop45
280
     0
102
RTVSPost2010PropOp45
 70
     0
102
RTVSPost2010Prop46
 90
       50
102
RTVSPost2010PropOp46
 70
     0
102
RTVSPost2010Prop47
 90
       50
102
RTVSPost2010PropOp47
 70
     0
102
RTVSPost2010Prop48
 90
       50
102
RTVSPost2010PropOp48
 70
     0
102
RTVSPost2010Prop49
280
     0
102
RTVSPost2010PropOp49
 70
     0
102
RTVSPost2010Prop50
 90
       50
102
RTVSPost2010PropOp50
 70
     0
102
RTVSPost2010Prop51ColorIndex
 90
      256
102
RTVSPost2010Prop51ColorRGB
 90
-16777216
102
RTVSPost2010PropOp51
 70
     0
102
RTVSPost2010Prop52
140
1.0
102
RTVSPost2010PropOp52
 70
     0
102
RTVSPost2010Prop53
 90
        2
102
RTVSPost2010PropOp53
 70
     0
102
RTVSPost2010Prop54
  1
strokes_ogs.tif
102
RTVSPost2010PropOp54
 70
     0
102
RTVSPost2010Prop55
280
     0
102
RTVSPost2010PropOp55
 70
     0
102
RTVSPost2010Prop56
140
1.0
102
RTVSPost2010PropOp56
 70
     0
102
RTVSPost2010Prop57
140
1.0
102
RTVSPost2010PropOp57
 70
     0
  0
XRECORD
  5
F1
102
{ACAD_REACTORS
330
F0
102
}
330
F0
100
AcDbXrecord
280
     1
102
RTVSPropertyOp0
 70
     1
102
RTVSPropertyOp1
 70
     1
102
RTVSPropertyOp2
 70
     1
102
RTVSPropertyOp3
 70
     1
102
RTVSPropertyOp4
 70
     1
102
RTVSPropertyOp5
 70
     1
102
RTVSPropertyOp6
 70
     1
102
RTVSPropertyOp7
 70
     1
102
RTVSPropertyOp8
 70
     1
102
RTVSPropertyOp9
 70
     1
102
RTVSPropertyOp10
 70
     1
102
RTVSPropertyOp11
 70
     1
102
RTVSPropertyOp12
 70
     1
102
RTVSPropertyOp13
 70
     1
102
RTVSPropertyOp14
 70
     1
102
RTVSPropertyOp15
 70
     1
102
RTVSPropertyOp16
 70
     1
102
RTVSPropertyOp17
 70
     1
102
RTVSPropertyOp18
 70
     1
102
RTVSPropertyOp19
 70
     1
102
RTVSPropertyOp20
 70
     1
102
RTVSPropertyOp21
 70
     1
102
RTVSPropertyOp22
 70
     1
102
RTVSPropertyOp23
 70
     1
102
RTVSPropertyOp24
 70
     1
102
RTVSPropertyOp25
 70
     1
102
RTVSPropertyOp26
 70
     1
102
RTVSPropertyOp27
 70
     1
102
RTVSPropertyOp28
 70
     1
102
RTVSPropertyOp29
 70
     1
102
RTVSPropertyOp30
 70
     1
102
RTVSPropertyOp31
 70
     1
102
RTVSPropertyOp32
 70
     1
102
RTVSPropertyOp33
 70
     1
102
RTVSPropertyOp34
 70
     1
102
RTVSPropertyOp35
 70
     1
102
RTVSPropertyOp36
 70
     1
102
RTVSPropertyOp37
 70
     1
102
RTVSPropertyOp38
 70
     1
102
RTVSPropertyOp39
 70
     1
102
RTVSPropertyOp40
 70
     1
102
RTVSPropertyOp41
 70
     1
102
RTVSPropertyOp42
 70
     1
102
RTVSPropertyOp43
 70
     1
102
RTVSPropertyOp44
 70
     1
102
RTVSPropertyOp45
 70
     1
102
RTVSPropertyOp46
 70
     1
102
RTVSPropertyOp47
 70
     1
102
RTVSPropertyOp48
 70
     1
102
RTVSPropertyOp49
 70
     1
102
RTVSPropertyOp50
 70
     1
102
RTVSPropertyOp51
 70
     0
102
RTVSPropertyOp52
 70
     0
102
RTVSPropertyOp53
 70
     1
102
RTVSPropertyOp54
 70
     1
102
RTVSPropertyOp55
 70
     1
102
RTVSPropertyOp56
 70
     1
102
RTVSPropertyOp57
 70
     1
102
RTVSPost2010Prop28
280
     0
102
RTVSPost2010PropOp28
 70
     1
102
RTVSPost2010Prop29
280
     1
102
RTVSPost2010PropOp29
 70
     1
102
RTVSPost2010Prop30
280
     1
102
RTVSPost2010PropOp30
 70
     1
102
RTVSPost2010Prop31
280
     0
102
RTVSPost2010PropOp31
 70
     1
102
RTVSPost2010Prop32
280
     0
102
RTVSPost2010PropOp32
 70
     1
102
RTVSPost2010Prop33
280
     0
102
RTVSPost2010PropOp33
 70
     1
102
RTVSPost2010Prop34
280
     0
102
RTVSPost2010PropOp34
 70
     1
102
RTVSPost2010Prop35
280
     0
102
RTVSPost2010PropOp35
 70
     1
102
RTVSPost2010Prop36
280
     0
102
RTVSPost2010PropOp36
 70
     1
102
RTVSPost2010Prop37
 90
       50
102
RTVSPost2010PropOp37
 70
     1
102
RTVSPost2010Prop38
140
0.0
102
RTVSPost2010PropOp38
 70
     1
102
RTVSPost2010Prop39
140
1.0
102
RTVSPost2010PropOp39
 70
     1
102
RTVSPost2010Prop40
 90
        0
102
RTVSPost2010PropOp40
 70
     1
102
RTVSPost2010Prop41ColorIndex
 90
       18
102
RTVSPost2010Prop41ColorRGB
 90
        0
102
RTVSPost2010PropOp41
 70
     1
102
RTVSPost2010Prop42
 90
       50
102
RTVSPost2010PropOp42
 70
     1
102
RTVSPost2010Prop43
 90
        3
102
RTVSPost2010PropOp43
 70
     1
102
RTVSPost2010Prop44ColorIndex
 90
        5
102
RTVSPost2010Prop44ColorRGB
 90
      255
102
RTVSPost2010PropOp44
 70
     1
102
RTVSPost2010Prop45
280
     0
102
RTVSPost2010PropOp45
 70
     1
102
RTVSPost2010Prop46
 90
       50
102
RTVSPost2010PropOp46
 70
     1
102
RTVSPost2010Prop47
 90
       50
102
RTVSPost2010PropOp47
 70
     1
102
RTVSPost2010Prop48
 90
       50
102
RTVSPost2010PropOp48
 70
     1
102
RTVSPost2010Prop49
280
     0
102
RTVSPost2010PropOp49
 70
     1
102
RTVSPost2010Prop50
 90
       50
102
RTVSPost2010PropOp50
 70
     1
102
RTVSPost2010Prop51ColorIndex
 90
      256
102
RTVSPost2010Prop51ColorRGB
 90
-16777216
102
RTVSPost2010PropOp51
 70
     0
102
RTVSPost2010Prop52
140
1.0
102
RTVSPost2010PropOp52
 70
     0
102
RTVSPost2010Prop53
 90
        2
102
RTVSPost2010PropOp53
 70
     1
102
RTVSPost2010Prop54
  1
strokes_ogs.tif
102
RTVSPost2010PropOp54
 70
     1
102
RTVSPost2010Prop55
280
     0
102
RTVSPost2010PropOp55
 70
     1
102
RTVSPost2010Prop56
140
1.0
102
RTVSPost2010PropOp56
 70
     1
102
RTVSPost2010Prop57
140
1.0
102
RTVSPost2010PropOp57
 70
     1
  0
XRECORD
  5
10F
102
{ACAD_REACTORS
330
10E
102
}
330
10E
100
AcDbXrecord
280
     1
102
RTVSPropertyOp0
 70
     1
102
RTVSPropertyOp1
 70
     1
102
RTVSPropertyOp2
 70
     1
102
RTVSPropertyOp3
 70
     1
102
RTVSPropertyOp4
 70
     1
102
RTVSPropertyOp5
 70
     1
102
RTVSPropertyOp6
 70
     1
102
RTVSPropertyOp7
 70
     1
102
RTVSPropertyOp8
 70
     1
102
RTVSPropertyOp9
 70
     1
102
RTVSPropertyOp10
 70
     1
102
RTVSPropertyOp11
 70
     1
102
RTVSPropertyOp12
 70
     1
102
RTVSPropertyOp13
 70
     1
102
RTVSPropertyOp14
 70
     1
102
RTVSPropertyOp15
 70
     1
102
RTVSPropertyOp16
 70
     1
102
RTVSPropertyOp17
 70
     1
102
RTVSPropertyOp18
 70
     1
102
RTVSPropertyOp19
 70
     1
102
RTVSPropertyOp20
 70
     1
102
RTVSPropertyOp21
 70
     1
102
RTVSPropertyOp22
 70
     1
102
RTVSPropertyOp23
 70
     1
102
RTVSPropertyOp24
 70
     1
102
RTVSPropertyOp25
 70
     1
102
RTVSPropertyOp26
 70
     1
102
RTVSPropertyOp27
 70
     1
102
RTVSPropertyOp28
 70
     1
102
RTVSPropertyOp29
 70
     1
102
RTVSPropertyOp30
 70
     1
102
RTVSPropertyOp31
 70
     1
102
RTVSPropertyOp32
 70
     1
102
RTVSPropertyOp33
 70
     1
102
RTVSPropertyOp34
 70
     1
102
RTVSPropertyOp35
 70
     1
102
RTVSPropertyOp36
 70
     1
102
RTVSPropertyOp37
 70
     1
102
RTVSPropertyOp38
 70
     1
102
RTVSPropertyOp39
 70
     1
102
RTVSPropertyOp40
 70
     1
102
RTVSPropertyOp41
 70
     1
102
RTVSPropertyOp42
 70
     1
102
RTVSPropertyOp43
 70
     1
102
RTVSPropertyOp44
 70
     1
102
RTVSPropertyOp45
 70
     1
102
RTVSPropertyOp46
 70
     1
102
RTVSPropertyOp47
 70
     1
102
RTVSPropertyOp48
 70
     1
102
RTVSPropertyOp49
 70
     1
102
RTVSPropertyOp50
 70
     1
102
RTVSPropertyOp51
 70
     0
102
RTVSPropertyOp52
 70
     0
102
RTVSPropertyOp53
 70
     1
102
RTVSPropertyOp54
 70
     1
102
RTVSPropertyOp55
 70
     1
102
RTVSPropertyOp56
 70
     1
102
RTVSPropertyOp57
 70
     1
102
RTVSPost2010Prop28
280
     0
102
RTVSPost2010PropOp28
 70
     1
102
RTVSPost2010Prop29
280
     1
102
RTVSPost2010PropOp29
 70
     1
102
RTVSPost2010Prop30
280
     1
102
RTVSPost2010PropOp30
 70
     1
102
RTVSPost2010Prop31
280
     0
102
RTVSPost2010PropOp31
 70
     1
102
RTVSPost2010Prop32
280
     0
102
RTVSPost2010PropOp32
 70
     1
102
RTVSPost2010Prop33
280
     0
102
RTVSPost2010PropOp33
 70
     1
102
RTVSPost2010Prop34
280
     0
102
RTVSPost2010PropOp34
 70
     1
102
RTVSPost2010Prop35
280
     0
102
RTVSPost2010PropOp35
 70
     1
102
RTVSPost2010Prop36
280
     0
102
RTVSPost2010PropOp36
 70
     1
102
RTVSPost2010Prop37
 90
       50
102
RTVSPost2010PropOp37
 70
     1
102
RTVSPost2010Prop38
140
0.0
102
RTVSPost2010PropOp38
 70
     1
102
RTVSPost2010Prop39
140
1.0
102
RTVSPost2010PropOp39
 70
     1
102
RTVSPost2010Prop40
 90
        0
102
RTVSPost2010PropOp40
 70
     1
102
RTVSPost2010Prop41ColorIndex
 90
       18
102
RTVSPost2010Prop41ColorRGB
 90
        0
102
RTVSPost2010PropOp41
 70
     1
102
RTVSPost2010Prop42
 90
       50
102
RTVSPost2010PropOp42
 70
     1
102
RTVSPost2010Prop43
 90
        3
102
RTVSPost2010PropOp43
 70
     1
102
RTVSPost2010Prop44ColorIndex
 90
        5
102
RTVSPost2010Prop44ColorRGB
 90
      255
102
RTVSPost2010PropOp44
 70
     1
102
RTVSPost2010Prop45
280
     0
102
RTVSPost2010PropOp45
 70
     1
102
RTVSPost2010Prop46
 90
       50
102
RTVSPost2010PropOp46
 70
     1
102
RTVSPost2010Prop47
 90
       50
102
RTVSPost2010PropOp47
 70
     1
102
RTVSPost2010Prop48
 90
       50
102
RTVSPost2010PropOp48
 70
     1
102
RTVSPost2010Prop49
280
     0
102
RTVSPost2010PropOp49
 70
     1
102
RTVSPost2010Prop50
 90
       50
102
RTVSPost2010PropOp50
 70
     1
102
RTVSPost2010Prop51ColorIndex
 90
      256
102
RTVSPost2010Prop51ColorRGB
 90
-16777216
102
RTVSPost2010PropOp51
 70
     0
102
RTVSPost2010Prop52
140
1.0
102
RTVSPost2010PropOp52
 70
     0
102
RTVSPost2010Prop53
 90
        2
102
RTVSPost2010PropOp53
 70
     1
102
RTVSPost2010Prop54
  1
strokes_ogs.tif
102
RTVSPost2010PropOp54
 70
     1
102
RTVSPost2010Prop55
280
     0
102
RTVSPost2010PropOp55
 70
     1
102
RTVSPost2010Prop56
140
1.0
102
RTVSPost2010PropOp56
 70
     1
102
RTVSPost2010Prop57
140
1.0
102
RTVSPost2010PropOp57
 70
     1
  0
XRECORD
  5
10D
102
{ACAD_REACTORS
330
10C
102
}
330
10C
100
AcDbXrecord
280
     1
102
RTVSPropertyOp0
 70
     1
102
RTVSPropertyOp1
 70
     1
102
RTVSPropertyOp2
 70
     1
102
RTVSPropertyOp3
 70
     1
102
RTVSPropertyOp4
 70
     1
102
RTVSPropertyOp5
 70
     1
102
RTVSPropertyOp6
 70
     1
102
RTVSPropertyOp7
 70
     1
102
RTVSPropertyOp8
 70
     1
102
RTVSPropertyOp9
 70
     1
102
RTVSPropertyOp10
 70
     1
102
RTVSPropertyOp11
 70
     1
102
RTVSPropertyOp12
 70
     1
102
RTVSPropertyOp13
 70
     1
102
RTVSPropertyOp14
 70
     1
102
RTVSPropertyOp15
 70
     1
102
RTVSPropertyOp16
 70
     1
102
RTVSPropertyOp17
 70
     1
102
RTVSPropertyOp18
 70
     1
102
RTVSPropertyOp19
 70
     1
102
RTVSPropertyOp20
 70
     1
102
RTVSPropertyOp21
 70
     1
102
RTVSPropertyOp22
 70
     1
102
RTVSPropertyOp23
 70
     1
102
RTVSPropertyOp24
 70
     1
102
RTVSPropertyOp25
 70
     1
102
RTVSPropertyOp26
 70
     1
102
RTVSPropertyOp27
 70
     1
102
RTVSPropertyOp28
 70
     1
102
RTVSPropertyOp29
 70
     1
102
RTVSPropertyOp30
 70
     1
102
RTVSPropertyOp31
 70
     1
102
RTVSPropertyOp32
 70
     1
102
RTVSPropertyOp33
 70
     1
102
RTVSPropertyOp34
 70
     1
102
RTVSPropertyOp35
 70
     1
102
RTVSPropertyOp36
 70
     1
102
RTVSPropertyOp37
 70
     1
102
RTVSPropertyOp38
 70
     1
102
RTVSPropertyOp39
 70
     1
102
RTVSPropertyOp40
 70
     1
102
RTVSPropertyOp41
 70
     1
102
RTVSPropertyOp42
 70
     1
102
RTVSPropertyOp43
 70
     1
102
RTVSPropertyOp44
 70
     1
102
RTVSPropertyOp45
 70
     1
102
RTVSPropertyOp46
 70
     1
102
RTVSPropertyOp47
 70
     1
102
RTVSPropertyOp48
 70
     1
102
RTVSPropertyOp49
 70
     1
102
RTVSPropertyOp50
 70
     1
102
RTVSPropertyOp51
 70
     0
102
RTVSPropertyOp52
 70
     0
102
RTVSPropertyOp53
 70
     1
102
RTVSPropertyOp54
 70
     1
102
RTVSPropertyOp55
 70
     1
102
RTVSPropertyOp56
 70
     1
102
RTVSPropertyOp57
 70
     1
102
RTVSPost2010Prop28
280
     0
102
RTVSPost2010PropOp28
 70
     1
102
RTVSPost2010Prop29
280
     1
102
RTVSPost2010PropOp29
 70
     1
102
RTVSPost2010Prop30
280
     1
102
RTVSPost2010PropOp30
 70
     1
102
RTVSPost2010Prop31
280
     0
102
RTVSPost2010PropOp31
 70
     1
102
RTVSPost2010Prop32
280
     0
102
RTVSPost2010PropOp32
 70
     1
102
RTVSPost2010Prop33
280
     0
102
RTVSPost2010PropOp33
 70
     1
102
RTVSPost2010Prop34
280
     0
102
RTVSPost2010PropOp34
 70
     1
102
RTVSPost2010Prop35
280
     0
102
RTVSPost2010PropOp35
 70
     1
102
RTVSPost2010Prop36
280
     0
102
RTVSPost2010PropOp36
 70
     1
102
RTVSPost2010Prop37
 90
       50
102
RTVSPost2010PropOp37
 70
     1
102
RTVSPost2010Prop38
140
0.0
102
RTVSPost2010PropOp38
 70
     1
102
RTVSPost2010Prop39
140
1.0
102
RTVSPost2010PropOp39
 70
     1
102
RTVSPost2010Prop40
 90
        0
102
RTVSPost2010PropOp40
 70
     1
102
RTVSPost2010Prop41ColorIndex
 90
       18
102
RTVSPost2010Prop41ColorRGB
 90
        0
102
RTVSPost2010PropOp41
 70
     1
102
RTVSPost2010Prop42
 90
       50
102
RTVSPost2010PropOp42
 70
     1
102
RTVSPost2010Prop43
 90
        3
102
RTVSPost2010PropOp43
 70
     1
102
RTVSPost2010Prop44ColorIndex
 90
        5
102
RTVSPost2010Prop44ColorRGB
 90
      255
102
RTVSPost2010PropOp44
 70
     1
102
RTVSPost2010Prop45
280
     0
102
RTVSPost2010PropOp45
 70
     1
102
RTVSPost2010Prop46
 90
       50
102
RTVSPost2010PropOp46
 70
     1
102
RTVSPost2010Prop47
 90
       50
102
RTVSPost2010PropOp47
 70
     1
102
RTVSPost2010Prop48
 90
       50
102
RTVSPost2010PropOp48
 70
     1
102
RTVSPost2010Prop49
280
     0
102
RTVSPost2010PropOp49
 70
     1
102
RTVSPost2010Prop50
 90
       50
102
RTVSPost2010PropOp50
 70
     1
102
RTVSPost2010Prop51ColorIndex
 90
      256
102
RTVSPost2010Prop51ColorRGB
 90
-16777216
102
RTVSPost2010PropOp51
 70
     0
102
RTVSPost2010Prop52
140
1.0
102
RTVSPost2010PropOp52
 70
     0
102
RTVSPost2010Prop53
 90
        2
102
RTVSPost2010PropOp53
 70
     1
102
RTVSPost2010Prop54
  1
strokes_ogs.tif
102
RTVSPost2010PropOp54
 70
     1
102
RTVSPost2010Prop55
280
     0
102
RTVSPost2010PropOp55
 70
     1
102
RTVSPost2010Prop56
140
1.0
102
RTVSPost2010PropOp56
 70
     1
102
RTVSPost2010Prop57
140
1.0
102
RTVSPost2010PropOp57
 70
     1
  0
XRECORD
  5
107
102
{ACAD_REACTORS
330
106
102
}
330
106
100
AcDbXrecord
280
     1
102
RTVSPropertyOp0
 70
     1
102
RTVSPropertyOp1
 70
     1
102
RTVSPropertyOp2
 70
     1
102
RTVSPropertyOp3
 70
     1
102
RTVSPropertyOp4
 70
     1
102
RTVSPropertyOp5
 70
     1
102
RTVSPropertyOp6
 70
     1
102
RTVSPropertyOp7
 70
     1
102
RTVSPropertyOp8
 70
     1
102
RTVSPropertyOp9
 70
     1
102
RTVSPropertyOp10
 70
     1
102
RTVSPropertyOp11
 70
     1
102
RTVSPropertyOp12
 70
     1
102
RTVSPropertyOp13
 70
     1
102
RTVSPropertyOp14
 70
     1
102
RTVSPropertyOp15
 70
     1
102
RTVSPropertyOp16
 70
     1
102
RTVSPropertyOp17
 70
     1
102
RTVSPropertyOp18
 70
     1
102
RTVSPropertyOp19
 70
     1
102
RTVSPropertyOp20
 70
     1
102
RTVSPropertyOp21
 70
     1
102
RTVSPropertyOp22
 70
     1
102
RTVSPropertyOp23
 70
     1
102
RTVSPropertyOp24
 70
     1
102
RTVSPropertyOp25
 70
     1
102
RTVSPropertyOp26
 70
     1
102
RTVSPropertyOp27
 70
     1
102
RTVSPropertyOp28
 70
     1
102
RTVSPropertyOp29
 70
     1
102
RTVSPropertyOp30
 70
     1
102
RTVSPropertyOp31
 70
     1
102
RTVSPropertyOp32
 70
     1
102
RTVSPropertyOp33
 70
     1
102
RTVSPropertyOp34
 70
     1
102
RTVSPropertyOp35
 70
     1
102
RTVSPropertyOp36
 70
     1
102
RTVSPropertyOp37
 70
     1
102
RTVSPropertyOp38
 70
     1
102
RTVSPropertyOp39
 70
     1
102
RTVSPropertyOp40
 70
     1
102
RTVSPropertyOp41
 70
     1
102
RTVSPropertyOp42
 70
     1
102
RTVSPropertyOp43
 70
     1
102
RTVSPropertyOp44
 70
     1
102
RTVSPropertyOp45
 70
     1
102
RTVSPropertyOp46
 70
     1
102
RTVSPropertyOp47
 70
     1
102
RTVSPropertyOp48
 70
     1
102
RTVSPropertyOp49
 70
     1
102
RTVSPropertyOp50
 70
     1
102
RTVSPropertyOp51
 70
     0
102
RTVSPropertyOp52
 70
     0
102
RTVSPropertyOp53
 70
     1
102
RTVSPropertyOp54
 70
     1
102
RTVSPropertyOp55
 70
     1
102
RTVSPropertyOp56
 70
     1
102
RTVSPropertyOp57
 70
     1
102
RTVSPost2010Prop28
280
     0
102
RTVSPost2010PropOp28
 70
     1
102
RTVSPost2010Prop29
280
     1
102
RTVSPost2010PropOp29
 70
     1
102
RTVSPost2010Prop30
280
     1
102
RTVSPost2010PropOp30
 70
     1
102
RTVSPost2010Prop31
280
     0
102
RTVSPost2010PropOp31
 70
     1
102
RTVSPost2010Prop32
280
     0
102
RTVSPost2010PropOp32
 70
     1
102
RTVSPost2010Prop33
280
     0
102
RTVSPost2010PropOp33
 70
     1
102
RTVSPost2010Prop34
280
     0
102
RTVSPost2010PropOp34
 70
     1
102
RTVSPost2010Prop35
280
     0
102
RTVSPost2010PropOp35
 70
     1
102
RTVSPost2010Prop36
280
     0
102
RTVSPost2010PropOp36
 70
     1
102
RTVSPost2010Prop37
 90
       50
102
RTVSPost2010PropOp37
 70
     1
102
RTVSPost2010Prop38
140
0.0
102
RTVSPost2010PropOp38
 70
     1
102
RTVSPost2010Prop39
140
1.0
102
RTVSPost2010PropOp39
 70
     1
102
RTVSPost2010Prop40
 90
        0
102
RTVSPost2010PropOp40
 70
     1
102
RTVSPost2010Prop41ColorIndex
 90
       18
102
RTVSPost2010Prop41ColorRGB
 90
        0
102
RTVSPost2010PropOp41
 70
     1
102
RTVSPost2010Prop42
 90
       50
102
RTVSPost2010PropOp42
 70
     1
102
RTVSPost2010Prop43
 90
        3
102
RTVSPost2010PropOp43
 70
     1
102
RTVSPost2010Prop44ColorIndex
 90
        5
102
RTVSPost2010Prop44ColorRGB
 90
      255
102
RTVSPost2010PropOp44
 70
     1
102
RTVSPost2010Prop45
280
     0
102
RTVSPost2010PropOp45
 70
     1
102
RTVSPost2010Prop46
 90
       50
102
RTVSPost2010PropOp46
 70
     1
102
RTVSPost2010Prop47
 90
       50
102
RTVSPost2010PropOp47
 70
     1
102
RTVSPost2010Prop48
 90
       50
102
RTVSPost2010PropOp48
 70
     1
102
RTVSPost2010Prop49
280
     0
102
RTVSPost2010PropOp49
 70
     1
102
RTVSPost2010Prop50
 90
       50
102
RTVSPost2010PropOp50
 70
     1
102
RTVSPost2010Prop51ColorIndex
 90
      256
102
RTVSPost2010Prop51ColorRGB
 90
-16777216
102
RTVSPost2010PropOp51
 70
     0
102
RTVSPost2010Prop52
140
1.0
102
RTVSPost2010PropOp52
 70
     0
102
RTVSPost2010Prop53
 90
        2
102
RTVSPost2010PropOp53
 70
     1
102
RTVSPost2010Prop54
  1
strokes_ogs.tif
102
RTVSPost2010PropOp54
 70
     1
102
RTVSPost2010Prop55
280
     0
102
RTVSPost2010PropOp55
 70
     1
102
RTVSPost2010Prop56
140
1.0
102
RTVSPost2010PropOp56
 70
     1
102
RTVSPost2010Prop57
140
1.0
102
RTVSPost2010PropOp57
 70
     1
  0
XRECORD
  5
109
102
{ACAD_REACTORS
330
108
102
}
330
108
100
AcDbXrecord
280
     1
102
RTVSPropertyOp0
 70
     1
102
RTVSPropertyOp1
 70
     1
102
RTVSPropertyOp2
 70
     1
102
RTVSPropertyOp3
 70
     1
102
RTVSPropertyOp4
 70
     1
102
RTVSPropertyOp5
 70
     1
102
RTVSPropertyOp6
 70
     1
102
RTVSPropertyOp7
 70
     1
102
RTVSPropertyOp8
 70
     1
102
RTVSPropertyOp9
 70
     1
102
RTVSPropertyOp10
 70
     1
102
RTVSPropertyOp11
 70
     1
102
RTVSPropertyOp12
 70
     1
102
RTVSPropertyOp13
 70
     1
102
RTVSPropertyOp14
 70
     1
102
RTVSPropertyOp15
 70
     1
102
RTVSPropertyOp16
 70
     1
102
RTVSPropertyOp17
 70
     1
102
RTVSPropertyOp18
 70
     1
102
RTVSPropertyOp19
 70
     1
102
RTVSPropertyOp20
 70
     1
102
RTVSPropertyOp21
 70
     1
102
RTVSPropertyOp22
 70
     1
102
RTVSPropertyOp23
 70
     1
102
RTVSPropertyOp24
 70
     1
102
RTVSPropertyOp25
 70
     1
102
RTVSPropertyOp26
 70
     1
102
RTVSPropertyOp27
 70
     1
102
RTVSPropertyOp28
 70
     1
102
RTVSPropertyOp29
 70
     1
102
RTVSPropertyOp30
 70
     1
102
RTVSPropertyOp31
 70
     1
102
RTVSPropertyOp32
 70
     1
102
RTVSPropertyOp33
 70
     1
102
RTVSPropertyOp34
 70
     1
102
RTVSPropertyOp35
 70
     1
102
RTVSPropertyOp36
 70
     1
102
RTVSPropertyOp37
 70
     1
102
RTVSPropertyOp38
 70
     1
102
RTVSPropertyOp39
 70
     1
102
RTVSPropertyOp40
 70
     1
102
RTVSPropertyOp41
 70
     1
102
RTVSPropertyOp42
 70
     1
102
RTVSPropertyOp43
 70
     1
102
RTVSPropertyOp44
 70
     1
102
RTVSPropertyOp45
 70
     1
102
RTVSPropertyOp46
 70
     1
102
RTVSPropertyOp47
 70
     1
102
RTVSPropertyOp48
 70
     1
102
RTVSPropertyOp49
 70
     1
102
RTVSPropertyOp50
 70
     1
102
RTVSPropertyOp51
 70
     0
102
RTVSPropertyOp52
 70
     0
102
RTVSPropertyOp53
 70
     1
102
RTVSPropertyOp54
 70
     1
102
RTVSPropertyOp55
 70
     1
102
RTVSPropertyOp56
 70
     1
102
RTVSPropertyOp57
 70
     1
102
RTVSPost2010Prop28
280
     0
102
RTVSPost2010PropOp28
 70
     1
102
RTVSPost2010Prop29
280
     1
102
RTVSPost2010PropOp29
 70
     1
102
RTVSPost2010Prop30
280
     1
102
RTVSPost2010PropOp30
 70
     1
102
RTVSPost2010Prop31
280
     0
102
RTVSPost2010PropOp31
 70
     1
102
RTVSPost2010Prop32
280
     0
102
RTVSPost2010PropOp32
 70
     1
102
RTVSPost2010Prop33
280
     0
102
RTVSPost2010PropOp33
 70
     1
102
RTVSPost2010Prop34
280
     0
102
RTVSPost2010PropOp34
 70
     1
102
RTVSPost2010Prop35
280
     0
102
RTVSPost2010PropOp35
 70
     1
102
RTVSPost2010Prop36
280
     0
102
RTVSPost2010PropOp36
 70
     1
102
RTVSPost2010Prop37
 90
       50
102
RTVSPost2010PropOp37
 70
     1
102
RTVSPost2010Prop38
140
0.0
102
RTVSPost2010PropOp38
 70
     1
102
RTVSPost2010Prop39
140
1.0
102
RTVSPost2010PropOp39
 70
     1
102
RTVSPost2010Prop40
 90
        0
102
RTVSPost2010PropOp40
 70
     1
102
RTVSPost2010Prop41ColorIndex
 90
       18
102
RTVSPost2010Prop41ColorRGB
 90
        0
102
RTVSPost2010PropOp41
 70
     1
102
RTVSPost2010Prop42
 90
       50
102
RTVSPost2010PropOp42
 70
     1
102
RTVSPost2010Prop43
 90
        3
102
RTVSPost2010PropOp43
 70
     1
102
RTVSPost2010Prop44ColorIndex
 90
        5
102
RTVSPost2010Prop44ColorRGB
 90
      255
102
RTVSPost2010PropOp44
 70
     1
102
RTVSPost2010Prop45
280
     0
102
RTVSPost2010PropOp45
 70
     1
102
RTVSPost2010Prop46
 90
       50
102
RTVSPost2010PropOp46
 70
     1
102
RTVSPost2010Prop47
 90
       50
102
RTVSPost2010PropOp47
 70
     1
102
RTVSPost2010Prop48
 90
       50
102
RTVSPost2010PropOp48
 70
     1
102
RTVSPost2010Prop49
280
     0
102
RTVSPost2010PropOp49
 70
     1
102
RTVSPost2010Prop50
 90
       50
102
RTVSPost2010PropOp50
 70
     1
102
RTVSPost2010Prop51ColorIndex
 90
      256
102
RTVSPost2010Prop51ColorRGB
 90
-16777216
102
RTVSPost2010PropOp51
 70
     0
102
RTVSPost2010Prop52
140
1.0
102
RTVSPost2010PropOp52
 70
     0
102
RTVSPost2010Prop53
 90
        2
102
RTVSPost2010PropOp53
 70
     1
102
RTVSPost2010Prop54
  1
strokes_ogs.tif
102
RTVSPost2010PropOp54
 70
     1
102
RTVSPost2010Prop55
280
     0
102
RTVSPost2010PropOp55
 70
     1
102
RTVSPost2010Prop56
140
1.0
102
RTVSPost2010PropOp56
 70
     1
102
RTVSPost2010Prop57
140
1.0
102
RTVSPost2010PropOp57
 70
     1
  0
XRECORD
  5
F9
102
{ACAD_REACTORS
330
F8
102
}
330
F8
100
AcDbXrecord
280
     1
102
RTVSPropertyOp0
 70
     1
102
RTVSPropertyOp1
 70
     1
102
RTVSPropertyOp2
 70
     1
102
RTVSPropertyOp3
 70
     1
102
RTVSPropertyOp4
 70
     1
102
RTVSPropertyOp5
 70
     1
102
RTVSPropertyOp6
 70
     1
102
RTVSPropertyOp7
 70
     1
102
RTVSPropertyOp8
 70
     1
102
RTVSPropertyOp9
 70
     1
102
RTVSPropertyOp10
 70
     1
102
RTVSPropertyOp11
 70
     1
102
RTVSPropertyOp12
 70
     1
102
RTVSPropertyOp13
 70
     1
102
RTVSPropertyOp14
 70
     1
102
RTVSPropertyOp15
 70
     1
102
RTVSPropertyOp16
 70
     1
102
RTVSPropertyOp17
 70
     1
102
RTVSPropertyOp18
 70
     1
102
RTVSPropertyOp19
 70
     1
102
RTVSPropertyOp20
 70
     1
102
RTVSPropertyOp21
 70
     1
102
RTVSPropertyOp22
 70
     1
102
RTVSPropertyOp23
 70
     1
102
RTVSPropertyOp24
 70
     1
102
RTVSPropertyOp25
 70
     1
102
RTVSPropertyOp26
 70
     1
102
RTVSPropertyOp27
 70
     1
102
RTVSPropertyOp28
 70
     1
102
RTVSPropertyOp29
 70
     1
102
RTVSPropertyOp30
 70
     1
102
RTVSPropertyOp31
 70
     1
102
RTVSPropertyOp32
 70
     1
102
RTVSPropertyOp33
 70
     1
102
RTVSPropertyOp34
 70
     1
102
RTVSPropertyOp35
 70
     1
102
RTVSPropertyOp36
 70
     1
102
RTVSPropertyOp37
 70
     1
102
RTVSPropertyOp38
 70
     1
102
RTVSPropertyOp39
 70
     1
102
RTVSPropertyOp40
 70
     1
102
RTVSPropertyOp41
 70
     1
102
RTVSPropertyOp42
 70
     1
102
RTVSPropertyOp43
 70
     1
102
RTVSPropertyOp44
 70
     1
102
RTVSPropertyOp45
 70
     1
102
RTVSPropertyOp46
 70
     1
102
RTVSPropertyOp47
 70
     1
102
RTVSPropertyOp48
 70
     1
102
RTVSPropertyOp49
 70
     1
102
RTVSPropertyOp50
 70
     1
102
RTVSPropertyOp51
 70
     0
102
RTVSPropertyOp52
 70
     0
102
RTVSPropertyOp53
 70
     1
102
RTVSPropertyOp54
 70
     1
102
RTVSPropertyOp55
 70
     1
102
RTVSPropertyOp56
 70
     1
102
RTVSPropertyOp57
 70
     1
102
RTVSPost2010Prop28
280
     0
102
RTVSPost2010PropOp28
 70
     1
102
RTVSPost2010Prop29
280
     1
102
RTVSPost2010PropOp29
 70
     1
102
RTVSPost2010Prop30
280
     1
102
RTVSPost2010PropOp30
 70
     1
102
RTVSPost2010Prop31
280
     0
102
RTVSPost2010PropOp31
 70
     1
102
RTVSPost2010Prop32
280
     0
102
RTVSPost2010PropOp32
 70
     1
102
RTVSPost2010Prop33
280
     0
102
RTVSPost2010PropOp33
 70
     1
102
RTVSPost2010Prop34
280
     0
102
RTVSPost2010PropOp34
 70
     1
102
RTVSPost2010Prop35
280
     0
102
RTVSPost2010PropOp35
 70
     1
102
RTVSPost2010Prop36
280
     0
102
RTVSPost2010PropOp36
 70
     1
102
RTVSPost2010Prop37
 90
       50
102
RTVSPost2010PropOp37
 70
     1
102
RTVSPost2010Prop38
140
0.0
102
RTVSPost2010PropOp38
 70
     1
102
RTVSPost2010Prop39
140
1.0
102
RTVSPost2010PropOp39
 70
     1
102
RTVSPost2010Prop40
 90
        0
102
RTVSPost2010PropOp40
 70
     1
102
RTVSPost2010Prop41ColorIndex
 90
       18
102
RTVSPost2010Prop41ColorRGB
 90
        0
102
RTVSPost2010PropOp41
 70
     1
102
RTVSPost2010Prop42
 90
       50
102
RTVSPost2010PropOp42
 70
     1
102
RTVSPost2010Prop43
 90
        3
102
RTVSPost2010PropOp43
 70
     1
102
RTVSPost2010Prop44ColorIndex
 90
        5
102
RTVSPost2010Prop44ColorRGB
 90
      255
102
RTVSPost2010PropOp44
 70
     1
102
RTVSPost2010Prop45
280
     0
102
RTVSPost2010PropOp45
 70
     1
102
RTVSPost2010Prop46
 90
       50
102
RTVSPost2010PropOp46
 70
     1
102
RTVSPost2010Prop47
 90
       50
102
RTVSPost2010PropOp47
 70
     1
102
RTVSPost2010Prop48
 90
       50
102
RTVSPost2010PropOp48
 70
     1
102
RTVSPost2010Prop49
280
     0
102
RTVSPost2010PropOp49
 70
     1
102
RTVSPost2010Prop50
 90
       50
102
RTVSPost2010PropOp50
 70
     1
102
RTVSPost2010Prop51ColorIndex
 90
      256
102
RTVSPost2010Prop51ColorRGB
 90
-16777216
102
RTVSPost2010PropOp51
 70
     0
102
RTVSPost2010Prop52
140
1.0
102
RTVSPost2010PropOp52
 70
     0
102
RTVSPost2010Prop53
 90
        2
102
RTVSPost2010PropOp53
 70
     1
102
RTVSPost2010Prop54
  1
strokes_ogs.tif
102
RTVSPost2010PropOp54
 70
     1
102
RTVSPost2010Prop55
280
     0
102
RTVSPost2010PropOp55
 70
     1
102
RTVSPost2010Prop56
140
1.0
102
RTVSPost2010PropOp56
 70
     1
102
RTVSPost2010Prop57
140
1.0
102
RTVSPost2010PropOp57
 70
     1
  0
XRECORD
  5
EB
102
{ACAD_REACTORS
330
EA
102
}
330
EA
100
AcDbXrecord
280
     1
102
RTVSPropertyOp0
 70
     1
102
RTVSPropertyOp1
 70
     1
102
RTVSPropertyOp2
 70
     1
102
RTVSPropertyOp3
 70
     1
102
RTVSPropertyOp4
 70
     1
102
RTVSPropertyOp5
 70
     1
102
RTVSPropertyOp6
 70
     1
102
RTVSPropertyOp7
 70
     1
102
RTVSPropertyOp8
 70
     1
102
RTVSPropertyOp9
 70
     1
102
RTVSPropertyOp10
 70
     1
102
RTVSPropertyOp11
 70
     1
102
RTVSPropertyOp12
 70
     1
102
RTVSPropertyOp13
 70
     1
102
RTVSPropertyOp14
 70
     1
102
RTVSPropertyOp15
 70
     1
102
RTVSPropertyOp16
 70
     1
102
RTVSPropertyOp17
 70
     1
102
RTVSPropertyOp18
 70
     1
102
RTVSPropertyOp19
 70
     1
102
RTVSPropertyOp20
 70
     1
102
RTVSPropertyOp21
 70
     1
102
RTVSPropertyOp22
 70
     1
102
RTVSPropertyOp23
 70
     1
102
RTVSPropertyOp24
 70
     1
102
RTVSPropertyOp25
 70
     1
102
RTVSPropertyOp26
 70
     1
102
RTVSPropertyOp27
 70
     1
102
RTVSPropertyOp28
 70
     1
102
RTVSPropertyOp29
 70
     1
102
RTVSPropertyOp30
 70
     1
102
RTVSPropertyOp31
 70
     1
102
RTVSPropertyOp32
 70
     1
102
RTVSPropertyOp33
 70
     1
102
RTVSPropertyOp34
 70
     1
102
RTVSPropertyOp35
 70
     1
102
RTVSPropertyOp36
 70
     1
102
RTVSPropertyOp37
 70
     1
102
RTVSPropertyOp38
 70
     1
102
RTVSPropertyOp39
 70
     1
102
RTVSPropertyOp40
 70
     1
102
RTVSPropertyOp41
 70
     1
102
RTVSPropertyOp42
 70
     1
102
RTVSPropertyOp43
 70
     1
102
RTVSPropertyOp44
 70
     1
102
RTVSPropertyOp45
 70
     1
102
RTVSPropertyOp46
 70
     1
102
RTVSPropertyOp47
 70
     1
102
RTVSPropertyOp48
 70
     1
102
RTVSPropertyOp49
 70
     1
102
RTVSPropertyOp50
 70
     1
102
RTVSPropertyOp51
 70
     0
102
RTVSPropertyOp52
 70
     0
102
RTVSPropertyOp53
 70
     1
102
RTVSPropertyOp54
 70
     1
102
RTVSPropertyOp55
 70
     1
102
RTVSPropertyOp56
 70
     1
102
RTVSPropertyOp57
 70
     1
102
RTVSPost2010Prop28
280
     0
102
RTVSPost2010PropOp28
 70
     1
102
RTVSPost2010Prop29
280
     1
102
RTVSPost2010PropOp29
 70
     1
102
RTVSPost2010Prop30
280
     1
102
RTVSPost2010PropOp30
 70
     1
102
RTVSPost2010Prop31
280
     0
102
RTVSPost2010PropOp31
 70
     1
102
RTVSPost2010Prop32
280
     0
102
RTVSPost2010PropOp32
 70
     1
102
RTVSPost2010Prop33
280
     0
102
RTVSPost2010PropOp33
 70
     1
102
RTVSPost2010Prop34
280
     0
102
RTVSPost2010PropOp34
 70
     1
102
RTVSPost2010Prop35
280
     0
102
RTVSPost2010PropOp35
 70
     1
102
RTVSPost2010Prop36
280
     0
102
RTVSPost2010PropOp36
 70
     1
102
RTVSPost2010Prop37
 90
       50
102
RTVSPost2010PropOp37
 70
     1
102
RTVSPost2010Prop38
140
0.0
102
RTVSPost2010PropOp38
 70
     1
102
RTVSPost2010Prop39
140
1.0
102
RTVSPost2010PropOp39
 70
     1
102
RTVSPost2010Prop40
 90
        0
102
RTVSPost2010PropOp40
 70
     1
102
RTVSPost2010Prop41ColorIndex
 90
       18
102
RTVSPost2010Prop41ColorRGB
 90
        0
102
RTVSPost2010PropOp41
 70
     1
102
RTVSPost2010Prop42
 90
       50
102
RTVSPost2010PropOp42
 70
     1
102
RTVSPost2010Prop43
 90
        3
102
RTVSPost2010PropOp43
 70
     1
102
RTVSPost2010Prop44ColorIndex
 90
        5
102
RTVSPost2010Prop44ColorRGB
 90
      255
102
RTVSPost2010PropOp44
 70
     1
102
RTVSPost2010Prop45
280
     0
102
RTVSPost2010PropOp45
 70
     1
102
RTVSPost2010Prop46
 90
       50
102
RTVSPost2010PropOp46
 70
     1
102
RTVSPost2010Prop47
 90
       50
102
RTVSPost2010PropOp47
 70
     1
102
RTVSPost2010Prop48
 90
       50
102
RTVSPost2010PropOp48
 70
     1
102
RTVSPost2010Prop49
280
     0
102
RTVSPost2010PropOp49
 70
     1
102
RTVSPost2010Prop50
 90
       50
102
RTVSPost2010PropOp50
 70
     1
102
RTVSPost2010Prop51ColorIndex
 90
      256
102
RTVSPost2010Prop51ColorRGB
 90
-16777216
102
RTVSPost2010PropOp51
 70
     0
102
RTVSPost2010Prop52
140
1.0
102
RTVSPost2010PropOp52
 70
     0
102
RTVSPost2010Prop53
 90
        2
102
RTVSPost2010PropOp53
 70
     1
102
RTVSPost2010Prop54
  1
strokes_ogs.tif
102
RTVSPost2010PropOp54
 70
     1
102
RTVSPost2010Prop55
280
     0
102
RTVSPost2010PropOp55
 70
     1
102
RTVSPost2010Prop56
140
1.0
102
RTVSPost2010PropOp56
 70
     1
102
RTVSPost2010Prop57
140
1.0
102
RTVSPost2010PropOp57
 70
     1
  0
XRECORD
  5
10B
102
{ACAD_REACTORS
330
10A
102
}
330
10A
100
AcDbXrecord
280
     1
102
RTVSPropertyOp0
 70
     1
102
RTVSPropertyOp1
 70
     1
102
RTVSPropertyOp2
 70
     1
102
RTVSPropertyOp3
 70
     1
102
RTVSPropertyOp4
 70
     1
102
RTVSPropertyOp5
 70
     1
102
RTVSPropertyOp6
 70
     1
102
RTVSPropertyOp7
 70
     1
102
RTVSPropertyOp8
 70
     1
102
RTVSPropertyOp9
 70
     1
102
RTVSPropertyOp10
 70
     1
102
RTVSPropertyOp11
 70
     1
102
RTVSPropertyOp12
 70
     1
102
RTVSPropertyOp13
 70
     1
102
RTVSPropertyOp14
 70
     1
102
RTVSPropertyOp15
 70
     1
102
RTVSPropertyOp16
 70
     1
102
RTVSPropertyOp17
 70
     1
102
RTVSPropertyOp18
 70
     1
102
RTVSPropertyOp19
 70
     1
102
RTVSPropertyOp20
 70
     1
102
RTVSPropertyOp21
 70
     1
102
RTVSPropertyOp22
 70
     1
102
RTVSPropertyOp23
 70
     1
102
RTVSPropertyOp24
 70
     1
102
RTVSPropertyOp25
 70
     1
102
RTVSPropertyOp26
 70
     1
102
RTVSPropertyOp27
 70
     1
102
RTVSPropertyOp28
 70
     1
102
RTVSPropertyOp29
 70
     1
102
RTVSPropertyOp30
 70
     1
102
RTVSPropertyOp31
 70
     1
102
RTVSPropertyOp32
 70
     1
102
RTVSPropertyOp33
 70
     1
102
RTVSPropertyOp34
 70
     1
102
RTVSPropertyOp35
 70
     1
102
RTVSPropertyOp36
 70
     1
102
RTVSPropertyOp37
 70
     1
102
RTVSPropertyOp38
 70
     1
102
RTVSPropertyOp39
 70
     1
102
RTVSPropertyOp40
 70
     1
102
RTVSPropertyOp41
 70
     1
102
RTVSPropertyOp42
 70
     1
102
RTVSPropertyOp43
 70
     1
102
RTVSPropertyOp44
 70
     1
102
RTVSPropertyOp45
 70
     1
102
RTVSPropertyOp46
 70
     1
102
RTVSPropertyOp47
 70
     1
102
RTVSPropertyOp48
 70
     1
102
RTVSPropertyOp49
 70
     1
102
RTVSPropertyOp50
 70
     1
102
RTVSPropertyOp51
 70
     0
102
RTVSPropertyOp52
 70
     0
102
RTVSPropertyOp53
 70
     1
102
RTVSPropertyOp54
 70
     1
102
RTVSPropertyOp55
 70
     1
102
RTVSPropertyOp56
 70
     1
102
RTVSPropertyOp57
 70
     1
102
RTVSPost2010Prop28
280
     0
102
RTVSPost2010PropOp28
 70
     1
102
RTVSPost2010Prop29
280
     1
102
RTVSPost2010PropOp29
 70
     1
102
RTVSPost2010Prop30
280
     1
102
RTVSPost2010PropOp30
 70
     1
102
RTVSPost2010Prop31
280
     0
102
RTVSPost2010PropOp31
 70
     1
102
RTVSPost2010Prop32
280
     0
102
RTVSPost2010PropOp32
 70
     1
102
RTVSPost2010Prop33
280
     0
102
RTVSPost2010PropOp33
 70
     1
102
RTVSPost2010Prop34
280
     0
102
RTVSPost2010PropOp34
 70
     1
102
RTVSPost2010Prop35
280
     0
102
RTVSPost2010PropOp35
 70
     1
102
RTVSPost2010Prop36
280
     0
102
RTVSPost2010PropOp36
 70
     1
102
RTVSPost2010Prop37
 90
       50
102
RTVSPost2010PropOp37
 70
     1
102
RTVSPost2010Prop38
140
0.0
102
RTVSPost2010PropOp38
 70
     1
102
RTVSPost2010Prop39
140
1.0
102
RTVSPost2010PropOp39
 70
     1
102
RTVSPost2010Prop40
 90
        0
102
RTVSPost2010PropOp40
 70
     1
102
RTVSPost2010Prop41ColorIndex
 90
       18
102
RTVSPost2010Prop41ColorRGB
 90
        0
102
RTVSPost2010PropOp41
 70
     1
102
RTVSPost2010Prop42
 90
       50
102
RTVSPost2010PropOp42
 70
     1
102
RTVSPost2010Prop43
 90
        3
102
RTVSPost2010PropOp43
 70
     1
102
RTVSPost2010Prop44ColorIndex
 90
        5
102
RTVSPost2010Prop44ColorRGB
 90
      255
102
RTVSPost2010PropOp44
 70
     1
102
RTVSPost2010Prop45
280
     0
102
RTVSPost2010PropOp45
 70
     1
102
RTVSPost2010Prop46
 90
       50
102
RTVSPost2010PropOp46
 70
     1
102
RTVSPost2010Prop47
 90
       50
102
RTVSPost2010PropOp47
 70
     1
102
RTVSPost2010Prop48
 90
       50
102
RTVSPost2010PropOp48
 70
     1
102
RTVSPost2010Prop49
280
     0
102
RTVSPost2010PropOp49
 70
     1
102
RTVSPost2010Prop50
 90
       50
102
RTVSPost2010PropOp50
 70
     1
102
RTVSPost2010Prop51ColorIndex
 90
      256
102
RTVSPost2010Prop51ColorRGB
 90
-16777216
102
RTVSPost2010PropOp51
 70
     0
102
RTVSPost2010Prop52
140
1.0
102
RTVSPost2010PropOp52
 70
     0
102
RTVSPost2010Prop53
 90
        2
102
RTVSPost2010PropOp53
 70
     1
102
RTVSPost2010Prop54
  1
strokes_ogs.tif
102
RTVSPost2010PropOp54
 70
     1
102
RTVSPost2010Prop55
280
     0
102
RTVSPost2010PropOp55
 70
     1
102
RTVSPost2010Prop56
140
1.0
102
RTVSPost2010PropOp56
 70
     1
102
RTVSPost2010Prop57
140
1.0
102
RTVSPost2010PropOp57
 70
     1
  0
ENDSEC
  0
EOF
