  0
SECTION
  2
HEADER
  9
$ACADVER
  1
AC1015
  9
$ACADMAINTVER
 70
     6
  9
$DWGCODEPAGE
  3
ANSI_1252
  9
$INSBASE
 10
0.0
 20
0.0
 30
0.0
  9
$EXTMIN
 10
-91.541039
 20
547.015442
 30
0.0
  9
$EXTMAX
 10
824.61731
 20
1091.813721
 30
0.0
  9
$LIMMIN
 10
-91.541039
 20
547.015442
  9
$LIMMAX
 10
824.61731
 20
1091.813721
  9
$ORTHOMODE
 70
     0
  9
$REGENMODE
 70
     1
  9
$FILLMODE
 70
     1
  9
$QTEXTMODE
 70
     0
  9
$MIRRTEXT
 70
     1
  9
$LTSCALE
 40
1.0
  9
$ATTMODE
 70
     1
  9
$TEXTSIZE
 40
2.5
  9
$TRACEWID
 40
1.0
  9
$TEXTSTYLE
  7
Standard
  9
$CLAYER
  8
0
  9
$CELTYPE
  6
ByLayer
  9
$CECOLOR
 62
   256
  9
$CELTSCALE
 40
1.0
  9
$DISPSILH
 70
     0
  9
$DIMSCALE
 40
1.0
  9
$DIMASZ
 40
2.5
  9
$DIMEXO
 40
0.625
  9
$DIMDLI
 40
3.75
  9
$DIMRND
 40
0.0
  9
$DIMDLE
 40
0.0
  9
$DIMEXE
 40
1.25
  9
$DIMTP
 40
0.0
  9
$DIMTM
 40
0.0
  9
$DIMTXT
 40
2.5
  9
$DIMCEN
 40
2.5
  9
$DIMTSZ
 40
0.0
  9
$DIMTOL
 70
     0
  9
$DIMLIM
 70
     0
  9
$DIMTIH
 70
     0
  9
$DIMTOH
 70
     0
  9
$DIMSE1
 70
     0
  9
$DIMSE2
 70
     0
  9
$DIMTAD
 70
     1
  9
$DIMZIN
 70
     8
  9
$DIMBLK
  1

  9
$DIMASO
 70
     1
  9
$DIMSHO
 70
     1
  9
$DIMPOST
  1

  9
$DIMAPOST
  1

  9
$DIMALT
 70
     0
  9
$DIMALTD
 70
     3
  9
$DIMALTF
 40
0.03937
  9
$DIMLFAC
 40
1.0
  9
$DIMTOFL
 70
     1
  9
$DIMTVP
 40
0.0
  9
$DIMTIX
 70
     0
  9
$DIMSOXD
 70
     0
  9
$DIMSAH
 70
     0
  9
$DIMBLK1
  1

  9
$DIMBLK2
  1

  9
$DIMSTYLE
  2
ISO-25
  9
$DIMCLRD
 70
     0
  9
$DIMCLRE
 70
     0
  9
$DIMCLRT
 70
     0
  9
$DIMTFAC
 40
1.0
  9
$DIMGAP
 40
0.625
  9
$DIMJUST
 70
     0
  9
$DIMSD1
 70
     0
  9
$DIMSD2
 70
     0
  9
$DIMTOLJ
 70
     0
  9
$DIMTZIN
 70
     8
  9
$DIMALTZ
 70
     0
  9
$DIMALTTZ
 70
     0
  9
$DIMUPT
 70
     0
  9
$DIMDEC
 70
     2
  9
$DIMTDEC
 70
     2
  9
$DIMALTU
 70
     2
  9
$DIMALTTD
 70
     3
  9
$DIMTXSTY
  7
Standard
  9
$DIMAUNIT
 70
     0
  9
$DIMADEC
 70
     0
  9
$DIMALTRND
 40
0.0
  9
$DIMAZIN
 70
     0
  9
$DIMDSEP
 70
    44
  9
$DIMATFIT
 70
     3
  9
$DIMFRAC
 70
     0
  9
$DIMLDRBLK
  1

  9
$DIMLUNIT
 70
     2
  9
$DIMLWD
 70
    -2
  9
$DIMLWE
 70
    -2
  9
$DIMTMOVE
 70
     0
  9
$LUNITS
 70
     2
  9
$LUPREC
 70
     4
  9
$SKETCHINC
 40
1.0
  9
$FILLETRAD
 40
10.0
  9
$AUNITS
 70
     0
  9
$AUPREC
 70
     0
  9
$MENU
  1
.
  9
$ELEVATION
 40
0.0
  9
$PELEVATION
 40
0.0
  9
$THICKNESS
 40
0.0
  9
$LIMCHECK
 70
     0
  9
$CHAMFERA
 40
0.0
  9
$CHAMFERB
 40
0.0
  9
$CHAMFERC
 40
0.0
  9
$CHAMFERD
 40
0.0
  9
$SKPOLY
 70
     0
  9
$TDCREATE
 40
2459487.498919884
  9
$TDUCREATE
 40
2459487.415586551
  9
$TDUPDATE
 40
2459487.498920313
  9
$TDUUPDATE
 40
2459487.415586979
  9
$TDINDWG
 40
0.0000000116
  9
$TDUSRTIMER
 40
0.0000000116
  9
$USRTIMER
 70
     1
  9
$ANGBASE
 50
0.0
  9
$ANGDIR
 70
     0
  9
$PDMODE
 70
     0
  9
$PDSIZE
 40
0.0
  9
$PLINEWID
 40
0.0
  9
$SPLFRAME
 70
     0
  9
$SPLINETYPE
 70
     6
  9
$SPLINESEGS
 70
     8
  9
$HANDSEED
  5
117
  9
$SURFTAB1
 70
     6
  9
$SURFTAB2
 70
     6
  9
$SURFTYPE
 70
     6
  9
$SURFU
 70
     6
  9
$SURFV
 70
     6
  9
$UCSBASE
  2

  9
$UCSNAME
  2

  9
$UCSORG
 10
0.0
 20
0.0
 30
0.0
  9
$UCSXDIR
 10
1.0
 20
0.0
 30
0.0
  9
$UCSYDIR
 10
0.0
 20
1.0
 30
0.0
  9
$UCSORTHOREF
  2

  9
$UCSORTHOVIEW
 70
     0
  9
$UCSORGTOP
 10
0.0
 20
0.0
 30
0.0
  9
$UCSORGBOTTOM
 10
0.0
 20
0.0
 30
0.0
  9
$UCSORGLEFT
 10
0.0
 20
0.0
 30
0.0
  9
$UCSORGRIGHT
 10
0.0
 20
0.0
 30
0.0
  9
$UCSORGFRONT
 10
0.0
 20
0.0
 30
0.0
  9
$UCSORGBACK
 10
0.0
 20
0.0
 30
0.0
  9
$PUCSBASE
  2

  9
$PUCSNAME
  2

  9
$PUCSORG
 10
0.0
 20
0.0
 30
0.0
  9
$PUCSXDIR
 10
1.0
 20
0.0
 30
0.0
  9
$PUCSYDIR
 10
0.0
 20
1.0
 30
0.0
  9
$PUCSORTHOREF
  2

  9
$PUCSORTHOVIEW
 70
     0
  9
$PUCSORGTOP
 10
0.0
 20
0.0
 30
0.0
  9
$PUCSORGBOTTOM
 10
0.0
 20
0.0
 30
0.0
  9
$PUCSORGLEFT
 10
0.0
 20
0.0
 30
0.0
  9
$PUCSORGRIGHT
 10
0.0
 20
0.0
 30
0.0
  9
$PUCSORGFRONT
 10
0.0
 20
0.0
 30
0.0
  9
$PUCSORGBACK
 10
0.0
 20
0.0
 30
0.0
  9
$USERI1
 70
     0
  9
$USERI2
 70
     0
  9
$USERI3
 70
     0
  9
$USERI4
 70
     0
  9
$USERI5
 70
     0
  9
$USERR1
 40
0.0
  9
$USERR2
 40
0.0
  9
$USERR3
 40
0.0
  9
$USERR4
 40
0.0
  9
$USERR5
 40
0.0
  9
$WORLDVIEW
 70
     1
  9
$SHADEDGE
 70
     3
  9
$SHADEDIF
 70
    70
  9
$TILEMODE
 70
     1
  9
$MAXACTVP
 70
    64
  9
$PINSBASE
 10
0.0
 20
0.0
 30
0.0
  9
$PLIMCHECK
 70
     0
  9
$PEXTMIN
 10
1.000000E+20
 20
1.000000E+20
 30
1.000000E+20
  9
$PEXTMAX
 10
-1.000000E+20
 20
-1.000000E+20
 30
-1.000000E+20
  9
$PLIMMIN
 10
0.0
 20
0.0
  9
$PLIMMAX
 10
420.0
 20
297.0
  9
$UNITMODE
 70
     0
  9
$VISRETAIN
 70
     1
  9
$PLINEGEN
 70
     0
  9
$PSLTSCALE
 70
     1
  9
$TREEDEPTH
 70
  3020
  9
$CMLSTYLE
  2
Standard
  9
$CMLJUST
 70
     0
  9
$CMLSCALE
 40
20.0
  9
$PROXYGRAPHICS
 70
     1
  9
$MEASUREMENT
 70
     1
  9
$CELWEIGHT
370
    -1
  9
$ENDCAPS
280
     0
  9
$JOINSTYLE
280
     0
  9
$LWDISPLAY
290
     0
  9
$INSUNITS
 70
     4
  9
$HYPERLINKBASE
  1

  9
$STYLESHEET
  1

  9
$XEDIT
290
     1
  9
$CEPSNTYPE
380
     0
  9
$PSTYLEMODE
290
     1
  9
$FINGERPRINTGUID
  2
{8d5ca72f-0664-4fc4-8dd9-42cda197d39d}
  9
$VERSIONGUID
  2
{FAEB1C32-E019-11D5-929B-00C0DF256EC4}
  9
$EXTNAMES
290
     1
  9
$PSVPSCALE
 40
0.0
  9
$OLESTARTUP
290
     0
  0
ENDSEC
  0
SECTION
  2
CLASSES
  0
CLASS
  1
ACDBDICTIONARYWDFLT
  2
AcDbDictionaryWithDefault
  3
ObjectDBX Classes
 90
        0
280
     0
281
     0
  0
CLASS
  1
VISUALSTYLE
  2
AcDbVisualStyle
  3
ObjectDBX Classes
 90
     4095
280
     0
281
     0
  0
CLASS
  1
MATERIAL
  2
AcDbMaterial
  3
ObjectDBX Classes
 90
     1153
280
     0
281
     0
  0
CLASS
  1
SCALE
  2
AcDbScale
  3
ObjectDBX Classes
 90
     1153
280
     0
281
     0
  0
CLASS
  1
TABLESTYLE
  2
AcDbTableStyle
  3
ObjectDBX Classes
 90
     4095
280
     0
281
     0
  0
CLASS
  1
MLEADERSTYLE
  2
AcDbMLeaderStyle
  3
ACDB_MLEADERSTYLE_CLASS
 90
     4095
280
     0
281
     0
  0
CLASS
  1
SUN
  2
AcDbSun
  3
SCENEOE
 90
     1153
280
     0
281
     0
  0
CLASS
  1
DICTIONARYVAR
  2
AcDbDictionaryVar
  3
ObjectDBX Classes
 90
        0
280
     0
281
     0
  0
CLASS
  1
ACDBPLACEHOLDER
  2
AcDbPlaceHolder
  3
ObjectDBX Classes
 90
        0
280
     0
281
     0
  0
CLASS
  1
LAYOUT
  2
AcDbLayout
  3
ObjectDBX Classes
 90
        0
280
     0
281
     0
  0
ENDSEC
  0
SECTION
  2
TABLES
  0
TABLE
  2
VPORT
  5
8
102
{ACAD_XDICTIONARY
360
DA
102
}
330
0
100
AcDbSymbolTable
 70
     1
  0
VPORT
  5
29
330
8
100
AcDbSymbolTableRecord
100
AcDbViewportTableRecord
  2
*Active
 70
     0
 10
0.0
 20
0.0
 11
1.0
 21
1.0
 12
344.186916
 22
148.5
 13
0.0
 23
0.0
 14
10.0
 24
10.0
 15
10.0
 25
10.0
 16
0.0
 26
0.0
 36
1.0
 17
0.0
 27
0.0
 37
0.0
 40
297.0
 41
1.972973
 42
50.0
 43
0.0
 44
0.0
 50
0.0
 51
0.0
 71
     0
 72
   100
 73
     1
 74
     3
 75
     0
 76
     0
 77
     0
 78
     0
281
     0
 65
     1
110
0.0
120
0.0
130
0.0
111
1.0
121
0.0
131
0.0
112
0.0
122
1.0
132
0.0
 79
     0
146
0.0
  0
ENDTAB
  0
TABLE
  2
LTYPE
  5
5
330
0
100
AcDbSymbolTable
 70
     1
  0
LTYPE
  5
14
330
5
100
AcDbSymbolTableRecord
100
AcDbLinetypeTableRecord
  2
ByBlock
 70
     0
  3

 72
    65
 73
     0
 40
0.0
  0
LTYPE
  5
15
330
5
100
AcDbSymbolTableRecord
100
AcDbLinetypeTableRecord
  2
ByLayer
 70
     0
  3

 72
    65
 73
     0
 40
0.0
  0
LTYPE
  5
16
330
5
100
AcDbSymbolTableRecord
100
AcDbLinetypeTableRecord
  2
Continuous
 70
     0
  3
Solid line
 72
    65
 73
     0
 40
0.0
  0
ENDTAB
  0
TABLE
  2
LAYER
  5
2
330
0
100
AcDbSymbolTable
 70
     1
  0
LAYER
  5
10
330
2
100
AcDbSymbolTableRecord
100
AcDbLayerTableRecord
  2
0
 70
     0
 62
   106
  6
Continuous
370
     0
390
F
  0
ENDTAB
  0
TABLE
  2
STYLE
  5
3
330
0
100
AcDbSymbolTable
 70
     4
  0
STYLE
  5
11
330
3
100
AcDbSymbolTableRecord
100
AcDbTextStyleTableRecord
  2
Standard
 70
     0
 40
0.0
 41
1.0
 50
0.0
 71
     0
 42
2.5
  3
txt
  4

  0
STYLE
  5
6E
330
3
100
AcDbSymbolTableRecord
100
AcDbTextStyleTableRecord
  2
Default
 70
     0
 40
0.0
 41
1.0
 50
0.0
 71
     0
 42
2.5
  3

  4

1001
ACAD
1000
txt
1071
        0
  0
STYLE
  5
6F
330
3
100
AcDbSymbolTableRecord
100
AcDbTextStyleTableRecord
  2
ISO
 70
     0
 40
0.0
 41
1.0
 50
0.0
 71
     0
 42
2.5
  3

  4

1001
ACAD
1000
txt
1071
        0
  0
STYLE
  5
70
330
3
100
AcDbSymbolTableRecord
100
AcDbTextStyleTableRecord
  2
zucchetti
 70
     0
 40
0.0
 41
1.0
 50
0.0
 71
     0
 42
2.5
  3

  4

1001
ACAD
1000
Arial
1071
        0
  0
ENDTAB
  0
TABLE
  2
VIEW
  5
6
330
0
100
AcDbSymbolTable
 70
     0
  0
ENDTAB
  0
TABLE
  2
UCS
  5
7
330
0
100
AcDbSymbolTable
 70
     0
  0
ENDTAB
  0
TABLE
  2
APPID
  5
9
330
0
100
AcDbSymbolTable
 70
     2
  0
APPID
  5
12
330
9
100
AcDbSymbolTableRecord
100
AcDbRegAppTableRecord
  2
ACAD
 70
     0
  0
APPID
  5
114
330
9
100
AcDbSymbolTableRecord
100
AcDbRegAppTableRecord
  2
ACAD_MLEADERVER
 70
     0
  0
ENDTAB
  0
TABLE
  2
DIMSTYLE
  5
A
330
0
100
AcDbSymbolTable
 70
     4
100
AcDbDimStyleTable
  0
DIMSTYLE
105
27
330
A
100
AcDbSymbolTableRecord
100
AcDbDimStyleTableRecord
  2
ISO-25
 70
     0
 41
2.5
 42
0.625
 43
3.75
 44
1.25
 73
     0
 74
     0
 77
     1
 78
     8
140
2.5
141
2.5
143
0.03937
147
0.625
171
     3
172
     1
178
     0
271
     2
272
     2
274
     3
278
    44
283
     0
284
     8
340
11
  0
DIMSTYLE
105
71
330
A
100
AcDbSymbolTableRecord
100
AcDbDimStyleTableRecord
  2
Default
 70
     0
  3
<>
 41
4.375
 42
1.05
 44
2.1
 73
     0
 74
     0
 77
     1
 78
     8
140
3.5
146
0.4
147
1.75
172
     1
271
     2
178
     3
271
     2
272
     3
284
     8
340
6E
341
72
342
72
  0
DIMSTYLE
105
79
330
A
100
AcDbSymbolTableRecord
100
AcDbDimStyleTableRecord
  2
ISO
 70
     0
  3
<>
 41
4.375
 42
1.05
 44
2.1
 73
     0
 74
     0
 77
     1
 78
     8
140
3.5
146
0.4
147
1.75
172
     1
271
     2
178
     3
271
     2
272
     3
284
     8
340
6F
341
72
342
72
  0
DIMSTYLE
105
7A
330
A
100
AcDbSymbolTableRecord
100
AcDbDimStyleTableRecord
  2
zucchetti
 70
     0
  3
<>
 41
3.0
 42
0.9
 44
1.8
 73
     0
 74
     0
 77
     1
 78
     8
140
3.0
146
0.6
147
1.5
172
     1
176
     3
177
     3
271
     2
178
     3
271
     2
272
     2
284
     8
340
70
  0
ENDTAB
  0
TABLE
  2
BLOCK_RECORD
  5
1
330
0
100
AcDbSymbolTable
 70
     7
  0
BLOCK_RECORD
  5
1F
330
1
100
AcDbSymbolTableRecord
100
AcDbBlockTableRecord
  2
*Model_Space
340
22
  0
BLOCK_RECORD
  5
1B
330
1
100
AcDbSymbolTableRecord
100
AcDbBlockTableRecord
  2
*Paper_Space
340
1E
  0
BLOCK_RECORD
  5
23
330
1
100
AcDbSymbolTableRecord
100
AcDbBlockTableRecord
  2
*Paper_Space0
340
26
  0
BLOCK_RECORD
  5
72
330
1
100
AcDbSymbolTableRecord
100
AcDbBlockTableRecord
  2
_Closed
340
0
  0
BLOCK_RECORD
  5
7B
330
1
100
AcDbSymbolTableRecord
100
AcDbBlockTableRecord
  2
a
340
0
102
{BLKREFS
331
8C
102
}
  0
BLOCK_RECORD
  5
8D
330
1
100
AcDbSymbolTableRecord
100
AcDbBlockTableRecord
  2
b
340
0
102
{BLKREFS
331
9C
102
}
  0
BLOCK_RECORD
  5
9D
330
1
100
AcDbSymbolTableRecord
100
AcDbBlockTableRecord
  2
c
340
0
102
{BLKREFS
331
AB
102
}
  0
BLOCK_RECORD
  5
AC
330
1
100
AcDbSymbolTableRecord
100
AcDbBlockTableRecord
  2
d
340
0
102
{BLKREFS
331
BF
102
}
  0
BLOCK_RECORD
  5
C0
330
1
100
AcDbSymbolTableRecord
100
AcDbBlockTableRecord
  2
e
340
0
102
{BLKREFS
331
CE
102
}
  0
ENDTAB
  0
ENDSEC
  0
SECTION
  2
BLOCKS
  0
BLOCK
  5
20
330
1F
100
AcDbEntity
  8
0
100
AcDbBlockBegin
  2
*Model_Space
 70
     0
 10
0.0
 20
0.0
 30
0.0
  3
*Model_Space
  1

  0
ENDBLK
  5
21
330
1F
100
AcDbEntity
  8
0
100
AcDbBlockEnd
  0
BLOCK
  5
1C
330
1B
100
AcDbEntity
 67
     1
  8
0
100
AcDbBlockBegin
  2
*Paper_Space
 70
     0
 10
0.0
 20
0.0
 30
0.0
  3
*Paper_Space
  1

  0
ENDBLK
  5
1D
330
1B
100
AcDbEntity
 67
     1
  8
0
100
AcDbBlockEnd
  0
BLOCK
  5
24
330
23
100
AcDbEntity
  8
0
100
AcDbBlockBegin
  2
*Paper_Space0
 70
     0
 10
0.0
 20
0.0
 30
0.0
  3
*Paper_Space0
  1

  0
ENDBLK
  5
25
330
23
100
AcDbEntity
  8
0
100
AcDbBlockEnd
  0
BLOCK
  5
73
330
72
100
AcDbEntity
  8
0
100
AcDbBlockBegin
  2
_Closed
 70
     0
 10
0.0
 20
0.0
 30
0.0
  3
_Closed
  1

  0
LINE
  5
75
330
72
100
AcDbEntity
  8
0
  6
ByBlock
 62
     0
370
    -2
100
AcDbLine
 10
-1.0
 20
0.166667
 30
0.0
 11
0.0
 21
0.0
 31
0.0
  0
LINE
  5
76
330
72
100
AcDbEntity
  8
0
  6
ByBlock
 62
     0
370
    -2
100
AcDbLine
 10
0.0
 20
0.0
 30
0.0
 11
-1.0
 21
-0.166667
 31
0.0
  0
LINE
  5
77
330
72
100
AcDbEntity
  8
0
  6
ByBlock
 62
     0
370
    -2
100
AcDbLine
 10
-1.0
 20
0.166667
 30
0.0
 11
-1.0
 21
-0.166667
 31
0.0
  0
LINE
  5
78
330
72
100
AcDbEntity
  8
0
  6
ByBlock
 62
     0
370
    -2
100
AcDbLine
 10
0.0
 20
0.0
 30
0.0
 11
-1.0
 21
0.0
 31
0.0
  0
ENDBLK
  5
74
330
72
100
AcDbEntity
  8
0
100
AcDbBlockEnd
  0
BLOCK
  5
8A
330
7B
100
AcDbEntity
  8
0
100
AcDbBlockBegin
  2
a
 70
     0
 10
25.707016
 20
124.147675
 30
0.0
  3
a
  1

  0
LINE
  5
7C
330
7B
100
AcDbEntity
  8
0
  6
Continuous
 62
     0
370
    30
100
AcDbLine
 10
636.568729
 20
817.355884
 30
0.0
 11
636.568726
 21
826.356712
 31
0.0
  0
SPLINE
  5
7D
330
7B
100
AcDbEntity
  8
0
  6
Continuous
 62
     0
370
    30
100
AcDbSpline
210
0.0
220
0.0
230
1.0
 70
     8
 71
     7
 72
    71
 73
    63
 74
     0
 42
0.000000001
 43
0.0
 40
0.1770177253840987
 40
0.1770177253840987
 40
0.1770177253840987
 40
0.1770177253840987
 40
0.1770177253840987
 40
0.1770177253840987
 40
0.1770177253840987
 40
0.1770177253840987
 40
0.18
 40
0.18
 40
0.18
 40
0.18
 40
0.18
 40
0.2071359999999999
 40
0.2071359999999999
 40
0.2071359999999999
 40
0.2071359999999999
 40
0.2071359999999999
 40
0.2312
 40
0.2312
 40
0.2312
 40
0.2312
 40
0.2312
 40
0.3548480000000001
 40
0.3548480000000001
 40
0.3548480000000001
 40
0.3548480000000001
 40
0.3548480000000001
 40
0.500000074586541
 40
0.500000074586541
 40
0.500000074586541
 40
0.500000074586541
 40
0.500000074586541
 40
0.5023804928
 40
0.5023804928
 40
0.5023804928
 40
0.5023804928
 40
0.5023804928
 40
0.5783820799999999
 40
0.5783820799999999
 40
0.5783820799999999
 40
0.5783820799999999
 40
0.5783820799999999
 40
0.645152
 40
0.645152
 40
0.645152
 40
0.645152
 40
0.645152
 40
0.7687999999999999
 40
0.7687999999999999
 40
0.7687999999999999
 40
0.7687999999999999
 40
0.7687999999999999
 40
0.7928639999999999
 40
0.7928639999999999
 40
0.7928639999999999
 40
0.7928639999999999
 40
0.7928639999999999
 40
0.82
 40
0.82
 40
0.82
 40
0.82
 40
0.82
 40
1.0
 40
1.0
 40
1.0
 40
1.0
 40
1.0
 40
1.0
 40
1.0
 40
1.0
 10
664.0687288021182
 20
826.3571817236118
 30
0.0
 10
664.0687288021204
 20
826.3788437051478
 30
0.0
 10
664.0687288021227
 20
826.4005056866879
 30
0.0
 10
664.068728802125
 20
826.422167668232
 30
0.0
 10
664.0687288021272
 20
826.4438296497801
 30
0.0
 10
664.0687288021296
 20
826.4654916313323
 30
0.0
 10
664.0687288021531
 20
826.6842580406194
 30
0.0
 10
664.0687288021797
 20
826.9030244502999
 30
0.0
 10
664.0693389096302
 20
827.1001222119143
 30
0.0
 10
664.0672825881577
 20
827.2972480801875
 30
0.0
 10
664.0700976253374
 20
827.4943255978832
 30
0.0
 10
664.0663657924954
 20
827.8662506110742
 30
0.0
 10
664.0725397166602
 20
828.2381026691828
 30
0.0
 10
664.0832770349188
 20
828.4127959239903
 30
0.0
 10
664.0933198818916
 20
828.5872252562939
 30
0.0
 10
664.1095030099065
 20
828.7613872216828
 30
0.0
 10
664.2282929145322
 20
829.8279534557039
 30
0.0
 10
664.4861818680719
 20
830.8760197372593
 30
0.0
 10
664.7954021572385
 20
831.7291762600191
 30
0.0
 10
665.2094002549669
 20
832.5370592741966
 30
0.0
 10
665.6971958464252
 20
833.3013143752931
 30
0.0
 10
666.9370770117896
 20
834.8252358635151
 30
0.0
 10
668.5098034285686
 20
836.0102888969643
 30
0.0
 10
669.4346522418649
 20
836.54313609678
 30
0.0
 10
670.4271165768525
 20
836.948406822092
 30
0.0
 10
671.4600396203863
 20
837.2175797271037
 30
0.0
 10
672.5317049617651
 20
837.3590072585177
 30
0.0
 10
673.603319712863
 20
837.3566728870604
 30
0.0
 10
673.6206099740784
 20
837.3565977558548
 30
0.0
 10
673.6379000322898
 20
837.3564851168528
 30
0.0
 10
673.6551897922977
 20
837.3563349275393
 30
0.0
 10
674.2244911037011
 20
837.3501516306383
 30
0.0
 10
674.793261964715
 20
837.3031586673305
 30
0.0
 10
675.3410874328731
 20
837.2188929357291
 30
0.0
 10
675.8825202984813
 20
837.1042177246384
 30
0.0
 10
676.4148354022284
 20
836.9488846066179
 30
0.0
 10
677.3909732201109
 20
836.5915280254313
 30
0.0
 10
678.3123199109345
 20
836.1114084570063
 30
0.0
 10
678.7293418407759
 20
835.8610392307701
 30
0.0
 10
679.1312833283321
 20
835.5871983880517
 30
0.0
 10
679.516575436855
 20
835.2903443625397
 30
0.0
 10
680.5619371608827
 20
834.3808524304346
 30
0.0
 10
681.4402669999488
 20
833.301306555327
 30
0.0
 10
681.9280616214824
 20
832.5370516468106
 30
0.0
 10
682.342058553001
 20
831.7291687899702
 30
0.0
 10
682.6512779149076
 20
830.876012731874
 30
0.0
 10
682.9091659411304
 20
829.8279471251626
 30
0.0
 10
683.0279551206191
 20
828.7613816841248
 30
0.0
 10
683.0441381405604
 20
828.5872198506461
 30
0.0
 10
683.0541808436067
 20
828.4127906535418
 30
0.0
 10
683.0649181434691
 20
828.2380975345324
 30
0.0
 10
683.0710917171024
 20
827.8662457739094
 30
0.0
 10
683.067359983577
 20
827.4943210622218
 30
0.0
 10
683.0701750589404
 20
827.2972437019245
 30
0.0
 10
683.0681186656803
 20
827.1001179925939
 30
0.0
 10
683.0687288017779
 20
826.9030203884143
 30
0.0
 10
683.0687288019627
 20
825.3984732821373
 30
0.0
 10
683.0687288020084
 20
823.8939261572516
 30
0.0
 10
683.06872880197
 20
822.5864832811615
 30
0.0
 10
683.0687288019683
 20
821.2790403743214
 30
0.0
 10
683.0687288019782
 20
819.9715974373102
 30
0.0
 10
683.0687288019791
 20
818.6641544796338
 30
0.0
 10
683.0687288019801
 20
817.3567115219573
 30
0.0
  0
SPLINE
  5
7E
330
7B
100
AcDbEntity
  8
0
  6
Continuous
 62
     0
370
    30
100
AcDbSpline
210
0.0
220
0.0
230
1.0
 70
     8
 71
     7
 72
    71
 73
    63
 74
     0
 42
0.000000001
 43
0.0
 40
0.0
 40
0.0
 40
0.0
 40
0.0
 40
0.0
 40
0.0
 40
0.0
 40
0.0
 40
0.18
 40
0.18
 40
0.18
 40
0.18
 40
0.18
 40
0.2071359999999999
 40
0.2071359999999999
 40
0.2071359999999999
 40
0.2071359999999999
 40
0.2071359999999999
 40
0.2312
 40
0.2312
 40
0.2312
 40
0.2312
 40
0.2312
 40
0.3548480000000001
 40
0.3548480000000001
 40
0.3548480000000001
 40
0.3548480000000001
 40
0.3548480000000001
 40
0.4216179200000001
 40
0.4216179200000001
 40
0.4216179200000001
 40
0.4216179200000001
 40
0.4216179200000001
 40
0.4976195072
 40
0.4976195072
 40
0.4976195072
 40
0.4976195072
 40
0.4976195072
 40
0.4999999254134589
 40
0.4999999254134589
 40
0.4999999254134589
 40
0.4999999254134589
 40
0.4999999254134589
 40
0.645152
 40
0.645152
 40
0.645152
 40
0.645152
 40
0.645152
 40
0.7687999999999999
 40
0.7687999999999999
 40
0.7687999999999999
 40
0.7687999999999999
 40
0.7687999999999999
 40
0.7928639999999999
 40
0.7928639999999999
 40
0.7928639999999999
 40
0.7928639999999999
 40
0.7928639999999999
 40
0.82
 40
0.82
 40
0.82
 40
0.82
 40
0.82
 40
0.8229515105357268
 40
0.8229515105357268
 40
0.8229515105357268
 40
0.8229515105357268
 40
0.8229515105357268
 40
0.8229515105357268
 40
0.8229515105357268
 40
0.8229515105357268
 10
683.0687288019801
 20
817.3567115219573
 30
0.0
 10
683.0687291586494
 20
816.0492685644913
 30
0.0
 10
683.0687295153186
 20
814.7418256070252
 30
0.0
 10
683.0687298719795
 20
813.4343826702245
 30
0.0
 10
683.0687302286511
 20
812.1269397635949
 30
0.0
 10
683.0687305853603
 20
810.8194968877153
 30
0.0
 10
683.0687309957544
 20
809.3149497630717
 30
0.0
 10
683.06873140601
 20
807.8104026570367
 30
0.0
 10
683.0681213236804
 20
807.6133050527225
 30
0.0
 10
683.070177770717
 20
807.4161793439846
 30
0.0
 10
683.0673627491162
 20
807.2191019829512
 30
0.0
 10
683.0710945841024
 20
806.8471772723414
 30
0.0
 10
683.06492111191
 20
806.4753255100941
 30
0.0
 10
683.0541838597043
 20
806.3006323881834
 30
0.0
 10
683.0441412042419
 20
806.1262031883675
 30
0.0
 10
683.0279582318126
 20
805.9520413505019
 30
0.0
 10
682.9091693432823
 20
804.8854758772288
 30
0.0
 10
682.6512816029717
 20
803.8374102003312
 30
0.0
 10
682.3420624738062
 20
802.9842540580136
 30
0.0
 10
681.928065762678
 20
802.1763710883602
 30
0.0
 10
681.4402713496332
 20
801.4121160468908
 30
0.0
 10
680.5619418050671
 20
800.3325699323383
 30
0.0
 10
679.5165803291487
 20
799.4230777151928
 30
0.0
 10
679.1312883016076
 20
799.1262235846165
 30
0.0
 10
678.7293468887551
 20
798.8523826322878
 30
0.0
 10
678.3123250272147
 20
798.6020132923236
 30
0.0
 10
677.3909784673676
 20
798.1218934726218
 30
0.0
 10
676.4148407469719
 20
797.764536625191
 30
0.0
 10
675.8825256855996
 20
797.6092033619739
 30
0.0
 10
675.3410928512751
 20
797.4945280031925
 30
0.0
 10
674.7932674061046
 20
797.4102621221514
 30
0.0
 10
674.22449655791
 20
797.363269003684
 30
0.0
 10
673.6551952481935
 20
797.3570855514721
 30
0.0
 10
673.6379054882268
 20
797.3569353574416
 30
0.0
 10
673.6206154300461
 20
797.3568227137227
 30
0.0
 10
673.6033251688516
 20
797.3567475778001
 30
0.0
 10
672.5317104183903
 20
797.3544129139942
 30
0.0
 10
671.4600450384302
 20
797.4958401530229
 30
0.0
 10
670.4271219214659
 20
797.7650127761979
 30
0.0
 10
669.4346574759204
 20
798.1702832306888
 30
0.0
 10
668.5098085172635
 20
798.7031301781094
 30
0.0
 10
666.9370817772024
 20
799.8881827823099
 30
0.0
 10
665.6972001961121
 20
801.4121039320326
 30
0.0
 10
665.2094043961649
 20
802.1763588999298
 30
0.0
 10
664.7954060780464
 20
802.9842418010338
 30
0.0
 10
664.4861855561388
 20
803.8373982392975
 30
0.0
 10
664.2282963166865
 20
804.8854644503292
 30
0.0
 10
664.1095061211018
 20
805.9520306517713
 30
0.0
 10
664.0933229455756
 20
806.1261926127171
 30
0.0
 10
664.0832800510186
 20
806.300621942253
 30
0.0
 10
664.0725426851036
 20
806.475315194103
 30
0.0
 10
664.0663686594975
 20
806.8471672504674
 30
0.0
 10
664.0701003908783
 20
807.2190922646167
 30
0.0
 10
664.0672852999361
 20
807.4161697815127
 30
0.0
 10
664.0693415676326
 20
807.6132956503152
 30
0.0
 10
664.0687314064137
 20
807.8103934117315
 30
0.0
 10
664.0687313467687
 20
808.0289363641086
 30
0.0
 10
664.0687312871266
 20
808.2474793160932
 30
0.0
 10
664.068731281276
 20
808.2689178403742
 30
0.0
 10
664.0687312754253
 20
808.2903563646513
 30
0.0
 10
664.0687312695746
 20
808.3117948889246
 30
0.0
 10
664.068731263724
 20
808.3332334131939
 30
0.0
 10
664.0687312578733
 20
808.3546719374592
 30
0.0
  0
SPLINE
  5
7F
330
7B
100
AcDbEntity
  8
0
  6
Continuous
 62
     0
370
    30
100
AcDbSpline
210
0.0
220
0.0
230
1.0
 70
     8
 71
     3
 72
    33
 73
    29
 74
     0
 42
0.000000001
 43
0.0
 40
17.4156855418789
 40
17.4156855418789
 40
17.4156855418789
 40
17.4156855418789
 40
17.60265511854068
 40
18.06081823875501
 40
19.14000556467881
 40
19.99987494576348
 40
21.06525219573881
 40
21.75695723388174
 40
22.03205291350404
 40
22.16726929984814
 40
22.57137422976543
 40
22.70557205475314
 40
22.83832851037809
 40
22.9729823399527
 40
23.24877796906872
 40
23.5147009789061
 40
23.65443348744797
 40
23.98178622864392
 40
24.15628405393089
 40
24.85431940937037
 40
25.55254953033635
 40
27.66937744003032
 40
29.7873455846461
 40
32.96199361886089
 40
36.13669901144989
 40
40.89595589855045
 40
45.64953276835587
 40
53.22841510658383
 40
53.22841510658383
 40
53.22841510658383
 40
53.22841510658383
 10
669.6596798705561
 20
808.1354983019658
 30
0.0
 10
669.6596825936418
 20
808.135511061889
 30
0.0
 10
669.6560125048477
 20
808.1363403419402
 30
0.0
 10
669.6067722848338
 20
808.1459604294372
 30
0.0
 10
669.4182308945005
 20
808.1770872670575
 30
0.0
 10
668.9867225780412
 20
808.2292374876704
 30
0.0
 10
668.4558426459273
 20
808.2761020538228
 30
0.0
 10
667.9505793799079
 20
808.3068403036325
 30
0.0
 10
667.6531464764082
 20
808.3208518380981
 30
0.0
 10
667.4264938598611
 20
808.3302727315264
 30
0.0
 10
667.2323193293892
 20
808.3369825690863
 30
0.0
 10
667.0319342159082
 20
808.3424929228433
 30
0.0
 10
666.9122785058845
 20
808.3453620463863
 30
0.0
 10
666.7447748503846
 20
808.3487809207326
 30
0.0
 10
666.5314133042248
 20
808.3521732384402
 30
0.0
 10
666.319747610984
 20
808.354010707033
 30
0.0
 10
666.081162848878
 20
808.3547037628289
 30
0.0
 10
665.8661014206973
 20
808.3546105344346
 30
0.0
 10
665.4664714461666
 20
808.3546480651011
 30
0.0
 10
664.9426640423916
 20
808.35464351509
 30
0.0
 10
663.7717478736431
 20
808.3546833265049
 30
0.0
 10
662.127330927963
 20
808.3547202643182
 30
0.0
 10
659.6575448720204
 20
808.3547876895407
 30
0.0
 10
656.8350932762911
 20
808.3548607212023
 30
0.0
 10
653.1322268705986
 20
808.3549551033526
 30
0.0
 10
648.9030457250938
 20
808.3550553869119
 30
0.0
 10
643.2058075233223
 20
808.3551700227775
 30
0.0
 10
639.0949876292589
 20
808.3552310972186
 30
0.0
 10
636.5686935165938
 20
808.3552498121421
 30
0.0
  0
SPLINE
  5
80
330
7B
100
AcDbEntity
  8
0
  6
Continuous
 62
     0
370
    30
100
AcDbSpline
210
0.0
220
0.0
230
1.0
 70
     8
 71
     3
 72
    34
 73
    30
 74
     0
 42
0.000000001
 43
0.0
 40
17.41591316314825
 40
17.41591316314825
 40
17.41591316314825
 40
17.41591316314825
 40
17.57824467710183
 40
18.03779796623917
 40
19.11887399666861
 40
19.97766021231259
 40
21.0417120258454
 40
21.73244832181591
 40
22.007146745217
 40
22.14216064694933
 40
22.54564671775696
 40
22.67967527454454
 40
22.81234988830133
 40
22.94625503931582
 40
23.22103743070873
 40
23.48563052601027
 40
23.62227240794681
 40
23.77290561668448
 40
23.94100201250566
 40
24.11459099151595
 40
24.8084594704743
 40
25.50252106830311
 40
27.49852145512353
 40
29.49556729044533
 40
32.48910215971006
 40
35.48286986479362
 40
39.97088695976496
 40
44.45424619571686
 40
53.22715451254256
 40
53.22715451254256
 40
53.22715451254256
 40
53.22715451254256
 10
669.6593936714359
 20
826.5763591622256
 30
0.0
 10
669.6593961591061
 20
826.5763474322296
 30
0.0
 10
669.6562614617063
 20
826.5756356601676
 30
0.0
 10
669.6101078470061
 20
826.5665525088496
 30
0.0
 10
669.4248802892581
 20
826.5357590654601
 30
0.0
 10
668.997487104919
 20
826.4837708416511
 30
0.0
 10
668.4706153406228
 20
826.4368857024715
 30
0.0
 10
667.9682961220872
 20
826.4059960742395
 30
0.0
 10
667.6724010063484
 20
826.3918667394584
 30
0.0
 10
667.4468710989674
 20
826.382348498956
 30
0.0
 10
667.253577343178
 20
826.3755443926224
 30
0.0
 10
667.054009067049
 20
826.3699321112325
 30
0.0
 10
666.9347397668412
 20
826.3669893573441
 30
0.0
 10
666.768939057149
 20
826.363502576305
 30
0.0
 10
666.5562521545786
 20
826.3600009082403
 30
0.0
 10
666.3464684663353
 20
826.3580065035195
 30
0.0
 10
666.1683167289807
 20
826.3573542817134
 30
0.0
 10
666.0172213228443
 20
826.3572120308548
 30
0.0
 10
665.8529809359654
 20
826.3572237250986
 30
0.0
 10
665.5078618901682
 20
826.3572096622719
 30
0.0
 10
664.9873055608439
 20
826.35720344747
 30
0.0
 10
663.85935423287
 20
826.3571762626442
 30
0.0
 10
662.2969688951714
 20
826.3571433918593
 30
0.0
 10
659.9681146290972
 20
826.3570909963
 30
0.0
 10
657.3066628024287
 20
826.3570323227824
 30
0.0
 10
653.8148903673529
 20
826.3569572612624
 30
0.0
 10
649.8265087189409
 20
826.3568773482488
 30
0.0
 10
643.9117472835748
 20
826.3567774552095
 30
0.0
 10
639.4929913912443
 20
826.3567259343678
 30
0.0
 10
636.5686886189967
 20
826.3567162820606
 30
0.0
  0
SPLINE
  5
81
330
7B
100
AcDbEntity
  8
0
  6
Continuous
 62
     0
370
    30
100
AcDbSpline
210
0.0
220
0.0
230
1.0
 70
     8
 71
     7
 72
    71
 73
    63
 74
     0
 42
0.000000001
 43
0.0
 40
0.0
 40
0.0
 40
0.0
 40
0.0
 40
0.0
 40
0.0
 40
0.0
 40
0.0
 40
0.18
 40
0.18
 40
0.18
 40
0.18
 40
0.18
 40
0.2071359999999999
 40
0.2071359999999999
 40
0.2071359999999999
 40
0.2071359999999999
 40
0.2071359999999999
 40
0.2312
 40
0.2312
 40
0.2312
 40
0.2312
 40
0.2312
 40
0.3548480000000001
 40
0.3548480000000001
 40
0.3548480000000001
 40
0.3548480000000001
 40
0.3548480000000001
 40
0.4216179200000001
 40
0.4216179200000001
 40
0.4216179200000001
 40
0.4216179200000001
 40
0.4216179200000001
 40
0.4976195072
 40
0.4976195072
 40
0.4976195072
 40
0.4976195072
 40
0.4976195072
 40
0.4999999254134589
 40
0.4999999254134589
 40
0.4999999254134589
 40
0.4999999254134589
 40
0.4999999254134589
 40
0.645152
 40
0.645152
 40
0.645152
 40
0.645152
 40
0.645152
 40
0.7687999999999999
 40
0.7687999999999999
 40
0.7687999999999999
 40
0.7687999999999999
 40
0.7687999999999999
 40
0.7928639999999999
 40
0.7928639999999999
 40
0.7928639999999999
 40
0.7928639999999999
 40
0.7928639999999999
 40
0.82
 40
0.82
 40
0.82
 40
0.82
 40
0.82
 40
0.8229515105357268
 40
0.8229515105357268
 40
0.8229515105357268
 40
0.8229515105357268
 40
0.8229515105357268
 40
0.8229515105357268
 40
0.8229515105357268
 40
0.8229515105357268
 10
64.06872880240529
 20
817.3537586650497
 30
0.0
 10
64.06872844573587
 20
818.6612016225157
 30
0.0
 10
64.06872808906655
 20
819.9686445799817
 30
0.0
 10
64.06872773240593
 20
821.2760875167825
 30
0.0
 10
64.06872737573403
 20
822.5835304234122
 30
0.0
 10
64.06872701902509
 20
823.8909732992918
 30
0.0
 10
64.06872660863078
 20
825.3955204239354
 30
0.0
 10
64.06872619837517
 20
826.9000675299703
 30
0.0
 10
64.06933628070468
 20
827.0971651342845
 30
0.0
 10
64.06727983366837
 20
827.2942908430225
 30
0.0
 10
64.07009485526916
 20
827.4913682040559
 30
0.0
 10
64.06636302028282
 20
827.8632929146657
 30
0.0
 10
64.07253649247518
 20
828.2351446769129
 30
0.0
 10
64.08327374468112
 20
828.4098377988237
 30
0.0
 10
64.0933164001433
 20
828.5842669986396
 30
0.0
 10
64.10949937257284
 20
828.7584288365051
 30
0.0
 10
64.2282882611028
 20
829.8249943097783
 30
0.0
 10
64.48617600141357
 20
830.8730599866759
 30
0.0
 10
64.79539513057901
 20
831.7262161289934
 30
0.0
 10
65.20939184170743
 20
832.534099098647
 30
0.0
 10
65.69718625475215
 20
833.2983541401162
 30
0.0
 10
66.57551579931817
 20
834.3779002546687
 30
0.0
 10
67.62087727523655
 20
835.2873924718142
 30
0.0
 10
68.00616930277778
 20
835.5842466023905
 30
0.0
 10
68.40811071563027
 20
835.8580875547192
 30
0.0
 10
68.8251325771706
 20
836.1084568946835
 30
0.0
 10
69.7464791370177
 20
836.5885767143852
 30
0.0
 10
70.72261685741341
 20
836.945933561816
 30
0.0
 10
71.25493191878556
 20
837.1012668250332
 30
0.0
 10
71.79636475311011
 20
837.2159421838146
 30
0.0
 10
72.34419019828064
 20
837.3002080648556
 30
0.0
 10
72.91296104647515
 20
837.3472011833231
 30
0.0
 10
73.4822623561916
 20
837.353384635535
 30
0.0
 10
73.49955211615844
 20
837.3535348295654
 30
0.0
 10
73.51684217433917
 20
837.3536474732842
 30
0.0
 10
73.53413243553399
 20
837.3537226092069
 30
0.0
 10
74.60574718599514
 20
837.3560572730128
 30
0.0
 10
75.67741256595532
 20
837.2146300339842
 30
0.0
 10
76.71033568291938
 20
836.9454574108092
 30
0.0
 10
77.70280012846496
 20
836.5401869563182
 30
0.0
 10
78.62764908712182
 20
836.0073400088977
 30
0.0
 10
80.20037582718301
 20
834.8222874046971
 30
0.0
 10
81.44025740827317
 20
833.2983662549744
 30
0.0
 10
81.92805320822025
 20
832.5341112870773
 30
0.0
 10
82.34205152633885
 20
831.7262283859732
 30
0.0
 10
82.6512720482464
 20
830.8730719477095
 30
0.0
 10
82.90916128769871
 20
829.8250057366779
 30
0.0
 10
83.02795148328349
 20
828.7584395352357
 30
0.0
 10
83.04413465880981
 20
828.5842775742899
 30
0.0
 10
83.05417755336673
 20
828.4098482447541
 30
0.0
 10
83.06491491928173
 20
828.2351549929041
 30
0.0
 10
83.07108894488783
 20
827.8633029365396
 30
0.0
 10
83.06735721350677
 20
827.4913779223903
 30
0.0
 10
83.07017230444939
 20
827.2943004054943
 30
0.0
 10
83.06811603675261
 20
827.0971745366919
 30
0.0
 10
83.06872619797154
 20
826.9000767752756
 30
0.0
 10
83.06872625761656
 20
826.6815338228984
 30
0.0
 10
83.06872631725867
 20
826.4629908709138
 30
0.0
 10
83.06872632310937
 20
826.4415523466328
 30
0.0
 10
83.06872632896005
 20
826.4201138223557
 30
0.0
 10
83.0687263348107
 20
826.3986752980825
 30
0.0
 10
83.06872634066133
 20
826.3772367738133
 30
0.0
 10
83.06872634651194
 20
826.3557982495479
 30
0.0
  0
LINE
  5
82
330
7B
100
AcDbEntity
  8
0
  6
Continuous
 62
     0
370
    30
100
AcDbLine
 10
110.568729
 20
817.354586
 30
0.0
 11
110.568731
 21
808.353759
 31
0.0
  0
SPLINE
  5
83
330
7B
100
AcDbEntity
  8
0
  6
Continuous
 62
     0
370
    30
100
AcDbSpline
210
0.0
220
0.0
230
1.0
 70
     8
 71
     7
 72
    71
 73
    63
 74
     0
 42
0.000000001
 43
0.0
 40
0.1770177253840994
 40
0.1770177253840994
 40
0.1770177253840994
 40
0.1770177253840994
 40
0.1770177253840994
 40
0.1770177253840994
 40
0.1770177253840994
 40
0.1770177253840994
 40
0.18
 40
0.18
 40
0.18
 40
0.18
 40
0.18
 40
0.2071359999999999
 40
0.2071359999999999
 40
0.2071359999999999
 40
0.2071359999999999
 40
0.2071359999999999
 40
0.2312
 40
0.2312
 40
0.2312
 40
0.2312
 40
0.2312
 40
0.3548480000000001
 40
0.3548480000000001
 40
0.3548480000000001
 40
0.3548480000000001
 40
0.3548480000000001
 40
0.500000074586541
 40
0.500000074586541
 40
0.500000074586541
 40
0.500000074586541
 40
0.500000074586541
 40
0.5023804928
 40
0.5023804928
 40
0.5023804928
 40
0.5023804928
 40
0.5023804928
 40
0.5783820799999999
 40
0.5783820799999999
 40
0.5783820799999999
 40
0.5783820799999999
 40
0.5783820799999999
 40
0.645152
 40
0.645152
 40
0.645152
 40
0.645152
 40
0.645152
 40
0.7687999999999999
 40
0.7687999999999999
 40
0.7687999999999999
 40
0.7687999999999999
 40
0.7687999999999999
 40
0.7928639999999999
 40
0.7928639999999999
 40
0.7928639999999999
 40
0.7928639999999999
 40
0.7928639999999999
 40
0.82
 40
0.82
 40
0.82
 40
0.82
 40
0.82
 40
1.0
 40
1.0
 40
1.0
 40
1.0
 40
1.0
 40
1.0
 40
1.0
 40
1.0
 10
83.06872880226706
 20
808.3532884633954
 30
0.0
 10
83.06872880226486
 20
808.3316264818594
 30
0.0
 10
83.06872880226263
 20
808.3099645003192
 30
0.0
 10
83.06872880226038
 20
808.288302518775
 30
0.0
 10
83.0687288022581
 20
808.2666405372269
 30
0.0
 10
83.06872880225578
 20
808.2449785556747
 30
0.0
 10
83.06872880223217
 20
808.0262121463877
 30
0.0
 10
83.06872880220564
 20
807.8074457367072
 30
0.0
 10
83.06811869475499
 20
807.6103479750927
 30
0.0
 10
83.07017501622767
 20
807.4132221068196
 30
0.0
 10
83.06735997904778
 20
807.2161445891238
 30
0.0
 10
83.07109181188994
 20
806.8442195759328
 30
0.0
 10
83.06491788772507
 20
806.4723675178242
 30
0.0
 10
83.05418056946635
 20
806.2976742630167
 30
0.0
 10
83.04413772249376
 20
806.1232449307131
 30
0.0
 10
83.02795459447881
 20
805.9490829653244
 30
0.0
 10
82.90916468985321
 20
804.8825167313032
 30
0.0
 10
82.6512757363133
 20
803.8344504497478
 30
0.0
 10
82.34205544714676
 20
802.9812939269879
 30
0.0
 10
81.92805734941857
 20
802.1734109128104
 30
0.0
 10
81.44026175796017
 20
801.4091558117138
 30
0.0
 10
80.20038059259564
 20
799.8852343234919
 30
0.0
 10
78.62765417581676
 20
798.7001812900427
 30
0.0
 10
77.70280536252056
 20
798.1673340902271
 30
0.0
 10
76.71034102753273
 20
797.762063364915
 30
0.0
 10
75.67741798399899
 20
797.4928904599034
 30
0.0
 10
74.60575264262019
 20
797.3514629284892
 30
0.0
 10
73.5341378915222
 20
797.3537972999466
 30
0.0
 10
73.51684763030687
 20
797.3538724311522
 30
0.0
 10
73.49955757209541
 20
797.3539850701542
 30
0.0
 10
73.4822678120876
 20
797.3541352594679
 30
0.0
 10
72.91296650068429
 20
797.3603185563687
 30
0.0
 10
72.34419563967015
 20
797.4073115196765
 30
0.0
 10
71.7963701715119
 20
797.4915772512779
 30
0.0
 10
71.25493730590397
 20
797.6062524623686
 30
0.0
 10
70.72262220215683
 20
797.7615855803892
 30
0.0
 10
69.74648438427431
 20
798.1189421615758
 30
0.0
 10
68.82513769345067
 20
798.5990617300008
 30
0.0
 10
68.40811576360946
 20
798.8494309562369
 30
0.0
 10
68.00617427605327
 20
799.1232717989553
 30
0.0
 10
67.62088216753024
 20
799.4201258244673
 30
0.0
 10
66.57552044350254
 20
800.3296177565724
 30
0.0
 10
65.69719060443646
 20
801.40916363168
 30
0.0
 10
65.20939598290296
 20
802.1734185401964
 30
0.0
 10
64.79539905138424
 20
802.9813013970369
 30
0.0
 10
64.48617968947786
 20
803.8344574551331
 30
0.0
 10
64.22829166325498
 20
804.8825230618445
 30
0.0
 10
64.10950248376601
 20
805.9490885028823
 30
0.0
 10
64.09331946382497
 20
806.1232503363609
 30
0.0
 10
64.08327676077863
 20
806.2976795334652
 30
0.0
 10
64.0725394609164
 20
806.4723726524746
 30
0.0
 10
64.06636588728296
 20
806.8442244130975
 30
0.0
 10
64.07009762080821
 20
807.2161491247853
 30
0.0
 10
64.0672825454447
 20
807.4132264850825
 30
0.0
 10
64.0693389387051
 20
807.610352194413
 30
0.0
 10
64.06872880260741
 20
807.8074497985926
 30
0.0
 10
64.0687288024227
 20
809.3119969048697
 30
0.0
 10
64.06872880237677
 20
810.8165440297555
 30
0.0
 10
64.06872880241536
 20
812.1239869058456
 30
0.0
 10
64.06872880241693
 20
813.4314298126857
 30
0.0
 10
64.06872880240712
 20
814.7388727496968
 30
0.0
 10
64.06872880240621
 20
816.0463157073733
 30
0.0
 10
64.06872880240529
 20
817.3537586650497
 30
0.0
  0
SPLINE
  5
84
330
7B
100
AcDbEntity
  8
0
  6
Continuous
 62
     0
370
    30
100
AcDbSpline
210
0.0
220
0.0
230
1.0
 70
     8
 71
     3
 72
    34
 73
    30
 74
     0
 42
0.000000001
 43
0.0
 40
17.41591316336653
 40
17.41591316336653
 40
17.41591316336653
 40
17.41591316336653
 40
17.57824467098947
 40
18.0377979604661
 40
19.11887399136381
 40
19.9776602067418
 40
21.04171201996026
 40
21.73244831571114
 40
22.0071467390219
 40
22.14216064070773
 40
22.54564671137328
 40
22.67967526811242
 40
22.81234988187567
 40
22.94625503270193
 40
23.22103742375197
 40
23.48563051871054
 40
23.62227239987324
 40
23.77290560732373
 40
23.94100200202187
 40
24.11459098075337
 40
24.80845945849811
 40
25.50252105511291
 40
27.4985214108961
 40
29.49556721515726
 40
32.4891020378959
 40
35.48286969649331
 40
39.97088672178216
 40
44.45424588830559
 40
53.22715451255909
 40
53.22715451255909
 40
53.22715451255909
 40
53.22715451255909
 10
77.47806393292454
 20
808.134111024778
 30
0.0
 10
77.47806144525443
 20
808.1341227547736
 30
0.0
 10
77.48119614251793
 20
808.1348345268054
 30
0.0
 10
77.52734975641435
 20
808.1439176779826
 30
0.0
 10
77.71257731329658
 20
808.1747111212841
 30
0.0
 10
78.13997049655995
 20
808.2266993450494
 30
0.0
 10
78.66684225982854
 20
808.273584484235
 30
0.0
 10
79.16916147761656
 20
808.304474112507
 30
0.0
 10
79.46505659297141
 20
808.3186034473192
 30
0.0
 10
79.69058650006923
 20
808.328121687847
 30
0.0
 10
79.88388025565436
 20
808.3349257942057
 30
0.0
 10
80.08344853155002
 20
808.3405380756213
 30
0.0
 10
80.2027178317009
 20
808.3434808295298
 30
0.0
 10
80.3685185409212
 20
808.3469676105859
 30
0.0
 10
80.58120544327738
 20
808.3504692786778
 30
0.0
 10
80.79098913104025
 20
808.3524636834401
 30
0.0
 10
80.96914086726724
 20
808.3531159052765
 30
0.0
 10
81.1202362722096
 20
808.353258156151
 30
0.0
 10
81.28447665820813
 20
808.3532464619086
 30
0.0
 10
81.62959570312512
 20
808.3532605247343
 30
0.0
 10
82.15015203155392
 20
808.353266739537
 30
0.0
 10
83.27810334836943
 20
808.3532939243621
 30
0.0
 10
84.84048866496614
 20
808.3533267951469
 30
0.0
 10
87.16934289483171
 20
808.3533791907053
 30
0.0
 10
89.83079468014269
 20
808.353437864222
 30
0.0
 10
93.32256706098686
 20
808.3535129257409
 30
0.0
 10
97.31094864753305
 20
808.3535928387537
 30
0.0
 10
103.2257101390049
 20
808.3536927317953
 30
0.0
 10
107.6444661106685
 20
808.3537442526389
 30
0.0
 10
110.568768985392
 20
808.3537539049465
 30
0.0
  0
SPLINE
  5
85
330
7B
100
AcDbEntity
  8
0
  6
Continuous
 62
     0
370
    30
100
AcDbSpline
210
0.0
220
0.0
230
1.0
 70
     8
 71
     3
 72
    33
 73
    29
 74
     0
 42
0.000000001
 43
0.0
 40
17.4156855418039
 40
17.4156855418039
 40
17.4156855418039
 40
17.4156855418039
 40
17.60265511619088
 40
18.06081823651953
 40
19.14000556259095
 40
19.99987494357194
 40
21.06525219342067
 40
21.75695723146604
 40
22.03205291104841
 40
22.16726929737207
 40
22.57137422722701
 40
22.70557205220632
 40
22.83832850781029
 40
22.97298233730905
 40
23.24877796635815
 40
23.51470097606317
 40
23.65443348428115
 40
23.98178622467531
 40
24.15628404988119
 40
24.85431940495536
 40
25.55254952555611
 40
27.66937742282416
 40
29.7873455550045
 40
32.9619935705943
 40
36.13669894457815
 40
40.89595580378687
 40
45.64953264580844
 40
53.22841510660584
 40
53.22841510660584
 40
53.22841510660584
 40
53.22841510660584
 10
77.47777773381864
 20
826.5749718850429
 30
0.0
 10
77.47777501073091
 20
826.5749591251202
 30
0.0
 10
77.48144509946799
 20
826.5741298450814
 30
0.0
 10
77.53068531917046
 20
826.5645097576386
 30
0.0
 10
77.71922670916109
 20
826.5333829200529
 30
0.0
 10
78.15073502519436
 20
826.4812326994571
 30
0.0
 10
78.68161495690097
 20
826.4343681333022
 30
0.0
 10
79.18687822262315
 20
826.4036298834766
 30
0.0
 10
79.4843111259658
 20
826.3896183489987
 30
0.0
 10
79.7109637424
 20
826.3801974555603
 30
0.0
 10
79.9051382727726
 20
826.3734876179909
 30
0.0
 10
80.10552338619313
 20
826.3679772642228
 30
0.0
 10
80.22517909615625
 20
826.3651081406726
 30
0.0
 10
80.39268275149828
 20
826.361689266319
 30
0.0
 10
80.60604429761138
 20
826.3582969485998
 30
0.0
 10
80.81770999064709
 20
826.3564594799902
 30
0.0
 10
81.05629475216789
 20
826.3557664241795
 30
0.0
 10
81.27135617995938
 20
826.3558596525723
 30
0.0
 10
81.67098615406957
 20
826.3558221219062
 30
0.0
 10
82.19479355757703
 20
826.3558266719173
 30
0.0
 10
83.36570972193873
 20
826.3557868605025
 30
0.0
 10
85.01012665921054
 20
826.3557499226893
 30
0.0
 10
87.47991270065774
 20
826.3556824974672
 30
0.0
 10
90.3023642798315
 20
826.3556094658061
 30
0.0
 10
94.00523066381693
 20
826.3555150836562
 30
0.0
 10
98.23441178456153
 20
826.3554148000973
 30
0.0
 10
103.9316500086308
 20
826.3553001642306
 30
0.0
 10
108.0424699342894
 20
826.3552390897887
 30
0.0
 10
110.5687640878109
 20
826.355220374865
 30
0.0
  0
LINE
  5
86
330
7B
100
AcDbEntity
  8
0
  6
Continuous
 62
     0
370
    30
100
AcDbLine
 10
110.568729
 20
826.355235
 30
0.0
 11
110.568729
 21
817.354532
 31
0.0
  0
LINE
  5
87
330
7B
100
AcDbEntity
  8
0
  6
Continuous
 62
     0
370
    30
100
AcDbLine
 10
110.568729
 20
826.355235
 30
0.0
 11
636.568726
 21
826.355235
 31
0.0
  0
LINE
  5
88
330
7B
100
AcDbEntity
  8
0
  6
Continuous
 62
     0
370
    30
100
AcDbLine
 10
636.568726
 20
808.355235
 30
0.0
 11
636.568726
 21
817.355939
 31
0.0
  0
LINE
  5
89
330
7B
100
AcDbEntity
  8
0
  6
Continuous
 62
     0
370
    30
100
AcDbLine
 10
110.568729
 20
808.355235
 30
0.0
 11
636.568726
 21
808.355235
 31
0.0
  0
ENDBLK
  5
8B
330
7B
100
AcDbEntity
  8
0
100
AcDbBlockEnd
  0
BLOCK
  5
9A
330
8D
100
AcDbEntity
  8
0
100
AcDbBlockBegin
  2
b
 70
     0
 10
303.908066
 20
581.888123
 30
0.0
  3
b
  1

  0
SPLINE
  5
8E
330
8D
100
AcDbEntity
  8
0
  6
Continuous
 62
     0
370
    30
100
AcDbSpline
210
0.0
220
0.0
230
1.0
 70
     8
 71
     7
 72
   116
 73
   108
 74
     0
 42
0.000000001
 43
0.0
 40
0.0000000000000001
 40
0.0000000000000001
 40
0.0000000000000001
 40
0.0000000000000001
 40
0.0000000000000001
 40
0.0000000000000001
 40
0.0000000000000001
 40
0.0000000000000001
 40
0.472392
 40
0.472392
 40
0.472392
 40
0.472392
 40
0.472392
 40
0.5474578511451741
 40
0.5474578511451741
 40
0.5474578511451741
 40
0.5474578511451741
 40
0.5474578511451741
 40
0.55106568
 40
0.55106568
 40
0.55106568
 40
0.55106568
 40
0.55106568
 40
0.5546004552000001
 40
0.5546004552000001
 40
0.5546004552000001
 40
0.5546004552000001
 40
0.5546004552000001
 40
0.5581352303999999
 40
0.5581352303999999
 40
0.5581352303999999
 40
0.5581352303999999
 40
0.5581352303999999
 40
0.5832
 40
0.5832
 40
0.5832
 40
0.5832
 40
0.5832
 40
0.60913728
 40
0.60913728
 40
0.60913728
 40
0.60913728
 40
0.60913728
 40
0.6160319999999999
 40
0.6160319999999999
 40
0.6160319999999999
 40
0.6160319999999999
 40
0.6160319999999999
 40
0.6220205567999999
 40
0.6220205567999999
 40
0.6220205567999999
 40
0.6220205567999999
 40
0.6220205567999999
 40
0.6280091136
 40
0.6280091136
 40
0.6280091136
 40
0.6280091136
 40
0.6280091136
 40
0.63474624
 40
0.63474624
 40
0.63474624
 40
0.63474624
 40
0.63474624
 40
0.65082544015104
 40
0.65082544015104
 40
0.65082544015104
 40
0.65082544015104
 40
0.65082544015104
 40
0.6520357025280001
 40
0.6520357025280001
 40
0.6520357025280001
 40
0.6520357025280001
 40
0.6520357025280001
 40
0.6569122175999998
 40
0.6569122175999998
 40
0.6569122175999998
 40
0.6569122175999998
 40
0.6569122175999998
 40
0.706120687872
 40
0.706120687872
 40
0.706120687872
 40
0.706120687872
 40
0.706120687872
 40
0.72
 40
0.72
 40
0.72
 40
0.72
 40
0.72
 40
0.7604838
 40
0.7604838
 40
0.7604838
 40
0.7604838
 40
0.7604838
 40
0.7636272479999999
 40
0.7636272479999999
 40
0.7636272479999999
 40
0.7636272479999999
 40
0.7636272479999999
 40
0.767628
 40
0.767628
 40
0.767628
 40
0.767628
 40
0.767628
 40
0.7787999999999999
 40
0.7787999999999999
 40
0.7787999999999999
 40
0.7787999999999999
 40
0.7787999999999999
 40
0.96096922692471
 40
0.96096922692471
 40
0.96096922692471
 40
0.96096922692471
 40
0.96096922692471
 40
0.96096922692471
 40
0.96096922692471
 40
0.96096922692471
 10
664.0687516901637
 20
639.6283929543489
 30
0.0
 10
664.1303861814978
 20
632.2322539819135
 30
0.0
 10
664.1920206728314
 20
624.836115009478
 30
0.0
 10
664.2569244588425
 20
617.0476606751441
 30
0.0
 10
664.3240683669285
 20
608.9903916913948
 30
0.0
 10
664.3902495328011
 20
601.0486517734062
 30
0.0
 10
664.4620630380527
 20
592.4310311288057
 30
0.0
 10
664.5266368394016
 20
584.682174954018
 30
0.0
 10
664.5353501807019
 20
583.6365739962288
 30
0.0
 10
664.543919295553
 20
582.6082802123782
 30
0.0
 10
664.552342324936
 20
581.5975166847211
 30
0.0
 10
664.5610169732256
 20
580.5565588882461
 30
0.0
 10
664.5695330977694
 20
579.5346239412376
 30
0.0
 10
664.5699232982621
 20
579.4877998820708
 30
0.0
 10
664.5703131658088
 20
579.4410157763812
 30
0.0
 10
664.5707027006382
 20
579.3942715967795
 30
0.0
 10
664.5714732245185
 20
579.3018087309789
 30
0.0
 10
664.5722424462552
 20
579.209502122433
 30
0.0
 10
664.5726228046951
 20
579.1638591095591
 30
0.0
 10
664.5730028447018
 20
579.1182543086661
 30
0.0
 10
664.5733825665286
 20
579.0726876893918
 30
0.0
 10
664.5741413743465
 20
578.9816307511103
 30
0.0
 10
664.5748989115798
 20
578.8907262829694
 30
0.0
 10
664.5750262876215
 20
578.84531042145
 30
0.0
 10
664.5761808323925
 20
578.7999396393426
 30
0.0
 10
664.5756607305424
 20
578.7545953611649
 30
0.0
 10
664.5821413667157
 20
578.3881005214021
 30
0.0
 10
664.5573102974247
 20
578.0238665055153
 30
0.0
 10
664.5119972545479
 20
577.7085372850612
 30
0.0
 10
664.4438652992127
 20
577.3991291284816
 30
0.0
 10
664.353848916069
 20
577.0975284913633
 30
0.0
 10
664.1283942769838
 20
576.5032135664406
 30
0.0
 10
663.822008065865
 20
575.9547267248915
 30
0.0
 10
663.6479331228793
 20
575.6904789546348
 30
0.0
 10
663.4504613073401
 20
575.436588125744
 30
0.0
 10
663.2449991270857
 20
575.2065831613234
 30
0.0
 10
662.9596626123388
 20
574.9313555577386
 30
0.0
 10
662.6543346904076
 20
574.6862204993437
 30
0.0
 10
662.5893906479773
 20
574.636101034877
 30
0.0
 10
662.5236424387342
 20
574.5873346462014
 30
0.0
 10
662.4570670029318
 20
574.5398956411907
 30
0.0
 10
662.3312094545284
 20
574.4537779698238
 30
0.0
 10
662.2027422277382
 20
574.3724166224499
 30
0.0
 10
662.1424846996908
 20
574.3356328158717
 30
0.0
 10
662.0817073410502
 20
574.2998918026327
 30
0.0
 10
662.0204322270637
 20
574.2652002615998
 30
0.0
 10
661.8969306624329
 20
574.197928336784
 30
0.0
 10
661.7716147477321
 20
574.1349008919707
 30
0.0
 10
661.7085252836748
 20
574.1044538309403
 30
0.0
 10
661.6450263875149
 20
574.0750784076179
 30
0.0
 10
661.5811401096712
 20
574.0467790406977
 30
0.0
 10
661.4446053525505
 20
573.9889377278132
 30
0.0
 10
661.3065198350248
 20
573.935987983121
 30
0.0
 10
661.2330123505939
 20
573.9093314974211
 30
0.0
 10
661.1591326423479
 20
573.884054616351
 30
0.0
 10
661.084911751951
 20
573.8601603617124
 30
0.0
 10
660.8325003177611
 20
573.7839286403157
 30
0.0
 10
660.5768823577887
 20
573.723595686042
 30
0.0
 10
660.395567518604
 20
573.688992168838
 30
0.0
 10
660.2134897437155
 20
573.6622953358861
 30
0.0
 10
660.0310533072361
 20
573.6434722151776
 30
0.0
 10
659.8349241118462
 20
573.6316378148139
 30
0.0
 10
659.6392811352775
 20
573.6287506805362
 30
0.0
 10
659.6255886542219
 20
573.6285915716076
 30
0.0
 10
659.6118989627654
 20
573.628484448768
 30
0.0
 10
659.5982120084884
 20
573.6283929321901
 30
0.0
 10
659.5293920124037
 20
573.6283929321901
 30
0.0
 10
659.4606515733659
 20
573.6283929321901
 30
0.0
 10
659.4056298689445
 20
573.6283929321901
 30
0.0
 10
659.3506586023187
 20
573.6283929321901
 30
0.0
 10
659.2957374574748
 20
573.6283929321901
 30
0.0
 10
658.6871644066575
 20
573.6283929321901
 30
0.0
 10
658.0846784297759
 20
573.6283929321901
 30
0.0
 10
657.5412259509119
 20
573.6283929321901
 30
0.0
 10
657.0021406953326
 20
573.6283929321901
 30
0.0
 10
656.4670671860782
 20
573.6283929321901
 30
0.0
 10
655.7857533578854
 20
573.6283929321901
 30
0.0
 10
655.1098345269667
 20
573.6283929321901
 30
0.0
 10
654.9613852805926
 20
573.6283929321901
 30
0.0
 10
654.8131806877906
 20
573.6283929321901
 30
0.0
 10
654.6652124917193
 20
573.6283929321901
 30
0.0
 10
654.0865375889341
 20
573.6283929321901
 30
0.0
 10
653.5112358723297
 20
573.6283929321901
 30
0.0
 10
653.0844786292471
 20
573.6283929321901
 30
0.0
 10
652.6591820133661
 20
573.6283929321901
 30
0.0
 10
652.2351426731686
 20
573.6283929321901
 30
0.0
 10
651.7793171327638
 20
573.6283929321901
 30
0.0
 10
651.3244923545983
 20
573.6283929321901
 30
0.0
 10
651.2917262409976
 20
573.6283929321901
 30
0.0
 10
651.2589651401444
 20
573.6283929321901
 30
0.0
 10
651.226208960924
 20
573.6283929321901
 30
0.0
 10
651.1517740779241
 20
573.6283929321901
 30
0.0
 10
651.0773636781607
 20
573.6283929321901
 30
0.0
 10
651.0357013451543
 20
573.6283929321901
 30
0.0
 10
650.9940463164155
 20
573.6283929321901
 30
0.0
 10
650.9523984058571
 20
573.6283929321901
 30
0.0
 10
650.794476037406
 20
573.6283929321901
 30
0.0
 10
650.6366507184526
 20
573.6283929321901
 30
0.0
 10
650.5204893752519
 20
573.6283929321901
 30
0.0
 10
650.4043726231307
 20
573.6283929321901
 30
0.0
 10
650.2882965003321
 20
573.6283929321901
 30
0.0
 10
648.2801329310216
 20
573.6283929321901
 30
0.0
 10
646.2817989750185
 20
573.6283929321901
 30
0.0
 10
644.3908229931391
 20
573.6283929321901
 30
0.0
 10
642.477721962067
 20
573.6283929321901
 30
0.0
 10
640.5342066121476
 20
573.6283929321901
 30
0.0
 10
638.5606040306973
 20
573.6283929322223
 30
0.0
 10
636.5687516901685
 20
573.6283929322564
 30
0.0
  0
SPLINE
  5
8F
330
8D
100
AcDbEntity
  8
0
  6
Continuous
 62
     0
370
    30
100
AcDbSpline
210
0.0
220
0.0
230
1.0
 70
     8
 71
     3
 72
    21
 73
    17
 74
     0
 42
0.000000001
 43
0.0
 40
0.0
 40
0.0
 40
0.0
 40
0.0
 40
1.33596536861468
 40
3.655363087163271
 40
5.67964790609278
 40
7.873453421889209
 40
9.899165113329179
 40
12.0934334589125
 40
14.2873951391566
 40
16.4815854549223
 40
18.6761145571644
 40
20.7000813538452
 40
22.8921961922023
 40
24.91619494964149
 40
27.0101767250885
 40
28.27625515825169
 40
28.27625515825169
 40
28.27625515825169
 40
28.27625515825169
 10
636.568751690176
 20
555.6283929623254
 30
0.0
 10
636.5687515687941
 20
555.6283597296342
 30
0.0
 10
636.5687512361592
 20
555.7185825949906
 30
0.0
 10
636.5687507353399
 20
556.2405348395516
 30
0.0
 10
636.5687502156154
 20
557.3271995663596
 30
0.0
 10
636.5687497982224
 20
558.7609445906714
 30
0.0
 10
636.5687494749002
 20
560.5566717677729
 30
0.0
 10
636.5687492739385
 20
562.5807116535959
 30
0.0
 10
636.5687492105595
 20
564.7789924512589
 30
0.0
 10
636.5687492937856
 20
566.9684728878623
 30
0.0
 10
636.5687495129793
 20
568.9664993107333
 30
0.0
 10
636.5687498521979
 20
570.7210523667273
 30
0.0
 10
636.5687502819604
 20
572.1029293072272
 30
0.0
 10
636.5687507927125
 20
573.0909647813642
 30
0.0
 10
636.5687512693951
 20
573.5497872989213
 30
0.0
 10
636.5687515751281
 20
573.6284117737597
 30
0.0
 10
636.5687516901684
 20
573.6283929066468
 30
0.0
  0
SPLINE
  5
90
330
8D
100
AcDbEntity
  8
0
  6
Continuous
 62
     0
370
    30
100
AcDbSpline
210
0.0
220
0.0
230
1.0
 70
     8
 71
     7
 72
   116
 73
   108
 74
     0
 42
0.000000001
 43
0.0
 40
0.020156114859317
 40
0.020156114859317
 40
0.020156114859317
 40
0.020156114859317
 40
0.020156114859317
 40
0.020156114859317
 40
0.020156114859317
 40
0.020156114859317
 40
0.2212
 40
0.2212
 40
0.2212
 40
0.2212
 40
0.2212
 40
0.232372
 40
0.232372
 40
0.232372
 40
0.232372
 40
0.232372
 40
0.236372752
 40
0.236372752
 40
0.236372752
 40
0.236372752
 40
0.236372752
 40
0.2395162
 40
0.2395162
 40
0.2395162
 40
0.2395162
 40
0.2395162
 40
0.28
 40
0.28
 40
0.28
 40
0.28
 40
0.28
 40
0.293879312128
 40
0.293879312128
 40
0.293879312128
 40
0.293879312128
 40
0.293879312128
 40
0.3430877824
 40
0.3430877824
 40
0.3430877824
 40
0.3430877824
 40
0.3430877824
 40
0.3479642974720001
 40
0.3479642974720001
 40
0.3479642974720001
 40
0.3479642974720001
 40
0.3479642974720001
 40
0.34917455984896
 40
0.34917455984896
 40
0.34917455984896
 40
0.34917455984896
 40
0.34917455984896
 40
0.36525376
 40
0.36525376
 40
0.36525376
 40
0.36525376
 40
0.36525376
 40
0.3719908864
 40
0.3719908864
 40
0.3719908864
 40
0.3719908864
 40
0.3719908864
 40
0.3779794432
 40
0.3779794432
 40
0.3779794432
 40
0.3779794432
 40
0.3779794432
 40
0.383968
 40
0.383968
 40
0.383968
 40
0.383968
 40
0.383968
 40
0.3908627199999999
 40
0.3908627199999999
 40
0.3908627199999999
 40
0.3908627199999999
 40
0.3908627199999999
 40
0.4168
 40
0.4168
 40
0.4168
 40
0.4168
 40
0.4168
 40
0.4418647696
 40
0.4418647696
 40
0.4418647696
 40
0.4418647696
 40
0.4418647696
 40
0.4453995447999999
 40
0.4453995447999999
 40
0.4453995447999999
 40
0.4453995447999999
 40
0.4453995447999999
 40
0.4489343200000001
 40
0.4489343200000001
 40
0.4489343200000001
 40
0.4489343200000001
 40
0.4489343200000001
 40
0.4525421488548259
 40
0.4525421488548259
 40
0.4525421488548259
 40
0.4525421488548259
 40
0.4525421488548259
 40
0.527608
 40
0.527608
 40
0.527608
 40
0.527608
 40
0.527608
 40
1.0
 40
1.0
 40
1.0
 40
1.0
 40
1.0
 40
1.0
 40
1.0
 40
1.0
 10
636.568751690176
 20
555.6283929874098
 30
0.0
 10
640.8467708857784
 20
555.6283929875304
 30
0.0
 10
645.1406874417856
 20
555.6283929877512
 30
0.0
 10
649.4776590746835
 20
555.6283929877512
 30
0.0
 10
653.8626963590561
 20
555.6283929877512
 30
0.0
 10
658.2843626189951
 20
555.6283929877513
 30
0.0
 10
662.9669883270087
 20
555.6283929877513
 30
0.0
 10
667.6353668903512
 20
555.6283929877512
 30
0.0
 10
667.8810872058735
 20
555.6283929877513
 30
0.0
 10
668.1267586421894
 20
555.6283929877513
 30
0.0
 10
668.3723764330978
 20
555.6283929877512
 30
0.0
 10
668.7058718613798
 20
555.6283929877513
 30
0.0
 10
669.0392505340253
 20
555.6283929877512
 30
0.0
 10
669.1271474154953
 20
555.6289127271791
 30
0.0
 10
669.2150360666217
 20
555.6273471041363
 30
0.0
 10
669.3029154082357
 20
555.6290587073594
 30
0.0
 10
669.4598273868968
 20
555.627845896158
 30
0.0
 10
669.616709568722
 20
555.6288422205422
 30
0.0
 10
669.6857286712802
 20
555.6297081642288
 30
0.0
 10
669.7547354297608
 20
555.6310015075901
 30
0.0
 10
669.8237265601682
 20
555.6327220557907
 30
0.0
 10
670.7809773914686
 20
555.6625270955388
 30
0.0
 10
671.7339547042463
 20
555.7745262442418
 30
0.0
 10
672.6075873183636
 20
555.9486726190513
 30
0.0
 10
673.4636383683779
 20
556.1915568593528
 30
0.0
 10
674.2954824642645
 20
556.5008004534092
 30
0.0
 10
675.3717049826829
 20
557.0008790601166
 30
0.0
 10
676.3830061150857
 20
557.607819187356
 30
0.0
 10
676.636740994571
 20
557.7695838891813
 30
0.0
 10
676.8857995923292
 20
557.9379900916938
 30
0.0
 10
677.1299719991359
 20
558.1128618541381
 30
0.0
 10
678.2167233376398
 20
558.9362840193049
 30
0.0
 10
679.1944129552774
 20
559.8855084558031
 30
0.0
 10
679.8821243404881
 20
560.6938720949087
 30
0.0
 10
680.4879074166596
 20
561.5603960340576
 30
0.0
 10
681.0064739042034
 20
562.4744079850765
 30
0.0
 10
681.4767856517794
 20
563.5190203099573
 30
0.0
 10
681.8355605107183
 20
564.5942474106486
 30
0.0
 10
681.8670006948666
 20
564.6914322258817
 30
0.0
 10
681.8975310557099
 20
564.7888443764185
 30
0.0
 10
681.9271503090573
 20
564.8864730923499
 30
0.0
 10
681.9629819035453
 20
565.0085883607568
 30
0.0
 10
681.9973908208173
 20
565.1310075143853
 30
0.0
 10
682.0041762461561
 20
565.1553605360685
 30
0.0
 10
682.0109053973513
 20
565.1797252433067
 30
0.0
 10
682.0175782612224
 20
565.2041014718627
 30
0.0
 10
682.1121006041432
 20
565.5524955531346
 30
0.0
 10
682.1951307487404
 20
565.9031739208845
 30
0.0
 10
682.2623812624847
 20
566.2308955886609
 30
0.0
 10
682.3196561899172
 20
566.559824881735
 30
0.0
 10
682.3669669290323
 20
566.8895818376167
 30
0.0
 10
682.420004539262
 20
567.3581475558603
 30
0.0
 10
682.4531373813336
 20
567.8268799396244
 30
0.0
 10
682.4611888375669
 20
567.9652729754033
 30
0.0
 10
682.4675125254688
 20
568.1036263609284
 30
0.0
 10
682.4721131235099
 20
568.2419132925302
 30
0.0
 10
682.4775582766763
 20
568.502946189331
 30
0.0
 10
682.4768947583226
 20
568.7635530473677
 30
0.0
 10
682.4813133897462
 20
568.8860450236455
 30
0.0
 10
682.479216035885
 20
569.0084852241542
 30
0.0
 10
682.481271604628
 20
569.1307825727514
 30
0.0
 10
682.4833082366215
 20
569.3751784123926
 30
0.0
 10
682.4853412418177
 20
569.6191390363485
 30
0.0
 10
682.4863568328319
 20
569.7410099582531
 30
0.0
 10
682.4873715074318
 20
569.862770910457
 30
0.0
 10
682.488385260843
 20
569.98442131999
 30
0.0
 10
682.4905641726443
 20
570.2458907365929
 30
0.0
 10
682.4927387776307
 20
570.5068433353928
 30
0.0
 10
682.4939013164521
 20
570.6463479941816
 30
0.0
 10
682.4950626076568
 20
570.7857029389825
 30
0.0
 10
682.4962226443376
 20
570.9249073409233
 30
0.0
 10
682.5017406222222
 20
571.5870646881519
 30
0.0
 10
682.5072298468551
 20
572.2457716451959
 30
0.0
 10
682.5115480330767
 20
572.763953992659
 30
0.0
 10
682.5158475833873
 20
573.279900030787
 30
0.0
 10
682.5201281864729
 20
573.7935724019143
 30
0.0
 10
682.5285075764425
 20
574.7990991999324
 30
0.0
 10
682.5368115953285
 20
575.7955814678883
 30
0.0
 10
682.5408741370813
 20
576.2830864790953
 30
0.0
 10
682.5449180302096
 20
576.76835365526
 30
0.0
 10
682.5489430886204
 20
577.2513606653831
 30
0.0
 10
682.5535141101307
 20
577.7998832475174
 30
0.0
 10
682.5580602295865
 20
578.3454175831214
 30
0.0
 10
682.5586217287483
 20
578.4127974826397
 30
0.0
 10
682.5591828467789
 20
578.480131646427
 30
0.0
 10
682.5597435833295
 20
578.5474200325951
 30
0.0
 10
682.560864292794
 20
578.6819051685786
 30
0.0
 10
682.5619834736788
 20
578.8162068749853
 30
0.0
 10
682.5625426816496
 20
578.8833118315767
 30
0.0
 10
682.5631015068327
 20
578.9503708536786
 30
0.0
 10
682.5636599489242
 20
579.0173839047627
 30
0.0
 10
682.5647875998086
 20
579.1527020111079
 30
0.0
 10
682.5659136841456
 20
579.2878321317795
 30
0.0
 10
682.5664820850494
 20
579.3560402403461
 30
0.0
 10
682.5670500856768
 20
579.4242003157348
 30
0.0
 10
682.5676176857529
 20
579.4923123249947
 30
0.0
 10
682.5799862473251
 20
580.9765397161137
 30
0.0
 10
682.5921640965164
 20
582.4378816215182
 30
0.0
 10
682.6036076247146
 20
583.8111050075901
 30
0.0
 10
682.6148754044323
 20
585.1632385759463
 30
0.0
 10
682.6259696721661
 20
586.4945507062405
 30
0.0
 10
682.7056448937367
 20
596.055577310614
 30
0.0
 10
682.7766103717674
 20
604.5714346884732
 30
0.0
 10
682.8327749751448
 20
611.3111871049846
 30
0.0
 10
682.8877813491414
 20
617.9119519955364
 30
0.0
 10
682.9454827074949
 20
624.8361150094779
 30
0.0
 10
683.0071171988293
 20
632.2322539819133
 30
0.0
 10
683.0687516901637
 20
639.6283929543488
 30
0.0
  0
SPLINE
  5
91
330
8D
100
AcDbEntity
  8
0
  6
Continuous
 62
     0
370
    30
100
AcDbSpline
210
0.0
220
0.0
230
1.0
 70
     8
 71
     7
 72
    71
 73
    63
 74
     0
 42
0.000000001
 43
0.0
 40
0.1666666666666667
 40
0.1666666666666667
 40
0.1666666666666667
 40
0.1666666666666667
 40
0.1666666666666667
 40
0.1666666666666667
 40
0.1666666666666667
 40
0.1666666666666667
 40
0.18
 40
0.18
 40
0.18
 40
0.18
 40
0.18
 40
0.2071359999999999
 40
0.2071359999999999
 40
0.2071359999999999
 40
0.2071359999999999
 40
0.2071359999999999
 40
0.2312
 40
0.2312
 40
0.2312
 40
0.2312
 40
0.2312
 40
0.3548480000000001
 40
0.3548480000000001
 40
0.3548480000000001
 40
0.3548480000000001
 40
0.3548480000000001
 40
0.500000074586541
 40
0.500000074586541
 40
0.500000074586541
 40
0.500000074586541
 40
0.500000074586541
 40
0.5023804928
 40
0.5023804928
 40
0.5023804928
 40
0.5023804928
 40
0.5023804928
 40
0.5783820799999999
 40
0.5783820799999999
 40
0.5783820799999999
 40
0.5783820799999999
 40
0.5783820799999999
 40
0.645152
 40
0.645152
 40
0.645152
 40
0.645152
 40
0.645152
 40
0.7687999999999999
 40
0.7687999999999999
 40
0.7687999999999999
 40
0.7687999999999999
 40
0.7687999999999999
 40
0.7928639999999999
 40
0.7928639999999999
 40
0.7928639999999999
 40
0.7928639999999999
 40
0.7928639999999999
 40
0.82
 40
0.82
 40
0.82
 40
0.82
 40
0.82
 40
0.8333333333333334
 40
0.8333333333333334
 40
0.8333333333333334
 40
0.8333333333333334
 40
0.8333333333333334
 40
0.8333333333333334
 40
0.8333333333333334
 40
0.8333333333333334
 10
664.0687516902555
 20
639.6283992551514
 30
0.0
 10
664.0687516902627
 20
639.6283991603643
 30
0.0
 10
664.0687516902706
 20
639.6283990655772
 30
0.0
 10
664.068751690279
 20
639.6283989707902
 30
0.0
 10
664.0687516902879
 20
639.6283988760031
 30
0.0
 10
664.0687516902972
 20
639.628398781216
 30
0.0
 10
664.0687516903276
 20
639.6283984935184
 30
0.0
 10
664.0687516903633
 20
639.6283982058208
 30
0.0
 10
664.0693617978138
 20
639.6283980124481
 30
0.0
 10
664.0673054763413
 20
639.6283978210961
 30
0.0
 10
664.070120513521
 20
639.6283976260495
 30
0.0
 10
664.066388680679
 20
639.6283972649045
 30
0.0
 10
664.0725626048438
 20
639.6283968962221
 30
0.0
 10
664.0832999231023
 20
639.6283967169979
 30
0.0
 10
664.0933427700752
 20
639.6283965385657
 30
0.0
 10
664.10952589809
 20
639.6283963556784
 30
0.0
 10
664.2283158027158
 20
639.6283952205584
 30
0.0
 10
664.4862047562555
 20
639.6283939966972
 30
0.0
 10
664.7954250454221
 20
639.6283929241688
 30
0.0
 10
665.2094231431505
 20
639.6283918154667
 30
0.0
 10
665.6972187346088
 20
639.6283906927773
 30
0.0
 10
666.9370998999732
 20
639.6283882488779
 30
0.0
 10
668.5098263167522
 20
639.6283858809649
 30
0.0
 10
669.4346751300485
 20
639.6283846490414
 30
0.0
 10
670.4271394650361
 20
639.6283834900419
 30
0.0
 10
671.4600625085699
 20
639.6283824331664
 30
0.0
 10
672.5317278499487
 20
639.6283814715587
 30
0.0
 10
673.6033426010466
 20
639.6283806506929
 30
0.0
 10
673.620632862262
 20
639.6283806374851
 30
0.0
 10
673.6379229204734
 20
639.6283806243141
 30
0.0
 10
673.6552126804813
 20
639.6283806111801
 30
0.0
 10
674.2245139918847
 20
639.6283801799286
 30
0.0
 10
674.7932848528986
 20
639.6283797890259
 30
0.0
 10
675.3411103210567
 20
639.6283794506918
 30
0.0
 10
675.8825431866649
 20
639.6283791470306
 30
0.0
 10
676.414858290412
 20
639.628378890166
 30
0.0
 10
677.3909961082945
 20
639.6283784901082
 30
0.0
 10
678.3123427991181
 20
639.6283782522886
 30
0.0
 10
678.7293647289595
 20
639.6283781769994
 30
0.0
 10
679.1313062165157
 20
639.6283781362662
 30
0.0
 10
679.5165983250386
 20
639.6283781308456
 30
0.0
 10
680.5619600490663
 20
639.6283782180016
 30
0.0
 10
681.4402898881324
 20
639.6283785998971
 30
0.0
 10
681.928084509666
 20
639.6283789731962
 30
0.0
 10
682.3420814411846
 20
639.6283794458818
 30
0.0
 10
682.6513008030912
 20
639.6283800433612
 30
0.0
 10
682.909188829314
 20
639.6283808710327
 30
0.0
 10
683.0279780088027
 20
639.628381823658
 30
0.0
 10
683.044161028744
 20
639.6283819816832
 30
0.0
 10
683.0542037317903
 20
639.6283821446868
 30
0.0
 10
683.0649410316527
 20
639.6283823074152
 30
0.0
 10
683.071114605286
 20
639.6283826666129
 30
0.0
 10
683.0673828717606
 20
639.6283830334905
 30
0.0
 10
683.070197947124
 20
639.6283832242123
 30
0.0
 10
683.0681415538639
 20
639.6283834187234
 30
0.0
 10
683.0687516899615
 20
639.6283836111586
 30
0.0
 10
683.0687516899976
 20
639.628383898856
 30
0.0
 10
683.0687516900284
 20
639.6283841865534
 30
0.0
 10
683.068751690038
 20
639.6283842813403
 30
0.0
 10
683.0687516900471
 20
639.6283843761273
 30
0.0
 10
683.0687516900556
 20
639.6283844709143
 30
0.0
 10
683.0687516900636
 20
639.6283845657013
 30
0.0
 10
683.068751690071
 20
639.6283846604882
 30
0.0
  0
SPLINE
  5
92
330
8D
100
AcDbEntity
  8
0
  6
Continuous
 62
     0
370
    30
100
AcDbSpline
210
0.0
220
0.0
230
1.0
 70
     8
 71
     7
 72
    71
 73
    63
 74
     0
 42
0.000000001
 43
0.0
 40
0.1666666666666667
 40
0.1666666666666667
 40
0.1666666666666667
 40
0.1666666666666667
 40
0.1666666666666667
 40
0.1666666666666667
 40
0.1666666666666667
 40
0.1666666666666667
 40
0.18
 40
0.18
 40
0.18
 40
0.18
 40
0.18
 40
0.2071359999999999
 40
0.2071359999999999
 40
0.2071359999999999
 40
0.2071359999999999
 40
0.2071359999999999
 40
0.2312
 40
0.2312
 40
0.2312
 40
0.2312
 40
0.2312
 40
0.3548480000000001
 40
0.3548480000000001
 40
0.3548480000000001
 40
0.3548480000000001
 40
0.3548480000000001
 40
0.4216179200000001
 40
0.4216179200000001
 40
0.4216179200000001
 40
0.4216179200000001
 40
0.4216179200000001
 40
0.4976195072
 40
0.4976195072
 40
0.4976195072
 40
0.4976195072
 40
0.4976195072
 40
0.4999999254134589
 40
0.4999999254134589
 40
0.4999999254134589
 40
0.4999999254134589
 40
0.4999999254134589
 40
0.645152
 40
0.645152
 40
0.645152
 40
0.645152
 40
0.645152
 40
0.7687999999999999
 40
0.7687999999999999
 40
0.7687999999999999
 40
0.7687999999999999
 40
0.7687999999999999
 40
0.7928639999999999
 40
0.7928639999999999
 40
0.7928639999999999
 40
0.7928639999999999
 40
0.7928639999999999
 40
0.82
 40
0.82
 40
0.82
 40
0.82
 40
0.82
 40
0.8333333333333334
 40
0.8333333333333334
 40
0.8333333333333334
 40
0.8333333333333334
 40
0.8333333333333334
 40
0.8333333333333334
 40
0.8333333333333334
 40
0.8333333333333334
 10
64.06874937892955
 20
639.6284005075017
 30
0.0
 10
64.068749352517
 20
639.628400593822
 30
0.0
 10
64.06874932610495
 20
639.6284006801421
 30
0.0
 10
64.06874929969342
 20
639.6284007664624
 30
0.0
 10
64.06874927328242
 20
639.6284008527825
 30
0.0
 10
64.06874924687197
 20
639.6284009391027
 30
0.0
 10
64.06874916671272
 20
639.628401201102
 30
0.0
 10
64.06874908655877
 20
639.6284014631012
 30
0.0
 10
64.06935916888827
 20
639.6284016392431
 30
0.0
 10
64.06730272185197
 20
639.6284018133615
 30
0.0
 10
64.07011774345276
 20
639.6284019911789
 30
0.0
 10
64.06638590846643
 20
639.6284023198089
 30
0.0
 10
64.07255938065879
 20
639.6284026559824
 30
0.0
 10
64.08329663286472
 20
639.6284028199341
 30
0.0
 10
64.09333928832689
 20
639.628402983117
 30
0.0
 10
64.10952226075642
 20
639.6284031507782
 30
0.0
 10
64.22831114928641
 20
639.6284041926547
 30
0.0
 10
64.48619888959715
 20
639.6284053248896
 30
0.0
 10
64.7954180187626
 20
639.6284063228313
 30
0.0
 10
65.20941472989102
 20
639.628407360905
 30
0.0
 10
65.69720914293575
 20
639.6284084167802
 30
0.0
 10
66.57553868750176
 20
639.62841005366
 30
0.0
 10
67.62090016342015
 20
639.6284116672748
 30
0.0
 10
68.00619219096137
 20
639.6284122278191
 30
0.0
 10
68.40813360381387
 20
639.628412780641
 30
0.0
 10
68.82515546535419
 20
639.6284133241265
 30
0.0
 10
69.7465020252013
 20
639.6284144597807
 30
0.0
 10
70.72263974559701
 20
639.6284155281037
 30
0.0
 10
71.25495480696915
 20
639.6284160754449
 30
0.0
 10
71.7963876412937
 20
639.6284165935515
 30
0.0
 10
72.34421308646424
 20
639.6284170894645
 30
0.0
 10
72.91298393465874
 20
639.6284175682453
 30
0.0
 10
73.48228524437519
 20
639.6284180110599
 30
0.0
 10
73.49957500434203
 20
639.6284180244747
 30
0.0
 10
73.51686506252275
 20
639.6284180378564
 30
0.0
 10
73.53415532371758
 20
639.6284180512046
 30
0.0
 10
74.60577007417874
 20
639.628418876436
 30
0.0
 10
75.67743545413893
 20
639.6284195735714
 30
0.0
 10
76.71035857110297
 20
639.6284201270876
 30
0.0
 10
77.70282301664855
 20
639.628420528222
 30
0.0
 10
78.62767197530542
 20
639.6284207637093
 30
0.0
 10
80.20039871536662
 20
639.6284209155467
 30
0.0
 10
81.44028029645676
 20
639.6284205096788
 30
0.0
 10
81.92807609640383
 20
639.628420203194
 30
0.0
 10
82.34207441452244
 20
639.6284198011367
 30
0.0
 10
82.65129493642999
 20
639.6284192782431
 30
0.0
 10
82.9091841758823
 20
639.6284185421968
 30
0.0
 10
83.02797437146708
 20
639.6284176828137
 30
0.0
 10
83.0441575469934
 20
639.6284175400142
 30
0.0
 10
83.05420044155031
 20
639.6284173922597
 30
0.0
 10
83.06493780746533
 20
639.6284172448034
 30
0.0
 10
83.07111183307143
 20
639.6284169181141
 30
0.0
 10
83.06738010169036
 20
639.6284165837509
 30
0.0
 10
83.07019519263298
 20
639.6284164102581
 30
0.0
 10
83.06813892493622
 20
639.6284162329803
 30
0.0
 10
83.06874908615515
 20
639.6284160577757
 30
0.0
 10
83.06874916638094
 20
639.6284157957763
 30
0.0
 10
83.06874924660141
 20
639.6284155337769
 30
0.0
 10
83.06874927303089
 20
639.6284154474566
 30
0.0
 10
83.06874929945982
 20
639.6284153611364
 30
0.0
 10
83.06874932588822
 20
639.628415274816
 30
0.0
 10
83.0687493523161
 20
639.6284151884956
 30
0.0
 10
83.06874937874349
 20
639.6284151021753
 30
0.0
  0
SPLINE
  5
93
330
8D
100
AcDbEntity
  8
0
  6
Continuous
 62
     0
370
    30
100
AcDbSpline
210
0.0
220
0.0
230
1.0
 70
     8
 71
     7
 72
   116
 73
   108
 74
     0
 42
0.000000001
 43
0.0
 40
0.020156114859317
 40
0.020156114859317
 40
0.020156114859317
 40
0.020156114859317
 40
0.020156114859317
 40
0.020156114859317
 40
0.020156114859317
 40
0.020156114859317
 40
0.2212
 40
0.2212
 40
0.2212
 40
0.2212
 40
0.2212
 40
0.232372
 40
0.232372
 40
0.232372
 40
0.232372
 40
0.232372
 40
0.236372752
 40
0.236372752
 40
0.236372752
 40
0.236372752
 40
0.236372752
 40
0.2395162
 40
0.2395162
 40
0.2395162
 40
0.2395162
 40
0.2395162
 40
0.28
 40
0.28
 40
0.28
 40
0.28
 40
0.28
 40
0.293879312128
 40
0.293879312128
 40
0.293879312128
 40
0.293879312128
 40
0.293879312128
 40
0.3430877824
 40
0.3430877824
 40
0.3430877824
 40
0.3430877824
 40
0.3430877824
 40
0.3479642974720001
 40
0.3479642974720001
 40
0.3479642974720001
 40
0.3479642974720001
 40
0.3479642974720001
 40
0.34917455984896
 40
0.34917455984896
 40
0.34917455984896
 40
0.34917455984896
 40
0.34917455984896
 40
0.36525376
 40
0.36525376
 40
0.36525376
 40
0.36525376
 40
0.36525376
 40
0.3719908864
 40
0.3719908864
 40
0.3719908864
 40
0.3719908864
 40
0.3719908864
 40
0.3779794432
 40
0.3779794432
 40
0.3779794432
 40
0.3779794432
 40
0.3779794432
 40
0.383968
 40
0.383968
 40
0.383968
 40
0.383968
 40
0.383968
 40
0.3908627199999999
 40
0.3908627199999999
 40
0.3908627199999999
 40
0.3908627199999999
 40
0.3908627199999999
 40
0.4168
 40
0.4168
 40
0.4168
 40
0.4168
 40
0.4168
 40
0.4418647696
 40
0.4418647696
 40
0.4418647696
 40
0.4418647696
 40
0.4418647696
 40
0.4453995447999999
 40
0.4453995447999999
 40
0.4453995447999999
 40
0.4453995447999999
 40
0.4453995447999999
 40
0.4489343200000001
 40
0.4489343200000001
 40
0.4489343200000001
 40
0.4489343200000001
 40
0.4489343200000001
 40
0.4525421488548259
 40
0.4525421488548259
 40
0.4525421488548259
 40
0.4525421488548259
 40
0.4525421488548259
 40
0.527608
 40
0.527608
 40
0.527608
 40
0.527608
 40
0.527608
 40
1.0
 40
1.0
 40
1.0
 40
1.0
 40
1.0
 40
1.0
 40
1.0
 40
1.0
 10
110.5687516905765
 20
555.6283929874713
 30
0.0
 10
106.2907324949742
 20
555.628392987592
 30
0.0
 10
101.9968159389667
 20
555.6283929878127
 30
0.0
 10
97.65984430606906
 20
555.6283929878127
 30
0.0
 10
93.2748070216964
 20
555.6283929878127
 30
0.0
 10
88.85314076175734
 20
555.6283929878127
 30
0.0
 10
84.17051505374369
 20
555.6283929878127
 30
0.0
 10
79.50213649040137
 20
555.6283929878127
 30
0.0
 10
79.25641617487898
 20
555.6283929878128
 30
0.0
 10
79.0107447385632
 20
555.6283929878128
 30
0.0
 10
78.76512694765466
 20
555.6283929878127
 30
0.0
 10
78.43163151937259
 20
555.6283929878127
 30
0.0
 10
78.09825284672704
 20
555.6283929878127
 30
0.0
 10
78.01035596525719
 20
555.6289127272405
 30
0.0
 10
77.92246731413084
 20
555.6273471041978
 30
0.0
 10
77.834587972517
 20
555.6290587074209
 30
0.0
 10
77.67767599385553
 20
555.6278458962195
 30
0.0
 10
77.52079381203052
 20
555.6288422206037
 30
0.0
 10
77.45177470947235
 20
555.6297081642904
 30
0.0
 10
77.38276795099165
 20
555.6310015076516
 30
0.0
 10
77.31377682058431
 20
555.6327220558524
 30
0.0
 10
76.35652598928397
 20
555.6625270956006
 30
0.0
 10
75.40354867650643
 20
555.774526244304
 30
0.0
 10
74.52991606238882
 20
555.9486726191144
 30
0.0
 10
73.67386501237456
 20
556.1915568594172
 30
0.0
 10
72.84202091648794
 20
556.5008004534752
 30
0.0
 10
71.76579839806956
 20
557.0008790601853
 30
0.0
 10
70.75449726566691
 20
557.6078191874278
 30
0.0
 10
70.5007623861814
 20
557.769583889254
 30
0.0
 10
70.25170378842327
 20
557.9379900917673
 30
0.0
 10
70.00753138161656
 20
558.1128618542126
 30
0.0
 10
68.9207800431127
 20
558.9362840193837
 30
0.0
 10
67.94309042547508
 20
559.8855084558869
 30
0.0
 10
67.25537904026424
 20
560.6938720949967
 30
0.0
 10
66.6495959640929
 20
561.56039603415
 30
0.0
 10
66.13102947654903
 20
562.4744079851738
 30
0.0
 10
65.66071772897311
 20
563.5190203100601
 30
0.0
 10
65.30194287003425
 20
564.5942474107569
 30
0.0
 10
65.2705026858859
 20
564.6914322259906
 30
0.0
 10
65.2399723250426
 20
564.7888443765279
 30
0.0
 10
65.21035307169518
 20
564.8864730924597
 30
0.0
 10
65.17452147720712
 20
565.0085883608674
 30
0.0
 10
65.14011255993529
 20
565.1310075144963
 30
0.0
 10
65.13332713459639
 20
565.1553605361798
 30
0.0
 10
65.12659798340113
 20
565.1797252434183
 30
0.0
 10
65.11992511953008
 20
565.2041014719744
 30
0.0
 10
65.02540277660944
 20
565.5524955532479
 30
0.0
 10
64.94237263201197
 20
565.9031739209996
 30
0.0
 10
64.87512211826771
 20
566.2308955887778
 30
0.0
 10
64.81784719083527
 20
566.5598248818537
 30
0.0
 10
64.77053645172026
 20
566.889581837737
 30
0.0
 10
64.71749884149054
 20
567.3581475559831
 30
0.0
 10
64.68436599941876
 20
567.8268799397497
 30
0.0
 10
64.67631454318558
 20
567.9652729755293
 30
0.0
 10
64.66999085528352
 20
568.1036263610551
 30
0.0
 10
64.66539025724268
 20
568.2419132926576
 30
0.0
 10
64.65994510407614
 20
568.5029461894599
 30
0.0
 10
64.66060862242986
 20
568.7635530474979
 30
0.0
 10
64.65618999100622
 20
568.8860450237714
 30
0.0
 10
64.65828734486757
 20
569.0084852242848
 30
0.0
 10
64.6562317761246
 20
569.1307825728803
 30
0.0
 10
64.65419514413097
 20
569.3751784125216
 30
0.0
 10
64.65216213893473
 20
569.6191390364775
 30
0.0
 10
64.65114654792052
 20
569.741009958382
 30
0.0
 10
64.65013187332053
 20
569.8627709105859
 30
0.0
 10
64.64911811990942
 20
569.9844213201189
 30
0.0
 10
64.64693920810805
 20
570.2458907367218
 30
0.0
 10
64.64476460312164
 20
570.5068433355216
 30
0.0
 10
64.64360206430035
 20
570.6463479943105
 30
0.0
 10
64.64244077309564
 20
570.7857029391114
 30
0.0
 10
64.6412807364147
 20
570.9249073410522
 30
0.0
 10
64.63576275853029
 20
571.5870646882809
 30
0.0
 10
64.63027353389742
 20
572.2457716453248
 30
0.0
 10
64.62595534767576
 20
572.7639539927878
 30
0.0
 10
64.62165579736515
 20
573.2799000309159
 30
0.0
 10
64.61737519427956
 20
573.7935724020432
 30
0.0
 10
64.60899580431001
 20
574.7990992000613
 30
0.0
 10
64.6006917854242
 20
575.7955814680172
 30
0.0
 10
64.59662924367089
 20
576.2830864792243
 30
0.0
 10
64.59258535054295
 20
576.7683536553889
 30
0.0
 10
64.58856029213194
 20
577.251360665512
 30
0.0
 10
64.58398927062174
 20
577.7998832476463
 30
0.0
 10
64.57944315116595
 20
578.3454175832502
 30
0.0
 10
64.57888165200424
 20
578.4127974827686
 30
0.0
 10
64.57832053397362
 20
578.480131646556
 30
0.0
 10
64.57775979742314
 20
578.5474200327241
 30
0.0
 10
64.57663908795848
 20
578.6819051687075
 30
0.0
 10
64.57551990707361
 20
578.8162068751142
 30
0.0
 10
64.57496069910297
 20
578.8833118317057
 30
0.0
 10
64.5744018739197
 20
578.9503708538075
 30
0.0
 10
64.57384343182827
 20
579.0173839048915
 30
0.0
 10
64.57271578094392
 20
579.1527020112368
 30
0.0
 10
64.57158969660685
 20
579.2878321319084
 30
0.0
 10
64.57102129570308
 20
579.356040240475
 30
0.0
 10
64.5704532950758
 20
579.4242003158636
 30
0.0
 10
64.56988569499958
 20
579.4923123251236
 30
0.0
 10
64.55751713342747
 20
580.9765397162427
 30
0.0
 10
64.54533928423606
 20
582.4378816216471
 30
0.0
 10
64.53389575603782
 20
583.811105007719
 30
0.0
 10
64.52262797632028
 20
585.1632385760752
 30
0.0
 10
64.51153370858631
 20
586.4945507063694
 30
0.0
 10
64.4318584870158
 20
596.055577310743
 30
0.0
 10
64.36089300898504
 20
604.5714346886022
 30
0.0
 10
64.30472840560756
 20
611.3111871051135
 30
0.0
 10
64.24972203161119
 20
617.9119519956654
 30
0.0
 10
64.19202067325767
 20
624.836115009607
 30
0.0
 10
64.13038618192328
 20
632.2322539820425
 30
0.0
 10
64.0687516905889
 20
639.6283929544779
 30
0.0
  0
LINE
  5
94
330
8D
100
AcDbEntity
  8
0
  6
Continuous
 62
     0
370
    30
100
AcDbLine
 10
110.568749
 20
564.628351
 30
0.0
 11
110.568752
 21
555.628393
 31
0.0
  0
SPLINE
  5
95
330
8D
100
AcDbEntity
  8
0
  6
Continuous
 62
     0
370
    30
100
AcDbSpline
210
0.0
220
0.0
230
1.0
 70
     8
 71
     7
 72
   116
 73
   108
 74
     0
 42
0.000000001
 43
0.0
 40
0.0000000000000001
 40
0.0000000000000001
 40
0.0000000000000001
 40
0.0000000000000001
 40
0.0000000000000001
 40
0.0000000000000001
 40
0.0000000000000001
 40
0.0000000000000001
 40
0.472392
 40
0.472392
 40
0.472392
 40
0.472392
 40
0.472392
 40
0.5474578511451741
 40
0.5474578511451741
 40
0.5474578511451741
 40
0.5474578511451741
 40
0.5474578511451741
 40
0.55106568
 40
0.55106568
 40
0.55106568
 40
0.55106568
 40
0.55106568
 40
0.5546004552000001
 40
0.5546004552000001
 40
0.5546004552000001
 40
0.5546004552000001
 40
0.5546004552000001
 40
0.5581352303999999
 40
0.5581352303999999
 40
0.5581352303999999
 40
0.5581352303999999
 40
0.5581352303999999
 40
0.5832
 40
0.5832
 40
0.5832
 40
0.5832
 40
0.5832
 40
0.60913728
 40
0.60913728
 40
0.60913728
 40
0.60913728
 40
0.60913728
 40
0.6160319999999999
 40
0.6160319999999999
 40
0.6160319999999999
 40
0.6160319999999999
 40
0.6160319999999999
 40
0.6220205567999999
 40
0.6220205567999999
 40
0.6220205567999999
 40
0.6220205567999999
 40
0.6220205567999999
 40
0.6280091136
 40
0.6280091136
 40
0.6280091136
 40
0.6280091136
 40
0.6280091136
 40
0.63474624
 40
0.63474624
 40
0.63474624
 40
0.63474624
 40
0.63474624
 40
0.65082544015104
 40
0.65082544015104
 40
0.65082544015104
 40
0.65082544015104
 40
0.65082544015104
 40
0.6520357025280001
 40
0.6520357025280001
 40
0.6520357025280001
 40
0.6520357025280001
 40
0.6520357025280001
 40
0.6569122175999998
 40
0.6569122175999998
 40
0.6569122175999998
 40
0.6569122175999998
 40
0.6569122175999998
 40
0.706120687872
 40
0.706120687872
 40
0.706120687872
 40
0.706120687872
 40
0.706120687872
 40
0.72
 40
0.72
 40
0.72
 40
0.72
 40
0.72
 40
0.7604838
 40
0.7604838
 40
0.7604838
 40
0.7604838
 40
0.7604838
 40
0.7636272479999999
 40
0.7636272479999999
 40
0.7636272479999999
 40
0.7636272479999999
 40
0.7636272479999999
 40
0.767628
 40
0.767628
 40
0.767628
 40
0.767628
 40
0.767628
 40
0.7787999999999999
 40
0.7787999999999999
 40
0.7787999999999999
 40
0.7787999999999999
 40
0.7787999999999999
 40
0.96096922692471
 40
0.96096922692471
 40
0.96096922692471
 40
0.96096922692471
 40
0.96096922692471
 40
0.96096922692471
 40
0.96096922692471
 40
0.96096922692471
 10
83.0687516905889
 20
639.6283929544777
 30
0.0
 10
83.00711719925488
 20
632.2322539820423
 30
0.0
 10
82.94548270792086
 20
624.8361150096069
 30
0.0
 10
82.88057892190983
 20
617.047660675273
 30
0.0
 10
82.81343501382409
 20
608.9903916915238
 30
0.0
 10
82.74725384795138
 20
601.0486517735351
 30
0.0
 10
82.67544034269969
 20
592.4310311289346
 30
0.0
 10
82.61086654135096
 20
584.6821749541471
 30
0.0
 10
82.6021532000506
 20
583.6365739963578
 30
0.0
 10
82.5935840851995
 20
582.6082802125072
 30
0.0
 10
82.58516105581643
 20
581.59751668485
 30
0.0
 10
82.57648640752697
 20
580.556558888375
 30
0.0
 10
82.56797028298277
 20
579.5346239413666
 30
0.0
 10
82.56758008249037
 20
579.4877998821999
 30
0.0
 10
82.56719021494362
 20
579.4410157765102
 30
0.0
 10
82.56680068011426
 20
579.3942715969085
 30
0.0
 10
82.56603015623386
 20
579.3018087311079
 30
0.0
 10
82.56526093449727
 20
579.2095021225621
 30
0.0
 10
82.56488057605728
 20
579.163859109688
 30
0.0
 10
82.56450053605047
 20
579.1182543087951
 30
0.0
 10
82.56412081422383
 20
579.0726876895209
 30
0.0
 10
82.56336200640607
 20
578.9816307512393
 30
0.0
 10
82.56260446917284
 20
578.8907262830984
 30
0.0
 10
82.56247709313098
 20
578.845310421579
 30
0.0
 10
82.56132254835993
 20
578.7999396394716
 30
0.0
 10
82.56184265021008
 20
578.7545953612939
 30
0.0
 10
82.5553620140366
 20
578.3881005215311
 30
0.0
 10
82.58019308332774
 20
578.0238665056444
 30
0.0
 10
82.62550612620467
 20
577.7085372851902
 30
0.0
 10
82.69363808153989
 20
577.3991291286106
 30
0.0
 10
82.78365446468345
 20
577.0975284914923
 30
0.0
 10
83.00910910376876
 20
576.5032135665697
 30
0.0
 10
83.31549531488753
 20
575.9547267250205
 30
0.0
 10
83.48957025787323
 20
575.6904789547641
 30
0.0
 10
83.68704207341239
 20
575.4365881258723
 30
0.0
 10
83.8925042536668
 20
575.206583161453
 30
0.0
 10
84.17784076841369
 20
574.9313555578678
 30
0.0
 10
84.48316869034488
 20
574.6862204994712
 30
0.0
 10
84.54811273277508
 20
574.6361010350041
 30
0.0
 10
84.61386094201819
 20
574.5873346463281
 30
0.0
 10
84.68043637782068
 20
574.5398956413169
 30
0.0
 10
84.80629392622399
 20
574.453777969949
 30
0.0
 10
84.93476115301425
 20
574.3724166225737
 30
0.0
 10
84.9950186810616
 20
574.3356328159949
 30
0.0
 10
85.05579603970207
 20
574.2998918027553
 30
0.0
 10
85.11707115368887
 20
574.2652002617216
 30
0.0
 10
85.24057271831953
 20
574.1979283369044
 30
0.0
 10
85.36588863302057
 20
574.1349008920894
 30
0.0
 10
85.42897809707773
 20
574.1044538310581
 30
0.0
 10
85.49247699323752
 20
574.0750784077347
 30
0.0
 10
85.55636327108127
 20
574.0467790408137
 30
0.0
 10
85.69289802820202
 20
573.9889377279271
 30
0.0
 10
85.8309835457276
 20
573.9359879832326
 30
0.0
 10
85.90449103015851
 20
573.9093314975315
 30
0.0
 10
85.97837073840444
 20
573.88405461646
 30
0.0
 10
86.05259162880142
 20
573.8601603618201
 30
0.0
 10
86.30500306299143
 20
573.7839286404188
 30
0.0
 10
86.56062102296369
 20
573.7235956861399
 30
0.0
 10
86.74193586214858
 20
573.688992168932
 30
0.0
 10
86.92401363703698
 20
573.6622953359761
 30
0.0
 10
87.10645007351638
 20
573.643472215263
 30
0.0
 10
87.30257926890613
 20
573.6316378148946
 30
0.0
 10
87.49822224547489
 20
573.6287506806118
 30
0.0
 10
87.5119147265305
 20
573.6285915716823
 30
0.0
 10
87.5256044179871
 20
573.6284844488439
 30
0.0
 10
87.53929137226399
 20
573.6283929322641
 30
0.0
 10
87.60811136834872
 20
573.628392932264
 30
0.0
 10
87.67685180738656
 20
573.6283929322641
 30
0.0
 10
87.73187351180803
 20
573.628392932264
 30
0.0
 10
87.78684477843359
 20
573.6283929322641
 30
0.0
 10
87.84176592327762
 20
573.6283929322641
 30
0.0
 10
88.45033897409516
 20
573.6283929322641
 30
0.0
 10
89.05282495097646
 20
573.6283929322641
 30
0.0
 10
89.59627742984051
 20
573.628392932264
 30
0.0
 10
90.1353626854198
 20
573.6283929322641
 30
0.0
 10
90.67043619467432
 20
573.6283929322641
 30
0.0
 10
91.3517500228671
 20
573.6283929322641
 30
0.0
 10
92.02766885378568
 20
573.6283929322641
 30
0.0
 10
92.17611810015995
 20
573.628392932264
 30
0.0
 10
92.32432269296197
 20
573.6283929322641
 30
0.0
 10
92.47229088903308
 20
573.6283929322641
 30
0.0
 10
93.0509657918183
 20
573.628392932264
 30
0.0
 10
93.62626750842279
 20
573.6283929322641
 30
0.0
 10
94.05302475150532
 20
573.628392932264
 30
0.0
 10
94.47832136738631
 20
573.6283929322641
 30
0.0
 10
94.90236070758391
 20
573.6283929322641
 30
0.0
 10
95.35818624798873
 20
573.6283929322641
 30
0.0
 10
95.81301102615407
 20
573.6283929322641
 30
0.0
 10
95.84577713975483
 20
573.628392932264
 30
0.0
 10
95.87853824060807
 20
573.6283929322641
 30
0.0
 10
95.91129441982844
 20
573.6283929322641
 30
0.0
 10
95.98572930282836
 20
573.6283929322641
 30
0.0
 10
96.06013970259167
 20
573.6283929322641
 30
0.0
 10
96.10180203559835
 20
573.628392932264
 30
0.0
 10
96.14345706433696
 20
573.6283929322641
 30
0.0
 10
96.1851049748953
 20
573.6283929322641
 30
0.0
 10
96.34302734334659
 20
573.6283929322641
 30
0.0
 10
96.50085266229999
 20
573.6283929322641
 30
0.0
 10
96.61701400550052
 20
573.628392932264
 30
0.0
 10
96.73313075762184
 20
573.6283929322641
 30
0.0
 10
96.84920688042027
 20
573.6283929322641
 30
0.0
 10
98.85737044973081
 20
573.6283929322641
 30
0.0
 10
100.8557044057339
 20
573.6283929322641
 30
0.0
 10
102.7466803876134
 20
573.628392932264
 30
0.0
 10
104.6597814186855
 20
573.6283929322641
 30
0.0
 10
106.6032967686049
 20
573.6283929322641
 30
0.0
 10
108.5768993500553
 20
573.6283929322963
 30
0.0
 10
110.568751690584
 20
573.6283929323304
 30
0.0
  0
LINE
  5
96
330
8D
100
AcDbEntity
  8
0
  6
Continuous
 62
     0
370
    30
100
AcDbLine
 10
110.568752
 20
573.6283
 30
0.0
 11
110.568752
 21
564.6283
 31
0.0
  0
LINE
  5
97
330
8D
100
AcDbEntity
  8
0
  6
Continuous
 62
     0
370
    30
100
AcDbLine
 10
636.568749
 20
573.579209
 30
0.0
 11
636.568749
 21
573.6283
 31
0.0
  0
LINE
  5
98
330
8D
100
AcDbEntity
  8
0
  6
Continuous
 62
     0
370
    30
100
AcDbLine
 10
110.568752
 20
555.6283
 30
0.0
 11
636.568749
 21
555.6283
 31
0.0
  0
LINE
  5
99
330
8D
100
AcDbEntity
  8
0
  6
Continuous
 62
     0
370
    30
100
AcDbLine
 10
110.568752
 20
573.6283
 30
0.0
 11
636.568749
 21
573.6283
 31
0.0
  0
ENDBLK
  5
9B
330
8D
100
AcDbEntity
  8
0
100
AcDbBlockEnd
  0
BLOCK
  5
A9
330
9D
100
AcDbEntity
  8
0
100
AcDbBlockBegin
  2
c
 70
     0
 10
25.707016
 20
-194.547821
 30
0.0
  3
c
  1

  0
ARC
  5
9E
330
9D
100
AcDbEntity
  8
0
  6
Continuous
 62
     0
370
    30
100
AcDbCircle
 10
815.617837
 20
817.355586
 30
0.0
 40
9.000992801503086
100
AcDbArc
 50
37.817835
 51
87.120518
  0
SPLINE
  5
9F
330
9D
100
AcDbEntity
  8
0
  6
Continuous
 62
     0
370
    30
100
AcDbSpline
210
0.0
220
0.0
230
1.0
 70
     8
 71
     3
 72
    35
 73
    31
 74
     0
 42
0.000000001
 43
0.0
 40
22.92199438395133
 40
22.92199438395133
 40
22.92199438395133
 40
22.92199438395133
 40
23.01901265865509
 40
23.24570036547881
 40
23.69343114722363
 40
24.13663120882813
 40
25.00682149398008
 40
25.87202451621497
 40
27.3924818744734
 40
28.47148356687513
 40
29.97883309867776
 40
30.62754071603293
 40
31.49672432794084
 40
31.93556682977674
 40
32.81377083613256
 40
33.03334330159401
 40
33.90922110947544
 40
34.77976423904044
 40
35.49157135806691
 40
36.20088251930051
 40
36.90810364936146
 40
40.42217050352312
 40
45.9947412687105
 40
51.0231559650734
 40
59.35090588333352
 40
69.29120449089213
 40
79.20078900581031
 40
85.81055970294514
 40
92.43483798780146
 40
101.4914533148499
 40
101.4914533148499
 40
101.4914533148499
 40
101.4914533148499
 10
816.0893450082101
 20
826.3442171467652
 30
0.0
 10
816.0814812714832
 20
826.3451796121781
 30
0.0
 10
816.0542470616515
 20
826.3485249557572
 30
0.0
 10
815.9820832927991
 20
826.3574934598659
 30
0.0
 10
815.8556866129936
 20
826.3735062785571
 30
0.0
 10
815.6160639674146
 20
826.404483200094
 30
0.0
 10
815.2516329939122
 20
826.4526193151579
 30
0.0
 10
814.5908645544104
 20
826.5417109489565
 30
0.0
 10
813.7408315791556
 20
826.6586224297913
 30
0.0
 10
812.5916367458879
 20
826.8191569931113
 30
0.0
 10
811.6031549980974
 20
826.9589972443713
 30
0.0
 10
810.6405346664633
 20
827.0965624186433
 30
0.0
 10
810.0045501510516
 20
827.1879364479578
 30
0.0
 10
809.2869215731821
 20
827.2914317455788
 30
0.0
 10
808.7794917627651
 20
827.3648594927984
 30
0.0
 10
808.1288465234379
 20
827.4592119405511
 30
0.0
 10
807.4817712347553
 20
827.5532348878515
 30
0.0
 10
806.6717717355795
 20
827.6712271570219
 30
0.0
 10
805.9166097138341
 20
827.7814277464279
 30
0.0
 10
805.2151017454199
 20
827.8839297649575
 30
0.0
 10
803.5897444475974
 20
828.1216645834168
 30
0.0
 10
800.3603193379184
 20
828.5950223008216
 30
0.0
 10
795.7057272087065
 20
829.2782324860798
 30
0.0
 10
789.4632419182909
 20
830.1945948623254
 30
0.0
 10
781.7799447142818
 20
831.3216147541734
 30
0.0
 10
772.4867281320592
 20
832.6836454874472
 30
0.0
 10
763.7602691522749
 20
833.9627950186139
 30
0.0
 10
756.1274298062957
 20
835.0819914464689
 30
0.0
 10
748.7758632182355
 20
836.160092470222
 30
0.0
 10
743.604218224546
 20
836.9185678443778
 30
0.0
 10
740.6173018526007
 20
837.3566491287468
 30
0.0
  0
LINE
  5
A0
330
9D
100
AcDbEntity
  8
0
  6
Continuous
 62
     0
370
    30
100
AcDbLine
 10
740.617324
 20
817.353698
 30
0.0
 11
740.617298
 21
837.353699
 31
0.0
  0
ARC
  5
A1
330
9D
100
AcDbEntity
  8
0
  6
Continuous
 62
     0
370
    30
100
AcDbCircle
 10
815.617781
 20
817.354862
 30
0.0
 40
9.001115936470567
100
AcDbArc
 50
272.083089
 51
322.518214
  0
LINE
  5
A2
330
9D
100
AcDbEntity
  8
0
  6
Continuous
 62
     0
370
    30
100
AcDbLine
 10
740.617335
 20
797.353698
 30
0.0
 11
740.617324
 21
817.353698
 31
0.0
  0
SPLINE
  5
A3
330
9D
100
AcDbEntity
  8
0
  6
Continuous
 62
     0
370
    30
100
AcDbSpline
210
0.0
220
0.0
230
1.0
 70
     8
 71
     3
 72
    39
 73
    35
 74
     0
 42
0.000000001
 43
0.0
 40
21.91347157961454
 40
21.91347157961454
 40
21.91347157961454
 40
21.91347157961454
 40
21.91674400744238
 40
22.15480815771685
 40
22.2901125868628
 40
22.55542498024636
 40
23.01899491394962
 40
23.24568311918326
 40
23.69341452226276
 40
24.13661491248425
 40
25.00680581025318
 40
25.87200929543939
 40
27.39246720138939
 40
28.47146891679976
 40
29.97881829868372
 40
30.62752589294738
 40
31.4967094312468
 40
31.93555179334793
 40
32.81375555405131
 40
33.03332796581966
 40
33.90920581680942
 40
34.77974897167362
 40
35.49151073664812
 40
36.20077680729425
 40
36.90795304688086
 40
40.42179725296031
 40
45.9940161118988
 40
51.02243447781067
 40
59.35018837958059
 40
69.29049075640263
 40
79.2000760024454
 40
85.80984552918558
 40
92.43412195685468
 40
101.4914827792271
 40
101.4914827792271
 40
101.4914827792271
 40
101.4914827792271
 10
816.2224632237087
 20
808.3818436031739
 30
0.0
 10
816.2224632228372
 20
808.3818436116849
 30
0.0
 10
816.2224094068922
 20
808.381838427588
 30
0.0
 10
816.2161580860045
 20
808.3811619241786
 30
0.0
 10
816.1959713830722
 20
808.3788785377939
 30
0.0
 10
816.1587802852756
 20
808.3745637777924
 30
0.0
 10
816.0885734613314
 20
808.3660860139858
 30
0.0
 10
815.9821237734561
 20
808.3528564976714
 30
0.0
 10
815.8557297976122
 20
808.3368440563065
 30
0.0
 10
815.6161109763427
 20
808.3058676790544
 30
0.0
 10
815.251684187432
 20
808.2577321714364
 30
0.0
 10
814.5909210925225
 20
808.1686413278909
 30
0.0
 10
813.7408926729032
 20
808.0517305382992
 30
0.0
 10
812.5917020456161
 20
807.8911966239125
 30
0.0
 10
811.6032225518825
 20
807.7513567510966
 30
0.0
 10
810.6406037268932
 20
807.6137918362691
 30
0.0
 10
810.0046199017729
 20
807.5224179307892
 30
0.0
 10
809.286991858741
 20
807.4189227344077
 30
0.0
 10
808.7795622823567
 20
807.3454950353506
 30
0.0
 10
808.1289169669657
 20
807.2511425928411
 30
0.0
 10
807.4818417265346
 20
807.1571196668426
 30
0.0
 10
806.6718571435434
 20
807.0391295842602
 30
0.0
 10
805.9167249327966
 20
806.9289333613332
 30
0.0
 10
805.2152615868587
 20
806.8264378819838
 30
0.0
 10
803.5900073886473
 20
806.588718192512
 30
0.0
 10
800.3607865731617
 20
806.115390502639
 30
0.0
 10
795.706382734406
 20
805.4322080250565
 30
0.0
 10
789.4640110218456
 20
804.515862271122
 30
0.0
 10
781.7807100704946
 20
803.3888417186249
 30
0.0
 10
772.4874906826288
 20
802.0268105422432
 30
0.0
 10
763.76103060281
 20
800.7476608887439
 30
0.0
 10
756.1281920219421
 20
799.6284645971059
 30
0.0
 10
748.7763805699846
 20
798.550327674799
 30
0.0
 10
743.6044903193018
 20
797.7918163329647
 30
0.0
 10
740.6173280794297
 20
797.3536989879487
 30
0.0
  0
ARC
  5
A4
330
9D
100
AcDbEntity
  8
0
  6
Continuous
 62
     0
370
    30
100
AcDbCircle
 10
815.618066
 20
817.35201
 30
0.0
 40
8.999172998365989
100
AcDbArc
 50
322.531518
 51
359.060063
  0
SPLINE
  5
A5
330
9D
100
AcDbEntity
  8
0
  6
Continuous
 62
     0
370
    30
100
AcDbSpline
210
0.0
220
0.0
230
1.0
 70
     8
 71
     3
 72
    18
 73
    14
 74
     0
 42
0.000000001
 43
0.0
 40
0.0
 40
0.0
 40
0.0
 40
0.0
 40
0.6653525608925909
 40
1.107635489328005
 40
1.550480727149803
 40
1.772533336480402
 40
2.218684401272196
 40
2.443099350886621
 40
2.668605485860556
 40
2.895413119871944
 40
3.123700536277802
 40
3.353768343682544
 40
3.586814079993649
 40
3.586814079993649
 40
3.586814079993649
 40
3.586814079993649
 10
824.6173235927463
 20
817.3544704746078
 30
0.0
 10
824.6173235927463
 20
817.1327765249216
 30
0.0
 10
824.6032057993342
 20
816.7634118651006
 30
0.0
 10
824.5508298296862
 20
816.2513239983451
 30
0.0
 10
824.4952537599308
 20
815.8900202123244
 30
0.0
 10
824.4262890113373
 20
815.5320294488505
 30
0.0
 10
824.3604543015724
 20
815.2485595168166
 30
0.0
 10
824.2845126072954
 20
814.9690030447615
 30
0.0
 10
824.2221744859347
 20
814.7607067424626
 30
0.0
 10
824.1552703154518
 20
814.5538323239059
 30
0.0
 10
824.0814788938795
 20
814.3503833652754
 30
0.0
 10
824.009667395256
 20
814.1426550635672
 30
0.0
 10
823.9410907763572
 20
814.0213099627995
 30
0.0
 10
823.9228714461378
 20
813.9474573680957
 30
0.0
  0
ARC
  5
A6
330
9D
100
AcDbEntity
  8
0
  6
Continuous
 62
     0
370
    30
100
AcDbCircle
 10
815.617887
 20
817.356635
 30
0.0
 40
8.999435257934142
100
AcDbArc
 50
359.98622
 51
37.812664
  0
SPLINE
  5
A7
330
9D
100
AcDbEntity
  8
0
  6
Continuous
 62
     0
370
    30
100
AcDbSpline
210
0.0
220
0.0
230
1.0
 70
     8
 71
     3
 72
    52
 73
    48
 74
     0
 42
0.000000001
 43
0.0
 40
0.0
 40
0.0
 40
0.0
 40
0.0
 40
9.960887217846322
 40
19.88885235299148
 40
29.79771460165508
 40
39.72614288573808
 40
46.37571756926805
 40
51.38607914473294
 40
54.74008061894725
 40
58.10804729423825
 40
59.79860786740156
 40
61.49438188432029
 40
63.19619902455742
 40
64.0498487015288
 40
64.90579245489502
 40
66.62674752244185
 40
67.48389194732789
 40
68.34613766411901
 40
68.56244241332614
 40
68.77876644653318
 40
68.99508957583897
 40
69.64390972298514
 40
70.29221273564787
 40
71.15519856643849
 40
71.80094988229334
 40
72.87352341500439
 40
73.93955117714776
 40
74.78737608861327
 40
76.05262903836473
 40
76.89475779038001
 40
77.74130011361287
 40
78.38582296140089
 40
78.79539555747516
 40
79.18935698370032
 40
79.39295069060897
 40
79.62181638500256
 40
79.88058798574997
 40
80.13769685945033
 40
80.24326832154676
 40
80.70396934396562
 40
80.87863291248465
 40
81.04775806300579
 40
81.21708048750753
 40
81.6580446270902
 40
82.09792140496384
 40
82.99832252517584
 40
83.2260195745255
 40
83.2260195745255
 40
83.2260195745255
 40
83.2260195745255
 10
740.6170695828686
 20
837.353630711063
 30
0.0
 10
743.902229714322
 20
836.8718807238156
 30
0.0
 10
750.461706584439
 20
835.9100173514091
 30
0.0
 10
760.2891485187812
 20
834.4690854174207
 30
0.0
 10
770.1058182514668
 20
833.0302009433801
 30
0.0
 10
778.8413937779378
 20
831.7501418190809
 30
0.0
 10
785.961425607355
 20
830.706283981149
 30
0.0
 10
790.9130293761486
 20
829.9798333820422
 30
0.0
 10
794.7822130643143
 20
829.4119710820327
 30
0.0
 10
797.5564462887377
 20
829.0047965305241
 30
0.0
 10
799.7837417995839
 20
828.6780142508243
 30
0.0
 10
801.4615466849256
 20
828.4319608291393
 30
0.0
 10
802.8633344976226
 20
828.2265203805345
 30
0.0
 10
803.9880949269731
 20
828.0618160735138
 30
0.0
 10
805.1190570339079
 20
827.896333554763
 30
0.0
 10
806.2508885179824
 20
827.7309837101293
 30
0.0
 10
807.3844360840249
 20
827.5658480701825
 30
0.0
 10
808.0217735812237
 20
827.4732236796984
 30
0.0
 10
808.4483394880828
 20
827.4113493764804
 30
0.0
 10
808.662395166999
 20
827.3803254256799
 30
0.0
 10
809.0191955357313
 20
827.3286580472533
 30
0.0
 10
809.5181928789887
 20
827.2565333654578
 30
0.0
 10
810.2257109429921
 20
827.1546166232428
 30
0.0
 10
810.9219394573015
 20
827.0547993650486
 30
0.0
 10
811.7350047186881
 20
826.9388987599104
 30
0.0
 10
812.5805064279253
 20
826.8193894445787
 30
0.0
 10
813.4266440028921
 20
826.7010239569713
 30
0.0
 10
814.2492718435202
 20
826.587153896271
 30
0.0
 10
814.918765813692
 20
826.4958682567567
 30
0.0
 10
815.468839876937
 20
826.4223807509155
 30
0.0
 10
815.8167813590801
 20
826.3769963226549
 30
0.0
 10
816.0275490362892
 20
826.3503655955669
 30
0.0
 10
816.1441098720578
 20
826.3361424276007
 30
0.0
 10
816.1937865817386
 20
826.3303292520437
 30
0.0
 10
816.2187780800442
 20
826.327518967286
 30
0.0
 10
816.2262914016788
 20
826.3267228416006
 30
0.0
 10
816.207459115728
 20
826.3287201679549
 30
0.0
 10
816.165981097678
 20
826.3326278579941
 30
0.0
 10
816.0919073341272
 20
826.3388251105349
 30
0.0
 10
816.0030952965545
 20
826.345054835153
 30
0.0
 10
815.8931058126108
 20
826.3502365771263
 30
0.0
 10
815.8216830063335
 20
826.352868205329
 30
0.0
 10
815.6991726239593
 20
826.3556788674096
 30
0.0
 10
815.6619887186732
 20
826.3558441061995
 30
0.0
 10
815.4730742950952
 20
826.3551158166907
 30
0.0
 10
815.5293158575047
 20
826.3552627348903
 30
0.0
 10
815.5343018768377
 20
826.355253235319
 30
0.0
 10
815.5343018959738
 20
826.3552474522608
 30
0.0
  0
ARC
  5
A8
330
9D
100
AcDbEntity
  8
0
  6
Continuous
 62
     0
370
    30
100
AcDbCircle
 10
815.617415
 20
817.355174
 30
0.0
 40
9.0
100
AcDbArc
 50
37.818169
 51
86.989659
  0
ENDBLK
  5
AA
330
9D
100
AcDbEntity
  8
0
100
AcDbBlockEnd
  0
BLOCK
  5
BD
330
AC
100
AcDbEntity
  8
0
100
AcDbBlockBegin
  2
d
 70
     0
 10
-637.520096
 20
971.835663
 30
0.0
  3
d
  1

  0
SPLINE
  5
AD
330
AC
100
AcDbEntity
  8
0
  6
Continuous
 62
     0
370
    30
100
AcDbSpline
210
0.0
220
0.0
230
1.0
 70
     8
 71
     3
 72
    16
 73
    12
 74
     0
 42
0.000000001
 43
0.0
 40
0.0
 40
0.0
 40
0.0
 40
0.0
 40
1.33596536861468
 40
3.655363087163271
 40
5.67964790609278
 40
7.873453421889209
 40
9.899165113329179
 40
12.0934334589125
 40
14.2873951391566
 40
16.4815854549223
 40
17.2149979296419
 40
17.2149979296419
 40
17.2149979296419
 40
17.2149979296419
 10
579.810337187487
 20
1003.961606443501
 30
0.0
 10
579.7732384650433
 20
1004.385983807397
 30
0.0
 10
579.7174301375444
 20
1005.575120212352
 30
0.0
 10
579.8294531902666
 20
1007.477391016102
 30
0.0
 10
580.2224342543796
 20
1009.60941124007
 30
0.0
 10
580.8229078031231
 20
1011.484232578109
 30
0.0
 10
581.6359166813654
 20
1013.135055025209
 30
0.0
 10
582.6022324747623
 20
1014.424232689819
 30
0.0
 10
583.6990504695214
 20
1015.282874831707
 30
0.0
 10
584.583784247063
 20
1015.550144433824
 30
0.0
 10
585.0815065944587
 20
1015.543952585614
 30
0.0
 10
585.2052837355022
 20
1015.532500047037
 30
0.0
  0
SPLINE
  5
AE
330
AC
100
AcDbEntity
  8
0
  6
Continuous
 62
     0
370
    30
100
AcDbSpline
210
0.0
220
0.0
230
1.0
 70
     8
 71
     7
 72
    51
 73
    43
 74
     0
 42
0.000000001
 43
0.0
 40
0.3756909876075183
 40
0.3756909876075183
 40
0.3756909876075183
 40
0.3756909876075183
 40
0.3756909876075183
 40
0.3756909876075183
 40
0.3756909876075183
 40
0.3756909876075183
 40
0.500000074586541
 40
0.500000074586541
 40
0.500000074586541
 40
0.500000074586541
 40
0.500000074586541
 40
0.5023804928
 40
0.5023804928
 40
0.5023804928
 40
0.5023804928
 40
0.5023804928
 40
0.5783820799999999
 40
0.5783820799999999
 40
0.5783820799999999
 40
0.5783820799999999
 40
0.5783820799999999
 40
0.645152
 40
0.645152
 40
0.645152
 40
0.645152
 40
0.645152
 40
0.7687999999999999
 40
0.7687999999999999
 40
0.7687999999999999
 40
0.7687999999999999
 40
0.7687999999999999
 40
0.7928639999999999
 40
0.7928639999999999
 40
0.7928639999999999
 40
0.7928639999999999
 40
0.7928639999999999
 40
0.82
 40
0.82
 40
0.82
 40
0.82
 40
0.82
 40
1.0
 40
1.0
 40
1.0
 40
1.0
 40
1.0
 40
1.0
 40
1.0
 40
1.0
 10
647.6611035335753
 20
1042.992083586648
 30
0.0
 10
648.2240307305708
 20
1043.467373434329
 30
0.0
 10
648.8460339102555
 20
1043.863252543219
 30
0.0
 10
649.51856417941
 20
1044.173044907198
 30
0.0
 10
650.2345301218229
 20
1044.388327438076
 30
0.0
 10
650.9807066784867
 20
1044.50737799823
 30
0.0
 10
651.7611239512005
 20
1044.53398511214
 30
0.0
 10
652.5503445823606
 20
1044.459478496918
 30
0.0
 10
652.5651765846678
 20
1044.458042835007
 30
0.0
 10
652.5800115389534
 20
1044.45657141288
 30
0.0
 10
652.5948493671303
 20
1044.455064197494
 30
0.0
 10
653.083518902786
 20
1044.404255147443
 30
0.0
 10
653.5751348344702
 20
1044.314562275078
 30
0.0
 10
654.0518973475118
 20
1044.190969695858
 30
0.0
 10
654.5257128921248
 20
1044.038875806811
 30
0.0
 10
654.9950988919563
 20
1043.848720287211
 30
0.0
 10
655.8618833930968
 20
1043.430855398441
 30
0.0
 10
656.69191813621
 20
1042.900217312875
 30
0.0
 10
657.0703653103369
 20
1042.628508354003
 30
0.0
 10
657.4378377956866
 20
1042.335601027381
 30
0.0
 10
657.7929520810881
 20
1042.022056373628
 30
0.0
 10
658.765110562987
 20
1041.072084770778
 30
0.0
 10
659.6082185240998
 20
1039.973086706629
 30
0.0
 10
660.0901798267926
 20
1039.205632707022
 30
0.0
 10
660.5124985441767
 20
1038.4023866379
 30
0.0
 10
660.8487477310191
 20
1037.564223150004
 30
0.0
 10
661.1572267754846
 20
1036.544197647417
 30
0.0
 10
661.3479757042292
 20
1035.517499634621
 30
0.0
 10
661.3763673552153
 20
1035.350101414683
 30
0.0
 10
661.399516201416
 20
1035.182932573201
 30
0.0
 10
661.423282634219
 20
1035.015457198337
 30
0.0
 10
661.4595678170394
 20
1034.660285129414
 30
0.0
 10
661.4873656561922
 20
1034.30582489001
 30
0.0
 10
661.5062046732878
 20
1034.117623623822
 30
0.0
 10
661.5208706211415
 20
1033.929760542496
 30
0.0
 10
661.5378206739852
 20
1033.741713910887
 30
0.0
 10
661.663215508102
 20
1032.306624941353
 30
0.0
 10
661.7886103436508
 20
1030.87153595408
 30
0.0
 10
661.8975777409651
 20
1029.624451803692
 30
0.0
 10
662.0065451408739
 20
1028.377367623972
 30
0.0
 10
662.1155125433072
 20
1027.130283415472
 30
0.0
 10
662.2244799474552
 20
1025.883199187262
 30
0.0
 10
662.3334473516031
 20
1024.636114959051
 30
0.0
  0
SPLINE
  5
AF
330
AC
100
AcDbEntity
  8
0
  6
Continuous
 62
     0
370
    30
100
AcDbSpline
210
0.0
220
0.0
230
1.0
 70
     8
 71
     7
 72
    41
 73
    33
 74
     0
 42
0.000000001
 43
0.0
 40
0.0
 40
0.0
 40
0.0
 40
0.0
 40
0.0
 40
0.0
 40
0.0
 40
0.0
 40
0.18
 40
0.18
 40
0.18
 40
0.18
 40
0.18
 40
0.2071359999999999
 40
0.2071359999999999
 40
0.2071359999999999
 40
0.2071359999999999
 40
0.2071359999999999
 40
0.2312
 40
0.2312
 40
0.2312
 40
0.2312
 40
0.2312
 40
0.3548480000000001
 40
0.3548480000000001
 40
0.3548480000000001
 40
0.3548480000000001
 40
0.3548480000000001
 40
0.4216179200000001
 40
0.4216179200000001
 40
0.4216179200000001
 40
0.4216179200000001
 40
0.4216179200000001
 40
0.4388704442518391
 40
0.4388704442518391
 40
0.4388704442518391
 40
0.4388704442518391
 40
0.4388704442518391
 40
0.4388704442518391
 40
0.4388704442518391
 40
0.4388704442518391
 10
662.3334473516031
 20
1024.636114959051
 30
0.0
 10
662.442415061563
 20
1023.389030702905
 30
0.0
 10
662.5513827715231
 20
1022.141946446758
 30
0.0
 10
662.6603504797533
 20
1020.894862210323
 30
0.0
 10
662.7693181854784
 20
1019.647778002666
 30
0.0
 10
662.878285888673
 20
1018.400693824336
 30
0.0
 10
663.0036810760594
 20
1016.965604804923
 30
0.0
 10
663.1290762617762
 20
1015.53051580327
 30
0.0
 10
663.1449800237956
 20
1015.342565432479
 30
0.0
 10
663.1631725755374
 20
1015.154377896773
 30
0.0
 10
663.1771839989417
 20
1014.966620778616
 30
0.0
 10
663.2113815637906
 20
1014.611571752068
 30
0.0
 10
663.2370796251262
 20
1014.257373718951
 30
0.0
 10
663.2424324475237
 20
1014.091592432051
 30
0.0
 10
663.2483588638802
 20
1013.926008087606
 30
0.0
 10
663.2489979092707
 20
1013.761163161336
 30
0.0
 10
663.2360326943488
 20
1012.753207245762
 30
0.0
 10
663.1022536656023
 20
1011.773870345433
 30
0.0
 10
662.9082154035073
 20
1010.984494333384
 30
0.0
 10
662.620561111722
 20
1010.246567160795
 30
0.0
 10
662.2659919787743
 20
1009.556075586867
 30
0.0
 10
661.6028314319678
 20
1008.595657152479
 30
0.0
 10
660.7822744084085
 20
1007.810618859741
 30
0.0
 10
660.4766421497352
 20
1007.557864172002
 30
0.0
 10
660.1548156689805
 20
1007.328373689697
 30
0.0
 10
659.8181020618636
 20
1007.122460912384
 30
0.0
 10
659.37671697788
 20
1006.895724881123
 30
0.0
 10
658.9155165625118
 20
1006.711041212544
 30
0.0
 10
658.8200101329328
 20
1006.674891283476
 30
0.0
 10
658.7237254109443
 20
1006.640525721032
 30
0.0
 10
658.6266918651725
 20
1006.607959070456
 30
0.0
 10
658.5289395678178
 20
1006.577202587388
 30
0.0
 10
658.4304989840302
 20
1006.548262993439
 30
0.0
  0
SPLINE
  5
B0
330
AC
100
AcDbEntity
  8
0
  6
Continuous
 62
     0
370
    30
100
AcDbSpline
210
0.0
220
0.0
230
1.0
 70
     8
 71
     3
 72
    78
 73
    74
 74
     0
 42
0.000000001
 43
0.0
 40
0.0
 40
0.0
 40
0.0
 40
0.0
 40
7.589828390444632
 40
11.40298155628874
 40
15.22822130033534
 40
19.06214583128132
 40
22.90119095533506
 40
24.82091243326799
 40
26.7398581508027
 40
27.22242153620506
 40
27.70783736109758
 40
27.94852740051026
 40
28.42573995635398
 40
29.13076514727766
 40
29.82226519379086
 40
30.92577523191728
 40
32.36754072298631
 40
32.56829940966622
 40
32.77683840155547
 40
32.99355767225195
 40
33.430041351257
 40
33.64593702098791
 40
34.08082787916678
 40
34.73438556587615
 40
35.39033988908439
 40
36.2696229020647
 40
38.27265168940553
 40
39.62903846040199
 40
40.08483241981497
 40
40.54231679737562
 40
40.77141818036747
 40
41.00069558707001
 40
41.45894605426318
 40
41.91706837161777
 40
42.14598005219532
 40
42.83155913943539
 40
43.2871314763665
 40
43.74103503845823
 40
44.19251271929972
 40
44.64197009099068
 40
44.86010449431399
 40
45.07774366622677
 40
45.18938914528835
 40
45.2949323693356
 40
45.34903817345565
 40
45.40337675482046
 40
45.5158956739696
 40
45.98017140797321
 40
46.44021917208288
 40
47.34909730178957
 40
48.24429155130077
 40
49.07758456590058
 40
49.89998988690257
 40
50.71248278537284
 40
51.51617326934223
 40
51.91509070413749
 40
52.31230208682997
 40
52.70707212420184
 40
53.10003011125937
 40
53.88333322990622
 40
54.66328331963579
 40
55.52849682027815
 40
56.38997633531935
 40
58.10253558610237
 40
59.80241666953035
 40
63.16897444413877
 40
66.49777833281382
 40
71.48366730278579
 40
78.08257483156119
 40
84.62501108789948
 40
91.14839011252171
 40
102.6108072721175
 40
114.406987497509
 40
114.406987497509
 40
114.406987497509
 40
114.406987497509
 10
583.5555523473802
 20
997.6067915401978
 30
0.0
 10
585.7263319617837
 20
997.4074203180573
 30
0.0
 10
588.9912404163513
 20
997.109300134139
 30
0.0
 10
593.3562697742695
 20
996.7130241154998
 30
0.0
 10
596.6466584508307
 20
996.4151787678466
 30
0.0
 10
599.9457958604539
 20
996.1170963169817
 30
0.0
 10
602.6995306929755
 20
995.868635799684
 30
0.0
 10
604.902492659819
 20
995.6697056875596
 30
0.0
 10
606.145321198655
 20
995.5578518897656
 30
0.0
 10
606.9709927921886
 20
995.4829094132302
 30
0.0
 10
607.3159011389037
 20
995.4529742771729
 30
0.0
 10
607.6641166896704
 20
995.4239223689423
 30
0.0
 10
608.0795681171362
 20
995.3905859045952
 30
0.0
 10
608.6352181799284
 20
995.3488957139868
 30
0.0
 10
609.3891254276605
 20
995.296841379235
 30
0.0
 10
610.3849703432561
 20
995.2353381706596
 30
0.0
 10
611.2495512258488
 20
995.1900637350994
 30
0.0
 10
611.8396622193318
 20
995.1617824784432
 30
0.0
 10
612.0358517944355
 20
995.1528096830574
 30
0.0
 10
612.3035710160439
 20
995.1419047656095
 30
0.0
 10
612.5779679486684
 20
995.1332836260732
 30
0.0
 10
612.9279890563782
 20
995.1250084073718
 30
0.0
 10
613.3504326232865
 20
995.1182274798771
 30
0.0
 10
613.9249402964015
 20
995.116423029042
 30
0.0
 10
614.6524954774866
 20
995.1248368205693
 30
0.0
 10
615.8332687221834
 20
995.1584504816234
 30
0.0
 10
617.2299053650481
 20
995.2422730727637
 30
0.0
 10
618.4194426767338
 20
995.3597149930964
 30
0.0
 10
619.0984655015279
 20
995.4425210172265
 30
0.0
 10
619.4338534128244
 20
995.4877241317633
 30
0.0
 10
619.6957166672444
 20
995.5255697339929
 30
0.0
 10
619.9561699037358
 20
995.5650605135459
 30
0.0
 10
620.2733460923819
 20
995.6163786922705
 30
0.0
 10
620.5840276920055
 20
995.6712844599812
 30
0.0
 10
620.9495634021177
 20
995.7403514737532
 30
0.0
 10
621.306788647877
 20
995.8141288167176
 30
0.0
 10
621.7097963550661
 20
995.9074368798875
 30
0.0
 10
622.0556274812207
 20
995.9959542371967
 30
0.0
 10
622.3676577900999
 20
996.0836005922399
 30
0.0
 10
622.6295449003792
 20
996.1633241412728
 30
0.0
 10
622.8366203519331
 20
996.230875613372
 30
0.0
 10
622.9654242782822
 20
996.2748185968699
 30
0.0
 10
623.0676277823163
 20
996.3109258677354
 30
0.0
 10
623.1326895782313
 20
996.3344614052727
 30
0.0
 10
623.1816490997951
 20
996.352481836002
 30
0.0
 10
623.2259018600028
 20
996.3689182891802
 30
0.0
 10
623.3142853426898
 20
996.4020000596413
 30
0.0
 10
623.4309557233678
 20
996.4450263311853
 30
0.0
 10
623.66210473009
 20
996.5297063810119
 30
0.0
 10
623.9446837611326
 20
996.631053972706
 30
0.0
 10
624.282394859586
 20
996.7492081581296
 30
0.0
 10
624.6145171187054
 20
996.8623904982597
 30
0.0
 10
624.9449133439457
 20
996.9721775628421
 30
0.0
 10
625.2810905560495
 20
997.0811053304051
 30
0.0
 10
625.5675903822653
 20
997.1716968073838
 30
0.0
 10
625.8019243389365
 20
997.2444743441517
 30
0.0
 10
625.9771691532369
 20
997.298298679127
 30
0.0
 10
626.1624534048449
 20
997.3545284731606
 30
0.0
 10
626.4188380524267
 20
997.432196897505
 30
0.0
 10
626.7357913101
 20
997.5278503816645
 30
0.0
 10
627.1328792396898
 20
997.6471429678904
 30
0.0
 10
627.5445393942575
 20
997.7702344183774
 30
0.0
 10
628.1125802402935
 20
997.9392970198026
 30
0.0
 10
628.8238692261289
 20
998.1495996695285
 30
0.0
 10
629.9626868361377
 20
998.483636733435
 30
0.0
 10
631.390921561183
 20
998.8980985739498
 30
0.0
 10
633.406026844892
 20
999.4760177703463
 30
0.0
 10
636.0155840154994
 20
1000.215440588514
 30
0.0
 10
639.2330351468604
 20
1001.116111472928
 30
0.0
 10
642.7532827666901
 20
1002.094832683199
 30
0.0
 10
647.1489517007064
 20
1003.317373541335
 30
0.0
 10
652.4393556454008
 20
1004.804609119012
 30
0.0
 10
656.4436403570126
 20
1005.964315111985
 30
0.0
 10
658.4304684523381
 20
1006.548366849683
 30
0.0
  0
SPLINE
  5
B1
330
AC
100
AcDbEntity
  8
0
  6
Continuous
 62
     0
370
    30
100
AcDbSpline
210
0.0
220
0.0
230
1.0
 70
     8
 71
     3
 72
   115
 73
   111
 74
     0
 42
0.000000001
 43
0.0
 40
0.0
 40
0.0
 40
0.0
 40
0.0
 40
9.244218465277196
 40
12.31747502634292
 40
15.38798472276806
 40
18.45832648095823
 40
19.99396344839249
 40
21.5364347547238
 40
22.32903422095601
 40
23.13362025018894
 40
23.95204676598707
 40
24.36701629352545
 40
24.78608805288572
 40
25.19672810579326
 40
25.61160045635402
 40
25.82058665028516
 40
26.03077330746109
 40
26.13610350900127
 40
26.31855244859841
 40
26.39154410737729
 40
26.45421194755337
 40
26.60342384890037
 40
26.71719423382877
 40
26.86504285562108
 40
27.02182586347883
 40
27.16759440851568
 40
27.32224870041037
 40
27.47906177244299
 40
27.77106731510419
 40
28.06889031351488
 40
28.37166873704118
 40
28.67862131754423
 40
28.98900183147495
 40
29.30209258239234
 40
29.45943873511816
 40
30.0847247373884
 40
30.38698442313588
 40
30.68923244591484
 40
30.84020745404313
 40
31.14158208644222
 40
31.29187481664313
 40
31.44183681588219
 40
31.51667604859702
 40
31.59141655918405
 40
31.62875034847543
 40
31.66604781578889
 40
31.73771046545115
 40
31.81462283420861
 40
31.89086556116478
 40
31.96439947085029
 40
32.03802729092259
 40
32.18551376051813
 40
32.33333623703984
 40
32.48050086188632
 40
32.7758803457621
 40
33.22173799638632
 40
33.52100066957387
 40
33.67129389050454
 40
33.82206485747127
 40
33.97425505407674
 40
34.12674806644618
 40
34.28030358979364
 40
34.43445241977241
 40
34.58954368285006
 40
34.7455954004725
 40
34.80991755873774
 40
34.8744208307411
 40
34.97008020398817
 40
35.00120693090054
 40
35.13106605893566
 40
35.26522435369628
 40
35.52978878481138
 40
35.7961271930285
 40
36.06369834786332
 40
36.33310054541637
 40
36.87691151292564
 40
37.29701484657522
 40
37.72007981932125
 40
38.28905902205299
 40
39.00857041638236
 40
39.29946947725414
 40
39.5926303577474
 40
40.03792675372128
 40
40.18828643856072
 40
40.33987063846502
 40
40.41797294671316
 40
40.49289493888963
 40
40.53183675141465
 40
40.57002552565213
 40
40.6067990488031
 40
40.64380082442568
 40
40.7905980375276
 40
40.93779130396453
 40
41.23239710920924
 40
41.52760581617393
 40
42.76099182370695
 40
44.00441408253288
 40
45.25747954624335
 40
46.5197788835117
 40
47.79088248897732
 40
49.07036143676918
 40
51.65265475287378
 40
54.90881593625672
 40
58.20144942095181
 40
61.52345653027696
 40
68.23680304116175
 40
71.61531077200468
 40
80.06903666716023
 40
90.16190172003516
 40
102.294402119714
 40
102.294402119714
 40
102.294402119714
 40
102.294402119714
 10
585.20529053971
 20
1015.53257358579
 30
0.0
 10
587.8466054831936
 20
1015.28873421613
 30
0.0
 10
591.356422378203
 20
1014.961342613032
 30
0.0
 10
595.7324367876199
 20
1014.550394374863
 30
0.0
 10
598.3504282381816
 20
1014.303880401979
 30
0.0
 10
600.5319957373081
 20
1014.098570372684
 30
0.0
 10
602.2761217778432
 20
1013.933665379954
 30
0.0
 10
603.3811812601509
 20
1013.830965184898
 30
0.0
 10
604.2502437931701
 20
1013.745448404504
 30
0.0
 10
604.9108433869246
 20
1013.676827402069
 30
0.0
 10
605.460369301016
 20
1013.617100118388
 30
0.0
 10
605.901720613781
 20
1013.567590120068
 30
0.0
 10
606.232086370125
 20
1013.529790990372
 30
0.0
 10
606.5604775037166
 20
1013.49152201921
 30
0.0
 10
606.8319648822812
 20
1013.459343649496
 30
0.0
 10
607.0498623519602
 20
1013.43321105428
 30
0.0
 10
607.1869817202132
 20
1013.416639158346
 30
0.0
 10
607.315576304859
 20
1013.401015682712
 30
0.0
 10
607.4141332224256
 20
1013.388952021545
 30
0.0
 10
607.5134365397639
 20
1013.37741236894
 30
0.0
 10
607.6067143912546
 20
1013.367138193221
 30
0.0
 10
607.7151069242523
 20
1013.356583601166
 30
0.0
 10
607.8514062023146
 20
1013.345589138889
 30
0.0
 10
607.9882472573181
 20
1013.336282249
 30
0.0
 10
608.1367039734582
 20
1013.328000477059
 30
0.0
 10
608.28889875097
 20
1013.321715883886
 30
0.0
 10
608.4404483149369
 20
1013.317453861675
 30
0.0
 10
608.6409952710364
 20
1013.314382987313
 30
0.0
 10
608.8893430810399
 20
1013.315019931047
 30
0.0
 10
609.1865318222758
 20
1013.322323913711
 30
0.0
 10
609.4886921875698
 20
1013.336172651365
 30
0.0
 10
609.7947749691098
 20
1013.356511761555
 30
0.0
 10
610.1037116208247
 20
1013.383254209274
 30
0.0
 10
610.3622494925557
 20
1013.410732228561
 30
0.0
 10
610.723993907196
 20
1013.454440393337
 30
0.0
 10
611.0801857361889
 20
1013.506052479587
 30
0.0
 10
611.4798736816222
 20
1013.575106335291
 30
0.0
 10
611.7234708312171
 20
1013.621641579834
 30
0.0
 10
611.9650848385563
 20
1013.671120865038
 30
0.0
 10
612.1566014884074
 20
1013.712998284702
 30
0.0
 10
612.3460984588817
 20
1013.757083913012
 30
0.0
 10
612.4635755306126
 20
1013.785522931485
 30
0.0
 10
612.5567610517242
 20
1013.808741685022
 30
0.0
 10
612.6150529185009
 20
1013.823549662378
 30
0.0
 10
612.6607302223551
 20
1013.8353082474
 30
0.0
 10
612.7081998404274
 20
1013.847667709245
 30
0.0
 10
612.7482792427288
 20
1013.858146016746
 30
0.0
 10
612.8253362155222
 20
1013.878946204469
 30
0.0
 10
612.8953064879483
 20
1013.898123216021
 30
0.0
 10
612.96092612701
 20
1013.916462332861
 30
0.0
 10
613.047919393325
 20
1013.941242070661
 30
0.0
 10
613.1553183124013
 20
1013.972718675158
 30
0.0
 10
613.2823784987597
 20
1014.011357522498
 30
0.0
 10
613.4491608379176
 20
1014.063939166468
 30
0.0
 10
613.6938887110232
 20
1014.145291621793
 30
0.0
 10
613.9667462795269
 20
1014.244078411093
 30
0.0
 10
614.1891765258338
 20
1014.33152582784
 30
0.0
 10
614.331382841212
 20
1014.390169901293
 30
0.0
 10
614.439341999187
 20
1014.436185947113
 30
0.0
 10
614.5294216822733
 20
1014.47591012126
 30
0.0
 10
614.6241424959023
 20
1014.519148964315
 30
0.0
 10
614.710154778234
 20
1014.559860911755
 30
0.0
 10
614.795282749898
 20
1014.601570570283
 30
0.0
 10
614.8754869359777
 20
1014.642310609442
 30
0.0
 10
614.9369940503777
 20
1014.674681297663
 30
0.0
 10
614.98167130192
 20
1014.698789740195
 30
0.0
 10
615.016169891841
 20
1014.717688863268
 30
0.0
 10
615.0440185239077
 20
1014.73321107685
 30
0.0
 10
615.0991441127269
 20
1014.764336062014
 30
0.0
 10
615.1797841046155
 20
1014.810346450771
 30
0.0
 10
615.3198301559671
 20
1014.890727314138
 30
0.0
 10
615.4863668775761
 20
1014.98785061004
 30
0.0
 10
615.6849715221349
 20
1015.10576340825
 30
0.0
 10
615.8779642905474
 20
1015.222701142185
 30
0.0
 10
616.1326054859187
 20
1015.380002422442
 30
0.0
 10
616.4123283916642
 20
1015.557860792225
 30
0.0
 10
616.7077370007746
 20
1015.752164335001
 30
0.0
 10
616.9917455849586
 20
1015.944826938467
 30
0.0
 10
617.3123436851995
 20
1016.170452689031
 30
0.0
 10
617.5743507798588
 20
1016.364385159526
 30
0.0
 10
617.7653562710166
 20
1016.511589906949
 30
0.0
 10
617.9035357608693
 20
1016.620809080544
 30
0.0
 10
618.0078403736261
 20
1016.706153097284
 30
0.0
 10
618.0838433630452
 20
1016.770090214815
 30
0.0
 10
618.1192628496246
 20
1016.800343467888
 30
0.0
 10
618.1457621503232
 20
1016.823248475271
 30
0.0
 10
618.1612596312491
 20
1016.836748500806
 30
0.0
 10
618.1737690458838
 20
1016.847718497085
 30
0.0
 10
618.1807601789574
 20
1016.853867266944
 30
0.0
 10
618.1951829774205
 20
1016.866613870735
 30
0.0
 10
618.236793280472
 20
1016.90337479088
 30
0.0
 10
618.284359062382
 20
1016.945372832974
 30
0.0
 10
618.3840837935697
 20
1017.033514634055
 30
0.0
 10
618.5013431043922
 20
1017.137202520769
 30
0.0
 10
618.79730439324
 20
1017.399124658403
 30
0.0
 10
619.2428582978655
 20
1017.794243742774
 30
0.0
 10
619.8412104593108
 20
1018.326409577593
 30
0.0
 10
620.4410855356671
 20
1018.861285583755
 30
0.0
 10
621.0431037707995
 20
1019.399252557872
 30
0.0
 10
621.6470532679441
 20
1019.939966807953
 30
0.0
 10
622.4574639128557
 20
1020.666694335734
 30
0.0
 10
623.5763074134011
 20
1021.672043455875
 30
0.0
 10
625.0041603341947
 20
1022.957636014877
 30
0.0
 10
626.5415186741766
 20
1024.343315494168
 30
0.0
 10
628.6122923842577
 20
1026.210059687436
 30
0.0
 10
630.6934468732479
 20
1028.084328245447
 30
0.0
 10
633.5789384010914
 20
1030.675251008953
 30
0.0
 10
637.0096763901529
 20
1033.74182340279
 30
0.0
 10
641.9005030988365
 20
1038.06216826848
 30
0.0
 10
645.584941274949
 20
1041.240599841853
 30
0.0
 10
647.6631126358775
 20
1042.993778509481
 30
0.0
  0
SPLINE
  5
B2
330
AC
100
AcDbEntity
  8
0
  6
Continuous
 62
     0
370
    30
100
AcDbSpline
210
0.0
220
0.0
230
1.0
 70
     8
 71
     7
 72
    51
 73
    43
 74
     0
 42
0.000000001
 43
0.0
 40
0.3748354372525312
 40
0.3748354372525312
 40
0.3748354372525312
 40
0.3748354372525312
 40
0.3748354372525312
 40
0.3748354372525312
 40
0.3748354372525312
 40
0.3748354372525312
 40
0.4216179200000001
 40
0.4216179200000001
 40
0.4216179200000001
 40
0.4216179200000001
 40
0.4216179200000001
 40
0.4976195072
 40
0.4976195072
 40
0.4976195072
 40
0.4976195072
 40
0.4976195072
 40
0.4999999254134589
 40
0.4999999254134589
 40
0.4999999254134589
 40
0.4999999254134589
 40
0.4999999254134589
 40
0.645152
 40
0.645152
 40
0.645152
 40
0.645152
 40
0.645152
 40
0.7687999999999999
 40
0.7687999999999999
 40
0.7687999999999999
 40
0.7687999999999999
 40
0.7687999999999999
 40
0.7928639999999999
 40
0.7928639999999999
 40
0.7928639999999999
 40
0.7928639999999999
 40
0.7928639999999999
 40
0.82
 40
0.82
 40
0.82
 40
0.82
 40
0.82
 40
1.0
 40
1.0
 40
1.0
 40
1.0
 40
1.0
 40
1.0
 40
1.0
 40
1.0
 10
133.1569910004746
 20
1090.298997524496
 30
0.0
 10
133.3679703414755
 20
1090.479017677523
 30
0.0
 10
133.5873457176551
 20
1090.647831873338
 30
0.0
 10
133.8146100390951
 20
1090.805168874264
 30
0.0
 10
134.049293841681
 20
1090.95074569038
 30
0.0
 10
134.2910072307849
 20
1091.084173050145
 30
0.0
 10
134.9429034058451
 20
1091.400890206932
 30
0.0
 10
135.6371145674149
 20
1091.627805783387
 30
0.0
 10
136.0806089436778
 20
1091.733974907451
 30
0.0
 10
136.5353100201522
 20
1091.800643815176
 30
0.0
 10
136.9980269377907
 20
1091.837802797462
 30
0.0
 10
137.4818101795229
 20
1091.837757374145
 30
0.0
 10
137.9694494705002
 20
1091.798744413251
 30
0.0
 10
137.9842622771498
 20
1091.79752372165
 30
0.0
 10
137.9990784690609
 20
1091.79626718972
 30
0.0
 10
138.0138979610596
 20
1091.794974865524
 30
0.0
 10
138.9325730606173
 20
1091.712664369604
 30
0.0
 10
139.8632731152251
 20
1091.493224735895
 30
0.0
 10
140.7713998025066
 20
1091.154993369274
 30
0.0
 10
141.6561774839103
 20
1090.690138816527
 30
0.0
 10
142.4936100095762
 20
1090.108931371692
 30
0.0
 10
143.9409303152539
 20
1088.854517619647
 30
0.0
 10
145.131090618974
 20
1087.303136604788
 30
0.0
 10
145.6130525918988
 20
1086.535682258587
 30
0.0
 10
146.0353720577767
 20
1085.732435784371
 30
0.0
 10
146.3716217020889
 20
1084.894271517679
 30
0.0
 10
146.6801010432378
 20
1083.874244889818
 30
0.0
 10
146.8708499865702
 20
1082.84754554647
 30
0.0
 10
146.8992416288436
 20
1082.680147105501
 30
0.0
 10
146.9223904925068
 20
1082.512978032539
 30
0.0
 10
146.9461568355219
 20
1082.34550243587
 30
0.0
 10
146.9824420822796
 20
1081.990329850443
 30
0.0
 10
147.0102395924225
 20
1081.635869119161
 30
0.0
 10
147.0290784509974
 20
1081.44766759683
 30
0.0
 10
147.0437443310313
 20
1081.25980424575
 30
0.0
 10
147.0606942318502
 20
1081.071757355644
 30
0.0
 10
147.1860880892432
 20
1079.636666394853
 30
0.0
 10
147.3114819449662
 20
1078.201575451822
 30
0.0
 10
147.4204484867116
 20
1076.954489648884
 30
0.0
 10
147.5294150259259
 20
1075.707403875273
 30
0.0
 10
147.6383815626353
 20
1074.460318130439
 30
0.0
 10
147.7473480976148
 20
1073.213232405318
 30
0.0
 10
147.8563146325944
 20
1071.966146680196
 30
0.0
  0
SPLINE
  5
B3
330
AC
100
AcDbEntity
  8
0
  6
Continuous
 62
     0
370
    30
100
AcDbSpline
210
0.0
220
0.0
230
1.0
 70
     8
 71
     3
 72
    16
 73
    12
 74
     0
 42
0.000000001
 43
0.0
 40
11.0632348072868
 40
11.0632348072868
 40
11.0632348072868
 40
11.0632348072868
 40
12.0939316520475
 40
14.2881205967379
 40
16.4823755371708
 40
18.6760853374277
 40
20.6995646240973
 40
22.8920289146698
 40
24.9170064395778
 40
27.0113544874755
 40
28.27622826885051
 40
28.27622826885051
 40
28.27622826885051
 40
28.27622826885051
 10
134.1793189075217
 20
1057.026234533314
 30
0.0
 10
134.0053592049952
 20
1057.042235170872
 30
0.0
 10
133.4554487541491
 20
1057.031170136841
 30
0.0
 10
132.5205812778164
 20
1056.688976981342
 30
0.0
 10
131.4344218843214
 20
1055.763399792252
 30
0.0
 10
130.4870365272699
 20
1054.418430820461
 30
0.0
 10
129.699840512961
 20
1052.724341739104
 30
0.0
 10
129.1294455043018
 20
1050.821014910773
 30
0.0
 10
128.7838255851201
 20
1048.748353610185
 30
0.0
 10
128.6966467778435
 20
1046.948739574575
 30
0.0
 10
128.7501472481513
 20
1045.857318682432
 30
0.0
 10
128.7852703072697
 20
1045.455492650619
 30
0.0
  0
SPLINE
  5
B4
330
AC
100
AcDbEntity
  8
0
  6
Continuous
 62
     0
370
    30
100
AcDbSpline
210
0.0
220
0.0
230
1.0
 70
     8
 71
     3
 72
    13
 73
     9
 74
     0
 42
0.000000001
 43
0.0
 40
0.0
 40
0.0
 40
0.0
 40
0.0
 40
1.33596536861468
 40
3.655363087163271
 40
5.67964790609278
 40
7.873453421889209
 40
9.899165113329179
 40
11.22198842196563
 40
11.22198842196563
 40
11.22198842196563
 40
11.22198842196563
 10
128.7852703072697
 20
1045.455492650619
 30
0.0
 10
128.8223353015219
 20
1045.031096037266
 30
0.0
 10
128.9697653932475
 20
1043.894250289489
 30
0.0
 10
129.3877871845078
 20
1042.294488321491
 30
0.0
 10
130.0983189363136
 20
1040.792268351164
 30
0.0
 10
130.9538197305417
 20
1039.74840520162
 30
0.0
 10
131.8270742204244
 20
1039.221226113651
 30
0.0
 10
132.387199606307
 20
1039.10735659871
 30
0.0
 10
132.6111418616878
 20
1039.094579185624
 30
0.0
  0
SPLINE
  5
B5
330
AC
100
AcDbEntity
  8
0
  6
Continuous
 62
     0
370
    30
100
AcDbSpline
210
0.0
220
0.0
230
1.0
 70
     8
 71
     7
 72
    31
 73
    23
 74
     0
 42
0.000000001
 43
0.0
 40
0.0
 40
0.0
 40
0.0
 40
0.0
 40
0.0
 40
0.0
 40
0.0
 40
0.0
 40
0.18
 40
0.18
 40
0.18
 40
0.18
 40
0.18
 40
0.2071359999999999
 40
0.2071359999999999
 40
0.2071359999999999
 40
0.2071359999999999
 40
0.2071359999999999
 40
0.2312
 40
0.2312
 40
0.2312
 40
0.2312
 40
0.2312
 40
0.3505431709312266
 40
0.3505431709312266
 40
0.3505431709312266
 40
0.3505431709312266
 40
0.3505431709312266
 40
0.3505431709312266
 40
0.3505431709312266
 40
0.3505431709312266
 10
147.8563146325944
 20
1071.966146680196
 30
0.0
 10
147.9652808617615
 20
1070.719060983011
 30
0.0
 10
148.0742470909285
 20
1069.471975285825
 30
0.0
 10
148.1832133218102
 20
1068.224889568929
 30
0.0
 10
148.2921795552163
 20
1066.977803823254
 30
0.0
 10
148.4011457912168
 20
1065.730718048246
 30
0.0
 10
148.5265392949474
 20
1064.295627137369
 30
0.0
 10
148.65193280011
 20
1062.860536208755
 30
0.0
 10
148.667836366077
 20
1062.672585582828
 30
0.0
 10
148.6860286378803
 20
1062.484397798948
 30
0.0
 10
148.7000398716604
 20
1062.296640424539
 30
0.0
 10
148.7342371096543
 20
1061.941590909661
 30
0.0
 10
148.7599344502065
 20
1061.587392425739
 30
0.0
 10
148.765287052794
 20
1061.421610917841
 30
0.0
 10
148.7712131425234
 20
1061.256026363137
 30
0.0
 10
148.7718518871419
 20
1061.091181225921
 30
0.0
 10
148.7592626651147
 20
1060.112599327963
 30
0.0
 10
148.6327986095081
 20
1059.160992748027
 30
0.0
 10
148.4510314364091
 20
1058.397066176653
 30
0.0
 10
148.1827870754146
 20
1057.679716379466
 30
0.0
 10
147.8497357280181
 20
1057.006863759447
 30
0.0
 10
147.4467875851335
 20
1056.393914708626
 30
0.0
 10
146.9806339706016
 20
1055.848578557373
 30
0.0
  0
SPLINE
  5
B6
330
AC
100
AcDbEntity
  8
0
  6
Continuous
 62
     0
370
    30
100
AcDbSpline
210
0.0
220
0.0
230
1.0
 70
     8
 71
     3
 72
    54
 73
    50
 74
     0
 42
0.000000001
 43
0.0
 40
0.0
 40
0.0
 40
0.0
 40
0.0
 40
11.40785388906836
 40
15.23558867089738
 40
19.07216312373921
 40
22.91362405227769
 40
24.83446371322751
 40
26.75376641663819
 40
27.77616136101607
 40
28.82105290629094
 40
29.07977343097538
 40
29.84854892877198
 40
30.8528777955639
 40
31.23516745706825
 40
31.61260043687328
 40
31.98476144872896
 40
32.35121076789462
 40
32.711503516788
 40
33.06658409958906
 40
33.15486526320738
 40
33.25111262243154
 40
33.37379404082215
 40
33.68699586090828
 40
34.07101291591336
 40
34.38660228145972
 40
34.70395947868295
 40
35.00011978679233
 40
35.26791719805397
 40
35.52359329588457
 40
36.00672000985442
 40
36.89525986146121
 40
37.2006347619561
 40
38.0392958477831
 40
39.02879696349957
 40
40.14018225764799
 40
40.70778450644747
 40
41.2296067713112
 40
41.4009582543144
 40
41.74120786499091
 40
41.91437515058189
 40
42.08601185503144
 40
42.25613176763402
 40
42.42509866870248
 40
42.92481896066045
 40
43.58212963507053
 40
44.55362120487069
 40
46.13369883712778
 40
46.89660774937968
 40
48.1412574629674
 40
48.1412574629674
 40
48.1412574629674
 40
48.1412574629674
 10
132.5297302972255
 20
1039.100560127295
 30
0.0
 10
129.2688575272959
 20
1039.401098630357
 30
0.0
 10
124.9215126914273
 20
1039.805265405874
 30
0.0
 10
119.4881037765955
 20
1040.313266560514
 30
0.0
 10
116.2105305465968
 20
1040.620306521365
 30
0.0
 10
113.4826591591049
 20
1040.876072224251
 30
0.0
 10
111.2879904681353
 20
1041.081961750293
 30
0.0
 10
109.9267878724904
 20
1041.209438207344
 30
0.0
 10
108.74501741269
 20
1041.320596291988
 30
0.0
 10
108.0587865979942
 20
1041.392644720197
 30
0.0
 10
107.45784321858
 20
1041.459379343041
 30
0.0
 10
106.8752756412873
 20
1041.527142528253
 30
0.0
 10
106.2719867241497
 20
1041.60304579094
 30
0.0
 10
105.7897379927168
 20
1041.667450748491
 30
0.0
 10
105.4848103119589
 20
1041.709491087278
 30
0.0
 10
105.1886352786505
 20
1041.751604007516
 30
0.0
 10
104.9027620882724
 20
1041.793455187444
 30
0.0
 10
104.6237844474455
 20
1041.835490622339
 30
0.0
 10
104.4284926618503
 20
1041.865648184306
 30
0.0
 10
104.2852281937174
 20
1041.888182261071
 30
0.0
 10
104.1989429429705
 20
1041.901929113174
 30
0.0
 10
104.0437011072944
 20
1041.927122172129
 30
0.0
 10
103.7951310485946
 20
1041.96925341409
 30
0.0
 10
103.4864448968895
 20
1042.025977078569
 30
0.0
 10
103.1814227264848
 20
1042.086625131213
 30
0.0
 10
102.9077393248102
 20
1042.144777468013
 30
0.0
 10
102.6480641567437
 20
1042.20350556687
 30
0.0
 10
102.4035164204544
 20
1042.262198330724
 30
0.0
 10
102.1046155330707
 20
1042.338062415912
 30
0.0
 10
101.6234636913368
 20
1042.469826980463
 30
0.0
 10
101.1271112903969
 20
1042.626031748992
 30
0.0
 10
100.5262981604435
 20
1042.840697651971
 30
0.0
 10
99.89685526361836
 20
1043.092979810559
 30
0.0
 10
99.03912919895402
 20
1043.507404496507
 30
0.0
 10
98.28490775559442
 20
1043.958742660123
 30
0.0
 10
97.69113820761868
 20
1044.380993833984
 30
0.0
 10
97.36326449592434
 20
1044.641406220206
 30
0.0
 10
97.10207331545234
 20
1044.864120511472
 30
0.0
 10
96.93220095941535
 20
1045.016561176106
 30
0.0
 10
96.76808645914048
 20
1045.172290903601
 30
0.0
 10
96.6467566963081
 20
1045.292092195407
 30
0.0
 10
96.52869608230753
 20
1045.413323817959
 30
0.0
 10
96.33869575725373
 20
1045.6163009342
 30
0.0
 10
96.05059832105849
 20
1045.949346698959
 30
0.0
 10
95.625662995467
 20
1046.515636136992
 30
0.0
 10
95.071674998258
 20
1047.430601520814
 30
0.0
 10
94.6521966254403
 20
1048.456255675889
 30
0.0
 10
94.35179399497656
 20
1049.612520573016
 30
0.0
 10
94.25415839539983
 20
1050.274756417091
 30
0.0
 10
94.21815947266305
 20
1050.686746245659
 30
0.0
  0
SPLINE
  5
B7
330
AC
100
AcDbEntity
  8
0
  6
Continuous
 62
     0
370
    30
100
AcDbSpline
210
0.0
220
0.0
230
1.0
 70
     8
 71
     3
 72
    40
 73
    36
 74
     0
 42
0.000000001
 43
0.0
 40
9.149386926575014
 40
9.149386926575014
 40
9.149386926575014
 40
9.149386926575014
 40
9.203157728504044
 40
9.476853888147645
 40
9.605145052450938
 40
9.964865878056436
 40
10.38972753096786
 40
10.65702120598853
 40
11.29020486978277
 40
11.77207902785807
 40
12.00652405184248
 40
12.23685133724586
 40
12.46295402708817
 40
12.68457342778087
 40
12.90201902793719
 40
13.1129147941189
 40
13.31832760501653
 40
14.11880139823444
 40
14.97344241773609
 40
15.81595676307125
 40
16.64679495932225
 40
17.46646806780392
 40
18.10888164025424
 40
18.42772034138811
 40
18.7385826521538
 40
19.32484948668495
 40
19.910885291904
 40
21.08282505160868
 40
22.25463621714985
 40
26.12847323602793
 40
30.00438570767882
 40
32.48216325859602
 40
34.96235582234075
 40
37.44515988818168
 40
39.93037699206629
 40
39.93037699206629
 40
39.93037699206629
 40
39.93037699206629
 10
112.9844183839007
 20
1058.647193698111
 30
0.0
 10
112.9844185421963
 20
1058.647194053689
 30
0.0
 10
112.9836569572094
 20
1058.647534784202
 30
0.0
 10
112.9761398331356
 20
1058.650785983931
 30
0.0
 10
112.9497805625673
 20
1058.661430517784
 30
0.0
 10
112.8978854492246
 20
1058.681355064934
 30
0.0
 10
112.8016851605169
 20
1058.714706579887
 30
0.0
 10
112.6449678867129
 20
1058.763993054797
 30
0.0
 10
112.4388895784371
 20
1058.82161416221
 30
0.0
 10
112.2023523648883
 20
1058.877222175543
 30
0.0
 10
112.0255664568416
 20
1058.914011406402
 30
0.0
 10
111.8931252506247
 20
1058.939370768597
 30
0.0
 10
111.7593892838369
 20
1058.962683734201
 30
0.0
 10
111.6329621965426
 20
1058.982884648404
 30
0.0
 10
111.4873802852342
 20
1059.003339901374
 30
0.0
 10
111.3880191768667
 20
1059.016450008452
 30
0.0
 10
111.1013751488587
 20
1059.045514811791
 30
0.0
 10
111.7527146020839
 20
1059.00219449315
 30
0.0
 10
112.4901260017749
 20
1058.950779098502
 30
0.0
 10
113.2714144961918
 20
1058.89392288833
 30
0.0
 10
114.0285399662858
 20
1058.835910236445
 30
0.0
 10
114.7237139091765
 20
1058.779823549963
 30
0.0
 10
115.2597939765556
 20
1058.734406209462
 30
0.0
 10
115.6418433376282
 20
1058.701013450966
 30
0.0
 10
116.0036091838663
 20
1058.668579117229
 30
0.0
 10
116.4245797114894
 20
1058.630735118656
 30
0.0
 10
117.1007830623203
 20
1058.570010483152
 30
0.0
 10
117.9422508864545
 20
1058.494438008867
 30
0.0
 10
119.7307814601629
 20
1058.333831007852
 30
0.0
 10
122.2960484520545
 20
1058.103412560806
 30
0.0
 10
125.2359925456763
 20
1057.838766199367
 30
0.0
 10
127.7732865390296
 20
1057.60959521439
 30
0.0
 10
129.9089000925521
 20
1057.416083520251
 30
0.0
 10
132.0443657765984
 20
1057.221686414141
 30
0.0
 10
133.4677964960409
 20
1057.091734392311
 30
0.0
 10
134.178784136321
 20
1057.026405123465
 30
0.0
  0
SPLINE
  5
B8
330
AC
100
AcDbEntity
  8
0
  6
Continuous
 62
     0
370
    30
100
AcDbSpline
210
0.0
220
0.0
230
1.0
 70
     8
 71
     3
 72
    67
 73
    63
 74
     0
 42
0.000000001
 43
0.0
 40
0.0
 40
0.0
 40
0.0
 40
0.0
 40
0.7326415629340636
 40
1.964869028668261
 40
3.479839634441424
 40
5.300059229356479
 40
6.080463120489376
 40
6.280831266806834
 40
6.483775739774889
 40
6.68888490710394
 40
6.797617334213942
 40
6.90299046747322
 40
7.004244366531862
 40
7.109615056415549
 40
7.325202507752596
 40
7.542409697544844
 40
7.762884976385047
 40
7.985949572713608
 40
8.67523631234228
 40
8.911998026080685
 40
9.397115411102765
 40
9.899461815648937
 40
10.42141301062063
 40
10.69056494228414
 40
10.96562869616777
 40
11.22366893850065
 40
11.48727098440712
 40
11.84198654753499
 40
12.19396597203341
 40
12.56007856686687
 40
12.93034458420379
 40
13.10151925112776
 40
13.27415690322837
 40
13.44161180827167
 40
13.52887349207334
 40
13.58148952971643
 40
13.6575006609399
 40
13.82329985220797
 40
13.98652579059633
 40
14.45758086587789
 40
14.92439006095561
 40
15.42608744033134
 40
15.92465754171621
 40
16.42002872923671
 40
17.40194965322654
 40
18.3736604109264
 40
19.32264525596439
 40
19.78751722957877
 40
20.25102845790647
 40
20.71340006319187
 40
21.63845822325296
 40
22.55839857923819
 40
24.38078594454
 40
26.18096967542081
 40
31.46102618147804
 40
33.18497646613043
 40
36.57761753708954
 40
46.46163133182092
 40
54.52197592386337
 40
57.73010885084623
 40
69.02972409646442
 40
82.7552398803663
 40
82.7552398803663
 40
82.7552398803663
 40
82.7552398803663
 10
94.21811797064174
 20
1050.687221313067
 30
0.0
 10
94.19691475325737
 20
1050.929822671053
 30
0.0
 10
94.16278306537708
 20
1051.581743080397
 30
0.0
 10
94.21210363098692
 20
1052.731154626067
 30
0.0
 10
94.47586463701975
 20
1054.203262405177
 30
0.0
 10
94.91748775813107
 20
1055.45699265785
 30
0.0
 10
95.31033800380669
 20
1056.255729758709
 30
0.0
 10
95.49001374339673
 20
1056.584471424687
 30
0.0
 10
95.58467557477582
 20
1056.750774741018
 30
0.0
 10
95.66875732142967
 20
1056.892297393441
 30
0.0
 10
95.73543733003078
 20
1057.001832040319
 30
0.0
 10
95.78768499268244
 20
1057.08549624171
 30
0.0
 10
95.84140468864905
 20
1057.170110041792
 30
0.0
 10
95.91288081039363
 20
1057.280433045579
 30
0.0
 10
96.00845193859857
 20
1057.424136954642
 30
0.0
 10
96.12594791245783
 20
1057.595025046743
 30
0.0
 10
96.24732183090293
 20
1057.765757012874
 30
0.0
 10
96.4597056491258
 20
1058.054830786464
 30
0.0
 10
96.68337163838635
 20
1058.339706094481
 30
0.0
 10
96.96790665974504
 20
1058.679741594453
 30
0.0
 10
97.2212055249596
 20
1058.968076451797
 30
0.0
 10
97.54376519394634
 20
1059.312429652557
 30
0.0
 10
97.82886406390946
 20
1059.597787967899
 30
0.0
 10
98.06892867681347
 20
1059.826775185852
 30
0.0
 10
98.25260771929811
 20
1059.996283385126
 30
0.0
 10
98.43604077578118
 20
1060.16042781444
 30
0.0
 10
98.64660042918297
 20
1060.342759444058
 30
0.0
 10
98.85331176252191
 20
1060.516459679397
 30
0.0
 10
99.09847846574587
 20
1060.717376710147
 30
0.0
 10
99.34506631759473
 20
1060.913430177714
 30
0.0
 10
99.55615220762934
 20
1061.076141291973
 30
0.0
 10
99.72394964359046
 20
1061.202429074072
 30
0.0
 10
99.84513407045154
 20
1061.292251412211
 30
0.0
 10
99.94712607640827
 20
1061.366704091728
 30
0.0
 10
100.0211297254849
 20
1061.420088879221
 30
0.0
 10
100.0709493760106
 20
1061.455825321283
 30
0.0
 10
100.1349147894686
 20
1061.501529293716
 30
0.0
 10
100.2060412504957
 20
1061.552230195295
 30
0.0
 10
100.3420996888098
 20
1061.649815902233
 30
0.0
 10
100.5492396348441
 20
1061.79876034743
 30
0.0
 10
100.8023028561216
 20
1061.982117771648
 30
0.0
 10
101.0621525284615
 20
1062.171817342621
 30
0.0
 10
101.3238633504155
 20
1062.364490585123
 30
0.0
 10
101.6658980191389
 20
1062.618494382094
 30
0.0
 10
102.081483349674
 20
1062.931531669291
 30
0.0
 10
102.5616023348383
 20
1063.300755209345
 30
0.0
 10
102.9449513049849
 20
1063.602259090465
 30
0.0
 10
103.2393537662032
 20
1063.837949310641
 30
0.0
 10
103.45572973402
 20
1064.013260398073
 30
0.0
 10
103.731385847227
 20
1064.23954326766
 30
0.0
 10
104.1234560003232
 20
1064.565523911779
 30
0.0
 10
104.7268625992069
 20
1065.068674835245
 30
0.0
 10
105.4745015893619
 20
1065.697393004187
 30
0.0
 10
106.9229168867391
 20
1066.92723325432
 30
0.0
 10
108.3313611332896
 20
1068.145364226993
 30
0.0
 10
109.9693665364535
 20
1069.583530351449
 30
0.0
 10
112.3090544570834
 20
1071.659000363024
 30
0.0
 10
115.5650348596386
 20
1074.613986329914
 30
0.0
 10
118.7813944287834
 20
1077.565948480628
 30
0.0
 10
122.2520182608907
 20
1080.737955417496
 30
0.0
 10
126.683889582521
 20
1084.743897234416
 30
0.0
 10
130.8330375492556
 20
1088.338628165094
 30
0.0
 10
133.1847476933457
 20
1090.322414104994
 30
0.0
  0
ELLIPSE
  5
B9
330
AC
100
AcDbEntity
  8
0
  6
Continuous
 62
     0
370
    30
100
AcDbEllipse
 10
133.354938
 20
1048.064158
 30
0.0
 11
0.8245339193778058
 21
8.962150624475996
 31
0.0
210
0.0
220
0.0
230
1.0
 40
0.508463
 41
1.912561093283962
 42
3.14159265297774
  0
ELLIPSE
  5
BA
330
AC
100
AcDbEntity
  8
0
  6
Continuous
 62
     0
370
    30
100
AcDbEllipse
 10
584.380111
 20
1006.569034
 30
0.0
 11
-0.8245339193778081
 21
-8.962150624476021
 31
0.0
210
0.0
220
0.0
230
-1.0
 40
0.508463
 41
0.000003837425223
 42
1.289151484979597
  0
LINE
  5
BB
330
AC
100
AcDbEntity
  8
0
  6
Continuous
 62
     0
370
    30
100
AcDbLine
 10
132.530405
 20
1039.102007
 30
0.0
 11
583.555577
 21
997.606883
 31
0.0
  0
LINE
  5
BC
330
AC
100
AcDbEntity
  8
0
  6
Continuous
 62
     0
370
    30
100
AcDbLine
 10
134.179472
 20
1057.026308
 30
0.0
 11
585.204645
 21
1015.531184
 31
0.0
  0
ENDBLK
  5
BE
330
AC
100
AcDbEntity
  8
0
100
AcDbBlockEnd
  0
BLOCK
  5
CC
330
C0
100
AcDbEntity
  8
0
100
AcDbBlockBegin
  2
e
 70
     0
 10
43.54517
 20
0.0
 30
0.0
  3
e
  1

  0
ARC
  5
C1
330
C0
100
AcDbEntity
  8
0
  6
Continuous
 62
     0
370
    30
100
AcDbCircle
 10
-82.541493
 20
817.355456
 30
0.0
 40
9.001115941490365
100
AcDbArc
 50
92.08306
 51
142.518214
  0
LINE
  5
C2
330
C0
100
AcDbEntity
  8
0
  6
Continuous
 62
     0
370
    30
100
AcDbLine
 10
-7.541047
 20
837.356619
 30
0.0
 11
-7.541036
 21
817.35662
 31
0.0
  0
LINE
  5
C3
330
C0
100
AcDbEntity
  8
0
  6
Continuous
 62
     0
370
    30
100
AcDbLine
 10
-7.541036
 20
817.35662
 30
0.0
 11
-7.54101
 21
797.356618
 31
0.0
  0
ARC
  5
C4
330
C0
100
AcDbEntity
  8
0
  6
Continuous
 62
     0
370
    30
100
AcDbCircle
 10
-82.541599
 20
817.353683
 30
0.0
 40
8.999435257933929
100
AcDbArc
 50
179.98622
 51
217.812664
  0
SPLINE
  5
C5
330
C0
100
AcDbEntity
  8
0
  6
Continuous
 62
     0
370
    30
100
AcDbSpline
210
0.0
220
0.0
230
1.0
 70
     8
 71
     3
 72
    52
 73
    48
 74
     0
 42
0.000000001
 43
0.0
 40
0.0
 40
0.0
 40
0.0
 40
0.0
 40
9.960887217846343
 40
19.8888523529915
 40
29.79771460165512
 40
39.72614288573811
 40
46.37571756926806
 40
51.38607914473294
 40
54.74008061894722
 40
58.10804729423822
 40
59.79860786740151
 40
61.49438188432025
 40
63.19619902455735
 40
64.04984870152875
 40
64.90579245489495
 40
66.62674752244173
 40
67.48389194732778
 40
68.34613766411888
 40
68.56244241332601
 40
68.77876644653306
 40
68.99508957583883
 40
69.64390972298499
 40
70.29221273564767
 40
71.15519856643833
 40
71.8009498822932
 40
72.87352341500429
 40
73.93955117714752
 40
74.78737608861302
 40
76.05262903836454
 40
76.8947577903798
 40
77.7413001136126
 40
78.38582296140065
 40
78.79539555747468
 40
79.18935698369985
 40
79.39295069060856
 40
79.62181638500164
 40
79.8805879857482
 40
80.13769685944774
 40
80.24326832154374
 40
80.70396934396004
 40
80.87863291247787
 40
81.04775806299789
 40
81.21708048749835
 40
81.6580446270883
 40
82.09792140496909
 40
82.99832252518311
 40
83.22601948188458
 40
83.22601948188458
 40
83.22601948188458
 40
83.22601948188458
 10
-7.540781360498457
 20
797.3566868880531
 30
0.0
 10
-10.82594149195185
 20
797.8384368753004
 30
0.0
 10
-17.38541836206889
 20
798.8003002477069
 30
0.0
 10
-27.21286029641112
 20
800.2412321816953
 30
0.0
 10
-37.02953002909672
 20
801.680116655736
 30
0.0
 10
-45.76510555556777
 20
802.960175780035
 30
0.0
 10
-52.88513738498492
 20
804.0040336179671
 30
0.0
 10
-57.83674115377856
 20
804.7304842170739
 30
0.0
 10
-61.70592484194421
 20
805.2983465170834
 30
0.0
 10
-64.48015806636758
 20
805.7055210685919
 30
0.0
 10
-66.70745357721384
 20
806.0323033482917
 30
0.0
 10
-68.38525846255544
 20
806.2783567699768
 30
0.0
 10
-69.78704627525255
 20
806.4837972185816
 30
0.0
 10
-70.91180670460292
 20
806.6485015256022
 30
0.0
 10
-72.04276881153768
 20
806.813984044353
 30
0.0
 10
-73.17460029561225
 20
806.9793338889867
 30
0.0
 10
-74.30814786165466
 20
807.1444695289335
 30
0.0
 10
-74.94548535885347
 20
807.2370939194176
 30
0.0
 10
-75.3720512657125
 20
807.2989682226355
 30
0.0
 10
-75.58610694462871
 20
807.3299921734362
 30
0.0
 10
-75.94290731336113
 20
807.3816595518628
 30
0.0
 10
-76.44190465661842
 20
807.4537842336582
 30
0.0
 10
-77.14942272062197
 20
807.5557009758733
 30
0.0
 10
-77.84565123493131
 20
807.6555182340675
 30
0.0
 10
-78.65871649631794
 20
807.7714188392056
 30
0.0
 10
-79.50421820555538
 20
807.8909281545373
 30
0.0
 10
-80.35035578052235
 20
808.0092936421447
 30
0.0
 10
-81.17298362115082
 20
808.1231637028451
 30
0.0
 10
-81.84247759132273
 20
808.2144493423594
 30
0.0
 10
-82.39255165456814
 20
808.2879368482007
 30
0.0
 10
-82.74049313671165
 20
808.3333212764613
 30
0.0
 10
-82.95126081392098
 20
808.3599520035494
 30
0.0
 10
-83.06782164968989
 20
808.3741751715156
 30
0.0
 10
-83.11749835937088
 20
808.3799883470728
 30
0.0
 10
-83.14248985767655
 20
808.3827986318304
 30
0.0
 10
-83.15000317931144
 20
808.3835947575158
 30
0.0
 10
-83.13117089336126
 20
808.3815974311616
 30
0.0
 10
-83.0896928753118
 20
808.3776897411225
 30
0.0
 10
-83.01561911176194
 20
808.3714924885817
 30
0.0
 10
-82.92680707419021
 20
808.3652627639636
 30
0.0
 10
-82.81681759024754
 20
808.3600810219903
 30
0.0
 10
-82.74539478397107
 20
808.3574493937876
 30
0.0
 10
-82.6228844015966
 20
808.3546387317069
 30
0.0
 10
-82.5857004963093
 20
808.354473492917
 30
0.0
 10
-82.39678607272776
 20
808.3552017824256
 30
0.0
 10
-82.45302763181449
 20
808.3550548642347
 30
0.0
 10
-82.45801365365197
 20
808.3550643637961
 30
0.0
 10
-82.45801367360716
 20
808.3550701468489
 30
0.0
  0
SPLINE
  5
C6
330
C0
100
AcDbEntity
  8
0
  6
Continuous
 62
     0
370
    30
100
AcDbSpline
210
0.0
220
0.0
230
1.0
 70
     8
 71
     3
 72
    39
 73
    35
 74
     0
 42
0.000000001
 43
0.0
 40
21.91344242748939
 40
21.91344242748939
 40
21.91344242748939
 40
21.91344242748939
 40
21.91673763128262
 40
22.15481158766694
 40
22.29012152130475
 40
22.55544470919614
 40
23.01901265865509
 40
23.24570036547881
 40
23.69343114722363
 40
24.13663120882813
 40
25.00682149398008
 40
25.87202451621497
 40
27.3924818744734
 40
28.47148356687513
 40
29.97883309867776
 40
30.62754071603293
 40
31.49672432794084
 40
31.93556682977674
 40
32.81377083613256
 40
33.03334330159401
 40
33.90922110947544
 40
34.77976423904044
 40
35.49157135806691
 40
36.20088251930051
 40
36.90810364936146
 40
40.42217050352312
 40
45.9947412687105
 40
51.0231559650734
 40
59.35090588333352
 40
69.29120449089213
 40
79.20078900581031
 40
85.81055970294514
 40
92.43483798780146
 40
101.4914533148499
 40
101.4914533148499
 40
101.4914533148499
 40
101.4914533148499
 10
-83.14617499659401
 20
826.328473996635
 30
0.0
 10
-83.14617499571507
 20
826.3284739880525
 30
0.0
 10
-83.14612079891799
 20
826.3284792122957
 30
0.0
 10
-83.13986764301302
 20
826.3291559203785
 30
0.0
 10
-83.11967864649282
 20
826.33143957809
 30
0.0
 10
-83.08248427892367
 20
826.3357547442264
 30
0.0
 10
-83.01227339532969
 20
826.3442330360518
 30
0.0
 10
-82.9058209035164
 20
826.3574629422877
 30
0.0
 10
-82.77942425434561
 20
826.373475760979
 30
0.0
 10
-82.53980165557944
 20
826.4044526825159
 30
0.0
 10
-82.17537073700105
 20
826.4525887975798
 30
0.0
 10
-81.51460237261189
 20
826.5416804313784
 30
0.0
 10
-80.66456946579096
 20
826.6585919122132
 30
0.0
 10
-79.51537469659395
 20
826.8191264755332
 30
0.0
 10
-78.52689298552066
 20
826.9589667267932
 30
0.0
 10
-77.56427267747185
 20
827.0965319010652
 30
0.0
 10
-76.92828817232072
 20
827.1879059303797
 30
0.0
 10
-76.21065960105065
 20
827.2914012280007
 30
0.0
 10
-75.70322979195677
 20
827.3648289752202
 30
0.0
 10
-75.05258455040138
 20
827.459181422973
 30
0.0
 10
-74.40550925780404
 20
827.5532043702734
 30
0.0
 10
-73.59550975530132
 20
827.6711966394438
 30
0.0
 10
-72.84034773064752
 20
827.7813972288498
 30
0.0
 10
-72.13883975991845
 20
827.8838992473794
 30
0.0
 10
-70.51348245737353
 20
828.1216340658386
 30
0.0
 10
-67.28405734157018
 20
828.5949917832435
 30
0.0
 10
-62.62946520604584
 20
829.2782019685017
 30
0.0
 10
-56.3869799109107
 20
830.1945643447474
 30
0.0
 10
-48.70368270548778
 20
831.3215842365954
 30
0.0
 10
-39.41046612648385
 20
832.683614969869
 30
0.0
 10
-30.68400715150281
 20
833.9627645010358
 30
0.0
 10
-23.05116780882237
 20
835.0819609288907
 30
0.0
 10
-15.69960122258892
 20
836.1600619526439
 30
0.0
 10
-10.52795622900189
 20
836.9185373267997
 30
0.0
 10
-7.541039857055999
 20
837.3566186111686
 30
0.0
  0
ARC
  5
C7
330
C0
100
AcDbEntity
  8
0
  6
Continuous
 62
     0
370
    30
100
AcDbCircle
 10
-82.541777
 20
817.358307
 30
0.0
 40
8.999172998350357
100
AcDbArc
 50
142.531518
 51
179.060063
  0
SPLINE
  5
C8
330
C0
100
AcDbEntity
  8
0
  6
Continuous
 62
     0
370
    30
100
AcDbSpline
210
0.0
220
0.0
230
1.0
 70
     8
 71
     3
 72
    18
 73
    14
 74
     0
 42
0.000000001
 43
0.0
 40
0.0
 40
0.0
 40
0.0
 40
0.0
 40
0.6653525608925963
 40
1.107635489328006
 40
1.550480727149804
 40
1.772533336480415
 40
2.218684401272216
 40
2.443099350886629
 40
2.668605485860576
 40
2.895413119871969
 40
3.123700536277847
 40
3.353768343682611
 40
3.586814079993882
 40
3.586814079993882
 40
3.586814079993882
 40
3.586814079993882
 10
-91.541035370379
 20
817.3558471245087
 30
0.0
 10
-91.541035370379
 20
817.5775410741948
 30
0.0
 10
-91.52691757696687
 20
817.9469057340159
 30
0.0
 10
-91.47454160731888
 20
818.4589936007714
 30
0.0
 10
-91.41896553756351
 20
818.820297386792
 30
0.0
 10
-91.35000078896994
 20
819.178288150266
 30
0.0
 10
-91.28416607920502
 20
819.4617580822998
 30
0.0
 10
-91.20822438492803
 20
819.741314554355
 30
0.0
 10
-91.14588626356732
 20
819.9496108566537
 30
0.0
 10
-91.07898209308456
 20
820.1564852752106
 30
0.0
 10
-91.00519067151197
 20
820.3599342338408
 30
0.0
 10
-90.9333791728898
 20
820.5676625355499
 30
0.0
 10
-90.86480255398737
 20
820.6890076363158
 30
0.0
 10
-90.84658322377044
 20
820.7628602310208
 30
0.0
  0
ARC
  5
C9
330
C0
100
AcDbEntity
  8
0
  6
Continuous
 62
     0
370
    30
100
AcDbCircle
 10
-82.541549
 20
817.354732
 30
0.0
 40
9.00099280150285
100
AcDbArc
 50
217.817835
 51
267.120518
  0
SPLINE
  5
CA
330
C0
100
AcDbEntity
  8
0
  6
Continuous
 62
     0
370
    30
100
AcDbSpline
210
0.0
220
0.0
230
1.0
 70
     8
 71
     3
 72
    35
 73
    31
 74
     0
 42
0.000000001
 43
0.0
 40
22.92202346257641
 40
22.92202346257641
 40
22.92202346257641
 40
22.92202346257641
 40
23.01899491394962
 40
23.24568311918326
 40
23.69341452226276
 40
24.13661491248425
 40
25.00680581025318
 40
25.87200929543939
 40
27.39246720138939
 40
28.47146891679976
 40
29.97881829868372
 40
30.62752589294738
 40
31.4967094312468
 40
31.93555179334793
 40
32.81375555405131
 40
33.03332796581966
 40
33.90920581680942
 40
34.77974897167362
 40
35.49151073664812
 40
36.20077680729425
 40
36.90795304688086
 40
40.42179725296031
 40
45.9940161118988
 40
51.02243447781067
 40
59.35018837958059
 40
69.29049075640263
 40
79.2000760024454
 40
85.80984552918558
 40
92.43412195685468
 40
101.4914827792271
 40
101.4914827792271
 40
101.4914827792271
 40
101.4914827792271
 10
-83.01305677730942
 20
808.3661004519021
 30
0.0
 10
-83.00519685819512
 20
808.3651384537399
 30
0.0
 10
-82.97796711405125
 20
808.361793664094
 30
0.0
 10
-82.905809718008
 20
808.3528259800933
 30
0.0
 10
-82.77941571152928
 20
808.3368135387284
 30
0.0
 10
-82.53979684344677
 20
808.3058371614762
 30
0.0
 10
-82.17536999961182
 20
808.2577016538582
 30
0.0
 10
-81.51460682958925
 20
808.1686108103128
 30
0.0
 10
-80.6645783415356
 20
808.0517000207211
 30
0.0
 10
-79.5153876501771
 20
807.8911661063344
 30
0.0
 10
-78.52690811972583
 20
807.7513262335185
 30
0.0
 10
-77.56428927115084
 20
807.613761318691
 30
0.0
 10
-76.92830543576973
 20
807.522387413211
 30
0.0
 10
-76.21067738613803
 20
807.4188922168296
 30
0.0
 10
-75.70324780843038
 20
807.3454645177725
 30
0.0
 10
-75.05260249526731
 20
807.251112075263
 30
0.0
 10
-74.40552725875119
 20
807.1570891492645
 30
0.0
 10
-73.59554267908665
 20
807.0390990666821
 30
0.0
 10
-72.84041047124826
 20
806.928902843755
 30
0.0
 10
-72.13894712762514
 20
806.8264073644057
 30
0.0
 10
-70.51369293413589
 20
806.5886876749339
 30
0.0
 10
-67.28447212477457
 20
806.1153599850609
 30
0.0
 10
-62.63006829233144
 20
805.4321775074784
 30
0.0
 10
-56.38769658449087
 20
804.5158317535439
 30
0.0
 10
-48.70439563455398
 20
803.3888112010468
 30
0.0
 10
-39.41117624346991
 20
802.0267800246651
 30
0.0
 10
-30.68471615884778
 20
800.7476303711658
 30
0.0
 10
-23.05187757468109
 20
799.6284340795278
 30
0.0
 10
-15.70006612089644
 20
798.5502971572208
 30
0.0
 10
-10.5281758701112
 20
797.7917858153866
 30
0.0
 10
-7.541013630239824
 20
797.3536684703706
 30
0.0
  0
ARC
  5
CB
330
C0
100
AcDbEntity
  8
0
  6
Continuous
 62
     0
370
    30
100
AcDbCircle
 10
-82.541127
 20
817.355144
 30
0.0
 40
9.000000000000025
100
AcDbArc
 50
217.818169
 51
266.989659
  0
ENDBLK
  5
CD
330
C0
100
AcDbEntity
  8
0
100
AcDbBlockEnd
  0
ENDSEC
  0
SECTION
  2
ENTITIES
  0
INSERT
  5
8C
330
1F
100
AcDbEntity
  8
0
  6
Continuous
 62
     7
370
     0
100
AcDbBlockReference
  2
a
 10
25.707016
 20
124.147675
 30
0.0
  0
INSERT
  5
9C
330
1F
100
AcDbEntity
  8
0
  6
Continuous
 62
     7
370
     0
100
AcDbBlockReference
  2
b
 10
303.908066
 20
581.888123
 30
0.0
  0
INSERT
  5
AB
330
1F
100
AcDbEntity
  8
0
  6
Continuous
 62
     7
370
     0
100
AcDbBlockReference
  2
c
 10
25.707016
 20
-194.547821
 30
0.0
  0
INSERT
  5
BF
330
1F
100
AcDbEntity
  8
0
  6
Continuous
 62
     7
370
     0
100
AcDbBlockReference
  2
d
 10
-637.520096
 20
971.835663
 30
0.0
  0
INSERT
  5
CE
330
1F
100
AcDbEntity
  8
0
  6
Continuous
 62
     7
370
     0
100
AcDbBlockReference
  2
e
 10
43.54517
 20
0.0
 30
0.0
  0
ENDSEC
  0
SECTION
  2
OBJECTS
  0
DICTIONARY
  5
C
330
0
100
AcDbDictionary
281
     1
  3
ACAD_GROUP
350
D
  3
ACAD_LAYOUT
350
1A
  3
ACAD_MATERIAL
350
43
  3
ACAD_MLEADERSTYLE
350
6B
  3
ACAD_MLINESTYLE
350
17
  3
ACAD_PLOTSETTINGS
350
19
  3
ACAD_PLOTSTYLENAME
350
E
  3
ACAD_SCALELIST
350
47
  3
ACAD_TABLESTYLE
350
69
  3
ACAD_VISUALSTYLE
350
2A
  3
AcDbVariableDictionary
350
CF
  0
DICTIONARY
  5
DA
330
8
100
AcDbDictionary
280
     1
281
     1
  3
ACAD_XREC_ROUNDTRIP
360
DB
  0
DICTIONARY
  5
D
102
{ACAD_REACTORS
330
C
102
}
330
C
100
AcDbDictionary
281
     1
  0
DICTIONARY
  5
1A
102
{ACAD_REACTORS
330
C
102
}
330
C
100
AcDbDictionary
281
     1
  3
Layout1
350
1E
  3
Layout2
350
26
  3
Model
350
22
  0
DICTIONARY
  5
43
102
{ACAD_REACTORS
330
C
102
}
330
C
100
AcDbDictionary
281
     1
  3
ByBlock
350
45
  3
ByLayer
350
44
  3
Global
350
46
  0
DICTIONARY
  5
6B
102
{ACAD_REACTORS
330
C
102
}
330
C
100
AcDbDictionary
281
     1
  3
Standard
350
6C
  0
DICTIONARY
  5
17
102
{ACAD_REACTORS
330
C
102
}
330
C
100
AcDbDictionary
281
     1
  3
Standard
350
18
  0
DICTIONARY
  5
19
102
{ACAD_REACTORS
330
C
102
}
330
C
100
AcDbDictionary
281
     1
  0
ACDBDICTIONARYWDFLT
  5
E
102
{ACAD_REACTORS
330
C
102
}
330
C
100
AcDbDictionary
281
     1
  3
Normal
350
F
100
AcDbDictionaryWithDefault
340
F
  0
DICTIONARY
  5
47
102
{ACAD_REACTORS
330
C
102
}
330
C
100
AcDbDictionary
281
     1
  3
A0
350
48
  3
A1
350
49
  3
A2
350
4A
  3
A3
350
4B
  3
A4
350
4C
  3
A5
350
4D
  3
A6
350
4E
  3
A7
350
4F
  3
A8
350
50
  3
A9
350
51
  3
B0
350
52
  3
B1
350
53
  3
B2
350
54
  3
B3
350
55
  3
B4
350
56
  3
B5
350
57
  3
B6
350
58
  3
B7
350
59
  3
B8
350
5A
  3
B9
350
5B
  3
C0
350
5C
  3
C1
350
5D
  3
C2
350
5E
  3
C3
350
5F
  3
C4
350
60
  3
C5
350
61
  3
C6
350
62
  3
C7
350
63
  3
C8
350
64
  3
C9
350
65
  3
D0
350
66
  3
D1
350
67
  3
D2
350
68
  0
DICTIONARY
  5
69
102
{ACAD_REACTORS
330
C
102
}
330
C
100
AcDbDictionary
281
     1
  3
Standard
350
6A
  0
DICTIONARY
  5
2A
102
{ACAD_REACTORS
330
C
102
}
330
C
100
AcDbDictionary
281
     1
  3
2dWireframe
350
2F
  3
Basic
350
32
  3
Brighten
350
36
  3
ColorChange
350
3A
  3
Conceptual
350
34
  3
Dim
350
35
  3
EdgeColorOff
350
3D
  3
Facepattern
350
39
  3
Flat
350
2B
  3
FlatWithEdges
350
2C
  3
Gouraud
350
2D
  3
GouraudWithEdges
350
2E
  3
Hidden
350
31
  3
JitterOff
350
3B
  3
Linepattern
350
38
  3
OverhangOff
350
3C
  3
Realistic
350
33
  3
Shaded
350
42
  3
Shaded with edges
350
41
  3
Shades of Gray
350
3E
  3
Sketchy
350
3F
  3
Thicken
350
37
  3
Wireframe
350
30
  3
X-Ray
350
40
  0
DICTIONARY
  5
CF
102
{ACAD_REACTORS
330
C
102
}
330
C
100
AcDbDictionary
281
     1
  3
CANNOSCALE
350
DC
  3
CENTEREXE
350
D6
  3
CENTERLTYPEFILE
350
D7
  3
CMLEADERSTYLE
350
D1
  3
CTABLESTYLE
350
D0
  3
DIMASSOC
350
D8
  3
HIDETEXT
350
D9
  3
MSLTSCALE
350
DD
  3
PSOLHEIGHT
350
D3
  3
PSOLWIDTH
350
D2
  0
XRECORD
  5
DB
102
{ACAD_REACTORS
330
DA
102
}
330
DA
100
AcDbXrecord
280
     1
102
VTR_0.000_0.000_1.000_1.000_VISUALSTYLE
340
2F
102
VTR_0.000_0.000_1.000_1.000_GRIDDISPLAY
 70
     3
102
VTR_0.000_0.000_1.000_1.000_GRIDMAJOR
 70
     5
102
VTR_0.000_0.000_1.000_1.000_DEFAULTLIGHTING
280
     1
102
VTR_0.000_0.000_1.000_1.000_DEFAULTLIGHTINGTYPE
 70
     1
102
VTR_0.000_0.000_1.000_1.000_BRIGHTNESS
141
0.0
102
VTR_0.000_0.000_1.000_1.000_CONTRAST
142
0.0
  0
LAYOUT
  5
1E
102
{ACAD_REACTORS
330
1A
102
}
330
1A
100
AcDbPlotSettings
  1

  2
none_device
  4

  6

 40
0.0
 41
0.0
 42
0.0
 43
0.0
 44
0.0
 45
0.0
 46
0.0
 47
0.0
 48
0.0
 49
0.0
140
0.0
141
0.0
142
1.0
143
1.0
 70
   688
 72
     1
 73
     0
 74
     5
  7

 75
    16
147
1.0
148
0.0
149
0.0
100
AcDbLayout
  1
Layout1
 70
     1
 71
     1
 10
0.0
 20
0.0
 11
420.0
 21
297.0
 12
0.0
 22
0.0
 32
0.0
 14
1.000000E+20
 24
1.000000E+20
 34
1.000000E+20
 15
-1.000000E+20
 25
-1.000000E+20
 35
-1.000000E+20
146
0.0
 13
0.0
 23
0.0
 33
0.0
 16
1.0
 26
0.0
 36
0.0
 17
0.0
 27
1.0
 37
0.0
 76
     0
330
1B
  0
LAYOUT
  5
26
102
{ACAD_REACTORS
330
1A
102
}
330
1A
100
AcDbPlotSettings
  1

  2
none_device
  4

  6

 40
0.0
 41
0.0
 42
0.0
 43
0.0
 44
0.0
 45
0.0
 46
0.0
 47
0.0
 48
0.0
 49
0.0
140
0.0
141
0.0
142
1.0
143
1.0
 70
   688
 72
     1
 73
     0
 74
     5
  7

 75
    16
147
1.0
148
0.0
149
0.0
100
AcDbLayout
  1
Layout2
 70
     1
 71
     2
 10
0.0
 20
0.0
 11
0.0
 21
0.0
 12
0.0
 22
0.0
 32
0.0
 14
0.0
 24
0.0
 34
0.0
 15
0.0
 25
0.0
 35
0.0
146
0.0
 13
0.0
 23
0.0
 33
0.0
 16
1.0
 26
0.0
 36
0.0
 17
0.0
 27
1.0
 37
0.0
 76
     0
330
23
  0
LAYOUT
  5
22
102
{ACAD_REACTORS
330
1A
102
}
330
1A
100
AcDbPlotSettings
  1

  2
none_device
  4
Letter_(8.50_x_11.00_Inches)
  6

 40
6.35
 41
6.35
 42
6.350005
 43
6.350005
 44
215.9
 45
279.4
 46
0.0
 47
0.0
 48
0.0
 49
0.0
140
0.0
141
0.0
142
1.0
143
1.0
 70
  1712
 72
     1
 73
     0
 74
     0
  7

 75
     0
147
1.0
148
0.0
149
0.0
100
AcDbLayout
  1
Model
 70
     1
 71
     0
 10
-91.541039
 20
547.015442
 11
824.61731
 21
1091.813721
 12
0.0
 22
0.0
 32
0.0
 14
-91.541039
 24
547.015442
 34
0.0
 15
824.61731
 25
1091.813721
 35
0.0
146
0.0
 13
0.0
 23
0.0
 33
0.0
 16
1.0
 26
0.0
 36
0.0
 17
0.0
 27
1.0
 37
0.0
 76
     0
330
1F
331
29
  0
MATERIAL
  5
45
102
{ACAD_REACTORS
330
43
102
}
102
{ACAD_XDICTIONARY
360
110
102
}
330
43
100
AcDbMaterial
  1
ByBlock
  0
MATERIAL
  5
44
102
{ACAD_REACTORS
330
43
102
}
102
{ACAD_XDICTIONARY
360
10E
102
}
330
43
100
AcDbMaterial
  1
ByLayer
  0
MATERIAL
  5
46
102
{ACAD_REACTORS
330
43
102
}
102
{ACAD_XDICTIONARY
360
112
102
}
330
43
100
AcDbMaterial
  1
Global
  0
MLEADERSTYLE
  5
6C
102
{ACAD_REACTORS
330
6B
102
}
102
{ACAD_XDICTIONARY
360
115
102
}
330
6B
100
AcDbMLeaderStyle
170
     2
171
     1
172
     0
 90
        2
 40
0.0
 41
0.0
173
     1
 91
-1056964608
340
14
 92
       -2
290
     1
 42
2.0
291
     1
 43
8.0
  3
Standard
341
0
 44
4.0
300

342
11
174
     1
178
     6
175
     1
176
     0
 93
-1056964608
 45
4.0
292
     0
297
     0
 46
4.0
343
0
 94
-1056964608
 47
1.0
 49
1.0
140
1.0
293
     1
141
0.0
294
     1
177
     0
142
1.0
295
     0
296
     0
143
3.75
1001
ACAD_MLEADERVER
1070
     2
  0
MLINESTYLE
  5
18
102
{ACAD_REACTORS
330
17
102
}
330
17
100
AcDbMlineStyle
  2
Standard
 70
     0
  3

 62
   256
 51
90.0
 52
90.0
 71
     2
 49
0.5
 62
   256
  6
BYLAYER
 49
-0.5
 62
   256
  6
BYLAYER
  0
ACDBPLACEHOLDER
  5
F
102
{ACAD_REACTORS
330
E
102
}
330
E
  0
SCALE
  5
48
102
{ACAD_REACTORS
330
47
102
}
330
47
100
AcDbScale
 70
     0
300
1:1
140
1.0
141
1.0
290
     1
  0
SCALE
  5
49
102
{ACAD_REACTORS
330
47
102
}
330
47
100
AcDbScale
 70
     0
300
1:2
140
1.0
141
2.0
290
     0
  0
SCALE
  5
4A
102
{ACAD_REACTORS
330
47
102
}
330
47
100
AcDbScale
 70
     0
300
1:4
140
1.0
141
4.0
290
     0
  0
SCALE
  5
4B
102
{ACAD_REACTORS
330
47
102
}
330
47
100
AcDbScale
 70
     0
300
1:5
140
1.0
141
5.0
290
     0
  0
SCALE
  5
4C
102
{ACAD_REACTORS
330
47
102
}
330
47
100
AcDbScale
 70
     0
300
1:8
140
1.0
141
8.0
290
     0
  0
SCALE
  5
4D
102
{ACAD_REACTORS
330
47
102
}
330
47
100
AcDbScale
 70
     0
300
1:10
140
1.0
141
10.0
290
     0
  0
SCALE
  5
4E
102
{ACAD_REACTORS
330
47
102
}
330
47
100
AcDbScale
 70
     0
300
1:16
140
1.0
141
16.0
290
     0
  0
SCALE
  5
4F
102
{ACAD_REACTORS
330
47
102
}
330
47
100
AcDbScale
 70
     0
300
1:20
140
1.0
141
20.0
290
     0
  0
SCALE
  5
50
102
{ACAD_REACTORS
330
47
102
}
330
47
100
AcDbScale
 70
     0
300
1:30
140
1.0
141
30.0
290
     0
  0
SCALE
  5
51
102
{ACAD_REACTORS
330
47
102
}
330
47
100
AcDbScale
 70
     0
300
1:40
140
1.0
141
40.0
290
     0
  0
SCALE
  5
52
102
{ACAD_REACTORS
330
47
102
}
330
47
100
AcDbScale
 70
     0
300
1:50
140
1.0
141
50.0
290
     0
  0
SCALE
  5
53
102
{ACAD_REACTORS
330
47
102
}
330
47
100
AcDbScale
 70
     0
300
1:100
140
1.0
141
100.0
290
     0
  0
SCALE
  5
54
102
{ACAD_REACTORS
330
47
102
}
330
47
100
AcDbScale
 70
     0
300
2:1
140
2.0
141
1.0
290
     0
  0
SCALE
  5
55
102
{ACAD_REACTORS
330
47
102
}
330
47
100
AcDbScale
 70
     0
300
4:1
140
4.0
141
1.0
290
     0
  0
SCALE
  5
56
102
{ACAD_REACTORS
330
47
102
}
330
47
100
AcDbScale
 70
     0
300
8:1
140
8.0
141
1.0
290
     0
  0
SCALE
  5
57
102
{ACAD_REACTORS
330
47
102
}
330
47
100
AcDbScale
 70
     0
300
10:1
140
10.0
141
1.0
290
     0
  0
SCALE
  5
58
102
{ACAD_REACTORS
330
47
102
}
330
47
100
AcDbScale
 70
     0
300
100:1
140
100.0
141
1.0
290
     0
  0
SCALE
  5
59
102
{ACAD_REACTORS
330
47
102
}
330
47
100
AcDbScale
 70
     0
300
1/128" = 1'-0"
140
0.007812
141
12.0
290
     0
  0
SCALE
  5
5A
102
{ACAD_REACTORS
330
47
102
}
330
47
100
AcDbScale
 70
     0
300
1/64" = 1'-0"
140
0.015625
141
12.0
290
     0
  0
SCALE
  5
5B
102
{ACAD_REACTORS
330
47
102
}
330
47
100
AcDbScale
 70
     0
300
1/32" = 1'-0"
140
0.03125
141
12.0
290
     0
  0
SCALE
  5
5C
102
{ACAD_REACTORS
330
47
102
}
330
47
100
AcDbScale
 70
     0
300
1/16" = 1'-0"
140
0.0625
141
12.0
290
     0
  0
SCALE
  5
5D
102
{ACAD_REACTORS
330
47
102
}
330
47
100
AcDbScale
 70
     0
300
3/32" = 1'-0"
140
0.09375
141
12.0
290
     0
  0
SCALE
  5
5E
102
{ACAD_REACTORS
330
47
102
}
330
47
100
AcDbScale
 70
     0
300
1/8" = 1'-0"
140
0.125
141
12.0
290
     0
  0
SCALE
  5
5F
102
{ACAD_REACTORS
330
47
102
}
330
47
100
AcDbScale
 70
     0
300
3/16" = 1'-0"
140
0.1875
141
12.0
290
     0
  0
SCALE
  5
60
102
{ACAD_REACTORS
330
47
102
}
330
47
100
AcDbScale
 70
     0
300
1/4" = 1'-0"
140
0.25
141
12.0
290
     0
  0
SCALE
  5
61
102
{ACAD_REACTORS
330
47
102
}
330
47
100
AcDbScale
 70
     0
300
3/8" = 1'-0"
140
0.375
141
12.0
290
     0
  0
SCALE
  5
62
102
{ACAD_REACTORS
330
47
102
}
330
47
100
AcDbScale
 70
     0
300
1/2" = 1'-0"
140
0.5
141
12.0
290
     0
  0
SCALE
  5
63
102
{ACAD_REACTORS
330
47
102
}
330
47
100
AcDbScale
 70
     0
300
3/4" = 1'-0"
140
0.75
141
12.0
290
     0
  0
SCALE
  5
64
102
{ACAD_REACTORS
330
47
102
}
330
47
100
AcDbScale
 70
     0
300
1" = 1'-0"
140
1.0
141
12.0
290
     0
  0
SCALE
  5
65
102
{ACAD_REACTORS
330
47
102
}
330
47
100
AcDbScale
 70
     0
300
1-1/2" = 1'-0"
140
1.5
141
12.0
290
     0
  0
SCALE
  5
66
102
{ACAD_REACTORS
330
47
102
}
330
47
100
AcDbScale
 70
     0
300
3" = 1'-0"
140
3.0
141
12.0
290
     0
  0
SCALE
  5
67
102
{ACAD_REACTORS
330
47
102
}
330
47
100
AcDbScale
 70
     0
300
6" = 1'-0"
140
6.0
141
12.0
290
     0
  0
SCALE
  5
68
102
{ACAD_REACTORS
330
47
102
}
330
47
100
AcDbScale
 70
     0
300
1'-0" = 1'-0"
140
12.0
141
12.0
290
     0
  0
TABLESTYLE
  5
6A
102
{ACAD_REACTORS
330
69
102
}
330
69
100
AcDbTableStyle
  3
Standard
 70
     0
 71
     0
 40
1.5
 41
1.5
280
     0
281
     0
  7
Standard
140
4.5
170
     2
 62
     0
 63
   257
283
     0
274
    -2
284
     1
 64
     0
275
    -2
285
     1
 65
     0
276
    -2
286
     1
 66
     0
277
    -2
287
     1
 67
     0
278
    -2
288
     1
 68
     0
279
    -2
289
     1
 69
     0
  7
Standard
140
6.0
170
     5
 62
     0
 63
   257
283
     0
274
    -2
284
     1
 64
     0
275
    -2
285
     1
 65
     0
276
    -2
286
     1
 66
     0
277
    -2
287
     1
 67
     0
278
    -2
288
     1
 68
     0
279
    -2
289
     1
 69
     0
  7
Standard
140
4.5
170
     5
 62
     0
 63
   257
283
     0
274
    -2
284
     1
 64
     0
275
    -2
285
     1
 65
     0
276
    -2
286
     1
 66
     0
277
    -2
287
     1
 67
     0
278
    -2
288
     1
 68
     0
279
    -2
289
     1
 69
     0
  0
VISUALSTYLE
  5
2F
102
{ACAD_REACTORS
330
2A
102
}
102
{ACAD_XDICTIONARY
360
E6
102
}
330
2A
100
AcDbVisualStyle
  2
2dWireframe
 70
     4
 71
     0
 72
     2
 73
     0
 90
        0
 40
0.6
 41
30.0
 62
     5
 63
     7
 74
     1
 91
        4
 64
     7
 65
   257
 75
     1
175
     1
 42
1.0
 92
        0
 66
   257
 43
1.0
 76
     1
 77
     6
 78
     2
 67
     7
 79
     5
170
     0
171
     0
290
     0
174
     0
 93
        1
 44
0.0
173
     0
291
     0
 45
0.0
1001
ACAD
1000
AcDbSavedByObjectVersion
1070
     0
  0
VISUALSTYLE
  5
32
102
{ACAD_REACTORS
330
2A
102
}
102
{ACAD_XDICTIONARY
360
EC
102
}
330
2A
100
AcDbVisualStyle
  2
Basic
 70
     7
 71
     1
 72
     0
 73
     1
 90
        0
 40
0.6
 41
30.0
 62
     5
 63
     7
 74
     0
 91
        4
 64
     7
 65
   257
 75
     1
175
     1
 42
1.0
 92
        8
 66
     7
 43
1.0
 76
     1
 77
     6
 78
     2
 67
     7
 79
     5
170
     0
171
     0
290
     0
174
     0
 93
        1
 44
0.0
173
     0
291
     1
 45
0.0
1001
ACAD
1000
AcDbSavedByObjectVersion
1070
     0
  0
VISUALSTYLE
  5
36
102
{ACAD_REACTORS
330
2A
102
}
102
{ACAD_XDICTIONARY
360
F4
102
}
330
2A
100
AcDbVisualStyle
  2
Brighten
 70
    12
 71
     2
 72
     2
 73
     0
 90
        0
 40
0.6
 41
30.0
 62
     5
 63
     7
 74
     1
 91
        4
 64
     7
 65
   257
 75
     1
175
     1
 42
1.0
 92
        8
 66
     7
 43
1.0
 76
     1
 77
     6
 78
     2
 67
     7
 79
     5
170
     0
171
     0
290
     0
174
     0
 93
        1
 44
50.0
173
     0
291
     1
 45
0.0
1001
ACAD
1000
AcDbSavedByObjectVersion
1070
     0
  0
VISUALSTYLE
  5
3A
102
{ACAD_REACTORS
330
2A
102
}
102
{ACAD_XDICTIONARY
360
FC
102
}
330
2A
100
AcDbVisualStyle
  2
ColorChange
 70
    16
 71
     2
 72
     2
 73
     3
 90
        0
 40
0.6
 41
30.0
 62
     5
 63
     8
 74
     1
 91
        4
 64
     7
 65
   257
 75
     1
175
     1
 42
1.0
 92
        8
 66
     8
 43
1.0
 76
     1
 77
     6
 78
     2
 67
     7
 79
     5
170
     0
171
     0
290
     0
174
     0
 93
        1
 44
0.0
173
     0
291
     1
 45
0.0
1001
ACAD
1000
AcDbSavedByObjectVersion
1070
     0
  0
VISUALSTYLE
  5
34
102
{ACAD_REACTORS
330
2A
102
}
102
{ACAD_XDICTIONARY
360
F0
102
}
330
2A
100
AcDbVisualStyle
  2
Conceptual
 70
     9
 71
     3
 72
     2
 73
     0
 90
        0
 40
0.6
 41
30.0
 62
     5
 63
     7
 74
     2
 91
        2
 64
     7
 65
   257
 75
     1
175
     1
 42
179.0
 92
        8
 66
     7
 43
1.0
 76
     1
 77
     6
 78
     2
 67
     7
 79
     3
170
     0
171
     0
290
     0
174
     0
 93
        1
 44
0.0
173
     0
291
     0
 45
0.0
1001
ACAD
1000
AcDbSavedByObjectVersion
1070
     0
  0
VISUALSTYLE
  5
35
102
{ACAD_REACTORS
330
2A
102
}
102
{ACAD_XDICTIONARY
360
F2
102
}
330
2A
100
AcDbVisualStyle
  2
Dim
 70
    11
 71
     2
 72
     2
 73
     0
 90
        0
 40
0.6
 41
30.0
 62
     5
 63
     7
 74
     1
 91
        4
 64
     7
 65
   257
 75
     1
175
     1
 42
1.0
 92
        8
 66
     7
 43
1.0
 76
     1
 77
     6
 78
     2
 67
     7
 79
     5
170
     0
171
     0
290
     0
174
     0
 93
        1
 44
-50.0
173
     0
291
     1
 45
0.0
1001
ACAD
1000
AcDbSavedByObjectVersion
1070
     0
  0
VISUALSTYLE
  5
3D
102
{ACAD_REACTORS
330
2A
102
}
102
{ACAD_XDICTIONARY
360
102
102
}
330
2A
100
AcDbVisualStyle
  2
EdgeColorOff
 70
    22
 71
     2
 72
     2
 73
     0
 90
        0
 40
0.6
 41
30.0
 62
     5
 63
     7
 74
     1
 91
        4
 64
     7
 65
   257
 75
     1
175
     1
 42
1.0
 92
        8
 66
     7
 43
1.0
 76
     1
 77
     6
 78
     2
 67
     7
 79
     5
170
     0
171
     0
290
     0
174
     0
 93
        1
 44
0.0
173
     0
291
     1
 45
0.0
1001
ACAD
1000
AcDbSavedByObjectVersion
1070
     0
  0
VISUALSTYLE
  5
39
102
{ACAD_REACTORS
330
2A
102
}
102
{ACAD_XDICTIONARY
360
FA
102
}
330
2A
100
AcDbVisualStyle
  2
Facepattern
 70
    15
 71
     2
 72
     2
 73
     0
 90
        0
 40
0.6
 41
30.0
 62
     5
 63
     7
 74
     1
 91
        4
 64
     7
 65
   257
 75
     1
175
     1
 42
1.0
 92
        8
 66
     7
 43
1.0
 76
     1
 77
     6
 78
     2
 67
     7
 79
     5
170
     0
171
     0
290
     0
174
     0
 93
        1
 44
0.0
173
     0
291
     1
 45
0.0
1001
ACAD
1000
AcDbSavedByObjectVersion
1070
     0
  0
VISUALSTYLE
  5
2B
102
{ACAD_REACTORS
330
2A
102
}
102
{ACAD_XDICTIONARY
360
DE
102
}
330
2A
100
AcDbVisualStyle
  2
Flat
 70
     0
 71
     2
 72
     1
 73
     1
 90
        2
 40
0.6
 41
30.0
 62
     5
 63
     7
 74
     0
 91
        0
 64
     7
 65
   257
 75
     1
175
     1
 42
1.0
 92
        8
 66
     7
 43
1.0
 76
     1
 77
     6
 78
     2
 67
     7
 79
     5
170
     0
171
     0
290
     0
174
     0
 93
       13
 44
0.0
173
     0
291
     1
 45
0.0
1001
ACAD
1000
AcDbSavedByObjectVersion
1070
     0
  0
VISUALSTYLE
  5
2C
102
{ACAD_REACTORS
330
2A
102
}
102
{ACAD_XDICTIONARY
360
E0
102
}
330
2A
100
AcDbVisualStyle
  2
FlatWithEdges
 70
     1
 71
     2
 72
     1
 73
     1
 90
        2
 40
0.6
 41
30.0
 62
     5
 63
     7
 74
     1
 91
        0
 64
     7
 65
   257
 75
     1
175
     1
 42
1.0
 92
        0
 66
   257
 43
1.0
 76
     1
 77
     6
 78
     2
 67
     7
 79
     5
170
     0
171
     0
290
     0
174
     0
 93
       13
 44
0.0
173
     0
291
     1
 45
0.0
1001
ACAD
1000
AcDbSavedByObjectVersion
1070
     0
  0
VISUALSTYLE
  5
2D
102
{ACAD_REACTORS
330
2A
102
}
102
{ACAD_XDICTIONARY
360
E2
102
}
330
2A
100
AcDbVisualStyle
  2
Gouraud
 70
     2
 71
     2
 72
     2
 73
     1
 90
        2
 40
0.6
 41
30.0
 62
     5
 63
     7
 74
     0
 91
        0
 64
     7
 65
   257
 75
     1
175
     1
 42
1.0
 92
        0
 66
     7
 43
1.0
 76
     1
 77
     6
 78
     2
 67
     7
 79
     5
170
     0
171
     0
290
     0
174
     0
 93
       13
 44
0.0
173
     0
291
     1
 45
0.0
1001
ACAD
1000
AcDbSavedByObjectVersion
1070
     0
  0
VISUALSTYLE
  5
2E
102
{ACAD_REACTORS
330
2A
102
}
102
{ACAD_XDICTIONARY
360
E4
102
}
330
2A
100
AcDbVisualStyle
  2
GouraudWithEdges
 70
     3
 71
     2
 72
     2
 73
     1
 90
        2
 40
0.6
 41
30.0
 62
     5
 63
     7
 74
     1
 91
        0
 64
     7
 65
   257
 75
     1
175
     1
 42
1.0
 92
        0
 66
   257
 43
1.0
 76
     1
 77
     6
 78
     2
 67
     7
 79
     5
170
     0
171
     0
290
     0
174
     0
 93
       13
 44
0.0
173
     0
291
     1
 45
0.0
1001
ACAD
1000
AcDbSavedByObjectVersion
1070
     0
  0
VISUALSTYLE
  5
31
102
{ACAD_REACTORS
330
2A
102
}
102
{ACAD_XDICTIONARY
360
EA
102
}
330
2A
100
AcDbVisualStyle
  2
Hidden
 70
     6
 71
     1
 72
     2
 73
     2
 90
        0
 40
0.6
 41
30.0
 62
     5
 63
     7
 74
     2
 91
        2
 64
     7
 65
   257
 75
     2
175
     1
 42
40.0
 92
        0
 66
   257
 43
1.0
 76
     1
 77
     6
 78
     2
 67
     7
 79
     3
170
     0
171
     0
290
     0
174
     0
 93
        1
 44
0.0
173
     0
291
     0
 45
0.0
1001
ACAD
1000
AcDbSavedByObjectVersion
1070
     0
  0
VISUALSTYLE
  5
3B
102
{ACAD_REACTORS
330
2A
102
}
102
{ACAD_XDICTIONARY
360
FE
102
}
330
2A
100
AcDbVisualStyle
  2
JitterOff
 70
    20
 71
     2
 72
     2
 73
     0
 90
        0
 40
0.6
 41
30.0
 62
     5
 63
     7
 74
     1
 91
        4
 64
     7
 65
   257
 75
     1
175
     1
 42
1.0
 92
       10
 66
     7
 43
1.0
 76
     1
 77
     6
 78
     2
 67
     7
 79
     5
170
     0
171
     0
290
     0
174
     0
 93
        1
 44
0.0
173
     0
291
     1
 45
0.0
1001
ACAD
1000
AcDbSavedByObjectVersion
1070
     0
  0
VISUALSTYLE
  5
38
102
{ACAD_REACTORS
330
2A
102
}
102
{ACAD_XDICTIONARY
360
F8
102
}
330
2A
100
AcDbVisualStyle
  2
Linepattern
 70
    14
 71
     2
 72
     2
 73
     0
 90
        0
 40
0.6
 41
30.0
 62
     5
 63
     7
 74
     1
 91
        4
 64
     7
 65
   257
 75
     7
175
     7
 42
1.0
 92
        8
 66
     7
 43
1.0
 76
     1
 77
     6
 78
     2
 67
     7
 79
     5
170
     0
171
     0
290
     0
174
     0
 93
        1
 44
0.0
173
     0
291
     1
 45
0.0
1001
ACAD
1000
AcDbSavedByObjectVersion
1070
     0
  0
VISUALSTYLE
  5
3C
102
{ACAD_REACTORS
330
2A
102
}
102
{ACAD_XDICTIONARY
360
100
102
}
330
2A
100
AcDbVisualStyle
  2
OverhangOff
 70
    21
 71
     2
 72
     2
 73
     0
 90
        0
 40
0.6
 41
30.0
 62
     5
 63
     7
 74
     1
 91
        4
 64
     7
 65
   257
 75
     1
175
     1
 42
1.0
 92
        9
 66
     7
 43
1.0
 76
     1
 77
     6
 78
     2
 67
     7
 79
     5
170
     0
171
     0
290
     0
174
     0
 93
        1
 44
0.0
173
     0
291
     1
 45
0.0
1001
ACAD
1000
AcDbSavedByObjectVersion
1070
     0
  0
VISUALSTYLE
  5
33
102
{ACAD_REACTORS
330
2A
102
}
102
{ACAD_XDICTIONARY
360
EE
102
}
330
2A
100
AcDbVisualStyle
  2
Realistic
 70
     8
 71
     2
 72
     3
 73
     0
 90
        2
 40
0.6
 41
30.0
 62
     5
 63
     7
 74
     0
 91
        0
 64
     7
 65
   257
 75
     1
175
     1
 42
1.0
 92
        8
 66
   257
 43
1.0
 76
     1
 77
     6
 78
     2
 67
     7
 79
     3
170
     0
171
     0
290
     0
174
     0
 93
       13
 44
0.0
173
     0
291
     0
 45
0.0
1001
ACAD
1000
AcDbSavedByObjectVersion
1070
     0
  0
VISUALSTYLE
  5
42
102
{ACAD_REACTORS
330
2A
102
}
102
{ACAD_XDICTIONARY
360
10C
102
}
330
2A
100
AcDbVisualStyle
  2
Shaded
 70
    27
 71
     2
 72
     2
 73
     1
 90
        2
 40
0.6
 41
30.0
 62
     5
 63
     7
 74
     0
 91
        4
 64
     7
 65
   257
 75
     1
175
     1
 42
1.0
 92
        8
 66
   257
 43
1.0
 76
     1
 77
     6
 78
     2
 67
     8
 79
     3
170
     0
171
     0
290
     0
174
     0
 93
        5
 44
0.0
173
     0
291
     0
 45
0.0
1001
ACAD
1000
AcDbSavedByObjectVersion
1070
     0
  0
VISUALSTYLE
  5
41
102
{ACAD_REACTORS
330
2A
102
}
102
{ACAD_XDICTIONARY
360
10A
102
}
330
2A
100
AcDbVisualStyle
  2
Shaded with edges
 70
    26
 71
     2
 72
     2
 73
     1
 90
        2
 40
0.6
 41
30.0
 62
     5
 63
     7
 74
     1
 91
       10
 64
     7
 65
   257
 75
     2
175
     1
 42
1.0
 92
        8
 66
   257
 43
1.0
 76
     1
 77
     6
 78
     2
 67
     7
 79
     3
170
     0
171
     0
290
     0
174
     0
 93
        5
 44
0.0
173
     0
291
     0
 45
0.0
1001
ACAD
1000
AcDbSavedByObjectVersion
1070
     0
  0
VISUALSTYLE
  5
3E
102
{ACAD_REACTORS
330
2A
102
}
102
{ACAD_XDICTIONARY
360
104
102
}
330
2A
100
AcDbVisualStyle
  2
Shades of Gray
 70
    23
 71
     2
 72
     2
 73
     3
 90
        0
 40
0.6
 41
30.0
 62
     5
 63
     7
 74
     2
 91
        2
 64
     7
 65
     7
 75
     1
175
     1
 42
40.0
 92
        8
 66
     7
 43
1.0
 76
     1
 77
     6
 78
     2
 67
     7
 79
     3
170
     0
171
     0
290
     0
174
     0
 93
        1
 44
0.0
173
     0
291
     0
 45
0.0
1001
ACAD
1000
AcDbSavedByObjectVersion
1070
     0
  0
VISUALSTYLE
  5
3F
102
{ACAD_REACTORS
330
2A
102
}
102
{ACAD_XDICTIONARY
360
106
102
}
330
2A
100
AcDbVisualStyle
  2
Sketchy
 70
    24
 71
     1
 72
     2
 73
     2
 90
        0
 40
0.6
 41
30.0
 62
     5
 63
     7
 74
     2
 91
        2
 64
     7
 65
     7
 75
     1
175
     1
 42
40.0
 92
       11
 66
     7
 43
1.0
 76
     1
 77
     6
 78
     2
 67
     7
 79
     6
170
     0
171
     0
290
     0
174
     0
 93
        1
 44
0.0
173
     0
291
     0
 45
0.0
1001
ACAD
1000
AcDbSavedByObjectVersion
1070
     0
  0
VISUALSTYLE
  5
37
102
{ACAD_REACTORS
330
2A
102
}
102
{ACAD_XDICTIONARY
360
F6
102
}
330
2A
100
AcDbVisualStyle
  2
Thicken
 70
    13
 71
     2
 72
     2
 73
     0
 90
        0
 40
0.6
 41
30.0
 62
     5
 63
     7
 74
     1
 91
        4
 64
     7
 65
   257
 75
     1
175
     1
 42
1.0
 92
       12
 66
     7
 43
1.0
 76
     1
 77
     6
 78
     2
 67
     7
 79
     5
170
     0
171
     0
290
     0
174
     0
 93
        1
 44
0.0
173
     0
291
     1
 45
0.0
1001
ACAD
1000
AcDbSavedByObjectVersion
1070
     0
  0
VISUALSTYLE
  5
30
102
{ACAD_REACTORS
330
2A
102
}
102
{ACAD_XDICTIONARY
360
E8
102
}
330
2A
100
AcDbVisualStyle
  2
Wireframe
 70
     5
 71
     0
 72
     2
 73
     0
 90
        0
 40
0.6
 41
30.0
 62
     5
 63
     7
 74
     1
 91
        4
 64
     7
 65
   257
 75
     1
175
     1
 42
1.0
 92
        0
 66
   257
 43
1.0
 76
     1
 77
     6
 78
     2
 67
     7
 79
     3
170
     0
171
     0
290
     0
174
     0
 93
        1
 44
0.0
173
     0
291
     0
 45
0.0
1001
ACAD
1000
AcDbSavedByObjectVersion
1070
     0
  0
VISUALSTYLE
  5
40
102
{ACAD_REACTORS
330
2A
102
}
102
{ACAD_XDICTIONARY
360
108
102
}
330
2A
100
AcDbVisualStyle
  2
X-Ray
 70
    25
 71
     2
 72
     2
 73
     1
 90
        1
 40
0.5
 41
30.0
 62
     5
 63
     7
 74
     1
 91
        0
 64
     7
 65
   257
 75
     1
175
     1
 42
1.0
 92
        8
 66
     7
 43
1.0
 76
     1
 77
     6
 78
     2
 67
     7
 79
     3
170
     0
171
     0
290
     0
174
     0
 93
       13
 44
0.0
173
     0
291
     0
 45
0.0
1001
ACAD
1000
AcDbSavedByObjectVersion
1070
     0
  0
DICTIONARYVAR
  5
DC
102
{ACAD_REACTORS
330
CF
102
}
330
CF
100
DictionaryVariables
280
     0
  1
1:1
  0
DICTIONARYVAR
  5
D6
102
{ACAD_REACTORS
330
CF
102
}
330
CF
100
DictionaryVariables
280
     0
  1
3.500000
  0
DICTIONARYVAR
  5
D7
102
{ACAD_REACTORS
330
CF
102
}
330
CF
100
DictionaryVariables
280
     0
  1
acadiso.lin
  0
DICTIONARYVAR
  5
D1
102
{ACAD_REACTORS
330
CF
102
}
330
CF
100
DictionaryVariables
280
     0
  1
Standard
  0
DICTIONARYVAR
  5
D0
102
{ACAD_REACTORS
330
CF
102
}
330
CF
100
DictionaryVariables
280
     0
  1
Standard
  0
DICTIONARYVAR
  5
D8
102
{ACAD_REACTORS
330
CF
102
}
330
CF
100
DictionaryVariables
280
     0
  1
2
  0
DICTIONARYVAR
  5
D9
102
{ACAD_REACTORS
330
CF
102
}
330
CF
100
DictionaryVariables
280
     0
  1
1
  0
DICTIONARYVAR
  5
DD
102
{ACAD_REACTORS
330
CF
102
}
330
CF
100
DictionaryVariables
280
     0
  1
1
  0
DICTIONARYVAR
  5
D3
102
{ACAD_REACTORS
330
CF
102
}
330
CF
100
DictionaryVariables
280
     0
  1
80.000000
  0
DICTIONARYVAR
  5
D2
102
{ACAD_REACTORS
330
CF
102
}
330
CF
100
DictionaryVariables
280
     0
  1
5.000000
  0
DICTIONARY
  5
110
330
45
100
AcDbDictionary
280
     1
281
     1
  3
ACAD_XREC_ROUNDTRIP
360
111
  0
DICTIONARY
  5
10E
330
44
100
AcDbDictionary
280
     1
281
     1
  3
ACAD_XREC_ROUNDTRIP
360
10F
  0
DICTIONARY
  5
112
330
46
100
AcDbDictionary
280
     1
281
     1
  3
ACAD_XREC_ROUNDTRIP
360
113
  0
DICTIONARY
  5
115
330
6C
100
AcDbDictionary
280
     1
281
     1
  3
ACAD_XREC_ROUNDTRIP
360
116
  0
DICTIONARY
  5
E6
330
2F
100
AcDbDictionary
280
     1
281
     1
  3
ACAD_XREC_ROUNDTRIP
360
E7
  0
DICTIONARY
  5
EC
330
32
100
AcDbDictionary
280
     1
281
     1
  3
ACAD_XREC_ROUNDTRIP
360
ED
  0
DICTIONARY
  5
F4
330
36
100
AcDbDictionary
280
     1
281
     1
  3
ACAD_XREC_ROUNDTRIP
360
F5
  0
DICTIONARY
  5
FC
330
3A
100
AcDbDictionary
280
     1
281
     1
  3
ACAD_XREC_ROUNDTRIP
360
FD
  0
DICTIONARY
  5
F0
330
34
100
AcDbDictionary
280
     1
281
     1
  3
ACAD_XREC_ROUNDTRIP
360
F1
  0
DICTIONARY
  5
F2
330
35
100
AcDbDictionary
280
     1
281
     1
  3
ACAD_XREC_ROUNDTRIP
360
F3
  0
DICTIONARY
  5
102
330
3D
100
AcDbDictionary
280
     1
281
     1
  3
ACAD_XREC_ROUNDTRIP
360
103
  0
DICTIONARY
  5
FA
330
39
100
AcDbDictionary
280
     1
281
     1
  3
ACAD_XREC_ROUNDTRIP
360
FB
  0
DICTIONARY
  5
DE
330
2B
100
AcDbDictionary
280
     1
281
     1
  3
ACAD_XREC_ROUNDTRIP
360
DF
  0
DICTIONARY
  5
E0
330
2C
100
AcDbDictionary
280
     1
281
     1
  3
ACAD_XREC_ROUNDTRIP
360
E1
  0
DICTIONARY
  5
E2
330
2D
100
AcDbDictionary
280
     1
281
     1
  3
ACAD_XREC_ROUNDTRIP
360
E3
  0
DICTIONARY
  5
E4
330
2E
100
AcDbDictionary
280
     1
281
     1
  3
ACAD_XREC_ROUNDTRIP
360
E5
  0
DICTIONARY
  5
EA
330
31
100
AcDbDictionary
280
     1
281
     1
  3
ACAD_XREC_ROUNDTRIP
360
EB
  0
DICTIONARY
  5
FE
330
3B
100
AcDbDictionary
280
     1
281
     1
  3
ACAD_XREC_ROUNDTRIP
360
FF
  0
DICTIONARY
  5
F8
330
38
100
AcDbDictionary
280
     1
281
     1
  3
ACAD_XREC_ROUNDTRIP
360
F9
  0
DICTIONARY
  5
100
330
3C
100
AcDbDictionary
280
     1
281
     1
  3
ACAD_XREC_ROUNDTRIP
360
101
  0
DICTIONARY
  5
EE
330
33
100
AcDbDictionary
280
     1
281
     1
  3
ACAD_XREC_ROUNDTRIP
360
EF
  0
DICTIONARY
  5
10C
330
42
100
AcDbDictionary
280
     1
281
     1
  3
ACAD_XREC_ROUNDTRIP
360
10D
  0
DICTIONARY
  5
10A
330
41
100
AcDbDictionary
280
     1
281
     1
  3
ACAD_XREC_ROUNDTRIP
360
10B
  0
DICTIONARY
  5
104
330
3E
100
AcDbDictionary
280
     1
281
     1
  3
ACAD_XREC_ROUNDTRIP
360
105
  0
DICTIONARY
  5
106
330
3F
100
AcDbDictionary
280
     1
281
     1
  3
ACAD_XREC_ROUNDTRIP
360
107
  0
DICTIONARY
  5
F6
330
37
100
AcDbDictionary
280
     1
281
     1
  3
ACAD_XREC_ROUNDTRIP
360
F7
  0
DICTIONARY
  5
E8
330
30
100
AcDbDictionary
280
     1
281
     1
  3
ACAD_XREC_ROUNDTRIP
360
E9
  0
DICTIONARY
  5
108
330
40
100
AcDbDictionary
280
     1
281
     1
  3
ACAD_XREC_ROUNDTRIP
360
109
  0
XRECORD
  5
111
102
{ACAD_REACTORS
330
110
102
}
330
110
100
AcDbXrecord
280
     1
102
MATERIAL
148
0.0
149
0.0
149
0.0
 93
        0
 94
      127
282
     0
 72
     1
 77
     1
171
     1
175
     1
179
     1
273
     0
  0
XRECORD
  5
10F
102
{ACAD_REACTORS
330
10E
102
}
330
10E
100
AcDbXrecord
280
     1
102
MATERIAL
148
0.0
149
0.0
149
0.0
 93
        0
 94
      127
282
     0
 72
     1
 77
     1
171
     1
175
     1
179
     1
273
     0
  0
XRECORD
  5
113
102
{ACAD_REACTORS
330
112
102
}
330
112
100
AcDbXrecord
280
     1
102
MATERIAL
148
0.0
149
0.0
149
0.0
 93
        0
 94
      127
282
     0
 72
     1
 77
     1
171
     1
175
     1
179
     1
273
     0
  0
XRECORD
  5
116
102
{ACAD_REACTORS
330
115
102
}
330
115
100
AcDbXrecord
280
     1
102
ACAD_ROUNDTRIP_2010_MLEADER_STYLE
  0
XRECORD
  5
E7
102
{ACAD_REACTORS
330
E6
102
}
330
E6
100
AcDbXrecord
280
     1
102
RTVSPropertyOp0
 70
     1
102
RTVSPropertyOp1
 70
     1
102
RTVSPropertyOp2
 70
     1
102
RTVSPropertyOp3
 70
     1
102
RTVSPropertyOp4
 70
     1
102
RTVSPropertyOp5
 70
     1
102
RTVSPropertyOp6
 70
     1
102
RTVSPropertyOp7
 70
     1
102
RTVSPropertyOp8
 70
     1
102
RTVSPropertyOp9
 70
     1
102
RTVSPropertyOp10
 70
     1
102
RTVSPropertyOp11
 70
     1
102
RTVSPropertyOp12
 70
     1
102
RTVSPropertyOp13
 70
     1
102
RTVSPropertyOp14
 70
     1
102
RTVSPropertyOp15
 70
     1
102
RTVSPropertyOp16
 70
     1
102
RTVSPropertyOp17
 70
     1
102
RTVSPropertyOp18
 70
     1
102
RTVSPropertyOp19
 70
     1
102
RTVSPropertyOp20
 70
     1
102
RTVSPropertyOp21
 70
     1
102
RTVSPropertyOp22
 70
     1
102
RTVSPropertyOp23
 70
     1
102
RTVSPropertyOp24
 70
     1
102
RTVSPropertyOp25
 70
     1
102
RTVSPropertyOp26
 70
     1
102
RTVSPropertyOp27
 70
     1
102
RTVSPropertyOp28
 70
     1
102
RTVSPropertyOp29
 70
     1
102
RTVSPropertyOp30
 70
     1
102
RTVSPropertyOp31
 70
     1
102
RTVSPropertyOp32
 70
     1
102
RTVSPropertyOp33
 70
     1
102
RTVSPropertyOp34
 70
     1
102
RTVSPropertyOp35
 70
     1
102
RTVSPropertyOp36
 70
     1
102
RTVSPropertyOp37
 70
     1
102
RTVSPropertyOp38
 70
     1
102
RTVSPropertyOp39
 70
     1
102
RTVSPropertyOp40
 70
     1
102
RTVSPropertyOp41
 70
     1
102
RTVSPropertyOp42
 70
     1
102
RTVSPropertyOp43
 70
     1
102
RTVSPropertyOp44
 70
     1
102
RTVSPropertyOp45
 70
     1
102
RTVSPropertyOp46
 70
     1
102
RTVSPropertyOp47
 70
     1
102
RTVSPropertyOp48
 70
     1
102
RTVSPropertyOp49
 70
     1
102
RTVSPropertyOp50
 70
     1
102
RTVSPropertyOp51
 70
     0
102
RTVSPropertyOp52
 70
     0
102
RTVSPropertyOp53
 70
     1
102
RTVSPropertyOp54
 70
     1
102
RTVSPropertyOp55
 70
     1
102
RTVSPropertyOp56
 70
     1
102
RTVSPropertyOp57
 70
     1
102
RTVSPost2010Prop28
280
     1
102
RTVSPost2010PropOp28
 70
     1
102
RTVSPost2010Prop29
280
     1
102
RTVSPost2010PropOp29
 70
     1
102
RTVSPost2010Prop30
280
     0
102
RTVSPost2010PropOp30
 70
     1
102
RTVSPost2010Prop31
280
     0
102
RTVSPost2010PropOp31
 70
     1
102
RTVSPost2010Prop32
280
     0
102
RTVSPost2010PropOp32
 70
     1
102
RTVSPost2010Prop33
280
     0
102
RTVSPost2010PropOp33
 70
     1
102
RTVSPost2010Prop34
280
     0
102
RTVSPost2010PropOp34
 70
     1
102
RTVSPost2010Prop35
280
     0
102
RTVSPost2010PropOp35
 70
     1
102
RTVSPost2010Prop36
280
     0
102
RTVSPost2010PropOp36
 70
     1
102
RTVSPost2010Prop37
 90
       50
102
RTVSPost2010PropOp37
 70
     1
102
RTVSPost2010Prop38
140
0.0
102
RTVSPost2010PropOp38
 70
     1
102
RTVSPost2010Prop39
140
1.0
102
RTVSPost2010PropOp39
 70
     1
102
RTVSPost2010Prop40
 90
        0
102
RTVSPost2010PropOp40
 70
     1
102
RTVSPost2010Prop41ColorIndex
 90
       18
102
RTVSPost2010Prop41ColorRGB
 90
        0
102
RTVSPost2010PropOp41
 70
     1
102
RTVSPost2010Prop42
 90
       50
102
RTVSPost2010PropOp42
 70
     1
102
RTVSPost2010Prop43
 90
        3
102
RTVSPost2010PropOp43
 70
     1
102
RTVSPost2010Prop44ColorIndex
 90
        5
102
RTVSPost2010Prop44ColorRGB
 90
      255
102
RTVSPost2010PropOp44
 70
     1
102
RTVSPost2010Prop45
280
     0
102
RTVSPost2010PropOp45
 70
     1
102
RTVSPost2010Prop46
 90
       50
102
RTVSPost2010PropOp46
 70
     1
102
RTVSPost2010Prop47
 90
       50
102
RTVSPost2010PropOp47
 70
     1
102
RTVSPost2010Prop48
 90
       50
102
RTVSPost2010PropOp48
 70
     1
102
RTVSPost2010Prop49
280
     0
102
RTVSPost2010PropOp49
 70
     1
102
RTVSPost2010Prop50
 90
       50
102
RTVSPost2010PropOp50
 70
     1
102
RTVSPost2010Prop51ColorIndex
 90
      256
102
RTVSPost2010Prop51ColorRGB
 90
-16777216
102
RTVSPost2010PropOp51
 70
     0
102
RTVSPost2010Prop52
140
1.0
102
RTVSPost2010PropOp52
 70
     0
102
RTVSPost2010Prop53
 90
        2
102
RTVSPost2010PropOp53
 70
     1
102
RTVSPost2010Prop54
  1
strokes_ogs.tif
102
RTVSPost2010PropOp54
 70
     1
102
RTVSPost2010Prop55
280
     0
102
RTVSPost2010PropOp55
 70
     1
102
RTVSPost2010Prop56
140
1.0
102
RTVSPost2010PropOp56
 70
     1
102
RTVSPost2010Prop57
140
1.0
102
RTVSPost2010PropOp57
 70
     1
  0
XRECORD
  5
ED
102
{ACAD_REACTORS
330
EC
102
}
330
EC
100
AcDbXrecord
280
     1
102
RTVSPropertyOp0
 70
     1
102
RTVSPropertyOp1
 70
     1
102
RTVSPropertyOp2
 70
     1
102
RTVSPropertyOp3
 70
     1
102
RTVSPropertyOp4
 70
     1
102
RTVSPropertyOp5
 70
     1
102
RTVSPropertyOp6
 70
     1
102
RTVSPropertyOp7
 70
     1
102
RTVSPropertyOp8
 70
     1
102
RTVSPropertyOp9
 70
     1
102
RTVSPropertyOp10
 70
     1
102
RTVSPropertyOp11
 70
     1
102
RTVSPropertyOp12
 70
     1
102
RTVSPropertyOp13
 70
     1
102
RTVSPropertyOp14
 70
     1
102
RTVSPropertyOp15
 70
     1
102
RTVSPropertyOp16
 70
     1
102
RTVSPropertyOp17
 70
     1
102
RTVSPropertyOp18
 70
     1
102
RTVSPropertyOp19
 70
     1
102
RTVSPropertyOp20
 70
     1
102
RTVSPropertyOp21
 70
     1
102
RTVSPropertyOp22
 70
     1
102
RTVSPropertyOp23
 70
     1
102
RTVSPropertyOp24
 70
     1
102
RTVSPropertyOp25
 70
     1
102
RTVSPropertyOp26
 70
     1
102
RTVSPropertyOp27
 70
     1
102
RTVSPropertyOp28
 70
     1
102
RTVSPropertyOp29
 70
     1
102
RTVSPropertyOp30
 70
     1
102
RTVSPropertyOp31
 70
     1
102
RTVSPropertyOp32
 70
     1
102
RTVSPropertyOp33
 70
     1
102
RTVSPropertyOp34
 70
     1
102
RTVSPropertyOp35
 70
     1
102
RTVSPropertyOp36
 70
     1
102
RTVSPropertyOp37
 70
     1
102
RTVSPropertyOp38
 70
     1
102
RTVSPropertyOp39
 70
     1
102
RTVSPropertyOp40
 70
     1
102
RTVSPropertyOp41
 70
     1
102
RTVSPropertyOp42
 70
     1
102
RTVSPropertyOp43
 70
     1
102
RTVSPropertyOp44
 70
     1
102
RTVSPropertyOp45
 70
     1
102
RTVSPropertyOp46
 70
     1
102
RTVSPropertyOp47
 70
     1
102
RTVSPropertyOp48
 70
     1
102
RTVSPropertyOp49
 70
     1
102
RTVSPropertyOp50
 70
     1
102
RTVSPropertyOp51
 70
     0
102
RTVSPropertyOp52
 70
     0
102
RTVSPropertyOp53
 70
     1
102
RTVSPropertyOp54
 70
     1
102
RTVSPropertyOp55
 70
     1
102
RTVSPropertyOp56
 70
     1
102
RTVSPropertyOp57
 70
     1
102
RTVSPost2010Prop28
280
     0
102
RTVSPost2010PropOp28
 70
     1
102
RTVSPost2010Prop29
280
     1
102
RTVSPost2010PropOp29
 70
     1
102
RTVSPost2010Prop30
280
     1
102
RTVSPost2010PropOp30
 70
     1
102
RTVSPost2010Prop31
280
     0
102
RTVSPost2010PropOp31
 70
     1
102
RTVSPost2010Prop32
280
     0
102
RTVSPost2010PropOp32
 70
     1
102
RTVSPost2010Prop33
280
     0
102
RTVSPost2010PropOp33
 70
     1
102
RTVSPost2010Prop34
280
     0
102
RTVSPost2010PropOp34
 70
     1
102
RTVSPost2010Prop35
280
     0
102
RTVSPost2010PropOp35
 70
     1
102
RTVSPost2010Prop36
280
     0
102
RTVSPost2010PropOp36
 70
     1
102
RTVSPost2010Prop37
 90
       50
102
RTVSPost2010PropOp37
 70
     1
102
RTVSPost2010Prop38
140
0.0
102
RTVSPost2010PropOp38
 70
     1
102
RTVSPost2010Prop39
140
1.0
102
RTVSPost2010PropOp39
 70
     1
102
RTVSPost2010Prop40
 90
        0
102
RTVSPost2010PropOp40
 70
     1
102
RTVSPost2010Prop41ColorIndex
 90
       18
102
RTVSPost2010Prop41ColorRGB
 90
        0
102
RTVSPost2010PropOp41
 70
     1
102
RTVSPost2010Prop42
 90
       50
102
RTVSPost2010PropOp42
 70
     1
102
RTVSPost2010Prop43
 90
        3
102
RTVSPost2010PropOp43
 70
     1
102
RTVSPost2010Prop44ColorIndex
 90
        5
102
RTVSPost2010Prop44ColorRGB
 90
      255
102
RTVSPost2010PropOp44
 70
     1
102
RTVSPost2010Prop45
280
     0
102
RTVSPost2010PropOp45
 70
     1
102
RTVSPost2010Prop46
 90
       50
102
RTVSPost2010PropOp46
 70
     1
102
RTVSPost2010Prop47
 90
       50
102
RTVSPost2010PropOp47
 70
     1
102
RTVSPost2010Prop48
 90
       50
102
RTVSPost2010PropOp48
 70
     1
102
RTVSPost2010Prop49
280
     0
102
RTVSPost2010PropOp49
 70
     1
102
RTVSPost2010Prop50
 90
       50
102
RTVSPost2010PropOp50
 70
     1
102
RTVSPost2010Prop51ColorIndex
 90
      256
102
RTVSPost2010Prop51ColorRGB
 90
-16777216
102
RTVSPost2010PropOp51
 70
     0
102
RTVSPost2010Prop52
140
1.0
102
RTVSPost2010PropOp52
 70
     0
102
RTVSPost2010Prop53
 90
        2
102
RTVSPost2010PropOp53
 70
     1
102
RTVSPost2010Prop54
  1
strokes_ogs.tif
102
RTVSPost2010PropOp54
 70
     1
102
RTVSPost2010Prop55
280
     0
102
RTVSPost2010PropOp55
 70
     1
102
RTVSPost2010Prop56
140
1.0
102
RTVSPost2010PropOp56
 70
     1
102
RTVSPost2010Prop57
140
1.0
102
RTVSPost2010PropOp57
 70
     1
  0
XRECORD
  5
F5
102
{ACAD_REACTORS
330
F4
102
}
330
F4
100
AcDbXrecord
280
     1
102
RTVSPropertyOp0
 70
     1
102
RTVSPropertyOp1
 70
     1
102
RTVSPropertyOp2
 70
     1
102
RTVSPropertyOp3
 70
     1
102
RTVSPropertyOp4
 70
     1
102
RTVSPropertyOp5
 70
     1
102
RTVSPropertyOp6
 70
     1
102
RTVSPropertyOp7
 70
     1
102
RTVSPropertyOp8
 70
     1
102
RTVSPropertyOp9
 70
     1
102
RTVSPropertyOp10
 70
     1
102
RTVSPropertyOp11
 70
     1
102
RTVSPropertyOp12
 70
     1
102
RTVSPropertyOp13
 70
     1
102
RTVSPropertyOp14
 70
     1
102
RTVSPropertyOp15
 70
     1
102
RTVSPropertyOp16
 70
     1
102
RTVSPropertyOp17
 70
     1
102
RTVSPropertyOp18
 70
     1
102
RTVSPropertyOp19
 70
     1
102
RTVSPropertyOp20
 70
     1
102
RTVSPropertyOp21
 70
     1
102
RTVSPropertyOp22
 70
     1
102
RTVSPropertyOp23
 70
     1
102
RTVSPropertyOp24
 70
     1
102
RTVSPropertyOp25
 70
     1
102
RTVSPropertyOp26
 70
     1
102
RTVSPropertyOp27
 70
     1
102
RTVSPropertyOp28
 70
     1
102
RTVSPropertyOp29
 70
     1
102
RTVSPropertyOp30
 70
     1
102
RTVSPropertyOp31
 70
     1
102
RTVSPropertyOp32
 70
     1
102
RTVSPropertyOp33
 70
     1
102
RTVSPropertyOp34
 70
     1
102
RTVSPropertyOp35
 70
     1
102
RTVSPropertyOp36
 70
     1
102
RTVSPropertyOp37
 70
     1
102
RTVSPropertyOp38
 70
     1
102
RTVSPropertyOp39
 70
     1
102
RTVSPropertyOp40
 70
     1
102
RTVSPropertyOp41
 70
     1
102
RTVSPropertyOp42
 70
     1
102
RTVSPropertyOp43
 70
     1
102
RTVSPropertyOp44
 70
     1
102
RTVSPropertyOp45
 70
     1
102
RTVSPropertyOp46
 70
     1
102
RTVSPropertyOp47
 70
     1
102
RTVSPropertyOp48
 70
     1
102
RTVSPropertyOp49
 70
     1
102
RTVSPropertyOp50
 70
     1
102
RTVSPropertyOp51
 70
     0
102
RTVSPropertyOp52
 70
     0
102
RTVSPropertyOp53
 70
     1
102
RTVSPropertyOp54
 70
     1
102
RTVSPropertyOp55
 70
     1
102
RTVSPropertyOp56
 70
     1
102
RTVSPropertyOp57
 70
     1
102
RTVSPost2010Prop28
280
     0
102
RTVSPost2010PropOp28
 70
     1
102
RTVSPost2010Prop29
280
     1
102
RTVSPost2010PropOp29
 70
     1
102
RTVSPost2010Prop30
280
     1
102
RTVSPost2010PropOp30
 70
     1
102
RTVSPost2010Prop31
280
     0
102
RTVSPost2010PropOp31
 70
     1
102
RTVSPost2010Prop32
280
     0
102
RTVSPost2010PropOp32
 70
     1
102
RTVSPost2010Prop33
280
     0
102
RTVSPost2010PropOp33
 70
     1
102
RTVSPost2010Prop34
280
     0
102
RTVSPost2010PropOp34
 70
     1
102
RTVSPost2010Prop35
280
     0
102
RTVSPost2010PropOp35
 70
     1
102
RTVSPost2010Prop36
280
     0
102
RTVSPost2010PropOp36
 70
     1
102
RTVSPost2010Prop37
 90
       50
102
RTVSPost2010PropOp37
 70
     1
102
RTVSPost2010Prop38
140
0.0
102
RTVSPost2010PropOp38
 70
     1
102
RTVSPost2010Prop39
140
1.0
102
RTVSPost2010PropOp39
 70
     1
102
RTVSPost2010Prop40
 90
        0
102
RTVSPost2010PropOp40
 70
     1
102
RTVSPost2010Prop41ColorIndex
 90
       18
102
RTVSPost2010Prop41ColorRGB
 90
        0
102
RTVSPost2010PropOp41
 70
     1
102
RTVSPost2010Prop42
 90
       50
102
RTVSPost2010PropOp42
 70
     1
102
RTVSPost2010Prop43
 90
        3
102
RTVSPost2010PropOp43
 70
     1
102
RTVSPost2010Prop44ColorIndex
 90
        5
102
RTVSPost2010Prop44ColorRGB
 90
      255
102
RTVSPost2010PropOp44
 70
     1
102
RTVSPost2010Prop45
280
     0
102
RTVSPost2010PropOp45
 70
     1
102
RTVSPost2010Prop46
 90
       50
102
RTVSPost2010PropOp46
 70
     1
102
RTVSPost2010Prop47
 90
       50
102
RTVSPost2010PropOp47
 70
     1
102
RTVSPost2010Prop48
 90
       50
102
RTVSPost2010PropOp48
 70
     1
102
RTVSPost2010Prop49
280
     0
102
RTVSPost2010PropOp49
 70
     1
102
RTVSPost2010Prop50
 90
       50
102
RTVSPost2010PropOp50
 70
     1
102
RTVSPost2010Prop51ColorIndex
 90
      256
102
RTVSPost2010Prop51ColorRGB
 90
-16777216
102
RTVSPost2010PropOp51
 70
     0
102
RTVSPost2010Prop52
140
1.0
102
RTVSPost2010PropOp52
 70
     0
102
RTVSPost2010Prop53
 90
        2
102
RTVSPost2010PropOp53
 70
     1
102
RTVSPost2010Prop54
  1
strokes_ogs.tif
102
RTVSPost2010PropOp54
 70
     1
102
RTVSPost2010Prop55
280
     0
102
RTVSPost2010PropOp55
 70
     1
102
RTVSPost2010Prop56
140
1.0
102
RTVSPost2010PropOp56
 70
     1
102
RTVSPost2010Prop57
140
1.0
102
RTVSPost2010PropOp57
 70
     1
  0
XRECORD
  5
FD
102
{ACAD_REACTORS
330
FC
102
}
330
FC
100
AcDbXrecord
280
     1
102
RTVSPropertyOp0
 70
     1
102
RTVSPropertyOp1
 70
     1
102
RTVSPropertyOp2
 70
     1
102
RTVSPropertyOp3
 70
     1
102
RTVSPropertyOp4
 70
     1
102
RTVSPropertyOp5
 70
     1
102
RTVSPropertyOp6
 70
     1
102
RTVSPropertyOp7
 70
     1
102
RTVSPropertyOp8
 70
     1
102
RTVSPropertyOp9
 70
     1
102
RTVSPropertyOp10
 70
     1
102
RTVSPropertyOp11
 70
     1
102
RTVSPropertyOp12
 70
     1
102
RTVSPropertyOp13
 70
     1
102
RTVSPropertyOp14
 70
     1
102
RTVSPropertyOp15
 70
     1
102
RTVSPropertyOp16
 70
     1
102
RTVSPropertyOp17
 70
     1
102
RTVSPropertyOp18
 70
     1
102
RTVSPropertyOp19
 70
     1
102
RTVSPropertyOp20
 70
     1
102
RTVSPropertyOp21
 70
     1
102
RTVSPropertyOp22
 70
     1
102
RTVSPropertyOp23
 70
     1
102
RTVSPropertyOp24
 70
     1
102
RTVSPropertyOp25
 70
     1
102
RTVSPropertyOp26
 70
     1
102
RTVSPropertyOp27
 70
     1
102
RTVSPropertyOp28
 70
     1
102
RTVSPropertyOp29
 70
     1
102
RTVSPropertyOp30
 70
     1
102
RTVSPropertyOp31
 70
     1
102
RTVSPropertyOp32
 70
     1
102
RTVSPropertyOp33
 70
     1
102
RTVSPropertyOp34
 70
     1
102
RTVSPropertyOp35
 70
     1
102
RTVSPropertyOp36
 70
     1
102
RTVSPropertyOp37
 70
     1
102
RTVSPropertyOp38
 70
     1
102
RTVSPropertyOp39
 70
     1
102
RTVSPropertyOp40
 70
     1
102
RTVSPropertyOp41
 70
     1
102
RTVSPropertyOp42
 70
     1
102
RTVSPropertyOp43
 70
     1
102
RTVSPropertyOp44
 70
     1
102
RTVSPropertyOp45
 70
     1
102
RTVSPropertyOp46
 70
     1
102
RTVSPropertyOp47
 70
     1
102
RTVSPropertyOp48
 70
     1
102
RTVSPropertyOp49
 70
     1
102
RTVSPropertyOp50
 70
     1
102
RTVSPropertyOp51
 70
     0
102
RTVSPropertyOp52
 70
     0
102
RTVSPropertyOp53
 70
     1
102
RTVSPropertyOp54
 70
     1
102
RTVSPropertyOp55
 70
     1
102
RTVSPropertyOp56
 70
     1
102
RTVSPropertyOp57
 70
     1
102
RTVSPost2010Prop28
280
     0
102
RTVSPost2010PropOp28
 70
     1
102
RTVSPost2010Prop29
280
     1
102
RTVSPost2010PropOp29
 70
     1
102
RTVSPost2010Prop30
280
     1
102
RTVSPost2010PropOp30
 70
     1
102
RTVSPost2010Prop31
280
     0
102
RTVSPost2010PropOp31
 70
     1
102
RTVSPost2010Prop32
280
     0
102
RTVSPost2010PropOp32
 70
     1
102
RTVSPost2010Prop33
280
     0
102
RTVSPost2010PropOp33
 70
     1
102
RTVSPost2010Prop34
280
     0
102
RTVSPost2010PropOp34
 70
     1
102
RTVSPost2010Prop35
280
     0
102
RTVSPost2010PropOp35
 70
     1
102
RTVSPost2010Prop36
280
     0
102
RTVSPost2010PropOp36
 70
     1
102
RTVSPost2010Prop37
 90
       50
102
RTVSPost2010PropOp37
 70
     1
102
RTVSPost2010Prop38
140
0.0
102
RTVSPost2010PropOp38
 70
     1
102
RTVSPost2010Prop39
140
1.0
102
RTVSPost2010PropOp39
 70
     1
102
RTVSPost2010Prop40
 90
        0
102
RTVSPost2010PropOp40
 70
     1
102
RTVSPost2010Prop41ColorIndex
 90
       18
102
RTVSPost2010Prop41ColorRGB
 90
        0
102
RTVSPost2010PropOp41
 70
     1
102
RTVSPost2010Prop42
 90
       50
102
RTVSPost2010PropOp42
 70
     1
102
RTVSPost2010Prop43
 90
        3
102
RTVSPost2010PropOp43
 70
     1
102
RTVSPost2010Prop44ColorIndex
 90
        5
102
RTVSPost2010Prop44ColorRGB
 90
      255
102
RTVSPost2010PropOp44
 70
     1
102
RTVSPost2010Prop45
280
     0
102
RTVSPost2010PropOp45
 70
     1
102
RTVSPost2010Prop46
 90
       50
102
RTVSPost2010PropOp46
 70
     1
102
RTVSPost2010Prop47
 90
       50
102
RTVSPost2010PropOp47
 70
     1
102
RTVSPost2010Prop48
 90
       50
102
RTVSPost2010PropOp48
 70
     1
102
RTVSPost2010Prop49
280
     0
102
RTVSPost2010PropOp49
 70
     1
102
RTVSPost2010Prop50
 90
       50
102
RTVSPost2010PropOp50
 70
     1
102
RTVSPost2010Prop51ColorIndex
 90
      256
102
RTVSPost2010Prop51ColorRGB
 90
-16777216
102
RTVSPost2010PropOp51
 70
     0
102
RTVSPost2010Prop52
140
1.0
102
RTVSPost2010PropOp52
 70
     0
102
RTVSPost2010Prop53
 90
        2
102
RTVSPost2010PropOp53
 70
     1
102
RTVSPost2010Prop54
  1
strokes_ogs.tif
102
RTVSPost2010PropOp54
 70
     1
102
RTVSPost2010Prop55
280
     0
102
RTVSPost2010PropOp55
 70
     1
102
RTVSPost2010Prop56
140
1.0
102
RTVSPost2010PropOp56
 70
     1
102
RTVSPost2010Prop57
140
1.0
102
RTVSPost2010PropOp57
 70
     1
  0
XRECORD
  5
F1
102
{ACAD_REACTORS
330
F0
102
}
330
F0
100
AcDbXrecord
280
     1
102
RTVSPropertyOp0
 70
     1
102
RTVSPropertyOp1
 70
     1
102
RTVSPropertyOp2
 70
     1
102
RTVSPropertyOp3
 70
     1
102
RTVSPropertyOp4
 70
     1
102
RTVSPropertyOp5
 70
     1
102
RTVSPropertyOp6
 70
     1
102
RTVSPropertyOp7
 70
     1
102
RTVSPropertyOp8
 70
     1
102
RTVSPropertyOp9
 70
     1
102
RTVSPropertyOp10
 70
     1
102
RTVSPropertyOp11
 70
     1
102
RTVSPropertyOp12
 70
     1
102
RTVSPropertyOp13
 70
     1
102
RTVSPropertyOp14
 70
     1
102
RTVSPropertyOp15
 70
     1
102
RTVSPropertyOp16
 70
     1
102
RTVSPropertyOp17
 70
     1
102
RTVSPropertyOp18
 70
     1
102
RTVSPropertyOp19
 70
     1
102
RTVSPropertyOp20
 70
     1
102
RTVSPropertyOp21
 70
     1
102
RTVSPropertyOp22
 70
     1
102
RTVSPropertyOp23
 70
     1
102
RTVSPropertyOp24
 70
     1
102
RTVSPropertyOp25
 70
     1
102
RTVSPropertyOp26
 70
     1
102
RTVSPropertyOp27
 70
     1
102
RTVSPropertyOp28
 70
     1
102
RTVSPropertyOp29
 70
     1
102
RTVSPropertyOp30
 70
     1
102
RTVSPropertyOp31
 70
     1
102
RTVSPropertyOp32
 70
     1
102
RTVSPropertyOp33
 70
     1
102
RTVSPropertyOp34
 70
     1
102
RTVSPropertyOp35
 70
     1
102
RTVSPropertyOp36
 70
     1
102
RTVSPropertyOp37
 70
     1
102
RTVSPropertyOp38
 70
     1
102
RTVSPropertyOp39
 70
     1
102
RTVSPropertyOp40
 70
     1
102
RTVSPropertyOp41
 70
     1
102
RTVSPropertyOp42
 70
     1
102
RTVSPropertyOp43
 70
     1
102
RTVSPropertyOp44
 70
     1
102
RTVSPropertyOp45
 70
     1
102
RTVSPropertyOp46
 70
     1
102
RTVSPropertyOp47
 70
     1
102
RTVSPropertyOp48
 70
     1
102
RTVSPropertyOp49
 70
     1
102
RTVSPropertyOp50
 70
     1
102
RTVSPropertyOp51
 70
     0
102
RTVSPropertyOp52
 70
     0
102
RTVSPropertyOp53
 70
     1
102
RTVSPropertyOp54
 70
     1
102
RTVSPropertyOp55
 70
     1
102
RTVSPropertyOp56
 70
     1
102
RTVSPropertyOp57
 70
     1
102
RTVSPost2010Prop28
280
     0
102
RTVSPost2010PropOp28
 70
     1
102
RTVSPost2010Prop29
280
     1
102
RTVSPost2010PropOp29
 70
     1
102
RTVSPost2010Prop30
280
     1
102
RTVSPost2010PropOp30
 70
     1
102
RTVSPost2010Prop31
280
     0
102
RTVSPost2010PropOp31
 70
     1
102
RTVSPost2010Prop32
280
     0
102
RTVSPost2010PropOp32
 70
     1
102
RTVSPost2010Prop33
280
     0
102
RTVSPost2010PropOp33
 70
     1
102
RTVSPost2010Prop34
280
     0
102
RTVSPost2010PropOp34
 70
     1
102
RTVSPost2010Prop35
280
     0
102
RTVSPost2010PropOp35
 70
     1
102
RTVSPost2010Prop36
280
     0
102
RTVSPost2010PropOp36
 70
     1
102
RTVSPost2010Prop37
 90
       50
102
RTVSPost2010PropOp37
 70
     1
102
RTVSPost2010Prop38
140
0.0
102
RTVSPost2010PropOp38
 70
     1
102
RTVSPost2010Prop39
140
1.0
102
RTVSPost2010PropOp39
 70
     1
102
RTVSPost2010Prop40
 90
        0
102
RTVSPost2010PropOp40
 70
     1
102
RTVSPost2010Prop41ColorIndex
 90
       18
102
RTVSPost2010Prop41ColorRGB
 90
        0
102
RTVSPost2010PropOp41
 70
     1
102
RTVSPost2010Prop42
 90
       50
102
RTVSPost2010PropOp42
 70
     1
102
RTVSPost2010Prop43
 90
        3
102
RTVSPost2010PropOp43
 70
     1
102
RTVSPost2010Prop44ColorIndex
 90
        5
102
RTVSPost2010Prop44ColorRGB
 90
      255
102
RTVSPost2010PropOp44
 70
     1
102
RTVSPost2010Prop45
280
     0
102
RTVSPost2010PropOp45
 70
     1
102
RTVSPost2010Prop46
 90
       50
102
RTVSPost2010PropOp46
 70
     1
102
RTVSPost2010Prop47
 90
       50
102
RTVSPost2010PropOp47
 70
     1
102
RTVSPost2010Prop48
 90
       50
102
RTVSPost2010PropOp48
 70
     1
102
RTVSPost2010Prop49
280
     0
102
RTVSPost2010PropOp49
 70
     1
102
RTVSPost2010Prop50
 90
       50
102
RTVSPost2010PropOp50
 70
     1
102
RTVSPost2010Prop51ColorIndex
 90
      256
102
RTVSPost2010Prop51ColorRGB
 90
-16777216
102
RTVSPost2010PropOp51
 70
     0
102
RTVSPost2010Prop52
140
1.0
102
RTVSPost2010PropOp52
 70
     0
102
RTVSPost2010Prop53
 90
        2
102
RTVSPost2010PropOp53
 70
     1
102
RTVSPost2010Prop54
  1
strokes_ogs.tif
102
RTVSPost2010PropOp54
 70
     1
102
RTVSPost2010Prop55
280
     0
102
RTVSPost2010PropOp55
 70
     1
102
RTVSPost2010Prop56
140
1.0
102
RTVSPost2010PropOp56
 70
     1
102
RTVSPost2010Prop57
140
1.0
102
RTVSPost2010PropOp57
 70
     1
  0
XRECORD
  5
F3
102
{ACAD_REACTORS
330
F2
102
}
330
F2
100
AcDbXrecord
280
     1
102
RTVSPropertyOp0
 70
     1
102
RTVSPropertyOp1
 70
     1
102
RTVSPropertyOp2
 70
     1
102
RTVSPropertyOp3
 70
     1
102
RTVSPropertyOp4
 70
     1
102
RTVSPropertyOp5
 70
     1
102
RTVSPropertyOp6
 70
     1
102
RTVSPropertyOp7
 70
     1
102
RTVSPropertyOp8
 70
     1
102
RTVSPropertyOp9
 70
     1
102
RTVSPropertyOp10
 70
     1
102
RTVSPropertyOp11
 70
     1
102
RTVSPropertyOp12
 70
     1
102
RTVSPropertyOp13
 70
     1
102
RTVSPropertyOp14
 70
     1
102
RTVSPropertyOp15
 70
     1
102
RTVSPropertyOp16
 70
     1
102
RTVSPropertyOp17
 70
     1
102
RTVSPropertyOp18
 70
     1
102
RTVSPropertyOp19
 70
     1
102
RTVSPropertyOp20
 70
     1
102
RTVSPropertyOp21
 70
     1
102
RTVSPropertyOp22
 70
     1
102
RTVSPropertyOp23
 70
     1
102
RTVSPropertyOp24
 70
     1
102
RTVSPropertyOp25
 70
     1
102
RTVSPropertyOp26
 70
     1
102
RTVSPropertyOp27
 70
     1
102
RTVSPropertyOp28
 70
     1
102
RTVSPropertyOp29
 70
     1
102
RTVSPropertyOp30
 70
     1
102
RTVSPropertyOp31
 70
     1
102
RTVSPropertyOp32
 70
     1
102
RTVSPropertyOp33
 70
     1
102
RTVSPropertyOp34
 70
     1
102
RTVSPropertyOp35
 70
     1
102
RTVSPropertyOp36
 70
     1
102
RTVSPropertyOp37
 70
     1
102
RTVSPropertyOp38
 70
     1
102
RTVSPropertyOp39
 70
     1
102
RTVSPropertyOp40
 70
     1
102
RTVSPropertyOp41
 70
     1
102
RTVSPropertyOp42
 70
     1
102
RTVSPropertyOp43
 70
     1
102
RTVSPropertyOp44
 70
     1
102
RTVSPropertyOp45
 70
     1
102
RTVSPropertyOp46
 70
     1
102
RTVSPropertyOp47
 70
     1
102
RTVSPropertyOp48
 70
     1
102
RTVSPropertyOp49
 70
     1
102
RTVSPropertyOp50
 70
     1
102
RTVSPropertyOp51
 70
     0
102
RTVSPropertyOp52
 70
     0
102
RTVSPropertyOp53
 70
     1
102
RTVSPropertyOp54
 70
     1
102
RTVSPropertyOp55
 70
     1
102
RTVSPropertyOp56
 70
     1
102
RTVSPropertyOp57
 70
     1
102
RTVSPost2010Prop28
280
     0
102
RTVSPost2010PropOp28
 70
     1
102
RTVSPost2010Prop29
280
     1
102
RTVSPost2010PropOp29
 70
     1
102
RTVSPost2010Prop30
280
     1
102
RTVSPost2010PropOp30
 70
     1
102
RTVSPost2010Prop31
280
     0
102
RTVSPost2010PropOp31
 70
     1
102
RTVSPost2010Prop32
280
     0
102
RTVSPost2010PropOp32
 70
     1
102
RTVSPost2010Prop33
280
     0
102
RTVSPost2010PropOp33
 70
     1
102
RTVSPost2010Prop34
280
     0
102
RTVSPost2010PropOp34
 70
     1
102
RTVSPost2010Prop35
280
     0
102
RTVSPost2010PropOp35
 70
     1
102
RTVSPost2010Prop36
280
     0
102
RTVSPost2010PropOp36
 70
     1
102
RTVSPost2010Prop37
 90
       50
102
RTVSPost2010PropOp37
 70
     1
102
RTVSPost2010Prop38
140
0.0
102
RTVSPost2010PropOp38
 70
     1
102
RTVSPost2010Prop39
140
1.0
102
RTVSPost2010PropOp39
 70
     1
102
RTVSPost2010Prop40
 90
        0
102
RTVSPost2010PropOp40
 70
     1
102
RTVSPost2010Prop41ColorIndex
 90
       18
102
RTVSPost2010Prop41ColorRGB
 90
        0
102
RTVSPost2010PropOp41
 70
     1
102
RTVSPost2010Prop42
 90
       50
102
RTVSPost2010PropOp42
 70
     1
102
RTVSPost2010Prop43
 90
        3
102
RTVSPost2010PropOp43
 70
     1
102
RTVSPost2010Prop44ColorIndex
 90
        5
102
RTVSPost2010Prop44ColorRGB
 90
      255
102
RTVSPost2010PropOp44
 70
     1
102
RTVSPost2010Prop45
280
     0
102
RTVSPost2010PropOp45
 70
     1
102
RTVSPost2010Prop46
 90
       50
102
RTVSPost2010PropOp46
 70
     1
102
RTVSPost2010Prop47
 90
       50
102
RTVSPost2010PropOp47
 70
     1
102
RTVSPost2010Prop48
 90
       50
102
RTVSPost2010PropOp48
 70
     1
102
RTVSPost2010Prop49
280
     0
102
RTVSPost2010PropOp49
 70
     1
102
RTVSPost2010Prop50
 90
       50
102
RTVSPost2010PropOp50
 70
     1
102
RTVSPost2010Prop51ColorIndex
 90
      256
102
RTVSPost2010Prop51ColorRGB
 90
-16777216
102
RTVSPost2010PropOp51
 70
     0
102
RTVSPost2010Prop52
140
1.0
102
RTVSPost2010PropOp52
 70
     0
102
RTVSPost2010Prop53
 90
        2
102
RTVSPost2010PropOp53
 70
     1
102
RTVSPost2010Prop54
  1
strokes_ogs.tif
102
RTVSPost2010PropOp54
 70
     1
102
RTVSPost2010Prop55
280
     0
102
RTVSPost2010PropOp55
 70
     1
102
RTVSPost2010Prop56
140
1.0
102
RTVSPost2010PropOp56
 70
     1
102
RTVSPost2010Prop57
140
1.0
102
RTVSPost2010PropOp57
 70
     1
  0
XRECORD
  5
103
102
{ACAD_REACTORS
330
102
102
}
330
102
100
AcDbXrecord
280
     1
102
RTVSPropertyOp0
 70
     0
102
RTVSPropertyOp1
 70
     0
102
RTVSPropertyOp2
 70
     0
102
RTVSPropertyOp3
 70
     0
102
RTVSPropertyOp4
 70
     0
102
RTVSPropertyOp5
 70
     0
102
RTVSPropertyOp6
 70
     0
102
RTVSPropertyOp7
 70
     0
102
RTVSPropertyOp8
 70
     0
102
RTVSPropertyOp9
 70
     0
102
RTVSPropertyOp10
 70
     0
102
RTVSPropertyOp11
 70
     0
102
RTVSPropertyOp12
 70
     0
102
RTVSPropertyOp13
 70
     0
102
RTVSPropertyOp14
 70
     2
102
RTVSPropertyOp15
 70
     0
102
RTVSPropertyOp16
 70
     0
102
RTVSPropertyOp17
 70
     0
102
RTVSPropertyOp18
 70
     0
102
RTVSPropertyOp19
 70
     0
102
RTVSPropertyOp20
 70
     0
102
RTVSPropertyOp21
 70
     0
102
RTVSPropertyOp22
 70
     0
102
RTVSPropertyOp23
 70
     0
102
RTVSPropertyOp24
 70
     0
102
RTVSPropertyOp25
 70
     0
102
RTVSPropertyOp26
 70
     0
102
RTVSPropertyOp27
 70
     0
102
RTVSPropertyOp28
 70
     0
102
RTVSPropertyOp29
 70
     0
102
RTVSPropertyOp30
 70
     0
102
RTVSPropertyOp31
 70
     0
102
RTVSPropertyOp32
 70
     0
102
RTVSPropertyOp33
 70
     0
102
RTVSPropertyOp34
 70
     0
102
RTVSPropertyOp35
 70
     0
102
RTVSPropertyOp36
 70
     0
102
RTVSPropertyOp37
 70
     0
102
RTVSPropertyOp38
 70
     0
102
RTVSPropertyOp39
 70
     0
102
RTVSPropertyOp40
 70
     0
102
RTVSPropertyOp41
 70
     0
102
RTVSPropertyOp42
 70
     0
102
RTVSPropertyOp43
 70
     0
102
RTVSPropertyOp44
 70
     0
102
RTVSPropertyOp45
 70
     0
102
RTVSPropertyOp46
 70
     0
102
RTVSPropertyOp47
 70
     0
102
RTVSPropertyOp48
 70
     0
102
RTVSPropertyOp49
 70
     0
102
RTVSPropertyOp50
 70
     0
102
RTVSPropertyOp51
 70
     0
102
RTVSPropertyOp52
 70
     0
102
RTVSPropertyOp53
 70
     0
102
RTVSPropertyOp54
 70
     0
102
RTVSPropertyOp55
 70
     0
102
RTVSPropertyOp56
 70
     0
102
RTVSPropertyOp57
 70
     0
102
RTVSPost2010Prop28
280
     0
102
RTVSPost2010PropOp28
 70
     0
102
RTVSPost2010Prop29
280
     1
102
RTVSPost2010PropOp29
 70
     0
102
RTVSPost2010Prop30
280
     1
102
RTVSPost2010PropOp30
 70
     0
102
RTVSPost2010Prop31
280
     0
102
RTVSPost2010PropOp31
 70
     0
102
RTVSPost2010Prop32
280
     0
102
RTVSPost2010PropOp32
 70
     0
102
RTVSPost2010Prop33
280
     0
102
RTVSPost2010PropOp33
 70
     0
102
RTVSPost2010Prop34
280
     0
102
RTVSPost2010PropOp34
 70
     0
102
RTVSPost2010Prop35
280
     0
102
RTVSPost2010PropOp35
 70
     0
102
RTVSPost2010Prop36
280
     0
102
RTVSPost2010PropOp36
 70
     0
102
RTVSPost2010Prop37
 90
       50
102
RTVSPost2010PropOp37
 70
     0
102
RTVSPost2010Prop38
140
0.0
102
RTVSPost2010PropOp38
 70
     0
102
RTVSPost2010Prop39
140
1.0
102
RTVSPost2010PropOp39
 70
     0
102
RTVSPost2010Prop40
 90
        0
102
RTVSPost2010PropOp40
 70
     0
102
RTVSPost2010Prop41ColorIndex
 90
       18
102
RTVSPost2010Prop41ColorRGB
 90
        0
102
RTVSPost2010PropOp41
 70
     0
102
RTVSPost2010Prop42
 90
       50
102
RTVSPost2010PropOp42
 70
     0
102
RTVSPost2010Prop43
 90
        3
102
RTVSPost2010PropOp43
 70
     0
102
RTVSPost2010Prop44ColorIndex
 90
        5
102
RTVSPost2010Prop44ColorRGB
 90
      255
102
RTVSPost2010PropOp44
 70
     0
102
RTVSPost2010Prop45
280
     0
102
RTVSPost2010PropOp45
 70
     0
102
RTVSPost2010Prop46
 90
       50
102
RTVSPost2010PropOp46
 70
     0
102
RTVSPost2010Prop47
 90
       50
102
RTVSPost2010PropOp47
 70
     0
102
RTVSPost2010Prop48
 90
       50
102
RTVSPost2010PropOp48
 70
     0
102
RTVSPost2010Prop49
280
     0
102
RTVSPost2010PropOp49
 70
     0
102
RTVSPost2010Prop50
 90
       50
102
RTVSPost2010PropOp50
 70
     0
102
RTVSPost2010Prop51ColorIndex
 90
      256
102
RTVSPost2010Prop51ColorRGB
 90
-16777216
102
RTVSPost2010PropOp51
 70
     0
102
RTVSPost2010Prop52
140
1.0
102
RTVSPost2010PropOp52
 70
     0
102
RTVSPost2010Prop53
 90
        2
102
RTVSPost2010PropOp53
 70
     0
102
RTVSPost2010Prop54
  1
strokes_ogs.tif
102
RTVSPost2010PropOp54
 70
     0
102
RTVSPost2010Prop55
280
     0
102
RTVSPost2010PropOp55
 70
     0
102
RTVSPost2010Prop56
140
1.0
102
RTVSPost2010PropOp56
 70
     0
102
RTVSPost2010Prop57
140
1.0
102
RTVSPost2010PropOp57
 70
     0
  0
XRECORD
  5
FB
102
{ACAD_REACTORS
330
FA
102
}
330
FA
100
AcDbXrecord
280
     1
102
RTVSPropertyOp0
 70
     1
102
RTVSPropertyOp1
 70
     1
102
RTVSPropertyOp2
 70
     1
102
RTVSPropertyOp3
 70
     1
102
RTVSPropertyOp4
 70
     1
102
RTVSPropertyOp5
 70
     1
102
RTVSPropertyOp6
 70
     1
102
RTVSPropertyOp7
 70
     1
102
RTVSPropertyOp8
 70
     1
102
RTVSPropertyOp9
 70
     1
102
RTVSPropertyOp10
 70
     1
102
RTVSPropertyOp11
 70
     1
102
RTVSPropertyOp12
 70
     1
102
RTVSPropertyOp13
 70
     1
102
RTVSPropertyOp14
 70
     1
102
RTVSPropertyOp15
 70
     1
102
RTVSPropertyOp16
 70
     1
102
RTVSPropertyOp17
 70
     1
102
RTVSPropertyOp18
 70
     1
102
RTVSPropertyOp19
 70
     1
102
RTVSPropertyOp20
 70
     1
102
RTVSPropertyOp21
 70
     1
102
RTVSPropertyOp22
 70
     1
102
RTVSPropertyOp23
 70
     1
102
RTVSPropertyOp24
 70
     1
102
RTVSPropertyOp25
 70
     1
102
RTVSPropertyOp26
 70
     1
102
RTVSPropertyOp27
 70
     1
102
RTVSPropertyOp28
 70
     1
102
RTVSPropertyOp29
 70
     1
102
RTVSPropertyOp30
 70
     1
102
RTVSPropertyOp31
 70
     1
102
RTVSPropertyOp32
 70
     1
102
RTVSPropertyOp33
 70
     1
102
RTVSPropertyOp34
 70
     1
102
RTVSPropertyOp35
 70
     1
102
RTVSPropertyOp36
 70
     1
102
RTVSPropertyOp37
 70
     1
102
RTVSPropertyOp38
 70
     1
102
RTVSPropertyOp39
 70
     1
102
RTVSPropertyOp40
 70
     1
102
RTVSPropertyOp41
 70
     1
102
RTVSPropertyOp42
 70
     1
102
RTVSPropertyOp43
 70
     1
102
RTVSPropertyOp44
 70
     1
102
RTVSPropertyOp45
 70
     1
102
RTVSPropertyOp46
 70
     1
102
RTVSPropertyOp47
 70
     1
102
RTVSPropertyOp48
 70
     1
102
RTVSPropertyOp49
 70
     1
102
RTVSPropertyOp50
 70
     1
102
RTVSPropertyOp51
 70
     0
102
RTVSPropertyOp52
 70
     0
102
RTVSPropertyOp53
 70
     1
102
RTVSPropertyOp54
 70
     1
102
RTVSPropertyOp55
 70
     1
102
RTVSPropertyOp56
 70
     1
102
RTVSPropertyOp57
 70
     1
102
RTVSPost2010Prop28
280
     0
102
RTVSPost2010PropOp28
 70
     1
102
RTVSPost2010Prop29
280
     1
102
RTVSPost2010PropOp29
 70
     1
102
RTVSPost2010Prop30
280
     1
102
RTVSPost2010PropOp30
 70
     1
102
RTVSPost2010Prop31
280
     0
102
RTVSPost2010PropOp31
 70
     1
102
RTVSPost2010Prop32
280
     0
102
RTVSPost2010PropOp32
 70
     1
102
RTVSPost2010Prop33
280
     0
102
RTVSPost2010PropOp33
 70
     1
102
RTVSPost2010Prop34
280
     0
102
RTVSPost2010PropOp34
 70
     1
102
RTVSPost2010Prop35
280
     0
102
RTVSPost2010PropOp35
 70
     1
102
RTVSPost2010Prop36
280
     0
102
RTVSPost2010PropOp36
 70
     1
102
RTVSPost2010Prop37
 90
       50
102
RTVSPost2010PropOp37
 70
     1
102
RTVSPost2010Prop38
140
0.0
102
RTVSPost2010PropOp38
 70
     1
102
RTVSPost2010Prop39
140
1.0
102
RTVSPost2010PropOp39
 70
     1
102
RTVSPost2010Prop40
 90
        0
102
RTVSPost2010PropOp40
 70
     1
102
RTVSPost2010Prop41ColorIndex
 90
       18
102
RTVSPost2010Prop41ColorRGB
 90
        0
102
RTVSPost2010PropOp41
 70
     1
102
RTVSPost2010Prop42
 90
       50
102
RTVSPost2010PropOp42
 70
     1
102
RTVSPost2010Prop43
 90
        3
102
RTVSPost2010PropOp43
 70
     1
102
RTVSPost2010Prop44ColorIndex
 90
        5
102
RTVSPost2010Prop44ColorRGB
 90
      255
102
RTVSPost2010PropOp44
 70
     1
102
RTVSPost2010Prop45
280
     0
102
RTVSPost2010PropOp45
 70
     1
102
RTVSPost2010Prop46
 90
       50
102
RTVSPost2010PropOp46
 70
     1
102
RTVSPost2010Prop47
 90
       50
102
RTVSPost2010PropOp47
 70
     1
102
RTVSPost2010Prop48
 90
       50
102
RTVSPost2010PropOp48
 70
     1
102
RTVSPost2010Prop49
280
     0
102
RTVSPost2010PropOp49
 70
     1
102
RTVSPost2010Prop50
 90
       50
102
RTVSPost2010PropOp50
 70
     1
102
RTVSPost2010Prop51ColorIndex
 90
      256
102
RTVSPost2010Prop51ColorRGB
 90
-16777216
102
RTVSPost2010PropOp51
 70
     0
102
RTVSPost2010Prop52
140
1.0
102
RTVSPost2010PropOp52
 70
     0
102
RTVSPost2010Prop53
 90
        2
102
RTVSPost2010PropOp53
 70
     1
102
RTVSPost2010Prop54
  1
strokes_ogs.tif
102
RTVSPost2010PropOp54
 70
     1
102
RTVSPost2010Prop55
280
     0
102
RTVSPost2010PropOp55
 70
     1
102
RTVSPost2010Prop56
140
1.0
102
RTVSPost2010PropOp56
 70
     1
102
RTVSPost2010Prop57
140
1.0
102
RTVSPost2010PropOp57
 70
     1
  0
XRECORD
  5
DF
102
{ACAD_REACTORS
330
DE
102
}
330
DE
100
AcDbXrecord
280
     1
102
RTVSPropertyOp0
 70
     1
102
RTVSPropertyOp1
 70
     1
102
RTVSPropertyOp2
 70
     1
102
RTVSPropertyOp3
 70
     1
102
RTVSPropertyOp4
 70
     1
102
RTVSPropertyOp5
 70
     1
102
RTVSPropertyOp6
 70
     1
102
RTVSPropertyOp7
 70
     1
102
RTVSPropertyOp8
 70
     1
102
RTVSPropertyOp9
 70
     1
102
RTVSPropertyOp10
 70
     1
102
RTVSPropertyOp11
 70
     1
102
RTVSPropertyOp12
 70
     1
102
RTVSPropertyOp13
 70
     1
102
RTVSPropertyOp14
 70
     1
102
RTVSPropertyOp15
 70
     1
102
RTVSPropertyOp16
 70
     1
102
RTVSPropertyOp17
 70
     1
102
RTVSPropertyOp18
 70
     1
102
RTVSPropertyOp19
 70
     1
102
RTVSPropertyOp20
 70
     1
102
RTVSPropertyOp21
 70
     1
102
RTVSPropertyOp22
 70
     1
102
RTVSPropertyOp23
 70
     1
102
RTVSPropertyOp24
 70
     1
102
RTVSPropertyOp25
 70
     1
102
RTVSPropertyOp26
 70
     1
102
RTVSPropertyOp27
 70
     1
102
RTVSPropertyOp28
 70
     1
102
RTVSPropertyOp29
 70
     1
102
RTVSPropertyOp30
 70
     1
102
RTVSPropertyOp31
 70
     1
102
RTVSPropertyOp32
 70
     1
102
RTVSPropertyOp33
 70
     1
102
RTVSPropertyOp34
 70
     1
102
RTVSPropertyOp35
 70
     1
102
RTVSPropertyOp36
 70
     1
102
RTVSPropertyOp37
 70
     1
102
RTVSPropertyOp38
 70
     1
102
RTVSPropertyOp39
 70
     1
102
RTVSPropertyOp40
 70
     1
102
RTVSPropertyOp41
 70
     1
102
RTVSPropertyOp42
 70
     1
102
RTVSPropertyOp43
 70
     1
102
RTVSPropertyOp44
 70
     1
102
RTVSPropertyOp45
 70
     1
102
RTVSPropertyOp46
 70
     1
102
RTVSPropertyOp47
 70
     1
102
RTVSPropertyOp48
 70
     1
102
RTVSPropertyOp49
 70
     1
102
RTVSPropertyOp50
 70
     1
102
RTVSPropertyOp51
 70
     0
102
RTVSPropertyOp52
 70
     0
102
RTVSPropertyOp53
 70
     1
102
RTVSPropertyOp54
 70
     1
102
RTVSPropertyOp55
 70
     1
102
RTVSPropertyOp56
 70
     1
102
RTVSPropertyOp57
 70
     1
102
RTVSPost2010Prop28
280
     0
102
RTVSPost2010PropOp28
 70
     1
102
RTVSPost2010Prop29
280
     1
102
RTVSPost2010PropOp29
 70
     1
102
RTVSPost2010Prop30
280
     1
102
RTVSPost2010PropOp30
 70
     1
102
RTVSPost2010Prop31
280
     0
102
RTVSPost2010PropOp31
 70
     1
102
RTVSPost2010Prop32
280
     0
102
RTVSPost2010PropOp32
 70
     1
102
RTVSPost2010Prop33
280
     0
102
RTVSPost2010PropOp33
 70
     1
102
RTVSPost2010Prop34
280
     0
102
RTVSPost2010PropOp34
 70
     1
102
RTVSPost2010Prop35
280
     0
102
RTVSPost2010PropOp35
 70
     1
102
RTVSPost2010Prop36
280
     0
102
RTVSPost2010PropOp36
 70
     1
102
RTVSPost2010Prop37
 90
       50
102
RTVSPost2010PropOp37
 70
     1
102
RTVSPost2010Prop38
140
0.0
102
RTVSPost2010PropOp38
 70
     1
102
RTVSPost2010Prop39
140
1.0
102
RTVSPost2010PropOp39
 70
     1
102
RTVSPost2010Prop40
 90
        0
102
RTVSPost2010PropOp40
 70
     1
102
RTVSPost2010Prop41ColorIndex
 90
       18
102
RTVSPost2010Prop41ColorRGB
 90
        0
102
RTVSPost2010PropOp41
 70
     1
102
RTVSPost2010Prop42
 90
       50
102
RTVSPost2010PropOp42
 70
     1
102
RTVSPost2010Prop43
 90
        3
102
RTVSPost2010PropOp43
 70
     1
102
RTVSPost2010Prop44ColorIndex
 90
        5
102
RTVSPost2010Prop44ColorRGB
 90
      255
102
RTVSPost2010PropOp44
 70
     1
102
RTVSPost2010Prop45
280
     0
102
RTVSPost2010PropOp45
 70
     1
102
RTVSPost2010Prop46
 90
       50
102
RTVSPost2010PropOp46
 70
     1
102
RTVSPost2010Prop47
 90
       50
102
RTVSPost2010PropOp47
 70
     1
102
RTVSPost2010Prop48
 90
       50
102
RTVSPost2010PropOp48
 70
     1
102
RTVSPost2010Prop49
280
     0
102
RTVSPost2010PropOp49
 70
     1
102
RTVSPost2010Prop50
 90
       50
102
RTVSPost2010PropOp50
 70
     1
102
RTVSPost2010Prop51ColorIndex
 90
      256
102
RTVSPost2010Prop51ColorRGB
 90
-16777216
102
RTVSPost2010PropOp51
 70
     0
102
RTVSPost2010Prop52
140
1.0
102
RTVSPost2010PropOp52
 70
     0
102
RTVSPost2010Prop53
 90
        2
102
RTVSPost2010PropOp53
 70
     1
102
RTVSPost2010Prop54
  1
strokes_ogs.tif
102
RTVSPost2010PropOp54
 70
     1
102
RTVSPost2010Prop55
280
     0
102
RTVSPost2010PropOp55
 70
     1
102
RTVSPost2010Prop56
140
1.0
102
RTVSPost2010PropOp56
 70
     1
102
RTVSPost2010Prop57
140
1.0
102
RTVSPost2010PropOp57
 70
     1
  0
XRECORD
  5
E1
102
{ACAD_REACTORS
330
E0
102
}
330
E0
100
AcDbXrecord
280
     1
102
RTVSPropertyOp0
 70
     1
102
RTVSPropertyOp1
 70
     1
102
RTVSPropertyOp2
 70
     1
102
RTVSPropertyOp3
 70
     1
102
RTVSPropertyOp4
 70
     1
102
RTVSPropertyOp5
 70
     1
102
RTVSPropertyOp6
 70
     1
102
RTVSPropertyOp7
 70
     1
102
RTVSPropertyOp8
 70
     1
102
RTVSPropertyOp9
 70
     1
102
RTVSPropertyOp10
 70
     1
102
RTVSPropertyOp11
 70
     1
102
RTVSPropertyOp12
 70
     1
102
RTVSPropertyOp13
 70
     1
102
RTVSPropertyOp14
 70
     1
102
RTVSPropertyOp15
 70
     1
102
RTVSPropertyOp16
 70
     1
102
RTVSPropertyOp17
 70
     1
102
RTVSPropertyOp18
 70
     1
102
RTVSPropertyOp19
 70
     1
102
RTVSPropertyOp20
 70
     1
102
RTVSPropertyOp21
 70
     1
102
RTVSPropertyOp22
 70
     1
102
RTVSPropertyOp23
 70
     1
102
RTVSPropertyOp24
 70
     1
102
RTVSPropertyOp25
 70
     1
102
RTVSPropertyOp26
 70
     1
102
RTVSPropertyOp27
 70
     1
102
RTVSPropertyOp28
 70
     1
102
RTVSPropertyOp29
 70
     1
102
RTVSPropertyOp30
 70
     1
102
RTVSPropertyOp31
 70
     1
102
RTVSPropertyOp32
 70
     1
102
RTVSPropertyOp33
 70
     1
102
RTVSPropertyOp34
 70
     1
102
RTVSPropertyOp35
 70
     1
102
RTVSPropertyOp36
 70
     1
102
RTVSPropertyOp37
 70
     1
102
RTVSPropertyOp38
 70
     1
102
RTVSPropertyOp39
 70
     1
102
RTVSPropertyOp40
 70
     1
102
RTVSPropertyOp41
 70
     1
102
RTVSPropertyOp42
 70
     1
102
RTVSPropertyOp43
 70
     1
102
RTVSPropertyOp44
 70
     1
102
RTVSPropertyOp45
 70
     1
102
RTVSPropertyOp46
 70
     1
102
RTVSPropertyOp47
 70
     1
102
RTVSPropertyOp48
 70
     1
102
RTVSPropertyOp49
 70
     1
102
RTVSPropertyOp50
 70
     1
102
RTVSPropertyOp51
 70
     0
102
RTVSPropertyOp52
 70
     0
102
RTVSPropertyOp53
 70
     1
102
RTVSPropertyOp54
 70
     1
102
RTVSPropertyOp55
 70
     1
102
RTVSPropertyOp56
 70
     1
102
RTVSPropertyOp57
 70
     1
102
RTVSPost2010Prop28
280
     0
102
RTVSPost2010PropOp28
 70
     1
102
RTVSPost2010Prop29
280
     1
102
RTVSPost2010PropOp29
 70
     1
102
RTVSPost2010Prop30
280
     1
102
RTVSPost2010PropOp30
 70
     1
102
RTVSPost2010Prop31
280
     0
102
RTVSPost2010PropOp31
 70
     1
102
RTVSPost2010Prop32
280
     0
102
RTVSPost2010PropOp32
 70
     1
102
RTVSPost2010Prop33
280
     0
102
RTVSPost2010PropOp33
 70
     1
102
RTVSPost2010Prop34
280
     0
102
RTVSPost2010PropOp34
 70
     1
102
RTVSPost2010Prop35
280
     0
102
RTVSPost2010PropOp35
 70
     1
102
RTVSPost2010Prop36
280
     0
102
RTVSPost2010PropOp36
 70
     1
102
RTVSPost2010Prop37
 90
       50
102
RTVSPost2010PropOp37
 70
     1
102
RTVSPost2010Prop38
140
0.0
102
RTVSPost2010PropOp38
 70
     1
102
RTVSPost2010Prop39
140
1.0
102
RTVSPost2010PropOp39
 70
     1
102
RTVSPost2010Prop40
 90
        0
102
RTVSPost2010PropOp40
 70
     1
102
RTVSPost2010Prop41ColorIndex
 90
       18
102
RTVSPost2010Prop41ColorRGB
 90
        0
102
RTVSPost2010PropOp41
 70
     1
102
RTVSPost2010Prop42
 90
       50
102
RTVSPost2010PropOp42
 70
     1
102
RTVSPost2010Prop43
 90
        3
102
RTVSPost2010PropOp43
 70
     1
102
RTVSPost2010Prop44ColorIndex
 90
        5
102
RTVSPost2010Prop44ColorRGB
 90
      255
102
RTVSPost2010PropOp44
 70
     1
102
RTVSPost2010Prop45
280
     0
102
RTVSPost2010PropOp45
 70
     1
102
RTVSPost2010Prop46
 90
       50
102
RTVSPost2010PropOp46
 70
     1
102
RTVSPost2010Prop47
 90
       50
102
RTVSPost2010PropOp47
 70
     1
102
RTVSPost2010Prop48
 90
       50
102
RTVSPost2010PropOp48
 70
     1
102
RTVSPost2010Prop49
280
     0
102
RTVSPost2010PropOp49
 70
     1
102
RTVSPost2010Prop50
 90
       50
102
RTVSPost2010PropOp50
 70
     1
102
RTVSPost2010Prop51ColorIndex
 90
      256
102
RTVSPost2010Prop51ColorRGB
 90
-16777216
102
RTVSPost2010PropOp51
 70
     0
102
RTVSPost2010Prop52
140
1.0
102
RTVSPost2010PropOp52
 70
     0
102
RTVSPost2010Prop53
 90
        2
102
RTVSPost2010PropOp53
 70
     1
102
RTVSPost2010Prop54
  1
strokes_ogs.tif
102
RTVSPost2010PropOp54
 70
     1
102
RTVSPost2010Prop55
280
     0
102
RTVSPost2010PropOp55
 70
     1
102
RTVSPost2010Prop56
140
1.0
102
RTVSPost2010PropOp56
 70
     1
102
RTVSPost2010Prop57
140
1.0
102
RTVSPost2010PropOp57
 70
     1
  0
XRECORD
  5
E3
102
{ACAD_REACTORS
330
E2
102
}
330
E2
100
AcDbXrecord
280
     1
102
RTVSPropertyOp0
 70
     1
102
RTVSPropertyOp1
 70
     1
102
RTVSPropertyOp2
 70
     1
102
RTVSPropertyOp3
 70
     1
102
RTVSPropertyOp4
 70
     1
102
RTVSPropertyOp5
 70
     1
102
RTVSPropertyOp6
 70
     1
102
RTVSPropertyOp7
 70
     1
102
RTVSPropertyOp8
 70
     1
102
RTVSPropertyOp9
 70
     1
102
RTVSPropertyOp10
 70
     1
102
RTVSPropertyOp11
 70
     1
102
RTVSPropertyOp12
 70
     1
102
RTVSPropertyOp13
 70
     1
102
RTVSPropertyOp14
 70
     1
102
RTVSPropertyOp15
 70
     1
102
RTVSPropertyOp16
 70
     1
102
RTVSPropertyOp17
 70
     1
102
RTVSPropertyOp18
 70
     1
102
RTVSPropertyOp19
 70
     1
102
RTVSPropertyOp20
 70
     1
102
RTVSPropertyOp21
 70
     1
102
RTVSPropertyOp22
 70
     1
102
RTVSPropertyOp23
 70
     1
102
RTVSPropertyOp24
 70
     1
102
RTVSPropertyOp25
 70
     1
102
RTVSPropertyOp26
 70
     1
102
RTVSPropertyOp27
 70
     1
102
RTVSPropertyOp28
 70
     1
102
RTVSPropertyOp29
 70
     1
102
RTVSPropertyOp30
 70
     1
102
RTVSPropertyOp31
 70
     1
102
RTVSPropertyOp32
 70
     1
102
RTVSPropertyOp33
 70
     1
102
RTVSPropertyOp34
 70
     1
102
RTVSPropertyOp35
 70
     1
102
RTVSPropertyOp36
 70
     1
102
RTVSPropertyOp37
 70
     1
102
RTVSPropertyOp38
 70
     1
102
RTVSPropertyOp39
 70
     1
102
RTVSPropertyOp40
 70
     1
102
RTVSPropertyOp41
 70
     1
102
RTVSPropertyOp42
 70
     1
102
RTVSPropertyOp43
 70
     1
102
RTVSPropertyOp44
 70
     1
102
RTVSPropertyOp45
 70
     1
102
RTVSPropertyOp46
 70
     1
102
RTVSPropertyOp47
 70
     1
102
RTVSPropertyOp48
 70
     1
102
RTVSPropertyOp49
 70
     1
102
RTVSPropertyOp50
 70
     1
102
RTVSPropertyOp51
 70
     0
102
RTVSPropertyOp52
 70
     0
102
RTVSPropertyOp53
 70
     1
102
RTVSPropertyOp54
 70
     1
102
RTVSPropertyOp55
 70
     1
102
RTVSPropertyOp56
 70
     1
102
RTVSPropertyOp57
 70
     1
102
RTVSPost2010Prop28
280
     0
102
RTVSPost2010PropOp28
 70
     1
102
RTVSPost2010Prop29
280
     1
102
RTVSPost2010PropOp29
 70
     1
102
RTVSPost2010Prop30
280
     1
102
RTVSPost2010PropOp30
 70
     1
102
RTVSPost2010Prop31
280
     0
102
RTVSPost2010PropOp31
 70
     1
102
RTVSPost2010Prop32
280
     0
102
RTVSPost2010PropOp32
 70
     1
102
RTVSPost2010Prop33
280
     0
102
RTVSPost2010PropOp33
 70
     1
102
RTVSPost2010Prop34
280
     0
102
RTVSPost2010PropOp34
 70
     1
102
RTVSPost2010Prop35
280
     0
102
RTVSPost2010PropOp35
 70
     1
102
RTVSPost2010Prop36
280
     0
102
RTVSPost2010PropOp36
 70
     1
102
RTVSPost2010Prop37
 90
       50
102
RTVSPost2010PropOp37
 70
     1
102
RTVSPost2010Prop38
140
0.0
102
RTVSPost2010PropOp38
 70
     1
102
RTVSPost2010Prop39
140
1.0
102
RTVSPost2010PropOp39
 70
     1
102
RTVSPost2010Prop40
 90
        0
102
RTVSPost2010PropOp40
 70
     1
102
RTVSPost2010Prop41ColorIndex
 90
       18
102
RTVSPost2010Prop41ColorRGB
 90
        0
102
RTVSPost2010PropOp41
 70
     1
102
RTVSPost2010Prop42
 90
       50
102
RTVSPost2010PropOp42
 70
     1
102
RTVSPost2010Prop43
 90
        3
102
RTVSPost2010PropOp43
 70
     1
102
RTVSPost2010Prop44ColorIndex
 90
        5
102
RTVSPost2010Prop44ColorRGB
 90
      255
102
RTVSPost2010PropOp44
 70
     1
102
RTVSPost2010Prop45
280
     0
102
RTVSPost2010PropOp45
 70
     1
102
RTVSPost2010Prop46
 90
       50
102
RTVSPost2010PropOp46
 70
     1
102
RTVSPost2010Prop47
 90
       50
102
RTVSPost2010PropOp47
 70
     1
102
RTVSPost2010Prop48
 90
       50
102
RTVSPost2010PropOp48
 70
     1
102
RTVSPost2010Prop49
280
     0
102
RTVSPost2010PropOp49
 70
     1
102
RTVSPost2010Prop50
 90
       50
102
RTVSPost2010PropOp50
 70
     1
102
RTVSPost2010Prop51ColorIndex
 90
      256
102
RTVSPost2010Prop51ColorRGB
 90
-16777216
102
RTVSPost2010PropOp51
 70
     0
102
RTVSPost2010Prop52
140
1.0
102
RTVSPost2010PropOp52
 70
     0
102
RTVSPost2010Prop53
 90
        2
102
RTVSPost2010PropOp53
 70
     1
102
RTVSPost2010Prop54
  1
strokes_ogs.tif
102
RTVSPost2010PropOp54
 70
     1
102
RTVSPost2010Prop55
280
     0
102
RTVSPost2010PropOp55
 70
     1
102
RTVSPost2010Prop56
140
1.0
102
RTVSPost2010PropOp56
 70
     1
102
RTVSPost2010Prop57
140
1.0
102
RTVSPost2010PropOp57
 70
     1
  0
XRECORD
  5
E5
102
{ACAD_REACTORS
330
E4
102
}
330
E4
100
AcDbXrecord
280
     1
102
RTVSPropertyOp0
 70
     1
102
RTVSPropertyOp1
 70
     1
102
RTVSPropertyOp2
 70
     1
102
RTVSPropertyOp3
 70
     1
102
RTVSPropertyOp4
 70
     1
102
RTVSPropertyOp5
 70
     1
102
RTVSPropertyOp6
 70
     1
102
RTVSPropertyOp7
 70
     1
102
RTVSPropertyOp8
 70
     1
102
RTVSPropertyOp9
 70
     1
102
RTVSPropertyOp10
 70
     1
102
RTVSPropertyOp11
 70
     1
102
RTVSPropertyOp12
 70
     1
102
RTVSPropertyOp13
 70
     1
102
RTVSPropertyOp14
 70
     1
102
RTVSPropertyOp15
 70
     1
102
RTVSPropertyOp16
 70
     1
102
RTVSPropertyOp17
 70
     1
102
RTVSPropertyOp18
 70
     1
102
RTVSPropertyOp19
 70
     1
102
RTVSPropertyOp20
 70
     1
102
RTVSPropertyOp21
 70
     1
102
RTVSPropertyOp22
 70
     1
102
RTVSPropertyOp23
 70
     1
102
RTVSPropertyOp24
 70
     1
102
RTVSPropertyOp25
 70
     1
102
RTVSPropertyOp26
 70
     1
102
RTVSPropertyOp27
 70
     1
102
RTVSPropertyOp28
 70
     1
102
RTVSPropertyOp29
 70
     1
102
RTVSPropertyOp30
 70
     1
102
RTVSPropertyOp31
 70
     1
102
RTVSPropertyOp32
 70
     1
102
RTVSPropertyOp33
 70
     1
102
RTVSPropertyOp34
 70
     1
102
RTVSPropertyOp35
 70
     1
102
RTVSPropertyOp36
 70
     1
102
RTVSPropertyOp37
 70
     1
102
RTVSPropertyOp38
 70
     1
102
RTVSPropertyOp39
 70
     1
102
RTVSPropertyOp40
 70
     1
102
RTVSPropertyOp41
 70
     1
102
RTVSPropertyOp42
 70
     1
102
RTVSPropertyOp43
 70
     1
102
RTVSPropertyOp44
 70
     1
102
RTVSPropertyOp45
 70
     1
102
RTVSPropertyOp46
 70
     1
102
RTVSPropertyOp47
 70
     1
102
RTVSPropertyOp48
 70
     1
102
RTVSPropertyOp49
 70
     1
102
RTVSPropertyOp50
 70
     1
102
RTVSPropertyOp51
 70
     0
102
RTVSPropertyOp52
 70
     0
102
RTVSPropertyOp53
 70
     1
102
RTVSPropertyOp54
 70
     1
102
RTVSPropertyOp55
 70
     1
102
RTVSPropertyOp56
 70
     1
102
RTVSPropertyOp57
 70
     1
102
RTVSPost2010Prop28
280
     0
102
RTVSPost2010PropOp28
 70
     1
102
RTVSPost2010Prop29
280
     1
102
RTVSPost2010PropOp29
 70
     1
102
RTVSPost2010Prop30
280
     1
102
RTVSPost2010PropOp30
 70
     1
102
RTVSPost2010Prop31
280
     0
102
RTVSPost2010PropOp31
 70
     1
102
RTVSPost2010Prop32
280
     0
102
RTVSPost2010PropOp32
 70
     1
102
RTVSPost2010Prop33
280
     0
102
RTVSPost2010PropOp33
 70
     1
102
RTVSPost2010Prop34
280
     0
102
RTVSPost2010PropOp34
 70
     1
102
RTVSPost2010Prop35
280
     0
102
RTVSPost2010PropOp35
 70
     1
102
RTVSPost2010Prop36
280
     0
102
RTVSPost2010PropOp36
 70
     1
102
RTVSPost2010Prop37
 90
       50
102
RTVSPost2010PropOp37
 70
     1
102
RTVSPost2010Prop38
140
0.0
102
RTVSPost2010PropOp38
 70
     1
102
RTVSPost2010Prop39
140
1.0
102
RTVSPost2010PropOp39
 70
     1
102
RTVSPost2010Prop40
 90
        0
102
RTVSPost2010PropOp40
 70
     1
102
RTVSPost2010Prop41ColorIndex
 90
       18
102
RTVSPost2010Prop41ColorRGB
 90
        0
102
RTVSPost2010PropOp41
 70
     1
102
RTVSPost2010Prop42
 90
       50
102
RTVSPost2010PropOp42
 70
     1
102
RTVSPost2010Prop43
 90
        3
102
RTVSPost2010PropOp43
 70
     1
102
RTVSPost2010Prop44ColorIndex
 90
        5
102
RTVSPost2010Prop44ColorRGB
 90
      255
102
RTVSPost2010PropOp44
 70
     1
102
RTVSPost2010Prop45
280
     0
102
RTVSPost2010PropOp45
 70
     1
102
RTVSPost2010Prop46
 90
       50
102
RTVSPost2010PropOp46
 70
     1
102
RTVSPost2010Prop47
 90
       50
102
RTVSPost2010PropOp47
 70
     1
102
RTVSPost2010Prop48
 90
       50
102
RTVSPost2010PropOp48
 70
     1
102
RTVSPost2010Prop49
280
     0
102
RTVSPost2010PropOp49
 70
     1
102
RTVSPost2010Prop50
 90
       50
102
RTVSPost2010PropOp50
 70
     1
102
RTVSPost2010Prop51ColorIndex
 90
      256
102
RTVSPost2010Prop51ColorRGB
 90
-16777216
102
RTVSPost2010PropOp51
 70
     0
102
RTVSPost2010Prop52
140
1.0
102
RTVSPost2010PropOp52
 70
     0
102
RTVSPost2010Prop53
 90
        2
102
RTVSPost2010PropOp53
 70
     1
102
RTVSPost2010Prop54
  1
strokes_ogs.tif
102
RTVSPost2010PropOp54
 70
     1
102
RTVSPost2010Prop55
280
     0
102
RTVSPost2010PropOp55
 70
     1
102
RTVSPost2010Prop56
140
1.0
102
RTVSPost2010PropOp56
 70
     1
102
RTVSPost2010Prop57
140
1.0
102
RTVSPost2010PropOp57
 70
     1
  0
XRECORD
  5
EB
102
{ACAD_REACTORS
330
EA
102
}
330
EA
100
AcDbXrecord
280
     1
102
RTVSPropertyOp0
 70
     1
102
RTVSPropertyOp1
 70
     1
102
RTVSPropertyOp2
 70
     1
102
RTVSPropertyOp3
 70
     1
102
RTVSPropertyOp4
 70
     1
102
RTVSPropertyOp5
 70
     1
102
RTVSPropertyOp6
 70
     1
102
RTVSPropertyOp7
 70
     1
102
RTVSPropertyOp8
 70
     1
102
RTVSPropertyOp9
 70
     1
102
RTVSPropertyOp10
 70
     1
102
RTVSPropertyOp11
 70
     1
102
RTVSPropertyOp12
 70
     1
102
RTVSPropertyOp13
 70
     1
102
RTVSPropertyOp14
 70
     1
102
RTVSPropertyOp15
 70
     1
102
RTVSPropertyOp16
 70
     1
102
RTVSPropertyOp17
 70
     1
102
RTVSPropertyOp18
 70
     1
102
RTVSPropertyOp19
 70
     1
102
RTVSPropertyOp20
 70
     1
102
RTVSPropertyOp21
 70
     1
102
RTVSPropertyOp22
 70
     1
102
RTVSPropertyOp23
 70
     1
102
RTVSPropertyOp24
 70
     1
102
RTVSPropertyOp25
 70
     1
102
RTVSPropertyOp26
 70
     1
102
RTVSPropertyOp27
 70
     1
102
RTVSPropertyOp28
 70
     1
102
RTVSPropertyOp29
 70
     1
102
RTVSPropertyOp30
 70
     1
102
RTVSPropertyOp31
 70
     1
102
RTVSPropertyOp32
 70
     1
102
RTVSPropertyOp33
 70
     1
102
RTVSPropertyOp34
 70
     1
102
RTVSPropertyOp35
 70
     1
102
RTVSPropertyOp36
 70
     1
102
RTVSPropertyOp37
 70
     1
102
RTVSPropertyOp38
 70
     1
102
RTVSPropertyOp39
 70
     1
102
RTVSPropertyOp40
 70
     1
102
RTVSPropertyOp41
 70
     1
102
RTVSPropertyOp42
 70
     1
102
RTVSPropertyOp43
 70
     1
102
RTVSPropertyOp44
 70
     1
102
RTVSPropertyOp45
 70
     1
102
RTVSPropertyOp46
 70
     1
102
RTVSPropertyOp47
 70
     1
102
RTVSPropertyOp48
 70
     1
102
RTVSPropertyOp49
 70
     1
102
RTVSPropertyOp50
 70
     1
102
RTVSPropertyOp51
 70
     0
102
RTVSPropertyOp52
 70
     0
102
RTVSPropertyOp53
 70
     1
102
RTVSPropertyOp54
 70
     1
102
RTVSPropertyOp55
 70
     1
102
RTVSPropertyOp56
 70
     1
102
RTVSPropertyOp57
 70
     1
102
RTVSPost2010Prop28
280
     0
102
RTVSPost2010PropOp28
 70
     1
102
RTVSPost2010Prop29
280
     1
102
RTVSPost2010PropOp29
 70
     1
102
RTVSPost2010Prop30
280
     1
102
RTVSPost2010PropOp30
 70
     1
102
RTVSPost2010Prop31
280
     0
102
RTVSPost2010PropOp31
 70
     1
102
RTVSPost2010Prop32
280
     0
102
RTVSPost2010PropOp32
 70
     1
102
RTVSPost2010Prop33
280
     0
102
RTVSPost2010PropOp33
 70
     1
102
RTVSPost2010Prop34
280
     0
102
RTVSPost2010PropOp34
 70
     1
102
RTVSPost2010Prop35
280
     0
102
RTVSPost2010PropOp35
 70
     1
102
RTVSPost2010Prop36
280
     0
102
RTVSPost2010PropOp36
 70
     1
102
RTVSPost2010Prop37
 90
       50
102
RTVSPost2010PropOp37
 70
     1
102
RTVSPost2010Prop38
140
0.0
102
RTVSPost2010PropOp38
 70
     1
102
RTVSPost2010Prop39
140
1.0
102
RTVSPost2010PropOp39
 70
     1
102
RTVSPost2010Prop40
 90
        0
102
RTVSPost2010PropOp40
 70
     1
102
RTVSPost2010Prop41ColorIndex
 90
       18
102
RTVSPost2010Prop41ColorRGB
 90
        0
102
RTVSPost2010PropOp41
 70
     1
102
RTVSPost2010Prop42
 90
       50
102
RTVSPost2010PropOp42
 70
     1
102
RTVSPost2010Prop43
 90
        3
102
RTVSPost2010PropOp43
 70
     1
102
RTVSPost2010Prop44ColorIndex
 90
        5
102
RTVSPost2010Prop44ColorRGB
 90
      255
102
RTVSPost2010PropOp44
 70
     1
102
RTVSPost2010Prop45
280
     0
102
RTVSPost2010PropOp45
 70
     1
102
RTVSPost2010Prop46
 90
       50
102
RTVSPost2010PropOp46
 70
     1
102
RTVSPost2010Prop47
 90
       50
102
RTVSPost2010PropOp47
 70
     1
102
RTVSPost2010Prop48
 90
       50
102
RTVSPost2010PropOp48
 70
     1
102
RTVSPost2010Prop49
280
     0
102
RTVSPost2010PropOp49
 70
     1
102
RTVSPost2010Prop50
 90
       50
102
RTVSPost2010PropOp50
 70
     1
102
RTVSPost2010Prop51ColorIndex
 90
      256
102
RTVSPost2010Prop51ColorRGB
 90
-16777216
102
RTVSPost2010PropOp51
 70
     0
102
RTVSPost2010Prop52
140
1.0
102
RTVSPost2010PropOp52
 70
     0
102
RTVSPost2010Prop53
 90
        2
102
RTVSPost2010PropOp53
 70
     1
102
RTVSPost2010Prop54
  1
strokes_ogs.tif
102
RTVSPost2010PropOp54
 70
     1
102
RTVSPost2010Prop55
280
     0
102
RTVSPost2010PropOp55
 70
     1
102
RTVSPost2010Prop56
140
1.0
102
RTVSPost2010PropOp56
 70
     1
102
RTVSPost2010Prop57
140
1.0
102
RTVSPost2010PropOp57
 70
     1
  0
XRECORD
  5
FF
102
{ACAD_REACTORS
330
FE
102
}
330
FE
100
AcDbXrecord
280
     1
102
RTVSPropertyOp0
 70
     0
102
RTVSPropertyOp1
 70
     0
102
RTVSPropertyOp2
 70
     0
102
RTVSPropertyOp3
 70
     0
102
RTVSPropertyOp4
 70
     0
102
RTVSPropertyOp5
 70
     0
102
RTVSPropertyOp6
 70
     0
102
RTVSPropertyOp7
 70
     0
102
RTVSPropertyOp8
 70
     0
102
RTVSPropertyOp9
 70
     0
102
RTVSPropertyOp10
 70
     0
102
RTVSPropertyOp11
 70
     0
102
RTVSPropertyOp12
 70
     0
102
RTVSPropertyOp13
 70
     0
102
RTVSPropertyOp14
 70
     2
102
RTVSPropertyOp15
 70
     0
102
RTVSPropertyOp16
 70
     0
102
RTVSPropertyOp17
 70
     0
102
RTVSPropertyOp18
 70
     0
102
RTVSPropertyOp19
 70
     0
102
RTVSPropertyOp20
 70
     0
102
RTVSPropertyOp21
 70
     0
102
RTVSPropertyOp22
 70
     0
102
RTVSPropertyOp23
 70
     0
102
RTVSPropertyOp24
 70
     0
102
RTVSPropertyOp25
 70
     0
102
RTVSPropertyOp26
 70
     0
102
RTVSPropertyOp27
 70
     0
102
RTVSPropertyOp28
 70
     0
102
RTVSPropertyOp29
 70
     0
102
RTVSPropertyOp30
 70
     0
102
RTVSPropertyOp31
 70
     0
102
RTVSPropertyOp32
 70
     0
102
RTVSPropertyOp33
 70
     0
102
RTVSPropertyOp34
 70
     0
102
RTVSPropertyOp35
 70
     0
102
RTVSPropertyOp36
 70
     0
102
RTVSPropertyOp37
 70
     0
102
RTVSPropertyOp38
 70
     0
102
RTVSPropertyOp39
 70
     0
102
RTVSPropertyOp40
 70
     0
102
RTVSPropertyOp41
 70
     0
102
RTVSPropertyOp42
 70
     0
102
RTVSPropertyOp43
 70
     0
102
RTVSPropertyOp44
 70
     0
102
RTVSPropertyOp45
 70
     0
102
RTVSPropertyOp46
 70
     0
102
RTVSPropertyOp47
 70
     0
102
RTVSPropertyOp48
 70
     0
102
RTVSPropertyOp49
 70
     0
102
RTVSPropertyOp50
 70
     0
102
RTVSPropertyOp51
 70
     0
102
RTVSPropertyOp52
 70
     0
102
RTVSPropertyOp53
 70
     0
102
RTVSPropertyOp54
 70
     0
102
RTVSPropertyOp55
 70
     0
102
RTVSPropertyOp56
 70
     0
102
RTVSPropertyOp57
 70
     0
102
RTVSPost2010Prop28
280
     0
102
RTVSPost2010PropOp28
 70
     0
102
RTVSPost2010Prop29
280
     1
102
RTVSPost2010PropOp29
 70
     0
102
RTVSPost2010Prop30
280
     1
102
RTVSPost2010PropOp30
 70
     0
102
RTVSPost2010Prop31
280
     0
102
RTVSPost2010PropOp31
 70
     0
102
RTVSPost2010Prop32
280
     0
102
RTVSPost2010PropOp32
 70
     0
102
RTVSPost2010Prop33
280
     0
102
RTVSPost2010PropOp33
 70
     0
102
RTVSPost2010Prop34
280
     0
102
RTVSPost2010PropOp34
 70
     0
102
RTVSPost2010Prop35
280
     0
102
RTVSPost2010PropOp35
 70
     0
102
RTVSPost2010Prop36
280
     0
102
RTVSPost2010PropOp36
 70
     0
102
RTVSPost2010Prop37
 90
       50
102
RTVSPost2010PropOp37
 70
     0
102
RTVSPost2010Prop38
140
0.0
102
RTVSPost2010PropOp38
 70
     0
102
RTVSPost2010Prop39
140
1.0
102
RTVSPost2010PropOp39
 70
     0
102
RTVSPost2010Prop40
 90
        0
102
RTVSPost2010PropOp40
 70
     0
102
RTVSPost2010Prop41ColorIndex
 90
       18
102
RTVSPost2010Prop41ColorRGB
 90
        0
102
RTVSPost2010PropOp41
 70
     0
102
RTVSPost2010Prop42
 90
       50
102
RTVSPost2010PropOp42
 70
     0
102
RTVSPost2010Prop43
 90
        3
102
RTVSPost2010PropOp43
 70
     0
102
RTVSPost2010Prop44ColorIndex
 90
        5
102
RTVSPost2010Prop44ColorRGB
 90
      255
102
RTVSPost2010PropOp44
 70
     0
102
RTVSPost2010Prop45
280
     0
102
RTVSPost2010PropOp45
 70
     0
102
RTVSPost2010Prop46
 90
       50
102
RTVSPost2010PropOp46
 70
     0
102
RTVSPost2010Prop47
 90
       50
102
RTVSPost2010PropOp47
 70
     0
102
RTVSPost2010Prop48
 90
       50
102
RTVSPost2010PropOp48
 70
     0
102
RTVSPost2010Prop49
280
     0
102
RTVSPost2010PropOp49
 70
     0
102
RTVSPost2010Prop50
 90
       50
102
RTVSPost2010PropOp50
 70
     0
102
RTVSPost2010Prop51ColorIndex
 90
      256
102
RTVSPost2010Prop51ColorRGB
 90
-16777216
102
RTVSPost2010PropOp51
 70
     0
102
RTVSPost2010Prop52
140
1.0
102
RTVSPost2010PropOp52
 70
     0
102
RTVSPost2010Prop53
 90
        2
102
RTVSPost2010PropOp53
 70
     0
102
RTVSPost2010Prop54
  1
strokes_ogs.tif
102
RTVSPost2010PropOp54
 70
     0
102
RTVSPost2010Prop55
280
     0
102
RTVSPost2010PropOp55
 70
     0
102
RTVSPost2010Prop56
140
1.0
102
RTVSPost2010PropOp56
 70
     0
102
RTVSPost2010Prop57
140
1.0
102
RTVSPost2010PropOp57
 70
     0
  0
XRECORD
  5
F9
102
{ACAD_REACTORS
330
F8
102
}
330
F8
100
AcDbXrecord
280
     1
102
RTVSPropertyOp0
 70
     1
102
RTVSPropertyOp1
 70
     1
102
RTVSPropertyOp2
 70
     1
102
RTVSPropertyOp3
 70
     1
102
RTVSPropertyOp4
 70
     1
102
RTVSPropertyOp5
 70
     1
102
RTVSPropertyOp6
 70
     1
102
RTVSPropertyOp7
 70
     1
102
RTVSPropertyOp8
 70
     1
102
RTVSPropertyOp9
 70
     1
102
RTVSPropertyOp10
 70
     1
102
RTVSPropertyOp11
 70
     1
102
RTVSPropertyOp12
 70
     1
102
RTVSPropertyOp13
 70
     1
102
RTVSPropertyOp14
 70
     1
102
RTVSPropertyOp15
 70
     1
102
RTVSPropertyOp16
 70
     1
102
RTVSPropertyOp17
 70
     1
102
RTVSPropertyOp18
 70
     1
102
RTVSPropertyOp19
 70
     1
102
RTVSPropertyOp20
 70
     1
102
RTVSPropertyOp21
 70
     1
102
RTVSPropertyOp22
 70
     1
102
RTVSPropertyOp23
 70
     1
102
RTVSPropertyOp24
 70
     1
102
RTVSPropertyOp25
 70
     1
102
RTVSPropertyOp26
 70
     1
102
RTVSPropertyOp27
 70
     1
102
RTVSPropertyOp28
 70
     1
102
RTVSPropertyOp29
 70
     1
102
RTVSPropertyOp30
 70
     1
102
RTVSPropertyOp31
 70
     1
102
RTVSPropertyOp32
 70
     1
102
RTVSPropertyOp33
 70
     1
102
RTVSPropertyOp34
 70
     1
102
RTVSPropertyOp35
 70
     1
102
RTVSPropertyOp36
 70
     1
102
RTVSPropertyOp37
 70
     1
102
RTVSPropertyOp38
 70
     1
102
RTVSPropertyOp39
 70
     1
102
RTVSPropertyOp40
 70
     1
102
RTVSPropertyOp41
 70
     1
102
RTVSPropertyOp42
 70
     1
102
RTVSPropertyOp43
 70
     1
102
RTVSPropertyOp44
 70
     1
102
RTVSPropertyOp45
 70
     1
102
RTVSPropertyOp46
 70
     1
102
RTVSPropertyOp47
 70
     1
102
RTVSPropertyOp48
 70
     1
102
RTVSPropertyOp49
 70
     1
102
RTVSPropertyOp50
 70
     1
102
RTVSPropertyOp51
 70
     0
102
RTVSPropertyOp52
 70
     0
102
RTVSPropertyOp53
 70
     1
102
RTVSPropertyOp54
 70
     1
102
RTVSPropertyOp55
 70
     1
102
RTVSPropertyOp56
 70
     1
102
RTVSPropertyOp57
 70
     1
102
RTVSPost2010Prop28
280
     0
102
RTVSPost2010PropOp28
 70
     1
102
RTVSPost2010Prop29
280
     1
102
RTVSPost2010PropOp29
 70
     1
102
RTVSPost2010Prop30
280
     1
102
RTVSPost2010PropOp30
 70
     1
102
RTVSPost2010Prop31
280
     0
102
RTVSPost2010PropOp31
 70
     1
102
RTVSPost2010Prop32
280
     0
102
RTVSPost2010PropOp32
 70
     1
102
RTVSPost2010Prop33
280
     0
102
RTVSPost2010PropOp33
 70
     1
102
RTVSPost2010Prop34
280
     0
102
RTVSPost2010PropOp34
 70
     1
102
RTVSPost2010Prop35
280
     0
102
RTVSPost2010PropOp35
 70
     1
102
RTVSPost2010Prop36
280
     0
102
RTVSPost2010PropOp36
 70
     1
102
RTVSPost2010Prop37
 90
       50
102
RTVSPost2010PropOp37
 70
     1
102
RTVSPost2010Prop38
140
0.0
102
RTVSPost2010PropOp38
 70
     1
102
RTVSPost2010Prop39
140
1.0
102
RTVSPost2010PropOp39
 70
     1
102
RTVSPost2010Prop40
 90
        0
102
RTVSPost2010PropOp40
 70
     1
102
RTVSPost2010Prop41ColorIndex
 90
       18
102
RTVSPost2010Prop41ColorRGB
 90
        0
102
RTVSPost2010PropOp41
 70
     1
102
RTVSPost2010Prop42
 90
       50
102
RTVSPost2010PropOp42
 70
     1
102
RTVSPost2010Prop43
 90
        3
102
RTVSPost2010PropOp43
 70
     1
102
RTVSPost2010Prop44ColorIndex
 90
        5
102
RTVSPost2010Prop44ColorRGB
 90
      255
102
RTVSPost2010PropOp44
 70
     1
102
RTVSPost2010Prop45
280
     0
102
RTVSPost2010PropOp45
 70
     1
102
RTVSPost2010Prop46
 90
       50
102
RTVSPost2010PropOp46
 70
     1
102
RTVSPost2010Prop47
 90
       50
102
RTVSPost2010PropOp47
 70
     1
102
RTVSPost2010Prop48
 90
       50
102
RTVSPost2010PropOp48
 70
     1
102
RTVSPost2010Prop49
280
     0
102
RTVSPost2010PropOp49
 70
     1
102
RTVSPost2010Prop50
 90
       50
102
RTVSPost2010PropOp50
 70
     1
102
RTVSPost2010Prop51ColorIndex
 90
      256
102
RTVSPost2010Prop51ColorRGB
 90
-16777216
102
RTVSPost2010PropOp51
 70
     0
102
RTVSPost2010Prop52
140
1.0
102
RTVSPost2010PropOp52
 70
     0
102
RTVSPost2010Prop53
 90
        2
102
RTVSPost2010PropOp53
 70
     1
102
RTVSPost2010Prop54
  1
strokes_ogs.tif
102
RTVSPost2010PropOp54
 70
     1
102
RTVSPost2010Prop55
280
     0
102
RTVSPost2010PropOp55
 70
     1
102
RTVSPost2010Prop56
140
1.0
102
RTVSPost2010PropOp56
 70
     1
102
RTVSPost2010Prop57
140
1.0
102
RTVSPost2010PropOp57
 70
     1
  0
XRECORD
  5
101
102
{ACAD_REACTORS
330
100
102
}
330
100
100
AcDbXrecord
280
     1
102
RTVSPropertyOp0
 70
     0
102
RTVSPropertyOp1
 70
     0
102
RTVSPropertyOp2
 70
     0
102
RTVSPropertyOp3
 70
     0
102
RTVSPropertyOp4
 70
     0
102
RTVSPropertyOp5
 70
     0
102
RTVSPropertyOp6
 70
     0
102
RTVSPropertyOp7
 70
     0
102
RTVSPropertyOp8
 70
     0
102
RTVSPropertyOp9
 70
     0
102
RTVSPropertyOp10
 70
     0
102
RTVSPropertyOp11
 70
     0
102
RTVSPropertyOp12
 70
     0
102
RTVSPropertyOp13
 70
     0
102
RTVSPropertyOp14
 70
     2
102
RTVSPropertyOp15
 70
     0
102
RTVSPropertyOp16
 70
     0
102
RTVSPropertyOp17
 70
     0
102
RTVSPropertyOp18
 70
     0
102
RTVSPropertyOp19
 70
     0
102
RTVSPropertyOp20
 70
     0
102
RTVSPropertyOp21
 70
     0
102
RTVSPropertyOp22
 70
     0
102
RTVSPropertyOp23
 70
     0
102
RTVSPropertyOp24
 70
     0
102
RTVSPropertyOp25
 70
     0
102
RTVSPropertyOp26
 70
     0
102
RTVSPropertyOp27
 70
     0
102
RTVSPropertyOp28
 70
     0
102
RTVSPropertyOp29
 70
     0
102
RTVSPropertyOp30
 70
     0
102
RTVSPropertyOp31
 70
     0
102
RTVSPropertyOp32
 70
     0
102
RTVSPropertyOp33
 70
     0
102
RTVSPropertyOp34
 70
     0
102
RTVSPropertyOp35
 70
     0
102
RTVSPropertyOp36
 70
     0
102
RTVSPropertyOp37
 70
     0
102
RTVSPropertyOp38
 70
     0
102
RTVSPropertyOp39
 70
     0
102
RTVSPropertyOp40
 70
     0
102
RTVSPropertyOp41
 70
     0
102
RTVSPropertyOp42
 70
     0
102
RTVSPropertyOp43
 70
     0
102
RTVSPropertyOp44
 70
     0
102
RTVSPropertyOp45
 70
     0
102
RTVSPropertyOp46
 70
     0
102
RTVSPropertyOp47
 70
     0
102
RTVSPropertyOp48
 70
     0
102
RTVSPropertyOp49
 70
     0
102
RTVSPropertyOp50
 70
     0
102
RTVSPropertyOp51
 70
     0
102
RTVSPropertyOp52
 70
     0
102
RTVSPropertyOp53
 70
     0
102
RTVSPropertyOp54
 70
     0
102
RTVSPropertyOp55
 70
     0
102
RTVSPropertyOp56
 70
     0
102
RTVSPropertyOp57
 70
     0
102
RTVSPost2010Prop28
280
     0
102
RTVSPost2010PropOp28
 70
     0
102
RTVSPost2010Prop29
280
     1
102
RTVSPost2010PropOp29
 70
     0
102
RTVSPost2010Prop30
280
     1
102
RTVSPost2010PropOp30
 70
     0
102
RTVSPost2010Prop31
280
     0
102
RTVSPost2010PropOp31
 70
     0
102
RTVSPost2010Prop32
280
     0
102
RTVSPost2010PropOp32
 70
     0
102
RTVSPost2010Prop33
280
     0
102
RTVSPost2010PropOp33
 70
     0
102
RTVSPost2010Prop34
280
     0
102
RTVSPost2010PropOp34
 70
     0
102
RTVSPost2010Prop35
280
     0
102
RTVSPost2010PropOp35
 70
     0
102
RTVSPost2010Prop36
280
     0
102
RTVSPost2010PropOp36
 70
     0
102
RTVSPost2010Prop37
 90
       50
102
RTVSPost2010PropOp37
 70
     0
102
RTVSPost2010Prop38
140
0.0
102
RTVSPost2010PropOp38
 70
     0
102
RTVSPost2010Prop39
140
1.0
102
RTVSPost2010PropOp39
 70
     0
102
RTVSPost2010Prop40
 90
        0
102
RTVSPost2010PropOp40
 70
     0
102
RTVSPost2010Prop41ColorIndex
 90
       18
102
RTVSPost2010Prop41ColorRGB
 90
        0
102
RTVSPost2010PropOp41
 70
     0
102
RTVSPost2010Prop42
 90
       50
102
RTVSPost2010PropOp42
 70
     0
102
RTVSPost2010Prop43
 90
        3
102
RTVSPost2010PropOp43
 70
     0
102
RTVSPost2010Prop44ColorIndex
 90
        5
102
RTVSPost2010Prop44ColorRGB
 90
      255
102
RTVSPost2010PropOp44
 70
     0
102
RTVSPost2010Prop45
280
     0
102
RTVSPost2010PropOp45
 70
     0
102
RTVSPost2010Prop46
 90
       50
102
RTVSPost2010PropOp46
 70
     0
102
RTVSPost2010Prop47
 90
       50
102
RTVSPost2010PropOp47
 70
     0
102
RTVSPost2010Prop48
 90
       50
102
RTVSPost2010PropOp48
 70
     0
102
RTVSPost2010Prop49
280
     0
102
RTVSPost2010PropOp49
 70
     0
102
RTVSPost2010Prop50
 90
       50
102
RTVSPost2010PropOp50
 70
     0
102
RTVSPost2010Prop51ColorIndex
 90
      256
102
RTVSPost2010Prop51ColorRGB
 90
-16777216
102
RTVSPost2010PropOp51
 70
     0
102
RTVSPost2010Prop52
140
1.0
102
RTVSPost2010PropOp52
 70
     0
102
RTVSPost2010Prop53
 90
        2
102
RTVSPost2010PropOp53
 70
     0
102
RTVSPost2010Prop54
  1
strokes_ogs.tif
102
RTVSPost2010PropOp54
 70
     0
102
RTVSPost2010Prop55
280
     0
102
RTVSPost2010PropOp55
 70
     0
102
RTVSPost2010Prop56
140
1.0
102
RTVSPost2010PropOp56
 70
     0
102
RTVSPost2010Prop57
140
1.0
102
RTVSPost2010PropOp57
 70
     0
  0
XRECORD
  5
EF
102
{ACAD_REACTORS
330
EE
102
}
330
EE
100
AcDbXrecord
280
     1
102
RTVSPropertyOp0
 70
     1
102
RTVSPropertyOp1
 70
     1
102
RTVSPropertyOp2
 70
     1
102
RTVSPropertyOp3
 70
     1
102
RTVSPropertyOp4
 70
     1
102
RTVSPropertyOp5
 70
     1
102
RTVSPropertyOp6
 70
     1
102
RTVSPropertyOp7
 70
     1
102
RTVSPropertyOp8
 70
     1
102
RTVSPropertyOp9
 70
     1
102
RTVSPropertyOp10
 70
     1
102
RTVSPropertyOp11
 70
     1
102
RTVSPropertyOp12
 70
     1
102
RTVSPropertyOp13
 70
     1
102
RTVSPropertyOp14
 70
     1
102
RTVSPropertyOp15
 70
     1
102
RTVSPropertyOp16
 70
     1
102
RTVSPropertyOp17
 70
     1
102
RTVSPropertyOp18
 70
     1
102
RTVSPropertyOp19
 70
     1
102
RTVSPropertyOp20
 70
     1
102
RTVSPropertyOp21
 70
     1
102
RTVSPropertyOp22
 70
     1
102
RTVSPropertyOp23
 70
     1
102
RTVSPropertyOp24
 70
     1
102
RTVSPropertyOp25
 70
     1
102
RTVSPropertyOp26
 70
     1
102
RTVSPropertyOp27
 70
     1
102
RTVSPropertyOp28
 70
     1
102
RTVSPropertyOp29
 70
     1
102
RTVSPropertyOp30
 70
     1
102
RTVSPropertyOp31
 70
     1
102
RTVSPropertyOp32
 70
     1
102
RTVSPropertyOp33
 70
     1
102
RTVSPropertyOp34
 70
     1
102
RTVSPropertyOp35
 70
     1
102
RTVSPropertyOp36
 70
     1
102
RTVSPropertyOp37
 70
     1
102
RTVSPropertyOp38
 70
     1
102
RTVSPropertyOp39
 70
     1
102
RTVSPropertyOp40
 70
     1
102
RTVSPropertyOp41
 70
     1
102
RTVSPropertyOp42
 70
     1
102
RTVSPropertyOp43
 70
     1
102
RTVSPropertyOp44
 70
     1
102
RTVSPropertyOp45
 70
     1
102
RTVSPropertyOp46
 70
     1
102
RTVSPropertyOp47
 70
     1
102
RTVSPropertyOp48
 70
     1
102
RTVSPropertyOp49
 70
     1
102
RTVSPropertyOp50
 70
     1
102
RTVSPropertyOp51
 70
     0
102
RTVSPropertyOp52
 70
     0
102
RTVSPropertyOp53
 70
     1
102
RTVSPropertyOp54
 70
     1
102
RTVSPropertyOp55
 70
     1
102
RTVSPropertyOp56
 70
     1
102
RTVSPropertyOp57
 70
     1
102
RTVSPost2010Prop28
280
     0
102
RTVSPost2010PropOp28
 70
     1
102
RTVSPost2010Prop29
280
     1
102
RTVSPost2010PropOp29
 70
     1
102
RTVSPost2010Prop30
280
     1
102
RTVSPost2010PropOp30
 70
     1
102
RTVSPost2010Prop31
280
     0
102
RTVSPost2010PropOp31
 70
     1
102
RTVSPost2010Prop32
280
     0
102
RTVSPost2010PropOp32
 70
     1
102
RTVSPost2010Prop33
280
     0
102
RTVSPost2010PropOp33
 70
     1
102
RTVSPost2010Prop34
280
     0
102
RTVSPost2010PropOp34
 70
     1
102
RTVSPost2010Prop35
280
     0
102
RTVSPost2010PropOp35
 70
     1
102
RTVSPost2010Prop36
280
     0
102
RTVSPost2010PropOp36
 70
     1
102
RTVSPost2010Prop37
 90
       50
102
RTVSPost2010PropOp37
 70
     1
102
RTVSPost2010Prop38
140
0.0
102
RTVSPost2010PropOp38
 70
     1
102
RTVSPost2010Prop39
140
1.0
102
RTVSPost2010PropOp39
 70
     1
102
RTVSPost2010Prop40
 90
        0
102
RTVSPost2010PropOp40
 70
     1
102
RTVSPost2010Prop41ColorIndex
 90
       18
102
RTVSPost2010Prop41ColorRGB
 90
        0
102
RTVSPost2010PropOp41
 70
     1
102
RTVSPost2010Prop42
 90
       50
102
RTVSPost2010PropOp42
 70
     1
102
RTVSPost2010Prop43
 90
        3
102
RTVSPost2010PropOp43
 70
     1
102
RTVSPost2010Prop44ColorIndex
 90
        5
102
RTVSPost2010Prop44ColorRGB
 90
      255
102
RTVSPost2010PropOp44
 70
     1
102
RTVSPost2010Prop45
280
     0
102
RTVSPost2010PropOp45
 70
     1
102
RTVSPost2010Prop46
 90
       50
102
RTVSPost2010PropOp46
 70
     1
102
RTVSPost2010Prop47
 90
       50
102
RTVSPost2010PropOp47
 70
     1
102
RTVSPost2010Prop48
 90
       50
102
RTVSPost2010PropOp48
 70
     1
102
RTVSPost2010Prop49
280
     0
102
RTVSPost2010PropOp49
 70
     1
102
RTVSPost2010Prop50
 90
       50
102
RTVSPost2010PropOp50
 70
     1
102
RTVSPost2010Prop51ColorIndex
 90
      256
102
RTVSPost2010Prop51ColorRGB
 90
-16777216
102
RTVSPost2010PropOp51
 70
     0
102
RTVSPost2010Prop52
140
1.0
102
RTVSPost2010PropOp52
 70
     0
102
RTVSPost2010Prop53
 90
        2
102
RTVSPost2010PropOp53
 70
     1
102
RTVSPost2010Prop54
  1
strokes_ogs.tif
102
RTVSPost2010PropOp54
 70
     1
102
RTVSPost2010Prop55
280
     0
102
RTVSPost2010PropOp55
 70
     1
102
RTVSPost2010Prop56
140
1.0
102
RTVSPost2010PropOp56
 70
     1
102
RTVSPost2010Prop57
140
1.0
102
RTVSPost2010PropOp57
 70
     1
  0
XRECORD
  5
10D
102
{ACAD_REACTORS
330
10C
102
}
330
10C
100
AcDbXrecord
280
     1
102
RTVSPropertyOp0
 70
     1
102
RTVSPropertyOp1
 70
     1
102
RTVSPropertyOp2
 70
     1
102
RTVSPropertyOp3
 70
     1
102
RTVSPropertyOp4
 70
     1
102
RTVSPropertyOp5
 70
     1
102
RTVSPropertyOp6
 70
     1
102
RTVSPropertyOp7
 70
     1
102
RTVSPropertyOp8
 70
     1
102
RTVSPropertyOp9
 70
     1
102
RTVSPropertyOp10
 70
     1
102
RTVSPropertyOp11
 70
     1
102
RTVSPropertyOp12
 70
     1
102
RTVSPropertyOp13
 70
     1
102
RTVSPropertyOp14
 70
     1
102
RTVSPropertyOp15
 70
     1
102
RTVSPropertyOp16
 70
     1
102
RTVSPropertyOp17
 70
     1
102
RTVSPropertyOp18
 70
     1
102
RTVSPropertyOp19
 70
     1
102
RTVSPropertyOp20
 70
     1
102
RTVSPropertyOp21
 70
     1
102
RTVSPropertyOp22
 70
     1
102
RTVSPropertyOp23
 70
     1
102
RTVSPropertyOp24
 70
     1
102
RTVSPropertyOp25
 70
     1
102
RTVSPropertyOp26
 70
     1
102
RTVSPropertyOp27
 70
     1
102
RTVSPropertyOp28
 70
     1
102
RTVSPropertyOp29
 70
     1
102
RTVSPropertyOp30
 70
     1
102
RTVSPropertyOp31
 70
     1
102
RTVSPropertyOp32
 70
     1
102
RTVSPropertyOp33
 70
     1
102
RTVSPropertyOp34
 70
     1
102
RTVSPropertyOp35
 70
     1
102
RTVSPropertyOp36
 70
     1
102
RTVSPropertyOp37
 70
     1
102
RTVSPropertyOp38
 70
     1
102
RTVSPropertyOp39
 70
     1
102
RTVSPropertyOp40
 70
     1
102
RTVSPropertyOp41
 70
     1
102
RTVSPropertyOp42
 70
     1
102
RTVSPropertyOp43
 70
     1
102
RTVSPropertyOp44
 70
     1
102
RTVSPropertyOp45
 70
     1
102
RTVSPropertyOp46
 70
     1
102
RTVSPropertyOp47
 70
     1
102
RTVSPropertyOp48
 70
     1
102
RTVSPropertyOp49
 70
     1
102
RTVSPropertyOp50
 70
     1
102
RTVSPropertyOp51
 70
     0
102
RTVSPropertyOp52
 70
     0
102
RTVSPropertyOp53
 70
     1
102
RTVSPropertyOp54
 70
     1
102
RTVSPropertyOp55
 70
     1
102
RTVSPropertyOp56
 70
     1
102
RTVSPropertyOp57
 70
     1
102
RTVSPost2010Prop28
280
     0
102
RTVSPost2010PropOp28
 70
     1
102
RTVSPost2010Prop29
280
     1
102
RTVSPost2010PropOp29
 70
     1
102
RTVSPost2010Prop30
280
     1
102
RTVSPost2010PropOp30
 70
     1
102
RTVSPost2010Prop31
280
     0
102
RTVSPost2010PropOp31
 70
     1
102
RTVSPost2010Prop32
280
     0
102
RTVSPost2010PropOp32
 70
     1
102
RTVSPost2010Prop33
280
     0
102
RTVSPost2010PropOp33
 70
     1
102
RTVSPost2010Prop34
280
     0
102
RTVSPost2010PropOp34
 70
     1
102
RTVSPost2010Prop35
280
     0
102
RTVSPost2010PropOp35
 70
     1
102
RTVSPost2010Prop36
280
     0
102
RTVSPost2010PropOp36
 70
     1
102
RTVSPost2010Prop37
 90
       50
102
RTVSPost2010PropOp37
 70
     1
102
RTVSPost2010Prop38
140
0.0
102
RTVSPost2010PropOp38
 70
     1
102
RTVSPost2010Prop39
140
1.0
102
RTVSPost2010PropOp39
 70
     1
102
RTVSPost2010Prop40
 90
        0
102
RTVSPost2010PropOp40
 70
     1
102
RTVSPost2010Prop41ColorIndex
 90
       18
102
RTVSPost2010Prop41ColorRGB
 90
        0
102
RTVSPost2010PropOp41
 70
     1
102
RTVSPost2010Prop42
 90
       50
102
RTVSPost2010PropOp42
 70
     1
102
RTVSPost2010Prop43
 90
        3
102
RTVSPost2010PropOp43
 70
     1
102
RTVSPost2010Prop44ColorIndex
 90
        5
102
RTVSPost2010Prop44ColorRGB
 90
      255
102
RTVSPost2010PropOp44
 70
     1
102
RTVSPost2010Prop45
280
     0
102
RTVSPost2010PropOp45
 70
     1
102
RTVSPost2010Prop46
 90
       50
102
RTVSPost2010PropOp46
 70
     1
102
RTVSPost2010Prop47
 90
       50
102
RTVSPost2010PropOp47
 70
     1
102
RTVSPost2010Prop48
 90
       50
102
RTVSPost2010PropOp48
 70
     1
102
RTVSPost2010Prop49
280
     0
102
RTVSPost2010PropOp49
 70
     1
102
RTVSPost2010Prop50
 90
       50
102
RTVSPost2010PropOp50
 70
     1
102
RTVSPost2010Prop51ColorIndex
 90
      256
102
RTVSPost2010Prop51ColorRGB
 90
-16777216
102
RTVSPost2010PropOp51
 70
     0
102
RTVSPost2010Prop52
140
1.0
102
RTVSPost2010PropOp52
 70
     0
102
RTVSPost2010Prop53
 90
        2
102
RTVSPost2010PropOp53
 70
     1
102
RTVSPost2010Prop54
  1
strokes_ogs.tif
102
RTVSPost2010PropOp54
 70
     1
102
RTVSPost2010Prop55
280
     0
102
RTVSPost2010PropOp55
 70
     1
102
RTVSPost2010Prop56
140
1.0
102
RTVSPost2010PropOp56
 70
     1
102
RTVSPost2010Prop57
140
1.0
102
RTVSPost2010PropOp57
 70
     1
  0
XRECORD
  5
10B
102
{ACAD_REACTORS
330
10A
102
}
330
10A
100
AcDbXrecord
280
     1
102
RTVSPropertyOp0
 70
     1
102
RTVSPropertyOp1
 70
     1
102
RTVSPropertyOp2
 70
     1
102
RTVSPropertyOp3
 70
     1
102
RTVSPropertyOp4
 70
     1
102
RTVSPropertyOp5
 70
     1
102
RTVSPropertyOp6
 70
     1
102
RTVSPropertyOp7
 70
     1
102
RTVSPropertyOp8
 70
     1
102
RTVSPropertyOp9
 70
     1
102
RTVSPropertyOp10
 70
     1
102
RTVSPropertyOp11
 70
     1
102
RTVSPropertyOp12
 70
     1
102
RTVSPropertyOp13
 70
     1
102
RTVSPropertyOp14
 70
     1
102
RTVSPropertyOp15
 70
     1
102
RTVSPropertyOp16
 70
     1
102
RTVSPropertyOp17
 70
     1
102
RTVSPropertyOp18
 70
     1
102
RTVSPropertyOp19
 70
     1
102
RTVSPropertyOp20
 70
     1
102
RTVSPropertyOp21
 70
     1
102
RTVSPropertyOp22
 70
     1
102
RTVSPropertyOp23
 70
     1
102
RTVSPropertyOp24
 70
     1
102
RTVSPropertyOp25
 70
     1
102
RTVSPropertyOp26
 70
     1
102
RTVSPropertyOp27
 70
     1
102
RTVSPropertyOp28
 70
     1
102
RTVSPropertyOp29
 70
     1
102
RTVSPropertyOp30
 70
     1
102
RTVSPropertyOp31
 70
     1
102
RTVSPropertyOp32
 70
     1
102
RTVSPropertyOp33
 70
     1
102
RTVSPropertyOp34
 70
     1
102
RTVSPropertyOp35
 70
     1
102
RTVSPropertyOp36
 70
     1
102
RTVSPropertyOp37
 70
     1
102
RTVSPropertyOp38
 70
     1
102
RTVSPropertyOp39
 70
     1
102
RTVSPropertyOp40
 70
     1
102
RTVSPropertyOp41
 70
     1
102
RTVSPropertyOp42
 70
     1
102
RTVSPropertyOp43
 70
     1
102
RTVSPropertyOp44
 70
     1
102
RTVSPropertyOp45
 70
     1
102
RTVSPropertyOp46
 70
     1
102
RTVSPropertyOp47
 70
     1
102
RTVSPropertyOp48
 70
     1
102
RTVSPropertyOp49
 70
     1
102
RTVSPropertyOp50
 70
     1
102
RTVSPropertyOp51
 70
     0
102
RTVSPropertyOp52
 70
     0
102
RTVSPropertyOp53
 70
     1
102
RTVSPropertyOp54
 70
     1
102
RTVSPropertyOp55
 70
     1
102
RTVSPropertyOp56
 70
     1
102
RTVSPropertyOp57
 70
     1
102
RTVSPost2010Prop28
280
     0
102
RTVSPost2010PropOp28
 70
     1
102
RTVSPost2010Prop29
280
     1
102
RTVSPost2010PropOp29
 70
     1
102
RTVSPost2010Prop30
280
     1
102
RTVSPost2010PropOp30
 70
     1
102
RTVSPost2010Prop31
280
     0
102
RTVSPost2010PropOp31
 70
     1
102
RTVSPost2010Prop32
280
     0
102
RTVSPost2010PropOp32
 70
     1
102
RTVSPost2010Prop33
280
     0
102
RTVSPost2010PropOp33
 70
     1
102
RTVSPost2010Prop34
280
     0
102
RTVSPost2010PropOp34
 70
     1
102
RTVSPost2010Prop35
280
     0
102
RTVSPost2010PropOp35
 70
     1
102
RTVSPost2010Prop36
280
     0
102
RTVSPost2010PropOp36
 70
     1
102
RTVSPost2010Prop37
 90
       50
102
RTVSPost2010PropOp37
 70
     1
102
RTVSPost2010Prop38
140
0.0
102
RTVSPost2010PropOp38
 70
     1
102
RTVSPost2010Prop39
140
1.0
102
RTVSPost2010PropOp39
 70
     1
102
RTVSPost2010Prop40
 90
        0
102
RTVSPost2010PropOp40
 70
     1
102
RTVSPost2010Prop41ColorIndex
 90
       18
102
RTVSPost2010Prop41ColorRGB
 90
        0
102
RTVSPost2010PropOp41
 70
     1
102
RTVSPost2010Prop42
 90
       50
102
RTVSPost2010PropOp42
 70
     1
102
RTVSPost2010Prop43
 90
        3
102
RTVSPost2010PropOp43
 70
     1
102
RTVSPost2010Prop44ColorIndex
 90
        5
102
RTVSPost2010Prop44ColorRGB
 90
      255
102
RTVSPost2010PropOp44
 70
     1
102
RTVSPost2010Prop45
280
     0
102
RTVSPost2010PropOp45
 70
     1
102
RTVSPost2010Prop46
 90
       50
102
RTVSPost2010PropOp46
 70
     1
102
RTVSPost2010Prop47
 90
       50
102
RTVSPost2010PropOp47
 70
     1
102
RTVSPost2010Prop48
 90
       50
102
RTVSPost2010PropOp48
 70
     1
102
RTVSPost2010Prop49
280
     0
102
RTVSPost2010PropOp49
 70
     1
102
RTVSPost2010Prop50
 90
       50
102
RTVSPost2010PropOp50
 70
     1
102
RTVSPost2010Prop51ColorIndex
 90
      256
102
RTVSPost2010Prop51ColorRGB
 90
-16777216
102
RTVSPost2010PropOp51
 70
     0
102
RTVSPost2010Prop52
140
1.0
102
RTVSPost2010PropOp52
 70
     0
102
RTVSPost2010Prop53
 90
        2
102
RTVSPost2010PropOp53
 70
     1
102
RTVSPost2010Prop54
  1
strokes_ogs.tif
102
RTVSPost2010PropOp54
 70
     1
102
RTVSPost2010Prop55
280
     0
102
RTVSPost2010PropOp55
 70
     1
102
RTVSPost2010Prop56
140
1.0
102
RTVSPost2010PropOp56
 70
     1
102
RTVSPost2010Prop57
140
1.0
102
RTVSPost2010PropOp57
 70
     1
  0
XRECORD
  5
105
102
{ACAD_REACTORS
330
104
102
}
330
104
100
AcDbXrecord
280
     1
102
RTVSPropertyOp0
 70
     1
102
RTVSPropertyOp1
 70
     1
102
RTVSPropertyOp2
 70
     1
102
RTVSPropertyOp3
 70
     1
102
RTVSPropertyOp4
 70
     1
102
RTVSPropertyOp5
 70
     1
102
RTVSPropertyOp6
 70
     1
102
RTVSPropertyOp7
 70
     1
102
RTVSPropertyOp8
 70
     1
102
RTVSPropertyOp9
 70
     1
102
RTVSPropertyOp10
 70
     1
102
RTVSPropertyOp11
 70
     1
102
RTVSPropertyOp12
 70
     1
102
RTVSPropertyOp13
 70
     1
102
RTVSPropertyOp14
 70
     1
102
RTVSPropertyOp15
 70
     1
102
RTVSPropertyOp16
 70
     1
102
RTVSPropertyOp17
 70
     1
102
RTVSPropertyOp18
 70
     1
102
RTVSPropertyOp19
 70
     1
102
RTVSPropertyOp20
 70
     1
102
RTVSPropertyOp21
 70
     1
102
RTVSPropertyOp22
 70
     1
102
RTVSPropertyOp23
 70
     1
102
RTVSPropertyOp24
 70
     1
102
RTVSPropertyOp25
 70
     1
102
RTVSPropertyOp26
 70
     1
102
RTVSPropertyOp27
 70
     1
102
RTVSPropertyOp28
 70
     1
102
RTVSPropertyOp29
 70
     1
102
RTVSPropertyOp30
 70
     1
102
RTVSPropertyOp31
 70
     1
102
RTVSPropertyOp32
 70
     1
102
RTVSPropertyOp33
 70
     1
102
RTVSPropertyOp34
 70
     1
102
RTVSPropertyOp35
 70
     1
102
RTVSPropertyOp36
 70
     1
102
RTVSPropertyOp37
 70
     1
102
RTVSPropertyOp38
 70
     1
102
RTVSPropertyOp39
 70
     1
102
RTVSPropertyOp40
 70
     1
102
RTVSPropertyOp41
 70
     1
102
RTVSPropertyOp42
 70
     1
102
RTVSPropertyOp43
 70
     1
102
RTVSPropertyOp44
 70
     1
102
RTVSPropertyOp45
 70
     1
102
RTVSPropertyOp46
 70
     1
102
RTVSPropertyOp47
 70
     1
102
RTVSPropertyOp48
 70
     1
102
RTVSPropertyOp49
 70
     1
102
RTVSPropertyOp50
 70
     1
102
RTVSPropertyOp51
 70
     0
102
RTVSPropertyOp52
 70
     0
102
RTVSPropertyOp53
 70
     1
102
RTVSPropertyOp54
 70
     1
102
RTVSPropertyOp55
 70
     1
102
RTVSPropertyOp56
 70
     1
102
RTVSPropertyOp57
 70
     1
102
RTVSPost2010Prop28
280
     0
102
RTVSPost2010PropOp28
 70
     1
102
RTVSPost2010Prop29
280
     1
102
RTVSPost2010PropOp29
 70
     1
102
RTVSPost2010Prop30
280
     1
102
RTVSPost2010PropOp30
 70
     1
102
RTVSPost2010Prop31
280
     0
102
RTVSPost2010PropOp31
 70
     1
102
RTVSPost2010Prop32
280
     0
102
RTVSPost2010PropOp32
 70
     1
102
RTVSPost2010Prop33
280
     0
102
RTVSPost2010PropOp33
 70
     1
102
RTVSPost2010Prop34
280
     0
102
RTVSPost2010PropOp34
 70
     1
102
RTVSPost2010Prop35
280
     0
102
RTVSPost2010PropOp35
 70
     1
102
RTVSPost2010Prop36
280
     0
102
RTVSPost2010PropOp36
 70
     1
102
RTVSPost2010Prop37
 90
       50
102
RTVSPost2010PropOp37
 70
     1
102
RTVSPost2010Prop38
140
0.0
102
RTVSPost2010PropOp38
 70
     1
102
RTVSPost2010Prop39
140
1.0
102
RTVSPost2010PropOp39
 70
     1
102
RTVSPost2010Prop40
 90
        0
102
RTVSPost2010PropOp40
 70
     1
102
RTVSPost2010Prop41ColorIndex
 90
       18
102
RTVSPost2010Prop41ColorRGB
 90
        0
102
RTVSPost2010PropOp41
 70
     1
102
RTVSPost2010Prop42
 90
       50
102
RTVSPost2010PropOp42
 70
     1
102
RTVSPost2010Prop43
 90
        3
102
RTVSPost2010PropOp43
 70
     1
102
RTVSPost2010Prop44ColorIndex
 90
        5
102
RTVSPost2010Prop44ColorRGB
 90
      255
102
RTVSPost2010PropOp44
 70
     1
102
RTVSPost2010Prop45
280
     0
102
RTVSPost2010PropOp45
 70
     1
102
RTVSPost2010Prop46
 90
       50
102
RTVSPost2010PropOp46
 70
     1
102
RTVSPost2010Prop47
 90
       50
102
RTVSPost2010PropOp47
 70
     1
102
RTVSPost2010Prop48
 90
       50
102
RTVSPost2010PropOp48
 70
     1
102
RTVSPost2010Prop49
280
     0
102
RTVSPost2010PropOp49
 70
     1
102
RTVSPost2010Prop50
 90
       50
102
RTVSPost2010PropOp50
 70
     1
102
RTVSPost2010Prop51ColorIndex
 90
      256
102
RTVSPost2010Prop51ColorRGB
 90
-16777216
102
RTVSPost2010PropOp51
 70
     0
102
RTVSPost2010Prop52
140
1.0
102
RTVSPost2010PropOp52
 70
     0
102
RTVSPost2010Prop53
 90
        2
102
RTVSPost2010PropOp53
 70
     1
102
RTVSPost2010Prop54
  1
strokes_ogs.tif
102
RTVSPost2010PropOp54
 70
     1
102
RTVSPost2010Prop55
280
     0
102
RTVSPost2010PropOp55
 70
     1
102
RTVSPost2010Prop56
140
1.0
102
RTVSPost2010PropOp56
 70
     1
102
RTVSPost2010Prop57
140
1.0
102
RTVSPost2010PropOp57
 70
     1
  0
XRECORD
  5
107
102
{ACAD_REACTORS
330
106
102
}
330
106
100
AcDbXrecord
280
     1
102
RTVSPropertyOp0
 70
     1
102
RTVSPropertyOp1
 70
     1
102
RTVSPropertyOp2
 70
     1
102
RTVSPropertyOp3
 70
     1
102
RTVSPropertyOp4
 70
     1
102
RTVSPropertyOp5
 70
     1
102
RTVSPropertyOp6
 70
     1
102
RTVSPropertyOp7
 70
     1
102
RTVSPropertyOp8
 70
     1
102
RTVSPropertyOp9
 70
     1
102
RTVSPropertyOp10
 70
     1
102
RTVSPropertyOp11
 70
     1
102
RTVSPropertyOp12
 70
     1
102
RTVSPropertyOp13
 70
     1
102
RTVSPropertyOp14
 70
     1
102
RTVSPropertyOp15
 70
     1
102
RTVSPropertyOp16
 70
     1
102
RTVSPropertyOp17
 70
     1
102
RTVSPropertyOp18
 70
     1
102
RTVSPropertyOp19
 70
     1
102
RTVSPropertyOp20
 70
     1
102
RTVSPropertyOp21
 70
     1
102
RTVSPropertyOp22
 70
     1
102
RTVSPropertyOp23
 70
     1
102
RTVSPropertyOp24
 70
     1
102
RTVSPropertyOp25
 70
     1
102
RTVSPropertyOp26
 70
     1
102
RTVSPropertyOp27
 70
     1
102
RTVSPropertyOp28
 70
     1
102
RTVSPropertyOp29
 70
     1
102
RTVSPropertyOp30
 70
     1
102
RTVSPropertyOp31
 70
     1
102
RTVSPropertyOp32
 70
     1
102
RTVSPropertyOp33
 70
     1
102
RTVSPropertyOp34
 70
     1
102
RTVSPropertyOp35
 70
     1
102
RTVSPropertyOp36
 70
     1
102
RTVSPropertyOp37
 70
     1
102
RTVSPropertyOp38
 70
     1
102
RTVSPropertyOp39
 70
     1
102
RTVSPropertyOp40
 70
     1
102
RTVSPropertyOp41
 70
     1
102
RTVSPropertyOp42
 70
     1
102
RTVSPropertyOp43
 70
     1
102
RTVSPropertyOp44
 70
     1
102
RTVSPropertyOp45
 70
     1
102
RTVSPropertyOp46
 70
     1
102
RTVSPropertyOp47
 70
     1
102
RTVSPropertyOp48
 70
     1
102
RTVSPropertyOp49
 70
     1
102
RTVSPropertyOp50
 70
     1
102
RTVSPropertyOp51
 70
     0
102
RTVSPropertyOp52
 70
     0
102
RTVSPropertyOp53
 70
     1
102
RTVSPropertyOp54
 70
     1
102
RTVSPropertyOp55
 70
     1
102
RTVSPropertyOp56
 70
     1
102
RTVSPropertyOp57
 70
     1
102
RTVSPost2010Prop28
280
     0
102
RTVSPost2010PropOp28
 70
     1
102
RTVSPost2010Prop29
280
     1
102
RTVSPost2010PropOp29
 70
     1
102
RTVSPost2010Prop30
280
     1
102
RTVSPost2010PropOp30
 70
     1
102
RTVSPost2010Prop31
280
     0
102
RTVSPost2010PropOp31
 70
     1
102
RTVSPost2010Prop32
280
     0
102
RTVSPost2010PropOp32
 70
     1
102
RTVSPost2010Prop33
280
     0
102
RTVSPost2010PropOp33
 70
     1
102
RTVSPost2010Prop34
280
     0
102
RTVSPost2010PropOp34
 70
     1
102
RTVSPost2010Prop35
280
     0
102
RTVSPost2010PropOp35
 70
     1
102
RTVSPost2010Prop36
280
     0
102
RTVSPost2010PropOp36
 70
     1
102
RTVSPost2010Prop37
 90
       50
102
RTVSPost2010PropOp37
 70
     1
102
RTVSPost2010Prop38
140
0.0
102
RTVSPost2010PropOp38
 70
     1
102
RTVSPost2010Prop39
140
1.0
102
RTVSPost2010PropOp39
 70
     1
102
RTVSPost2010Prop40
 90
        0
102
RTVSPost2010PropOp40
 70
     1
102
RTVSPost2010Prop41ColorIndex
 90
       18
102
RTVSPost2010Prop41ColorRGB
 90
        0
102
RTVSPost2010PropOp41
 70
     1
102
RTVSPost2010Prop42
 90
       50
102
RTVSPost2010PropOp42
 70
     1
102
RTVSPost2010Prop43
 90
        3
102
RTVSPost2010PropOp43
 70
     1
102
RTVSPost2010Prop44ColorIndex
 90
        5
102
RTVSPost2010Prop44ColorRGB
 90
      255
102
RTVSPost2010PropOp44
 70
     1
102
RTVSPost2010Prop45
280
     0
102
RTVSPost2010PropOp45
 70
     1
102
RTVSPost2010Prop46
 90
       50
102
RTVSPost2010PropOp46
 70
     1
102
RTVSPost2010Prop47
 90
       50
102
RTVSPost2010PropOp47
 70
     1
102
RTVSPost2010Prop48
 90
       50
102
RTVSPost2010PropOp48
 70
     1
102
RTVSPost2010Prop49
280
     0
102
RTVSPost2010PropOp49
 70
     1
102
RTVSPost2010Prop50
 90
       50
102
RTVSPost2010PropOp50
 70
     1
102
RTVSPost2010Prop51ColorIndex
 90
      256
102
RTVSPost2010Prop51ColorRGB
 90
-16777216
102
RTVSPost2010PropOp51
 70
     0
102
RTVSPost2010Prop52
140
1.0
102
RTVSPost2010PropOp52
 70
     0
102
RTVSPost2010Prop53
 90
        2
102
RTVSPost2010PropOp53
 70
     1
102
RTVSPost2010Prop54
  1
strokes_ogs.tif
102
RTVSPost2010PropOp54
 70
     1
102
RTVSPost2010Prop55
280
     0
102
RTVSPost2010PropOp55
 70
     1
102
RTVSPost2010Prop56
140
1.0
102
RTVSPost2010PropOp56
 70
     1
102
RTVSPost2010Prop57
140
1.0
102
RTVSPost2010PropOp57
 70
     1
  0
XRECORD
  5
F7
102
{ACAD_REACTORS
330
F6
102
}
330
F6
100
AcDbXrecord
280
     1
102
RTVSPropertyOp0
 70
     1
102
RTVSPropertyOp1
 70
     1
102
RTVSPropertyOp2
 70
     1
102
RTVSPropertyOp3
 70
     1
102
RTVSPropertyOp4
 70
     1
102
RTVSPropertyOp5
 70
     1
102
RTVSPropertyOp6
 70
     1
102
RTVSPropertyOp7
 70
     1
102
RTVSPropertyOp8
 70
     1
102
RTVSPropertyOp9
 70
     1
102
RTVSPropertyOp10
 70
     1
102
RTVSPropertyOp11
 70
     1
102
RTVSPropertyOp12
 70
     1
102
RTVSPropertyOp13
 70
     1
102
RTVSPropertyOp14
 70
     1
102
RTVSPropertyOp15
 70
     1
102
RTVSPropertyOp16
 70
     1
102
RTVSPropertyOp17
 70
     1
102
RTVSPropertyOp18
 70
     1
102
RTVSPropertyOp19
 70
     1
102
RTVSPropertyOp20
 70
     1
102
RTVSPropertyOp21
 70
     1
102
RTVSPropertyOp22
 70
     1
102
RTVSPropertyOp23
 70
     1
102
RTVSPropertyOp24
 70
     1
102
RTVSPropertyOp25
 70
     1
102
RTVSPropertyOp26
 70
     1
102
RTVSPropertyOp27
 70
     1
102
RTVSPropertyOp28
 70
     1
102
RTVSPropertyOp29
 70
     1
102
RTVSPropertyOp30
 70
     1
102
RTVSPropertyOp31
 70
     1
102
RTVSPropertyOp32
 70
     1
102
RTVSPropertyOp33
 70
     1
102
RTVSPropertyOp34
 70
     1
102
RTVSPropertyOp35
 70
     1
102
RTVSPropertyOp36
 70
     1
102
RTVSPropertyOp37
 70
     1
102
RTVSPropertyOp38
 70
     1
102
RTVSPropertyOp39
 70
     1
102
RTVSPropertyOp40
 70
     1
102
RTVSPropertyOp41
 70
     1
102
RTVSPropertyOp42
 70
     1
102
RTVSPropertyOp43
 70
     1
102
RTVSPropertyOp44
 70
     1
102
RTVSPropertyOp45
 70
     1
102
RTVSPropertyOp46
 70
     1
102
RTVSPropertyOp47
 70
     1
102
RTVSPropertyOp48
 70
     1
102
RTVSPropertyOp49
 70
     1
102
RTVSPropertyOp50
 70
     1
102
RTVSPropertyOp51
 70
     0
102
RTVSPropertyOp52
 70
     0
102
RTVSPropertyOp53
 70
     1
102
RTVSPropertyOp54
 70
     1
102
RTVSPropertyOp55
 70
     1
102
RTVSPropertyOp56
 70
     1
102
RTVSPropertyOp57
 70
     1
102
RTVSPost2010Prop28
280
     0
102
RTVSPost2010PropOp28
 70
     1
102
RTVSPost2010Prop29
280
     1
102
RTVSPost2010PropOp29
 70
     1
102
RTVSPost2010Prop30
280
     1
102
RTVSPost2010PropOp30
 70
     1
102
RTVSPost2010Prop31
280
     0
102
RTVSPost2010PropOp31
 70
     1
102
RTVSPost2010Prop32
280
     0
102
RTVSPost2010PropOp32
 70
     1
102
RTVSPost2010Prop33
280
     0
102
RTVSPost2010PropOp33
 70
     1
102
RTVSPost2010Prop34
280
     0
102
RTVSPost2010PropOp34
 70
     1
102
RTVSPost2010Prop35
280
     0
102
RTVSPost2010PropOp35
 70
     1
102
RTVSPost2010Prop36
280
     0
102
RTVSPost2010PropOp36
 70
     1
102
RTVSPost2010Prop37
 90
       50
102
RTVSPost2010PropOp37
 70
     1
102
RTVSPost2010Prop38
140
0.0
102
RTVSPost2010PropOp38
 70
     1
102
RTVSPost2010Prop39
140
1.0
102
RTVSPost2010PropOp39
 70
     1
102
RTVSPost2010Prop40
 90
        0
102
RTVSPost2010PropOp40
 70
     1
102
RTVSPost2010Prop41ColorIndex
 90
       18
102
RTVSPost2010Prop41ColorRGB
 90
        0
102
RTVSPost2010PropOp41
 70
     1
102
RTVSPost2010Prop42
 90
       50
102
RTVSPost2010PropOp42
 70
     1
102
RTVSPost2010Prop43
 90
        3
102
RTVSPost2010PropOp43
 70
     1
102
RTVSPost2010Prop44ColorIndex
 90
        5
102
RTVSPost2010Prop44ColorRGB
 90
      255
102
RTVSPost2010PropOp44
 70
     1
102
RTVSPost2010Prop45
280
     0
102
RTVSPost2010PropOp45
 70
     1
102
RTVSPost2010Prop46
 90
       50
102
RTVSPost2010PropOp46
 70
     1
102
RTVSPost2010Prop47
 90
       50
102
RTVSPost2010PropOp47
 70
     1
102
RTVSPost2010Prop48
 90
       50
102
RTVSPost2010PropOp48
 70
     1
102
RTVSPost2010Prop49
280
     0
102
RTVSPost2010PropOp49
 70
     1
102
RTVSPost2010Prop50
 90
       50
102
RTVSPost2010PropOp50
 70
     1
102
RTVSPost2010Prop51ColorIndex
 90
      256
102
RTVSPost2010Prop51ColorRGB
 90
-16777216
102
RTVSPost2010PropOp51
 70
     0
102
RTVSPost2010Prop52
140
1.0
102
RTVSPost2010PropOp52
 70
     0
102
RTVSPost2010Prop53
 90
        2
102
RTVSPost2010PropOp53
 70
     1
102
RTVSPost2010Prop54
  1
strokes_ogs.tif
102
RTVSPost2010PropOp54
 70
     1
102
RTVSPost2010Prop55
280
     0
102
RTVSPost2010PropOp55
 70
     1
102
RTVSPost2010Prop56
140
1.0
102
RTVSPost2010PropOp56
 70
     1
102
RTVSPost2010Prop57
140
1.0
102
RTVSPost2010PropOp57
 70
     1
  0
XRECORD
  5
E9
102
{ACAD_REACTORS
330
E8
102
}
330
E8
100
AcDbXrecord
280
     1
102
RTVSPropertyOp0
 70
     1
102
RTVSPropertyOp1
 70
     1
102
RTVSPropertyOp2
 70
     1
102
RTVSPropertyOp3
 70
     1
102
RTVSPropertyOp4
 70
     1
102
RTVSPropertyOp5
 70
     1
102
RTVSPropertyOp6
 70
     1
102
RTVSPropertyOp7
 70
     1
102
RTVSPropertyOp8
 70
     1
102
RTVSPropertyOp9
 70
     1
102
RTVSPropertyOp10
 70
     1
102
RTVSPropertyOp11
 70
     1
102
RTVSPropertyOp12
 70
     1
102
RTVSPropertyOp13
 70
     1
102
RTVSPropertyOp14
 70
     1
102
RTVSPropertyOp15
 70
     1
102
RTVSPropertyOp16
 70
     1
102
RTVSPropertyOp17
 70
     1
102
RTVSPropertyOp18
 70
     1
102
RTVSPropertyOp19
 70
     1
102
RTVSPropertyOp20
 70
     1
102
RTVSPropertyOp21
 70
     1
102
RTVSPropertyOp22
 70
     1
102
RTVSPropertyOp23
 70
     1
102
RTVSPropertyOp24
 70
     1
102
RTVSPropertyOp25
 70
     1
102
RTVSPropertyOp26
 70
     1
102
RTVSPropertyOp27
 70
     1
102
RTVSPropertyOp28
 70
     1
102
RTVSPropertyOp29
 70
     1
102
RTVSPropertyOp30
 70
     1
102
RTVSPropertyOp31
 70
     1
102
RTVSPropertyOp32
 70
     1
102
RTVSPropertyOp33
 70
     1
102
RTVSPropertyOp34
 70
     1
102
RTVSPropertyOp35
 70
     1
102
RTVSPropertyOp36
 70
     1
102
RTVSPropertyOp37
 70
     1
102
RTVSPropertyOp38
 70
     1
102
RTVSPropertyOp39
 70
     1
102
RTVSPropertyOp40
 70
     1
102
RTVSPropertyOp41
 70
     1
102
RTVSPropertyOp42
 70
     1
102
RTVSPropertyOp43
 70
     1
102
RTVSPropertyOp44
 70
     1
102
RTVSPropertyOp45
 70
     1
102
RTVSPropertyOp46
 70
     1
102
RTVSPropertyOp47
 70
     1
102
RTVSPropertyOp48
 70
     1
102
RTVSPropertyOp49
 70
     1
102
RTVSPropertyOp50
 70
     1
102
RTVSPropertyOp51
 70
     0
102
RTVSPropertyOp52
 70
     0
102
RTVSPropertyOp53
 70
     1
102
RTVSPropertyOp54
 70
     1
102
RTVSPropertyOp55
 70
     1
102
RTVSPropertyOp56
 70
     1
102
RTVSPropertyOp57
 70
     1
102
RTVSPost2010Prop28
280
     0
102
RTVSPost2010PropOp28
 70
     1
102
RTVSPost2010Prop29
280
     1
102
RTVSPost2010PropOp29
 70
     1
102
RTVSPost2010Prop30
280
     1
102
RTVSPost2010PropOp30
 70
     1
102
RTVSPost2010Prop31
280
     0
102
RTVSPost2010PropOp31
 70
     1
102
RTVSPost2010Prop32
280
     0
102
RTVSPost2010PropOp32
 70
     1
102
RTVSPost2010Prop33
280
     0
102
RTVSPost2010PropOp33
 70
     1
102
RTVSPost2010Prop34
280
     0
102
RTVSPost2010PropOp34
 70
     1
102
RTVSPost2010Prop35
280
     0
102
RTVSPost2010PropOp35
 70
     1
102
RTVSPost2010Prop36
280
     0
102
RTVSPost2010PropOp36
 70
     1
102
RTVSPost2010Prop37
 90
       50
102
RTVSPost2010PropOp37
 70
     1
102
RTVSPost2010Prop38
140
0.0
102
RTVSPost2010PropOp38
 70
     1
102
RTVSPost2010Prop39
140
1.0
102
RTVSPost2010PropOp39
 70
     1
102
RTVSPost2010Prop40
 90
        0
102
RTVSPost2010PropOp40
 70
     1
102
RTVSPost2010Prop41ColorIndex
 90
       18
102
RTVSPost2010Prop41ColorRGB
 90
        0
102
RTVSPost2010PropOp41
 70
     1
102
RTVSPost2010Prop42
 90
       50
102
RTVSPost2010PropOp42
 70
     1
102
RTVSPost2010Prop43
 90
        3
102
RTVSPost2010PropOp43
 70
     1
102
RTVSPost2010Prop44ColorIndex
 90
        5
102
RTVSPost2010Prop44ColorRGB
 90
      255
102
RTVSPost2010PropOp44
 70
     1
102
RTVSPost2010Prop45
280
     0
102
RTVSPost2010PropOp45
 70
     1
102
RTVSPost2010Prop46
 90
       50
102
RTVSPost2010PropOp46
 70
     1
102
RTVSPost2010Prop47
 90
       50
102
RTVSPost2010PropOp47
 70
     1
102
RTVSPost2010Prop48
 90
       50
102
RTVSPost2010PropOp48
 70
     1
102
RTVSPost2010Prop49
280
     0
102
RTVSPost2010PropOp49
 70
     1
102
RTVSPost2010Prop50
 90
       50
102
RTVSPost2010PropOp50
 70
     1
102
RTVSPost2010Prop51ColorIndex
 90
      256
102
RTVSPost2010Prop51ColorRGB
 90
-16777216
102
RTVSPost2010PropOp51
 70
     0
102
RTVSPost2010Prop52
140
1.0
102
RTVSPost2010PropOp52
 70
     0
102
RTVSPost2010Prop53
 90
        2
102
RTVSPost2010PropOp53
 70
     1
102
RTVSPost2010Prop54
  1
strokes_ogs.tif
102
RTVSPost2010PropOp54
 70
     1
102
RTVSPost2010Prop55
280
     0
102
RTVSPost2010PropOp55
 70
     1
102
RTVSPost2010Prop56
140
1.0
102
RTVSPost2010PropOp56
 70
     1
102
RTVSPost2010Prop57
140
1.0
102
RTVSPost2010PropOp57
 70
     1
  0
XRECORD
  5
109
102
{ACAD_REACTORS
330
108
102
}
330
108
100
AcDbXrecord
280
     1
102
RTVSPropertyOp0
 70
     1
102
RTVSPropertyOp1
 70
     1
102
RTVSPropertyOp2
 70
     1
102
RTVSPropertyOp3
 70
     1
102
RTVSPropertyOp4
 70
     1
102
RTVSPropertyOp5
 70
     1
102
RTVSPropertyOp6
 70
     1
102
RTVSPropertyOp7
 70
     1
102
RTVSPropertyOp8
 70
     1
102
RTVSPropertyOp9
 70
     1
102
RTVSPropertyOp10
 70
     1
102
RTVSPropertyOp11
 70
     1
102
RTVSPropertyOp12
 70
     1
102
RTVSPropertyOp13
 70
     1
102
RTVSPropertyOp14
 70
     1
102
RTVSPropertyOp15
 70
     1
102
RTVSPropertyOp16
 70
     1
102
RTVSPropertyOp17
 70
     1
102
RTVSPropertyOp18
 70
     1
102
RTVSPropertyOp19
 70
     1
102
RTVSPropertyOp20
 70
     1
102
RTVSPropertyOp21
 70
     1
102
RTVSPropertyOp22
 70
     1
102
RTVSPropertyOp23
 70
     1
102
RTVSPropertyOp24
 70
     1
102
RTVSPropertyOp25
 70
     1
102
RTVSPropertyOp26
 70
     1
102
RTVSPropertyOp27
 70
     1
102
RTVSPropertyOp28
 70
     1
102
RTVSPropertyOp29
 70
     1
102
RTVSPropertyOp30
 70
     1
102
RTVSPropertyOp31
 70
     1
102
RTVSPropertyOp32
 70
     1
102
RTVSPropertyOp33
 70
     1
102
RTVSPropertyOp34
 70
     1
102
RTVSPropertyOp35
 70
     1
102
RTVSPropertyOp36
 70
     1
102
RTVSPropertyOp37
 70
     1
102
RTVSPropertyOp38
 70
     1
102
RTVSPropertyOp39
 70
     1
102
RTVSPropertyOp40
 70
     1
102
RTVSPropertyOp41
 70
     1
102
RTVSPropertyOp42
 70
     1
102
RTVSPropertyOp43
 70
     1
102
RTVSPropertyOp44
 70
     1
102
RTVSPropertyOp45
 70
     1
102
RTVSPropertyOp46
 70
     1
102
RTVSPropertyOp47
 70
     1
102
RTVSPropertyOp48
 70
     1
102
RTVSPropertyOp49
 70
     1
102
RTVSPropertyOp50
 70
     1
102
RTVSPropertyOp51
 70
     0
102
RTVSPropertyOp52
 70
     0
102
RTVSPropertyOp53
 70
     1
102
RTVSPropertyOp54
 70
     1
102
RTVSPropertyOp55
 70
     1
102
RTVSPropertyOp56
 70
     1
102
RTVSPropertyOp57
 70
     1
102
RTVSPost2010Prop28
280
     0
102
RTVSPost2010PropOp28
 70
     1
102
RTVSPost2010Prop29
280
     1
102
RTVSPost2010PropOp29
 70
     1
102
RTVSPost2010Prop30
280
     1
102
RTVSPost2010PropOp30
 70
     1
102
RTVSPost2010Prop31
280
     0
102
RTVSPost2010PropOp31
 70
     1
102
RTVSPost2010Prop32
280
     0
102
RTVSPost2010PropOp32
 70
     1
102
RTVSPost2010Prop33
280
     0
102
RTVSPost2010PropOp33
 70
     1
102
RTVSPost2010Prop34
280
     0
102
RTVSPost2010PropOp34
 70
     1
102
RTVSPost2010Prop35
280
     0
102
RTVSPost2010PropOp35
 70
     1
102
RTVSPost2010Prop36
280
     0
102
RTVSPost2010PropOp36
 70
     1
102
RTVSPost2010Prop37
 90
       50
102
RTVSPost2010PropOp37
 70
     1
102
RTVSPost2010Prop38
140
0.0
102
RTVSPost2010PropOp38
 70
     1
102
RTVSPost2010Prop39
140
1.0
102
RTVSPost2010PropOp39
 70
     1
102
RTVSPost2010Prop40
 90
        0
102
RTVSPost2010PropOp40
 70
     1
102
RTVSPost2010Prop41ColorIndex
 90
       18
102
RTVSPost2010Prop41ColorRGB
 90
        0
102
RTVSPost2010PropOp41
 70
     1
102
RTVSPost2010Prop42
 90
       50
102
RTVSPost2010PropOp42
 70
     1
102
RTVSPost2010Prop43
 90
        3
102
RTVSPost2010PropOp43
 70
     1
102
RTVSPost2010Prop44ColorIndex
 90
        5
102
RTVSPost2010Prop44ColorRGB
 90
      255
102
RTVSPost2010PropOp44
 70
     1
102
RTVSPost2010Prop45
280
     0
102
RTVSPost2010PropOp45
 70
     1
102
RTVSPost2010Prop46
 90
       50
102
RTVSPost2010PropOp46
 70
     1
102
RTVSPost2010Prop47
 90
       50
102
RTVSPost2010PropOp47
 70
     1
102
RTVSPost2010Prop48
 90
       50
102
RTVSPost2010PropOp48
 70
     1
102
RTVSPost2010Prop49
280
     0
102
RTVSPost2010PropOp49
 70
     1
102
RTVSPost2010Prop50
 90
       50
102
RTVSPost2010PropOp50
 70
     1
102
RTVSPost2010Prop51ColorIndex
 90
      256
102
RTVSPost2010Prop51ColorRGB
 90
-16777216
102
RTVSPost2010PropOp51
 70
     0
102
RTVSPost2010Prop52
140
1.0
102
RTVSPost2010PropOp52
 70
     0
102
RTVSPost2010Prop53
 90
        2
102
RTVSPost2010PropOp53
 70
     1
102
RTVSPost2010Prop54
  1
strokes_ogs.tif
102
RTVSPost2010PropOp54
 70
     1
102
RTVSPost2010Prop55
280
     0
102
RTVSPost2010PropOp55
 70
     1
102
RTVSPost2010Prop56
140
1.0
102
RTVSPost2010PropOp56
 70
     1
102
RTVSPost2010Prop57
140
1.0
102
RTVSPost2010PropOp57
 70
     1
  0
ENDSEC
  0
EOF
