  0
SECTION
  2
HEADER
  9
$ACADVER
  1
AC1015
  9
$ACADMAINTVER
 70
     6
  9
$DWGCODEPAGE
  3
ANSI_1252
  9
$INSBASE
 10
0.0
 20
0.0
 30
0.0
  9
$EXTMIN
 10
-41.394588
 20
494.043274
 30
0.0
  9
$EXTMAX
 10
699.528015
 20
932.796631
 30
0.0
  9
$LIMMIN
 10
-41.394588
 20
494.043274
  9
$LIMMAX
 10
699.528015
 20
932.796631
  9
$ORTHOMODE
 70
     0
  9
$REGENMODE
 70
     1
  9
$FILLMODE
 70
     1
  9
$QTEXTMODE
 70
     0
  9
$MIRRTEXT
 70
     1
  9
$LTSCALE
 40
1.0
  9
$ATTMODE
 70
     1
  9
$TEXTSIZE
 40
2.5
  9
$TRACEWID
 40
1.0
  9
$TEXTSTYLE
  7
Standard
  9
$CLAYER
  8
0
  9
$CELTYPE
  6
ByLayer
  9
$CECOLOR
 62
   256
  9
$CELTSCALE
 40
1.0
  9
$DISPSILH
 70
     0
  9
$DIMSCALE
 40
1.0
  9
$DIMASZ
 40
2.5
  9
$DIMEXO
 40
0.625
  9
$DIMDLI
 40
3.75
  9
$DIMRND
 40
0.0
  9
$DIMDLE
 40
0.0
  9
$DIMEXE
 40
1.25
  9
$DIMTP
 40
0.0
  9
$DIMTM
 40
0.0
  9
$DIMTXT
 40
2.5
  9
$DIMCEN
 40
2.5
  9
$DIMTSZ
 40
0.0
  9
$DIMTOL
 70
     0
  9
$DIMLIM
 70
     0
  9
$DIMTIH
 70
     0
  9
$DIMTOH
 70
     0
  9
$DIMSE1
 70
     0
  9
$DIMSE2
 70
     0
  9
$DIMTAD
 70
     1
  9
$DIMZIN
 70
     8
  9
$DIMBLK
  1

  9
$DIMASO
 70
     1
  9
$DIMSHO
 70
     1
  9
$DIMPOST
  1

  9
$DIMAPOST
  1

  9
$DIMALT
 70
     0
  9
$DIMALTD
 70
     3
  9
$DIMALTF
 40
0.03937
  9
$DIMLFAC
 40
1.0
  9
$DIMTOFL
 70
     1
  9
$DIMTVP
 40
0.0
  9
$DIMTIX
 70
     0
  9
$DIMSOXD
 70
     0
  9
$DIMSAH
 70
     0
  9
$DIMBLK1
  1

  9
$DIMBLK2
  1

  9
$DIMSTYLE
  2
ISO-25
  9
$DIMCLRD
 70
     0
  9
$DIMCLRE
 70
     0
  9
$DIMCLRT
 70
     0
  9
$DIMTFAC
 40
1.0
  9
$DIMGAP
 40
0.625
  9
$DIMJUST
 70
     0
  9
$DIMSD1
 70
     0
  9
$DIMSD2
 70
     0
  9
$DIMTOLJ
 70
     0
  9
$DIMTZIN
 70
     8
  9
$DIMALTZ
 70
     0
  9
$DIMALTTZ
 70
     0
  9
$DIMUPT
 70
     0
  9
$DIMDEC
 70
     2
  9
$DIMTDEC
 70
     2
  9
$DIMALTU
 70
     2
  9
$DIMALTTD
 70
     3
  9
$DIMTXSTY
  7
Standard
  9
$DIMAUNIT
 70
     0
  9
$DIMADEC
 70
     0
  9
$DIMALTRND
 40
0.0
  9
$DIMAZIN
 70
     0
  9
$DIMDSEP
 70
    44
  9
$DIMATFIT
 70
     3
  9
$DIMFRAC
 70
     0
  9
$DIMLDRBLK
  1

  9
$DIMLUNIT
 70
     2
  9
$DIMLWD
 70
    -2
  9
$DIMLWE
 70
    -2
  9
$DIMTMOVE
 70
     0
  9
$LUNITS
 70
     2
  9
$LUPREC
 70
     4
  9
$SKETCHINC
 40
1.0
  9
$FILLETRAD
 40
10.0
  9
$AUNITS
 70
     0
  9
$AUPREC
 70
     0
  9
$MENU
  1
.
  9
$ELEVATION
 40
0.0
  9
$PELEVATION
 40
0.0
  9
$THICKNESS
 40
0.0
  9
$LIMCHECK
 70
     0
  9
$CHAMFERA
 40
0.0
  9
$CHAMFERB
 40
0.0
  9
$CHAMFERC
 40
0.0
  9
$CHAMFERD
 40
0.0
  9
$SKPOLY
 70
     0
  9
$TDCREATE
 40
2459487.492499143
  9
$TDUCREATE
 40
2459487.40916581
  9
$TDUPDATE
 40
2459487.492499826
  9
$TDUUPDATE
 40
2459487.409166493
  9
$TDINDWG
 40
0.0000000116
  9
$TDUSRTIMER
 40
0.0000000116
  9
$USRTIMER
 70
     1
  9
$ANGBASE
 50
0.0
  9
$ANGDIR
 70
     0
  9
$PDMODE
 70
     0
  9
$PDSIZE
 40
0.0
  9
$PLINEWID
 40
0.0
  9
$SPLFRAME
 70
     0
  9
$SPLINETYPE
 70
     6
  9
$SPLINESEGS
 70
     8
  9
$HANDSEED
  5
118
  9
$SURFTAB1
 70
     6
  9
$SURFTAB2
 70
     6
  9
$SURFTYPE
 70
     6
  9
$SURFU
 70
     6
  9
$SURFV
 70
     6
  9
$UCSBASE
  2

  9
$UCSNAME
  2

  9
$UCSORG
 10
0.0
 20
0.0
 30
0.0
  9
$UCSXDIR
 10
1.0
 20
0.0
 30
0.0
  9
$UCSYDIR
 10
0.0
 20
1.0
 30
0.0
  9
$UCSORTHOREF
  2

  9
$UCSORTHOVIEW
 70
     0
  9
$UCSORGTOP
 10
0.0
 20
0.0
 30
0.0
  9
$UCSORGBOTTOM
 10
0.0
 20
0.0
 30
0.0
  9
$UCSORGLEFT
 10
0.0
 20
0.0
 30
0.0
  9
$UCSORGRIGHT
 10
0.0
 20
0.0
 30
0.0
  9
$UCSORGFRONT
 10
0.0
 20
0.0
 30
0.0
  9
$UCSORGBACK
 10
0.0
 20
0.0
 30
0.0
  9
$PUCSBASE
  2

  9
$PUCSNAME
  2

  9
$PUCSORG
 10
0.0
 20
0.0
 30
0.0
  9
$PUCSXDIR
 10
1.0
 20
0.0
 30
0.0
  9
$PUCSYDIR
 10
0.0
 20
1.0
 30
0.0
  9
$PUCSORTHOREF
  2

  9
$PUCSORTHOVIEW
 70
     0
  9
$PUCSORGTOP
 10
0.0
 20
0.0
 30
0.0
  9
$PUCSORGBOTTOM
 10
0.0
 20
0.0
 30
0.0
  9
$PUCSORGLEFT
 10
0.0
 20
0.0
 30
0.0
  9
$PUCSORGRIGHT
 10
0.0
 20
0.0
 30
0.0
  9
$PUCSORGFRONT
 10
0.0
 20
0.0
 30
0.0
  9
$PUCSORGBACK
 10
0.0
 20
0.0
 30
0.0
  9
$USERI1
 70
     0
  9
$USERI2
 70
     0
  9
$USERI3
 70
     0
  9
$USERI4
 70
     0
  9
$USERI5
 70
     0
  9
$USERR1
 40
0.0
  9
$USERR2
 40
0.0
  9
$USERR3
 40
0.0
  9
$USERR4
 40
0.0
  9
$USERR5
 40
0.0
  9
$WORLDVIEW
 70
     1
  9
$SHADEDGE
 70
     3
  9
$SHADEDIF
 70
    70
  9
$TILEMODE
 70
     1
  9
$MAXACTVP
 70
    64
  9
$PINSBASE
 10
0.0
 20
0.0
 30
0.0
  9
$PLIMCHECK
 70
     0
  9
$PEXTMIN
 10
1.000000E+20
 20
1.000000E+20
 30
1.000000E+20
  9
$PEXTMAX
 10
-1.000000E+20
 20
-1.000000E+20
 30
-1.000000E+20
  9
$PLIMMIN
 10
0.0
 20
0.0
  9
$PLIMMAX
 10
420.0
 20
297.0
  9
$UNITMODE
 70
     0
  9
$VISRETAIN
 70
     1
  9
$PLINEGEN
 70
     0
  9
$PSLTSCALE
 70
     1
  9
$TREEDEPTH
 70
  3020
  9
$CMLSTYLE
  2
Standard
  9
$CMLJUST
 70
     0
  9
$CMLSCALE
 40
20.0
  9
$PROXYGRAPHICS
 70
     1
  9
$MEASUREMENT
 70
     1
  9
$CELWEIGHT
370
    -1
  9
$ENDCAPS
280
     0
  9
$JOINSTYLE
280
     0
  9
$LWDISPLAY
290
     0
  9
$INSUNITS
 70
     4
  9
$HYPERLINKBASE
  1

  9
$STYLESHEET
  1

  9
$XEDIT
290
     1
  9
$CEPSNTYPE
380
     0
  9
$PSTYLEMODE
290
     1
  9
$FINGERPRINTGUID
  2
{14d0bdcc-4014-458e-a382-a830207466d4}
  9
$VERSIONGUID
  2
{FAEB1C32-E019-11D5-929B-00C0DF256EC4}
  9
$EXTNAMES
290
     1
  9
$PSVPSCALE
 40
0.0
  9
$OLESTARTUP
290
     0
  0
ENDSEC
  0
SECTION
  2
CLASSES
  0
CLASS
  1
ACDBDICTIONARYWDFLT
  2
AcDbDictionaryWithDefault
  3
ObjectDBX Classes
 90
        0
280
     0
281
     0
  0
CLASS
  1
VISUALSTYLE
  2
AcDbVisualStyle
  3
ObjectDBX Classes
 90
     4095
280
     0
281
     0
  0
CLASS
  1
MATERIAL
  2
AcDbMaterial
  3
ObjectDBX Classes
 90
     1153
280
     0
281
     0
  0
CLASS
  1
SCALE
  2
AcDbScale
  3
ObjectDBX Classes
 90
     1153
280
     0
281
     0
  0
CLASS
  1
TABLESTYLE
  2
AcDbTableStyle
  3
ObjectDBX Classes
 90
     4095
280
     0
281
     0
  0
CLASS
  1
MLEADERSTYLE
  2
AcDbMLeaderStyle
  3
ACDB_MLEADERSTYLE_CLASS
 90
     4095
280
     0
281
     0
  0
CLASS
  1
SUN
  2
AcDbSun
  3
SCENEOE
 90
     1153
280
     0
281
     0
  0
CLASS
  1
DICTIONARYVAR
  2
AcDbDictionaryVar
  3
ObjectDBX Classes
 90
        0
280
     0
281
     0
  0
CLASS
  1
ACDBPLACEHOLDER
  2
AcDbPlaceHolder
  3
ObjectDBX Classes
 90
        0
280
     0
281
     0
  0
CLASS
  1
LAYOUT
  2
AcDbLayout
  3
ObjectDBX Classes
 90
        0
280
     0
281
     0
  0
ENDSEC
  0
SECTION
  2
TABLES
  0
TABLE
  2
VPORT
  5
8
102
{ACAD_XDICTIONARY
360
DB
102
}
330
0
100
AcDbSymbolTable
 70
     1
  0
VPORT
  5
29
330
8
100
AcDbSymbolTableRecord
100
AcDbViewportTableRecord
  2
*Active
 70
     0
 10
0.0
 20
0.0
 11
1.0
 21
1.0
 12
344.186916
 22
148.5
 13
0.0
 23
0.0
 14
10.0
 24
10.0
 15
10.0
 25
10.0
 16
0.0
 26
0.0
 36
1.0
 17
0.0
 27
0.0
 37
0.0
 40
297.0
 41
1.972973
 42
50.0
 43
0.0
 44
0.0
 50
0.0
 51
0.0
 71
     0
 72
   100
 73
     1
 74
     3
 75
     0
 76
     0
 77
     0
 78
     0
281
     0
 65
     1
110
0.0
120
0.0
130
0.0
111
1.0
121
0.0
131
0.0
112
0.0
122
1.0
132
0.0
 79
     0
146
0.0
  0
ENDTAB
  0
TABLE
  2
LTYPE
  5
5
330
0
100
AcDbSymbolTable
 70
     1
  0
LTYPE
  5
14
330
5
100
AcDbSymbolTableRecord
100
AcDbLinetypeTableRecord
  2
ByBlock
 70
     0
  3

 72
    65
 73
     0
 40
0.0
  0
LTYPE
  5
15
330
5
100
AcDbSymbolTableRecord
100
AcDbLinetypeTableRecord
  2
ByLayer
 70
     0
  3

 72
    65
 73
     0
 40
0.0
  0
LTYPE
  5
16
330
5
100
AcDbSymbolTableRecord
100
AcDbLinetypeTableRecord
  2
Continuous
 70
     0
  3
Solid line
 72
    65
 73
     0
 40
0.0
  0
ENDTAB
  0
TABLE
  2
LAYER
  5
2
330
0
100
AcDbSymbolTable
 70
     1
  0
LAYER
  5
10
330
2
100
AcDbSymbolTableRecord
100
AcDbLayerTableRecord
  2
0
 70
     0
 62
   106
  6
Continuous
370
     0
390
F
  0
ENDTAB
  0
TABLE
  2
STYLE
  5
3
330
0
100
AcDbSymbolTable
 70
     4
  0
STYLE
  5
11
330
3
100
AcDbSymbolTableRecord
100
AcDbTextStyleTableRecord
  2
Standard
 70
     0
 40
0.0
 41
1.0
 50
0.0
 71
     0
 42
2.5
  3
txt
  4

  0
STYLE
  5
6E
330
3
100
AcDbSymbolTableRecord
100
AcDbTextStyleTableRecord
  2
Default
 70
     0
 40
0.0
 41
1.0
 50
0.0
 71
     0
 42
2.5
  3

  4

1001
ACAD
1000
txt
1071
        0
  0
STYLE
  5
6F
330
3
100
AcDbSymbolTableRecord
100
AcDbTextStyleTableRecord
  2
ISO
 70
     0
 40
0.0
 41
1.0
 50
0.0
 71
     0
 42
2.5
  3

  4

1001
ACAD
1000
txt
1071
        0
  0
STYLE
  5
70
330
3
100
AcDbSymbolTableRecord
100
AcDbTextStyleTableRecord
  2
zucchetti
 70
     0
 40
0.0
 41
1.0
 50
0.0
 71
     0
 42
2.5
  3

  4

1001
ACAD
1000
Arial
1071
        0
  0
ENDTAB
  0
TABLE
  2
VIEW
  5
6
330
0
100
AcDbSymbolTable
 70
     0
  0
ENDTAB
  0
TABLE
  2
UCS
  5
7
330
0
100
AcDbSymbolTable
 70
     0
  0
ENDTAB
  0
TABLE
  2
APPID
  5
9
330
0
100
AcDbSymbolTable
 70
     2
  0
APPID
  5
12
330
9
100
AcDbSymbolTableRecord
100
AcDbRegAppTableRecord
  2
ACAD
 70
     0
  0
APPID
  5
115
330
9
100
AcDbSymbolTableRecord
100
AcDbRegAppTableRecord
  2
ACAD_MLEADERVER
 70
     0
  0
ENDTAB
  0
TABLE
  2
DIMSTYLE
  5
A
330
0
100
AcDbSymbolTable
 70
     4
100
AcDbDimStyleTable
  0
DIMSTYLE
105
27
330
A
100
AcDbSymbolTableRecord
100
AcDbDimStyleTableRecord
  2
ISO-25
 70
     0
 41
2.5
 42
0.625
 43
3.75
 44
1.25
 73
     0
 74
     0
 77
     1
 78
     8
140
2.5
141
2.5
143
0.03937
147
0.625
171
     3
172
     1
178
     0
271
     2
272
     2
274
     3
278
    44
283
     0
284
     8
340
11
  0
DIMSTYLE
105
71
330
A
100
AcDbSymbolTableRecord
100
AcDbDimStyleTableRecord
  2
Default
 70
     0
  3
<>
 41
4.375
 42
1.05
 44
2.1
 73
     0
 74
     0
 77
     1
 78
     8
140
3.5
146
0.4
147
1.75
172
     1
271
     2
178
     3
271
     2
272
     3
284
     8
340
6E
341
72
342
72
  0
DIMSTYLE
105
79
330
A
100
AcDbSymbolTableRecord
100
AcDbDimStyleTableRecord
  2
ISO
 70
     0
  3
<>
 41
4.375
 42
1.05
 44
2.1
 73
     0
 74
     0
 77
     1
 78
     8
140
3.5
146
0.4
147
1.75
172
     1
271
     2
178
     3
271
     2
272
     3
284
     8
340
6F
341
72
342
72
  0
DIMSTYLE
105
7A
330
A
100
AcDbSymbolTableRecord
100
AcDbDimStyleTableRecord
  2
zucchetti
 70
     0
  3
<>
 41
3.0
 42
0.9
 44
1.8
 73
     0
 74
     0
 77
     1
 78
     8
140
3.0
146
0.6
147
1.5
172
     1
176
     3
177
     3
271
     2
178
     3
271
     2
272
     2
284
     8
340
70
  0
ENDTAB
  0
TABLE
  2
BLOCK_RECORD
  5
1
330
0
100
AcDbSymbolTable
 70
     7
  0
BLOCK_RECORD
  5
1F
330
1
100
AcDbSymbolTableRecord
100
AcDbBlockTableRecord
  2
*Model_Space
340
22
  0
BLOCK_RECORD
  5
1B
330
1
100
AcDbSymbolTableRecord
100
AcDbBlockTableRecord
  2
*Paper_Space
340
1E
  0
BLOCK_RECORD
  5
23
330
1
100
AcDbSymbolTableRecord
100
AcDbBlockTableRecord
  2
*Paper_Space0
340
26
  0
BLOCK_RECORD
  5
72
330
1
100
AcDbSymbolTableRecord
100
AcDbBlockTableRecord
  2
_Closed
340
0
  0
BLOCK_RECORD
  5
7B
330
1
100
AcDbSymbolTableRecord
100
AcDbBlockTableRecord
  2
a
340
0
102
{BLKREFS
331
8C
102
}
  0
BLOCK_RECORD
  5
8D
330
1
100
AcDbSymbolTableRecord
100
AcDbBlockTableRecord
  2
b
340
0
102
{BLKREFS
331
9B
102
}
  0
BLOCK_RECORD
  5
9C
330
1
100
AcDbSymbolTableRecord
100
AcDbBlockTableRecord
  2
c
340
0
102
{BLKREFS
331
AA
102
}
  0
BLOCK_RECORD
  5
AB
330
1
100
AcDbSymbolTableRecord
100
AcDbBlockTableRecord
  2
d
340
0
102
{BLKREFS
331
BF
102
}
  0
BLOCK_RECORD
  5
C0
330
1
100
AcDbSymbolTableRecord
100
AcDbBlockTableRecord
  2
e
340
0
102
{BLKREFS
331
CF
102
}
  0
ENDTAB
  0
ENDSEC
  0
SECTION
  2
BLOCKS
  0
BLOCK
  5
20
330
1F
100
AcDbEntity
  8
0
100
AcDbBlockBegin
  2
*Model_Space
 70
     0
 10
0.0
 20
0.0
 30
0.0
  3
*Model_Space
  1

  0
ENDBLK
  5
21
330
1F
100
AcDbEntity
  8
0
100
AcDbBlockEnd
  0
BLOCK
  5
1C
330
1B
100
AcDbEntity
 67
     1
  8
0
100
AcDbBlockBegin
  2
*Paper_Space
 70
     0
 10
0.0
 20
0.0
 30
0.0
  3
*Paper_Space
  1

  0
ENDBLK
  5
1D
330
1B
100
AcDbEntity
 67
     1
  8
0
100
AcDbBlockEnd
  0
BLOCK
  5
24
330
23
100
AcDbEntity
  8
0
100
AcDbBlockBegin
  2
*Paper_Space0
 70
     0
 10
0.0
 20
0.0
 30
0.0
  3
*Paper_Space0
  1

  0
ENDBLK
  5
25
330
23
100
AcDbEntity
  8
0
100
AcDbBlockEnd
  0
BLOCK
  5
73
330
72
100
AcDbEntity
  8
0
100
AcDbBlockBegin
  2
_Closed
 70
     0
 10
0.0
 20
0.0
 30
0.0
  3
_Closed
  1

  0
LINE
  5
75
330
72
100
AcDbEntity
  8
0
  6
ByBlock
 62
     0
370
    -2
100
AcDbLine
 10
-1.0
 20
0.166667
 30
0.0
 11
0.0
 21
0.0
 31
0.0
  0
LINE
  5
76
330
72
100
AcDbEntity
  8
0
  6
ByBlock
 62
     0
370
    -2
100
AcDbLine
 10
0.0
 20
0.0
 30
0.0
 11
-1.0
 21
-0.166667
 31
0.0
  0
LINE
  5
77
330
72
100
AcDbEntity
  8
0
  6
ByBlock
 62
     0
370
    -2
100
AcDbLine
 10
-1.0
 20
0.166667
 30
0.0
 11
-1.0
 21
-0.166667
 31
0.0
  0
LINE
  5
78
330
72
100
AcDbEntity
  8
0
  6
ByBlock
 62
     0
370
    -2
100
AcDbLine
 10
0.0
 20
0.0
 30
0.0
 11
-1.0
 21
0.0
 31
0.0
  0
ENDBLK
  5
74
330
72
100
AcDbEntity
  8
0
100
AcDbBlockEnd
  0
BLOCK
  5
8A
330
7B
100
AcDbEntity
  8
0
100
AcDbBlockBegin
  2
a
 70
     0
 10
65.971436
 20
171.389008
 30
0.0
  3
a
  1

  0
LINE
  5
7C
330
7B
100
AcDbEntity
  8
0
  6
Continuous
 62
     0
370
    30
100
AcDbLine
 10
147.83313
 20
718.514927
 30
0.0
 11
147.833133
 21
709.5141
 31
0.0
  0
SPLINE
  5
7D
330
7B
100
AcDbEntity
  8
0
  6
Continuous
 62
     0
370
    30
100
AcDbSpline
210
0.0
220
0.0
230
1.0
 70
     8
 71
     7
 72
    71
 73
    63
 74
     0
 42
0.000000001
 43
0.0
 40
0.0
 40
0.0
 40
0.0
 40
0.0
 40
0.0
 40
0.0
 40
0.0
 40
0.0
 40
0.18
 40
0.18
 40
0.18
 40
0.18
 40
0.18
 40
0.207136
 40
0.207136
 40
0.207136
 40
0.207136
 40
0.207136
 40
0.2312
 40
0.2312
 40
0.2312
 40
0.2312
 40
0.2312
 40
0.354848
 40
0.354848
 40
0.354848
 40
0.354848
 40
0.354848
 40
0.42161792
 40
0.42161792
 40
0.42161792
 40
0.42161792
 40
0.42161792
 40
0.4976195072
 40
0.4976195072
 40
0.4976195072
 40
0.4976195072
 40
0.4976195072
 40
0.4999999254134589
 40
0.4999999254134589
 40
0.4999999254134589
 40
0.4999999254134589
 40
0.4999999254134589
 40
0.645152
 40
0.645152
 40
0.645152
 40
0.645152
 40
0.645152
 40
0.7688
 40
0.7688
 40
0.7688
 40
0.7688
 40
0.7688
 40
0.792864
 40
0.792864
 40
0.792864
 40
0.792864
 40
0.792864
 40
0.82
 40
0.82
 40
0.82
 40
0.82
 40
0.82
 40
0.8229515128059042
 40
0.8229515128059042
 40
0.8229515128059042
 40
0.8229515128059042
 40
0.8229515128059042
 40
0.8229515128059042
 40
0.8229515128059042
 40
0.8229515128059042
 10
101.3331304814673
 20
718.514099940445
 30
0.0
 10
101.3331301247978
 20
719.8215428979111
 30
0.0
 10
101.3331297681285
 20
721.1289858553771
 30
0.0
 10
101.3331294114679
 20
722.4364287921778
 30
0.0
 10
101.333129054796
 20
723.7438716988074
 30
0.0
 10
101.3331286980871
 20
725.051314574687
 30
0.0
 10
101.3331282876928
 20
726.5558616993308
 30
0.0
 10
101.3331278774372
 20
728.0604088053657
 30
0.0
 10
101.3337379597667
 20
728.2575064096799
 30
0.0
 10
101.3316815127303
 20
728.4546321184177
 30
0.0
 10
101.3344965343312
 20
728.6517094794511
 30
0.0
 10
101.3307646993448
 20
729.023634190061
 30
0.0
 10
101.3369381715372
 20
729.3954859523083
 30
0.0
 10
101.3476754237431
 20
729.5701790742189
 30
0.0
 10
101.3577180792053
 20
729.7446082740348
 30
0.0
 10
101.3739010516348
 20
729.9187701119005
 30
0.0
 10
101.4926899401648
 20
730.9853355851735
 30
0.0
 10
101.7505776804755
 20
732.0334012620712
 30
0.0
 10
102.059796809641
 20
732.8865574043888
 30
0.0
 10
102.4737935207694
 20
733.6944403740422
 30
0.0
 10
102.9615879338141
 20
734.4586954155116
 30
0.0
 10
103.8399174783801
 20
735.538241530064
 30
0.0
 10
104.8852789542985
 20
736.4477337472096
 30
0.0
 10
105.2705709818397
 20
736.7445878777859
 30
0.0
 10
105.6725123946922
 20
737.0184288301145
 30
0.0
 10
106.0895342562326
 20
737.2687981700788
 30
0.0
 10
107.0108808160797
 20
737.7489179897806
 30
0.0
 10
107.9870185364754
 20
738.1062748372113
 30
0.0
 10
108.5193335978475
 20
738.2616081004285
 30
0.0
 10
109.0607664321721
 20
738.3762834592098
 30
0.0
 10
109.6085918773426
 20
738.460549340251
 30
0.0
 10
110.1773627255371
 20
738.5075424587184
 30
0.0
 10
110.7466640352536
 20
738.5137259109302
 30
0.0
 10
110.7639537952204
 20
738.5138761049608
 30
0.0
 10
110.7812438534011
 20
738.5139887486796
 30
0.0
 10
110.798534114596
 20
738.5140638846023
 30
0.0
 10
111.8701488650571
 20
738.5163985484081
 30
0.0
 10
112.9418142450173
 20
738.3749713093795
 30
0.0
 10
113.9747373619813
 20
738.1057986862045
 30
0.0
 10
114.9672018075269
 20
737.7005282317135
 30
0.0
 10
115.8920507661838
 20
737.1676812842929
 30
0.0
 10
117.464777506245
 20
735.9826286800925
 30
0.0
 10
118.7046590873351
 20
734.4587075303698
 30
0.0
 10
119.1924548872822
 20
733.6944525624725
 30
0.0
 10
119.6064532054008
 20
732.8865696613685
 30
0.0
 10
119.9156737273084
 20
732.0334132231048
 30
0.0
 10
120.1735629667607
 20
730.9853470120731
 30
0.0
 10
120.2923531623455
 20
729.918780810631
 30
0.0
 10
120.3085363378718
 20
729.7446188496853
 30
0.0
 10
120.3185792324287
 20
729.5701895201494
 30
0.0
 10
120.3293165983437
 20
729.3954962682993
 30
0.0
 10
120.3354906239498
 20
729.023644211935
 30
0.0
 10
120.3317588925688
 20
728.6517191977856
 30
0.0
 10
120.3345739835113
 20
728.4546416808896
 30
0.0
 10
120.3325177158146
 20
728.2575158120871
 30
0.0
 10
120.3331278770335
 20
728.0604180506708
 30
0.0
 10
120.3331279366785
 20
727.8418750818041
 30
0.0
 10
120.3331279963206
 20
727.62333211333
 30
0.0
 10
120.3331280021713
 20
727.6018935725593
 30
0.0
 10
120.333128008022
 20
727.5804550317926
 30
0.0
 10
120.3331280138727
 20
727.5590164910298
 30
0.0
 10
120.3331280197233
 20
727.5375779502708
 30
0.0
 10
120.3331280255739
 20
727.5161394095159
 30
0.0
  0
SPLINE
  5
7E
330
7B
100
AcDbEntity
  8
0
  6
Continuous
 62
     0
370
    30
100
AcDbSpline
210
0.0
220
0.0
230
1.0
 70
     8
 71
     7
 72
    71
 73
    63
 74
     0
 42
0.000000001
 43
0.0
 40
0.1770177221907553
 40
0.1770177221907553
 40
0.1770177221907553
 40
0.1770177221907553
 40
0.1770177221907553
 40
0.1770177221907553
 40
0.1770177221907553
 40
0.1770177221907553
 40
0.18
 40
0.18
 40
0.18
 40
0.18
 40
0.18
 40
0.207136
 40
0.207136
 40
0.207136
 40
0.207136
 40
0.207136
 40
0.2312
 40
0.2312
 40
0.2312
 40
0.2312
 40
0.2312
 40
0.354848
 40
0.354848
 40
0.354848
 40
0.354848
 40
0.354848
 40
0.500000074586541
 40
0.500000074586541
 40
0.500000074586541
 40
0.500000074586541
 40
0.500000074586541
 40
0.5023804928
 40
0.5023804928
 40
0.5023804928
 40
0.5023804928
 40
0.5023804928
 40
0.57838208
 40
0.57838208
 40
0.57838208
 40
0.57838208
 40
0.57838208
 40
0.645152
 40
0.645152
 40
0.645152
 40
0.645152
 40
0.645152
 40
0.7688
 40
0.7688
 40
0.7688
 40
0.7688
 40
0.7688
 40
0.792864
 40
0.792864
 40
0.792864
 40
0.792864
 40
0.792864
 40
0.82
 40
0.82
 40
0.82
 40
0.82
 40
0.82
 40
1.0
 40
1.0
 40
1.0
 40
1.0
 40
1.0
 40
1.0
 40
1.0
 40
1.0
 10
120.3331304813291
 20
709.5136299011564
 30
0.0
 10
120.3331304813269
 20
709.4919678964253
 30
0.0
 10
120.3331304813246
 20
709.47030589169
 30
0.0
 10
120.3331304813224
 20
709.4486438869508
 30
0.0
 10
120.3331304813201
 20
709.4269818822074
 30
0.0
 10
120.3331304813178
 20
709.4053198774602
 30
0.0
 10
120.3331304812942
 20
709.186553444978
 30
0.0
 10
120.3331304812676
 20
708.9677870121025
 30
0.0
 10
120.332520373817
 20
708.7706892504881
 30
0.0
 10
120.3345766952896
 20
708.5735633822148
 30
0.0
 10
120.3317616581098
 20
708.3764858645192
 30
0.0
 10
120.3354934909519
 20
708.0045608513282
 30
0.0
 10
120.329319566787
 20
707.6327087932195
 30
0.0
 10
120.3185822485283
 20
707.458015538412
 30
0.0
 10
120.3085394015557
 20
707.2835862061085
 30
0.0
 10
120.2923562735408
 20
707.1094242407196
 30
0.0
 10
120.1735663689152
 20
706.0428580066985
 30
0.0
 10
119.9156774153753
 20
704.994791725143
 30
0.0
 10
119.6064571262087
 20
704.1416352023832
 30
0.0
 10
119.1924590284805
 20
703.3337521882057
 30
0.0
 10
118.7046634370221
 20
702.5694970871092
 30
0.0
 10
117.4647822716576
 20
701.0455755988872
 30
0.0
 10
115.8920558548787
 20
699.860522565438
 30
0.0
 10
114.9672070415825
 20
699.3276753656223
 30
0.0
 10
113.9747427065947
 20
698.9224046403103
 30
0.0
 10
112.941819663061
 20
698.6532317352986
 30
0.0
 10
111.8701543216822
 20
698.5118042038846
 30
0.0
 10
110.7985395705842
 20
698.5141385753419
 30
0.0
 10
110.7812493093688
 20
698.5142137065476
 30
0.0
 10
110.7639592511574
 20
698.5143263455495
 30
0.0
 10
110.7466694911496
 20
698.5144765348631
 30
0.0
 10
110.1773681797463
 20
698.5206598317641
 30
0.0
 10
109.6085973187321
 20
698.5676527950718
 30
0.0
 10
109.0607718505739
 20
698.6519185266733
 30
0.0
 10
108.5193389849659
 20
698.766593737764
 30
0.0
 10
107.9870238812188
 20
698.9219268557845
 30
0.0
 10
107.0108860633363
 20
699.2792834369711
 30
0.0
 10
106.0895393725127
 20
699.759403005396
 30
0.0
 10
105.6725174426714
 20
700.0097722316323
 30
0.0
 10
105.2705759551152
 20
700.2836130743507
 30
0.0
 10
104.8852838465922
 20
700.5804670998626
 30
0.0
 10
103.8399221225645
 20
701.4899590319677
 30
0.0
 10
102.9615922834984
 20
702.5695049070754
 30
0.0
 10
102.4737976619649
 20
703.3337598155917
 30
0.0
 10
102.0598007304462
 20
704.1416426724321
 30
0.0
 10
101.7505813685398
 20
704.9947987305284
 30
0.0
 10
101.492693342317
 20
706.0428643372397
 30
0.0
 10
101.373904162828
 20
707.1094297782776
 30
0.0
 10
101.3577211428869
 20
707.2835916117563
 30
0.0
 10
101.3476784398406
 20
707.4580208088605
 30
0.0
 10
101.3369411399784
 20
707.63271392787
 30
0.0
 10
101.3307675663449
 20
708.0045656884929
 30
0.0
 10
101.3344992998702
 20
708.3764904001805
 30
0.0
 10
101.3316842245067
 20
708.5735677604779
 30
0.0
 10
101.3337406177671
 20
708.7706934698084
 30
0.0
 10
101.3331304816694
 20
708.967791073988
 30
0.0
 10
101.3331304814847
 20
710.4723381802651
 30
0.0
 10
101.3331304814387
 20
711.9768853051507
 30
0.0
 10
101.3331304814773
 20
713.2843281812409
 30
0.0
 10
101.3331304814789
 20
714.5917710880809
 30
0.0
 10
101.3331304814691
 20
715.8992140250922
 30
0.0
 10
101.3331304814682
 20
717.2066569827685
 30
0.0
 10
101.3331304814673
 20
718.514099940445
 30
0.0
  0
SPLINE
  5
7F
330
7B
100
AcDbEntity
  8
0
  6
Continuous
 62
     0
370
    30
100
AcDbSpline
210
0.0
220
0.0
230
1.0
 70
     8
 71
     3
 72
    72
 73
    68
 74
     0
 42
0.000000001
 43
0.0
 40
11.94644636689681
 40
11.94644636689681
 40
11.94644636689681
 40
11.94644636689681
 40
12.01676395909847
 40
12.1925797193923
 40
12.3671206387189
 40
12.54020539356463
 40
12.71186557214438
 40
12.88239354689926
 40
13.05173202377031
 40
13.08548659273129
 40
13.21431617154386
 40
13.3614188678466
 40
13.46010095257101
 40
13.65897326733587
 40
13.85997727594377
 40
14.06331508881307
 40
14.26921769077829
 40
14.47763652138289
 40
14.69017411964057
 40
14.7837428305356
 40
14.88138920572495
 40
14.98360905734421
 40
15.08659997689503
 40
15.29501504878196
 40
15.50681559733881
 40
15.72231558845091
 40
16.16527099743318
 40
16.39334940953616
 40
16.62628404548217
 40
16.86442772488703
 40
17.10816897319468
 40
17.23226548439141
 40
17.35792098984541
 40
17.47518993189981
 40
17.54931533953745
 40
17.61401363303029
 40
17.74476119055899
 40
17.87737773635758
 40
18.01192155890844
 40
18.14847921321299
 40
18.42792032444147
 40
18.88429938156434
 40
19.48875420337404
 40
20.13417810495945
 40
20.91131910504901
 40
21.58474333615204
 40
22.01128095590803
 40
22.29404870772942
 40
22.5757077143044
 40
22.70833026256815
 40
22.83954114659914
 40
23.10715457596613
 40
23.23971165766504
 40
23.49706143435871
 40
23.70217888791068
 40
23.94183884316682
 40
24.27966081984326
 40
24.61737835923782
 40
24.95514288020749
 40
26.77640223807528
 40
28.59865609052289
 40
31.33025329456228
 40
34.06243089601169
 40
38.15811941916446
 40
42.25072400603579
 40
47.74382320832324
 40
53.22826536785713
 40
53.22826536785713
 40
53.22826536785713
 40
53.22826536785713
 10
116.1365455334775
 20
727.1788482255681
 30
0.0
 10
116.1365452014037
 20
727.1788477091411
 30
0.0
 10
116.136870447488
 20
727.1786360569721
 30
0.0
 10
116.1392072229158
 20
727.1771574818175
 30
0.0
 10
116.1463928340222
 20
727.1727367475762
 30
0.0
 10
116.1584201317311
 20
727.1654640074534
 30
0.0
 10
116.1857759238567
 20
727.149352299702
 30
0.0
 10
116.1965852534177
 20
727.1430637206466
 30
0.0
 10
116.2497791246756
 20
727.1129461031575
 30
0.0
 10
116.2126895883715
 20
727.1337450778001
 30
0.0
 10
116.1517606036131
 20
727.1672996937716
 30
0.0
 10
116.0812811125601
 20
727.2049083068856
 30
0.0
 10
115.997456787197
 20
727.2485285534663
 30
0.0
 10
115.9046956738878
 20
727.2952662656295
 30
0.0
 10
115.7944044905535
 20
727.3485191510956
 30
0.0
 10
115.6851918680561
 20
727.398999447517
 30
0.0
 10
115.578188058817
 20
727.4463258098308
 30
0.0
 10
115.4710910967622
 20
727.4915711780837
 30
0.0
 10
115.3915121729212
 20
727.5236937958896
 30
0.0
 10
115.3241980645454
 20
727.5499614509007
 30
0.0
 10
115.2816934188957
 20
727.566182653612
 30
0.0
 10
115.2437101673124
 20
727.5803692493995
 30
0.0
 10
115.1916249461396
 20
727.599403214796
 30
0.0
 10
115.1295104298583
 20
727.6213122550798
 30
0.0
 10
115.0592029302888
 20
727.6449884407994
 30
0.0
 10
114.9714215110822
 20
727.6731642975581
 30
0.0
 10
114.8956835974247
 20
727.695601243965
 30
0.0
 10
114.8346051279578
 20
727.7124366931504
 30
0.0
 10
114.7964862668688
 20
727.72239324371
 30
0.0
 10
114.767009591476
 20
727.7296529306511
 30
0.0
 10
114.7521687499125
 20
727.733117929659
 30
0.0
 10
114.7430080586948
 20
727.7351368866184
 30
0.0
 10
114.7468000563815
 20
727.7343472937114
 30
0.0
 10
114.728175826547
 20
727.7382716095265
 30
0.0
 10
114.7458123170233
 20
727.7345035271782
 30
0.0
 10
114.74537150621
 20
727.7346363515046
 30
0.0
 10
114.7531407597396
 20
727.7330662770838
 30
0.0
 10
114.7632046102327
 20
727.7311497425624
 30
0.0
 10
114.7776513648633
 20
727.7284685415375
 30
0.0
 10
114.8019953108783
 20
727.7241151661074
 30
0.0
 10
114.8527090655195
 20
727.7154846578758
 30
0.0
 10
114.9635521873859
 20
727.6982972761639
 30
0.0
 10
115.1652724487525
 20
727.6712403620553
 30
0.0
 10
115.4869429112333
 20
727.6355086512923
 30
0.0
 10
115.9097906312397
 20
727.5984267150526
 30
0.0
 10
116.3613808116752
 20
727.5688459598188
 30
0.0
 10
116.7290730592917
 20
727.5505318676619
 30
0.0
 10
117.0070727790119
 20
727.5393579772933
 30
0.0
 10
117.2096602281968
 20
727.5327167232812
 30
0.0
 10
117.37259882492
 20
727.5282506920305
 30
0.0
 10
117.5309999768755
 20
727.524465602357
 30
0.0
 10
117.6975177905661
 20
727.5213339112955
 30
0.0
 10
117.9038990594264
 20
727.5183818277205
 30
0.0
 10
118.0886084222749
 20
727.5167069918535
 30
0.0
 10
118.3180393477101
 20
727.516154403751
 30
0.0
 10
118.5796977179415
 20
727.5162009413496
 30
0.0
 10
118.8844602350816
 20
727.5161731372515
 30
0.0
 10
119.2223173002102
 20
727.5161702914426
 30
0.0
 10
120.0545158314177
 20
727.5161455955943
 30
0.0
 10
121.3816511617932
 20
727.5161137915715
 30
0.0
 10
123.5066705349789
 20
727.5160567529132
 30
0.0
 10
125.9353534935485
 20
727.5159932508801
 30
0.0
 10
129.1218390173989
 20
727.5159104807891
 30
0.0
 10
132.7619967912478
 20
727.5158201207275
 30
0.0
 10
137.3224606120399
 20
727.5157166649839
 30
0.0
 10
142.3458426951871
 20
727.5156244923854
 30
0.0
 10
146.0050231241194
 20
727.5155734923454
 30
0.0
 10
147.8331705105921
 20
727.515561650224
 30
0.0
  0
SPLINE
  5
80
330
7B
100
AcDbEntity
  8
0
  6
Continuous
 62
     0
370
    30
100
AcDbSpline
210
0.0
220
0.0
230
1.0
 70
     8
 71
     3
 72
    45
 73
    41
 74
     0
 42
0.000000001
 43
0.0
 40
17.62569973788113
 40
17.62569973788113
 40
17.62569973788113
 40
17.62569973788113
 40
17.68535586719595
 40
17.81476896786082
 40
17.94600766561583
 40
18.0791532828408
 40
18.35143479158528
 40
18.57545372527555
 40
18.92223639376402
 40
19.04082857566002
 40
19.28273762935064
 40
19.53099691839502
 40
19.91595777114588
 40
20.31643424912366
 40
20.8213013515759
 40
21.08263133913307
 40
21.63458500308925
 40
21.91778877002034
 40
22.05889887182974
 40
22.4804677529445
 40
22.61278253405677
 40
22.74457958576515
 40
22.87535266820858
 40
23.00838600977126
 40
23.27359796768466
 40
23.52973857318082
 40
23.66457017944409
 40
23.81415052404986
 40
23.97924651785914
 40
24.1474376413564
 40
24.48374914863525
 40
24.82010794189276
 40
26.64127598675411
 40
28.46346050193053
 40
31.19490852197906
 40
33.9269911973636
 40
38.02249570864883
 40
42.11498970584438
 40
47.68100327987752
 40
53.2381169754764
 40
53.2381169754764
 40
53.2381169754764
 40
53.2381169754764
 10
114.7502030713914
 20
709.2960706502906
 30
0.0
 10
114.7502038811094
 20
709.2960667323475
 30
0.0
 10
114.7473682480098
 20
709.2954647979407
 30
0.0
 10
114.7585137283921
 20
709.2976836068491
 30
0.0
 10
114.7692046893096
 20
709.2996802497225
 30
0.0
 10
114.7906845226822
 20
709.3036118193128
 30
0.0
 10
114.8235547807937
 20
709.3093220152628
 30
0.0
 10
114.8818785908607
 20
709.3188047090418
 30
0.0
 10
114.9427045705033
 20
709.3279842934288
 30
0.0
 10
115.0161057085031
 20
709.3383240177292
 30
0.0
 10
115.0866202672995
 20
709.3477787587606
 30
0.0
 10
115.2019486206952
 20
709.3621818184206
 30
0.0
 10
115.3593663000224
 20
709.380092294133
 30
0.0
 10
115.5873027931292
 20
709.4029732109746
 30
0.0
 10
115.8245952287683
 20
709.4233744872691
 30
0.0
 10
116.1201864359043
 20
709.445257108379
 30
0.0
 10
116.3891685460743
 20
709.462062133593
 30
0.0
 10
116.6472746566778
 20
709.4751221893398
 30
0.0
 10
116.8784832758523
 20
709.4854827082645
 30
0.0
 10
117.076339361984
 20
709.4928909605338
 30
0.0
 10
117.2782137028066
 20
709.4989684431207
 30
0.0
 10
117.3961904962996
 20
709.502122991002
 30
0.0
 10
117.5145981019361
 20
709.5048687558567
 30
0.0
 10
117.6786486184228
 20
709.5081149315744
 30
0.0
 10
117.8846937975716
 20
709.5112966461236
 30
0.0
 10
118.0888733207299
 20
709.5129984813182
 30
0.0
 10
118.2647744828885
 20
709.5135096028406
 30
0.0
 10
118.4142804048878
 20
709.5135995693344
 30
0.0
 10
118.5753111280656
 20
709.5135880737569
 30
0.0
 10
118.7984848743837
 20
709.513597933179
 30
0.0
 10
119.0787845502978
 20
709.5136015338713
 30
0.0
 10
119.9100557655502
 20
709.5136211791713
 30
0.0
 10
121.2366334701662
 20
709.5136488749299
 30
0.0
 10
123.3615640374007
 20
709.5136965951094
 30
0.0
 10
125.7901369176766
 20
709.5137503614576
 30
0.0
 10
128.9764816034844
 20
709.5138200699811
 30
0.0
 10
132.6165088118608
 20
709.5138957422972
 30
0.0
 10
137.201179457089
 20
709.5139813071877
 30
0.0
 10
142.2730532295636
 20
709.5140543402259
 30
0.0
 10
145.9807623149164
 20
709.5140903679994
 30
0.0
 10
147.8331335467761
 20
709.5140951802156
 30
0.0
  0
LINE
  5
81
330
7B
100
AcDbEntity
  8
0
  6
Continuous
 62
     0
370
    30
100
AcDbLine
 10
523.83313
 20
718.516225
 30
0.0
 11
523.833128
 21
727.517053
 31
0.0
  0
SPLINE
  5
82
330
7B
100
AcDbEntity
  8
0
  6
Continuous
 62
     0
370
    30
100
AcDbSpline
210
0.0
220
0.0
230
1.0
 70
     8
 71
     7
 72
    71
 73
    63
 74
     0
 42
0.000000001
 43
0.0
 40
0.0
 40
0.0
 40
0.0
 40
0.0
 40
0.0
 40
0.0
 40
0.0
 40
0.0
 40
0.18
 40
0.18
 40
0.18
 40
0.18
 40
0.18
 40
0.207136
 40
0.207136
 40
0.207136
 40
0.207136
 40
0.207136
 40
0.2312
 40
0.2312
 40
0.2312
 40
0.2312
 40
0.2312
 40
0.354848
 40
0.354848
 40
0.354848
 40
0.354848
 40
0.354848
 40
0.42161792
 40
0.42161792
 40
0.42161792
 40
0.42161792
 40
0.42161792
 40
0.4976195072
 40
0.4976195072
 40
0.4976195072
 40
0.4976195072
 40
0.4976195072
 40
0.4999999254134589
 40
0.4999999254134589
 40
0.4999999254134589
 40
0.4999999254134589
 40
0.4999999254134589
 40
0.645152
 40
0.645152
 40
0.645152
 40
0.645152
 40
0.645152
 40
0.7688
 40
0.7688
 40
0.7688
 40
0.7688
 40
0.7688
 40
0.792864
 40
0.792864
 40
0.792864
 40
0.792864
 40
0.792864
 40
0.82
 40
0.82
 40
0.82
 40
0.82
 40
0.82
 40
0.8229515128059042
 40
0.8229515128059042
 40
0.8229515128059042
 40
0.8229515128059042
 40
0.8229515128059042
 40
0.8229515128059042
 40
0.8229515128059042
 40
0.8229515128059042
 10
570.333130481042
 20
718.5170527973527
 30
0.0
 10
570.3331308377115
 20
717.2096098398866
 30
0.0
 10
570.3331311943807
 20
715.9021668824206
 30
0.0
 10
570.3331315510413
 20
714.5947239456199
 30
0.0
 10
570.3331319077133
 20
713.2872810389902
 30
0.0
 10
570.3331322644221
 20
711.9798381631106
 30
0.0
 10
570.3331326748164
 20
710.4752910384669
 30
0.0
 10
570.3331330850722
 20
708.970743932432
 30
0.0
 10
570.3325230027426
 20
708.7736463281178
 30
0.0
 10
570.3345794497789
 20
708.5765206193798
 30
0.0
 10
570.3317644281781
 20
708.3794432583464
 30
0.0
 10
570.3354962631645
 20
708.0075185477366
 30
0.0
 10
570.3293227909721
 20
707.6356667854894
 30
0.0
 10
570.3185855387661
 20
707.4609736635787
 30
0.0
 10
570.308542883304
 20
707.2865444637628
 30
0.0
 10
570.2923599108744
 20
707.1123826258972
 30
0.0
 10
570.1735710223445
 20
706.0458171526241
 30
0.0
 10
569.9156832820337
 20
704.9977514757264
 30
0.0
 10
569.6064641528683
 20
704.1445953334089
 30
0.0
 10
569.1924674417398
 20
703.3367123637554
 30
0.0
 10
568.7046730286951
 20
702.5724573222861
 30
0.0
 10
567.8263434841291
 20
701.4929112077336
 30
0.0
 10
566.7809820082107
 20
700.5834189905881
 30
0.0
 10
566.3956899806694
 20
700.2865648600118
 30
0.0
 10
565.993748567817
 20
700.0127239076832
 30
0.0
 10
565.5767267062766
 20
699.7623545677188
 30
0.0
 10
564.6553801464295
 20
699.2822347480171
 30
0.0
 10
563.6792424260339
 20
698.9248779005864
 30
0.0
 10
563.1469273646617
 20
698.7695446373691
 30
0.0
 10
562.6054945303372
 20
698.6548692785877
 30
0.0
 10
562.0576690851667
 20
698.5706033975467
 30
0.0
 10
561.4888982369721
 20
698.5236102790792
 30
0.0
 10
560.9195969272557
 20
698.5174268268673
 30
0.0
 10
560.9023071672889
 20
698.5172766328369
 30
0.0
 10
560.885017109108
 20
698.5171639891181
 30
0.0
 10
560.8677268479132
 20
698.5170888531954
 30
0.0
 10
559.7961120974521
 20
698.5147541893896
 30
0.0
 10
558.7244467174919
 20
698.6561814284181
 30
0.0
 10
557.691523600528
 20
698.9253540515931
 30
0.0
 10
556.6990591549823
 20
699.3306245060842
 30
0.0
 10
555.7742101963254
 20
699.8634714535046
 30
0.0
 10
554.2014834562642
 20
701.0485240577052
 30
0.0
 10
552.9616018751741
 20
702.5724452074279
 30
0.0
 10
552.473806075227
 20
703.3367001753251
 30
0.0
 10
552.0598077571084
 20
704.1445830764292
 30
0.0
 10
551.7505872352008
 20
704.9977395146929
 30
0.0
 10
551.4926979957486
 20
706.0458057257244
 30
0.0
 10
551.3739078001638
 20
707.1123719271667
 30
0.0
 10
551.3577246246375
 20
707.2865338881124
 30
0.0
 10
551.3476817300805
 20
707.4609632176482
 30
0.0
 10
551.3369443641654
 20
707.6356564694983
 30
0.0
 10
551.3307703385594
 20
708.0075085258627
 30
0.0
 10
551.3345020699405
 20
708.3794335400121
 30
0.0
 10
551.3316869789978
 20
708.5765110569081
 30
0.0
 10
551.3337432466947
 20
708.7736369257104
 30
0.0
 10
551.3331330854758
 20
708.9707346871268
 30
0.0
 10
551.3331330258308
 20
709.1892776559936
 30
0.0
 10
551.3331329661886
 20
709.4078206244678
 30
0.0
 10
551.3331329603379
 20
709.4292591652385
 30
0.0
 10
551.3331329544873
 20
709.4506977060053
 30
0.0
 10
551.3331329486366
 20
709.4721362467681
 30
0.0
 10
551.3331329427859
 20
709.4935747875269
 30
0.0
 10
551.3331329369353
 20
709.5150133282817
 30
0.0
  0
SPLINE
  5
83
330
7B
100
AcDbEntity
  8
0
  6
Continuous
 62
     0
370
    30
100
AcDbSpline
210
0.0
220
0.0
230
1.0
 70
     8
 71
     7
 72
    71
 73
    63
 74
     0
 42
0.000000001
 43
0.0
 40
0.1770177221907558
 40
0.1770177221907558
 40
0.1770177221907558
 40
0.1770177221907558
 40
0.1770177221907558
 40
0.1770177221907558
 40
0.1770177221907558
 40
0.1770177221907558
 40
0.18
 40
0.18
 40
0.18
 40
0.18
 40
0.18
 40
0.207136
 40
0.207136
 40
0.207136
 40
0.207136
 40
0.207136
 40
0.2312
 40
0.2312
 40
0.2312
 40
0.2312
 40
0.2312
 40
0.354848
 40
0.354848
 40
0.354848
 40
0.354848
 40
0.354848
 40
0.500000074586541
 40
0.500000074586541
 40
0.500000074586541
 40
0.500000074586541
 40
0.500000074586541
 40
0.5023804928
 40
0.5023804928
 40
0.5023804928
 40
0.5023804928
 40
0.5023804928
 40
0.57838208
 40
0.57838208
 40
0.57838208
 40
0.57838208
 40
0.57838208
 40
0.645152
 40
0.645152
 40
0.645152
 40
0.645152
 40
0.645152
 40
0.7688
 40
0.7688
 40
0.7688
 40
0.7688
 40
0.7688
 40
0.792864
 40
0.792864
 40
0.792864
 40
0.792864
 40
0.792864
 40
0.82
 40
0.82
 40
0.82
 40
0.82
 40
0.82
 40
1.0
 40
1.0
 40
1.0
 40
1.0
 40
1.0
 40
1.0
 40
1.0
 40
1.0
 10
551.3331304811802
 20
727.5175228366418
 30
0.0
 10
551.3331304811824
 20
727.5391848413728
 30
0.0
 10
551.3331304811845
 20
727.560846846108
 30
0.0
 10
551.3331304811868
 20
727.5825088508471
 30
0.0
 10
551.3331304811891
 20
727.6041708555904
 30
0.0
 10
551.3331304811913
 20
727.6258328603375
 30
0.0
 10
551.333130481215
 20
727.8445992928196
 30
0.0
 10
551.3331304812416
 20
728.0633657256951
 30
0.0
 10
551.3337405886923
 20
728.2604634873096
 30
0.0
 10
551.3316842672195
 20
728.4575893555827
 30
0.0
 10
551.3344993043995
 20
728.6546668732785
 30
0.0
 10
551.3307674715574
 20
729.0265918864695
 30
0.0
 10
551.3369413957222
 20
729.3984439445782
 30
0.0
 10
551.3476787139809
 20
729.5731371993857
 30
0.0
 10
551.3577215609535
 20
729.7475665316892
 30
0.0
 10
551.3739046889684
 20
729.921728497078
 30
0.0
 10
551.492694593594
 20
730.9882947310991
 30
0.0
 10
551.750583547134
 20
732.0363610126545
 30
0.0
 10
552.0598038363005
 20
732.8895175354145
 30
0.0
 10
552.4738019340286
 20
733.697400549592
 30
0.0
 10
552.9615975254872
 20
734.4616556506885
 30
0.0
 10
554.2014786908517
 20
735.9855771389103
 30
0.0
 10
555.7742051076305
 20
737.1706301723597
 30
0.0
 10
556.6990539209266
 20
737.7034773721753
 30
0.0
 10
557.6915182559145
 20
738.1087480974874
 30
0.0
 10
558.7244412994482
 20
738.377921002499
 30
0.0
 10
559.796106640827
 20
738.5193485339131
 30
0.0
 10
560.867721391925
 20
738.5170141624558
 30
0.0
 10
560.8850116531404
 20
738.5169390312501
 30
0.0
 10
560.9023017113518
 20
738.5168263922482
 30
0.0
 10
560.9195914713596
 20
738.5166762029345
 30
0.0
 10
561.488892782763
 20
738.5104929060336
 30
0.0
 10
562.0576636437771
 20
738.4634999427259
 30
0.0
 10
562.6054891119354
 20
738.3792342111244
 30
0.0
 10
563.1469219775433
 20
738.2645590000337
 30
0.0
 10
563.6792370812905
 20
738.1092258820131
 30
0.0
 10
564.655374899173
 20
737.7518693008266
 30
0.0
 10
565.5767215899966
 20
737.2717497324015
 30
0.0
 10
565.9937435198378
 20
737.0213805061654
 30
0.0
 10
566.3956850073939
 20
736.747539663447
 30
0.0
 10
566.780977115917
 20
736.4506856379351
 30
0.0
 10
567.8263388399448
 20
735.5411937058299
 30
0.0
 10
568.7046686790109
 20
734.4616478307223
 30
0.0
 10
569.1924633005443
 20
733.697392922206
 30
0.0
 10
569.606460232063
 20
732.8895100653655
 30
0.0
 10
569.9156795939693
 20
732.0363540072692
 30
0.0
 10
570.1735676201922
 20
730.9882884005578
 30
0.0
 10
570.2923567996813
 20
729.92172295952
 30
0.0
 10
570.3085398196223
 20
729.7475611260414
 30
0.0
 10
570.3185825226686
 20
729.5731319289372
 30
0.0
 10
570.3293198225308
 20
729.3984388099277
 30
0.0
 10
570.3354933961643
 20
729.0265870493048
 30
0.0
 10
570.3317616626391
 20
728.6546623376171
 30
0.0
 10
570.3345767380026
 20
728.4575849773198
 30
0.0
 10
570.3325203447421
 20
728.2604592679893
 30
0.0
 10
570.3331304808398
 20
728.0633616638097
 30
0.0
 10
570.3331304810246
 20
726.5588145575326
 30
0.0
 10
570.3331304810705
 20
725.0542674326468
 30
0.0
 10
570.333130481032
 20
723.7468245565567
 30
0.0
 10
570.3331304810304
 20
722.4393816497167
 30
0.0
 10
570.3331304810401
 20
721.1319387127055
 30
0.0
 10
570.333130481041
 20
719.824495755029
 30
0.0
 10
570.333130481042
 20
718.5170527973527
 30
0.0
  0
SPLINE
  5
84
330
7B
100
AcDbEntity
  8
0
  6
Continuous
 62
     0
370
    30
100
AcDbSpline
210
0.0
220
0.0
230
1.0
 70
     8
 71
     3
 72
    45
 73
    41
 74
     0
 42
0.000000001
 43
0.0
 40
17.62569964366005
 40
17.62569964366005
 40
17.62569964366005
 40
17.62569964366005
 40
17.68535586745348
 40
17.81476896814409
 40
17.94600766592438
 40
18.07915328317492
 40
18.35143479197418
 40
18.57545372567424
 40
18.9222363941783
 40
19.04082857607968
 40
19.28273762978132
 40
19.530996918837
 40
19.91595777160498
 40
20.31643424959987
 40
20.82130135206753
 40
21.08263133963193
 40
21.63458500360092
 40
21.91778877053812
 40
22.05889887235067
 40
22.48046775347541
 40
22.61278253458659
 40
22.74457958629362
 40
22.87535266874799
 40
23.00838601032878
 40
23.27359796822304
 40
23.52973857372919
 40
23.66457018006667
 40
23.81415052478743
 40
23.97924651866809
 40
24.14743764216683
 40
24.48374914945639
 40
24.82010794272462
 40
26.64127598758659
 40
28.46346050276354
 40
31.19490852281283
 40
33.92699119819773
 40
38.02249570948432
 40
42.11498970668067
 40
47.68100328015892
 40
53.23811697520477
 40
53.23811697520477
 40
53.23811697520477
 40
53.23811697520477
 10
556.9160578912667
 20
727.7350820875182
 30
0.0
 10
556.9160570786712
 20
727.7350860048704
 30
0.0
 10
556.9188927176226
 20
727.7356879404779
 30
0.0
 10
556.9077472341194
 20
727.7334691309496
 30
0.0
 10
556.897056273126
 20
727.7314724880612
 30
0.0
 10
556.8755764397495
 20
727.7275409184713
 30
0.0
 10
556.8427061815968
 20
727.7218307225148
 30
0.0
 10
556.7843823714896
 20
727.712348028731
 30
0.0
 10
556.7235563918123
 20
727.7031684443403
 30
0.0
 10
556.6501552537765
 20
727.6928287200369
 30
0.0
 10
556.5796406949489
 20
727.6833739790032
 30
0.0
 10
556.4643123415078
 20
727.6689709193406
 30
0.0
 10
556.3068946621263
 20
727.6510604436261
 30
0.0
 10
556.0789581689528
 20
727.6281795267834
 30
0.0
 10
555.8416657332555
 20
727.6077782504893
 30
0.0
 10
555.5460745260582
 20
727.5858956293816
 30
0.0
 10
555.2770924158399
 20
727.5690906041706
 30
0.0
 10
555.0189863051969
 20
727.5560305484273
 30
0.0
 10
554.7877776859898
 20
727.5456700295061
 30
0.0
 10
554.5899215998306
 20
727.5382617772399
 30
0.0
 10
554.3880472589929
 20
727.5321842946568
 30
0.0
 10
554.2700704654933
 20
727.5290297467777
 30
0.0
 10
554.1516628598292
 20
727.5262839819251
 30
0.0
 10
553.9876123433135
 20
727.52303780621
 30
0.0
 10
553.7815671641745
 20
727.5198560916646
 30
0.0
 10
553.5773876409805
 20
727.518154256475
 30
0.0
 10
553.4014864787209
 20
727.5176431349556
 30
0.0
 10
553.2519805566253
 20
727.5175531684633
 30
0.0
 10
553.0909498333867
 20
727.5175646640408
 30
0.0
 10
552.8677760870402
 20
727.5175548046187
 30
0.0
 10
552.5874764111186
 20
727.5175512039262
 30
0.0
 10
551.7562051958589
 20
727.5175315586264
 30
0.0
 10
550.429627491239
 20
727.5175038628677
 30
0.0
 10
548.3046969240037
 20
727.5174561426883
 30
0.0
 10
545.8761240437273
 20
727.51740237634
 30
0.0
 10
542.6897793579186
 20
727.5173326678166
 30
0.0
 10
539.0497521495414
 20
727.5172569955004
 30
0.0
 10
534.4650815044977
 20
727.51717143061
 30
0.0
 10
529.3932077323918
 20
727.5170983975718
 30
0.0
 10
525.6854986474084
 20
727.5170623697983
 30
0.0
 10
523.8331274157331
 20
727.517057557582
 30
0.0
  0
SPLINE
  5
85
330
7B
100
AcDbEntity
  8
0
  6
Continuous
 62
     0
370
    30
100
AcDbSpline
210
0.0
220
0.0
230
1.0
 70
     8
 71
     3
 72
    72
 73
    68
 74
     0
 42
0.000000001
 43
0.0
 40
11.94644638552849
 40
11.94644638552849
 40
11.94644638552849
 40
11.94644638552849
 40
12.01676395909717
 40
12.19257971939104
 40
12.36712063871766
 40
12.54020539356342
 40
12.71186557214319
 40
12.88239354689807
 40
13.05173202376916
 40
13.0854865927297
 40
13.21431617154053
 40
13.36141886784113
 40
13.46010095256411
 40
13.65897326732645
 40
13.85997727593254
 40
14.0633150887979
 40
14.26921769075987
 40
14.47763652136171
 40
14.69017411961613
 40
14.78374283051506
 40
14.88138920570755
 40
14.98360905733224
 40
15.08659997688816
 40
15.29501504878479
 40
15.50681559735283
 40
15.72231558847554
 40
16.16527099748006
 40
16.39334940959533
 40
16.6262840455543
 40
16.86442772497264
 40
17.1081689732941
 40
17.23226548449784
 40
17.35792098995891
 40
17.47518993183402
 40
17.54931533969394
 40
17.61401363318903
 40
17.74476119072609
 40
17.87737773653359
 40
18.01192155909396
 40
18.14847921340749
 40
18.42792032465478
 40
18.88429938178317
 40
19.48875420360034
 40
20.13417810519347
 40
20.91131910529032
 40
21.58474333639801
 40
22.01128095615642
 40
22.29404870797958
 40
22.57570771455638
 40
22.7083302628196
 40
22.83954114685158
 40
23.10715457622469
 40
23.23971165791914
 40
23.49706143461291
 40
23.70217888819722
 40
23.94183884349404
 40
24.27966082017267
 40
24.61737835957016
 40
24.95514288054271
 40
26.77640223841073
 40
28.59865609085843
 40
31.33025329489831
 40
34.06243089634803
 40
38.15811941950114
 40
42.25072400637266
 40
47.74382320850611
 40
53.22826536788661
 40
53.22826536788661
 40
53.22826536788661
 40
53.22826536788661
 10
555.529715429032
 20
709.85230451223
 30
0.0
 10
555.5297157610562
 20
709.8523050286888
 30
0.0
 10
555.5293905149176
 20
709.8525166808911
 30
0.0
 10
555.5270537395934
 20
709.8539952559802
 30
0.0
 10
555.5198681284871
 20
709.8584159902215
 30
0.0
 10
555.5078408307777
 20
709.8656887303445
 30
0.0
 10
555.4804850386535
 20
709.8818004380953
 30
0.0
 10
555.4696757090907
 20
709.8880890171517
 30
0.0
 10
555.4164818378339
 20
709.9182066346401
 30
0.0
 10
555.4535713741375
 20
709.8974076599977
 30
0.0
 10
555.5145003588951
 20
709.8638530440268
 30
0.0
 10
555.5849798499469
 20
709.8262444309132
 30
0.0
 10
555.6688041753089
 20
709.7826241843331
 30
0.0
 10
555.7615652886172
 20
709.7358864721704
 30
0.0
 10
555.8718564719477
 20
709.6826335867058
 30
0.0
 10
555.9810690944457
 20
709.632153290284
 30
0.0
 10
556.0880729036833
 20
709.5848269279708
 30
0.0
 10
556.1951698657361
 20
709.5395815597184
 30
0.0
 10
556.2747487895771
 20
709.5074589419124
 30
0.0
 10
556.3420628979543
 20
709.4811912869006
 30
0.0
 10
556.3845675436083
 20
709.4649700841875
 30
0.0
 10
556.4225507951923
 20
709.4507834883999
 30
0.0
 10
556.4746360163679
 20
709.4317495230023
 30
0.0
 10
556.5367505326531
 20
709.4098404827172
 30
0.0
 10
556.607058032224
 20
709.386164296997
 30
0.0
 10
556.6948394514352
 20
709.357988440237
 30
0.0
 10
556.7705773650952
 20
709.3355514938296
 30
0.0
 10
556.831655834563
 20
709.3187160446441
 30
0.0
 10
556.8697746956493
 20
709.3087594940853
 30
0.0
 10
556.899251371047
 20
709.3014998071435
 30
0.0
 10
556.9140922125879
 20
709.2980348081403
 30
0.0
 10
556.9232529038445
 20
709.2960158511729
 30
0.0
 10
556.9194609060316
 20
709.2968054441061
 30
0.0
 10
556.9380851362394
 20
709.2928811282138
 30
0.0
 10
556.920448645436
 20
709.2966492106298
 30
0.0
 10
556.9208894563196
 20
709.2965163862889
 30
0.0
 10
556.913120202752
 20
709.2980864607174
 30
0.0
 10
556.9030563522658
 20
709.3000029952373
 30
0.0
 10
556.8886095976261
 20
709.3026841962637
 30
0.0
 10
556.8642656516054
 20
709.3070375716948
 30
0.0
 10
556.8135518969509
 20
709.3156680799282
 30
0.0
 10
556.702708775066
 20
709.3328554616421
 30
0.0
 10
556.5009885136747
 20
709.3599123757524
 30
0.0
 10
556.179318051165
 20
709.3956440865164
 30
0.0
 10
555.7564703311294
 20
709.4327260227559
 30
0.0
 10
555.3048801506704
 20
709.4623067779885
 30
0.0
 10
554.9371879030384
 20
709.4806208701439
 30
0.0
 10
554.6591881833083
 20
709.4917947605113
 30
0.0
 10
554.4566007341159
 20
709.4984360145224
 30
0.0
 10
554.2936621373904
 20
709.5029020457722
 30
0.0
 10
554.1352609854284
 20
709.5066871354448
 30
0.0
 10
553.9687431717298
 20
709.5098188265058
 30
0.0
 10
553.7623619028714
 20
709.5127709100796
 30
0.0
 10
553.5776525400117
 20
709.5144457459454
 30
0.0
 10
553.3482216145386
 20
709.5149983340468
 30
0.0
 10
553.0865632442831
 20
709.514951796448
 30
0.0
 10
552.7818007271273
 20
709.5149796005462
 30
0.0
 10
552.4439436619962
 20
709.5149824463551
 30
0.0
 10
551.6117451307864
 20
709.5150071422034
 30
0.0
 10
550.2846098004102
 20
709.5150389462262
 30
0.0
 10
548.1595904272241
 20
709.5150959848845
 30
0.0
 10
545.7309074686543
 20
709.5151594869176
 30
0.0
 10
542.5444219448035
 20
709.5152422570085
 30
0.0
 10
538.9042641709542
 20
709.51533261707
 30
0.0
 10
534.3438003502132
 20
709.5154360728138
 30
0.0
 10
529.3204182671686
 20
709.5155282454123
 30
0.0
 10
525.6612378383387
 20
709.5155792454522
 30
0.0
 10
523.8330904519171
 20
709.5155910875737
 30
0.0
  0
LINE
  5
86
330
7B
100
AcDbEntity
  8
0
  6
Continuous
 62
     0
370
    30
100
AcDbLine
 10
523.83313
 20
709.515576
 30
0.0
 11
523.83313
 21
718.51628
 31
0.0
  0
LINE
  5
87
330
7B
100
AcDbEntity
  8
0
  6
Continuous
 62
     0
370
    30
100
AcDbLine
 10
147.83313
 20
727.515576
 30
0.0
 11
147.83313
 21
718.514873
 31
0.0
  0
LINE
  5
88
330
7B
100
AcDbEntity
  8
0
  6
Continuous
 62
     0
370
    30
100
AcDbLine
 10
523.83313
 20
709.515576
 30
0.0
 11
147.83313
 21
709.515576
 31
0.0
  0
LINE
  5
89
330
7B
100
AcDbEntity
  8
0
  6
Continuous
 62
     0
370
    30
100
AcDbLine
 10
147.83313
 20
727.515576
 30
0.0
 11
523.83313
 21
727.515576
 31
0.0
  0
ENDBLK
  5
8B
330
7B
100
AcDbEntity
  8
0
100
AcDbBlockEnd
  0
BLOCK
  5
99
330
8D
100
AcDbEntity
  8
0
100
AcDbBlockBegin
  2
b
 70
     0
 10
266.172485
 20
519.562164
 30
0.0
  3
b
  1

  0
SPLINE
  5
8E
330
8D
100
AcDbEntity
  8
0
  6
Continuous
 62
     0
370
    30
100
AcDbSpline
210
0.0
220
0.0
230
1.0
 70
     8
 71
     7
 72
    71
 73
    63
 74
     0
 42
0.000000001
 43
0.0
 40
0.1666666666666667
 40
0.1666666666666667
 40
0.1666666666666667
 40
0.1666666666666667
 40
0.1666666666666667
 40
0.1666666666666667
 40
0.1666666666666667
 40
0.1666666666666667
 40
0.18
 40
0.18
 40
0.18
 40
0.18
 40
0.18
 40
0.207136
 40
0.207136
 40
0.207136
 40
0.207136
 40
0.207136
 40
0.2312
 40
0.2312
 40
0.2312
 40
0.2312
 40
0.2312
 40
0.354848
 40
0.354848
 40
0.354848
 40
0.354848
 40
0.354848
 40
0.42161792
 40
0.42161792
 40
0.42161792
 40
0.42161792
 40
0.42161792
 40
0.4976195072
 40
0.4976195072
 40
0.4976195072
 40
0.4976195072
 40
0.4976195072
 40
0.4999999254134589
 40
0.4999999254134589
 40
0.4999999254134589
 40
0.4999999254134589
 40
0.4999999254134589
 40
0.645152
 40
0.645152
 40
0.645152
 40
0.645152
 40
0.645152
 40
0.7688
 40
0.7688
 40
0.7688
 40
0.7688
 40
0.7688
 40
0.792864
 40
0.792864
 40
0.792864
 40
0.792864
 40
0.792864
 40
0.82
 40
0.82
 40
0.82
 40
0.82
 40
0.82
 40
0.8333333333333334
 40
0.8333333333333334
 40
0.8333333333333334
 40
0.8333333333333334
 40
0.8333333333333334
 40
0.8333333333333334
 40
0.8333333333333334
 40
0.8333333333333334
 10
101.3331510579916
 20
586.6562340787417
 30
0.0
 10
101.333151031579
 20
586.656234165062
 30
0.0
 10
101.333151005167
 20
586.6562342513822
 30
0.0
 10
101.3331509787554
 20
586.6562343377025
 30
0.0
 10
101.3331509523444
 20
586.6562344240227
 30
0.0
 10
101.333150925934
 20
586.656234510343
 30
0.0
 10
101.3331508457747
 20
586.6562347723423
 30
0.0
 10
101.3331507656208
 20
586.6562350343415
 30
0.0
 10
101.3337608479503
 20
586.6562352104833
 30
0.0
 10
101.3317044009139
 20
586.6562353846018
 30
0.0
 10
101.3345194225147
 20
586.6562355624192
 30
0.0
 10
101.3307875875284
 20
586.6562358910492
 30
0.0
 10
101.3369610597207
 20
586.6562362272227
 30
0.0
 10
101.3476983119267
 20
586.6562363911744
 30
0.0
 10
101.3577409673888
 20
586.6562365543573
 30
0.0
 10
101.3739239398184
 20
586.6562367220185
 30
0.0
 10
101.4927128283484
 20
586.656237763895
 30
0.0
 10
101.7506005686591
 20
586.6562388961299
 30
0.0
 10
102.0598196978246
 20
586.6562398940716
 30
0.0
 10
102.473816408953
 20
586.6562409321454
 30
0.0
 10
102.9616108219977
 20
586.6562419880205
 30
0.0
 10
103.8399403665637
 20
586.6562436249003
 30
0.0
 10
104.8853018424821
 20
586.6562452385151
 30
0.0
 10
105.2705938700233
 20
586.6562457990594
 30
0.0
 10
105.6725352828758
 20
586.6562463518814
 30
0.0
 10
106.0895571444162
 20
586.6562468953668
 30
0.0
 10
107.0109037042633
 20
586.656248031021
 30
0.0
 10
107.987041424659
 20
586.656249099344
 30
0.0
 10
108.5193564860311
 20
586.6562496466852
 30
0.0
 10
109.0607893203557
 20
586.6562501647918
 30
0.0
 10
109.6086147655262
 20
586.6562506607047
 30
0.0
 10
110.1773856137207
 20
586.6562511394856
 30
0.0
 10
110.7466869234372
 20
586.6562515823002
 30
0.0
 10
110.763976683404
 20
586.656251595715
 30
0.0
 10
110.7812667415847
 20
586.6562516090967
 30
0.0
 10
110.7985570027795
 20
586.6562516224449
 30
0.0
 10
111.8701717532407
 20
586.6562524476763
 30
0.0
 10
112.9418371332009
 20
586.6562531448116
 30
0.0
 10
113.9747602501649
 20
586.6562536983279
 30
0.0
 10
114.9672246957105
 20
586.6562540994623
 30
0.0
 10
115.8920736543674
 20
586.6562543349496
 30
0.0
 10
117.4648003944286
 20
586.656254486787
 30
0.0
 10
118.7046819755187
 20
586.6562540809191
 30
0.0
 10
119.1924777754658
 20
586.6562537744342
 30
0.0
 10
119.6064760935844
 20
586.656253372377
 30
0.0
 10
119.915696615492
 20
586.6562528494834
 30
0.0
 10
120.1735858549443
 20
586.6562521134371
 30
0.0
 10
120.2923760505291
 20
586.656251254054
 30
0.0
 10
120.3085592260554
 20
586.6562511112545
 30
0.0
 10
120.3186021206123
 20
586.6562509635
 30
0.0
 10
120.3293394865273
 20
586.6562508160437
 30
0.0
 10
120.3355135121334
 20
586.6562504893544
 30
0.0
 10
120.3317817807524
 20
586.6562501549912
 30
0.0
 10
120.3345968716949
 20
586.6562499814984
 30
0.0
 10
120.3325406039982
 20
586.6562498042206
 30
0.0
 10
120.3331507652171
 20
586.656249629016
 30
0.0
 10
120.3331508454429
 20
586.6562493670165
 30
0.0
 10
120.3331509256634
 20
586.656249105017
 30
0.0
 10
120.3331509520929
 20
586.6562490186967
 30
0.0
 10
120.3331509785218
 20
586.6562489323765
 30
0.0
 10
120.3331510049502
 20
586.6562488460561
 30
0.0
 10
120.3331510313781
 20
586.6562487597357
 30
0.0
 10
120.3331510578055
 20
586.6562486734153
 30
0.0
  0
SPLINE
  5
8F
330
8D
100
AcDbEntity
  8
0
  6
Continuous
 62
     0
370
    30
100
AcDbSpline
210
0.0
220
0.0
230
1.0
 70
     8
 71
     7
 72
   116
 73
   108
 74
     0
 42
0.000000001
 43
0.0
 40
0.0
 40
0.0
 40
0.0
 40
0.0
 40
0.0
 40
0.0
 40
0.0
 40
0.0
 40
0.4723920000000001
 40
0.4723920000000001
 40
0.4723920000000001
 40
0.4723920000000001
 40
0.4723920000000001
 40
0.5474578511451744
 40
0.5474578511451744
 40
0.5474578511451744
 40
0.5474578511451744
 40
0.5474578511451744
 40
0.5510656800000002
 40
0.5510656800000002
 40
0.5510656800000002
 40
0.5510656800000002
 40
0.5510656800000002
 40
0.5546004552000001
 40
0.5546004552000001
 40
0.5546004552000001
 40
0.5546004552000001
 40
0.5546004552000001
 40
0.5581352304000002
 40
0.5581352304000002
 40
0.5581352304000002
 40
0.5581352304000002
 40
0.5581352304000002
 40
0.5832000000000002
 40
0.5832000000000002
 40
0.5832000000000002
 40
0.5832000000000002
 40
0.5832000000000002
 40
0.6091372800000001
 40
0.6091372800000001
 40
0.6091372800000001
 40
0.6091372800000001
 40
0.6091372800000001
 40
0.6160320000000001
 40
0.6160320000000001
 40
0.6160320000000001
 40
0.6160320000000001
 40
0.6160320000000001
 40
0.6220205568000001
 40
0.6220205568000001
 40
0.6220205568000001
 40
0.6220205568000001
 40
0.6220205568000001
 40
0.6280091136000001
 40
0.6280091136000001
 40
0.6280091136000001
 40
0.6280091136000001
 40
0.6280091136000001
 40
0.6347462400000001
 40
0.6347462400000001
 40
0.6347462400000001
 40
0.6347462400000001
 40
0.6347462400000001
 40
0.6508254401510402
 40
0.6508254401510402
 40
0.6508254401510402
 40
0.6508254401510402
 40
0.6508254401510402
 40
0.6520357025280001
 40
0.6520357025280001
 40
0.6520357025280001
 40
0.6520357025280001
 40
0.6520357025280001
 40
0.6569122176000002
 40
0.6569122176000002
 40
0.6569122176000002
 40
0.6569122176000002
 40
0.6569122176000002
 40
0.7061206878720001
 40
0.7061206878720001
 40
0.7061206878720001
 40
0.7061206878720001
 40
0.7061206878720001
 40
0.7200000000000001
 40
0.7200000000000001
 40
0.7200000000000001
 40
0.7200000000000001
 40
0.7200000000000001
 40
0.7604838
 40
0.7604838
 40
0.7604838
 40
0.7604838
 40
0.7604838
 40
0.7636272480000001
 40
0.7636272480000001
 40
0.7636272480000001
 40
0.7636272480000001
 40
0.7636272480000001
 40
0.7676280000000001
 40
0.7676280000000001
 40
0.7676280000000001
 40
0.7676280000000001
 40
0.7676280000000001
 40
0.7788000000000002
 40
0.7788000000000002
 40
0.7788000000000002
 40
0.7788000000000002
 40
0.7788000000000002
 40
0.9609692269247103
 40
0.9609692269247103
 40
0.9609692269247103
 40
0.9609692269247103
 40
0.9609692269247103
 40
0.9609692269247103
 40
0.9609692269247103
 40
0.9609692269247103
 10
120.3331533696509
 20
586.656226525718
 30
0.0
 10
120.2715188783168
 20
579.2600875532826
 30
0.0
 10
120.2098843869828
 20
571.8639485808473
 30
0.0
 10
120.1449806009718
 20
564.0754942465134
 30
0.0
 10
120.077836692886
 20
556.0182252627641
 30
0.0
 10
120.0116555270133
 20
548.0764853447754
 30
0.0
 10
119.9398420217616
 20
539.4588647001749
 30
0.0
 10
119.8752682204129
 20
531.7100085253874
 30
0.0
 10
119.8665548791126
 20
530.6644075675981
 30
0.0
 10
119.8579857642615
 20
529.6361137837475
 30
0.0
 10
119.8495627348784
 20
528.6253502560903
 30
0.0
 10
119.840888086589
 20
527.5843924596153
 30
0.0
 10
119.8323719620448
 20
526.5624575126069
 30
0.0
 10
119.8319817615524
 20
526.5156334534402
 30
0.0
 10
119.8315918940056
 20
526.4688493477505
 30
0.0
 10
119.8312023591762
 20
526.4221051681488
 30
0.0
 10
119.8304318352958
 20
526.3296423023482
 30
0.0
 10
119.8296626135592
 20
526.2373356938024
 30
0.0
 10
119.8292822551192
 20
526.1916926809283
 30
0.0
 10
119.8289022151125
 20
526.1460878800355
 30
0.0
 10
119.8285224932858
 20
526.1005212607612
 30
0.0
 10
119.827763685468
 20
526.0094643224795
 30
0.0
 10
119.8270061482348
 20
525.9185598543387
 30
0.0
 10
119.826878772193
 20
525.8731439928193
 30
0.0
 10
119.8257242274219
 20
525.8277732107119
 30
0.0
 10
119.8262443292721
 20
525.7824289325342
 30
0.0
 10
119.8197636930986
 20
525.4159340927713
 30
0.0
 10
119.8445947623897
 20
525.0517000768847
 30
0.0
 10
119.8899078052667
 20
524.7363708564305
 30
0.0
 10
119.9580397606019
 20
524.426962699851
 30
0.0
 10
120.0480561437454
 20
524.1253620627325
 30
0.0
 10
120.2735107828307
 20
523.53104713781
 30
0.0
 10
120.5798969939495
 20
522.9825602962608
 30
0.0
 10
120.7539719369352
 20
522.7183125260044
 30
0.0
 10
120.9514437524743
 20
522.4644216971126
 30
0.0
 10
121.1569059327288
 20
522.2344167326931
 30
0.0
 10
121.4422424474757
 20
521.9591891291082
 30
0.0
 10
121.7475703694068
 20
521.7140540707115
 30
0.0
 10
121.8125144118371
 20
521.6639346062444
 30
0.0
 10
121.8782626210801
 20
521.6151682175685
 30
0.0
 10
121.9448380568826
 20
521.5677292125572
 30
0.0
 10
122.0706956052859
 20
521.4816115411893
 30
0.0
 10
122.1991628320762
 20
521.400250193814
 30
0.0
 10
122.2594203601236
 20
521.3634663872352
 30
0.0
 10
122.3201977187641
 20
521.3277253739955
 30
0.0
 10
122.3814728327508
 20
521.2930338329619
 30
0.0
 10
122.5049743973815
 20
521.2257619081447
 30
0.0
 10
122.6302903120825
 20
521.1627344633297
 30
0.0
 10
122.6933797761397
 20
521.1322874022984
 30
0.0
 10
122.7568786722995
 20
521.102911978975
 30
0.0
 10
122.8207649501433
 20
521.0746126120539
 30
0.0
 10
122.957299707264
 20
521.0167712991674
 30
0.0
 10
123.0953852247896
 20
520.9638215544729
 30
0.0
 10
123.1688927092205
 20
520.9371650687718
 30
0.0
 10
123.2427724174664
 20
520.9118881877004
 30
0.0
 10
123.3169933078634
 20
520.8879939330604
 30
0.0
 10
123.5694047420534
 20
520.811762211659
 30
0.0
 10
123.8250227020256
 20
520.7514292573802
 30
0.0
 10
124.0063375412105
 20
520.7168257401722
 30
0.0
 10
124.1884153160989
 20
520.6901289072164
 30
0.0
 10
124.3708517525783
 20
520.6713057865034
 30
0.0
 10
124.5669809479681
 20
520.6594713861349
 30
0.0
 10
124.7626239245369
 20
520.6565842518521
 30
0.0
 10
124.7763164055925
 20
520.6564251429227
 30
0.0
 10
124.7900060970491
 20
520.6563180200842
 30
0.0
 10
124.803693051326
 20
520.6562265035043
 30
0.0
 10
124.8725130474107
 20
520.6562265035043
 30
0.0
 10
124.9412534864485
 20
520.6562265035043
 30
0.0
 10
124.99627519087
 20
520.6562265035043
 30
0.0
 10
125.0512464574956
 20
520.6562265035043
 30
0.0
 10
125.1061676023396
 20
520.6562265035043
 30
0.0
 10
125.7147406531572
 20
520.6562265035043
 30
0.0
 10
126.3172266300384
 20
520.6562265035043
 30
0.0
 10
126.8606791089025
 20
520.6562265035043
 30
0.0
 10
127.3997643644818
 20
520.6562265035043
 30
0.0
 10
127.9348378737363
 20
520.6562265035043
 30
0.0
 10
128.6161517019291
 20
520.6562265035043
 30
0.0
 10
129.2920705328477
 20
520.6562265035043
 30
0.0
 10
129.4405197792219
 20
520.6562265035043
 30
0.0
 10
129.5887243720239
 20
520.6562265035043
 30
0.0
 10
129.7366925680951
 20
520.6562265035043
 30
0.0
 10
130.3153674708803
 20
520.6562265035043
 30
0.0
 10
130.8906691874848
 20
520.6562265035043
 30
0.0
 10
131.3174264305673
 20
520.6562265035043
 30
0.0
 10
131.7427230464483
 20
520.6562265035043
 30
0.0
 10
132.1667623866459
 20
520.6562265035043
 30
0.0
 10
132.6225879270507
 20
520.6562265035043
 30
0.0
 10
133.077412705216
 20
520.6562265035043
 30
0.0
 10
133.1101788188168
 20
520.6562265035043
 30
0.0
 10
133.14293991967
 20
520.6562265035043
 30
0.0
 10
133.1756960988904
 20
520.6562265035043
 30
0.0
 10
133.2501309818903
 20
520.6562265035043
 30
0.0
 10
133.3245413816537
 20
520.6562265035043
 30
0.0
 10
133.3662037146603
 20
520.6562265035043
 30
0.0
 10
133.4078587433989
 20
520.6562265035043
 30
0.0
 10
133.4495066539573
 20
520.6562265035043
 30
0.0
 10
133.6074290224086
 20
520.6562265035043
 30
0.0
 10
133.765254341362
 20
520.6562265035043
 30
0.0
 10
133.8814156845625
 20
520.6562265035043
 30
0.0
 10
133.9975324366838
 20
520.6562265035043
 30
0.0
 10
134.1136085594823
 20
520.6562265035043
 30
0.0
 10
136.1217721287928
 20
520.6562265035043
 30
0.0
 10
138.1201060847959
 20
520.6562265035043
 30
0.0
 10
140.0110820666754
 20
520.6562265035043
 30
0.0
 10
141.9241830977475
 20
520.6562265035043
 30
0.0
 10
143.8676984476668
 20
520.6562265035043
 30
0.0
 10
145.8413010291172
 20
520.6562265035366
 30
0.0
 10
147.833153369646
 20
520.6562265035707
 30
0.0
  0
SPLINE
  5
90
330
8D
100
AcDbEntity
  8
0
  6
Continuous
 62
     0
370
    30
100
AcDbSpline
210
0.0
220
0.0
230
1.0
 70
     8
 71
     7
 72
   116
 73
   108
 74
     0
 42
0.000000001
 43
0.0
 40
0.0201561148593166
 40
0.0201561148593166
 40
0.0201561148593166
 40
0.0201561148593166
 40
0.0201561148593166
 40
0.0201561148593166
 40
0.0201561148593166
 40
0.0201561148593166
 40
0.2211999999999999
 40
0.2211999999999999
 40
0.2211999999999999
 40
0.2211999999999999
 40
0.2211999999999999
 40
0.2323719999999999
 40
0.2323719999999999
 40
0.2323719999999999
 40
0.2323719999999999
 40
0.2323719999999999
 40
0.2363727519999999
 40
0.2363727519999999
 40
0.2363727519999999
 40
0.2363727519999999
 40
0.2363727519999999
 40
0.2395161999999999
 40
0.2395161999999999
 40
0.2395161999999999
 40
0.2395161999999999
 40
0.2395161999999999
 40
0.2799999999999999
 40
0.2799999999999999
 40
0.2799999999999999
 40
0.2799999999999999
 40
0.2799999999999999
 40
0.2938793121279999
 40
0.2938793121279999
 40
0.2938793121279999
 40
0.2938793121279999
 40
0.2938793121279999
 40
0.3430877823999999
 40
0.3430877823999999
 40
0.3430877823999999
 40
0.3430877823999999
 40
0.3430877823999999
 40
0.3479642974719999
 40
0.3479642974719999
 40
0.3479642974719999
 40
0.3479642974719999
 40
0.3479642974719999
 40
0.3491745598489598
 40
0.3491745598489598
 40
0.3491745598489598
 40
0.3491745598489598
 40
0.3491745598489598
 40
0.3652537599999999
 40
0.3652537599999999
 40
0.3652537599999999
 40
0.3652537599999999
 40
0.3652537599999999
 40
0.3719908863999999
 40
0.3719908863999999
 40
0.3719908863999999
 40
0.3719908863999999
 40
0.3719908863999999
 40
0.3779794431999999
 40
0.3779794431999999
 40
0.3779794431999999
 40
0.3779794431999999
 40
0.3779794431999999
 40
0.3839679999999999
 40
0.3839679999999999
 40
0.3839679999999999
 40
0.3839679999999999
 40
0.3839679999999999
 40
0.3908627199999999
 40
0.3908627199999999
 40
0.3908627199999999
 40
0.3908627199999999
 40
0.3908627199999999
 40
0.4167999999999998
 40
0.4167999999999998
 40
0.4167999999999998
 40
0.4167999999999998
 40
0.4167999999999998
 40
0.4418647695999998
 40
0.4418647695999998
 40
0.4418647695999998
 40
0.4418647695999998
 40
0.4418647695999998
 40
0.4453995447999998
 40
0.4453995447999998
 40
0.4453995447999998
 40
0.4453995447999998
 40
0.4453995447999998
 40
0.4489343199999998
 40
0.4489343199999998
 40
0.4489343199999998
 40
0.4489343199999998
 40
0.4489343199999998
 40
0.4525421488548256
 40
0.4525421488548256
 40
0.4525421488548256
 40
0.4525421488548256
 40
0.4525421488548256
 40
0.5276079999999999
 40
0.5276079999999999
 40
0.5276079999999999
 40
0.5276079999999999
 40
0.5276079999999999
 40
1.0
 40
1.0
 40
1.0
 40
1.0
 40
1.0
 40
1.0
 40
1.0
 40
1.0
 10
147.8331533696385
 20
502.6562265587116
 30
0.0
 10
143.5551341740362
 20
502.6562265588323
 30
0.0
 10
139.2612176180287
 20
502.656226559053
 30
0.0
 10
134.9242459851311
 20
502.656226559053
 30
0.0
 10
130.5392087007584
 20
502.656226559053
 30
0.0
 10
126.1175424408193
 20
502.6562265590531
 30
0.0
 10
121.4349167328057
 20
502.6562265590531
 30
0.0
 10
116.7665381694633
 20
502.656226559053
 30
0.0
 10
116.520817853941
 20
502.6562265590531
 30
0.0
 10
116.2751464176251
 20
502.6562265590531
 30
0.0
 10
116.0295286267166
 20
502.656226559053
 30
0.0
 10
115.6960331984345
 20
502.6562265590531
 30
0.0
 10
115.362654525789
 20
502.656226559053
 30
0.0
 10
115.2747576443192
 20
502.6567462984809
 30
0.0
 10
115.1868689931928
 20
502.6551806754381
 30
0.0
 10
115.098989651579
 20
502.6568922786611
 30
0.0
 10
114.9420776729175
 20
502.6556794674598
 30
0.0
 10
114.7851954910925
 20
502.656675791844
 30
0.0
 10
114.7161763885343
 20
502.6575417355306
 30
0.0
 10
114.6471696300536
 20
502.6588350788919
 30
0.0
 10
114.5781784996462
 20
502.6605556270927
 30
0.0
 10
113.6209276683459
 20
502.6903606668408
 30
0.0
 10
112.6679503555684
 20
502.8023598155443
 30
0.0
 10
111.7943177414508
 20
502.9765061903547
 30
0.0
 10
110.9382666914365
 20
503.2193904306575
 30
0.0
 10
110.1064225955499
 20
503.5286340247155
 30
0.0
 10
109.0302000771316
 20
504.0287126314257
 30
0.0
 10
108.0188989447288
 20
504.6356527586681
 30
0.0
 10
107.7651640652434
 20
504.7974174604943
 30
0.0
 10
107.5161054674852
 20
504.9658236630077
 30
0.0
 10
107.2719330606785
 20
505.1406954254529
 30
0.0
 10
106.1851817221747
 20
505.964117590624
 30
0.0
 10
105.207492104537
 20
506.9133420271272
 30
0.0
 10
104.5197807193262
 20
507.721705666237
 30
0.0
 10
103.9139976431549
 20
508.5882296053903
 30
0.0
 10
103.395431155611
 20
509.5022415564141
 30
0.0
 10
102.9251194080351
 20
510.5468538813004
 30
0.0
 10
102.5663445490962
 20
511.6220809819972
 30
0.0
 10
102.5349043649479
 20
511.7192657972309
 30
0.0
 10
102.5043740041046
 20
511.8166779477682
 30
0.0
 10
102.4747547507571
 20
511.9143066637
 30
0.0
 10
102.4389231562691
 20
512.0364219321077
 30
0.0
 10
102.4045142389973
 20
512.1588410857366
 30
0.0
 10
102.3977288136583
 20
512.1831941074201
 30
0.0
 10
102.3909996624631
 20
512.2075588146586
 30
0.0
 10
102.384326798592
 20
512.2319350432147
 30
0.0
 10
102.2898044556714
 20
512.5803291244882
 30
0.0
 10
102.206774311074
 20
512.9310074922399
 30
0.0
 10
102.1395237973297
 20
513.2587291600181
 30
0.0
 10
102.0822488698972
 20
513.587658453094
 30
0.0
 10
102.0349381307822
 20
513.9174154089773
 30
0.0
 10
101.9819005205525
 20
514.3859811272234
 30
0.0
 10
101.9487676784807
 20
514.85471351099
 30
0.0
 10
101.9407162222475
 20
514.9931065467696
 30
0.0
 10
101.9343925343455
 20
515.1314599322955
 30
0.0
 10
101.9297919363046
 20
515.2697468638978
 30
0.0
 10
101.9243467831381
 20
515.5307797607002
 30
0.0
 10
101.9250103014919
 20
515.7913866187382
 30
0.0
 10
101.9205916700682
 20
515.9138785950117
 30
0.0
 10
101.9226890239295
 20
516.0363187955251
 30
0.0
 10
101.9206334551866
 20
516.1586161441205
 30
0.0
 10
101.918596823193
 20
516.4030119837619
 30
0.0
 10
101.9165638179967
 20
516.6469726077178
 30
0.0
 10
101.9155482269825
 20
516.7688435296224
 30
0.0
 10
101.9145335523825
 20
516.8906044818262
 30
0.0
 10
101.9135197989714
 20
517.0122548913592
 30
0.0
 10
101.91134088717
 20
517.2737243079621
 30
0.0
 10
101.9091662821836
 20
517.5346769067619
 30
0.0
 10
101.9080037433623
 20
517.6741815655508
 30
0.0
 10
101.9068424521576
 20
517.8135365103516
 30
0.0
 10
101.9056824154767
 20
517.9527409122925
 30
0.0
 10
101.9001644375923
 20
518.6148982595212
 30
0.0
 10
101.8946752129594
 20
519.2736052165651
 30
0.0
 10
101.8903570267377
 20
519.7917875640281
 30
0.0
 10
101.8860574764271
 20
520.3077336021562
 30
0.0
 10
101.8817768733416
 20
520.8214059732834
 30
0.0
 10
101.873397483372
 20
521.8269327713016
 30
0.0
 10
101.8650934644862
 20
522.8234150392575
 30
0.0
 10
101.8610309227329
 20
523.3109200504646
 30
0.0
 10
101.8569870296049
 20
523.7961872266292
 30
0.0
 10
101.8529619711939
 20
524.2791942367523
 30
0.0
 10
101.8483909496837
 20
524.8277168188865
 30
0.0
 10
101.8438448302279
 20
525.3732511544905
 30
0.0
 10
101.8432833310662
 20
525.4406310540089
 30
0.0
 10
101.8427222130356
 20
525.5079652177961
 30
0.0
 10
101.8421614764851
 20
525.5752536039644
 30
0.0
 10
101.8410407670204
 20
525.7097387399477
 30
0.0
 10
101.8399215861356
 20
525.8440404463545
 30
0.0
 10
101.8393623781649
 20
525.911145402946
 30
0.0
 10
101.8388035529817
 20
525.9782044250478
 30
0.0
 10
101.8382451108902
 20
526.0452174761318
 30
0.0
 10
101.8371174600059
 20
526.1805355824771
 30
0.0
 10
101.8359913756688
 20
526.3156657031486
 30
0.0
 10
101.835422974765
 20
526.3838738117153
 30
0.0
 10
101.8348549741378
 20
526.4520338871039
 30
0.0
 10
101.8342873740615
 20
526.5201458963639
 30
0.0
 10
101.8219188124895
 20
528.004373287483
 30
0.0
 10
101.8097409632981
 20
529.4657151928874
 30
0.0
 10
101.7982974350998
 20
530.8389385789593
 30
0.0
 10
101.7870296553822
 20
532.1910721473155
 30
0.0
 10
101.7759353876482
 20
533.5223842776097
 30
0.0
 10
101.6962601660778
 20
543.0834108819834
 30
0.0
 10
101.625294688047
 20
551.5992682598425
 30
0.0
 10
101.5691300846696
 20
558.3390206763538
 30
0.0
 10
101.5141237106731
 20
564.9397855669057
 30
0.0
 10
101.4564223523196
 20
571.8639485808474
 30
0.0
 10
101.3947878609853
 20
579.2600875532827
 30
0.0
 10
101.3331533696509
 20
586.6562265257182
 30
0.0
  0
SPLINE
  5
91
330
8D
100
AcDbEntity
  8
0
  6
Continuous
 62
     0
370
    30
100
AcDbSpline
210
0.0
220
0.0
230
1.0
 70
     8
 71
     3
 72
    21
 73
    17
 74
     0
 42
0.000000001
 43
0.0
 40
0.0
 40
0.0
 40
0.0
 40
0.0
 40
1.33596536861468
 40
3.65536308716327
 40
5.67964790609278
 40
7.873453421889209
 40
9.899165113329179
 40
12.0934334589125
 40
14.2873951391566
 40
16.4815854549223
 40
18.6761145571644
 40
20.7000813538452
 40
22.8921961922023
 40
24.9161949496415
 40
27.0101767250885
 40
28.2762551582517
 40
28.2762551582517
 40
28.2762551582517
 40
28.2762551582517
 10
523.833153369238
 20
502.6562265335657
 30
0.0
 10
523.8331532478561
 20
502.6561933008745
 30
0.0
 10
523.833152915221
 20
502.7464161662309
 30
0.0
 10
523.8331524144019
 20
503.2683684107919
 30
0.0
 10
523.8331518946774
 20
504.3550331375999
 30
0.0
 10
523.8331514772843
 20
505.7887781619118
 30
0.0
 10
523.8331511539621
 20
507.5845053390132
 30
0.0
 10
523.8331509530005
 20
509.6085452248362
 30
0.0
 10
523.8331508896215
 20
511.8068260224992
 30
0.0
 10
523.8331509728473
 20
513.9963064591026
 30
0.0
 10
523.8331511920411
 20
515.9943328819736
 30
0.0
 10
523.8331515312599
 20
517.7488859379677
 30
0.0
 10
523.8331519610225
 20
519.1307628784675
 30
0.0
 10
523.8331524717746
 20
520.1187983526045
 30
0.0
 10
523.8331529484572
 20
520.5776208701616
 30
0.0
 10
523.8331532541902
 20
520.6562453449999
 30
0.0
 10
523.8331533692303
 20
520.6562264778871
 30
0.0
  0
SPLINE
  5
92
330
8D
100
AcDbEntity
  8
0
  6
Continuous
 62
     0
370
    30
100
AcDbSpline
210
0.0
220
0.0
230
1.0
 70
     8
 71
     7
 72
    71
 73
    63
 74
     0
 42
0.000000001
 43
0.0
 40
0.1666666666666667
 40
0.1666666666666667
 40
0.1666666666666667
 40
0.1666666666666667
 40
0.1666666666666667
 40
0.1666666666666667
 40
0.1666666666666667
 40
0.1666666666666667
 40
0.18
 40
0.18
 40
0.18
 40
0.18
 40
0.18
 40
0.207136
 40
0.207136
 40
0.207136
 40
0.207136
 40
0.207136
 40
0.2312
 40
0.2312
 40
0.2312
 40
0.2312
 40
0.2312
 40
0.354848
 40
0.354848
 40
0.354848
 40
0.354848
 40
0.354848
 40
0.500000074586541
 40
0.500000074586541
 40
0.500000074586541
 40
0.500000074586541
 40
0.500000074586541
 40
0.5023804928
 40
0.5023804928
 40
0.5023804928
 40
0.5023804928
 40
0.5023804928
 40
0.57838208
 40
0.57838208
 40
0.57838208
 40
0.57838208
 40
0.57838208
 40
0.645152
 40
0.645152
 40
0.645152
 40
0.645152
 40
0.645152
 40
0.7688
 40
0.7688
 40
0.7688
 40
0.7688
 40
0.7688
 40
0.792864
 40
0.792864
 40
0.792864
 40
0.792864
 40
0.792864
 40
0.82
 40
0.82
 40
0.82
 40
0.82
 40
0.82
 40
0.8333333333333334
 40
0.8333333333333334
 40
0.8333333333333334
 40
0.8333333333333334
 40
0.8333333333333334
 40
0.8333333333333334
 40
0.8333333333333334
 40
0.8333333333333334
 10
551.3331533693174
 20
586.6562328263916
 30
0.0
 10
551.3331533693247
 20
586.6562327316045
 30
0.0
 10
551.3331533693325
 20
586.6562326368174
 30
0.0
 10
551.3331533693408
 20
586.6562325420304
 30
0.0
 10
551.3331533693497
 20
586.6562324472433
 30
0.0
 10
551.3331533693591
 20
586.6562323524563
 30
0.0
 10
551.3331533693895
 20
586.6562320647587
 30
0.0
 10
551.3331533694252
 20
586.6562317770611
 30
0.0
 10
551.3337634768759
 20
586.6562315836884
 30
0.0
 10
551.3317071554031
 20
586.6562313923364
 30
0.0
 10
551.3345221925831
 20
586.6562311972898
 30
0.0
 10
551.330790359741
 20
586.6562308361448
 30
0.0
 10
551.3369642839058
 20
586.6562304674623
 30
0.0
 10
551.3477016021645
 20
586.6562302882382
 30
0.0
 10
551.357744449137
 20
586.656230109806
 30
0.0
 10
551.373927577152
 20
586.6562299269187
 30
0.0
 10
551.4927174817776
 20
586.6562287917988
 30
0.0
 10
551.7506064353176
 20
586.6562275679374
 30
0.0
 10
552.0598267244841
 20
586.6562264954091
 30
0.0
 10
552.4738248222122
 20
586.656225386707
 30
0.0
 10
552.9616204136707
 20
586.6562242640176
 30
0.0
 10
554.2015015790353
 20
586.6562218201182
 30
0.0
 10
555.774227995814
 20
586.6562194522052
 30
0.0
 10
556.6990768091102
 20
586.6562182202817
 30
0.0
 10
557.6915411440981
 20
586.6562170612822
 30
0.0
 10
558.7244641876318
 20
586.6562160044067
 30
0.0
 10
559.7961295290106
 20
586.656215042799
 30
0.0
 10
560.8677442801086
 20
586.6562142219332
 30
0.0
 10
560.885034541324
 20
586.6562142087254
 30
0.0
 10
560.9023245995354
 20
586.6562141955544
 30
0.0
 10
560.9196143595432
 20
586.6562141824204
 30
0.0
 10
561.4889156709465
 20
586.6562137511689
 30
0.0
 10
562.0576865319607
 20
586.6562133602661
 30
0.0
 10
562.605512000119
 20
586.6562130219321
 30
0.0
 10
563.1469448657269
 20
586.6562127182709
 30
0.0
 10
563.6792599694741
 20
586.6562124614063
 30
0.0
 10
564.6553977873566
 20
586.6562120613485
 30
0.0
 10
565.5767444781802
 20
586.6562118235289
 30
0.0
 10
565.9937664080214
 20
586.6562117482397
 30
0.0
 10
566.3957078955775
 20
586.6562117075064
 30
0.0
 10
566.7810000041006
 20
586.6562117020858
 30
0.0
 10
567.8263617281284
 20
586.6562117892419
 30
0.0
 10
568.7046915671945
 20
586.6562121711374
 30
0.0
 10
569.1924861887279
 20
586.6562125444364
 30
0.0
 10
569.6064831202466
 20
586.6562130171221
 30
0.0
 10
569.9157024821529
 20
586.6562136146015
 30
0.0
 10
570.1735905083758
 20
586.656214442273
 30
0.0
 10
570.2923796878649
 20
586.6562153948983
 30
0.0
 10
570.3085627078059
 20
586.6562155529235
 30
0.0
 10
570.3186054108522
 20
586.6562157159271
 30
0.0
 10
570.3293427107144
 20
586.6562158786555
 30
0.0
 10
570.3355162843479
 20
586.6562162378532
 30
0.0
 10
570.3317845508227
 20
586.6562166047308
 30
0.0
 10
570.3345996261862
 20
586.6562167954526
 30
0.0
 10
570.3325432329257
 20
586.6562169899637
 30
0.0
 10
570.3331533690234
 20
586.6562171823989
 30
0.0
 10
570.3331533690596
 20
586.6562174700963
 30
0.0
 10
570.3331533690904
 20
586.6562177577937
 30
0.0
 10
570.3331533690999
 20
586.6562178525807
 30
0.0
 10
570.333153369109
 20
586.6562179473676
 30
0.0
 10
570.3331533691176
 20
586.6562180421546
 30
0.0
 10
570.3331533691255
 20
586.6562181369416
 30
0.0
 10
570.333153369133
 20
586.6562182317285
 30
0.0
  0
SPLINE
  5
93
330
8D
100
AcDbEntity
  8
0
  6
Continuous
 62
     0
370
    30
100
AcDbSpline
210
0.0
220
0.0
230
1.0
 70
     8
 71
     7
 72
   116
 73
   108
 74
     0
 42
0.000000001
 43
0.0
 40
0.0
 40
0.0
 40
0.0
 40
0.0
 40
0.0
 40
0.0
 40
0.0
 40
0.0
 40
0.4723920000000001
 40
0.4723920000000001
 40
0.4723920000000001
 40
0.4723920000000001
 40
0.4723920000000001
 40
0.5474578511451744
 40
0.5474578511451744
 40
0.5474578511451744
 40
0.5474578511451744
 40
0.5474578511451744
 40
0.5510656800000002
 40
0.5510656800000002
 40
0.5510656800000002
 40
0.5510656800000002
 40
0.5510656800000002
 40
0.5546004552000001
 40
0.5546004552000001
 40
0.5546004552000001
 40
0.5546004552000001
 40
0.5546004552000001
 40
0.5581352304000002
 40
0.5581352304000002
 40
0.5581352304000002
 40
0.5581352304000002
 40
0.5581352304000002
 40
0.5832000000000002
 40
0.5832000000000002
 40
0.5832000000000002
 40
0.5832000000000002
 40
0.5832000000000002
 40
0.6091372800000001
 40
0.6091372800000001
 40
0.6091372800000001
 40
0.6091372800000001
 40
0.6091372800000001
 40
0.6160320000000001
 40
0.6160320000000001
 40
0.6160320000000001
 40
0.6160320000000001
 40
0.6160320000000001
 40
0.6220205568000001
 40
0.6220205568000001
 40
0.6220205568000001
 40
0.6220205568000001
 40
0.6220205568000001
 40
0.6280091136000001
 40
0.6280091136000001
 40
0.6280091136000001
 40
0.6280091136000001
 40
0.6280091136000001
 40
0.6347462400000001
 40
0.6347462400000001
 40
0.6347462400000001
 40
0.6347462400000001
 40
0.6347462400000001
 40
0.6508254401510402
 40
0.6508254401510402
 40
0.6508254401510402
 40
0.6508254401510402
 40
0.6508254401510402
 40
0.6520357025280001
 40
0.6520357025280001
 40
0.6520357025280001
 40
0.6520357025280001
 40
0.6520357025280001
 40
0.6569122176000002
 40
0.6569122176000002
 40
0.6569122176000002
 40
0.6569122176000002
 40
0.6569122176000002
 40
0.7061206878720001
 40
0.7061206878720001
 40
0.7061206878720001
 40
0.7061206878720001
 40
0.7061206878720001
 40
0.7200000000000001
 40
0.7200000000000001
 40
0.7200000000000001
 40
0.7200000000000001
 40
0.7200000000000001
 40
0.7604838
 40
0.7604838
 40
0.7604838
 40
0.7604838
 40
0.7604838
 40
0.7636272480000001
 40
0.7636272480000001
 40
0.7636272480000001
 40
0.7636272480000001
 40
0.7636272480000001
 40
0.7676280000000001
 40
0.7676280000000001
 40
0.7676280000000001
 40
0.7676280000000001
 40
0.7676280000000001
 40
0.7788000000000002
 40
0.7788000000000002
 40
0.7788000000000002
 40
0.7788000000000002
 40
0.7788000000000002
 40
0.9609692269247103
 40
0.9609692269247103
 40
0.9609692269247103
 40
0.9609692269247103
 40
0.9609692269247103
 40
0.9609692269247103
 40
0.9609692269247103
 40
0.9609692269247103
 10
551.3331533692256
 20
586.6562265255892
 30
0.0
 10
551.3947878605595
 20
579.2600875531538
 30
0.0
 10
551.4564223518936
 20
571.8639485807183
 30
0.0
 10
551.5213261379047
 20
564.0754942463844
 30
0.0
 10
551.5884700459903
 20
556.018225262635
 30
0.0
 10
551.6546512118631
 20
548.0764853446465
 30
0.0
 10
551.7264647171148
 20
539.458864700046
 30
0.0
 10
551.7910385184634
 20
531.7100085252583
 30
0.0
 10
551.7997518597638
 20
530.6644075674691
 30
0.0
 10
551.808320974615
 20
529.6361137836184
 30
0.0
 10
551.8167440039981
 20
528.6253502559614
 30
0.0
 10
551.8254186522875
 20
527.5843924594863
 30
0.0
 10
551.8339347768317
 20
526.5624575124779
 30
0.0
 10
551.8343249773241
 20
526.5156334533111
 30
0.0
 10
551.8347148448709
 20
526.4688493476215
 30
0.0
 10
551.8351043797002
 20
526.4221051680197
 30
0.0
 10
551.8358749035806
 20
526.3296423022192
 30
0.0
 10
551.8366441253172
 20
526.2373356936733
 30
0.0
 10
551.8370244837572
 20
526.1916926807994
 30
0.0
 10
551.837404523764
 20
526.1460878799064
 30
0.0
 10
551.8377842455907
 20
526.1005212606321
 30
0.0
 10
551.8385430534083
 20
526.0094643223506
 30
0.0
 10
551.8393005906416
 20
525.9185598542097
 30
0.0
 10
551.8394279666834
 20
525.8731439926903
 30
0.0
 10
551.8405825114546
 20
525.8277732105829
 30
0.0
 10
551.8400624096043
 20
525.7824289324052
 30
0.0
 10
551.8465430457778
 20
525.4159340926424
 30
0.0
 10
551.8217119764868
 20
525.0517000767557
 30
0.0
 10
551.7763989336097
 20
524.7363708563015
 30
0.0
 10
551.7082669782747
 20
524.4269626997218
 30
0.0
 10
551.618250595131
 20
524.1253620626035
 30
0.0
 10
551.3927959560457
 20
523.531047137681
 30
0.0
 10
551.0864097449269
 20
522.9825602961319
 30
0.0
 10
550.9123348019411
 20
522.718312525875
 30
0.0
 10
550.7148629864021
 20
522.4644216969843
 30
0.0
 10
550.5094008061476
 20
522.2344167325637
 30
0.0
 10
550.2240642914007
 20
521.9591891289789
 30
0.0
 10
549.9187363694696
 20
521.7140540705839
 30
0.0
 10
549.8537923270394
 20
521.6639346061172
 30
0.0
 10
549.7880441177963
 20
521.6151682174417
 30
0.0
 10
549.7214686819938
 20
521.567729212431
 30
0.0
 10
549.5956111335904
 20
521.4816115410641
 30
0.0
 10
549.4671439068002
 20
521.4002501936902
 30
0.0
 10
549.4068863787529
 20
521.363466387112
 30
0.0
 10
549.3461090201124
 20
521.3277253738729
 30
0.0
 10
549.2848339061256
 20
521.2930338328401
 30
0.0
 10
549.1613323414949
 20
521.2257619080243
 30
0.0
 10
549.0360164267938
 20
521.162734463211
 30
0.0
 10
548.9729269627367
 20
521.1322874021806
 30
0.0
 10
548.909428066577
 20
521.1029119788582
 30
0.0
 10
548.8455417887333
 20
521.0746126119379
 30
0.0
 10
548.7090070316124
 20
521.0167712990535
 30
0.0
 10
548.5709215140869
 20
520.9638215543613
 30
0.0
 10
548.4974140296559
 20
520.9371650686614
 30
0.0
 10
548.42353432141
 20
520.9118881875913
 30
0.0
 10
548.349313431013
 20
520.8879939329527
 30
0.0
 10
548.096901996823
 20
520.811762211556
 30
0.0
 10
547.8412840368508
 20
520.7514292572823
 30
0.0
 10
547.6599691976659
 20
520.7168257400783
 30
0.0
 10
547.4778914227775
 20
520.6901289071265
 30
0.0
 10
547.2954549862981
 20
520.6713057864177
 30
0.0
 10
547.0993257909083
 20
520.6594713860542
 30
0.0
 10
546.9036828143396
 20
520.6565842517764
 30
0.0
 10
546.889990333284
 20
520.6564251428479
 30
0.0
 10
546.8763006418274
 20
520.6563180200083
 30
0.0
 10
546.8626136875505
 20
520.6562265034304
 30
0.0
 10
546.7937936914657
 20
520.6562265034304
 30
0.0
 10
546.7250532524279
 20
520.6562265034304
 30
0.0
 10
546.6700315480064
 20
520.6562265034304
 30
0.0
 10
546.6150602813809
 20
520.6562265034304
 30
0.0
 10
546.5601391365368
 20
520.6562265034304
 30
0.0
 10
545.9515660857194
 20
520.6562265034304
 30
0.0
 10
545.349080108838
 20
520.6562265034304
 30
0.0
 10
544.805627629974
 20
520.6562265034304
 30
0.0
 10
544.2665423743947
 20
520.6562265034304
 30
0.0
 10
543.7314688651402
 20
520.6562265034304
 30
0.0
 10
543.0501550369473
 20
520.6562265034304
 30
0.0
 10
542.3742362060287
 20
520.6562265034304
 30
0.0
 10
542.2257869596544
 20
520.6562265034304
 30
0.0
 10
542.0775823668525
 20
520.6562265034304
 30
0.0
 10
541.9296141707814
 20
520.6562265034304
 30
0.0
 10
541.3509392679962
 20
520.6562265034304
 30
0.0
 10
540.7756375513916
 20
520.6562265034304
 30
0.0
 10
540.3488803083092
 20
520.6562265034304
 30
0.0
 10
539.9235836924281
 20
520.6562265034304
 30
0.0
 10
539.4995443522305
 20
520.6562265034304
 30
0.0
 10
539.0437188118258
 20
520.6562265034304
 30
0.0
 10
538.5888940336604
 20
520.6562265034304
 30
0.0
 10
538.5561279200597
 20
520.6562265034304
 30
0.0
 10
538.5233668192063
 20
520.6562265034304
 30
0.0
 10
538.490610639986
 20
520.6562265034304
 30
0.0
 10
538.4161757569861
 20
520.6562265034304
 30
0.0
 10
538.3417653572228
 20
520.6562265034304
 30
0.0
 10
538.3001030242161
 20
520.6562265034304
 30
0.0
 10
538.2584479954776
 20
520.6562265034304
 30
0.0
 10
538.2168000849192
 20
520.6562265034304
 30
0.0
 10
538.0588777164678
 20
520.6562265034304
 30
0.0
 10
537.9010523975145
 20
520.6562265034304
 30
0.0
 10
537.7848910543139
 20
520.6562265034304
 30
0.0
 10
537.6687743021926
 20
520.6562265034304
 30
0.0
 10
537.5526981793942
 20
520.6562265034304
 30
0.0
 10
535.5445346100837
 20
520.6562265034304
 30
0.0
 10
533.5462006540806
 20
520.6562265034304
 30
0.0
 10
531.655224672201
 20
520.6562265034304
 30
0.0
 10
529.742123641129
 20
520.6562265034304
 30
0.0
 10
527.7986082912096
 20
520.6562265034304
 30
0.0
 10
525.8250057097591
 20
520.6562265034626
 30
0.0
 10
523.8331533692303
 20
520.6562265034967
 30
0.0
  0
SPLINE
  5
94
330
8D
100
AcDbEntity
  8
0
  6
Continuous
 62
     0
370
    30
100
AcDbSpline
210
0.0
220
0.0
230
1.0
 70
     8
 71
     7
 72
   116
 73
   108
 74
     0
 42
0.000000001
 43
0.0
 40
0.0201561148593166
 40
0.0201561148593166
 40
0.0201561148593166
 40
0.0201561148593166
 40
0.0201561148593166
 40
0.0201561148593166
 40
0.0201561148593166
 40
0.0201561148593166
 40
0.2211999999999999
 40
0.2211999999999999
 40
0.2211999999999999
 40
0.2211999999999999
 40
0.2211999999999999
 40
0.2323719999999999
 40
0.2323719999999999
 40
0.2323719999999999
 40
0.2323719999999999
 40
0.2323719999999999
 40
0.2363727519999999
 40
0.2363727519999999
 40
0.2363727519999999
 40
0.2363727519999999
 40
0.2363727519999999
 40
0.2395161999999999
 40
0.2395161999999999
 40
0.2395161999999999
 40
0.2395161999999999
 40
0.2395161999999999
 40
0.2799999999999999
 40
0.2799999999999999
 40
0.2799999999999999
 40
0.2799999999999999
 40
0.2799999999999999
 40
0.2938793121279999
 40
0.2938793121279999
 40
0.2938793121279999
 40
0.2938793121279999
 40
0.2938793121279999
 40
0.3430877823999999
 40
0.3430877823999999
 40
0.3430877823999999
 40
0.3430877823999999
 40
0.3430877823999999
 40
0.3479642974719999
 40
0.3479642974719999
 40
0.3479642974719999
 40
0.3479642974719999
 40
0.3479642974719999
 40
0.3491745598489598
 40
0.3491745598489598
 40
0.3491745598489598
 40
0.3491745598489598
 40
0.3491745598489598
 40
0.3652537599999999
 40
0.3652537599999999
 40
0.3652537599999999
 40
0.3652537599999999
 40
0.3652537599999999
 40
0.3719908863999999
 40
0.3719908863999999
 40
0.3719908863999999
 40
0.3719908863999999
 40
0.3719908863999999
 40
0.3779794431999999
 40
0.3779794431999999
 40
0.3779794431999999
 40
0.3779794431999999
 40
0.3779794431999999
 40
0.3839679999999999
 40
0.3839679999999999
 40
0.3839679999999999
 40
0.3839679999999999
 40
0.3839679999999999
 40
0.3908627199999999
 40
0.3908627199999999
 40
0.3908627199999999
 40
0.3908627199999999
 40
0.3908627199999999
 40
0.4167999999999998
 40
0.4167999999999998
 40
0.4167999999999998
 40
0.4167999999999998
 40
0.4167999999999998
 40
0.4418647695999998
 40
0.4418647695999998
 40
0.4418647695999998
 40
0.4418647695999998
 40
0.4418647695999998
 40
0.4453995447999998
 40
0.4453995447999998
 40
0.4453995447999998
 40
0.4453995447999998
 40
0.4453995447999998
 40
0.4489343199999998
 40
0.4489343199999998
 40
0.4489343199999998
 40
0.4489343199999998
 40
0.4489343199999998
 40
0.4525421488548256
 40
0.4525421488548256
 40
0.4525421488548256
 40
0.4525421488548256
 40
0.4525421488548256
 40
0.5276079999999999
 40
0.5276079999999999
 40
0.5276079999999999
 40
0.5276079999999999
 40
0.5276079999999999
 40
1.0
 40
1.0
 40
1.0
 40
1.0
 40
1.0
 40
1.0
 40
1.0
 40
1.0
 10
523.833153369238
 20
502.6562265586501
 30
0.0
 10
528.1111725648402
 20
502.6562265587708
 30
0.0
 10
532.4050891208477
 20
502.6562265589915
 30
0.0
 10
536.7420607537454
 20
502.6562265589915
 30
0.0
 10
541.127098038118
 20
502.6562265589915
 30
0.0
 10
545.5487642980571
 20
502.6562265589915
 30
0.0
 10
550.2313900060708
 20
502.6562265589915
 30
0.0
 10
554.899768569413
 20
502.6562265589915
 30
0.0
 10
555.1454888849355
 20
502.6562265589916
 30
0.0
 10
555.3911603212513
 20
502.6562265589916
 30
0.0
 10
555.6367781121598
 20
502.6562265589915
 30
0.0
 10
555.9702735404419
 20
502.6562265589915
 30
0.0
 10
556.3036522130874
 20
502.6562265589915
 30
0.0
 10
556.3915490945573
 20
502.6567462984193
 30
0.0
 10
556.4794377456835
 20
502.6551806753766
 30
0.0
 10
556.5673170872974
 20
502.6568922785996
 30
0.0
 10
556.724229065959
 20
502.6556794673983
 30
0.0
 10
556.881111247784
 20
502.6566757917825
 30
0.0
 10
556.9501303503421
 20
502.6575417354691
 30
0.0
 10
557.0191371088229
 20
502.6588350788304
 30
0.0
 10
557.0881282392302
 20
502.6605556270311
 30
0.0
 10
558.0453790705305
 20
502.6903606667792
 30
0.0
 10
558.998356383308
 20
502.802359815482
 30
0.0
 10
559.8719889974257
 20
502.9765061902916
 30
0.0
 10
560.7280400474399
 20
503.2193904305931
 30
0.0
 10
561.5598841433266
 20
503.5286340246494
 30
0.0
 10
562.6361066617449
 20
504.0287126313569
 30
0.0
 10
563.6474077941475
 20
504.6356527585963
 30
0.0
 10
563.9011426736331
 20
504.7974174604216
 30
0.0
 10
564.1502012713912
 20
504.965823662934
 30
0.0
 10
564.3943736781979
 20
505.1406954253784
 30
0.0
 10
565.4811250167018
 20
505.9641175905452
 30
0.0
 10
566.4588146343394
 20
506.9133420270435
 30
0.0
 10
567.1465260195503
 20
507.721705666149
 30
0.0
 10
567.7523090957216
 20
508.5882296052978
 30
0.0
 10
568.2708755832655
 20
509.5022415563168
 30
0.0
 10
568.7411873308413
 20
510.5468538811976
 30
0.0
 10
569.0999621897802
 20
511.6220809818889
 30
0.0
 10
569.1314023739285
 20
511.719265797122
 30
0.0
 10
569.1619327347719
 20
511.8166779476588
 30
0.0
 10
569.1915519881193
 20
511.9143066635901
 30
0.0
 10
569.2273835826073
 20
512.0364219319971
 30
0.0
 10
569.2617924998792
 20
512.1588410856255
 30
0.0
 10
569.2685779252181
 20
512.1831941073089
 30
0.0
 10
569.2753070764134
 20
512.207558814547
 30
0.0
 10
569.2819799402844
 20
512.231935043103
 30
0.0
 10
569.376502283205
 20
512.5803291243749
 30
0.0
 10
569.4595324278025
 20
512.9310074921248
 30
0.0
 10
569.5267829415468
 20
513.2587291599011
 30
0.0
 10
569.5840578689792
 20
513.5876584529753
 30
0.0
 10
569.6313686080941
 20
513.9174154088569
 30
0.0
 10
569.6844062183238
 20
514.3859811271006
 30
0.0
 10
569.7175390603957
 20
514.8547135108647
 30
0.0
 10
569.7255905166289
 20
514.9931065466436
 30
0.0
 10
569.731914204531
 20
515.1314599321687
 30
0.0
 10
569.7365148025717
 20
515.2697468637705
 30
0.0
 10
569.7419599557384
 20
515.5307797605714
 30
0.0
 10
569.7412964373846
 20
515.7913866186079
 30
0.0
 10
569.7457150688083
 20
515.9138785948858
 30
0.0
 10
569.7436177149468
 20
516.0363187953945
 30
0.0
 10
569.7456732836899
 20
516.1586161439917
 30
0.0
 10
569.7477099156835
 20
516.403011983633
 30
0.0
 10
569.7497429208797
 20
516.6469726075889
 30
0.0
 10
569.750758511894
 20
516.7688435294934
 30
0.0
 10
569.7517731864939
 20
516.8906044816973
 30
0.0
 10
569.752786939905
 20
517.0122548912303
 30
0.0
 10
569.7549658517064
 20
517.2737243078332
 30
0.0
 10
569.7571404566928
 20
517.534676906633
 30
0.0
 10
569.7583029955141
 20
517.674181565422
 30
0.0
 10
569.7594642867189
 20
517.8135365102228
 30
0.0
 10
569.7606243233997
 20
517.9527409121636
 30
0.0
 10
569.7661423012842
 20
518.6148982593922
 30
0.0
 10
569.771631525917
 20
519.2736052164362
 30
0.0
 10
569.7759497121388
 20
519.7917875638992
 30
0.0
 10
569.7802492624493
 20
520.3077336020273
 30
0.0
 10
569.7845298655349
 20
520.8214059731545
 30
0.0
 10
569.7929092555044
 20
521.8269327711727
 30
0.0
 10
569.8012132743902
 20
522.8234150391286
 30
0.0
 10
569.8052758161435
 20
523.3109200503357
 30
0.0
 10
569.8093197092714
 20
523.7961872265003
 30
0.0
 10
569.8133447676826
 20
524.2791942366234
 30
0.0
 10
569.8179157891927
 20
524.8277168187577
 30
0.0
 10
569.8224619086485
 20
525.3732511543616
 30
0.0
 10
569.8230234078103
 20
525.44063105388
 30
0.0
 10
569.8235845258408
 20
525.5079652176673
 30
0.0
 10
569.8241452623913
 20
525.5752536038354
 30
0.0
 10
569.825265971856
 20
525.7097387398189
 30
0.0
 10
569.8263851527408
 20
525.8440404462256
 30
0.0
 10
569.8269443607114
 20
525.911145402817
 30
0.0
 10
569.8275031858948
 20
525.9782044249189
 30
0.0
 10
569.8280616279862
 20
526.045217476003
 30
0.0
 10
569.8291892788706
 20
526.1805355823482
 30
0.0
 10
569.8303153632075
 20
526.3156657030198
 30
0.0
 10
569.8308837641114
 20
526.3838738115863
 30
0.0
 10
569.8314517647386
 20
526.452033886975
 30
0.0
 10
569.8320193648149
 20
526.520145896235
 30
0.0
 10
569.844387926387
 20
528.004373287354
 30
0.0
 10
569.8565657755784
 20
529.4657151927585
 30
0.0
 10
569.8680093037766
 20
530.8389385788304
 30
0.0
 10
569.8792770834941
 20
532.1910721471866
 30
0.0
 10
569.8903713512282
 20
533.5223842774808
 30
0.0
 10
569.9700465727987
 20
543.0834108818543
 30
0.0
 10
570.0410120508294
 20
551.5992682597134
 30
0.0
 10
570.0971766542068
 20
558.3390206762249
 30
0.0
 10
570.1521830282034
 20
564.9397855667767
 30
0.0
 10
570.2098843865567
 20
571.8639485807182
 30
0.0
 10
570.2715188778911
 20
579.2600875531537
 30
0.0
 10
570.3331533692256
 20
586.6562265255891
 30
0.0
  0
LINE
  5
95
330
8D
100
AcDbEntity
  8
0
  6
Continuous
 62
     0
370
    30
100
AcDbLine
 10
523.833153
 20
520.607043
 30
0.0
 11
523.833153
 21
520.656133
 31
0.0
  0
LINE
  5
96
330
8D
100
AcDbEntity
  8
0
  6
Continuous
 62
     0
370
    30
100
AcDbLine
 10
147.833153
 20
520.656133
 30
0.0
 11
147.833153
 21
502.656133
 31
0.0
  0
LINE
  5
97
330
8D
100
AcDbEntity
  8
0
  6
Continuous
 62
     0
370
    30
100
AcDbLine
 10
147.833153
 20
502.656133
 30
0.0
 11
523.833153
 21
502.656133
 31
0.0
  0
LINE
  5
98
330
8D
100
AcDbEntity
  8
0
  6
Continuous
 62
     0
370
    30
100
AcDbLine
 10
147.833153
 20
520.656133
 30
0.0
 11
523.833153
 21
520.656133
 31
0.0
  0
ENDBLK
  5
9A
330
8D
100
AcDbEntity
  8
0
100
AcDbBlockEnd
  0
BLOCK
  5
A8
330
9C
100
AcDbEntity
  8
0
100
AcDbBlockBegin
  2
c
 70
     0
 10
65.971436
 20
-34.075531
 30
0.0
  3
c
  1

  0
ARC
  5
9D
330
9C
100
AcDbEntity
  8
0
  6
Continuous
 62
     0
370
    30
100
AcDbCircle
 10
690.529489
 20
718.512586
 30
0.0
 40
8.99848626881364
100
AcDbArc
 50
269.998921
 51
0.014906
  0
LINE
  5
9E
330
9C
100
AcDbEntity
  8
0
  6
Continuous
 62
     0
370
    30
100
AcDbLine
 10
615.527977
 20
718.5141
 30
0.0
 11
615.527951
 21
738.514102
 31
0.0
  0
LINE
  5
9F
330
9C
100
AcDbEntity
  8
0
  6
Continuous
 62
     0
370
    30
100
AcDbLine
 10
615.527988
 20
698.514101
 30
0.0
 11
615.527977
 21
718.5141
 31
0.0
  0
ARC
  5
A0
330
9C
100
AcDbEntity
  8
0
  6
Continuous
 62
     0
370
    30
100
AcDbCircle
 10
690.529359
 20
718.517461
 30
0.0
 40
8.998528131869255
100
AcDbArc
 50
0.962147
 51
37.815384
  0
SPLINE
  5
A1
330
9C
100
AcDbEntity
  8
0
  6
Continuous
 62
     0
370
    30
100
AcDbSpline
210
0.0
220
0.0
230
1.0
 70
     8
 71
     3
 72
    18
 73
    14
 74
     0
 42
0.000000001
 43
0.0
 40
0.0
 40
0.0
 40
0.0
 40
0.0
 40
0.6653709870503178
 40
1.107665986847298
 40
1.550523202021897
 40
1.772581766359759
 40
2.218744505495627
 40
2.443165090549005
 40
2.668677040262029
 40
2.895488955634177
 40
3.123779986160121
 40
3.353849476176803
 40
3.586867138228744
 40
3.586867138228744
 40
3.586867138228744
 40
3.586867138228744
 10
699.5279765858753
 20
718.5151169613799
 30
0.0
 10
699.5279717145615
 20
718.7368170460056
 30
0.0
 10
699.513845031218
 20
719.1061916050546
 30
0.0
 10
699.4614548682841
 20
719.6182922338663
 30
0.0
 10
699.4058678528172
 20
719.9796043990347
 30
0.0
 10
699.3368912733868
 20
720.3376027843249
 30
0.0
 10
699.2710477001517
 20
720.6210787022554
 30
0.0
 10
699.1950934081125
 20
720.9006398161399
 30
0.0
 10
699.132754295661
 20
721.1089419118147
 30
0.0
 10
699.0658165749782
 20
721.3158082604944
 30
0.0
 10
698.9921118515657
 20
721.5193055388029
 30
0.0
 10
698.9199359808277
 20
721.7268545598637
 30
0.0
 10
698.8522615339572
 20
721.8486336454266
 30
0.0
 10
698.8334116256016
 20
721.9222016247259
 30
0.0
  0
SPLINE
  5
A2
330
9C
100
AcDbEntity
  8
0
  6
Continuous
 62
     0
370
    30
100
AcDbSpline
210
0.0
220
0.0
230
1.0
 70
     8
 71
     3
 72
    59
 73
    55
 74
     0
 42
0.000000001
 43
0.0
 40
0.0
 40
0.0
 40
0.0
 40
0.0
 40
10.16547253405544
 40
20.29666150257573
 40
30.40940746553171
 40
40.54512833271394
 40
47.33586621687221
 40
52.45421858451492
 40
55.88146211067439
 40
59.32422451519678
 40
61.05311880774653
 40
62.78804304881414
 40
64.53048633062632
 40
65.40547123198724
 40
66.28375486451226
 40
67.16614092712139
 40
68.05355821115774
 40
68.71123878010886
 40
68.93060167128544
 40
69.14995360960593
 40
69.80779859298472
 40
70.46500104083947
 40
71.33967973325356
 40
71.99405598413603
 40
73.08062356781504
 40
75.01877130889021
 40
76.30085712126119
 40
77.1554726615576
 40
78.0172248853683
 40
78.45548226486063
 40
78.84712372652311
 40
79.2553400242686
 40
79.58225488291077
 40
79.81013465735099
 40
79.96824456238369
 40
80.14276773726606
 40
80.2194142758531
 40
80.43991270711997
 40
80.57741424021592
 40
80.70867763453316
 40
80.83509028369224
 40
82.02862861454139
 40
82.4573491947079
 40
82.88633137020629
 40
83.77896530945414
 40
84.67327590441597
 40
85.10436521964574
 40
85.53646204768405
 40
85.73518012715186
 40
85.93450831931457
 40
86.02952922808811
 40
86.1247557100089
 40
86.53209078458725
 40
87.83415354450567
 40
87.83415354450567
 40
87.83415354450567
 40
87.83415354450567
 10
615.5275373464881
 20
738.5140601848585
 30
0.0
 10
618.8801709001244
 20
738.0224156043125
 30
0.0
 10
625.5741465979886
 20
737.0408303274468
 30
0.0
 10
635.6033248139565
 20
735.5703252390309
 30
0.0
 10
645.6226261690923
 20
734.1017732965114
 30
0.0
 10
654.5403807735715
 20
732.7950174652532
 30
0.0
 10
661.8109419450991
 20
731.7289939171352
 30
0.0
 10
666.8688376945629
 20
730.9868599738579
 30
0.0
 10
670.8224065464617
 20
730.4065827343574
 30
0.0
 10
673.6580498751712
 20
729.9904323077318
 30
0.0
 10
675.9355007177273
 20
729.6563912392398
 30
0.0
 10
677.6522114994932
 20
729.4047502208984
 30
0.0
 10
679.0872268501982
 20
729.1946019994364
 30
0.0
 10
680.2395791822651
 20
729.0260841831217
 30
0.0
 10
681.1082564649082
 20
728.8992143411814
 30
0.0
 10
681.9808062990347
 20
728.7720017225331
 30
0.0
 10
682.7804035282342
 20
728.6556878840604
 30
0.0
 10
683.3613868345067
 20
728.5713892182215
 30
0.0
 10
683.7231489706026
 20
728.5189889280567
 30
0.0
 10
684.0848651687099
 20
728.4666437363379
 30
0.0
 10
684.5902355889682
 20
728.393655727108
 30
0.0
 10
685.3055417280575
 20
728.2907162285
 30
0.0
 10
686.0078458895366
 20
728.190155637243
 30
0.0
 10
686.825655236489
 20
728.0737689127985
 30
0.0
 10
687.9311004210342
 20
727.917842261991
 30
0.0
 10
689.0921903262176
 20
727.7565168337549
 30
0.0
 10
689.9811370619517
 20
727.6358046169324
 30
0.0
 10
690.5074736681795
 20
727.5659253252853
 30
0.0
 10
690.801202160909
 20
727.5279965206429
 30
0.0
 10
690.9719295622958
 20
727.5066262545487
 30
0.0
 10
691.0668002732972
 20
727.4951088250776
 30
0.0
 10
691.1171211707621
 20
727.4892673917142
 30
0.0
 10
691.138436272932
 20
727.4869547470133
 30
0.0
 10
691.1268234226221
 20
727.4882113871407
 30
0.0
 10
691.0998680892324
 20
727.4908600962335
 30
0.0
 10
691.0700979349211
 20
727.4935668626642
 30
0.0
 10
691.0283173025523
 20
727.4970767256367
 30
0.0
 10
690.9826227598304
 20
727.5005815328683
 30
0.0
 10
690.9235033493155
 20
727.5044399905535
 30
0.0
 10
690.8735484978752
 20
727.507301868588
 30
0.0
 10
690.6714120920243
 20
727.5169618024862
 30
0.0
 10
690.585055896674
 20
727.5156889409639
 30
0.0
 10
690.607977492798
 20
727.5157696031564
 30
0.0
 10
690.6107137095028
 20
727.5156783278495
 30
0.0
 10
690.6363890156384
 20
727.5153864151438
 30
0.0
 10
690.6330805540298
 20
727.515481889502
 30
0.0
 10
690.6810095131167
 20
727.5146799457663
 30
0.0
 10
690.6822268653553
 20
727.5147129820608
 30
0.0
 10
690.735058273415
 20
727.5135485343358
 30
0.0
 10
690.7556763947134
 20
727.5130135201529
 30
0.0
 10
690.7854777452955
 20
727.5121493599225
 30
0.0
 10
690.845974454123
 20
727.5102550215621
 30
0.0
 10
690.4450112410155
 20
727.5206442004671
 30
0.0
 10
690.3685578843224
 20
727.5219466935339
 30
0.0
 10
690.3685237609143
 20
727.5209424566726
 30
0.0
  0
ARC
  5
A3
330
9C
100
AcDbEntity
  8
0
  6
Continuous
 62
     0
370
    30
100
AcDbCircle
 10
690.527977
 20
718.512802
 30
0.0
 40
8.99999830021013
100
AcDbArc
 50
322.531308
 51
0.013182
  0
SPLINE
  5
A4
330
9C
100
AcDbEntity
  8
0
  6
Continuous
 62
     0
370
    30
100
AcDbSpline
210
0.0
220
0.0
230
1.0
 70
     8
 71
     3
 72
    50
 73
    46
 74
     0
 42
0.000000001
 43
0.0
 40
0.0
 40
0.0
 40
0.0
 40
0.0
 40
13.54650901424158
 40
27.03828310266824
 40
37.16130921134432
 40
47.33587000511031
 40
54.16640382727151
 40
61.05311863596344
 40
64.53048385669138
 40
65.40546792738971
 40
67.1661354691596
 40
68.05355138884255
 40
68.27255968602114
 40
68.49187208394642
 40
68.93059387867967
 40
69.3692732619199
 40
70.24601525807944
 40
71.55796816037567
 40
72.64672302105133
 40
73.72921456545329
 40
75.87395694339659
 40
77.15546840733884
 40
77.80048173043609
 40
78.2354066699987
 40
78.64998605487654
 40
78.84721258937087
 40
79.04910832769825
 40
79.25551305472152
 40
79.58253643111988
 40
79.81053950920916
 40
80.06054920605911
 40
80.29218057904602
 40
80.57846305010882
 40
80.70984813920963
 40
80.83634629144368
 40
82.03700811031428
 40
82.46600871545063
 40
82.89525742715196
 40
84.6977618977097
 40
86.50460130073238
 40
89.20973539935552
 40
91.86891800268678
 40
96.35750920025528
 40
100.846720812851
 40
101.5551677279768
 40
101.5551677279768
 40
101.5551677279768
 40
101.5551677279768
 10
615.527976796825
 20
698.5141006709989
 30
0.0
 10
619.9956807535166
 20
699.1693642417799
 30
0.0
 10
628.9130737156257
 20
700.477191190478
 30
0.0
 10
641.1689480816875
 20
702.2742342543376
 30
0.0
 10
652.3128427806968
 20
703.90745906886
 30
0.0
 10
661.259947589145
 20
705.2191953340435
 30
0.0
 10
669.1393864367186
 20
706.3756497027246
 30
0.0
 10
674.8095830048374
 20
707.2080882670465
 30
0.0
 10
678.5155410799204
 20
707.7513032881649
 30
0.0
 10
680.5306857630866
 20
708.0460433937072
 30
0.0
 10
681.6917103237774
 20
708.2155266905876
 30
0.0
 10
682.6361449194236
 20
708.3529315336939
 30
0.0
 10
683.0726789169422
 20
708.416326357593
 30
0.0
 10
683.3614907380527
 20
708.458236648908
 30
0.0
 10
683.7233682972077
 20
708.5106859521647
 30
0.0
 10
684.3019570124575
 20
708.5943896728909
 30
0.0
 10
685.1649093356567
 20
708.718832624471
 30
0.0
 10
686.2195488047327
 20
708.8699075270903
 30
0.0
 10
687.2894901799903
 20
709.0215481583498
 30
0.0
 10
688.5331769889299
 20
709.1959082910216
 30
0.0
 10
689.6548644816941
 20
709.3503158896974
 30
0.0
 10
690.4093898685103
 20
709.4510002390774
 30
0.0
 10
690.7426810870652
 20
709.4942395504967
 30
0.0
 10
690.9119872844477
 20
709.515694405815
 30
0.0
 10
691.0048852762193
 20
709.5271653090782
 30
0.0
 10
691.0614410371223
 20
709.5339817248332
 30
0.0
 10
691.0934900749306
 20
709.5377644204519
 30
0.0
 10
691.1216177548386
 20
709.5409975637493
 30
0.0
 10
691.1384874785493
 20
709.5428275970454
 30
0.0
 10
691.1252994662042
 20
709.5414003085407
 30
0.0
 10
691.0857144326568
 20
709.5375406452936
 30
0.0
 10
691.0175342927665
 20
709.5317140404368
 30
0.0
 10
690.9419451588881
 20
709.5263867477898
 30
0.0
 10
690.8729522427723
 20
709.5224443727342
 30
0.0
 10
690.669717283605
 20
709.5127469667503
 30
0.0
 10
690.579516535851
 20
709.514041809449
 30
0.0
 10
690.6016382945179
 20
709.5139379550344
 30
0.0
 10
690.6085024092196
 20
709.5140994070574
 30
0.0
 10
690.6192447503647
 20
709.5141421394895
 30
0.0
 10
690.7017669836221
 20
709.5151597717869
 30
0.0
 10
690.4072868504137
 20
709.5121453908073
 30
0.0
 10
690.065111073327
 20
709.5252974959656
 30
0.0
 10
690.2181783648422
 20
709.5193722547734
 30
0.0
 10
690.1860661826605
 20
709.520610686757
 30
0.0
 10
690.1864951950986
 20
709.5205756663154
 30
0.0
 10
690.1867296567608
 20
709.5205640202549
 30
0.0
  0
ARC
  5
A5
330
9C
100
AcDbEntity
  8
0
  6
Continuous
 62
     0
370
    30
100
AcDbCircle
 10
690.528232
 20
718.515615
 30
0.0
 40
9.00143065057577
100
AcDbArc
 50
37.820337
 51
89.533857
  0
SPLINE
  5
A6
330
9C
100
AcDbEntity
  8
0
  6
Continuous
 62
     0
370
    30
100
AcDbSpline
210
0.0
220
0.0
230
1.0
 70
     8
 71
     3
 72
    46
 73
    42
 74
     0
 42
0.000000001
 43
0.0
 40
0.0
 40
0.0
 40
0.0
 40
0.0
 40
13.54650901424158
 40
27.03828310266825
 40
37.16130921134432
 40
47.33587000511031
 40
54.16640382727151
 40
61.05311863596344
 40
64.53048385669138
 40
65.40546792738971
 40
67.16613546915958
 40
68.05355138884254
 40
68.27255968602111
 40
68.49187208394639
 40
68.93059387867966
 40
69.36927326191987
 40
70.24601525807938
 40
71.55796816037558
 40
72.64672302105126
 40
73.72921456545323
 40
75.87395694339654
 40
77.15546840733876
 40
77.80048173043606
 40
78.23540666999861
 40
78.64998605487642
 40
78.84721258937076
 40
79.04910832769806
 40
79.25551305472132
 40
79.58253643111956
 40
79.81053950920864
 40
80.06054920605841
 40
80.29218057904522
 40
80.57846305010779
 40
80.70984813920848
 40
80.8363462914424
 40
82.03700811031219
 40
82.46600871545041
 40
82.89525742715364
 40
84.69776189771699
 40
86.50460130074464
 40
88.1813701041864
 40
88.1813701041864
 40
88.1813701041864
 40
88.1813701041864
 10
615.5279571267106
 20
738.5170520667988
 30
0.0
 10
619.9956610834012
 20
737.8617884960178
 30
0.0
 10
628.9130540459684
 20
736.5539615473197
 30
0.0
 10
641.1689284182215
 20
734.7569184834601
 30
0.0
 10
652.3128231228403
 20
733.1236936689377
 30
0.0
 10
661.2599279321374
 20
731.811957403754
 30
0.0
 10
669.1393667754492
 20
730.6555030350731
 30
0.0
 10
674.8095633364089
 20
729.8230644707512
 30
0.0
 10
678.5155214044491
 20
729.2798494496327
 30
0.0
 10
680.5306660817585
 20
728.9851093440905
 30
0.0
 10
681.6916906381148
 20
728.8156260472101
 30
0.0
 10
682.6361252293361
 20
728.6782212041037
 30
0.0
 10
683.0726592245405
 20
728.6148263802047
 30
0.0
 10
683.3614710441166
 20
728.5729160888897
 30
0.0
 10
683.7233486026776
 20
728.520466785633
 30
0.0
 10
684.3019373195418
 20
728.4367630649068
 30
0.0
 10
685.1648896509848
 20
728.3123201133267
 30
0.0
 10
686.2195291424724
 20
728.1612452107074
 30
0.0
 10
687.2894705554635
 20
728.0096045794478
 30
0.0
 10
688.5331574263652
 20
727.8352444467761
 30
0.0
 10
689.65484500776
 20
727.6808368481003
 30
0.0
 10
690.4093704934899
 20
727.5801524987203
 30
0.0
 10
690.7426617743822
 20
727.5369131873009
 30
0.0
 10
690.9119680127186
 20
727.5154583319827
 30
0.0
 10
691.0048660339004
 20
727.5039874287195
 30
0.0
 10
691.0614218179948
 20
727.4971710129645
 30
0.0
 10
691.09347087323
 20
727.4933883173458
 30
0.0
 10
691.1215985744245
 20
727.4901551740484
 30
0.0
 10
691.138468320305
 20
727.4883251407523
 30
0.0
 10
691.1252803314331
 20
727.489752429257
 30
0.0
 10
691.0856953183082
 20
727.493612092504
 30
0.0
 10
691.0175152000063
 20
727.4994386973609
 30
0.0
 10
690.941926083865
 20
727.5047659900077
 30
0.0
 10
690.872933182413
 20
727.5087083650635
 30
0.0
 10
690.6696982618597
 20
727.5184057710474
 30
0.0
 10
690.5794975664658
 20
727.5171109283486
 30
0.0
 10
690.601619384959
 20
727.5172147827632
 30
0.0
 10
690.6084835771975
 20
727.5170533307407
 30
0.0
 10
690.6192260367034
 20
727.5170105983001
 30
0.0
 10
690.6883089883682
 20
727.5161586959289
 30
0.0
 10
690.5882371612164
 20
727.5171613182862
 30
0.0
 10
690.5293045474991
 20
727.5172114437014
 30
0.0
  0
ARC
  5
A7
330
9C
100
AcDbEntity
  8
0
  6
Continuous
 62
     0
370
    30
100
AcDbCircle
 10
690.528068
 20
718.515576
 30
0.0
 40
9.000000000000027
100
AcDbArc
 50
37.819825
 51
88.810789
  0
ENDBLK
  5
A9
330
9C
100
AcDbEntity
  8
0
100
AcDbBlockEnd
  0
BLOCK
  5
BD
330
AB
100
AcDbEntity
  8
0
100
AcDbBlockBegin
  2
d
 70
     0
 10
-451.456543
 20
830.124054
 30
0.0
  3
d
  1

  0
SPLINE
  5
AC
330
AB
100
AcDbEntity
  8
0
  6
Continuous
 62
     0
370
    30
100
AcDbSpline
210
0.0
220
0.0
230
1.0
 70
     8
 71
     3
 72
    15
 73
    11
 74
     0
 42
0.000000001
 43
0.0
 40
0.0
 40
0.0
 40
0.0
 40
0.0
 40
1.33596536861468
 40
3.65536308716327
 40
5.67964790609278
 40
7.873453421889209
 40
9.899165113329179
 40
12.0934334589125
 40
14.2873951391566
 40
16.26295478509474
 40
16.26295478509474
 40
16.26295478509474
 40
16.26295478509474
 10
492.9696022871187
 20
862.5274227687
 30
0.0
 10
492.9677460762912
 20
862.9619268970893
 30
0.0
 10
492.9987994246347
 20
864.1705906827941
 30
0.0
 10
493.2000605056321
 20
866.0671027201158
 30
0.0
 10
493.6270104265527
 20
868.1435181056145
 30
0.0
 10
494.1944019978761
 20
869.9225945368643
 30
0.0
 10
494.9080729411701
 20
871.4368640099636
 30
0.0
 10
495.7149634825143
 20
872.558493129568
 30
0.0
 10
496.5644817573097
 20
873.2001992761369
 30
0.0
 10
497.1202808732912
 20
873.3037220468219
 30
0.0
 10
497.3771271416029
 20
873.2806029969292
 30
0.0
  0
SPLINE
  5
AD
330
AB
100
AcDbEntity
  8
0
  6
Continuous
 62
     0
370
    30
100
AcDbSpline
210
0.0
220
0.0
230
1.0
 70
     8
 71
     7
 72
    41
 73
    33
 74
     0
 42
0.000000001
 43
0.0
 40
0.0
 40
0.0
 40
0.0
 40
0.0
 40
0.0
 40
0.0
 40
0.0
 40
0.0
 40
0.18
 40
0.18
 40
0.18
 40
0.18
 40
0.18
 40
0.207136
 40
0.207136
 40
0.207136
 40
0.207136
 40
0.207136
 40
0.2312
 40
0.2312
 40
0.2312
 40
0.2312
 40
0.2312
 40
0.354848
 40
0.354848
 40
0.354848
 40
0.354848
 40
0.354848
 40
0.42161792
 40
0.42161792
 40
0.42161792
 40
0.42161792
 40
0.42161792
 40
0.4607167755787912
 40
0.4607167755787912
 40
0.4607167755787912
 40
0.4607167755787912
 40
0.4607167755787912
 40
0.4607167755787912
 40
0.4607167755787912
 40
0.4607167755787912
 10
569.1973718164488
 20
875.3914435859001
 30
0.0
 10
569.2027878283875
 20
874.1146100489434
 30
0.0
 10
569.208203840326
 20
872.8377765119867
 30
0.0
 10
569.213619852171
 20
871.5609429952121
 30
0.0
 10
569.2190358639011
 20
870.2841095079013
 30
0.0
 10
569.2244518755381
 20
869.0072760506177
 30
0.0
 10
569.2306843808178
 20
867.5379528838196
 30
0.0
 10
569.2369168858936
 20
866.0686297352057
 30
0.0
 10
569.2371742018927
 20
865.8761967652655
 30
0.0
 10
569.2398753356797
 20
865.6835167340392
 30
0.0
 10
569.2381118838641
 20
865.4912851318152
 30
0.0
 10
569.2430724538806
 20
865.1277604542288
 30
0.0
 10
569.2389551495614
 20
864.7651228163122
 30
0.0
 10
569.2298387668468
 20
864.5954038736872
 30
0.0
 10
569.2213578438211
 20
864.4258854674433
 30
0.0
 10
569.2072486107193
 20
864.2571338790527
 30
0.0
 10
569.1028042151629
 20
863.2253219360567
 30
0.0
 10
568.8708081057175
 20
862.2230328320136
 30
0.0
 10
568.5909627511339
 20
861.4153177439424
 30
0.0
 10
568.2149080018705
 20
860.6604453680786
 30
0.0
 10
567.7710417254309
 20
859.954257481067
 30
0.0
 10
566.9705813049209
 20
858.9723244146462
 30
0.0
 10
566.0163425463463
 20
858.1702207134417
 30
0.0
 10
565.6644769978916
 20
857.9120490155344
 30
0.0
 10
565.2972580415767
 20
857.6777229585687
 30
0.0
 10
564.9161216072257
 20
857.4675610266319
 30
0.0
 10
564.2914856158352
 20
857.1761432010921
 30
0.0
 10
563.6389601080803
 20
856.9531288582498
 30
0.0
 10
563.3945233266712
 20
856.8800790943653
 30
0.0
 10
563.1470362194798
 20
856.8167070033709
 30
0.0
 10
562.896894702194
 20
856.763002392272
 30
0.0
 10
562.6444790963378
 20
856.718836193798
 30
0.0
 10
562.3901589793193
 20
856.6841346778403
 30
0.0
  0
SPLINE
  5
AE
330
AB
100
AcDbEntity
  8
0
  6
Continuous
 62
     0
370
    30
100
AcDbSpline
210
0.0
220
0.0
230
1.0
 70
     8
 71
     7
 72
    51
 73
    43
 74
     0
 42
0.000000001
 43
0.0
 40
0.3676096960211169
 40
0.3676096960211169
 40
0.3676096960211169
 40
0.3676096960211169
 40
0.3676096960211169
 40
0.3676096960211169
 40
0.3676096960211169
 40
0.3676096960211169
 40
0.500000074586541
 40
0.500000074586541
 40
0.500000074586541
 40
0.500000074586541
 40
0.500000074586541
 40
0.5023804928
 40
0.5023804928
 40
0.5023804928
 40
0.5023804928
 40
0.5023804928
 40
0.57838208
 40
0.57838208
 40
0.57838208
 40
0.57838208
 40
0.57838208
 40
0.645152
 40
0.645152
 40
0.645152
 40
0.645152
 40
0.645152
 40
0.7688
 40
0.7688
 40
0.7688
 40
0.7688
 40
0.7688
 40
0.792864
 40
0.792864
 40
0.792864
 40
0.792864
 40
0.792864
 40
0.82
 40
0.82
 40
0.82
 40
0.82
 40
0.82
 40
1.0
 40
1.0
 40
1.0
 40
1.0
 40
1.0
 40
1.0
 40
1.0
 40
1.0
 10
554.7522767550541
 20
893.9816237817644
 30
0.0
 10
555.4192796906779
 20
894.5320526816987
 30
0.0
 10
556.1540739815028
 20
894.9925509785909
 30
0.0
 10
556.9441194404988
 20
895.3557242075965
 30
0.0
 10
557.7808372726022
 20
895.6095305677906
 30
0.0
 10
558.6463027219924
 20
895.7509990694539
 30
0.0
 10
559.5429692329069
 20
895.7854473827681
 30
0.0
 10
560.4400939798641
 20
895.702741276828
 30
0.0
 10
560.4559396950738
 20
895.7012438820566
 30
0.0
 10
560.4717853796083
 20
895.6997098743291
 30
0.0
 10
560.4876309463993
 20
895.6981392199664
 30
0.0
 10
561.0093843202226
 20
895.6452131404217
 30
0.0
 10
561.5308206122768
 20
895.5524765055399
 30
0.0
 10
562.0332162001464
 20
895.4250647793177
 30
0.0
 10
562.5298793440427
 20
895.268482004418
 30
0.0
 10
563.0183550630436
 20
895.0729441299968
 30
0.0
 10
563.9144023608023
 20
894.6435593517291
 30
0.0
 10
564.7607456494184
 20
894.0987982617389
 30
0.0
 10
565.1439563036813
 20
893.8199447581903
 30
0.0
 10
565.513443933834
 20
893.519411170642
 30
0.0
 10
565.8677688120915
 20
893.1977744173971
 30
0.0
 10
566.8295423870281
 20
892.2234794428683
 30
0.0
 10
567.638946459773
 20
891.0968684888265
 30
0.0
 10
568.08914431518
 20
890.3103314105775
 30
0.0
 10
568.4718920852658
 20
889.4872657512686
 30
0.0
 10
568.7588055328245
 20
888.6286162729133
 30
0.0
 10
568.9994844910452
 20
887.5838480466878
 30
0.0
 10
569.1127649997272
 20
886.5324692522005
 30
0.0
 10
569.128317101311
 20
886.3610520113259
 30
0.0
 10
569.1382431078237
 20
886.1898793815525
 30
0.0
 10
569.1488067605248
 20
886.0183918018745
 30
0.0
 10
569.1560047236144
 20
885.6547372652776
 30
0.0
 10
569.1541254167307
 20
885.2918272846738
 30
0.0
 10
569.1575215839521
 20
885.0991319894895
 30
0.0
 10
569.15645356612
 20
884.9067906904028
 30
0.0
 10
569.1578291332376
 20
884.7142572236442
 30
0.0
 10
569.1640612625106
 20
883.2449341085673
 30
0.0
 10
569.1702933917338
 20
881.775610975329
 30
0.0
 10
569.1757090764354
 20
880.4987775472214
 30
0.0
 10
569.1811247612986
 20
879.2219440890807
 30
0.0
 10
569.1865404462969
 20
877.9451106014742
 30
0.0
 10
569.1919561313728
 20
876.6682770936873
 30
0.0
 10
569.1973718164488
 20
875.3914435859001
 30
0.0
  0
SPLINE
  5
AF
330
AB
100
AcDbEntity
  8
0
  6
Continuous
 62
     0
370
    30
100
AcDbSpline
210
0.0
220
0.0
230
1.0
 70
     8
 71
     3
 72
    79
 73
    75
 74
     0
 42
0.000000001
 43
0.0
 40
0.0
 40
0.0
 40
0.0
 40
0.0
 40
11.31404994646145
 40
15.10329806947482
 40
18.8980625113112
 40
22.69542686197411
 40
24.5937073308513
 40
26.49530079729421
 40
26.9732154995517
 40
27.44722733813351
 40
27.91705200380883
 40
29.29919884761555
 40
29.75013203709941
 40
30.19588355859954
 40
31.04697763437623
 40
31.89133712001859
 40
32.11291243791559
 40
32.33446791696453
 40
32.55410064913555
 40
32.77320688563839
 40
32.99345461787689
 40
33.21331096006646
 40
33.65295981875924
 40
34.09289555132525
 40
34.7539683631455
 40
35.41728623995842
 40
36.3062689646101
 40
37.20159125744502
 40
38.10395551326268
 40
38.78547754440804
 40
39.24203681556028
 40
39.47095478136502
 40
39.69999006767205
 40
40.1581141069958
 40
40.84600460816885
 40
41.30465416638049
 40
41.76297898364491
 40
42.22069177656111
 40
42.67706936756284
 40
42.94032514384214
 40
43.40781969507526
 40
43.58728661649528
 40
43.83003471460376
 40
44.04488952365161
 40
44.10106218642436
 40
44.12926941765619
 40
44.27820967038745
 40
44.40292540137426
 40
44.52430759698251
 40
45.42068135335527
 40
46.30341201180788
 40
46.73932755041433
 40
47.17188910803254
 40
48.02752814819009
 40
49.3586142421126
 40
50.0156774616
 40
50.668220739063
 40
50.99305062211337
 40
51.31643055628394
 40
51.63905420674944
 40
51.96120000472153
 40
52.60407558290134
 40
54.99408465169316
 40
56.73156560406017
 40
60.17708701196533
 40
63.58973676519979
 40
66.97538271564527
 40
70.37418610962942
 40
77.11903416731481
 40
80.4725654451517
 40
87.163038009166
 40
98.88523250032512
 40
105.6266598276951
 40
112.9620207622945
 40
112.9620207622945
 40
112.9620207622945
 40
112.9620207622945
 10
495.7653422681433
 20
855.3514059878767
 30
0.0
 10
499.2228005289371
 20
855.0409829002874
 30
0.0
 10
503.8436671653234
 20
854.6280477571113
 30
0.0
 10
509.6299009825161
 20
854.1123841527292
 30
0.0
 10
513.1157592794439
 20
853.8020933107435
 30
0.0
 10
516.0224738355346
 20
853.5431540515287
 30
0.0
 10
518.3502456337053
 20
853.3364345453208
 30
0.0
 10
519.6593143975838
 20
853.2187993916634
 30
0.0
 10
520.5323597751822
 20
853.1428173414588
 30
0.0
 10
520.9709259688454
 20
853.1055740678363
 30
0.0
 10
521.6925657910272
 20
853.0456030285413
 30
0.0
 10
522.4155534962317
 20
852.9881302376301
 30
0.0
 10
523.1380794852744
 20
852.9330661050948
 30
0.0
 10
523.6946959421969
 20
852.8914490044274
 30
0.0
 10
524.3808389463197
 20
852.8417823534674
 30
0.0
 10
524.9987170918164
 20
852.7976857195266
 30
0.0
 10
525.4106089447155
 20
852.7705225377025
 30
0.0
 10
525.6250694924138
 20
852.7570861949607
 30
0.0
 10
525.8406619713141
 20
852.7441744891323
 30
0.0
 10
526.0570254726704
 20
852.7317550468626
 30
0.0
 10
526.2741219780926
 20
852.7198688197129
 30
0.0
 10
526.5653021121311
 20
852.7047214163159
 30
0.0
 10
526.930732218148
 20
852.6871334515931
 30
0.0
 10
527.4440572650706
 20
852.6650757445374
 30
0.0
 10
528.0310113162359
 20
852.6436079933574
 30
0.0
 10
528.7605864962434
 20
852.6225346595377
 30
0.0
 10
529.55197872744
 20
852.6069325147846
 30
0.0
 10
530.3917995436814
 20
852.5996023955167
 30
0.0
 10
531.1328525416989
 20
852.6019639058084
 30
0.0
 10
531.7148024667072
 20
852.6105841697837
 30
0.0
 10
532.0902097516116
 20
852.6196180999825
 30
0.0
 10
532.3361047236256
 20
852.6270400744042
 30
0.0
 10
532.5766651421045
 20
852.6352988273845
 30
0.0
 10
532.9278999034882
 20
852.6495931388272
 30
0.0
 10
533.3229432572484
 20
852.6702503878273
 30
0.0
 10
533.7044091965975
 20
852.6955102433751
 30
0.0
 10
534.0232392172852
 20
852.7207602421227
 30
0.0
 10
534.3378819049517
 20
852.7504745341408
 30
0.0
 10
534.6028089387055
 20
852.7804904734936
 30
0.0
 10
534.8628812512484
 20
852.8140627505403
 30
0.0
 10
535.0663513416162
 20
852.8438835406317
 30
0.0
 10
535.2724726669076
 20
852.8783065293057
 30
0.0
 10
535.4201367113326
 20
852.9049367540617
 30
0.0
 10
535.5538309179822
 20
852.9316026348931
 30
0.0
 10
535.6157115978888
 20
852.94458559375
 30
0.0
 10
535.6529855504193
 20
852.952463692872
 30
0.0
 10
535.674908070818
 20
852.9571439755078
 30
0.0
 10
535.6921501976346
 20
852.9607618157852
 30
0.0
 10
535.7796562941969
 20
852.978947408368
 30
0.0
 10
535.929012559817
 20
853.0094094658629
 30
0.0
 10
536.1054895559366
 20
853.0436114054453
 30
0.0
 10
536.2521083008342
 20
853.0711073849262
 30
0.0
 10
536.3999547019962
 20
853.0982045687716
 30
0.0
 10
536.6347216407437
 20
853.1398367086929
 30
0.0
 10
536.9099850714701
 20
853.1860647731102
 30
0.0
 10
537.1831544797913
 20
853.2298587947732
 30
0.0
 10
537.3610075619022
 20
853.257566745426
 30
0.0
 10
537.5036675357751
 20
853.2793538305914
 30
0.0
 10
537.6211103393875
 20
853.2970803950392
 30
0.0
 10
537.7399230205863
 20
853.3149830079346
 30
0.0
 10
537.8977032473931
 20
853.3386727343759
 30
0.0
 10
538.3109840583156
 20
853.4004424049085
 30
0.0
 10
538.9061514794089
 20
853.4881537435147
 30
0.0
 10
539.8657925710897
 20
853.6272833065661
 30
0.0
 10
540.9739125451274
 20
853.7850222263776
 30
0.0
 10
542.3190458268255
 20
853.9727717763884
 30
0.0
 10
543.6782695831685
 20
854.1594819877258
 30
0.0
 10
545.5036784461108
 20
854.4069846001593
 30
0.0
 10
547.3512134418404
 20
854.653611989431
 30
0.0
 10
549.6670695293583
 20
854.9602990983328
 30
0.0
 10
552.6826824506463
 20
855.3580139182034
 30
0.0
 10
556.1534411750001
 20
855.8195768075144
 30
0.0
 10
559.6294769052035
 20
856.2955013756485
 30
0.0
 10
561.4805940335641
 20
856.5551884120348
 30
0.0
 10
562.4314562572667
 20
856.6899883289211
 30
0.0
  0
SPLINE
  5
B0
330
AB
100
AcDbEntity
  8
0
  6
Continuous
 62
     0
370
    30
100
AcDbSpline
210
0.0
220
0.0
230
1.0
 70
     8
 71
     3
 72
   127
 73
   123
 74
     0
 42
0.000000001
 43
0.0
 40
0.0
 40
0.0
 40
0.0
 40
0.0
 40
9.783482239037772
 40
13.04268721010689
 40
16.3015184999219
 40
19.56133261525541
 40
20.37646354811141
 40
21.19172830326711
 40
21.59940612608726
 40
22.00712530836401
 40
22.41879480956766
 40
23.25395320497693
 40
24.09955636093646
 40
24.95701535240325
 40
25.39057917602164
 40
25.82754322772709
 40
26.26802580300742
 40
26.70125082451778
 40
27.13832237422736
 40
27.38086264846491
 40
27.41995696185094
 40
27.49150288095392
 40
27.62240952638946
 40
27.75730863509918
 40
27.89595149718686
 40
28.04496608372211
 40
28.17570044290592
 40
28.31662431333248
 40
28.46348820577199
 40
28.7708140623299
 40
28.93144704078557
 40
29.08438400060753
 40
29.86552144563391
 40
30.18419611070634
 40
30.50547385917758
 40
30.66691593659424
 40
30.82879247078044
 40
31.31630693046359
 40
31.47920610803445
 40
31.7511139250135
 40
32.02293836269796
 40
32.29437393050457
 40
32.56512303929986
 40
32.63267509585607
 40
32.7001544307728
 40
32.83565560525507
 40
32.84596276229654
 40
32.85616056418333
 40
32.86646747303266
 40
32.89685870550509
 40
32.90381025791942
 40
32.91071354815499
 40
32.93728915116163
 40
32.97101588349862
 40
33.00467495458786
 40
33.07206505131774
 40
33.13955650205195
 40
33.27483713761058
 40
33.41052660362524
 40
33.54663410372221
 40
33.68317015177057
 40
33.83664443496085
 40
33.99069072196571
 40
34.45649505012258
 40
34.6130780070454
 40
34.77037334584585
 40
34.92841916988578
 40
35.05667149161389
 40
35.17728191627863
 40
35.29917769840628
 40
35.41521250682742
 40
35.6460614399826
 40
35.7586216197024
 40
35.95204232726973
 40
36.03366209100723
 40
36.10193181198873
 40
36.20689560909192
 40
36.23889247177139
 40
36.2709516263005
 40
36.41096637629072
 40
36.51703757013672
 40
36.62165865286565
 40
36.72822292736389
 40
36.94086829364523
 40
37.15422389079531
 40
37.36878518240871
 40
37.58465325987922
 40
38.20717911694118
 40
38.62667099230604
 40
39.26305033108901
 40
40.23784187344975
 40
40.57080721548247
 40
41.02523424792788
 40
41.25684084610533
 40
41.36306380260378
 40
41.46415543179213
 40
41.56035086561224
 40
41.65254679426369
 40
41.74112998455997
 40
41.82641509337967
 40
41.84733913619949
 40
41.86616046466354
 40
41.90445377534979
 40
41.94253301207122
 40
41.98016092319882
 40
42.41960209612846
 40
42.86066383484735
 40
43.74719676123763
 40
44.63955139458255
 40
46.06107731016476
 40
47.49619024189639
 40
48.94423409981337
 40
50.4045246029041
 40
53.35892235929852
 40
56.35336997860282
 40
59.71404795967025
 40
66.52673803721264
 40
69.96268354171968
 40
78.60302340705135
 40
88.93330714255158
 40
95.76311673947318
 40
103.5550820572944
 40
103.5550820572944
 40
103.5550820572944
 40
103.5550820572944
 10
497.3767786940258
 20
873.280645142825
 30
0.0
 10
500.3643347870682
 20
873.0117316110579
 30
0.0
 10
504.3407333091641
 20
872.6519367076489
 30
0.0
 10
509.3053708251277
 20
872.2012933582416
 30
0.0
 10
512.2822157122116
 20
871.9308234701739
 30
0.0
 10
514.5146350751379
 20
871.7279166567222
 30
0.0
 10
516.0032559256551
 20
871.5926315135887
 30
0.0
 10
516.6237286950116
 20
871.536248086458
 30
0.0
 10
517.1199889423385
 20
871.4911558557997
 30
0.0
 10
517.4939408149637
 20
871.4571799129378
 30
0.0
 10
517.9954827195593
 20
871.4116165732893
 30
0.0
 10
518.6234748014642
 20
871.353204709586
 30
0.0
 10
519.3799580068446
 20
871.280955498938
 30
0.0
 10
520.0114809650397
 20
871.2190863217492
 30
0.0
 10
520.5194324059366
 20
871.1684682531293
 30
0.0
 10
520.9035012395277
 20
871.1297770544692
 30
0.0
 10
521.2859817319486
 20
871.0908638516285
 30
0.0
 10
521.6680866914744
 20
871.0515900075718
 30
0.0
 10
521.9891052991384
 20
871.0184233831046
 30
0.0
 10
522.2003802755962
 20
870.9962548901735
 30
0.0
 10
522.3149678553
 20
870.9848044840707
 30
0.0
 10
522.395097077148
 20
870.9770471020438
 30
0.0
 10
522.5067473382678
 20
870.9671619457988
 30
0.0
 10
522.6400351340078
 20
870.957078663816
 30
0.0
 10
522.7807373954297
 20
870.9479195184758
 30
0.0
 10
522.9202091114273
 20
870.9401030006732
 30
0.0
 10
523.058905153976
 20
870.9336766751634
 30
0.0
 10
523.197477034591
 20
870.9286291959231
 30
0.0
 10
523.3939922018203
 20
870.9233198870086
 30
0.0
 10
523.5962781448059
 20
870.9208308733057
 30
0.0
 10
523.7994855647544
 20
870.9212361757229
 30
0.0
 10
524.1563679917513
 20
870.9253017875993
 30
0.0
 10
524.5595005910905
 20
870.9410146362214
 30
0.0
 10
525.006992832215
 20
870.9717386304637
 30
0.0
 10
525.25569761633
 20
870.9930857982185
 30
0.0
 10
525.4533619351043
 20
871.0125749486
 30
0.0
 10
525.6998791684625
 20
871.038992637267
 30
0.0
 10
525.9423776561403
 20
871.0691842440291
 30
0.0
 10
526.2120006360374
 20
871.1073770296953
 30
0.0
 10
526.4154772828551
 20
871.1385757738001
 30
0.0
 10
526.6457160518908
 20
871.1772861984682
 30
0.0
 10
526.8698648417023
 20
871.2182997987513
 30
0.0
 10
527.0359669381594
 20
871.2512886456775
 30
0.0
 10
527.1414156176043
 20
871.2731952427696
 30
0.0
 10
527.219338956816
 20
871.2897796923805
 30
0.0
 10
527.2425169708697
 20
871.2947009139842
 30
0.0
 10
527.2875426884814
 20
871.3048166242836
 30
0.0
 10
527.2964745557917
 20
871.3068140254431
 30
0.0
 10
527.3090724027038
 20
871.3096284091096
 30
0.0
 10
527.3377600845415
 20
871.3159929148762
 30
0.0
 10
527.3335150895334
 20
871.3150498570154
 30
0.0
 10
527.329400612349
 20
871.3141234540731
 30
0.0
 10
527.3520858625934
 20
871.3192619914373
 30
0.0
 10
527.374135918074
 20
871.3242698456671
 30
0.0
 10
527.4075434952169
 20
871.3319405013356
 30
0.0
 10
527.4482420569907
 20
871.3414159447427
 30
0.0
 10
527.5133135148526
 20
871.3568499532502
 30
0.0
 10
527.5931922803838
 20
871.376328512651
 30
0.0
 10
527.6871172626286
 20
871.4000727199544
 30
0.0
 10
527.7789654066521
 20
871.4241307268929
 30
0.0
 10
527.8723226924776
 20
871.449452267887
 30
0.0
 10
527.9667668314678
 20
871.4760206670069
 30
0.0
 10
528.1258994817058
 20
871.5225208927582
 30
0.0
 10
528.2743725838477
 20
871.5693572754363
 30
0.0
 10
528.4119646651948
 20
871.6159816248439
 30
0.0
 10
528.4906080027013
 20
871.6435908511253
 30
0.0
 10
528.5643222200938
 20
871.6704682186862
 30
0.0
 10
528.6184942862646
 20
871.6908590694125
 30
0.0
 10
528.6620776329237
 20
871.7077835314828
 30
0.0
 10
528.7055885765851
 20
871.7251679910519
 30
0.0
 10
528.7531482624158
 20
871.744738310609
 30
0.0
 10
528.7987690575158
 20
871.7643034898905
 30
0.0
 10
528.8444479709606
 20
871.7847213860042
 30
0.0
 10
528.8741182061128
 20
871.7984829972538
 30
0.0
 10
528.897482148504
 20
871.8096649462343
 30
0.0
 10
528.9138247341712
 20
871.81763773651
 30
0.0
 10
528.9255446135592
 20
871.8234342582408
 30
0.0
 10
528.9533200842866
 20
871.8374286049086
 30
0.0
 10
528.9946327107116
 20
871.8583528427267
 30
0.0
 10
529.06733369528
 20
871.8954543750593
 30
0.0
 10
529.1494555043867
 20
871.9376500030432
 30
0.0
 10
529.2155338917837
 20
871.9719263521825
 30
0.0
 10
529.3147198524637
 20
872.0238382445943
 30
0.0
 10
529.4285070184299
 20
872.084116846105
 30
0.0
 10
529.5629784163741
 20
872.1566309636166
 30
0.0
 10
529.6940983868699
 20
872.228618357607
 30
0.0
 10
529.903631199511
 20
872.3456975845504
 30
0.0
 10
530.1395980264247
 20
872.4822057089639
 30
0.0
 10
530.420180749506
 20
872.6516982152784
 30
0.0
 10
530.7233538232265
 20
872.8436547937195
 30
0.0
 10
530.9482712107101
 20
872.9980140031653
 30
0.0
 10
531.0900196060982
 20
873.1015502283487
 30
0.0
 10
531.1475472358202
 20
873.1456497616525
 30
0.0
 10
531.1734248155146
 20
873.166283659222
 30
0.0
 10
531.182155758707
 20
873.1733793645137
 30
0.0
 10
531.1859507251443
 20
873.1765088665869
 30
0.0
 10
531.1871326949447
 20
873.1775009019742
 30
0.0
 10
531.1863125883692
 20
873.1768133482756
 30
0.0
 10
531.1836047820202
 20
873.1745021819637
 30
0.0
 10
531.180128453695
 20
873.1714978532137
 30
0.0
 10
531.1775369830336
 20
873.1692328646184
 30
0.0
 10
531.186551812486
 20
873.1771119547277
 30
0.0
 10
531.2025918459831
 20
873.191132428485
 30
0.0
 10
531.2197470979315
 20
873.206105548973
 30
0.0
 10
531.2786668917993
 20
873.2575469320492
 30
0.0
 10
531.4055664994198
 20
873.3685709179296
 30
0.0
 10
531.630988142648
 20
873.5660548027798
 30
0.0
 10
531.9191340716184
 20
873.8191928775229
 30
0.0
 10
532.3297594435469
 20
874.1811252944835
 30
0.0
 10
532.8089279511705
 20
874.60513611126
 30
0.0
 10
533.3555461522774
 20
875.0908567175845
 30
0.0
 10
533.9040770038841
 20
875.5800343901359
 30
0.0
 10
534.6407853044198
 20
876.2390534366175
 30
0.0
 10
535.5655185835467
 20
877.0694970809072
 30
0.0
 10
536.7194125239935
 20
878.1093333373027
 30
0.0
 10
538.3428220042078
 20
879.5754589952644
 30
0.0
 10
540.0120493686977
 20
881.0847025829421
 30
0.0
 10
542.3319529993705
 20
883.1771315161761
 30
0.0
 10
545.0976743696015
 20
885.6600243317355
 30
0.0
 10
548.3563786714737
 20
888.5434924055767
 30
0.0
 10
551.6371436912423
 20
891.3794921290549
 30
0.0
 10
553.6493635104393
 20
893.0721179583585
 30
0.0
 10
554.7543673731843
 20
893.9833478092496
 30
0.0
  0
SPLINE
  5
B1
330
AB
100
AcDbEntity
  8
0
  6
Continuous
 62
     0
370
    30
100
AcDbSpline
210
0.0
220
0.0
230
1.0
 70
     8
 71
     3
 72
    16
 73
    12
 74
     0
 42
0.000000001
 43
0.0
 40
12.01029675529899
 40
12.01029675529899
 40
12.01029675529899
 40
12.01029675529899
 40
12.0939316520475
 40
14.2881205967379
 40
16.4823755371708
 40
18.6760853374277
 40
20.6995646240973
 40
22.8920289146698
 40
24.9170064395778
 40
27.0113544874755
 40
28.2762282688505
 40
28.2762282688505
 40
28.2762282688505
 40
28.2762282688505
 10
152.7986170657555
 20
904.24624094596
 30
0.0
 10
152.7877448120856
 20
904.2472333109583
 30
0.0
 10
152.4913176863942
 20
904.2707322979793
 30
0.0
 10
151.8930105900254
 20
904.127931621093
 30
0.0
 10
151.0182194858601
 20
903.3947635833422
 30
0.0
 10
150.222155445597
 20
902.2134289948244
 30
0.0
 10
149.5252633776817
 20
900.6508114478465
 30
0.0
 10
148.9787700090571
 20
898.8374791759355
 30
0.0
 10
148.5911323208502
 20
896.8121809816198
 30
0.0
 10
148.4148884721493
 20
895.014559899014
 30
0.0
 10
148.388102368656
 20
893.904797566687
 30
0.0
 10
148.3898567447145
 20
893.4933836847704
 30
0.0
  0
SPLINE
  5
B2
330
AB
100
AcDbEntity
  8
0
  6
Continuous
 62
     0
370
    30
100
AcDbSpline
210
0.0
220
0.0
230
1.0
 70
     8
 71
     7
 72
    51
 73
    43
 74
     0
 42
0.000000001
 43
0.0
 40
0.3667644580107101
 40
0.3667644580107101
 40
0.3667644580107101
 40
0.3667644580107101
 40
0.3667644580107101
 40
0.3667644580107101
 40
0.3667644580107101
 40
0.3667644580107101
 40
0.42161792
 40
0.42161792
 40
0.42161792
 40
0.42161792
 40
0.42161792
 40
0.4976195072
 40
0.4976195072
 40
0.4976195072
 40
0.4976195072
 40
0.4976195072
 40
0.4999999254134589
 40
0.4999999254134589
 40
0.4999999254134589
 40
0.4999999254134589
 40
0.4999999254134589
 40
0.645152
 40
0.645152
 40
0.645152
 40
0.645152
 40
0.645152
 40
0.7688
 40
0.7688
 40
0.7688
 40
0.7688
 40
0.7688
 40
0.792864
 40
0.792864
 40
0.792864
 40
0.792864
 40
0.792864
 40
0.82
 40
0.82
 40
0.82
 40
0.82
 40
0.82
 40
1.0
 40
1.0
 40
1.0
 40
1.0
 40
1.0
 40
1.0
 40
1.0
 40
1.0
 10
142.3265859673206
 20
931.0158613277451
 30
0.0
 10
142.6019108366805
 20
931.2452743771478
 30
0.0
 10
142.888974412427
 20
931.459224656335
 30
0.0
 10
143.1868270694067
 20
931.6572531175581
 30
0.0
 10
143.4945407412706
 20
931.8389636362997
 30
0.0
 10
143.8113680768781
 20
932.00386373661
 30
0.0
 10
144.5873064371221
 20
932.3545434459261
 30
0.0
 10
145.4058522602646
 20
932.6007214194218
 30
0.0
 10
145.8930415428525
 20
932.7085769247976
 30
0.0
 10
146.3887550617155
 20
932.7759754456996
 30
0.0
 10
146.8904529373733
 20
932.8131499226213
 30
0.0
 10
147.4115002937239
 20
932.8121991886196
 30
0.0
 10
147.9332027951123
 20
932.7713505079283
 30
0.0
 10
147.9490471283605
 20
932.7700732097654
 30
0.0
 10
147.9648918904152
 20
932.7687592158325
 30
0.0
 10
147.9807369938558
 20
932.7674085754902
 30
0.0
 10
148.9627934623272
 20
932.6814309287407
 30
0.0
 10
149.9454917118946
 20
932.4550528650886
 30
0.0
 10
150.8932142149272
 20
932.1071108985506
 30
0.0
 10
151.8044225844966
 20
931.6295894862977
 30
0.0
 10
152.654194051603
 20
931.0330470926378
 30
0.0
 10
154.1004049970779
 20
929.7462091479108
 30
0.0
 10
155.2429881243515
 20
928.1558489774786
 30
0.0
 10
155.6931867879214
 20
927.3693116090949
 30
0.0
 10
156.0759354788821
 20
926.5462456185251
 30
0.0
 10
156.362849542752
 20
925.6875954507186
 30
0.0
 10
156.6035289895834
 20
924.6428262236493
 30
0.0
 10
156.7168097075062
 20
923.5914462427825
 30
0.0
 10
156.7323618318235
 20
923.4200288048295
 30
0.0
 10
156.7422878900384
 20
923.2488559681965
 30
0.0
 10
156.752851479699
 20
923.0773681917063
 30
0.0
 10
156.7600495837521
 20
922.7137131927642
 30
0.0
 10
156.758169999477
 20
922.3508027772489
 30
0.0
 10
156.7615660358797
 20
922.1581072554703
 30
0.0
 10
156.7604979850037
 20
921.9657657164198
 30
0.0
 10
156.7618734286793
 20
921.7732320209773
 30
0.0
 10
156.7681048131903
 20
920.303907142141
 30
0.0
 10
156.7743361974971
 20
918.8345822814892
 30
0.0
 10
156.7797512346668
 20
917.5577474003818
 30
0.0
 10
156.785166271743
 20
916.2809125493012
 30
0.0
 10
156.7905813087048
 20
915.0040777276846
 30
0.0
 10
156.7959963455727
 20
913.7272429262501
 30
0.0
 10
156.8014113824407
 20
912.4504081248158
 30
0.0
  0
LINE
  5
B3
330
AB
100
AcDbEntity
  8
0
  6
Continuous
 62
     0
370
    30
100
AcDbLine
 10
156.801411
 20
912.450408
 30
0.0
 11
156.837742
 21
903.883249
 31
0.0
  0
SPLINE
  5
B4
330
AB
100
AcDbEntity
  8
0
  6
Continuous
 62
     0
370
    30
100
AcDbSpline
210
0.0
220
0.0
230
1.0
 70
     8
 71
     3
 72
    25
 73
    21
 74
     0
 42
0.000000001
 43
0.0
 40
0.0
 40
0.0
 40
0.0
 40
0.0
 40
7.534574432358973
 40
11.31606686546964
 40
15.10630030501259
 40
18.90204784570106
 40
22.7002363420106
 40
23.64964785364143
 40
24.59886515828098
 40
25.07338177749271
 40
25.5478177776296
 40
25.78519114206167
 40
26.02254346181455
 40
26.26192226292924
 40
26.50899976238752
 40
27.00082006317124
 40
27.48918520662245
 40
27.97365924522375
 40
28.45382088819051
 40
28.92785817602612
 40
28.92785817602612
 40
28.92785817602612
 40
28.92785817602612
 10
151.18539622271
 20
886.3171918819133
 30
0.0
 10
148.8840817768593
 20
886.5242179088282
 30
0.0
 10
145.4306156234899
 20
886.835854525001
 30
0.0
 10
140.8243945745974
 20
887.2527423877785
 30
0.0
 10
137.3597076211081
 20
887.5667572817098
 30
0.0
 10
133.8910763903914
 20
887.8814043687399
 30
0.0
 10
131.2884691559435
 20
888.1175788169504
 30
0.0
 10
129.5530965046094
 20
888.2750445847064
 30
0.0
 10
128.8302094971318
 20
888.3406348347135
 30
0.0
 10
128.2519635258318
 20
888.393097839057
 30
0.0
 10
127.890658458522
 20
888.4258767522082
 30
0.0
 10
127.6013841091852
 20
888.4521193780815
 30
0.0
 10
127.3838241499544
 20
888.4718610496469
 30
0.0
 10
127.1630795024276
 20
888.4918565819861
 30
0.0
 10
126.8590413809322
 20
888.5196536407575
 30
0.0
 10
126.4814928565276
 20
888.5547479905163
 30
0.0
 10
126.0326966802497
 20
888.597361718551
 30
0.0
 10
125.5906955062593
 20
888.6402365693707
 30
0.0
 10
125.1560242876038
 20
888.6832770849309
 30
0.0
 10
124.8701147198003
 20
888.7121951850756
 30
0.0
 10
124.7285011687054
 20
888.726635191365
 30
0.0
  0
SPLINE
  5
B5
330
AB
100
AcDbEntity
  8
0
  6
Continuous
 62
     0
370
    30
100
AcDbSpline
210
0.0
220
0.0
230
1.0
 70
     8
 71
     3
 72
    56
 73
    52
 74
     0
 42
0.000000001
 43
0.0
 40
0.0
 40
0.0
 40
0.0
 40
0.0
 40
0.704140349008682
 40
2.0793062261864
 40
3.813282211359259
 40
4.813191146506941
 40
5.485339674797542
 40
5.654671488502787
 40
5.82456121976379
 40
5.995259396475567
 40
6.166073917875789
 40
6.335717337697301
 40
6.635309045651126
 40
6.936320953046798
 40
7.391494684673531
 40
8.163426981578358
 40
8.6380447296728
 40
9.457923563953528
 40
10.15494093607659
 40
10.91542902565402
 40
11.56127556426077
 40
12.57213901711776
 40
13.60488412457544
 40
14.88483454757665
 40
15.83587356528265
 40
16.13721924282349
 40
16.43529232290831
 40
16.73236113116351
 40
17.02151118170127
 40
17.60645973218911
 40
18.14918975510638
 40
18.63454351226193
 40
19.12814940968294
 40
19.62141655678249
 40
20.12210331864433
 40
21.143748907602
 40
22.18891655721786
 40
22.7189302089383
 40
23.25315688432455
 40
23.52167979396282
 40
23.78398755807502
 40
24.04226325160312
 40
24.30038868322972
 40
25.33254977975883
 40
26.36502269279663
 40
27.39770629667452
 40
33.26987993511065
 40
39.13083683613851
 40
41.81483652507477
 40
47.16810117086843
 40
49.8381489353203
 40
49.8381489353203
 40
49.8381489353203
 40
49.8381489353203
 10
110.4341169791719
 20
898.7314542309934
 30
0.0
 10
110.4351116027367
 20
898.496934675361
 30
0.0
 10
110.4598790958544
 20
897.8041321637941
 30
0.0
 10
110.6323696467501
 20
896.541591672973
 30
0.0
 10
111.0474531504877
 20
895.2291432594886
 30
0.0
 10
111.5652508930716
 20
894.2168829907262
 30
0.0
 10
111.9001321877024
 20
893.7021573780227
 30
0.0
 10
112.0985139902475
 20
893.4296437291555
 30
0.0
 10
112.2014119275732
 20
893.2943866149891
 30
0.0
 10
112.3074331674492
 20
893.1609286089994
 30
0.0
 10
112.4163224111087
 20
893.0297730058892
 30
0.0
 10
112.5551410188662
 20
892.8687885867939
 30
0.0
 10
112.7273007456407
 20
892.678881443567
 30
0.0
 10
112.9715107464715
 20
892.4263982817673
 30
0.0
 10
113.3398077118746
 20
892.0752510910698
 30
0.0
 10
113.775221135764
 20
891.7113028629442
 30
0.0
 10
114.3314792593893
 20
891.3045676964437
 30
0.0
 10
114.8923263946457
 20
890.949018546728
 30
0.0
 10
115.5576244818676
 20
890.593485005402
 30
0.0
 10
116.1834779088348
 20
890.3111194322294
 30
0.0
 10
116.8987400024577
 20
890.0373292238678
 30
0.0
 10
117.6693750767664
 20
889.7955073042674
 30
0.0
 10
118.5719687084611
 20
889.5684635761753
 30
0.0
 10
119.4365856459486
 20
889.3942748437514
 30
0.0
 10
120.1244520505169
 20
889.278727272329
 30
0.0
 10
120.5566063796082
 20
889.2127895209617
 30
0.0
 10
120.8090265938616
 20
889.1759775008578
 30
0.0
 10
121.064176765525
 20
889.1404324641078
 30
0.0
 10
121.399668466086
 20
889.0956613102253
 30
0.0
 10
121.8238403152582
 20
889.0423387248111
 30
0.0
 10
122.3099227271948
 20
888.9867849366078
 30
0.0
 10
122.7339378750298
 20
888.9393653409402
 30
0.0
 10
123.1582293612573
 20
888.8925477211989
 30
0.0
 10
123.5889306719932
 20
888.8458661018894
 30
0.0
 10
124.1794137870917
 20
888.7830262611005
 30
0.0
 10
124.9423722158343
 20
888.7042310309478
 30
0.0
 10
125.7274747481363
 20
888.6266078541765
 30
0.0
 10
126.3725219449752
 20
888.5649825462488
 30
0.0
 10
126.7822947308184
 20
888.5267367552226
 30
0.0
 10
127.112576925795
 20
888.4964421296362
 30
0.0
 10
127.3545396352547
 20
888.474518346932
 30
0.0
 10
127.5915312496014
 20
888.4530132900641
 30
0.0
 10
128.0635130479969
 20
888.4101954809237
 30
0.0
 10
128.7708655277074
 20
888.346019754762
 30
0.0
 10
129.7144383524204
 20
888.2604049919579
 30
0.0
 10
132.1322818430871
 20
888.0410106751472
 30
0.0
 10
136.0213247930643
 20
887.6880877906157
 30
0.0
 10
140.415237813929
 20
887.2897856633509
 30
0.0
 10
144.6530488809099
 20
886.9062223516183
 30
0.0
 10
147.9205434551583
 20
886.611326304012
 30
0.0
 10
150.3693074465288
 20
886.3904143580651
 30
0.0
 10
151.1853958602268
 20
886.3171919145223
 30
0.0
  0
SPLINE
  5
B6
330
AB
100
AcDbEntity
  8
0
  6
Continuous
 62
     0
370
    30
100
AcDbSpline
210
0.0
220
0.0
230
1.0
 70
     8
 71
     3
 72
    99
 73
    95
 74
     0
 42
0.000000001
 43
0.0
 40
0.0
 40
0.0
 40
0.0
 40
0.0
 40
0.9466892131068848
 40
1.420866287232433
 40
1.896746480541462
 40
2.135656369264544
 40
3.100544179723771
 40
3.590622973375497
 40
4.013735879228772
 40
4.190341870996241
 40
4.368032780739942
 40
4.479681638622919
 40
4.502057447506412
 40
4.513258723963322
 40
4.524460589806938
 40
4.535955450736985
 40
4.560133265188539
 40
4.646385191013335
 40
4.728896173725122
 40
4.777102306341432
 40
4.828002869829542
 40
4.871015075737375
 40
4.916520421175364
 40
5.099921121900115
 40
5.284883540264682
 40
5.471505079903924
 40
5.659888417441314
 40
5.85011811787809
 40
6.042388539411928
 40
6.433172056919603
 40
6.830872404248925
 40
7.045225003055707
 40
7.262593878833686
 40
7.482296837420221
 40
7.704819286056688
 40
8.158715315001501
 40
8.625505546417514
 40
9.106853255089407
 40
9.604954236102026
 40
9.861018176009273
 40
10.1222858225013
 40
10.18843217763057
 40
10.25494475450478
 40
10.28949083254738
 40
10.32923983910842
 40
10.37556519547027
 40
10.42673561982013
 40
10.52645783761479
 40
10.61609113963702
 40
10.7851305507026
 40
10.99818954962431
 40
11.21423032866463
 40
11.42617570299938
 40
11.64107469378468
 40
11.8573736501667
 40
12.07526466006988
 40
12.28774661830361
 40
12.42892286125765
 40
12.4660023101907
 40
12.51224850030859
 40
12.59637389326486
 40
12.77438004423711
 40
13.07906645981383
 40
13.38132520980258
 40
13.8970273675343
 40
14.40950429203403
 40
14.91881091083255
 40
15.42490398991268
 40
16.42859080226929
 40
16.92674647874255
 40
18.33968266572624
 40
18.79628778663244
 40
19.25194920529598
 40
19.47949209586577
 40
19.70687700838931
 40
19.93500073628687
 40
20.16296912795252
 40
20.61774188530413
 40
21.07104355803024
 40
22.86996214899512
 40
24.64683002685908
 40
26.40269756332871
 40
28.13863234745886
 40
29.8557061552278
 40
31.55498831906096
 40
33.30260740868066
 40
36.74851320457687
 40
41.81244976061591
 40
46.78548355160764
 40
51.70794156058722
 40
58.2417187506624
 40
66.45759623029574
 40
73.98694579842895
 40
81.65646563008508
 40
81.65646563008508
 40
81.65646563008508
 40
81.65646563008508
 10
110.4341125917978
 20
898.732490290223
 30
0.0
 10
110.4327797410375
 20
899.0477164660791
 30
0.0
 10
110.4508866790609
 20
899.5208356977936
 30
0.0
 10
110.5164239912467
 20
900.1465110707414
 30
0.0
 10
110.5748819653198
 20
900.5353626868368
 30
0.0
 10
110.6758489890162
 20
901.0799497771969
 30
0.0
 10
110.8088244485679
 20
901.620271948171
 30
0.0
 10
110.9964979482244
 20
902.2027547818749
 30
0.0
 10
111.1195936540906
 20
902.5339334580625
 30
0.0
 10
111.2138524350888
 20
902.7667076348441
 30
0.0
 10
111.2725787586787
 20
902.9049180832419
 30
0.0
 10
111.3131015531693
 20
902.9967236290258
 30
0.0
 10
111.3322074548308
 20
903.0392701177849
 30
0.0
 10
111.3381503809119
 20
903.0524464518023
 30
0.0
 10
111.3425579041159
 20
903.0621932586668
 30
0.0
 10
111.3492185603133
 20
903.0768696078078
 30
0.0
 10
111.356414405647
 20
903.0927052063156
 30
0.0
 10
111.3897273507849
 20
903.1653933892791
 30
0.0
 10
111.4190675744435
 20
903.2274460638695
 30
0.0
 10
111.4437641531495
 20
903.2789559734297
 30
0.0
 10
111.4615575076076
 20
903.3157313048712
 30
0.0
 10
111.4823693510356
 20
903.3582502801444
 30
0.0
 10
111.5204141199396
 20
903.4350798037884
 30
0.0
 10
111.5806402507061
 20
903.5535454555297
 30
0.0
 10
111.6632521552689
 20
903.7092423672968
 30
0.0
 10
111.7492744268637
 20
903.864831410226
 30
0.0
 10
111.8385256335444
 20
904.0198307159975
 30
0.0
 10
111.9311641321495
 20
904.1744320870864
 30
0.0
 10
112.0598363907344
 20
904.3809265741012
 30
0.0
 10
112.2294828581223
 20
904.6378514509006
 30
0.0
 10
112.4100874242339
 20
904.8914091184547
 30
0.0
 10
112.5681435826316
 20
905.1022966540567
 30
0.0
 10
112.6936036232669
 20
905.2642253884127
 30
0.0
 10
112.8233033326618
 20
905.4260621318831
 30
0.0
 10
113.0023627158105
 20
905.6421489230831
 30
0.0
 10
113.2366471050119
 20
905.9109302534953
 30
0.0
 10
113.5330802151357
 20
906.2289926702986
 30
0.0
 10
113.8479701141548
 20
906.5449321163136
 30
0.0
 10
114.1243924968431
 20
906.8041324721225
 30
0.0
 10
114.3559713387226
 20
907.0105085037362
 30
0.0
 10
114.4906940882503
 20
907.1264801847512
 30
0.0
 10
114.5823166828806
 20
907.203658769919
 30
0.0
 10
114.6213811817422
 20
907.2362776901724
 30
0.0
 10
114.6541940760919
 20
907.2634918297316
 30
0.0
 10
114.6805428437085
 20
907.2852493519837
 30
0.0
 10
114.708813783115
 20
907.3085029748397
 30
0.0
 10
114.7478701401296
 20
907.3405124092484
 30
0.0
 10
114.7962573111519
 20
907.3799662683915
 30
0.0
 10
114.8725569387989
 20
907.4416951779981
 30
0.0
 10
114.9771844144536
 20
907.5252537651573
 30
0.0
 10
115.105083263138
 20
907.6254551370013
 30
0.0
 10
115.2442735116744
 20
907.7324966481667
 30
0.0
 10
115.3875704411433
 20
907.8403391067611
 30
0.0
 10
115.5313754351273
 20
907.9462860365602
 30
0.0
 10
115.6784716293902
 20
908.0523138153028
 30
0.0
 10
115.8268140578211
 20
908.1568443349818
 30
0.0
 10
115.9587775339263
 20
908.2477713166822
 30
0.0
 10
116.0512077727724
 20
908.3102203800529
 30
0.0
 10
116.1004129031093
 20
908.3431882557738
 30
0.0
 10
116.134888158686
 20
908.3662177066665
 30
0.0
 10
116.1904749756131
 20
908.4032251529057
 30
0.0
 10
116.2566028152759
 20
908.4473034089466
 30
0.0
 10
116.3818605355501
 20
908.5314519252879
 30
0.0
 10
116.5365653278689
 20
908.6356700533479
 30
0.0
 10
116.726564867872
 20
908.764777679443
 30
0.0
 10
116.9396451724087
 20
908.9110839027725
 30
0.0
 10
117.1493617671109
 20
909.0566436915683
 30
0.0
 10
117.4200355924172
 20
909.2466841268287
 30
0.0
 10
117.6802445842176
 20
909.4328400761881
 30
0.0
 10
118.0454660702136
 20
909.6995107855364
 30
0.0
 10
118.3275960185373
 20
909.9113883822465
 30
0.0
 10
118.5916384393172
 20
910.1157574455348
 30
0.0
 10
118.7168836661486
 20
910.2141824164514
 30
0.0
 10
118.8175432907892
 20
910.2942467595161
 30
0.0
 10
118.8848634599352
 20
910.3482230462229
 30
0.0
 10
118.9796692526247
 20
910.4246694878848
 30
0.0
 10
119.0993561188822
 20
910.5212889202663
 30
0.0
 10
119.2500040071086
 20
910.6432289771371
 30
0.0
 10
119.6062853020272
 20
910.9326024447138
 30
0.0
 10
120.1332140521047
 20
911.3642574793843
 30
0.0
 10
120.8223582358365
 20
911.936225877414
 30
0.0
 10
121.4959406796518
 20
912.5022405464942
 30
0.0
 10
122.1548222317881
 20
913.0624124574284
 30
0.0
 10
122.800018344127
 20
913.6170107599504
 30
0.0
 10
123.4406703490885
 20
914.1733938367016
 30
0.0
 10
124.2882754886633
 20
914.9167176947619
 30
0.0
 10
125.534655442415
 20
916.0248039963566
 30
0.0
 10
127.1489421345813
 20
917.487120073925
 30
0.0
 10
128.9276730206957
 20
919.1222213265561
 30
0.0
 10
130.8892874988295
 20
920.9367406617031
 30
0.0
 10
133.2768775114507
 20
923.1394834951868
 30
0.0
 10
136.0788928425877
 20
925.6758184440381
 30
0.0
 10
139.16681835254
 20
928.3755840615686
 30
0.0
 10
141.2695345852389
 20
930.1442577653219
 30
0.0
 10
142.3573602812498
 20
931.0412414619689
 30
0.0
  0
ELLIPSE
  5
B7
330
AB
100
AcDbEntity
  8
0
  6
Continuous
 62
     0
370
    30
100
AcDbEllipse
 10
151.991266
 20
895.282528
 30
0.0
 11
0.8055793861810285
 21
8.963874265771484
 31
0.0
210
0.0
220
0.0
230
1.0
 40
0.391616
 41
0.0000000035005563
 42
0.2359283251201045
  0
ELLIPSE
  5
B8
330
AB
100
AcDbEntity
  8
0
  6
Continuous
 62
     0
370
    30
100
AcDbEllipse
 10
151.991266
 20
895.282528
 30
0.0
 11
0.8055793861810285
 21
8.963874265771484
 31
0.0
210
0.0
220
0.0
230
1.0
 40
0.391616
 41
0.2359283251201045
 42
3.141592657090347
  0
ELLIPSE
  5
B9
330
AB
100
AcDbEntity
  8
0
  6
Continuous
 62
     0
370
    30
100
AcDbEllipse
 10
496.571017
 20
864.315299
 30
0.0
 11
-0.8055793861810309
 21
-8.96387426577151
 31
0.0
210
0.0
220
0.0
230
-1.0
 40
0.391616
 41
6.283151909321772
 42
7.795917072420768
  0
LINE
  5
BA
330
AB
100
AcDbEntity
  8
0
  6
Continuous
 62
     0
370
    30
100
AcDbLine
 10
495.765438
 20
855.351425
 30
0.0
 11
151.185686
 21
886.318654
 31
0.0
  0
LINE
  5
BB
330
AB
100
AcDbEntity
  8
0
  6
Continuous
 62
     0
370
    30
100
AcDbLine
 10
497.376596
 20
873.279174
 30
0.0
 11
152.796845
 21
904.246402
 31
0.0
  0
LINE
  5
BC
330
AB
100
AcDbEntity
  8
0
  6
Continuous
 62
     0
370
    30
100
AcDbLine
 10
152.378106
 20
904.221235
 30
0.0
 11
127.52479
 21
906.538523
 31
0.0
  0
ENDBLK
  5
BE
330
AB
100
AcDbEntity
  8
0
100
AcDbBlockEnd
  0
BLOCK
  5
CD
330
C0
100
AcDbEntity
  8
0
100
AcDbBlockBegin
  2
e
 70
     0
 10
89.43885
 20
0.0
 30
0.0
  3
e
  1

  0
ARC
  5
C1
330
C0
100
AcDbEntity
  8
0
  6
Continuous
 62
     0
370
    30
100
AcDbCircle
 10
-30.892716
 20
718.515521
 30
0.0
 40
9.001445864809094
100
AcDbArc
 50
217.820372
 51
269.621319
  0
SPLINE
  5
C2
330
C0
100
AcDbEntity
  8
0
  6
Continuous
 62
     0
370
    30
100
AcDbSpline
210
0.0
220
0.0
230
1.0
 70
     8
 71
     3
 72
    31
 73
    27
 74
     0
 42
0.000000001
 43
0.0
 40
0.0
 40
0.0
 40
0.0
 40
0.0
 40
13.54650901424158
 40
27.03828310266824
 40
37.16130921134432
 40
47.33587000511031
 40
54.16640382727151
 40
61.05311863596344
 40
64.53048385669138
 40
65.40546792738971
 40
67.1661354691596
 40
68.05355138884255
 40
68.27255968602114
 40
68.49187208394642
 40
68.93059387867967
 40
69.3692732619199
 40
70.24601525807944
 40
71.55796816037567
 40
72.64672302105133
 40
73.72921456545329
 40
75.87395694339659
 40
77.15546840733884
 40
77.80048173043609
 40
78.2354066699987
 40
78.64998605487654
 40
78.65932947379761
 40
78.65932947379761
 40
78.65932947379761
 40
78.65932947379761
 10
44.10755081523733
 20
698.5140701534208
 30
0.0
 10
39.63984685854678
 20
699.1693337242018
 30
0.0
 10
30.7224538959796
 20
700.4771606728999
 30
0.0
 10
18.46657952372641
 20
702.2742037367594
 30
0.0
 10
7.322684819107621
 20
703.9074285512819
 30
0.0
 10
-1.624419990189423
 20
705.2191648164654
 30
0.0
 10
-9.503858833501198
 20
706.3756191851464
 30
0.0
 10
-15.17405539446095
 20
707.2080577494684
 30
0.0
 10
-18.88001346250108
 20
707.7512727705868
 30
0.0
 10
-20.89515813981053
 20
708.0460128761291
 30
0.0
 10
-22.05618269616673
 20
708.2154961730095
 30
0.0
 10
-23.00061728738812
 20
708.3529010161158
 30
0.0
 10
-23.43715128259254
 20
708.4162958400149
 30
0.0
 10
-23.72596310216854
 20
708.4582061313299
 30
0.0
 10
-24.0878406607296
 20
708.5106554345866
 30
0.0
 10
-24.66642937759393
 20
708.5943591553128
 30
0.0
 10
-25.52938170903691
 20
708.7188021068929
 30
0.0
 10
-26.58402120052452
 20
708.8698770095122
 30
0.0
 10
-27.65396261351555
 20
709.0215176407717
 30
0.0
 10
-28.89764948441723
 20
709.1958777734435
 30
0.0
 10
-30.01933706581215
 20
709.3502853721193
 30
0.0
 10
-30.77386255154185
 20
709.4509697214993
 30
0.0
 10
-31.10715383243438
 20
709.4942090329185
 30
0.0
 10
-31.27646007077067
 20
709.5156638882369
 30
0.0
 10
-31.35268334743603
 20
709.525075819965
 30
0.0
 10
-31.38465339508144
 20
709.5289631448487
 30
0.0
 10
-31.38535523907228
 20
709.5290484499465
 30
0.0
  0
ARC
  5
C3
330
C0
100
AcDbEntity
  8
0
  6
Continuous
 62
     0
370
    30
100
AcDbCircle
 10
-30.893981
 20
718.518536
 30
0.0
 40
8.998486268813322
100
AcDbArc
 50
89.998921
 51
180.014906
  0
ARC
  5
C4
330
C0
100
AcDbEntity
  8
0
  6
Continuous
 62
     0
370
    30
100
AcDbCircle
 10
-30.894112
 20
718.513978
 30
0.0
 40
8.998355281365532
100
AcDbArc
 50
179.985885
 51
268.753102
  0
LINE
  5
C5
330
C0
100
AcDbEntity
  8
0
  6
Continuous
 62
     0
370
    30
100
AcDbLine
 10
44.107531
 20
718.517022
 30
0.0
 11
44.107557
 21
698.51702
 31
0.0
  0
LINE
  5
C6
330
C0
100
AcDbEntity
  8
0
  6
Continuous
 62
     0
370
    30
100
AcDbLine
 10
44.10752
 20
738.517022
 30
0.0
 11
44.107531
 21
718.517022
 31
0.0
  0
ARC
  5
C7
330
C0
100
AcDbEntity
  8
0
  6
Continuous
 62
     0
370
    30
100
AcDbCircle
 10
-30.892469
 20
718.51832
 30
0.0
 40
8.999998300209697
100
AcDbArc
 50
142.531308
 51
180.013182
  0
SPLINE
  5
C8
330
C0
100
AcDbEntity
  8
0
  6
Continuous
 62
     0
370
    30
100
AcDbSpline
210
0.0
220
0.0
230
1.0
 70
     8
 71
     3
 72
    50
 73
    46
 74
     0
 42
0.000000001
 43
0.0
 40
0.0
 40
0.0
 40
0.0
 40
0.0
 40
13.54650901424158
 40
27.03828310266825
 40
37.16130921134432
 40
47.33587000511031
 40
54.16640382727151
 40
61.05311863596344
 40
64.53048385669138
 40
65.40546792738971
 40
67.16613546915958
 40
68.05355138884254
 40
68.27255968602111
 40
68.49187208394639
 40
68.93059387867966
 40
69.36927326191987
 40
70.24601525807938
 40
71.55796816037558
 40
72.64672302105126
 40
73.72921456545323
 40
75.87395694339654
 40
77.15546840733876
 40
77.80048173043606
 40
78.23540666999861
 40
78.64998605487642
 40
78.84721258937076
 40
79.04910832769806
 40
79.25551305472132
 40
79.58253643111956
 40
79.81053950920864
 40
80.06054920605841
 40
80.29218057904522
 40
80.57846305010779
 40
80.70984813920848
 40
80.8363462914424
 40
82.03700811031219
 40
82.46600871545041
 40
82.89525742715364
 40
84.69776189771699
 40
86.50460130074464
 40
89.20973551360797
 40
91.86891822924426
 40
96.35750983287394
 40
100.8467218512362
 40
101.5551677269318
 40
101.5551677269318
 40
101.5551677269318
 40
101.5551677269318
 10
44.10753114512297
 20
738.5170215492207
 30
0.0
 10
39.63982718843145
 20
737.8617579784396
 30
0.0
 10
30.72243422632228
 20
736.5539310297415
 30
0.0
 10
18.46655986026045
 20
734.756887965882
 30
0.0
 10
7.322665161251251
 20
733.1236631513596
 30
0.0
 10
-1.624439647197022
 20
731.8119268861759
 30
0.0
 10
-9.503878494770646
 20
730.655472517495
 30
0.0
 10
-15.1740750628893
 20
729.8230339531731
 30
0.0
 10
-18.88003313797239
 20
729.2798189320546
 30
0.0
 10
-20.8951778211386
 20
728.9850788265123
 30
0.0
 10
-22.05620238182945
 20
728.815595529632
 30
0.0
 10
-23.00063697747558
 20
728.6781906865256
 30
0.0
 10
-23.43717097499422
 20
728.6147958626266
 30
0.0
 10
-23.72598279610466
 20
728.5728855713115
 30
0.0
 10
-24.08786035525971
 20
728.5204362680548
 30
0.0
 10
-24.66644907050944
 20
728.4367325473287
 30
0.0
 10
-25.52940139370872
 20
728.3122895957486
 30
0.0
 10
-26.58404086278462
 20
728.1612146931293
 30
0.0
 10
-27.65398223804225
 20
728.0095740618697
 30
0.0
 10
-28.89766904698187
 20
727.835213929198
 30
0.0
 10
-30.01935653974594
 20
727.6808063305222
 30
0.0
 10
-30.77388192656235
 20
727.5801219811422
 30
0.0
 10
-31.10717314511709
 20
727.5368826697228
 30
0.0
 10
-31.27647934249973
 20
727.5154278144046
 30
0.0
 10
-31.36937733427128
 20
727.5039569111414
 30
0.0
 10
-31.42593309517439
 20
727.4971404953864
 30
0.0
 10
-31.45798213298266
 20
727.4933577997676
 30
0.0
 10
-31.4861098128906
 20
727.4901246564702
 30
0.0
 10
-31.50297953660134
 20
727.4882946231742
 30
0.0
 10
-31.48979152425622
 20
727.4897219116789
 30
0.0
 10
-31.45020649070904
 20
727.4935815749259
 30
0.0
 10
-31.38202635081885
 20
727.4994081797828
 30
0.0
 10
-31.30643721694057
 20
727.5047354724296
 30
0.0
 10
-31.23744430082496
 20
727.5086778474854
 30
0.0
 10
-31.03420934165808
 20
727.5183752534692
 30
0.0
 10
-30.94400859390196
 20
727.5170804107705
 30
0.0
 10
-30.96613035257407
 20
727.517184265185
 30
0.0
 10
-30.97299446722822
 20
727.5170228131626
 30
0.0
 10
-30.98373680913468
 20
727.516980080722
 30
0.0
 10
-31.06625904000006
 20
727.5159624484497
 30
0.0
 10
-30.77177890905014
 20
727.5189768293911
 30
0.0
 10
-30.42960312936084
 20
727.5058247242101
 30
0.0
 10
-30.58267042835607
 20
727.511749965656
 30
0.0
 10
-30.55055824691329
 20
727.5105115337025
 30
0.0
 10
-30.5509872564669
 20
727.5105465540278
 30
0.0
 10
-30.55122171732824
 20
727.5105582000533
 30
0.0
  0
ARC
  5
C9
330
C0
100
AcDbEntity
  8
0
  6
Continuous
 62
     0
370
    30
100
AcDbCircle
 10
-30.893851
 20
718.513661
 30
0.0
 40
8.998528131863726
100
AcDbArc
 50
180.962147
 51
217.815384
  0
SPLINE
  5
CA
330
C0
100
AcDbEntity
  8
0
  6
Continuous
 62
     0
370
    30
100
AcDbSpline
210
0.0
220
0.0
230
1.0
 70
     8
 71
     3
 72
    18
 73
    14
 74
     0
 42
0.000000001
 43
0.0
 40
0.0
 40
0.0
 40
0.0
 40
0.0
 40
0.6653709870503204
 40
1.107665986847294
 40
1.550523202021904
 40
1.772581766359768
 40
2.218744505495633
 40
2.44316509054902
 40
2.668677040262037
 40
2.895488955634192
 40
3.123779986160153
 40
3.353849476176858
 40
3.586867138228919
 40
3.586867138228919
 40
3.586867138228919
 40
3.586867138228919
 10
-39.89246864392729
 20
718.5160052588396
 30
0.0
 10
-39.89246377261355
 20
718.294305174214
 30
0.0
 10
-39.87833708926999
 20
717.924930615165
 30
0.0
 10
-39.82594692633614
 20
717.4128299863532
 30
0.0
 10
-39.77035991086919
 20
717.0515178211849
 30
0.0
 10
-39.70138333143876
 20
716.6935194358946
 30
0.0
 10
-39.63553975820366
 20
716.410043517964
 30
0.0
 10
-39.55958546616449
 20
716.1304824040797
 30
0.0
 10
-39.49724635371305
 20
715.9221803084048
 30
0.0
 10
-39.43030863303031
 20
715.7153139597251
 30
0.0
 10
-39.35660390961738
 20
715.5118166814168
 30
0.0
 10
-39.28442803888075
 20
715.3042676603553
 30
0.0
 10
-39.21675359200714
 20
715.1824885747939
 30
0.0
 10
-39.19790368365358
 20
715.1089205954937
 30
0.0
  0
SPLINE
  5
CB
330
C0
100
AcDbEntity
  8
0
  6
Continuous
 62
     0
370
    30
100
AcDbSpline
210
0.0
220
0.0
230
1.0
 70
     8
 71
     3
 72
    59
 73
    55
 74
     0
 42
0.000000001
 43
0.0
 40
0.0
 40
0.0
 40
0.0
 40
0.0
 40
10.16547253405543
 40
20.29666150257572
 40
30.40940746553171
 40
40.54512833271395
 40
47.33586621687222
 40
52.45421858451491
 40
55.88146211067438
 40
59.32422451519677
 40
61.05311880774651
 40
62.78804304881414
 40
64.5304863306263
 40
65.40547123198724
 40
66.28375486451226
 40
67.16614092712139
 40
68.05355821115774
 40
68.71123878010883
 40
68.9306016712854
 40
69.1499536096059
 40
69.80779859298467
 40
70.46500104083938
 40
71.33967973325345
 40
71.99405598413588
 40
73.08062356781483
 40
75.01877130888991
 40
76.3008571212609
 40
77.15547266155731
 40
78.01722488536794
 40
78.45548226486024
 40
78.84712372652278
 40
79.25534002426836
 40
79.58225488291055
 40
79.81013465735084
 40
79.96824456238339
 40
80.14276773726549
 40
80.21941427585243
 40
80.43991270711898
 40
80.57741424021472
 40
80.70867763453174
 40
80.83509028369056
 40
82.02862861454113
 40
82.45734919470833
 40
82.88633137020739
 40
83.77896530945394
 40
84.67327590441455
 40
85.1043652196397
 40
85.53646204767357
 40
85.73518012713355
 40
85.93450831928865
 40
86.02952922806737
 40
86.12475570999315
 40
86.53209078460236
 40
87.83415356155729
 40
87.83415356155729
 40
87.83415356155729
 40
87.83415356155729
 10
44.1079705954599
 20
698.517062035361
 30
0.0
 10
40.75533704182349
 20
699.008706615907
 30
0.0
 10
34.06136134395933
 20
699.9902918927728
 30
0.0
 10
24.03218312799142
 20
701.4607969811885
 30
0.0
 10
14.01288177285565
 20
702.9293489237081
 30
0.0
 10
5.095127168376479
 20
704.2361047549664
 30
0.0
 10
-2.175434003151139
 20
705.3021283030844
 30
0.0
 10
-7.23332975261485
 20
706.0442622463617
 30
0.0
 10
-11.18689860451377
 20
706.6245394858621
 30
0.0
 10
-14.02254193322318
 20
707.0406899124877
 30
0.0
 10
-16.29999277577937
 20
707.3747309809796
 30
0.0
 10
-18.01670355754518
 20
707.626371999321
 30
0.0
 10
-19.45171890825026
 20
707.8365202207832
 30
0.0
 10
-20.60407124031705
 20
708.0050380370978
 30
0.0
 10
-21.47274852296026
 20
708.1319078790382
 30
0.0
 10
-22.34529835708679
 20
708.2591204976865
 30
0.0
 10
-23.14489558628615
 20
708.3754343361591
 30
0.0
 10
-23.72587889255868
 20
708.459733001998
 30
0.0
 10
-24.08764102865452
 20
708.5121332921628
 30
0.0
 10
-24.44935722676192
 20
708.5644784838817
 30
0.0
 10
-24.95472764702015
 20
708.6374664931116
 30
0.0
 10
-25.6700337861095
 20
708.7404059917195
 30
0.0
 10
-26.37233794758853
 20
708.8409665829765
 30
0.0
 10
-27.19014729454089
 20
708.9573533074209
 30
0.0
 10
-28.29559247908603
 20
709.1132799582284
 30
0.0
 10
-29.45668238426947
 20
709.2746053864647
 30
0.0
 10
-30.34562912000354
 20
709.395317603287
 30
0.0
 10
-30.87196572623135
 20
709.4651968949341
 30
0.0
 10
-31.16569421896091
 20
709.5031256995766
 30
0.0
 10
-31.33642162034774
 20
709.5244959656708
 30
0.0
 10
-31.43129233134916
 20
709.5360133951418
 30
0.0
 10
-31.48161322881393
 20
709.5418548285054
 30
0.0
 10
-31.50292833098405
 20
709.5441674732061
 30
0.0
 10
-31.49131548067422
 20
709.5429108330788
 30
0.0
 10
-31.46436014728449
 20
709.540262123986
 30
0.0
 10
-31.43458999297341
 20
709.5375553575553
 30
0.0
 10
-31.39280936060473
 20
709.5340454945829
 30
0.0
 10
-31.34711481788288
 20
709.5305406873513
 30
0.0
 10
-31.28799540736821
 20
709.5266822296661
 30
0.0
 10
-31.2380405559279
 20
709.5238203516316
 30
0.0
 10
-31.03590415007686
 20
709.5141604177334
 30
0.0
 10
-30.94954795472621
 20
709.5154332792556
 30
0.0
 10
-30.97246955084937
 20
709.5153526170632
 30
0.0
 10
-30.97520576755278
 20
709.5154438923701
 30
0.0
 10
-31.000881073692
 20
709.5157358050758
 30
0.0
 10
-30.99757261207921
 20
709.5156403307176
 30
0.0
 10
-31.04550157117637
 20
709.5164422744534
 30
0.0
 10
-31.04671892341339
 20
709.5164092381589
 30
0.0
 10
-31.09955033148509
 20
709.5175736858841
 30
0.0
 10
-31.12016845280033
 20
709.5181087000676
 30
0.0
 10
-31.14996980337175
 20
709.5189728602977
 30
0.0
 10
-31.21046651216908
 20
709.5208671986572
 30
0.0
 10
-30.80950329590656
 20
709.5104780196743
 30
0.0
 10
-30.73304993661593
 20
709.509175526524
 30
0.0
 10
-30.73301581320883
 20
709.5101797633554
 30
0.0
  0
ARC
  5
CC
330
C0
100
AcDbEntity
  8
0
  6
Continuous
 62
     0
370
    30
100
AcDbCircle
 10
-30.89256
 20
718.515546
 30
0.0
 40
9.0
100
AcDbArc
 50
217.819825
 51
266.989656
  0
ENDBLK
  5
CE
330
C0
100
AcDbEntity
  8
0
100
AcDbBlockEnd
  0
ENDSEC
  0
SECTION
  2
ENTITIES
  0
INSERT
  5
8C
330
1F
100
AcDbEntity
  8
0
  6
Continuous
 62
     7
370
     0
100
AcDbBlockReference
  2
a
 10
65.971436
 20
171.389008
 30
0.0
  0
INSERT
  5
9B
330
1F
100
AcDbEntity
  8
0
  6
Continuous
 62
     7
370
     0
100
AcDbBlockReference
  2
b
 10
266.172485
 20
519.562164
 30
0.0
  0
INSERT
  5
AA
330
1F
100
AcDbEntity
  8
0
  6
Continuous
 62
     7
370
     0
100
AcDbBlockReference
  2
c
 10
65.971436
 20
-34.075531
 30
0.0
  0
INSERT
  5
BF
330
1F
100
AcDbEntity
  8
0
  6
Continuous
 62
     7
370
     0
100
AcDbBlockReference
  2
d
 10
-451.456543
 20
830.124054
 30
0.0
  0
INSERT
  5
CF
330
1F
100
AcDbEntity
  8
0
  6
Continuous
 62
     7
370
     0
100
AcDbBlockReference
  2
e
 10
89.43885
 20
0.0
 30
0.0
  0
ENDSEC
  0
SECTION
  2
OBJECTS
  0
DICTIONARY
  5
C
330
0
100
AcDbDictionary
281
     1
  3
ACAD_GROUP
350
D
  3
ACAD_LAYOUT
350
1A
  3
ACAD_MATERIAL
350
43
  3
ACAD_MLEADERSTYLE
350
6B
  3
ACAD_MLINESTYLE
350
17
  3
ACAD_PLOTSETTINGS
350
19
  3
ACAD_PLOTSTYLENAME
350
E
  3
ACAD_SCALELIST
350
47
  3
ACAD_TABLESTYLE
350
69
  3
ACAD_VISUALSTYLE
350
2A
  3
AcDbVariableDictionary
350
D0
  0
DICTIONARY
  5
DB
330
8
100
AcDbDictionary
280
     1
281
     1
  3
ACAD_XREC_ROUNDTRIP
360
DC
  0
DICTIONARY
  5
D
102
{ACAD_REACTORS
330
C
102
}
330
C
100
AcDbDictionary
281
     1
  0
DICTIONARY
  5
1A
102
{ACAD_REACTORS
330
C
102
}
330
C
100
AcDbDictionary
281
     1
  3
Layout1
350
1E
  3
Layout2
350
26
  3
Model
350
22
  0
DICTIONARY
  5
43
102
{ACAD_REACTORS
330
C
102
}
330
C
100
AcDbDictionary
281
     1
  3
ByBlock
350
45
  3
ByLayer
350
44
  3
Global
350
46
  0
DICTIONARY
  5
6B
102
{ACAD_REACTORS
330
C
102
}
330
C
100
AcDbDictionary
281
     1
  3
Standard
350
6C
  0
DICTIONARY
  5
17
102
{ACAD_REACTORS
330
C
102
}
330
C
100
AcDbDictionary
281
     1
  3
Standard
350
18
  0
DICTIONARY
  5
19
102
{ACAD_REACTORS
330
C
102
}
330
C
100
AcDbDictionary
281
     1
  0
ACDBDICTIONARYWDFLT
  5
E
102
{ACAD_REACTORS
330
C
102
}
330
C
100
AcDbDictionary
281
     1
  3
Normal
350
F
100
AcDbDictionaryWithDefault
340
F
  0
DICTIONARY
  5
47
102
{ACAD_REACTORS
330
C
102
}
330
C
100
AcDbDictionary
281
     1
  3
A0
350
48
  3
A1
350
49
  3
A2
350
4A
  3
A3
350
4B
  3
A4
350
4C
  3
A5
350
4D
  3
A6
350
4E
  3
A7
350
4F
  3
A8
350
50
  3
A9
350
51
  3
B0
350
52
  3
B1
350
53
  3
B2
350
54
  3
B3
350
55
  3
B4
350
56
  3
B5
350
57
  3
B6
350
58
  3
B7
350
59
  3
B8
350
5A
  3
B9
350
5B
  3
C0
350
5C
  3
C1
350
5D
  3
C2
350
5E
  3
C3
350
5F
  3
C4
350
60
  3
C5
350
61
  3
C6
350
62
  3
C7
350
63
  3
C8
350
64
  3
C9
350
65
  3
D0
350
66
  3
D1
350
67
  3
D2
350
68
  0
DICTIONARY
  5
69
102
{ACAD_REACTORS
330
C
102
}
330
C
100
AcDbDictionary
281
     1
  3
Standard
350
6A
  0
DICTIONARY
  5
2A
102
{ACAD_REACTORS
330
C
102
}
330
C
100
AcDbDictionary
281
     1
  3
2dWireframe
350
2F
  3
Basic
350
32
  3
Brighten
350
36
  3
ColorChange
350
3A
  3
Conceptual
350
34
  3
Dim
350
35
  3
EdgeColorOff
350
3D
  3
Facepattern
350
39
  3
Flat
350
2B
  3
FlatWithEdges
350
2C
  3
Gouraud
350
2D
  3
GouraudWithEdges
350
2E
  3
Hidden
350
31
  3
JitterOff
350
3B
  3
Linepattern
350
38
  3
OverhangOff
350
3C
  3
Realistic
350
33
  3
Shaded
350
42
  3
Shaded with edges
350
41
  3
Shades of Gray
350
3E
  3
Sketchy
350
3F
  3
Thicken
350
37
  3
Wireframe
350
30
  3
X-Ray
350
40
  0
DICTIONARY
  5
D0
102
{ACAD_REACTORS
330
C
102
}
330
C
100
AcDbDictionary
281
     1
  3
CANNOSCALE
350
DD
  3
CENTEREXE
350
D7
  3
CENTERLTYPEFILE
350
D8
  3
CMLEADERSTYLE
350
D2
  3
CTABLESTYLE
350
D1
  3
DIMASSOC
350
D9
  3
HIDETEXT
350
DA
  3
MSLTSCALE
350
DE
  3
PSOLHEIGHT
350
D4
  3
PSOLWIDTH
350
D3
  0
XRECORD
  5
DC
102
{ACAD_REACTORS
330
DB
102
}
330
DB
100
AcDbXrecord
280
     1
102
VTR_0.000_0.000_1.000_1.000_VISUALSTYLE
340
2F
102
VTR_0.000_0.000_1.000_1.000_GRIDDISPLAY
 70
     3
102
VTR_0.000_0.000_1.000_1.000_GRIDMAJOR
 70
     5
102
VTR_0.000_0.000_1.000_1.000_DEFAULTLIGHTING
280
     1
102
VTR_0.000_0.000_1.000_1.000_DEFAULTLIGHTINGTYPE
 70
     1
102
VTR_0.000_0.000_1.000_1.000_BRIGHTNESS
141
0.0
102
VTR_0.000_0.000_1.000_1.000_CONTRAST
142
0.0
  0
LAYOUT
  5
1E
102
{ACAD_REACTORS
330
1A
102
}
330
1A
100
AcDbPlotSettings
  1

  2
none_device
  4

  6

 40
0.0
 41
0.0
 42
0.0
 43
0.0
 44
0.0
 45
0.0
 46
0.0
 47
0.0
 48
0.0
 49
0.0
140
0.0
141
0.0
142
1.0
143
1.0
 70
   688
 72
     1
 73
     0
 74
     5
  7

 75
    16
147
1.0
148
0.0
149
0.0
100
AcDbLayout
  1
Layout1
 70
     1
 71
     1
 10
0.0
 20
0.0
 11
420.0
 21
297.0
 12
0.0
 22
0.0
 32
0.0
 14
1.000000E+20
 24
1.000000E+20
 34
1.000000E+20
 15
-1.000000E+20
 25
-1.000000E+20
 35
-1.000000E+20
146
0.0
 13
0.0
 23
0.0
 33
0.0
 16
1.0
 26
0.0
 36
0.0
 17
0.0
 27
1.0
 37
0.0
 76
     0
330
1B
  0
LAYOUT
  5
26
102
{ACAD_REACTORS
330
1A
102
}
330
1A
100
AcDbPlotSettings
  1

  2
none_device
  4

  6

 40
0.0
 41
0.0
 42
0.0
 43
0.0
 44
0.0
 45
0.0
 46
0.0
 47
0.0
 48
0.0
 49
0.0
140
0.0
141
0.0
142
1.0
143
1.0
 70
   688
 72
     1
 73
     0
 74
     5
  7

 75
    16
147
1.0
148
0.0
149
0.0
100
AcDbLayout
  1
Layout2
 70
     1
 71
     2
 10
0.0
 20
0.0
 11
0.0
 21
0.0
 12
0.0
 22
0.0
 32
0.0
 14
0.0
 24
0.0
 34
0.0
 15
0.0
 25
0.0
 35
0.0
146
0.0
 13
0.0
 23
0.0
 33
0.0
 16
1.0
 26
0.0
 36
0.0
 17
0.0
 27
1.0
 37
0.0
 76
     0
330
23
  0
LAYOUT
  5
22
102
{ACAD_REACTORS
330
1A
102
}
330
1A
100
AcDbPlotSettings
  1

  2
none_device
  4
Letter_(8.50_x_11.00_Inches)
  6

 40
6.35
 41
6.35
 42
6.350005
 43
6.350005
 44
215.9
 45
279.4
 46
0.0
 47
0.0
 48
0.0
 49
0.0
140
0.0
141
0.0
142
1.0
143
1.0
 70
  1712
 72
     1
 73
     0
 74
     0
  7

 75
     0
147
1.0
148
0.0
149
0.0
100
AcDbLayout
  1
Model
 70
     1
 71
     0
 10
-41.394588
 20
494.043274
 11
699.528015
 21
932.796631
 12
0.0
 22
0.0
 32
0.0
 14
-41.394588
 24
494.043274
 34
0.0
 15
699.528015
 25
932.796631
 35
0.0
146
0.0
 13
0.0
 23
0.0
 33
0.0
 16
1.0
 26
0.0
 36
0.0
 17
0.0
 27
1.0
 37
0.0
 76
     0
330
1F
331
29
  0
MATERIAL
  5
45
102
{ACAD_REACTORS
330
43
102
}
102
{ACAD_XDICTIONARY
360
111
102
}
330
43
100
AcDbMaterial
  1
ByBlock
  0
MATERIAL
  5
44
102
{ACAD_REACTORS
330
43
102
}
102
{ACAD_XDICTIONARY
360
10F
102
}
330
43
100
AcDbMaterial
  1
ByLayer
  0
MATERIAL
  5
46
102
{ACAD_REACTORS
330
43
102
}
102
{ACAD_XDICTIONARY
360
113
102
}
330
43
100
AcDbMaterial
  1
Global
  0
MLEADERSTYLE
  5
6C
102
{ACAD_REACTORS
330
6B
102
}
102
{ACAD_XDICTIONARY
360
116
102
}
330
6B
100
AcDbMLeaderStyle
170
     2
171
     1
172
     0
 90
        2
 40
0.0
 41
0.0
173
     1
 91
-1056964608
340
14
 92
       -2
290
     1
 42
2.0
291
     1
 43
8.0
  3
Standard
341
0
 44
4.0
300

342
11
174
     1
178
     6
175
     1
176
     0
 93
-1056964608
 45
4.0
292
     0
297
     0
 46
4.0
343
0
 94
-1056964608
 47
1.0
 49
1.0
140
1.0
293
     1
141
0.0
294
     1
177
     0
142
1.0
295
     0
296
     0
143
3.75
1001
ACAD_MLEADERVER
1070
     2
  0
MLINESTYLE
  5
18
102
{ACAD_REACTORS
330
17
102
}
330
17
100
AcDbMlineStyle
  2
Standard
 70
     0
  3

 62
   256
 51
90.0
 52
90.0
 71
     2
 49
0.5
 62
   256
  6
BYLAYER
 49
-0.5
 62
   256
  6
BYLAYER
  0
ACDBPLACEHOLDER
  5
F
102
{ACAD_REACTORS
330
E
102
}
330
E
  0
SCALE
  5
48
102
{ACAD_REACTORS
330
47
102
}
330
47
100
AcDbScale
 70
     0
300
1:1
140
1.0
141
1.0
290
     1
  0
SCALE
  5
49
102
{ACAD_REACTORS
330
47
102
}
330
47
100
AcDbScale
 70
     0
300
1:2
140
1.0
141
2.0
290
     0
  0
SCALE
  5
4A
102
{ACAD_REACTORS
330
47
102
}
330
47
100
AcDbScale
 70
     0
300
1:4
140
1.0
141
4.0
290
     0
  0
SCALE
  5
4B
102
{ACAD_REACTORS
330
47
102
}
330
47
100
AcDbScale
 70
     0
300
1:5
140
1.0
141
5.0
290
     0
  0
SCALE
  5
4C
102
{ACAD_REACTORS
330
47
102
}
330
47
100
AcDbScale
 70
     0
300
1:8
140
1.0
141
8.0
290
     0
  0
SCALE
  5
4D
102
{ACAD_REACTORS
330
47
102
}
330
47
100
AcDbScale
 70
     0
300
1:10
140
1.0
141
10.0
290
     0
  0
SCALE
  5
4E
102
{ACAD_REACTORS
330
47
102
}
330
47
100
AcDbScale
 70
     0
300
1:16
140
1.0
141
16.0
290
     0
  0
SCALE
  5
4F
102
{ACAD_REACTORS
330
47
102
}
330
47
100
AcDbScale
 70
     0
300
1:20
140
1.0
141
20.0
290
     0
  0
SCALE
  5
50
102
{ACAD_REACTORS
330
47
102
}
330
47
100
AcDbScale
 70
     0
300
1:30
140
1.0
141
30.0
290
     0
  0
SCALE
  5
51
102
{ACAD_REACTORS
330
47
102
}
330
47
100
AcDbScale
 70
     0
300
1:40
140
1.0
141
40.0
290
     0
  0
SCALE
  5
52
102
{ACAD_REACTORS
330
47
102
}
330
47
100
AcDbScale
 70
     0
300
1:50
140
1.0
141
50.0
290
     0
  0
SCALE
  5
53
102
{ACAD_REACTORS
330
47
102
}
330
47
100
AcDbScale
 70
     0
300
1:100
140
1.0
141
100.0
290
     0
  0
SCALE
  5
54
102
{ACAD_REACTORS
330
47
102
}
330
47
100
AcDbScale
 70
     0
300
2:1
140
2.0
141
1.0
290
     0
  0
SCALE
  5
55
102
{ACAD_REACTORS
330
47
102
}
330
47
100
AcDbScale
 70
     0
300
4:1
140
4.0
141
1.0
290
     0
  0
SCALE
  5
56
102
{ACAD_REACTORS
330
47
102
}
330
47
100
AcDbScale
 70
     0
300
8:1
140
8.0
141
1.0
290
     0
  0
SCALE
  5
57
102
{ACAD_REACTORS
330
47
102
}
330
47
100
AcDbScale
 70
     0
300
10:1
140
10.0
141
1.0
290
     0
  0
SCALE
  5
58
102
{ACAD_REACTORS
330
47
102
}
330
47
100
AcDbScale
 70
     0
300
100:1
140
100.0
141
1.0
290
     0
  0
SCALE
  5
59
102
{ACAD_REACTORS
330
47
102
}
330
47
100
AcDbScale
 70
     0
300
1/128" = 1'-0"
140
0.007812
141
12.0
290
     0
  0
SCALE
  5
5A
102
{ACAD_REACTORS
330
47
102
}
330
47
100
AcDbScale
 70
     0
300
1/64" = 1'-0"
140
0.015625
141
12.0
290
     0
  0
SCALE
  5
5B
102
{ACAD_REACTORS
330
47
102
}
330
47
100
AcDbScale
 70
     0
300
1/32" = 1'-0"
140
0.03125
141
12.0
290
     0
  0
SCALE
  5
5C
102
{ACAD_REACTORS
330
47
102
}
330
47
100
AcDbScale
 70
     0
300
1/16" = 1'-0"
140
0.0625
141
12.0
290
     0
  0
SCALE
  5
5D
102
{ACAD_REACTORS
330
47
102
}
330
47
100
AcDbScale
 70
     0
300
3/32" = 1'-0"
140
0.09375
141
12.0
290
     0
  0
SCALE
  5
5E
102
{ACAD_REACTORS
330
47
102
}
330
47
100
AcDbScale
 70
     0
300
1/8" = 1'-0"
140
0.125
141
12.0
290
     0
  0
SCALE
  5
5F
102
{ACAD_REACTORS
330
47
102
}
330
47
100
AcDbScale
 70
     0
300
3/16" = 1'-0"
140
0.1875
141
12.0
290
     0
  0
SCALE
  5
60
102
{ACAD_REACTORS
330
47
102
}
330
47
100
AcDbScale
 70
     0
300
1/4" = 1'-0"
140
0.25
141
12.0
290
     0
  0
SCALE
  5
61
102
{ACAD_REACTORS
330
47
102
}
330
47
100
AcDbScale
 70
     0
300
3/8" = 1'-0"
140
0.375
141
12.0
290
     0
  0
SCALE
  5
62
102
{ACAD_REACTORS
330
47
102
}
330
47
100
AcDbScale
 70
     0
300
1/2" = 1'-0"
140
0.5
141
12.0
290
     0
  0
SCALE
  5
63
102
{ACAD_REACTORS
330
47
102
}
330
47
100
AcDbScale
 70
     0
300
3/4" = 1'-0"
140
0.75
141
12.0
290
     0
  0
SCALE
  5
64
102
{ACAD_REACTORS
330
47
102
}
330
47
100
AcDbScale
 70
     0
300
1" = 1'-0"
140
1.0
141
12.0
290
     0
  0
SCALE
  5
65
102
{ACAD_REACTORS
330
47
102
}
330
47
100
AcDbScale
 70
     0
300
1-1/2" = 1'-0"
140
1.5
141
12.0
290
     0
  0
SCALE
  5
66
102
{ACAD_REACTORS
330
47
102
}
330
47
100
AcDbScale
 70
     0
300
3" = 1'-0"
140
3.0
141
12.0
290
     0
  0
SCALE
  5
67
102
{ACAD_REACTORS
330
47
102
}
330
47
100
AcDbScale
 70
     0
300
6" = 1'-0"
140
6.0
141
12.0
290
     0
  0
SCALE
  5
68
102
{ACAD_REACTORS
330
47
102
}
330
47
100
AcDbScale
 70
     0
300
1'-0" = 1'-0"
140
12.0
141
12.0
290
     0
  0
TABLESTYLE
  5
6A
102
{ACAD_REACTORS
330
69
102
}
330
69
100
AcDbTableStyle
  3
Standard
 70
     0
 71
     0
 40
1.5
 41
1.5
280
     0
281
     0
  7
Standard
140
4.5
170
     2
 62
     0
 63
   257
283
     0
274
    -2
284
     1
 64
     0
275
    -2
285
     1
 65
     0
276
    -2
286
     1
 66
     0
277
    -2
287
     1
 67
     0
278
    -2
288
     1
 68
     0
279
    -2
289
     1
 69
     0
  7
Standard
140
6.0
170
     5
 62
     0
 63
   257
283
     0
274
    -2
284
     1
 64
     0
275
    -2
285
     1
 65
     0
276
    -2
286
     1
 66
     0
277
    -2
287
     1
 67
     0
278
    -2
288
     1
 68
     0
279
    -2
289
     1
 69
     0
  7
Standard
140
4.5
170
     5
 62
     0
 63
   257
283
     0
274
    -2
284
     1
 64
     0
275
    -2
285
     1
 65
     0
276
    -2
286
     1
 66
     0
277
    -2
287
     1
 67
     0
278
    -2
288
     1
 68
     0
279
    -2
289
     1
 69
     0
  0
VISUALSTYLE
  5
2F
102
{ACAD_REACTORS
330
2A
102
}
102
{ACAD_XDICTIONARY
360
E7
102
}
330
2A
100
AcDbVisualStyle
  2
2dWireframe
 70
     4
 71
     0
 72
     2
 73
     0
 90
        0
 40
0.6
 41
30.0
 62
     5
 63
     7
 74
     1
 91
        4
 64
     7
 65
   257
 75
     1
175
     1
 42
1.0
 92
        0
 66
   257
 43
1.0
 76
     1
 77
     6
 78
     2
 67
     7
 79
     5
170
     0
171
     0
290
     0
174
     0
 93
        1
 44
0.0
173
     0
291
     0
 45
0.0
1001
ACAD
1000
AcDbSavedByObjectVersion
1070
     0
  0
VISUALSTYLE
  5
32
102
{ACAD_REACTORS
330
2A
102
}
102
{ACAD_XDICTIONARY
360
ED
102
}
330
2A
100
AcDbVisualStyle
  2
Basic
 70
     7
 71
     1
 72
     0
 73
     1
 90
        0
 40
0.6
 41
30.0
 62
     5
 63
     7
 74
     0
 91
        4
 64
     7
 65
   257
 75
     1
175
     1
 42
1.0
 92
        8
 66
     7
 43
1.0
 76
     1
 77
     6
 78
     2
 67
     7
 79
     5
170
     0
171
     0
290
     0
174
     0
 93
        1
 44
0.0
173
     0
291
     1
 45
0.0
1001
ACAD
1000
AcDbSavedByObjectVersion
1070
     0
  0
VISUALSTYLE
  5
36
102
{ACAD_REACTORS
330
2A
102
}
102
{ACAD_XDICTIONARY
360
F5
102
}
330
2A
100
AcDbVisualStyle
  2
Brighten
 70
    12
 71
     2
 72
     2
 73
     0
 90
        0
 40
0.6
 41
30.0
 62
     5
 63
     7
 74
     1
 91
        4
 64
     7
 65
   257
 75
     1
175
     1
 42
1.0
 92
        8
 66
     7
 43
1.0
 76
     1
 77
     6
 78
     2
 67
     7
 79
     5
170
     0
171
     0
290
     0
174
     0
 93
        1
 44
50.0
173
     0
291
     1
 45
0.0
1001
ACAD
1000
AcDbSavedByObjectVersion
1070
     0
  0
VISUALSTYLE
  5
3A
102
{ACAD_REACTORS
330
2A
102
}
102
{ACAD_XDICTIONARY
360
FD
102
}
330
2A
100
AcDbVisualStyle
  2
ColorChange
 70
    16
 71
     2
 72
     2
 73
     3
 90
        0
 40
0.6
 41
30.0
 62
     5
 63
     8
 74
     1
 91
        4
 64
     7
 65
   257
 75
     1
175
     1
 42
1.0
 92
        8
 66
     8
 43
1.0
 76
     1
 77
     6
 78
     2
 67
     7
 79
     5
170
     0
171
     0
290
     0
174
     0
 93
        1
 44
0.0
173
     0
291
     1
 45
0.0
1001
ACAD
1000
AcDbSavedByObjectVersion
1070
     0
  0
VISUALSTYLE
  5
34
102
{ACAD_REACTORS
330
2A
102
}
102
{ACAD_XDICTIONARY
360
F1
102
}
330
2A
100
AcDbVisualStyle
  2
Conceptual
 70
     9
 71
     3
 72
     2
 73
     0
 90
        0
 40
0.6
 41
30.0
 62
     5
 63
     7
 74
     2
 91
        2
 64
     7
 65
   257
 75
     1
175
     1
 42
179.0
 92
        8
 66
     7
 43
1.0
 76
     1
 77
     6
 78
     2
 67
     7
 79
     3
170
     0
171
     0
290
     0
174
     0
 93
        1
 44
0.0
173
     0
291
     0
 45
0.0
1001
ACAD
1000
AcDbSavedByObjectVersion
1070
     0
  0
VISUALSTYLE
  5
35
102
{ACAD_REACTORS
330
2A
102
}
102
{ACAD_XDICTIONARY
360
F3
102
}
330
2A
100
AcDbVisualStyle
  2
Dim
 70
    11
 71
     2
 72
     2
 73
     0
 90
        0
 40
0.6
 41
30.0
 62
     5
 63
     7
 74
     1
 91
        4
 64
     7
 65
   257
 75
     1
175
     1
 42
1.0
 92
        8
 66
     7
 43
1.0
 76
     1
 77
     6
 78
     2
 67
     7
 79
     5
170
     0
171
     0
290
     0
174
     0
 93
        1
 44
-50.0
173
     0
291
     1
 45
0.0
1001
ACAD
1000
AcDbSavedByObjectVersion
1070
     0
  0
VISUALSTYLE
  5
3D
102
{ACAD_REACTORS
330
2A
102
}
102
{ACAD_XDICTIONARY
360
103
102
}
330
2A
100
AcDbVisualStyle
  2
EdgeColorOff
 70
    22
 71
     2
 72
     2
 73
     0
 90
        0
 40
0.6
 41
30.0
 62
     5
 63
     7
 74
     1
 91
        4
 64
     7
 65
   257
 75
     1
175
     1
 42
1.0
 92
        8
 66
     7
 43
1.0
 76
     1
 77
     6
 78
     2
 67
     7
 79
     5
170
     0
171
     0
290
     0
174
     0
 93
        1
 44
0.0
173
     0
291
     1
 45
0.0
1001
ACAD
1000
AcDbSavedByObjectVersion
1070
     0
  0
VISUALSTYLE
  5
39
102
{ACAD_REACTORS
330
2A
102
}
102
{ACAD_XDICTIONARY
360
FB
102
}
330
2A
100
AcDbVisualStyle
  2
Facepattern
 70
    15
 71
     2
 72
     2
 73
     0
 90
        0
 40
0.6
 41
30.0
 62
     5
 63
     7
 74
     1
 91
        4
 64
     7
 65
   257
 75
     1
175
     1
 42
1.0
 92
        8
 66
     7
 43
1.0
 76
     1
 77
     6
 78
     2
 67
     7
 79
     5
170
     0
171
     0
290
     0
174
     0
 93
        1
 44
0.0
173
     0
291
     1
 45
0.0
1001
ACAD
1000
AcDbSavedByObjectVersion
1070
     0
  0
VISUALSTYLE
  5
2B
102
{ACAD_REACTORS
330
2A
102
}
102
{ACAD_XDICTIONARY
360
DF
102
}
330
2A
100
AcDbVisualStyle
  2
Flat
 70
     0
 71
     2
 72
     1
 73
     1
 90
        2
 40
0.6
 41
30.0
 62
     5
 63
     7
 74
     0
 91
        0
 64
     7
 65
   257
 75
     1
175
     1
 42
1.0
 92
        8
 66
     7
 43
1.0
 76
     1
 77
     6
 78
     2
 67
     7
 79
     5
170
     0
171
     0
290
     0
174
     0
 93
       13
 44
0.0
173
     0
291
     1
 45
0.0
1001
ACAD
1000
AcDbSavedByObjectVersion
1070
     0
  0
VISUALSTYLE
  5
2C
102
{ACAD_REACTORS
330
2A
102
}
102
{ACAD_XDICTIONARY
360
E1
102
}
330
2A
100
AcDbVisualStyle
  2
FlatWithEdges
 70
     1
 71
     2
 72
     1
 73
     1
 90
        2
 40
0.6
 41
30.0
 62
     5
 63
     7
 74
     1
 91
        0
 64
     7
 65
   257
 75
     1
175
     1
 42
1.0
 92
        0
 66
   257
 43
1.0
 76
     1
 77
     6
 78
     2
 67
     7
 79
     5
170
     0
171
     0
290
     0
174
     0
 93
       13
 44
0.0
173
     0
291
     1
 45
0.0
1001
ACAD
1000
AcDbSavedByObjectVersion
1070
     0
  0
VISUALSTYLE
  5
2D
102
{ACAD_REACTORS
330
2A
102
}
102
{ACAD_XDICTIONARY
360
E3
102
}
330
2A
100
AcDbVisualStyle
  2
Gouraud
 70
     2
 71
     2
 72
     2
 73
     1
 90
        2
 40
0.6
 41
30.0
 62
     5
 63
     7
 74
     0
 91
        0
 64
     7
 65
   257
 75
     1
175
     1
 42
1.0
 92
        0
 66
     7
 43
1.0
 76
     1
 77
     6
 78
     2
 67
     7
 79
     5
170
     0
171
     0
290
     0
174
     0
 93
       13
 44
0.0
173
     0
291
     1
 45
0.0
1001
ACAD
1000
AcDbSavedByObjectVersion
1070
     0
  0
VISUALSTYLE
  5
2E
102
{ACAD_REACTORS
330
2A
102
}
102
{ACAD_XDICTIONARY
360
E5
102
}
330
2A
100
AcDbVisualStyle
  2
GouraudWithEdges
 70
     3
 71
     2
 72
     2
 73
     1
 90
        2
 40
0.6
 41
30.0
 62
     5
 63
     7
 74
     1
 91
        0
 64
     7
 65
   257
 75
     1
175
     1
 42
1.0
 92
        0
 66
   257
 43
1.0
 76
     1
 77
     6
 78
     2
 67
     7
 79
     5
170
     0
171
     0
290
     0
174
     0
 93
       13
 44
0.0
173
     0
291
     1
 45
0.0
1001
ACAD
1000
AcDbSavedByObjectVersion
1070
     0
  0
VISUALSTYLE
  5
31
102
{ACAD_REACTORS
330
2A
102
}
102
{ACAD_XDICTIONARY
360
EB
102
}
330
2A
100
AcDbVisualStyle
  2
Hidden
 70
     6
 71
     1
 72
     2
 73
     2
 90
        0
 40
0.6
 41
30.0
 62
     5
 63
     7
 74
     2
 91
        2
 64
     7
 65
   257
 75
     2
175
     1
 42
40.0
 92
        0
 66
   257
 43
1.0
 76
     1
 77
     6
 78
     2
 67
     7
 79
     3
170
     0
171
     0
290
     0
174
     0
 93
        1
 44
0.0
173
     0
291
     0
 45
0.0
1001
ACAD
1000
AcDbSavedByObjectVersion
1070
     0
  0
VISUALSTYLE
  5
3B
102
{ACAD_REACTORS
330
2A
102
}
102
{ACAD_XDICTIONARY
360
FF
102
}
330
2A
100
AcDbVisualStyle
  2
JitterOff
 70
    20
 71
     2
 72
     2
 73
     0
 90
        0
 40
0.6
 41
30.0
 62
     5
 63
     7
 74
     1
 91
        4
 64
     7
 65
   257
 75
     1
175
     1
 42
1.0
 92
       10
 66
     7
 43
1.0
 76
     1
 77
     6
 78
     2
 67
     7
 79
     5
170
     0
171
     0
290
     0
174
     0
 93
        1
 44
0.0
173
     0
291
     1
 45
0.0
1001
ACAD
1000
AcDbSavedByObjectVersion
1070
     0
  0
VISUALSTYLE
  5
38
102
{ACAD_REACTORS
330
2A
102
}
102
{ACAD_XDICTIONARY
360
F9
102
}
330
2A
100
AcDbVisualStyle
  2
Linepattern
 70
    14
 71
     2
 72
     2
 73
     0
 90
        0
 40
0.6
 41
30.0
 62
     5
 63
     7
 74
     1
 91
        4
 64
     7
 65
   257
 75
     7
175
     7
 42
1.0
 92
        8
 66
     7
 43
1.0
 76
     1
 77
     6
 78
     2
 67
     7
 79
     5
170
     0
171
     0
290
     0
174
     0
 93
        1
 44
0.0
173
     0
291
     1
 45
0.0
1001
ACAD
1000
AcDbSavedByObjectVersion
1070
     0
  0
VISUALSTYLE
  5
3C
102
{ACAD_REACTORS
330
2A
102
}
102
{ACAD_XDICTIONARY
360
101
102
}
330
2A
100
AcDbVisualStyle
  2
OverhangOff
 70
    21
 71
     2
 72
     2
 73
     0
 90
        0
 40
0.6
 41
30.0
 62
     5
 63
     7
 74
     1
 91
        4
 64
     7
 65
   257
 75
     1
175
     1
 42
1.0
 92
        9
 66
     7
 43
1.0
 76
     1
 77
     6
 78
     2
 67
     7
 79
     5
170
     0
171
     0
290
     0
174
     0
 93
        1
 44
0.0
173
     0
291
     1
 45
0.0
1001
ACAD
1000
AcDbSavedByObjectVersion
1070
     0
  0
VISUALSTYLE
  5
33
102
{ACAD_REACTORS
330
2A
102
}
102
{ACAD_XDICTIONARY
360
EF
102
}
330
2A
100
AcDbVisualStyle
  2
Realistic
 70
     8
 71
     2
 72
     3
 73
     0
 90
        2
 40
0.6
 41
30.0
 62
     5
 63
     7
 74
     0
 91
        0
 64
     7
 65
   257
 75
     1
175
     1
 42
1.0
 92
        8
 66
   257
 43
1.0
 76
     1
 77
     6
 78
     2
 67
     7
 79
     3
170
     0
171
     0
290
     0
174
     0
 93
       13
 44
0.0
173
     0
291
     0
 45
0.0
1001
ACAD
1000
AcDbSavedByObjectVersion
1070
     0
  0
VISUALSTYLE
  5
42
102
{ACAD_REACTORS
330
2A
102
}
102
{ACAD_XDICTIONARY
360
10D
102
}
330
2A
100
AcDbVisualStyle
  2
Shaded
 70
    27
 71
     2
 72
     2
 73
     1
 90
        2
 40
0.6
 41
30.0
 62
     5
 63
     7
 74
     0
 91
        4
 64
     7
 65
   257
 75
     1
175
     1
 42
1.0
 92
        8
 66
   257
 43
1.0
 76
     1
 77
     6
 78
     2
 67
     8
 79
     3
170
     0
171
     0
290
     0
174
     0
 93
        5
 44
0.0
173
     0
291
     0
 45
0.0
1001
ACAD
1000
AcDbSavedByObjectVersion
1070
     0
  0
VISUALSTYLE
  5
41
102
{ACAD_REACTORS
330
2A
102
}
102
{ACAD_XDICTIONARY
360
10B
102
}
330
2A
100
AcDbVisualStyle
  2
Shaded with edges
 70
    26
 71
     2
 72
     2
 73
     1
 90
        2
 40
0.6
 41
30.0
 62
     5
 63
     7
 74
     1
 91
       10
 64
     7
 65
   257
 75
     2
175
     1
 42
1.0
 92
        8
 66
   257
 43
1.0
 76
     1
 77
     6
 78
     2
 67
     7
 79
     3
170
     0
171
     0
290
     0
174
     0
 93
        5
 44
0.0
173
     0
291
     0
 45
0.0
1001
ACAD
1000
AcDbSavedByObjectVersion
1070
     0
  0
VISUALSTYLE
  5
3E
102
{ACAD_REACTORS
330
2A
102
}
102
{ACAD_XDICTIONARY
360
105
102
}
330
2A
100
AcDbVisualStyle
  2
Shades of Gray
 70
    23
 71
     2
 72
     2
 73
     3
 90
        0
 40
0.6
 41
30.0
 62
     5
 63
     7
 74
     2
 91
        2
 64
     7
 65
     7
 75
     1
175
     1
 42
40.0
 92
        8
 66
     7
 43
1.0
 76
     1
 77
     6
 78
     2
 67
     7
 79
     3
170
     0
171
     0
290
     0
174
     0
 93
        1
 44
0.0
173
     0
291
     0
 45
0.0
1001
ACAD
1000
AcDbSavedByObjectVersion
1070
     0
  0
VISUALSTYLE
  5
3F
102
{ACAD_REACTORS
330
2A
102
}
102
{ACAD_XDICTIONARY
360
107
102
}
330
2A
100
AcDbVisualStyle
  2
Sketchy
 70
    24
 71
     1
 72
     2
 73
     2
 90
        0
 40
0.6
 41
30.0
 62
     5
 63
     7
 74
     2
 91
        2
 64
     7
 65
     7
 75
     1
175
     1
 42
40.0
 92
       11
 66
     7
 43
1.0
 76
     1
 77
     6
 78
     2
 67
     7
 79
     6
170
     0
171
     0
290
     0
174
     0
 93
        1
 44
0.0
173
     0
291
     0
 45
0.0
1001
ACAD
1000
AcDbSavedByObjectVersion
1070
     0
  0
VISUALSTYLE
  5
37
102
{ACAD_REACTORS
330
2A
102
}
102
{ACAD_XDICTIONARY
360
F7
102
}
330
2A
100
AcDbVisualStyle
  2
Thicken
 70
    13
 71
     2
 72
     2
 73
     0
 90
        0
 40
0.6
 41
30.0
 62
     5
 63
     7
 74
     1
 91
        4
 64
     7
 65
   257
 75
     1
175
     1
 42
1.0
 92
       12
 66
     7
 43
1.0
 76
     1
 77
     6
 78
     2
 67
     7
 79
     5
170
     0
171
     0
290
     0
174
     0
 93
        1
 44
0.0
173
     0
291
     1
 45
0.0
1001
ACAD
1000
AcDbSavedByObjectVersion
1070
     0
  0
VISUALSTYLE
  5
30
102
{ACAD_REACTORS
330
2A
102
}
102
{ACAD_XDICTIONARY
360
E9
102
}
330
2A
100
AcDbVisualStyle
  2
Wireframe
 70
     5
 71
     0
 72
     2
 73
     0
 90
        0
 40
0.6
 41
30.0
 62
     5
 63
     7
 74
     1
 91
        4
 64
     7
 65
   257
 75
     1
175
     1
 42
1.0
 92
        0
 66
   257
 43
1.0
 76
     1
 77
     6
 78
     2
 67
     7
 79
     3
170
     0
171
     0
290
     0
174
     0
 93
        1
 44
0.0
173
     0
291
     0
 45
0.0
1001
ACAD
1000
AcDbSavedByObjectVersion
1070
     0
  0
VISUALSTYLE
  5
40
102
{ACAD_REACTORS
330
2A
102
}
102
{ACAD_XDICTIONARY
360
109
102
}
330
2A
100
AcDbVisualStyle
  2
X-Ray
 70
    25
 71
     2
 72
     2
 73
     1
 90
        1
 40
0.5
 41
30.0
 62
     5
 63
     7
 74
     1
 91
        0
 64
     7
 65
   257
 75
     1
175
     1
 42
1.0
 92
        8
 66
     7
 43
1.0
 76
     1
 77
     6
 78
     2
 67
     7
 79
     3
170
     0
171
     0
290
     0
174
     0
 93
       13
 44
0.0
173
     0
291
     0
 45
0.0
1001
ACAD
1000
AcDbSavedByObjectVersion
1070
     0
  0
DICTIONARYVAR
  5
DD
102
{ACAD_REACTORS
330
D0
102
}
330
D0
100
DictionaryVariables
280
     0
  1
1:1
  0
DICTIONARYVAR
  5
D7
102
{ACAD_REACTORS
330
D0
102
}
330
D0
100
DictionaryVariables
280
     0
  1
3.500000
  0
DICTIONARYVAR
  5
D8
102
{ACAD_REACTORS
330
D0
102
}
330
D0
100
DictionaryVariables
280
     0
  1
acadiso.lin
  0
DICTIONARYVAR
  5
D2
102
{ACAD_REACTORS
330
D0
102
}
330
D0
100
DictionaryVariables
280
     0
  1
Standard
  0
DICTIONARYVAR
  5
D1
102
{ACAD_REACTORS
330
D0
102
}
330
D0
100
DictionaryVariables
280
     0
  1
Standard
  0
DICTIONARYVAR
  5
D9
102
{ACAD_REACTORS
330
D0
102
}
330
D0
100
DictionaryVariables
280
     0
  1
2
  0
DICTIONARYVAR
  5
DA
102
{ACAD_REACTORS
330
D0
102
}
330
D0
100
DictionaryVariables
280
     0
  1
1
  0
DICTIONARYVAR
  5
DE
102
{ACAD_REACTORS
330
D0
102
}
330
D0
100
DictionaryVariables
280
     0
  1
1
  0
DICTIONARYVAR
  5
D4
102
{ACAD_REACTORS
330
D0
102
}
330
D0
100
DictionaryVariables
280
     0
  1
80.000000
  0
DICTIONARYVAR
  5
D3
102
{ACAD_REACTORS
330
D0
102
}
330
D0
100
DictionaryVariables
280
     0
  1
5.000000
  0
DICTIONARY
  5
111
330
45
100
AcDbDictionary
280
     1
281
     1
  3
ACAD_XREC_ROUNDTRIP
360
112
  0
DICTIONARY
  5
10F
330
44
100
AcDbDictionary
280
     1
281
     1
  3
ACAD_XREC_ROUNDTRIP
360
110
  0
DICTIONARY
  5
113
330
46
100
AcDbDictionary
280
     1
281
     1
  3
ACAD_XREC_ROUNDTRIP
360
114
  0
DICTIONARY
  5
116
330
6C
100
AcDbDictionary
280
     1
281
     1
  3
ACAD_XREC_ROUNDTRIP
360
117
  0
DICTIONARY
  5
E7
330
2F
100
AcDbDictionary
280
     1
281
     1
  3
ACAD_XREC_ROUNDTRIP
360
E8
  0
DICTIONARY
  5
ED
330
32
100
AcDbDictionary
280
     1
281
     1
  3
ACAD_XREC_ROUNDTRIP
360
EE
  0
DICTIONARY
  5
F5
330
36
100
AcDbDictionary
280
     1
281
     1
  3
ACAD_XREC_ROUNDTRIP
360
F6
  0
DICTIONARY
  5
FD
330
3A
100
AcDbDictionary
280
     1
281
     1
  3
ACAD_XREC_ROUNDTRIP
360
FE
  0
DICTIONARY
  5
F1
330
34
100
AcDbDictionary
280
     1
281
     1
  3
ACAD_XREC_ROUNDTRIP
360
F2
  0
DICTIONARY
  5
F3
330
35
100
AcDbDictionary
280
     1
281
     1
  3
ACAD_XREC_ROUNDTRIP
360
F4
  0
DICTIONARY
  5
103
330
3D
100
AcDbDictionary
280
     1
281
     1
  3
ACAD_XREC_ROUNDTRIP
360
104
  0
DICTIONARY
  5
FB
330
39
100
AcDbDictionary
280
     1
281
     1
  3
ACAD_XREC_ROUNDTRIP
360
FC
  0
DICTIONARY
  5
DF
330
2B
100
AcDbDictionary
280
     1
281
     1
  3
ACAD_XREC_ROUNDTRIP
360
E0
  0
DICTIONARY
  5
E1
330
2C
100
AcDbDictionary
280
     1
281
     1
  3
ACAD_XREC_ROUNDTRIP
360
E2
  0
DICTIONARY
  5
E3
330
2D
100
AcDbDictionary
280
     1
281
     1
  3
ACAD_XREC_ROUNDTRIP
360
E4
  0
DICTIONARY
  5
E5
330
2E
100
AcDbDictionary
280
     1
281
     1
  3
ACAD_XREC_ROUNDTRIP
360
E6
  0
DICTIONARY
  5
EB
330
31
100
AcDbDictionary
280
     1
281
     1
  3
ACAD_XREC_ROUNDTRIP
360
EC
  0
DICTIONARY
  5
FF
330
3B
100
AcDbDictionary
280
     1
281
     1
  3
ACAD_XREC_ROUNDTRIP
360
100
  0
DICTIONARY
  5
F9
330
38
100
AcDbDictionary
280
     1
281
     1
  3
ACAD_XREC_ROUNDTRIP
360
FA
  0
DICTIONARY
  5
101
330
3C
100
AcDbDictionary
280
     1
281
     1
  3
ACAD_XREC_ROUNDTRIP
360
102
  0
DICTIONARY
  5
EF
330
33
100
AcDbDictionary
280
     1
281
     1
  3
ACAD_XREC_ROUNDTRIP
360
F0
  0
DICTIONARY
  5
10D
330
42
100
AcDbDictionary
280
     1
281
     1
  3
ACAD_XREC_ROUNDTRIP
360
10E
  0
DICTIONARY
  5
10B
330
41
100
AcDbDictionary
280
     1
281
     1
  3
ACAD_XREC_ROUNDTRIP
360
10C
  0
DICTIONARY
  5
105
330
3E
100
AcDbDictionary
280
     1
281
     1
  3
ACAD_XREC_ROUNDTRIP
360
106
  0
DICTIONARY
  5
107
330
3F
100
AcDbDictionary
280
     1
281
     1
  3
ACAD_XREC_ROUNDTRIP
360
108
  0
DICTIONARY
  5
F7
330
37
100
AcDbDictionary
280
     1
281
     1
  3
ACAD_XREC_ROUNDTRIP
360
F8
  0
DICTIONARY
  5
E9
330
30
100
AcDbDictionary
280
     1
281
     1
  3
ACAD_XREC_ROUNDTRIP
360
EA
  0
DICTIONARY
  5
109
330
40
100
AcDbDictionary
280
     1
281
     1
  3
ACAD_XREC_ROUNDTRIP
360
10A
  0
XRECORD
  5
112
102
{ACAD_REACTORS
330
111
102
}
330
111
100
AcDbXrecord
280
     1
102
MATERIAL
148
0.0
149
0.0
149
0.0
 93
        0
 94
      127
282
     0
 72
     1
 77
     1
171
     1
175
     1
179
     1
273
     0
  0
XRECORD
  5
110
102
{ACAD_REACTORS
330
10F
102
}
330
10F
100
AcDbXrecord
280
     1
102
MATERIAL
148
0.0
149
0.0
149
0.0
 93
        0
 94
      127
282
     0
 72
     1
 77
     1
171
     1
175
     1
179
     1
273
     0
  0
XRECORD
  5
114
102
{ACAD_REACTORS
330
113
102
}
330
113
100
AcDbXrecord
280
     1
102
MATERIAL
148
0.0
149
0.0
149
0.0
 93
        0
 94
      127
282
     0
 72
     1
 77
     1
171
     1
175
     1
179
     1
273
     0
  0
XRECORD
  5
117
102
{ACAD_REACTORS
330
116
102
}
330
116
100
AcDbXrecord
280
     1
102
ACAD_ROUNDTRIP_2010_MLEADER_STYLE
  0
XRECORD
  5
E8
102
{ACAD_REACTORS
330
E7
102
}
330
E7
100
AcDbXrecord
280
     1
102
RTVSPropertyOp0
 70
     1
102
RTVSPropertyOp1
 70
     1
102
RTVSPropertyOp2
 70
     1
102
RTVSPropertyOp3
 70
     1
102
RTVSPropertyOp4
 70
     1
102
RTVSPropertyOp5
 70
     1
102
RTVSPropertyOp6
 70
     1
102
RTVSPropertyOp7
 70
     1
102
RTVSPropertyOp8
 70
     1
102
RTVSPropertyOp9
 70
     1
102
RTVSPropertyOp10
 70
     1
102
RTVSPropertyOp11
 70
     1
102
RTVSPropertyOp12
 70
     1
102
RTVSPropertyOp13
 70
     1
102
RTVSPropertyOp14
 70
     1
102
RTVSPropertyOp15
 70
     1
102
RTVSPropertyOp16
 70
     1
102
RTVSPropertyOp17
 70
     1
102
RTVSPropertyOp18
 70
     1
102
RTVSPropertyOp19
 70
     1
102
RTVSPropertyOp20
 70
     1
102
RTVSPropertyOp21
 70
     1
102
RTVSPropertyOp22
 70
     1
102
RTVSPropertyOp23
 70
     1
102
RTVSPropertyOp24
 70
     1
102
RTVSPropertyOp25
 70
     1
102
RTVSPropertyOp26
 70
     1
102
RTVSPropertyOp27
 70
     1
102
RTVSPropertyOp28
 70
     1
102
RTVSPropertyOp29
 70
     1
102
RTVSPropertyOp30
 70
     1
102
RTVSPropertyOp31
 70
     1
102
RTVSPropertyOp32
 70
     1
102
RTVSPropertyOp33
 70
     1
102
RTVSPropertyOp34
 70
     1
102
RTVSPropertyOp35
 70
     1
102
RTVSPropertyOp36
 70
     1
102
RTVSPropertyOp37
 70
     1
102
RTVSPropertyOp38
 70
     1
102
RTVSPropertyOp39
 70
     1
102
RTVSPropertyOp40
 70
     1
102
RTVSPropertyOp41
 70
     1
102
RTVSPropertyOp42
 70
     1
102
RTVSPropertyOp43
 70
     1
102
RTVSPropertyOp44
 70
     1
102
RTVSPropertyOp45
 70
     1
102
RTVSPropertyOp46
 70
     1
102
RTVSPropertyOp47
 70
     1
102
RTVSPropertyOp48
 70
     1
102
RTVSPropertyOp49
 70
     1
102
RTVSPropertyOp50
 70
     1
102
RTVSPropertyOp51
 70
     0
102
RTVSPropertyOp52
 70
     0
102
RTVSPropertyOp53
 70
     1
102
RTVSPropertyOp54
 70
     1
102
RTVSPropertyOp55
 70
     1
102
RTVSPropertyOp56
 70
     1
102
RTVSPropertyOp57
 70
     1
102
RTVSPost2010Prop28
280
     1
102
RTVSPost2010PropOp28
 70
     1
102
RTVSPost2010Prop29
280
     1
102
RTVSPost2010PropOp29
 70
     1
102
RTVSPost2010Prop30
280
     0
102
RTVSPost2010PropOp30
 70
     1
102
RTVSPost2010Prop31
280
     0
102
RTVSPost2010PropOp31
 70
     1
102
RTVSPost2010Prop32
280
     0
102
RTVSPost2010PropOp32
 70
     1
102
RTVSPost2010Prop33
280
     0
102
RTVSPost2010PropOp33
 70
     1
102
RTVSPost2010Prop34
280
     0
102
RTVSPost2010PropOp34
 70
     1
102
RTVSPost2010Prop35
280
     0
102
RTVSPost2010PropOp35
 70
     1
102
RTVSPost2010Prop36
280
     0
102
RTVSPost2010PropOp36
 70
     1
102
RTVSPost2010Prop37
 90
       50
102
RTVSPost2010PropOp37
 70
     1
102
RTVSPost2010Prop38
140
0.0
102
RTVSPost2010PropOp38
 70
     1
102
RTVSPost2010Prop39
140
1.0
102
RTVSPost2010PropOp39
 70
     1
102
RTVSPost2010Prop40
 90
        0
102
RTVSPost2010PropOp40
 70
     1
102
RTVSPost2010Prop41ColorIndex
 90
       18
102
RTVSPost2010Prop41ColorRGB
 90
        0
102
RTVSPost2010PropOp41
 70
     1
102
RTVSPost2010Prop42
 90
       50
102
RTVSPost2010PropOp42
 70
     1
102
RTVSPost2010Prop43
 90
        3
102
RTVSPost2010PropOp43
 70
     1
102
RTVSPost2010Prop44ColorIndex
 90
        5
102
RTVSPost2010Prop44ColorRGB
 90
      255
102
RTVSPost2010PropOp44
 70
     1
102
RTVSPost2010Prop45
280
     0
102
RTVSPost2010PropOp45
 70
     1
102
RTVSPost2010Prop46
 90
       50
102
RTVSPost2010PropOp46
 70
     1
102
RTVSPost2010Prop47
 90
       50
102
RTVSPost2010PropOp47
 70
     1
102
RTVSPost2010Prop48
 90
       50
102
RTVSPost2010PropOp48
 70
     1
102
RTVSPost2010Prop49
280
     0
102
RTVSPost2010PropOp49
 70
     1
102
RTVSPost2010Prop50
 90
       50
102
RTVSPost2010PropOp50
 70
     1
102
RTVSPost2010Prop51ColorIndex
 90
      256
102
RTVSPost2010Prop51ColorRGB
 90
-16777216
102
RTVSPost2010PropOp51
 70
     0
102
RTVSPost2010Prop52
140
1.0
102
RTVSPost2010PropOp52
 70
     0
102
RTVSPost2010Prop53
 90
        2
102
RTVSPost2010PropOp53
 70
     1
102
RTVSPost2010Prop54
  1
strokes_ogs.tif
102
RTVSPost2010PropOp54
 70
     1
102
RTVSPost2010Prop55
280
     0
102
RTVSPost2010PropOp55
 70
     1
102
RTVSPost2010Prop56
140
1.0
102
RTVSPost2010PropOp56
 70
     1
102
RTVSPost2010Prop57
140
1.0
102
RTVSPost2010PropOp57
 70
     1
  0
XRECORD
  5
EE
102
{ACAD_REACTORS
330
ED
102
}
330
ED
100
AcDbXrecord
280
     1
102
RTVSPropertyOp0
 70
     1
102
RTVSPropertyOp1
 70
     1
102
RTVSPropertyOp2
 70
     1
102
RTVSPropertyOp3
 70
     1
102
RTVSPropertyOp4
 70
     1
102
RTVSPropertyOp5
 70
     1
102
RTVSPropertyOp6
 70
     1
102
RTVSPropertyOp7
 70
     1
102
RTVSPropertyOp8
 70
     1
102
RTVSPropertyOp9
 70
     1
102
RTVSPropertyOp10
 70
     1
102
RTVSPropertyOp11
 70
     1
102
RTVSPropertyOp12
 70
     1
102
RTVSPropertyOp13
 70
     1
102
RTVSPropertyOp14
 70
     1
102
RTVSPropertyOp15
 70
     1
102
RTVSPropertyOp16
 70
     1
102
RTVSPropertyOp17
 70
     1
102
RTVSPropertyOp18
 70
     1
102
RTVSPropertyOp19
 70
     1
102
RTVSPropertyOp20
 70
     1
102
RTVSPropertyOp21
 70
     1
102
RTVSPropertyOp22
 70
     1
102
RTVSPropertyOp23
 70
     1
102
RTVSPropertyOp24
 70
     1
102
RTVSPropertyOp25
 70
     1
102
RTVSPropertyOp26
 70
     1
102
RTVSPropertyOp27
 70
     1
102
RTVSPropertyOp28
 70
     1
102
RTVSPropertyOp29
 70
     1
102
RTVSPropertyOp30
 70
     1
102
RTVSPropertyOp31
 70
     1
102
RTVSPropertyOp32
 70
     1
102
RTVSPropertyOp33
 70
     1
102
RTVSPropertyOp34
 70
     1
102
RTVSPropertyOp35
 70
     1
102
RTVSPropertyOp36
 70
     1
102
RTVSPropertyOp37
 70
     1
102
RTVSPropertyOp38
 70
     1
102
RTVSPropertyOp39
 70
     1
102
RTVSPropertyOp40
 70
     1
102
RTVSPropertyOp41
 70
     1
102
RTVSPropertyOp42
 70
     1
102
RTVSPropertyOp43
 70
     1
102
RTVSPropertyOp44
 70
     1
102
RTVSPropertyOp45
 70
     1
102
RTVSPropertyOp46
 70
     1
102
RTVSPropertyOp47
 70
     1
102
RTVSPropertyOp48
 70
     1
102
RTVSPropertyOp49
 70
     1
102
RTVSPropertyOp50
 70
     1
102
RTVSPropertyOp51
 70
     0
102
RTVSPropertyOp52
 70
     0
102
RTVSPropertyOp53
 70
     1
102
RTVSPropertyOp54
 70
     1
102
RTVSPropertyOp55
 70
     1
102
RTVSPropertyOp56
 70
     1
102
RTVSPropertyOp57
 70
     1
102
RTVSPost2010Prop28
280
     0
102
RTVSPost2010PropOp28
 70
     1
102
RTVSPost2010Prop29
280
     1
102
RTVSPost2010PropOp29
 70
     1
102
RTVSPost2010Prop30
280
     1
102
RTVSPost2010PropOp30
 70
     1
102
RTVSPost2010Prop31
280
     0
102
RTVSPost2010PropOp31
 70
     1
102
RTVSPost2010Prop32
280
     0
102
RTVSPost2010PropOp32
 70
     1
102
RTVSPost2010Prop33
280
     0
102
RTVSPost2010PropOp33
 70
     1
102
RTVSPost2010Prop34
280
     0
102
RTVSPost2010PropOp34
 70
     1
102
RTVSPost2010Prop35
280
     0
102
RTVSPost2010PropOp35
 70
     1
102
RTVSPost2010Prop36
280
     0
102
RTVSPost2010PropOp36
 70
     1
102
RTVSPost2010Prop37
 90
       50
102
RTVSPost2010PropOp37
 70
     1
102
RTVSPost2010Prop38
140
0.0
102
RTVSPost2010PropOp38
 70
     1
102
RTVSPost2010Prop39
140
1.0
102
RTVSPost2010PropOp39
 70
     1
102
RTVSPost2010Prop40
 90
        0
102
RTVSPost2010PropOp40
 70
     1
102
RTVSPost2010Prop41ColorIndex
 90
       18
102
RTVSPost2010Prop41ColorRGB
 90
        0
102
RTVSPost2010PropOp41
 70
     1
102
RTVSPost2010Prop42
 90
       50
102
RTVSPost2010PropOp42
 70
     1
102
RTVSPost2010Prop43
 90
        3
102
RTVSPost2010PropOp43
 70
     1
102
RTVSPost2010Prop44ColorIndex
 90
        5
102
RTVSPost2010Prop44ColorRGB
 90
      255
102
RTVSPost2010PropOp44
 70
     1
102
RTVSPost2010Prop45
280
     0
102
RTVSPost2010PropOp45
 70
     1
102
RTVSPost2010Prop46
 90
       50
102
RTVSPost2010PropOp46
 70
     1
102
RTVSPost2010Prop47
 90
       50
102
RTVSPost2010PropOp47
 70
     1
102
RTVSPost2010Prop48
 90
       50
102
RTVSPost2010PropOp48
 70
     1
102
RTVSPost2010Prop49
280
     0
102
RTVSPost2010PropOp49
 70
     1
102
RTVSPost2010Prop50
 90
       50
102
RTVSPost2010PropOp50
 70
     1
102
RTVSPost2010Prop51ColorIndex
 90
      256
102
RTVSPost2010Prop51ColorRGB
 90
-16777216
102
RTVSPost2010PropOp51
 70
     0
102
RTVSPost2010Prop52
140
1.0
102
RTVSPost2010PropOp52
 70
     0
102
RTVSPost2010Prop53
 90
        2
102
RTVSPost2010PropOp53
 70
     1
102
RTVSPost2010Prop54
  1
strokes_ogs.tif
102
RTVSPost2010PropOp54
 70
     1
102
RTVSPost2010Prop55
280
     0
102
RTVSPost2010PropOp55
 70
     1
102
RTVSPost2010Prop56
140
1.0
102
RTVSPost2010PropOp56
 70
     1
102
RTVSPost2010Prop57
140
1.0
102
RTVSPost2010PropOp57
 70
     1
  0
XRECORD
  5
F6
102
{ACAD_REACTORS
330
F5
102
}
330
F5
100
AcDbXrecord
280
     1
102
RTVSPropertyOp0
 70
     1
102
RTVSPropertyOp1
 70
     1
102
RTVSPropertyOp2
 70
     1
102
RTVSPropertyOp3
 70
     1
102
RTVSPropertyOp4
 70
     1
102
RTVSPropertyOp5
 70
     1
102
RTVSPropertyOp6
 70
     1
102
RTVSPropertyOp7
 70
     1
102
RTVSPropertyOp8
 70
     1
102
RTVSPropertyOp9
 70
     1
102
RTVSPropertyOp10
 70
     1
102
RTVSPropertyOp11
 70
     1
102
RTVSPropertyOp12
 70
     1
102
RTVSPropertyOp13
 70
     1
102
RTVSPropertyOp14
 70
     1
102
RTVSPropertyOp15
 70
     1
102
RTVSPropertyOp16
 70
     1
102
RTVSPropertyOp17
 70
     1
102
RTVSPropertyOp18
 70
     1
102
RTVSPropertyOp19
 70
     1
102
RTVSPropertyOp20
 70
     1
102
RTVSPropertyOp21
 70
     1
102
RTVSPropertyOp22
 70
     1
102
RTVSPropertyOp23
 70
     1
102
RTVSPropertyOp24
 70
     1
102
RTVSPropertyOp25
 70
     1
102
RTVSPropertyOp26
 70
     1
102
RTVSPropertyOp27
 70
     1
102
RTVSPropertyOp28
 70
     1
102
RTVSPropertyOp29
 70
     1
102
RTVSPropertyOp30
 70
     1
102
RTVSPropertyOp31
 70
     1
102
RTVSPropertyOp32
 70
     1
102
RTVSPropertyOp33
 70
     1
102
RTVSPropertyOp34
 70
     1
102
RTVSPropertyOp35
 70
     1
102
RTVSPropertyOp36
 70
     1
102
RTVSPropertyOp37
 70
     1
102
RTVSPropertyOp38
 70
     1
102
RTVSPropertyOp39
 70
     1
102
RTVSPropertyOp40
 70
     1
102
RTVSPropertyOp41
 70
     1
102
RTVSPropertyOp42
 70
     1
102
RTVSPropertyOp43
 70
     1
102
RTVSPropertyOp44
 70
     1
102
RTVSPropertyOp45
 70
     1
102
RTVSPropertyOp46
 70
     1
102
RTVSPropertyOp47
 70
     1
102
RTVSPropertyOp48
 70
     1
102
RTVSPropertyOp49
 70
     1
102
RTVSPropertyOp50
 70
     1
102
RTVSPropertyOp51
 70
     0
102
RTVSPropertyOp52
 70
     0
102
RTVSPropertyOp53
 70
     1
102
RTVSPropertyOp54
 70
     1
102
RTVSPropertyOp55
 70
     1
102
RTVSPropertyOp56
 70
     1
102
RTVSPropertyOp57
 70
     1
102
RTVSPost2010Prop28
280
     0
102
RTVSPost2010PropOp28
 70
     1
102
RTVSPost2010Prop29
280
     1
102
RTVSPost2010PropOp29
 70
     1
102
RTVSPost2010Prop30
280
     1
102
RTVSPost2010PropOp30
 70
     1
102
RTVSPost2010Prop31
280
     0
102
RTVSPost2010PropOp31
 70
     1
102
RTVSPost2010Prop32
280
     0
102
RTVSPost2010PropOp32
 70
     1
102
RTVSPost2010Prop33
280
     0
102
RTVSPost2010PropOp33
 70
     1
102
RTVSPost2010Prop34
280
     0
102
RTVSPost2010PropOp34
 70
     1
102
RTVSPost2010Prop35
280
     0
102
RTVSPost2010PropOp35
 70
     1
102
RTVSPost2010Prop36
280
     0
102
RTVSPost2010PropOp36
 70
     1
102
RTVSPost2010Prop37
 90
       50
102
RTVSPost2010PropOp37
 70
     1
102
RTVSPost2010Prop38
140
0.0
102
RTVSPost2010PropOp38
 70
     1
102
RTVSPost2010Prop39
140
1.0
102
RTVSPost2010PropOp39
 70
     1
102
RTVSPost2010Prop40
 90
        0
102
RTVSPost2010PropOp40
 70
     1
102
RTVSPost2010Prop41ColorIndex
 90
       18
102
RTVSPost2010Prop41ColorRGB
 90
        0
102
RTVSPost2010PropOp41
 70
     1
102
RTVSPost2010Prop42
 90
       50
102
RTVSPost2010PropOp42
 70
     1
102
RTVSPost2010Prop43
 90
        3
102
RTVSPost2010PropOp43
 70
     1
102
RTVSPost2010Prop44ColorIndex
 90
        5
102
RTVSPost2010Prop44ColorRGB
 90
      255
102
RTVSPost2010PropOp44
 70
     1
102
RTVSPost2010Prop45
280
     0
102
RTVSPost2010PropOp45
 70
     1
102
RTVSPost2010Prop46
 90
       50
102
RTVSPost2010PropOp46
 70
     1
102
RTVSPost2010Prop47
 90
       50
102
RTVSPost2010PropOp47
 70
     1
102
RTVSPost2010Prop48
 90
       50
102
RTVSPost2010PropOp48
 70
     1
102
RTVSPost2010Prop49
280
     0
102
RTVSPost2010PropOp49
 70
     1
102
RTVSPost2010Prop50
 90
       50
102
RTVSPost2010PropOp50
 70
     1
102
RTVSPost2010Prop51ColorIndex
 90
      256
102
RTVSPost2010Prop51ColorRGB
 90
-16777216
102
RTVSPost2010PropOp51
 70
     0
102
RTVSPost2010Prop52
140
1.0
102
RTVSPost2010PropOp52
 70
     0
102
RTVSPost2010Prop53
 90
        2
102
RTVSPost2010PropOp53
 70
     1
102
RTVSPost2010Prop54
  1
strokes_ogs.tif
102
RTVSPost2010PropOp54
 70
     1
102
RTVSPost2010Prop55
280
     0
102
RTVSPost2010PropOp55
 70
     1
102
RTVSPost2010Prop56
140
1.0
102
RTVSPost2010PropOp56
 70
     1
102
RTVSPost2010Prop57
140
1.0
102
RTVSPost2010PropOp57
 70
     1
  0
XRECORD
  5
FE
102
{ACAD_REACTORS
330
FD
102
}
330
FD
100
AcDbXrecord
280
     1
102
RTVSPropertyOp0
 70
     1
102
RTVSPropertyOp1
 70
     1
102
RTVSPropertyOp2
 70
     1
102
RTVSPropertyOp3
 70
     1
102
RTVSPropertyOp4
 70
     1
102
RTVSPropertyOp5
 70
     1
102
RTVSPropertyOp6
 70
     1
102
RTVSPropertyOp7
 70
     1
102
RTVSPropertyOp8
 70
     1
102
RTVSPropertyOp9
 70
     1
102
RTVSPropertyOp10
 70
     1
102
RTVSPropertyOp11
 70
     1
102
RTVSPropertyOp12
 70
     1
102
RTVSPropertyOp13
 70
     1
102
RTVSPropertyOp14
 70
     1
102
RTVSPropertyOp15
 70
     1
102
RTVSPropertyOp16
 70
     1
102
RTVSPropertyOp17
 70
     1
102
RTVSPropertyOp18
 70
     1
102
RTVSPropertyOp19
 70
     1
102
RTVSPropertyOp20
 70
     1
102
RTVSPropertyOp21
 70
     1
102
RTVSPropertyOp22
 70
     1
102
RTVSPropertyOp23
 70
     1
102
RTVSPropertyOp24
 70
     1
102
RTVSPropertyOp25
 70
     1
102
RTVSPropertyOp26
 70
     1
102
RTVSPropertyOp27
 70
     1
102
RTVSPropertyOp28
 70
     1
102
RTVSPropertyOp29
 70
     1
102
RTVSPropertyOp30
 70
     1
102
RTVSPropertyOp31
 70
     1
102
RTVSPropertyOp32
 70
     1
102
RTVSPropertyOp33
 70
     1
102
RTVSPropertyOp34
 70
     1
102
RTVSPropertyOp35
 70
     1
102
RTVSPropertyOp36
 70
     1
102
RTVSPropertyOp37
 70
     1
102
RTVSPropertyOp38
 70
     1
102
RTVSPropertyOp39
 70
     1
102
RTVSPropertyOp40
 70
     1
102
RTVSPropertyOp41
 70
     1
102
RTVSPropertyOp42
 70
     1
102
RTVSPropertyOp43
 70
     1
102
RTVSPropertyOp44
 70
     1
102
RTVSPropertyOp45
 70
     1
102
RTVSPropertyOp46
 70
     1
102
RTVSPropertyOp47
 70
     1
102
RTVSPropertyOp48
 70
     1
102
RTVSPropertyOp49
 70
     1
102
RTVSPropertyOp50
 70
     1
102
RTVSPropertyOp51
 70
     0
102
RTVSPropertyOp52
 70
     0
102
RTVSPropertyOp53
 70
     1
102
RTVSPropertyOp54
 70
     1
102
RTVSPropertyOp55
 70
     1
102
RTVSPropertyOp56
 70
     1
102
RTVSPropertyOp57
 70
     1
102
RTVSPost2010Prop28
280
     0
102
RTVSPost2010PropOp28
 70
     1
102
RTVSPost2010Prop29
280
     1
102
RTVSPost2010PropOp29
 70
     1
102
RTVSPost2010Prop30
280
     1
102
RTVSPost2010PropOp30
 70
     1
102
RTVSPost2010Prop31
280
     0
102
RTVSPost2010PropOp31
 70
     1
102
RTVSPost2010Prop32
280
     0
102
RTVSPost2010PropOp32
 70
     1
102
RTVSPost2010Prop33
280
     0
102
RTVSPost2010PropOp33
 70
     1
102
RTVSPost2010Prop34
280
     0
102
RTVSPost2010PropOp34
 70
     1
102
RTVSPost2010Prop35
280
     0
102
RTVSPost2010PropOp35
 70
     1
102
RTVSPost2010Prop36
280
     0
102
RTVSPost2010PropOp36
 70
     1
102
RTVSPost2010Prop37
 90
       50
102
RTVSPost2010PropOp37
 70
     1
102
RTVSPost2010Prop38
140
0.0
102
RTVSPost2010PropOp38
 70
     1
102
RTVSPost2010Prop39
140
1.0
102
RTVSPost2010PropOp39
 70
     1
102
RTVSPost2010Prop40
 90
        0
102
RTVSPost2010PropOp40
 70
     1
102
RTVSPost2010Prop41ColorIndex
 90
       18
102
RTVSPost2010Prop41ColorRGB
 90
        0
102
RTVSPost2010PropOp41
 70
     1
102
RTVSPost2010Prop42
 90
       50
102
RTVSPost2010PropOp42
 70
     1
102
RTVSPost2010Prop43
 90
        3
102
RTVSPost2010PropOp43
 70
     1
102
RTVSPost2010Prop44ColorIndex
 90
        5
102
RTVSPost2010Prop44ColorRGB
 90
      255
102
RTVSPost2010PropOp44
 70
     1
102
RTVSPost2010Prop45
280
     0
102
RTVSPost2010PropOp45
 70
     1
102
RTVSPost2010Prop46
 90
       50
102
RTVSPost2010PropOp46
 70
     1
102
RTVSPost2010Prop47
 90
       50
102
RTVSPost2010PropOp47
 70
     1
102
RTVSPost2010Prop48
 90
       50
102
RTVSPost2010PropOp48
 70
     1
102
RTVSPost2010Prop49
280
     0
102
RTVSPost2010PropOp49
 70
     1
102
RTVSPost2010Prop50
 90
       50
102
RTVSPost2010PropOp50
 70
     1
102
RTVSPost2010Prop51ColorIndex
 90
      256
102
RTVSPost2010Prop51ColorRGB
 90
-16777216
102
RTVSPost2010PropOp51
 70
     0
102
RTVSPost2010Prop52
140
1.0
102
RTVSPost2010PropOp52
 70
     0
102
RTVSPost2010Prop53
 90
        2
102
RTVSPost2010PropOp53
 70
     1
102
RTVSPost2010Prop54
  1
strokes_ogs.tif
102
RTVSPost2010PropOp54
 70
     1
102
RTVSPost2010Prop55
280
     0
102
RTVSPost2010PropOp55
 70
     1
102
RTVSPost2010Prop56
140
1.0
102
RTVSPost2010PropOp56
 70
     1
102
RTVSPost2010Prop57
140
1.0
102
RTVSPost2010PropOp57
 70
     1
  0
XRECORD
  5
F2
102
{ACAD_REACTORS
330
F1
102
}
330
F1
100
AcDbXrecord
280
     1
102
RTVSPropertyOp0
 70
     1
102
RTVSPropertyOp1
 70
     1
102
RTVSPropertyOp2
 70
     1
102
RTVSPropertyOp3
 70
     1
102
RTVSPropertyOp4
 70
     1
102
RTVSPropertyOp5
 70
     1
102
RTVSPropertyOp6
 70
     1
102
RTVSPropertyOp7
 70
     1
102
RTVSPropertyOp8
 70
     1
102
RTVSPropertyOp9
 70
     1
102
RTVSPropertyOp10
 70
     1
102
RTVSPropertyOp11
 70
     1
102
RTVSPropertyOp12
 70
     1
102
RTVSPropertyOp13
 70
     1
102
RTVSPropertyOp14
 70
     1
102
RTVSPropertyOp15
 70
     1
102
RTVSPropertyOp16
 70
     1
102
RTVSPropertyOp17
 70
     1
102
RTVSPropertyOp18
 70
     1
102
RTVSPropertyOp19
 70
     1
102
RTVSPropertyOp20
 70
     1
102
RTVSPropertyOp21
 70
     1
102
RTVSPropertyOp22
 70
     1
102
RTVSPropertyOp23
 70
     1
102
RTVSPropertyOp24
 70
     1
102
RTVSPropertyOp25
 70
     1
102
RTVSPropertyOp26
 70
     1
102
RTVSPropertyOp27
 70
     1
102
RTVSPropertyOp28
 70
     1
102
RTVSPropertyOp29
 70
     1
102
RTVSPropertyOp30
 70
     1
102
RTVSPropertyOp31
 70
     1
102
RTVSPropertyOp32
 70
     1
102
RTVSPropertyOp33
 70
     1
102
RTVSPropertyOp34
 70
     1
102
RTVSPropertyOp35
 70
     1
102
RTVSPropertyOp36
 70
     1
102
RTVSPropertyOp37
 70
     1
102
RTVSPropertyOp38
 70
     1
102
RTVSPropertyOp39
 70
     1
102
RTVSPropertyOp40
 70
     1
102
RTVSPropertyOp41
 70
     1
102
RTVSPropertyOp42
 70
     1
102
RTVSPropertyOp43
 70
     1
102
RTVSPropertyOp44
 70
     1
102
RTVSPropertyOp45
 70
     1
102
RTVSPropertyOp46
 70
     1
102
RTVSPropertyOp47
 70
     1
102
RTVSPropertyOp48
 70
     1
102
RTVSPropertyOp49
 70
     1
102
RTVSPropertyOp50
 70
     1
102
RTVSPropertyOp51
 70
     0
102
RTVSPropertyOp52
 70
     0
102
RTVSPropertyOp53
 70
     1
102
RTVSPropertyOp54
 70
     1
102
RTVSPropertyOp55
 70
     1
102
RTVSPropertyOp56
 70
     1
102
RTVSPropertyOp57
 70
     1
102
RTVSPost2010Prop28
280
     0
102
RTVSPost2010PropOp28
 70
     1
102
RTVSPost2010Prop29
280
     1
102
RTVSPost2010PropOp29
 70
     1
102
RTVSPost2010Prop30
280
     1
102
RTVSPost2010PropOp30
 70
     1
102
RTVSPost2010Prop31
280
     0
102
RTVSPost2010PropOp31
 70
     1
102
RTVSPost2010Prop32
280
     0
102
RTVSPost2010PropOp32
 70
     1
102
RTVSPost2010Prop33
280
     0
102
RTVSPost2010PropOp33
 70
     1
102
RTVSPost2010Prop34
280
     0
102
RTVSPost2010PropOp34
 70
     1
102
RTVSPost2010Prop35
280
     0
102
RTVSPost2010PropOp35
 70
     1
102
RTVSPost2010Prop36
280
     0
102
RTVSPost2010PropOp36
 70
     1
102
RTVSPost2010Prop37
 90
       50
102
RTVSPost2010PropOp37
 70
     1
102
RTVSPost2010Prop38
140
0.0
102
RTVSPost2010PropOp38
 70
     1
102
RTVSPost2010Prop39
140
1.0
102
RTVSPost2010PropOp39
 70
     1
102
RTVSPost2010Prop40
 90
        0
102
RTVSPost2010PropOp40
 70
     1
102
RTVSPost2010Prop41ColorIndex
 90
       18
102
RTVSPost2010Prop41ColorRGB
 90
        0
102
RTVSPost2010PropOp41
 70
     1
102
RTVSPost2010Prop42
 90
       50
102
RTVSPost2010PropOp42
 70
     1
102
RTVSPost2010Prop43
 90
        3
102
RTVSPost2010PropOp43
 70
     1
102
RTVSPost2010Prop44ColorIndex
 90
        5
102
RTVSPost2010Prop44ColorRGB
 90
      255
102
RTVSPost2010PropOp44
 70
     1
102
RTVSPost2010Prop45
280
     0
102
RTVSPost2010PropOp45
 70
     1
102
RTVSPost2010Prop46
 90
       50
102
RTVSPost2010PropOp46
 70
     1
102
RTVSPost2010Prop47
 90
       50
102
RTVSPost2010PropOp47
 70
     1
102
RTVSPost2010Prop48
 90
       50
102
RTVSPost2010PropOp48
 70
     1
102
RTVSPost2010Prop49
280
     0
102
RTVSPost2010PropOp49
 70
     1
102
RTVSPost2010Prop50
 90
       50
102
RTVSPost2010PropOp50
 70
     1
102
RTVSPost2010Prop51ColorIndex
 90
      256
102
RTVSPost2010Prop51ColorRGB
 90
-16777216
102
RTVSPost2010PropOp51
 70
     0
102
RTVSPost2010Prop52
140
1.0
102
RTVSPost2010PropOp52
 70
     0
102
RTVSPost2010Prop53
 90
        2
102
RTVSPost2010PropOp53
 70
     1
102
RTVSPost2010Prop54
  1
strokes_ogs.tif
102
RTVSPost2010PropOp54
 70
     1
102
RTVSPost2010Prop55
280
     0
102
RTVSPost2010PropOp55
 70
     1
102
RTVSPost2010Prop56
140
1.0
102
RTVSPost2010PropOp56
 70
     1
102
RTVSPost2010Prop57
140
1.0
102
RTVSPost2010PropOp57
 70
     1
  0
XRECORD
  5
F4
102
{ACAD_REACTORS
330
F3
102
}
330
F3
100
AcDbXrecord
280
     1
102
RTVSPropertyOp0
 70
     1
102
RTVSPropertyOp1
 70
     1
102
RTVSPropertyOp2
 70
     1
102
RTVSPropertyOp3
 70
     1
102
RTVSPropertyOp4
 70
     1
102
RTVSPropertyOp5
 70
     1
102
RTVSPropertyOp6
 70
     1
102
RTVSPropertyOp7
 70
     1
102
RTVSPropertyOp8
 70
     1
102
RTVSPropertyOp9
 70
     1
102
RTVSPropertyOp10
 70
     1
102
RTVSPropertyOp11
 70
     1
102
RTVSPropertyOp12
 70
     1
102
RTVSPropertyOp13
 70
     1
102
RTVSPropertyOp14
 70
     1
102
RTVSPropertyOp15
 70
     1
102
RTVSPropertyOp16
 70
     1
102
RTVSPropertyOp17
 70
     1
102
RTVSPropertyOp18
 70
     1
102
RTVSPropertyOp19
 70
     1
102
RTVSPropertyOp20
 70
     1
102
RTVSPropertyOp21
 70
     1
102
RTVSPropertyOp22
 70
     1
102
RTVSPropertyOp23
 70
     1
102
RTVSPropertyOp24
 70
     1
102
RTVSPropertyOp25
 70
     1
102
RTVSPropertyOp26
 70
     1
102
RTVSPropertyOp27
 70
     1
102
RTVSPropertyOp28
 70
     1
102
RTVSPropertyOp29
 70
     1
102
RTVSPropertyOp30
 70
     1
102
RTVSPropertyOp31
 70
     1
102
RTVSPropertyOp32
 70
     1
102
RTVSPropertyOp33
 70
     1
102
RTVSPropertyOp34
 70
     1
102
RTVSPropertyOp35
 70
     1
102
RTVSPropertyOp36
 70
     1
102
RTVSPropertyOp37
 70
     1
102
RTVSPropertyOp38
 70
     1
102
RTVSPropertyOp39
 70
     1
102
RTVSPropertyOp40
 70
     1
102
RTVSPropertyOp41
 70
     1
102
RTVSPropertyOp42
 70
     1
102
RTVSPropertyOp43
 70
     1
102
RTVSPropertyOp44
 70
     1
102
RTVSPropertyOp45
 70
     1
102
RTVSPropertyOp46
 70
     1
102
RTVSPropertyOp47
 70
     1
102
RTVSPropertyOp48
 70
     1
102
RTVSPropertyOp49
 70
     1
102
RTVSPropertyOp50
 70
     1
102
RTVSPropertyOp51
 70
     0
102
RTVSPropertyOp52
 70
     0
102
RTVSPropertyOp53
 70
     1
102
RTVSPropertyOp54
 70
     1
102
RTVSPropertyOp55
 70
     1
102
RTVSPropertyOp56
 70
     1
102
RTVSPropertyOp57
 70
     1
102
RTVSPost2010Prop28
280
     0
102
RTVSPost2010PropOp28
 70
     1
102
RTVSPost2010Prop29
280
     1
102
RTVSPost2010PropOp29
 70
     1
102
RTVSPost2010Prop30
280
     1
102
RTVSPost2010PropOp30
 70
     1
102
RTVSPost2010Prop31
280
     0
102
RTVSPost2010PropOp31
 70
     1
102
RTVSPost2010Prop32
280
     0
102
RTVSPost2010PropOp32
 70
     1
102
RTVSPost2010Prop33
280
     0
102
RTVSPost2010PropOp33
 70
     1
102
RTVSPost2010Prop34
280
     0
102
RTVSPost2010PropOp34
 70
     1
102
RTVSPost2010Prop35
280
     0
102
RTVSPost2010PropOp35
 70
     1
102
RTVSPost2010Prop36
280
     0
102
RTVSPost2010PropOp36
 70
     1
102
RTVSPost2010Prop37
 90
       50
102
RTVSPost2010PropOp37
 70
     1
102
RTVSPost2010Prop38
140
0.0
102
RTVSPost2010PropOp38
 70
     1
102
RTVSPost2010Prop39
140
1.0
102
RTVSPost2010PropOp39
 70
     1
102
RTVSPost2010Prop40
 90
        0
102
RTVSPost2010PropOp40
 70
     1
102
RTVSPost2010Prop41ColorIndex
 90
       18
102
RTVSPost2010Prop41ColorRGB
 90
        0
102
RTVSPost2010PropOp41
 70
     1
102
RTVSPost2010Prop42
 90
       50
102
RTVSPost2010PropOp42
 70
     1
102
RTVSPost2010Prop43
 90
        3
102
RTVSPost2010PropOp43
 70
     1
102
RTVSPost2010Prop44ColorIndex
 90
        5
102
RTVSPost2010Prop44ColorRGB
 90
      255
102
RTVSPost2010PropOp44
 70
     1
102
RTVSPost2010Prop45
280
     0
102
RTVSPost2010PropOp45
 70
     1
102
RTVSPost2010Prop46
 90
       50
102
RTVSPost2010PropOp46
 70
     1
102
RTVSPost2010Prop47
 90
       50
102
RTVSPost2010PropOp47
 70
     1
102
RTVSPost2010Prop48
 90
       50
102
RTVSPost2010PropOp48
 70
     1
102
RTVSPost2010Prop49
280
     0
102
RTVSPost2010PropOp49
 70
     1
102
RTVSPost2010Prop50
 90
       50
102
RTVSPost2010PropOp50
 70
     1
102
RTVSPost2010Prop51ColorIndex
 90
      256
102
RTVSPost2010Prop51ColorRGB
 90
-16777216
102
RTVSPost2010PropOp51
 70
     0
102
RTVSPost2010Prop52
140
1.0
102
RTVSPost2010PropOp52
 70
     0
102
RTVSPost2010Prop53
 90
        2
102
RTVSPost2010PropOp53
 70
     1
102
RTVSPost2010Prop54
  1
strokes_ogs.tif
102
RTVSPost2010PropOp54
 70
     1
102
RTVSPost2010Prop55
280
     0
102
RTVSPost2010PropOp55
 70
     1
102
RTVSPost2010Prop56
140
1.0
102
RTVSPost2010PropOp56
 70
     1
102
RTVSPost2010Prop57
140
1.0
102
RTVSPost2010PropOp57
 70
     1
  0
XRECORD
  5
104
102
{ACAD_REACTORS
330
103
102
}
330
103
100
AcDbXrecord
280
     1
102
RTVSPropertyOp0
 70
     0
102
RTVSPropertyOp1
 70
     0
102
RTVSPropertyOp2
 70
     0
102
RTVSPropertyOp3
 70
     0
102
RTVSPropertyOp4
 70
     0
102
RTVSPropertyOp5
 70
     0
102
RTVSPropertyOp6
 70
     0
102
RTVSPropertyOp7
 70
     0
102
RTVSPropertyOp8
 70
     0
102
RTVSPropertyOp9
 70
     0
102
RTVSPropertyOp10
 70
     0
102
RTVSPropertyOp11
 70
     0
102
RTVSPropertyOp12
 70
     0
102
RTVSPropertyOp13
 70
     0
102
RTVSPropertyOp14
 70
     2
102
RTVSPropertyOp15
 70
     0
102
RTVSPropertyOp16
 70
     0
102
RTVSPropertyOp17
 70
     0
102
RTVSPropertyOp18
 70
     0
102
RTVSPropertyOp19
 70
     0
102
RTVSPropertyOp20
 70
     0
102
RTVSPropertyOp21
 70
     0
102
RTVSPropertyOp22
 70
     0
102
RTVSPropertyOp23
 70
     0
102
RTVSPropertyOp24
 70
     0
102
RTVSPropertyOp25
 70
     0
102
RTVSPropertyOp26
 70
     0
102
RTVSPropertyOp27
 70
     0
102
RTVSPropertyOp28
 70
     0
102
RTVSPropertyOp29
 70
     0
102
RTVSPropertyOp30
 70
     0
102
RTVSPropertyOp31
 70
     0
102
RTVSPropertyOp32
 70
     0
102
RTVSPropertyOp33
 70
     0
102
RTVSPropertyOp34
 70
     0
102
RTVSPropertyOp35
 70
     0
102
RTVSPropertyOp36
 70
     0
102
RTVSPropertyOp37
 70
     0
102
RTVSPropertyOp38
 70
     0
102
RTVSPropertyOp39
 70
     0
102
RTVSPropertyOp40
 70
     0
102
RTVSPropertyOp41
 70
     0
102
RTVSPropertyOp42
 70
     0
102
RTVSPropertyOp43
 70
     0
102
RTVSPropertyOp44
 70
     0
102
RTVSPropertyOp45
 70
     0
102
RTVSPropertyOp46
 70
     0
102
RTVSPropertyOp47
 70
     0
102
RTVSPropertyOp48
 70
     0
102
RTVSPropertyOp49
 70
     0
102
RTVSPropertyOp50
 70
     0
102
RTVSPropertyOp51
 70
     0
102
RTVSPropertyOp52
 70
     0
102
RTVSPropertyOp53
 70
     0
102
RTVSPropertyOp54
 70
     0
102
RTVSPropertyOp55
 70
     0
102
RTVSPropertyOp56
 70
     0
102
RTVSPropertyOp57
 70
     0
102
RTVSPost2010Prop28
280
     0
102
RTVSPost2010PropOp28
 70
     0
102
RTVSPost2010Prop29
280
     1
102
RTVSPost2010PropOp29
 70
     0
102
RTVSPost2010Prop30
280
     1
102
RTVSPost2010PropOp30
 70
     0
102
RTVSPost2010Prop31
280
     0
102
RTVSPost2010PropOp31
 70
     0
102
RTVSPost2010Prop32
280
     0
102
RTVSPost2010PropOp32
 70
     0
102
RTVSPost2010Prop33
280
     0
102
RTVSPost2010PropOp33
 70
     0
102
RTVSPost2010Prop34
280
     0
102
RTVSPost2010PropOp34
 70
     0
102
RTVSPost2010Prop35
280
     0
102
RTVSPost2010PropOp35
 70
     0
102
RTVSPost2010Prop36
280
     0
102
RTVSPost2010PropOp36
 70
     0
102
RTVSPost2010Prop37
 90
       50
102
RTVSPost2010PropOp37
 70
     0
102
RTVSPost2010Prop38
140
0.0
102
RTVSPost2010PropOp38
 70
     0
102
RTVSPost2010Prop39
140
1.0
102
RTVSPost2010PropOp39
 70
     0
102
RTVSPost2010Prop40
 90
        0
102
RTVSPost2010PropOp40
 70
     0
102
RTVSPost2010Prop41ColorIndex
 90
       18
102
RTVSPost2010Prop41ColorRGB
 90
        0
102
RTVSPost2010PropOp41
 70
     0
102
RTVSPost2010Prop42
 90
       50
102
RTVSPost2010PropOp42
 70
     0
102
RTVSPost2010Prop43
 90
        3
102
RTVSPost2010PropOp43
 70
     0
102
RTVSPost2010Prop44ColorIndex
 90
        5
102
RTVSPost2010Prop44ColorRGB
 90
      255
102
RTVSPost2010PropOp44
 70
     0
102
RTVSPost2010Prop45
280
     0
102
RTVSPost2010PropOp45
 70
     0
102
RTVSPost2010Prop46
 90
       50
102
RTVSPost2010PropOp46
 70
     0
102
RTVSPost2010Prop47
 90
       50
102
RTVSPost2010PropOp47
 70
     0
102
RTVSPost2010Prop48
 90
       50
102
RTVSPost2010PropOp48
 70
     0
102
RTVSPost2010Prop49
280
     0
102
RTVSPost2010PropOp49
 70
     0
102
RTVSPost2010Prop50
 90
       50
102
RTVSPost2010PropOp50
 70
     0
102
RTVSPost2010Prop51ColorIndex
 90
      256
102
RTVSPost2010Prop51ColorRGB
 90
-16777216
102
RTVSPost2010PropOp51
 70
     0
102
RTVSPost2010Prop52
140
1.0
102
RTVSPost2010PropOp52
 70
     0
102
RTVSPost2010Prop53
 90
        2
102
RTVSPost2010PropOp53
 70
     0
102
RTVSPost2010Prop54
  1
strokes_ogs.tif
102
RTVSPost2010PropOp54
 70
     0
102
RTVSPost2010Prop55
280
     0
102
RTVSPost2010PropOp55
 70
     0
102
RTVSPost2010Prop56
140
1.0
102
RTVSPost2010PropOp56
 70
     0
102
RTVSPost2010Prop57
140
1.0
102
RTVSPost2010PropOp57
 70
     0
  0
XRECORD
  5
FC
102
{ACAD_REACTORS
330
FB
102
}
330
FB
100
AcDbXrecord
280
     1
102
RTVSPropertyOp0
 70
     1
102
RTVSPropertyOp1
 70
     1
102
RTVSPropertyOp2
 70
     1
102
RTVSPropertyOp3
 70
     1
102
RTVSPropertyOp4
 70
     1
102
RTVSPropertyOp5
 70
     1
102
RTVSPropertyOp6
 70
     1
102
RTVSPropertyOp7
 70
     1
102
RTVSPropertyOp8
 70
     1
102
RTVSPropertyOp9
 70
     1
102
RTVSPropertyOp10
 70
     1
102
RTVSPropertyOp11
 70
     1
102
RTVSPropertyOp12
 70
     1
102
RTVSPropertyOp13
 70
     1
102
RTVSPropertyOp14
 70
     1
102
RTVSPropertyOp15
 70
     1
102
RTVSPropertyOp16
 70
     1
102
RTVSPropertyOp17
 70
     1
102
RTVSPropertyOp18
 70
     1
102
RTVSPropertyOp19
 70
     1
102
RTVSPropertyOp20
 70
     1
102
RTVSPropertyOp21
 70
     1
102
RTVSPropertyOp22
 70
     1
102
RTVSPropertyOp23
 70
     1
102
RTVSPropertyOp24
 70
     1
102
RTVSPropertyOp25
 70
     1
102
RTVSPropertyOp26
 70
     1
102
RTVSPropertyOp27
 70
     1
102
RTVSPropertyOp28
 70
     1
102
RTVSPropertyOp29
 70
     1
102
RTVSPropertyOp30
 70
     1
102
RTVSPropertyOp31
 70
     1
102
RTVSPropertyOp32
 70
     1
102
RTVSPropertyOp33
 70
     1
102
RTVSPropertyOp34
 70
     1
102
RTVSPropertyOp35
 70
     1
102
RTVSPropertyOp36
 70
     1
102
RTVSPropertyOp37
 70
     1
102
RTVSPropertyOp38
 70
     1
102
RTVSPropertyOp39
 70
     1
102
RTVSPropertyOp40
 70
     1
102
RTVSPropertyOp41
 70
     1
102
RTVSPropertyOp42
 70
     1
102
RTVSPropertyOp43
 70
     1
102
RTVSPropertyOp44
 70
     1
102
RTVSPropertyOp45
 70
     1
102
RTVSPropertyOp46
 70
     1
102
RTVSPropertyOp47
 70
     1
102
RTVSPropertyOp48
 70
     1
102
RTVSPropertyOp49
 70
     1
102
RTVSPropertyOp50
 70
     1
102
RTVSPropertyOp51
 70
     0
102
RTVSPropertyOp52
 70
     0
102
RTVSPropertyOp53
 70
     1
102
RTVSPropertyOp54
 70
     1
102
RTVSPropertyOp55
 70
     1
102
RTVSPropertyOp56
 70
     1
102
RTVSPropertyOp57
 70
     1
102
RTVSPost2010Prop28
280
     0
102
RTVSPost2010PropOp28
 70
     1
102
RTVSPost2010Prop29
280
     1
102
RTVSPost2010PropOp29
 70
     1
102
RTVSPost2010Prop30
280
     1
102
RTVSPost2010PropOp30
 70
     1
102
RTVSPost2010Prop31
280
     0
102
RTVSPost2010PropOp31
 70
     1
102
RTVSPost2010Prop32
280
     0
102
RTVSPost2010PropOp32
 70
     1
102
RTVSPost2010Prop33
280
     0
102
RTVSPost2010PropOp33
 70
     1
102
RTVSPost2010Prop34
280
     0
102
RTVSPost2010PropOp34
 70
     1
102
RTVSPost2010Prop35
280
     0
102
RTVSPost2010PropOp35
 70
     1
102
RTVSPost2010Prop36
280
     0
102
RTVSPost2010PropOp36
 70
     1
102
RTVSPost2010Prop37
 90
       50
102
RTVSPost2010PropOp37
 70
     1
102
RTVSPost2010Prop38
140
0.0
102
RTVSPost2010PropOp38
 70
     1
102
RTVSPost2010Prop39
140
1.0
102
RTVSPost2010PropOp39
 70
     1
102
RTVSPost2010Prop40
 90
        0
102
RTVSPost2010PropOp40
 70
     1
102
RTVSPost2010Prop41ColorIndex
 90
       18
102
RTVSPost2010Prop41ColorRGB
 90
        0
102
RTVSPost2010PropOp41
 70
     1
102
RTVSPost2010Prop42
 90
       50
102
RTVSPost2010PropOp42
 70
     1
102
RTVSPost2010Prop43
 90
        3
102
RTVSPost2010PropOp43
 70
     1
102
RTVSPost2010Prop44ColorIndex
 90
        5
102
RTVSPost2010Prop44ColorRGB
 90
      255
102
RTVSPost2010PropOp44
 70
     1
102
RTVSPost2010Prop45
280
     0
102
RTVSPost2010PropOp45
 70
     1
102
RTVSPost2010Prop46
 90
       50
102
RTVSPost2010PropOp46
 70
     1
102
RTVSPost2010Prop47
 90
       50
102
RTVSPost2010PropOp47
 70
     1
102
RTVSPost2010Prop48
 90
       50
102
RTVSPost2010PropOp48
 70
     1
102
RTVSPost2010Prop49
280
     0
102
RTVSPost2010PropOp49
 70
     1
102
RTVSPost2010Prop50
 90
       50
102
RTVSPost2010PropOp50
 70
     1
102
RTVSPost2010Prop51ColorIndex
 90
      256
102
RTVSPost2010Prop51ColorRGB
 90
-16777216
102
RTVSPost2010PropOp51
 70
     0
102
RTVSPost2010Prop52
140
1.0
102
RTVSPost2010PropOp52
 70
     0
102
RTVSPost2010Prop53
 90
        2
102
RTVSPost2010PropOp53
 70
     1
102
RTVSPost2010Prop54
  1
strokes_ogs.tif
102
RTVSPost2010PropOp54
 70
     1
102
RTVSPost2010Prop55
280
     0
102
RTVSPost2010PropOp55
 70
     1
102
RTVSPost2010Prop56
140
1.0
102
RTVSPost2010PropOp56
 70
     1
102
RTVSPost2010Prop57
140
1.0
102
RTVSPost2010PropOp57
 70
     1
  0
XRECORD
  5
E0
102
{ACAD_REACTORS
330
DF
102
}
330
DF
100
AcDbXrecord
280
     1
102
RTVSPropertyOp0
 70
     1
102
RTVSPropertyOp1
 70
     1
102
RTVSPropertyOp2
 70
     1
102
RTVSPropertyOp3
 70
     1
102
RTVSPropertyOp4
 70
     1
102
RTVSPropertyOp5
 70
     1
102
RTVSPropertyOp6
 70
     1
102
RTVSPropertyOp7
 70
     1
102
RTVSPropertyOp8
 70
     1
102
RTVSPropertyOp9
 70
     1
102
RTVSPropertyOp10
 70
     1
102
RTVSPropertyOp11
 70
     1
102
RTVSPropertyOp12
 70
     1
102
RTVSPropertyOp13
 70
     1
102
RTVSPropertyOp14
 70
     1
102
RTVSPropertyOp15
 70
     1
102
RTVSPropertyOp16
 70
     1
102
RTVSPropertyOp17
 70
     1
102
RTVSPropertyOp18
 70
     1
102
RTVSPropertyOp19
 70
     1
102
RTVSPropertyOp20
 70
     1
102
RTVSPropertyOp21
 70
     1
102
RTVSPropertyOp22
 70
     1
102
RTVSPropertyOp23
 70
     1
102
RTVSPropertyOp24
 70
     1
102
RTVSPropertyOp25
 70
     1
102
RTVSPropertyOp26
 70
     1
102
RTVSPropertyOp27
 70
     1
102
RTVSPropertyOp28
 70
     1
102
RTVSPropertyOp29
 70
     1
102
RTVSPropertyOp30
 70
     1
102
RTVSPropertyOp31
 70
     1
102
RTVSPropertyOp32
 70
     1
102
RTVSPropertyOp33
 70
     1
102
RTVSPropertyOp34
 70
     1
102
RTVSPropertyOp35
 70
     1
102
RTVSPropertyOp36
 70
     1
102
RTVSPropertyOp37
 70
     1
102
RTVSPropertyOp38
 70
     1
102
RTVSPropertyOp39
 70
     1
102
RTVSPropertyOp40
 70
     1
102
RTVSPropertyOp41
 70
     1
102
RTVSPropertyOp42
 70
     1
102
RTVSPropertyOp43
 70
     1
102
RTVSPropertyOp44
 70
     1
102
RTVSPropertyOp45
 70
     1
102
RTVSPropertyOp46
 70
     1
102
RTVSPropertyOp47
 70
     1
102
RTVSPropertyOp48
 70
     1
102
RTVSPropertyOp49
 70
     1
102
RTVSPropertyOp50
 70
     1
102
RTVSPropertyOp51
 70
     0
102
RTVSPropertyOp52
 70
     0
102
RTVSPropertyOp53
 70
     1
102
RTVSPropertyOp54
 70
     1
102
RTVSPropertyOp55
 70
     1
102
RTVSPropertyOp56
 70
     1
102
RTVSPropertyOp57
 70
     1
102
RTVSPost2010Prop28
280
     0
102
RTVSPost2010PropOp28
 70
     1
102
RTVSPost2010Prop29
280
     1
102
RTVSPost2010PropOp29
 70
     1
102
RTVSPost2010Prop30
280
     1
102
RTVSPost2010PropOp30
 70
     1
102
RTVSPost2010Prop31
280
     0
102
RTVSPost2010PropOp31
 70
     1
102
RTVSPost2010Prop32
280
     0
102
RTVSPost2010PropOp32
 70
     1
102
RTVSPost2010Prop33
280
     0
102
RTVSPost2010PropOp33
 70
     1
102
RTVSPost2010Prop34
280
     0
102
RTVSPost2010PropOp34
 70
     1
102
RTVSPost2010Prop35
280
     0
102
RTVSPost2010PropOp35
 70
     1
102
RTVSPost2010Prop36
280
     0
102
RTVSPost2010PropOp36
 70
     1
102
RTVSPost2010Prop37
 90
       50
102
RTVSPost2010PropOp37
 70
     1
102
RTVSPost2010Prop38
140
0.0
102
RTVSPost2010PropOp38
 70
     1
102
RTVSPost2010Prop39
140
1.0
102
RTVSPost2010PropOp39
 70
     1
102
RTVSPost2010Prop40
 90
        0
102
RTVSPost2010PropOp40
 70
     1
102
RTVSPost2010Prop41ColorIndex
 90
       18
102
RTVSPost2010Prop41ColorRGB
 90
        0
102
RTVSPost2010PropOp41
 70
     1
102
RTVSPost2010Prop42
 90
       50
102
RTVSPost2010PropOp42
 70
     1
102
RTVSPost2010Prop43
 90
        3
102
RTVSPost2010PropOp43
 70
     1
102
RTVSPost2010Prop44ColorIndex
 90
        5
102
RTVSPost2010Prop44ColorRGB
 90
      255
102
RTVSPost2010PropOp44
 70
     1
102
RTVSPost2010Prop45
280
     0
102
RTVSPost2010PropOp45
 70
     1
102
RTVSPost2010Prop46
 90
       50
102
RTVSPost2010PropOp46
 70
     1
102
RTVSPost2010Prop47
 90
       50
102
RTVSPost2010PropOp47
 70
     1
102
RTVSPost2010Prop48
 90
       50
102
RTVSPost2010PropOp48
 70
     1
102
RTVSPost2010Prop49
280
     0
102
RTVSPost2010PropOp49
 70
     1
102
RTVSPost2010Prop50
 90
       50
102
RTVSPost2010PropOp50
 70
     1
102
RTVSPost2010Prop51ColorIndex
 90
      256
102
RTVSPost2010Prop51ColorRGB
 90
-16777216
102
RTVSPost2010PropOp51
 70
     0
102
RTVSPost2010Prop52
140
1.0
102
RTVSPost2010PropOp52
 70
     0
102
RTVSPost2010Prop53
 90
        2
102
RTVSPost2010PropOp53
 70
     1
102
RTVSPost2010Prop54
  1
strokes_ogs.tif
102
RTVSPost2010PropOp54
 70
     1
102
RTVSPost2010Prop55
280
     0
102
RTVSPost2010PropOp55
 70
     1
102
RTVSPost2010Prop56
140
1.0
102
RTVSPost2010PropOp56
 70
     1
102
RTVSPost2010Prop57
140
1.0
102
RTVSPost2010PropOp57
 70
     1
  0
XRECORD
  5
E2
102
{ACAD_REACTORS
330
E1
102
}
330
E1
100
AcDbXrecord
280
     1
102
RTVSPropertyOp0
 70
     1
102
RTVSPropertyOp1
 70
     1
102
RTVSPropertyOp2
 70
     1
102
RTVSPropertyOp3
 70
     1
102
RTVSPropertyOp4
 70
     1
102
RTVSPropertyOp5
 70
     1
102
RTVSPropertyOp6
 70
     1
102
RTVSPropertyOp7
 70
     1
102
RTVSPropertyOp8
 70
     1
102
RTVSPropertyOp9
 70
     1
102
RTVSPropertyOp10
 70
     1
102
RTVSPropertyOp11
 70
     1
102
RTVSPropertyOp12
 70
     1
102
RTVSPropertyOp13
 70
     1
102
RTVSPropertyOp14
 70
     1
102
RTVSPropertyOp15
 70
     1
102
RTVSPropertyOp16
 70
     1
102
RTVSPropertyOp17
 70
     1
102
RTVSPropertyOp18
 70
     1
102
RTVSPropertyOp19
 70
     1
102
RTVSPropertyOp20
 70
     1
102
RTVSPropertyOp21
 70
     1
102
RTVSPropertyOp22
 70
     1
102
RTVSPropertyOp23
 70
     1
102
RTVSPropertyOp24
 70
     1
102
RTVSPropertyOp25
 70
     1
102
RTVSPropertyOp26
 70
     1
102
RTVSPropertyOp27
 70
     1
102
RTVSPropertyOp28
 70
     1
102
RTVSPropertyOp29
 70
     1
102
RTVSPropertyOp30
 70
     1
102
RTVSPropertyOp31
 70
     1
102
RTVSPropertyOp32
 70
     1
102
RTVSPropertyOp33
 70
     1
102
RTVSPropertyOp34
 70
     1
102
RTVSPropertyOp35
 70
     1
102
RTVSPropertyOp36
 70
     1
102
RTVSPropertyOp37
 70
     1
102
RTVSPropertyOp38
 70
     1
102
RTVSPropertyOp39
 70
     1
102
RTVSPropertyOp40
 70
     1
102
RTVSPropertyOp41
 70
     1
102
RTVSPropertyOp42
 70
     1
102
RTVSPropertyOp43
 70
     1
102
RTVSPropertyOp44
 70
     1
102
RTVSPropertyOp45
 70
     1
102
RTVSPropertyOp46
 70
     1
102
RTVSPropertyOp47
 70
     1
102
RTVSPropertyOp48
 70
     1
102
RTVSPropertyOp49
 70
     1
102
RTVSPropertyOp50
 70
     1
102
RTVSPropertyOp51
 70
     0
102
RTVSPropertyOp52
 70
     0
102
RTVSPropertyOp53
 70
     1
102
RTVSPropertyOp54
 70
     1
102
RTVSPropertyOp55
 70
     1
102
RTVSPropertyOp56
 70
     1
102
RTVSPropertyOp57
 70
     1
102
RTVSPost2010Prop28
280
     0
102
RTVSPost2010PropOp28
 70
     1
102
RTVSPost2010Prop29
280
     1
102
RTVSPost2010PropOp29
 70
     1
102
RTVSPost2010Prop30
280
     1
102
RTVSPost2010PropOp30
 70
     1
102
RTVSPost2010Prop31
280
     0
102
RTVSPost2010PropOp31
 70
     1
102
RTVSPost2010Prop32
280
     0
102
RTVSPost2010PropOp32
 70
     1
102
RTVSPost2010Prop33
280
     0
102
RTVSPost2010PropOp33
 70
     1
102
RTVSPost2010Prop34
280
     0
102
RTVSPost2010PropOp34
 70
     1
102
RTVSPost2010Prop35
280
     0
102
RTVSPost2010PropOp35
 70
     1
102
RTVSPost2010Prop36
280
     0
102
RTVSPost2010PropOp36
 70
     1
102
RTVSPost2010Prop37
 90
       50
102
RTVSPost2010PropOp37
 70
     1
102
RTVSPost2010Prop38
140
0.0
102
RTVSPost2010PropOp38
 70
     1
102
RTVSPost2010Prop39
140
1.0
102
RTVSPost2010PropOp39
 70
     1
102
RTVSPost2010Prop40
 90
        0
102
RTVSPost2010PropOp40
 70
     1
102
RTVSPost2010Prop41ColorIndex
 90
       18
102
RTVSPost2010Prop41ColorRGB
 90
        0
102
RTVSPost2010PropOp41
 70
     1
102
RTVSPost2010Prop42
 90
       50
102
RTVSPost2010PropOp42
 70
     1
102
RTVSPost2010Prop43
 90
        3
102
RTVSPost2010PropOp43
 70
     1
102
RTVSPost2010Prop44ColorIndex
 90
        5
102
RTVSPost2010Prop44ColorRGB
 90
      255
102
RTVSPost2010PropOp44
 70
     1
102
RTVSPost2010Prop45
280
     0
102
RTVSPost2010PropOp45
 70
     1
102
RTVSPost2010Prop46
 90
       50
102
RTVSPost2010PropOp46
 70
     1
102
RTVSPost2010Prop47
 90
       50
102
RTVSPost2010PropOp47
 70
     1
102
RTVSPost2010Prop48
 90
       50
102
RTVSPost2010PropOp48
 70
     1
102
RTVSPost2010Prop49
280
     0
102
RTVSPost2010PropOp49
 70
     1
102
RTVSPost2010Prop50
 90
       50
102
RTVSPost2010PropOp50
 70
     1
102
RTVSPost2010Prop51ColorIndex
 90
      256
102
RTVSPost2010Prop51ColorRGB
 90
-16777216
102
RTVSPost2010PropOp51
 70
     0
102
RTVSPost2010Prop52
140
1.0
102
RTVSPost2010PropOp52
 70
     0
102
RTVSPost2010Prop53
 90
        2
102
RTVSPost2010PropOp53
 70
     1
102
RTVSPost2010Prop54
  1
strokes_ogs.tif
102
RTVSPost2010PropOp54
 70
     1
102
RTVSPost2010Prop55
280
     0
102
RTVSPost2010PropOp55
 70
     1
102
RTVSPost2010Prop56
140
1.0
102
RTVSPost2010PropOp56
 70
     1
102
RTVSPost2010Prop57
140
1.0
102
RTVSPost2010PropOp57
 70
     1
  0
XRECORD
  5
E4
102
{ACAD_REACTORS
330
E3
102
}
330
E3
100
AcDbXrecord
280
     1
102
RTVSPropertyOp0
 70
     1
102
RTVSPropertyOp1
 70
     1
102
RTVSPropertyOp2
 70
     1
102
RTVSPropertyOp3
 70
     1
102
RTVSPropertyOp4
 70
     1
102
RTVSPropertyOp5
 70
     1
102
RTVSPropertyOp6
 70
     1
102
RTVSPropertyOp7
 70
     1
102
RTVSPropertyOp8
 70
     1
102
RTVSPropertyOp9
 70
     1
102
RTVSPropertyOp10
 70
     1
102
RTVSPropertyOp11
 70
     1
102
RTVSPropertyOp12
 70
     1
102
RTVSPropertyOp13
 70
     1
102
RTVSPropertyOp14
 70
     1
102
RTVSPropertyOp15
 70
     1
102
RTVSPropertyOp16
 70
     1
102
RTVSPropertyOp17
 70
     1
102
RTVSPropertyOp18
 70
     1
102
RTVSPropertyOp19
 70
     1
102
RTVSPropertyOp20
 70
     1
102
RTVSPropertyOp21
 70
     1
102
RTVSPropertyOp22
 70
     1
102
RTVSPropertyOp23
 70
     1
102
RTVSPropertyOp24
 70
     1
102
RTVSPropertyOp25
 70
     1
102
RTVSPropertyOp26
 70
     1
102
RTVSPropertyOp27
 70
     1
102
RTVSPropertyOp28
 70
     1
102
RTVSPropertyOp29
 70
     1
102
RTVSPropertyOp30
 70
     1
102
RTVSPropertyOp31
 70
     1
102
RTVSPropertyOp32
 70
     1
102
RTVSPropertyOp33
 70
     1
102
RTVSPropertyOp34
 70
     1
102
RTVSPropertyOp35
 70
     1
102
RTVSPropertyOp36
 70
     1
102
RTVSPropertyOp37
 70
     1
102
RTVSPropertyOp38
 70
     1
102
RTVSPropertyOp39
 70
     1
102
RTVSPropertyOp40
 70
     1
102
RTVSPropertyOp41
 70
     1
102
RTVSPropertyOp42
 70
     1
102
RTVSPropertyOp43
 70
     1
102
RTVSPropertyOp44
 70
     1
102
RTVSPropertyOp45
 70
     1
102
RTVSPropertyOp46
 70
     1
102
RTVSPropertyOp47
 70
     1
102
RTVSPropertyOp48
 70
     1
102
RTVSPropertyOp49
 70
     1
102
RTVSPropertyOp50
 70
     1
102
RTVSPropertyOp51
 70
     0
102
RTVSPropertyOp52
 70
     0
102
RTVSPropertyOp53
 70
     1
102
RTVSPropertyOp54
 70
     1
102
RTVSPropertyOp55
 70
     1
102
RTVSPropertyOp56
 70
     1
102
RTVSPropertyOp57
 70
     1
102
RTVSPost2010Prop28
280
     0
102
RTVSPost2010PropOp28
 70
     1
102
RTVSPost2010Prop29
280
     1
102
RTVSPost2010PropOp29
 70
     1
102
RTVSPost2010Prop30
280
     1
102
RTVSPost2010PropOp30
 70
     1
102
RTVSPost2010Prop31
280
     0
102
RTVSPost2010PropOp31
 70
     1
102
RTVSPost2010Prop32
280
     0
102
RTVSPost2010PropOp32
 70
     1
102
RTVSPost2010Prop33
280
     0
102
RTVSPost2010PropOp33
 70
     1
102
RTVSPost2010Prop34
280
     0
102
RTVSPost2010PropOp34
 70
     1
102
RTVSPost2010Prop35
280
     0
102
RTVSPost2010PropOp35
 70
     1
102
RTVSPost2010Prop36
280
     0
102
RTVSPost2010PropOp36
 70
     1
102
RTVSPost2010Prop37
 90
       50
102
RTVSPost2010PropOp37
 70
     1
102
RTVSPost2010Prop38
140
0.0
102
RTVSPost2010PropOp38
 70
     1
102
RTVSPost2010Prop39
140
1.0
102
RTVSPost2010PropOp39
 70
     1
102
RTVSPost2010Prop40
 90
        0
102
RTVSPost2010PropOp40
 70
     1
102
RTVSPost2010Prop41ColorIndex
 90
       18
102
RTVSPost2010Prop41ColorRGB
 90
        0
102
RTVSPost2010PropOp41
 70
     1
102
RTVSPost2010Prop42
 90
       50
102
RTVSPost2010PropOp42
 70
     1
102
RTVSPost2010Prop43
 90
        3
102
RTVSPost2010PropOp43
 70
     1
102
RTVSPost2010Prop44ColorIndex
 90
        5
102
RTVSPost2010Prop44ColorRGB
 90
      255
102
RTVSPost2010PropOp44
 70
     1
102
RTVSPost2010Prop45
280
     0
102
RTVSPost2010PropOp45
 70
     1
102
RTVSPost2010Prop46
 90
       50
102
RTVSPost2010PropOp46
 70
     1
102
RTVSPost2010Prop47
 90
       50
102
RTVSPost2010PropOp47
 70
     1
102
RTVSPost2010Prop48
 90
       50
102
RTVSPost2010PropOp48
 70
     1
102
RTVSPost2010Prop49
280
     0
102
RTVSPost2010PropOp49
 70
     1
102
RTVSPost2010Prop50
 90
       50
102
RTVSPost2010PropOp50
 70
     1
102
RTVSPost2010Prop51ColorIndex
 90
      256
102
RTVSPost2010Prop51ColorRGB
 90
-16777216
102
RTVSPost2010PropOp51
 70
     0
102
RTVSPost2010Prop52
140
1.0
102
RTVSPost2010PropOp52
 70
     0
102
RTVSPost2010Prop53
 90
        2
102
RTVSPost2010PropOp53
 70
     1
102
RTVSPost2010Prop54
  1
strokes_ogs.tif
102
RTVSPost2010PropOp54
 70
     1
102
RTVSPost2010Prop55
280
     0
102
RTVSPost2010PropOp55
 70
     1
102
RTVSPost2010Prop56
140
1.0
102
RTVSPost2010PropOp56
 70
     1
102
RTVSPost2010Prop57
140
1.0
102
RTVSPost2010PropOp57
 70
     1
  0
XRECORD
  5
E6
102
{ACAD_REACTORS
330
E5
102
}
330
E5
100
AcDbXrecord
280
     1
102
RTVSPropertyOp0
 70
     1
102
RTVSPropertyOp1
 70
     1
102
RTVSPropertyOp2
 70
     1
102
RTVSPropertyOp3
 70
     1
102
RTVSPropertyOp4
 70
     1
102
RTVSPropertyOp5
 70
     1
102
RTVSPropertyOp6
 70
     1
102
RTVSPropertyOp7
 70
     1
102
RTVSPropertyOp8
 70
     1
102
RTVSPropertyOp9
 70
     1
102
RTVSPropertyOp10
 70
     1
102
RTVSPropertyOp11
 70
     1
102
RTVSPropertyOp12
 70
     1
102
RTVSPropertyOp13
 70
     1
102
RTVSPropertyOp14
 70
     1
102
RTVSPropertyOp15
 70
     1
102
RTVSPropertyOp16
 70
     1
102
RTVSPropertyOp17
 70
     1
102
RTVSPropertyOp18
 70
     1
102
RTVSPropertyOp19
 70
     1
102
RTVSPropertyOp20
 70
     1
102
RTVSPropertyOp21
 70
     1
102
RTVSPropertyOp22
 70
     1
102
RTVSPropertyOp23
 70
     1
102
RTVSPropertyOp24
 70
     1
102
RTVSPropertyOp25
 70
     1
102
RTVSPropertyOp26
 70
     1
102
RTVSPropertyOp27
 70
     1
102
RTVSPropertyOp28
 70
     1
102
RTVSPropertyOp29
 70
     1
102
RTVSPropertyOp30
 70
     1
102
RTVSPropertyOp31
 70
     1
102
RTVSPropertyOp32
 70
     1
102
RTVSPropertyOp33
 70
     1
102
RTVSPropertyOp34
 70
     1
102
RTVSPropertyOp35
 70
     1
102
RTVSPropertyOp36
 70
     1
102
RTVSPropertyOp37
 70
     1
102
RTVSPropertyOp38
 70
     1
102
RTVSPropertyOp39
 70
     1
102
RTVSPropertyOp40
 70
     1
102
RTVSPropertyOp41
 70
     1
102
RTVSPropertyOp42
 70
     1
102
RTVSPropertyOp43
 70
     1
102
RTVSPropertyOp44
 70
     1
102
RTVSPropertyOp45
 70
     1
102
RTVSPropertyOp46
 70
     1
102
RTVSPropertyOp47
 70
     1
102
RTVSPropertyOp48
 70
     1
102
RTVSPropertyOp49
 70
     1
102
RTVSPropertyOp50
 70
     1
102
RTVSPropertyOp51
 70
     0
102
RTVSPropertyOp52
 70
     0
102
RTVSPropertyOp53
 70
     1
102
RTVSPropertyOp54
 70
     1
102
RTVSPropertyOp55
 70
     1
102
RTVSPropertyOp56
 70
     1
102
RTVSPropertyOp57
 70
     1
102
RTVSPost2010Prop28
280
     0
102
RTVSPost2010PropOp28
 70
     1
102
RTVSPost2010Prop29
280
     1
102
RTVSPost2010PropOp29
 70
     1
102
RTVSPost2010Prop30
280
     1
102
RTVSPost2010PropOp30
 70
     1
102
RTVSPost2010Prop31
280
     0
102
RTVSPost2010PropOp31
 70
     1
102
RTVSPost2010Prop32
280
     0
102
RTVSPost2010PropOp32
 70
     1
102
RTVSPost2010Prop33
280
     0
102
RTVSPost2010PropOp33
 70
     1
102
RTVSPost2010Prop34
280
     0
102
RTVSPost2010PropOp34
 70
     1
102
RTVSPost2010Prop35
280
     0
102
RTVSPost2010PropOp35
 70
     1
102
RTVSPost2010Prop36
280
     0
102
RTVSPost2010PropOp36
 70
     1
102
RTVSPost2010Prop37
 90
       50
102
RTVSPost2010PropOp37
 70
     1
102
RTVSPost2010Prop38
140
0.0
102
RTVSPost2010PropOp38
 70
     1
102
RTVSPost2010Prop39
140
1.0
102
RTVSPost2010PropOp39
 70
     1
102
RTVSPost2010Prop40
 90
        0
102
RTVSPost2010PropOp40
 70
     1
102
RTVSPost2010Prop41ColorIndex
 90
       18
102
RTVSPost2010Prop41ColorRGB
 90
        0
102
RTVSPost2010PropOp41
 70
     1
102
RTVSPost2010Prop42
 90
       50
102
RTVSPost2010PropOp42
 70
     1
102
RTVSPost2010Prop43
 90
        3
102
RTVSPost2010PropOp43
 70
     1
102
RTVSPost2010Prop44ColorIndex
 90
        5
102
RTVSPost2010Prop44ColorRGB
 90
      255
102
RTVSPost2010PropOp44
 70
     1
102
RTVSPost2010Prop45
280
     0
102
RTVSPost2010PropOp45
 70
     1
102
RTVSPost2010Prop46
 90
       50
102
RTVSPost2010PropOp46
 70
     1
102
RTVSPost2010Prop47
 90
       50
102
RTVSPost2010PropOp47
 70
     1
102
RTVSPost2010Prop48
 90
       50
102
RTVSPost2010PropOp48
 70
     1
102
RTVSPost2010Prop49
280
     0
102
RTVSPost2010PropOp49
 70
     1
102
RTVSPost2010Prop50
 90
       50
102
RTVSPost2010PropOp50
 70
     1
102
RTVSPost2010Prop51ColorIndex
 90
      256
102
RTVSPost2010Prop51ColorRGB
 90
-16777216
102
RTVSPost2010PropOp51
 70
     0
102
RTVSPost2010Prop52
140
1.0
102
RTVSPost2010PropOp52
 70
     0
102
RTVSPost2010Prop53
 90
        2
102
RTVSPost2010PropOp53
 70
     1
102
RTVSPost2010Prop54
  1
strokes_ogs.tif
102
RTVSPost2010PropOp54
 70
     1
102
RTVSPost2010Prop55
280
     0
102
RTVSPost2010PropOp55
 70
     1
102
RTVSPost2010Prop56
140
1.0
102
RTVSPost2010PropOp56
 70
     1
102
RTVSPost2010Prop57
140
1.0
102
RTVSPost2010PropOp57
 70
     1
  0
XRECORD
  5
EC
102
{ACAD_REACTORS
330
EB
102
}
330
EB
100
AcDbXrecord
280
     1
102
RTVSPropertyOp0
 70
     1
102
RTVSPropertyOp1
 70
     1
102
RTVSPropertyOp2
 70
     1
102
RTVSPropertyOp3
 70
     1
102
RTVSPropertyOp4
 70
     1
102
RTVSPropertyOp5
 70
     1
102
RTVSPropertyOp6
 70
     1
102
RTVSPropertyOp7
 70
     1
102
RTVSPropertyOp8
 70
     1
102
RTVSPropertyOp9
 70
     1
102
RTVSPropertyOp10
 70
     1
102
RTVSPropertyOp11
 70
     1
102
RTVSPropertyOp12
 70
     1
102
RTVSPropertyOp13
 70
     1
102
RTVSPropertyOp14
 70
     1
102
RTVSPropertyOp15
 70
     1
102
RTVSPropertyOp16
 70
     1
102
RTVSPropertyOp17
 70
     1
102
RTVSPropertyOp18
 70
     1
102
RTVSPropertyOp19
 70
     1
102
RTVSPropertyOp20
 70
     1
102
RTVSPropertyOp21
 70
     1
102
RTVSPropertyOp22
 70
     1
102
RTVSPropertyOp23
 70
     1
102
RTVSPropertyOp24
 70
     1
102
RTVSPropertyOp25
 70
     1
102
RTVSPropertyOp26
 70
     1
102
RTVSPropertyOp27
 70
     1
102
RTVSPropertyOp28
 70
     1
102
RTVSPropertyOp29
 70
     1
102
RTVSPropertyOp30
 70
     1
102
RTVSPropertyOp31
 70
     1
102
RTVSPropertyOp32
 70
     1
102
RTVSPropertyOp33
 70
     1
102
RTVSPropertyOp34
 70
     1
102
RTVSPropertyOp35
 70
     1
102
RTVSPropertyOp36
 70
     1
102
RTVSPropertyOp37
 70
     1
102
RTVSPropertyOp38
 70
     1
102
RTVSPropertyOp39
 70
     1
102
RTVSPropertyOp40
 70
     1
102
RTVSPropertyOp41
 70
     1
102
RTVSPropertyOp42
 70
     1
102
RTVSPropertyOp43
 70
     1
102
RTVSPropertyOp44
 70
     1
102
RTVSPropertyOp45
 70
     1
102
RTVSPropertyOp46
 70
     1
102
RTVSPropertyOp47
 70
     1
102
RTVSPropertyOp48
 70
     1
102
RTVSPropertyOp49
 70
     1
102
RTVSPropertyOp50
 70
     1
102
RTVSPropertyOp51
 70
     0
102
RTVSPropertyOp52
 70
     0
102
RTVSPropertyOp53
 70
     1
102
RTVSPropertyOp54
 70
     1
102
RTVSPropertyOp55
 70
     1
102
RTVSPropertyOp56
 70
     1
102
RTVSPropertyOp57
 70
     1
102
RTVSPost2010Prop28
280
     0
102
RTVSPost2010PropOp28
 70
     1
102
RTVSPost2010Prop29
280
     1
102
RTVSPost2010PropOp29
 70
     1
102
RTVSPost2010Prop30
280
     1
102
RTVSPost2010PropOp30
 70
     1
102
RTVSPost2010Prop31
280
     0
102
RTVSPost2010PropOp31
 70
     1
102
RTVSPost2010Prop32
280
     0
102
RTVSPost2010PropOp32
 70
     1
102
RTVSPost2010Prop33
280
     0
102
RTVSPost2010PropOp33
 70
     1
102
RTVSPost2010Prop34
280
     0
102
RTVSPost2010PropOp34
 70
     1
102
RTVSPost2010Prop35
280
     0
102
RTVSPost2010PropOp35
 70
     1
102
RTVSPost2010Prop36
280
     0
102
RTVSPost2010PropOp36
 70
     1
102
RTVSPost2010Prop37
 90
       50
102
RTVSPost2010PropOp37
 70
     1
102
RTVSPost2010Prop38
140
0.0
102
RTVSPost2010PropOp38
 70
     1
102
RTVSPost2010Prop39
140
1.0
102
RTVSPost2010PropOp39
 70
     1
102
RTVSPost2010Prop40
 90
        0
102
RTVSPost2010PropOp40
 70
     1
102
RTVSPost2010Prop41ColorIndex
 90
       18
102
RTVSPost2010Prop41ColorRGB
 90
        0
102
RTVSPost2010PropOp41
 70
     1
102
RTVSPost2010Prop42
 90
       50
102
RTVSPost2010PropOp42
 70
     1
102
RTVSPost2010Prop43
 90
        3
102
RTVSPost2010PropOp43
 70
     1
102
RTVSPost2010Prop44ColorIndex
 90
        5
102
RTVSPost2010Prop44ColorRGB
 90
      255
102
RTVSPost2010PropOp44
 70
     1
102
RTVSPost2010Prop45
280
     0
102
RTVSPost2010PropOp45
 70
     1
102
RTVSPost2010Prop46
 90
       50
102
RTVSPost2010PropOp46
 70
     1
102
RTVSPost2010Prop47
 90
       50
102
RTVSPost2010PropOp47
 70
     1
102
RTVSPost2010Prop48
 90
       50
102
RTVSPost2010PropOp48
 70
     1
102
RTVSPost2010Prop49
280
     0
102
RTVSPost2010PropOp49
 70
     1
102
RTVSPost2010Prop50
 90
       50
102
RTVSPost2010PropOp50
 70
     1
102
RTVSPost2010Prop51ColorIndex
 90
      256
102
RTVSPost2010Prop51ColorRGB
 90
-16777216
102
RTVSPost2010PropOp51
 70
     0
102
RTVSPost2010Prop52
140
1.0
102
RTVSPost2010PropOp52
 70
     0
102
RTVSPost2010Prop53
 90
        2
102
RTVSPost2010PropOp53
 70
     1
102
RTVSPost2010Prop54
  1
strokes_ogs.tif
102
RTVSPost2010PropOp54
 70
     1
102
RTVSPost2010Prop55
280
     0
102
RTVSPost2010PropOp55
 70
     1
102
RTVSPost2010Prop56
140
1.0
102
RTVSPost2010PropOp56
 70
     1
102
RTVSPost2010Prop57
140
1.0
102
RTVSPost2010PropOp57
 70
     1
  0
XRECORD
  5
100
102
{ACAD_REACTORS
330
FF
102
}
330
FF
100
AcDbXrecord
280
     1
102
RTVSPropertyOp0
 70
     0
102
RTVSPropertyOp1
 70
     0
102
RTVSPropertyOp2
 70
     0
102
RTVSPropertyOp3
 70
     0
102
RTVSPropertyOp4
 70
     0
102
RTVSPropertyOp5
 70
     0
102
RTVSPropertyOp6
 70
     0
102
RTVSPropertyOp7
 70
     0
102
RTVSPropertyOp8
 70
     0
102
RTVSPropertyOp9
 70
     0
102
RTVSPropertyOp10
 70
     0
102
RTVSPropertyOp11
 70
     0
102
RTVSPropertyOp12
 70
     0
102
RTVSPropertyOp13
 70
     0
102
RTVSPropertyOp14
 70
     2
102
RTVSPropertyOp15
 70
     0
102
RTVSPropertyOp16
 70
     0
102
RTVSPropertyOp17
 70
     0
102
RTVSPropertyOp18
 70
     0
102
RTVSPropertyOp19
 70
     0
102
RTVSPropertyOp20
 70
     0
102
RTVSPropertyOp21
 70
     0
102
RTVSPropertyOp22
 70
     0
102
RTVSPropertyOp23
 70
     0
102
RTVSPropertyOp24
 70
     0
102
RTVSPropertyOp25
 70
     0
102
RTVSPropertyOp26
 70
     0
102
RTVSPropertyOp27
 70
     0
102
RTVSPropertyOp28
 70
     0
102
RTVSPropertyOp29
 70
     0
102
RTVSPropertyOp30
 70
     0
102
RTVSPropertyOp31
 70
     0
102
RTVSPropertyOp32
 70
     0
102
RTVSPropertyOp33
 70
     0
102
RTVSPropertyOp34
 70
     0
102
RTVSPropertyOp35
 70
     0
102
RTVSPropertyOp36
 70
     0
102
RTVSPropertyOp37
 70
     0
102
RTVSPropertyOp38
 70
     0
102
RTVSPropertyOp39
 70
     0
102
RTVSPropertyOp40
 70
     0
102
RTVSPropertyOp41
 70
     0
102
RTVSPropertyOp42
 70
     0
102
RTVSPropertyOp43
 70
     0
102
RTVSPropertyOp44
 70
     0
102
RTVSPropertyOp45
 70
     0
102
RTVSPropertyOp46
 70
     0
102
RTVSPropertyOp47
 70
     0
102
RTVSPropertyOp48
 70
     0
102
RTVSPropertyOp49
 70
     0
102
RTVSPropertyOp50
 70
     0
102
RTVSPropertyOp51
 70
     0
102
RTVSPropertyOp52
 70
     0
102
RTVSPropertyOp53
 70
     0
102
RTVSPropertyOp54
 70
     0
102
RTVSPropertyOp55
 70
     0
102
RTVSPropertyOp56
 70
     0
102
RTVSPropertyOp57
 70
     0
102
RTVSPost2010Prop28
280
     0
102
RTVSPost2010PropOp28
 70
     0
102
RTVSPost2010Prop29
280
     1
102
RTVSPost2010PropOp29
 70
     0
102
RTVSPost2010Prop30
280
     1
102
RTVSPost2010PropOp30
 70
     0
102
RTVSPost2010Prop31
280
     0
102
RTVSPost2010PropOp31
 70
     0
102
RTVSPost2010Prop32
280
     0
102
RTVSPost2010PropOp32
 70
     0
102
RTVSPost2010Prop33
280
     0
102
RTVSPost2010PropOp33
 70
     0
102
RTVSPost2010Prop34
280
     0
102
RTVSPost2010PropOp34
 70
     0
102
RTVSPost2010Prop35
280
     0
102
RTVSPost2010PropOp35
 70
     0
102
RTVSPost2010Prop36
280
     0
102
RTVSPost2010PropOp36
 70
     0
102
RTVSPost2010Prop37
 90
       50
102
RTVSPost2010PropOp37
 70
     0
102
RTVSPost2010Prop38
140
0.0
102
RTVSPost2010PropOp38
 70
     0
102
RTVSPost2010Prop39
140
1.0
102
RTVSPost2010PropOp39
 70
     0
102
RTVSPost2010Prop40
 90
        0
102
RTVSPost2010PropOp40
 70
     0
102
RTVSPost2010Prop41ColorIndex
 90
       18
102
RTVSPost2010Prop41ColorRGB
 90
        0
102
RTVSPost2010PropOp41
 70
     0
102
RTVSPost2010Prop42
 90
       50
102
RTVSPost2010PropOp42
 70
     0
102
RTVSPost2010Prop43
 90
        3
102
RTVSPost2010PropOp43
 70
     0
102
RTVSPost2010Prop44ColorIndex
 90
        5
102
RTVSPost2010Prop44ColorRGB
 90
      255
102
RTVSPost2010PropOp44
 70
     0
102
RTVSPost2010Prop45
280
     0
102
RTVSPost2010PropOp45
 70
     0
102
RTVSPost2010Prop46
 90
       50
102
RTVSPost2010PropOp46
 70
     0
102
RTVSPost2010Prop47
 90
       50
102
RTVSPost2010PropOp47
 70
     0
102
RTVSPost2010Prop48
 90
       50
102
RTVSPost2010PropOp48
 70
     0
102
RTVSPost2010Prop49
280
     0
102
RTVSPost2010PropOp49
 70
     0
102
RTVSPost2010Prop50
 90
       50
102
RTVSPost2010PropOp50
 70
     0
102
RTVSPost2010Prop51ColorIndex
 90
      256
102
RTVSPost2010Prop51ColorRGB
 90
-16777216
102
RTVSPost2010PropOp51
 70
     0
102
RTVSPost2010Prop52
140
1.0
102
RTVSPost2010PropOp52
 70
     0
102
RTVSPost2010Prop53
 90
        2
102
RTVSPost2010PropOp53
 70
     0
102
RTVSPost2010Prop54
  1
strokes_ogs.tif
102
RTVSPost2010PropOp54
 70
     0
102
RTVSPost2010Prop55
280
     0
102
RTVSPost2010PropOp55
 70
     0
102
RTVSPost2010Prop56
140
1.0
102
RTVSPost2010PropOp56
 70
     0
102
RTVSPost2010Prop57
140
1.0
102
RTVSPost2010PropOp57
 70
     0
  0
XRECORD
  5
FA
102
{ACAD_REACTORS
330
F9
102
}
330
F9
100
AcDbXrecord
280
     1
102
RTVSPropertyOp0
 70
     1
102
RTVSPropertyOp1
 70
     1
102
RTVSPropertyOp2
 70
     1
102
RTVSPropertyOp3
 70
     1
102
RTVSPropertyOp4
 70
     1
102
RTVSPropertyOp5
 70
     1
102
RTVSPropertyOp6
 70
     1
102
RTVSPropertyOp7
 70
     1
102
RTVSPropertyOp8
 70
     1
102
RTVSPropertyOp9
 70
     1
102
RTVSPropertyOp10
 70
     1
102
RTVSPropertyOp11
 70
     1
102
RTVSPropertyOp12
 70
     1
102
RTVSPropertyOp13
 70
     1
102
RTVSPropertyOp14
 70
     1
102
RTVSPropertyOp15
 70
     1
102
RTVSPropertyOp16
 70
     1
102
RTVSPropertyOp17
 70
     1
102
RTVSPropertyOp18
 70
     1
102
RTVSPropertyOp19
 70
     1
102
RTVSPropertyOp20
 70
     1
102
RTVSPropertyOp21
 70
     1
102
RTVSPropertyOp22
 70
     1
102
RTVSPropertyOp23
 70
     1
102
RTVSPropertyOp24
 70
     1
102
RTVSPropertyOp25
 70
     1
102
RTVSPropertyOp26
 70
     1
102
RTVSPropertyOp27
 70
     1
102
RTVSPropertyOp28
 70
     1
102
RTVSPropertyOp29
 70
     1
102
RTVSPropertyOp30
 70
     1
102
RTVSPropertyOp31
 70
     1
102
RTVSPropertyOp32
 70
     1
102
RTVSPropertyOp33
 70
     1
102
RTVSPropertyOp34
 70
     1
102
RTVSPropertyOp35
 70
     1
102
RTVSPropertyOp36
 70
     1
102
RTVSPropertyOp37
 70
     1
102
RTVSPropertyOp38
 70
     1
102
RTVSPropertyOp39
 70
     1
102
RTVSPropertyOp40
 70
     1
102
RTVSPropertyOp41
 70
     1
102
RTVSPropertyOp42
 70
     1
102
RTVSPropertyOp43
 70
     1
102
RTVSPropertyOp44
 70
     1
102
RTVSPropertyOp45
 70
     1
102
RTVSPropertyOp46
 70
     1
102
RTVSPropertyOp47
 70
     1
102
RTVSPropertyOp48
 70
     1
102
RTVSPropertyOp49
 70
     1
102
RTVSPropertyOp50
 70
     1
102
RTVSPropertyOp51
 70
     0
102
RTVSPropertyOp52
 70
     0
102
RTVSPropertyOp53
 70
     1
102
RTVSPropertyOp54
 70
     1
102
RTVSPropertyOp55
 70
     1
102
RTVSPropertyOp56
 70
     1
102
RTVSPropertyOp57
 70
     1
102
RTVSPost2010Prop28
280
     0
102
RTVSPost2010PropOp28
 70
     1
102
RTVSPost2010Prop29
280
     1
102
RTVSPost2010PropOp29
 70
     1
102
RTVSPost2010Prop30
280
     1
102
RTVSPost2010PropOp30
 70
     1
102
RTVSPost2010Prop31
280
     0
102
RTVSPost2010PropOp31
 70
     1
102
RTVSPost2010Prop32
280
     0
102
RTVSPost2010PropOp32
 70
     1
102
RTVSPost2010Prop33
280
     0
102
RTVSPost2010PropOp33
 70
     1
102
RTVSPost2010Prop34
280
     0
102
RTVSPost2010PropOp34
 70
     1
102
RTVSPost2010Prop35
280
     0
102
RTVSPost2010PropOp35
 70
     1
102
RTVSPost2010Prop36
280
     0
102
RTVSPost2010PropOp36
 70
     1
102
RTVSPost2010Prop37
 90
       50
102
RTVSPost2010PropOp37
 70
     1
102
RTVSPost2010Prop38
140
0.0
102
RTVSPost2010PropOp38
 70
     1
102
RTVSPost2010Prop39
140
1.0
102
RTVSPost2010PropOp39
 70
     1
102
RTVSPost2010Prop40
 90
        0
102
RTVSPost2010PropOp40
 70
     1
102
RTVSPost2010Prop41ColorIndex
 90
       18
102
RTVSPost2010Prop41ColorRGB
 90
        0
102
RTVSPost2010PropOp41
 70
     1
102
RTVSPost2010Prop42
 90
       50
102
RTVSPost2010PropOp42
 70
     1
102
RTVSPost2010Prop43
 90
        3
102
RTVSPost2010PropOp43
 70
     1
102
RTVSPost2010Prop44ColorIndex
 90
        5
102
RTVSPost2010Prop44ColorRGB
 90
      255
102
RTVSPost2010PropOp44
 70
     1
102
RTVSPost2010Prop45
280
     0
102
RTVSPost2010PropOp45
 70
     1
102
RTVSPost2010Prop46
 90
       50
102
RTVSPost2010PropOp46
 70
     1
102
RTVSPost2010Prop47
 90
       50
102
RTVSPost2010PropOp47
 70
     1
102
RTVSPost2010Prop48
 90
       50
102
RTVSPost2010PropOp48
 70
     1
102
RTVSPost2010Prop49
280
     0
102
RTVSPost2010PropOp49
 70
     1
102
RTVSPost2010Prop50
 90
       50
102
RTVSPost2010PropOp50
 70
     1
102
RTVSPost2010Prop51ColorIndex
 90
      256
102
RTVSPost2010Prop51ColorRGB
 90
-16777216
102
RTVSPost2010PropOp51
 70
     0
102
RTVSPost2010Prop52
140
1.0
102
RTVSPost2010PropOp52
 70
     0
102
RTVSPost2010Prop53
 90
        2
102
RTVSPost2010PropOp53
 70
     1
102
RTVSPost2010Prop54
  1
strokes_ogs.tif
102
RTVSPost2010PropOp54
 70
     1
102
RTVSPost2010Prop55
280
     0
102
RTVSPost2010PropOp55
 70
     1
102
RTVSPost2010Prop56
140
1.0
102
RTVSPost2010PropOp56
 70
     1
102
RTVSPost2010Prop57
140
1.0
102
RTVSPost2010PropOp57
 70
     1
  0
XRECORD
  5
102
102
{ACAD_REACTORS
330
101
102
}
330
101
100
AcDbXrecord
280
     1
102
RTVSPropertyOp0
 70
     0
102
RTVSPropertyOp1
 70
     0
102
RTVSPropertyOp2
 70
     0
102
RTVSPropertyOp3
 70
     0
102
RTVSPropertyOp4
 70
     0
102
RTVSPropertyOp5
 70
     0
102
RTVSPropertyOp6
 70
     0
102
RTVSPropertyOp7
 70
     0
102
RTVSPropertyOp8
 70
     0
102
RTVSPropertyOp9
 70
     0
102
RTVSPropertyOp10
 70
     0
102
RTVSPropertyOp11
 70
     0
102
RTVSPropertyOp12
 70
     0
102
RTVSPropertyOp13
 70
     0
102
RTVSPropertyOp14
 70
     2
102
RTVSPropertyOp15
 70
     0
102
RTVSPropertyOp16
 70
     0
102
RTVSPropertyOp17
 70
     0
102
RTVSPropertyOp18
 70
     0
102
RTVSPropertyOp19
 70
     0
102
RTVSPropertyOp20
 70
     0
102
RTVSPropertyOp21
 70
     0
102
RTVSPropertyOp22
 70
     0
102
RTVSPropertyOp23
 70
     0
102
RTVSPropertyOp24
 70
     0
102
RTVSPropertyOp25
 70
     0
102
RTVSPropertyOp26
 70
     0
102
RTVSPropertyOp27
 70
     0
102
RTVSPropertyOp28
 70
     0
102
RTVSPropertyOp29
 70
     0
102
RTVSPropertyOp30
 70
     0
102
RTVSPropertyOp31
 70
     0
102
RTVSPropertyOp32
 70
     0
102
RTVSPropertyOp33
 70
     0
102
RTVSPropertyOp34
 70
     0
102
RTVSPropertyOp35
 70
     0
102
RTVSPropertyOp36
 70
     0
102
RTVSPropertyOp37
 70
     0
102
RTVSPropertyOp38
 70
     0
102
RTVSPropertyOp39
 70
     0
102
RTVSPropertyOp40
 70
     0
102
RTVSPropertyOp41
 70
     0
102
RTVSPropertyOp42
 70
     0
102
RTVSPropertyOp43
 70
     0
102
RTVSPropertyOp44
 70
     0
102
RTVSPropertyOp45
 70
     0
102
RTVSPropertyOp46
 70
     0
102
RTVSPropertyOp47
 70
     0
102
RTVSPropertyOp48
 70
     0
102
RTVSPropertyOp49
 70
     0
102
RTVSPropertyOp50
 70
     0
102
RTVSPropertyOp51
 70
     0
102
RTVSPropertyOp52
 70
     0
102
RTVSPropertyOp53
 70
     0
102
RTVSPropertyOp54
 70
     0
102
RTVSPropertyOp55
 70
     0
102
RTVSPropertyOp56
 70
     0
102
RTVSPropertyOp57
 70
     0
102
RTVSPost2010Prop28
280
     0
102
RTVSPost2010PropOp28
 70
     0
102
RTVSPost2010Prop29
280
     1
102
RTVSPost2010PropOp29
 70
     0
102
RTVSPost2010Prop30
280
     1
102
RTVSPost2010PropOp30
 70
     0
102
RTVSPost2010Prop31
280
     0
102
RTVSPost2010PropOp31
 70
     0
102
RTVSPost2010Prop32
280
     0
102
RTVSPost2010PropOp32
 70
     0
102
RTVSPost2010Prop33
280
     0
102
RTVSPost2010PropOp33
 70
     0
102
RTVSPost2010Prop34
280
     0
102
RTVSPost2010PropOp34
 70
     0
102
RTVSPost2010Prop35
280
     0
102
RTVSPost2010PropOp35
 70
     0
102
RTVSPost2010Prop36
280
     0
102
RTVSPost2010PropOp36
 70
     0
102
RTVSPost2010Prop37
 90
       50
102
RTVSPost2010PropOp37
 70
     0
102
RTVSPost2010Prop38
140
0.0
102
RTVSPost2010PropOp38
 70
     0
102
RTVSPost2010Prop39
140
1.0
102
RTVSPost2010PropOp39
 70
     0
102
RTVSPost2010Prop40
 90
        0
102
RTVSPost2010PropOp40
 70
     0
102
RTVSPost2010Prop41ColorIndex
 90
       18
102
RTVSPost2010Prop41ColorRGB
 90
        0
102
RTVSPost2010PropOp41
 70
     0
102
RTVSPost2010Prop42
 90
       50
102
RTVSPost2010PropOp42
 70
     0
102
RTVSPost2010Prop43
 90
        3
102
RTVSPost2010PropOp43
 70
     0
102
RTVSPost2010Prop44ColorIndex
 90
        5
102
RTVSPost2010Prop44ColorRGB
 90
      255
102
RTVSPost2010PropOp44
 70
     0
102
RTVSPost2010Prop45
280
     0
102
RTVSPost2010PropOp45
 70
     0
102
RTVSPost2010Prop46
 90
       50
102
RTVSPost2010PropOp46
 70
     0
102
RTVSPost2010Prop47
 90
       50
102
RTVSPost2010PropOp47
 70
     0
102
RTVSPost2010Prop48
 90
       50
102
RTVSPost2010PropOp48
 70
     0
102
RTVSPost2010Prop49
280
     0
102
RTVSPost2010PropOp49
 70
     0
102
RTVSPost2010Prop50
 90
       50
102
RTVSPost2010PropOp50
 70
     0
102
RTVSPost2010Prop51ColorIndex
 90
      256
102
RTVSPost2010Prop51ColorRGB
 90
-16777216
102
RTVSPost2010PropOp51
 70
     0
102
RTVSPost2010Prop52
140
1.0
102
RTVSPost2010PropOp52
 70
     0
102
RTVSPost2010Prop53
 90
        2
102
RTVSPost2010PropOp53
 70
     0
102
RTVSPost2010Prop54
  1
strokes_ogs.tif
102
RTVSPost2010PropOp54
 70
     0
102
RTVSPost2010Prop55
280
     0
102
RTVSPost2010PropOp55
 70
     0
102
RTVSPost2010Prop56
140
1.0
102
RTVSPost2010PropOp56
 70
     0
102
RTVSPost2010Prop57
140
1.0
102
RTVSPost2010PropOp57
 70
     0
  0
XRECORD
  5
F0
102
{ACAD_REACTORS
330
EF
102
}
330
EF
100
AcDbXrecord
280
     1
102
RTVSPropertyOp0
 70
     1
102
RTVSPropertyOp1
 70
     1
102
RTVSPropertyOp2
 70
     1
102
RTVSPropertyOp3
 70
     1
102
RTVSPropertyOp4
 70
     1
102
RTVSPropertyOp5
 70
     1
102
RTVSPropertyOp6
 70
     1
102
RTVSPropertyOp7
 70
     1
102
RTVSPropertyOp8
 70
     1
102
RTVSPropertyOp9
 70
     1
102
RTVSPropertyOp10
 70
     1
102
RTVSPropertyOp11
 70
     1
102
RTVSPropertyOp12
 70
     1
102
RTVSPropertyOp13
 70
     1
102
RTVSPropertyOp14
 70
     1
102
RTVSPropertyOp15
 70
     1
102
RTVSPropertyOp16
 70
     1
102
RTVSPropertyOp17
 70
     1
102
RTVSPropertyOp18
 70
     1
102
RTVSPropertyOp19
 70
     1
102
RTVSPropertyOp20
 70
     1
102
RTVSPropertyOp21
 70
     1
102
RTVSPropertyOp22
 70
     1
102
RTVSPropertyOp23
 70
     1
102
RTVSPropertyOp24
 70
     1
102
RTVSPropertyOp25
 70
     1
102
RTVSPropertyOp26
 70
     1
102
RTVSPropertyOp27
 70
     1
102
RTVSPropertyOp28
 70
     1
102
RTVSPropertyOp29
 70
     1
102
RTVSPropertyOp30
 70
     1
102
RTVSPropertyOp31
 70
     1
102
RTVSPropertyOp32
 70
     1
102
RTVSPropertyOp33
 70
     1
102
RTVSPropertyOp34
 70
     1
102
RTVSPropertyOp35
 70
     1
102
RTVSPropertyOp36
 70
     1
102
RTVSPropertyOp37
 70
     1
102
RTVSPropertyOp38
 70
     1
102
RTVSPropertyOp39
 70
     1
102
RTVSPropertyOp40
 70
     1
102
RTVSPropertyOp41
 70
     1
102
RTVSPropertyOp42
 70
     1
102
RTVSPropertyOp43
 70
     1
102
RTVSPropertyOp44
 70
     1
102
RTVSPropertyOp45
 70
     1
102
RTVSPropertyOp46
 70
     1
102
RTVSPropertyOp47
 70
     1
102
RTVSPropertyOp48
 70
     1
102
RTVSPropertyOp49
 70
     1
102
RTVSPropertyOp50
 70
     1
102
RTVSPropertyOp51
 70
     0
102
RTVSPropertyOp52
 70
     0
102
RTVSPropertyOp53
 70
     1
102
RTVSPropertyOp54
 70
     1
102
RTVSPropertyOp55
 70
     1
102
RTVSPropertyOp56
 70
     1
102
RTVSPropertyOp57
 70
     1
102
RTVSPost2010Prop28
280
     0
102
RTVSPost2010PropOp28
 70
     1
102
RTVSPost2010Prop29
280
     1
102
RTVSPost2010PropOp29
 70
     1
102
RTVSPost2010Prop30
280
     1
102
RTVSPost2010PropOp30
 70
     1
102
RTVSPost2010Prop31
280
     0
102
RTVSPost2010PropOp31
 70
     1
102
RTVSPost2010Prop32
280
     0
102
RTVSPost2010PropOp32
 70
     1
102
RTVSPost2010Prop33
280
     0
102
RTVSPost2010PropOp33
 70
     1
102
RTVSPost2010Prop34
280
     0
102
RTVSPost2010PropOp34
 70
     1
102
RTVSPost2010Prop35
280
     0
102
RTVSPost2010PropOp35
 70
     1
102
RTVSPost2010Prop36
280
     0
102
RTVSPost2010PropOp36
 70
     1
102
RTVSPost2010Prop37
 90
       50
102
RTVSPost2010PropOp37
 70
     1
102
RTVSPost2010Prop38
140
0.0
102
RTVSPost2010PropOp38
 70
     1
102
RTVSPost2010Prop39
140
1.0
102
RTVSPost2010PropOp39
 70
     1
102
RTVSPost2010Prop40
 90
        0
102
RTVSPost2010PropOp40
 70
     1
102
RTVSPost2010Prop41ColorIndex
 90
       18
102
RTVSPost2010Prop41ColorRGB
 90
        0
102
RTVSPost2010PropOp41
 70
     1
102
RTVSPost2010Prop42
 90
       50
102
RTVSPost2010PropOp42
 70
     1
102
RTVSPost2010Prop43
 90
        3
102
RTVSPost2010PropOp43
 70
     1
102
RTVSPost2010Prop44ColorIndex
 90
        5
102
RTVSPost2010Prop44ColorRGB
 90
      255
102
RTVSPost2010PropOp44
 70
     1
102
RTVSPost2010Prop45
280
     0
102
RTVSPost2010PropOp45
 70
     1
102
RTVSPost2010Prop46
 90
       50
102
RTVSPost2010PropOp46
 70
     1
102
RTVSPost2010Prop47
 90
       50
102
RTVSPost2010PropOp47
 70
     1
102
RTVSPost2010Prop48
 90
       50
102
RTVSPost2010PropOp48
 70
     1
102
RTVSPost2010Prop49
280
     0
102
RTVSPost2010PropOp49
 70
     1
102
RTVSPost2010Prop50
 90
       50
102
RTVSPost2010PropOp50
 70
     1
102
RTVSPost2010Prop51ColorIndex
 90
      256
102
RTVSPost2010Prop51ColorRGB
 90
-16777216
102
RTVSPost2010PropOp51
 70
     0
102
RTVSPost2010Prop52
140
1.0
102
RTVSPost2010PropOp52
 70
     0
102
RTVSPost2010Prop53
 90
        2
102
RTVSPost2010PropOp53
 70
     1
102
RTVSPost2010Prop54
  1
strokes_ogs.tif
102
RTVSPost2010PropOp54
 70
     1
102
RTVSPost2010Prop55
280
     0
102
RTVSPost2010PropOp55
 70
     1
102
RTVSPost2010Prop56
140
1.0
102
RTVSPost2010PropOp56
 70
     1
102
RTVSPost2010Prop57
140
1.0
102
RTVSPost2010PropOp57
 70
     1
  0
XRECORD
  5
10E
102
{ACAD_REACTORS
330
10D
102
}
330
10D
100
AcDbXrecord
280
     1
102
RTVSPropertyOp0
 70
     1
102
RTVSPropertyOp1
 70
     1
102
RTVSPropertyOp2
 70
     1
102
RTVSPropertyOp3
 70
     1
102
RTVSPropertyOp4
 70
     1
102
RTVSPropertyOp5
 70
     1
102
RTVSPropertyOp6
 70
     1
102
RTVSPropertyOp7
 70
     1
102
RTVSPropertyOp8
 70
     1
102
RTVSPropertyOp9
 70
     1
102
RTVSPropertyOp10
 70
     1
102
RTVSPropertyOp11
 70
     1
102
RTVSPropertyOp12
 70
     1
102
RTVSPropertyOp13
 70
     1
102
RTVSPropertyOp14
 70
     1
102
RTVSPropertyOp15
 70
     1
102
RTVSPropertyOp16
 70
     1
102
RTVSPropertyOp17
 70
     1
102
RTVSPropertyOp18
 70
     1
102
RTVSPropertyOp19
 70
     1
102
RTVSPropertyOp20
 70
     1
102
RTVSPropertyOp21
 70
     1
102
RTVSPropertyOp22
 70
     1
102
RTVSPropertyOp23
 70
     1
102
RTVSPropertyOp24
 70
     1
102
RTVSPropertyOp25
 70
     1
102
RTVSPropertyOp26
 70
     1
102
RTVSPropertyOp27
 70
     1
102
RTVSPropertyOp28
 70
     1
102
RTVSPropertyOp29
 70
     1
102
RTVSPropertyOp30
 70
     1
102
RTVSPropertyOp31
 70
     1
102
RTVSPropertyOp32
 70
     1
102
RTVSPropertyOp33
 70
     1
102
RTVSPropertyOp34
 70
     1
102
RTVSPropertyOp35
 70
     1
102
RTVSPropertyOp36
 70
     1
102
RTVSPropertyOp37
 70
     1
102
RTVSPropertyOp38
 70
     1
102
RTVSPropertyOp39
 70
     1
102
RTVSPropertyOp40
 70
     1
102
RTVSPropertyOp41
 70
     1
102
RTVSPropertyOp42
 70
     1
102
RTVSPropertyOp43
 70
     1
102
RTVSPropertyOp44
 70
     1
102
RTVSPropertyOp45
 70
     1
102
RTVSPropertyOp46
 70
     1
102
RTVSPropertyOp47
 70
     1
102
RTVSPropertyOp48
 70
     1
102
RTVSPropertyOp49
 70
     1
102
RTVSPropertyOp50
 70
     1
102
RTVSPropertyOp51
 70
     0
102
RTVSPropertyOp52
 70
     0
102
RTVSPropertyOp53
 70
     1
102
RTVSPropertyOp54
 70
     1
102
RTVSPropertyOp55
 70
     1
102
RTVSPropertyOp56
 70
     1
102
RTVSPropertyOp57
 70
     1
102
RTVSPost2010Prop28
280
     0
102
RTVSPost2010PropOp28
 70
     1
102
RTVSPost2010Prop29
280
     1
102
RTVSPost2010PropOp29
 70
     1
102
RTVSPost2010Prop30
280
     1
102
RTVSPost2010PropOp30
 70
     1
102
RTVSPost2010Prop31
280
     0
102
RTVSPost2010PropOp31
 70
     1
102
RTVSPost2010Prop32
280
     0
102
RTVSPost2010PropOp32
 70
     1
102
RTVSPost2010Prop33
280
     0
102
RTVSPost2010PropOp33
 70
     1
102
RTVSPost2010Prop34
280
     0
102
RTVSPost2010PropOp34
 70
     1
102
RTVSPost2010Prop35
280
     0
102
RTVSPost2010PropOp35
 70
     1
102
RTVSPost2010Prop36
280
     0
102
RTVSPost2010PropOp36
 70
     1
102
RTVSPost2010Prop37
 90
       50
102
RTVSPost2010PropOp37
 70
     1
102
RTVSPost2010Prop38
140
0.0
102
RTVSPost2010PropOp38
 70
     1
102
RTVSPost2010Prop39
140
1.0
102
RTVSPost2010PropOp39
 70
     1
102
RTVSPost2010Prop40
 90
        0
102
RTVSPost2010PropOp40
 70
     1
102
RTVSPost2010Prop41ColorIndex
 90
       18
102
RTVSPost2010Prop41ColorRGB
 90
        0
102
RTVSPost2010PropOp41
 70
     1
102
RTVSPost2010Prop42
 90
       50
102
RTVSPost2010PropOp42
 70
     1
102
RTVSPost2010Prop43
 90
        3
102
RTVSPost2010PropOp43
 70
     1
102
RTVSPost2010Prop44ColorIndex
 90
        5
102
RTVSPost2010Prop44ColorRGB
 90
      255
102
RTVSPost2010PropOp44
 70
     1
102
RTVSPost2010Prop45
280
     0
102
RTVSPost2010PropOp45
 70
     1
102
RTVSPost2010Prop46
 90
       50
102
RTVSPost2010PropOp46
 70
     1
102
RTVSPost2010Prop47
 90
       50
102
RTVSPost2010PropOp47
 70
     1
102
RTVSPost2010Prop48
 90
       50
102
RTVSPost2010PropOp48
 70
     1
102
RTVSPost2010Prop49
280
     0
102
RTVSPost2010PropOp49
 70
     1
102
RTVSPost2010Prop50
 90
       50
102
RTVSPost2010PropOp50
 70
     1
102
RTVSPost2010Prop51ColorIndex
 90
      256
102
RTVSPost2010Prop51ColorRGB
 90
-16777216
102
RTVSPost2010PropOp51
 70
     0
102
RTVSPost2010Prop52
140
1.0
102
RTVSPost2010PropOp52
 70
     0
102
RTVSPost2010Prop53
 90
        2
102
RTVSPost2010PropOp53
 70
     1
102
RTVSPost2010Prop54
  1
strokes_ogs.tif
102
RTVSPost2010PropOp54
 70
     1
102
RTVSPost2010Prop55
280
     0
102
RTVSPost2010PropOp55
 70
     1
102
RTVSPost2010Prop56
140
1.0
102
RTVSPost2010PropOp56
 70
     1
102
RTVSPost2010Prop57
140
1.0
102
RTVSPost2010PropOp57
 70
     1
  0
XRECORD
  5
10C
102
{ACAD_REACTORS
330
10B
102
}
330
10B
100
AcDbXrecord
280
     1
102
RTVSPropertyOp0
 70
     1
102
RTVSPropertyOp1
 70
     1
102
RTVSPropertyOp2
 70
     1
102
RTVSPropertyOp3
 70
     1
102
RTVSPropertyOp4
 70
     1
102
RTVSPropertyOp5
 70
     1
102
RTVSPropertyOp6
 70
     1
102
RTVSPropertyOp7
 70
     1
102
RTVSPropertyOp8
 70
     1
102
RTVSPropertyOp9
 70
     1
102
RTVSPropertyOp10
 70
     1
102
RTVSPropertyOp11
 70
     1
102
RTVSPropertyOp12
 70
     1
102
RTVSPropertyOp13
 70
     1
102
RTVSPropertyOp14
 70
     1
102
RTVSPropertyOp15
 70
     1
102
RTVSPropertyOp16
 70
     1
102
RTVSPropertyOp17
 70
     1
102
RTVSPropertyOp18
 70
     1
102
RTVSPropertyOp19
 70
     1
102
RTVSPropertyOp20
 70
     1
102
RTVSPropertyOp21
 70
     1
102
RTVSPropertyOp22
 70
     1
102
RTVSPropertyOp23
 70
     1
102
RTVSPropertyOp24
 70
     1
102
RTVSPropertyOp25
 70
     1
102
RTVSPropertyOp26
 70
     1
102
RTVSPropertyOp27
 70
     1
102
RTVSPropertyOp28
 70
     1
102
RTVSPropertyOp29
 70
     1
102
RTVSPropertyOp30
 70
     1
102
RTVSPropertyOp31
 70
     1
102
RTVSPropertyOp32
 70
     1
102
RTVSPropertyOp33
 70
     1
102
RTVSPropertyOp34
 70
     1
102
RTVSPropertyOp35
 70
     1
102
RTVSPropertyOp36
 70
     1
102
RTVSPropertyOp37
 70
     1
102
RTVSPropertyOp38
 70
     1
102
RTVSPropertyOp39
 70
     1
102
RTVSPropertyOp40
 70
     1
102
RTVSPropertyOp41
 70
     1
102
RTVSPropertyOp42
 70
     1
102
RTVSPropertyOp43
 70
     1
102
RTVSPropertyOp44
 70
     1
102
RTVSPropertyOp45
 70
     1
102
RTVSPropertyOp46
 70
     1
102
RTVSPropertyOp47
 70
     1
102
RTVSPropertyOp48
 70
     1
102
RTVSPropertyOp49
 70
     1
102
RTVSPropertyOp50
 70
     1
102
RTVSPropertyOp51
 70
     0
102
RTVSPropertyOp52
 70
     0
102
RTVSPropertyOp53
 70
     1
102
RTVSPropertyOp54
 70
     1
102
RTVSPropertyOp55
 70
     1
102
RTVSPropertyOp56
 70
     1
102
RTVSPropertyOp57
 70
     1
102
RTVSPost2010Prop28
280
     0
102
RTVSPost2010PropOp28
 70
     1
102
RTVSPost2010Prop29
280
     1
102
RTVSPost2010PropOp29
 70
     1
102
RTVSPost2010Prop30
280
     1
102
RTVSPost2010PropOp30
 70
     1
102
RTVSPost2010Prop31
280
     0
102
RTVSPost2010PropOp31
 70
     1
102
RTVSPost2010Prop32
280
     0
102
RTVSPost2010PropOp32
 70
     1
102
RTVSPost2010Prop33
280
     0
102
RTVSPost2010PropOp33
 70
     1
102
RTVSPost2010Prop34
280
     0
102
RTVSPost2010PropOp34
 70
     1
102
RTVSPost2010Prop35
280
     0
102
RTVSPost2010PropOp35
 70
     1
102
RTVSPost2010Prop36
280
     0
102
RTVSPost2010PropOp36
 70
     1
102
RTVSPost2010Prop37
 90
       50
102
RTVSPost2010PropOp37
 70
     1
102
RTVSPost2010Prop38
140
0.0
102
RTVSPost2010PropOp38
 70
     1
102
RTVSPost2010Prop39
140
1.0
102
RTVSPost2010PropOp39
 70
     1
102
RTVSPost2010Prop40
 90
        0
102
RTVSPost2010PropOp40
 70
     1
102
RTVSPost2010Prop41ColorIndex
 90
       18
102
RTVSPost2010Prop41ColorRGB
 90
        0
102
RTVSPost2010PropOp41
 70
     1
102
RTVSPost2010Prop42
 90
       50
102
RTVSPost2010PropOp42
 70
     1
102
RTVSPost2010Prop43
 90
        3
102
RTVSPost2010PropOp43
 70
     1
102
RTVSPost2010Prop44ColorIndex
 90
        5
102
RTVSPost2010Prop44ColorRGB
 90
      255
102
RTVSPost2010PropOp44
 70
     1
102
RTVSPost2010Prop45
280
     0
102
RTVSPost2010PropOp45
 70
     1
102
RTVSPost2010Prop46
 90
       50
102
RTVSPost2010PropOp46
 70
     1
102
RTVSPost2010Prop47
 90
       50
102
RTVSPost2010PropOp47
 70
     1
102
RTVSPost2010Prop48
 90
       50
102
RTVSPost2010PropOp48
 70
     1
102
RTVSPost2010Prop49
280
     0
102
RTVSPost2010PropOp49
 70
     1
102
RTVSPost2010Prop50
 90
       50
102
RTVSPost2010PropOp50
 70
     1
102
RTVSPost2010Prop51ColorIndex
 90
      256
102
RTVSPost2010Prop51ColorRGB
 90
-16777216
102
RTVSPost2010PropOp51
 70
     0
102
RTVSPost2010Prop52
140
1.0
102
RTVSPost2010PropOp52
 70
     0
102
RTVSPost2010Prop53
 90
        2
102
RTVSPost2010PropOp53
 70
     1
102
RTVSPost2010Prop54
  1
strokes_ogs.tif
102
RTVSPost2010PropOp54
 70
     1
102
RTVSPost2010Prop55
280
     0
102
RTVSPost2010PropOp55
 70
     1
102
RTVSPost2010Prop56
140
1.0
102
RTVSPost2010PropOp56
 70
     1
102
RTVSPost2010Prop57
140
1.0
102
RTVSPost2010PropOp57
 70
     1
  0
XRECORD
  5
106
102
{ACAD_REACTORS
330
105
102
}
330
105
100
AcDbXrecord
280
     1
102
RTVSPropertyOp0
 70
     1
102
RTVSPropertyOp1
 70
     1
102
RTVSPropertyOp2
 70
     1
102
RTVSPropertyOp3
 70
     1
102
RTVSPropertyOp4
 70
     1
102
RTVSPropertyOp5
 70
     1
102
RTVSPropertyOp6
 70
     1
102
RTVSPropertyOp7
 70
     1
102
RTVSPropertyOp8
 70
     1
102
RTVSPropertyOp9
 70
     1
102
RTVSPropertyOp10
 70
     1
102
RTVSPropertyOp11
 70
     1
102
RTVSPropertyOp12
 70
     1
102
RTVSPropertyOp13
 70
     1
102
RTVSPropertyOp14
 70
     1
102
RTVSPropertyOp15
 70
     1
102
RTVSPropertyOp16
 70
     1
102
RTVSPropertyOp17
 70
     1
102
RTVSPropertyOp18
 70
     1
102
RTVSPropertyOp19
 70
     1
102
RTVSPropertyOp20
 70
     1
102
RTVSPropertyOp21
 70
     1
102
RTVSPropertyOp22
 70
     1
102
RTVSPropertyOp23
 70
     1
102
RTVSPropertyOp24
 70
     1
102
RTVSPropertyOp25
 70
     1
102
RTVSPropertyOp26
 70
     1
102
RTVSPropertyOp27
 70
     1
102
RTVSPropertyOp28
 70
     1
102
RTVSPropertyOp29
 70
     1
102
RTVSPropertyOp30
 70
     1
102
RTVSPropertyOp31
 70
     1
102
RTVSPropertyOp32
 70
     1
102
RTVSPropertyOp33
 70
     1
102
RTVSPropertyOp34
 70
     1
102
RTVSPropertyOp35
 70
     1
102
RTVSPropertyOp36
 70
     1
102
RTVSPropertyOp37
 70
     1
102
RTVSPropertyOp38
 70
     1
102
RTVSPropertyOp39
 70
     1
102
RTVSPropertyOp40
 70
     1
102
RTVSPropertyOp41
 70
     1
102
RTVSPropertyOp42
 70
     1
102
RTVSPropertyOp43
 70
     1
102
RTVSPropertyOp44
 70
     1
102
RTVSPropertyOp45
 70
     1
102
RTVSPropertyOp46
 70
     1
102
RTVSPropertyOp47
 70
     1
102
RTVSPropertyOp48
 70
     1
102
RTVSPropertyOp49
 70
     1
102
RTVSPropertyOp50
 70
     1
102
RTVSPropertyOp51
 70
     0
102
RTVSPropertyOp52
 70
     0
102
RTVSPropertyOp53
 70
     1
102
RTVSPropertyOp54
 70
     1
102
RTVSPropertyOp55
 70
     1
102
RTVSPropertyOp56
 70
     1
102
RTVSPropertyOp57
 70
     1
102
RTVSPost2010Prop28
280
     0
102
RTVSPost2010PropOp28
 70
     1
102
RTVSPost2010Prop29
280
     1
102
RTVSPost2010PropOp29
 70
     1
102
RTVSPost2010Prop30
280
     1
102
RTVSPost2010PropOp30
 70
     1
102
RTVSPost2010Prop31
280
     0
102
RTVSPost2010PropOp31
 70
     1
102
RTVSPost2010Prop32
280
     0
102
RTVSPost2010PropOp32
 70
     1
102
RTVSPost2010Prop33
280
     0
102
RTVSPost2010PropOp33
 70
     1
102
RTVSPost2010Prop34
280
     0
102
RTVSPost2010PropOp34
 70
     1
102
RTVSPost2010Prop35
280
     0
102
RTVSPost2010PropOp35
 70
     1
102
RTVSPost2010Prop36
280
     0
102
RTVSPost2010PropOp36
 70
     1
102
RTVSPost2010Prop37
 90
       50
102
RTVSPost2010PropOp37
 70
     1
102
RTVSPost2010Prop38
140
0.0
102
RTVSPost2010PropOp38
 70
     1
102
RTVSPost2010Prop39
140
1.0
102
RTVSPost2010PropOp39
 70
     1
102
RTVSPost2010Prop40
 90
        0
102
RTVSPost2010PropOp40
 70
     1
102
RTVSPost2010Prop41ColorIndex
 90
       18
102
RTVSPost2010Prop41ColorRGB
 90
        0
102
RTVSPost2010PropOp41
 70
     1
102
RTVSPost2010Prop42
 90
       50
102
RTVSPost2010PropOp42
 70
     1
102
RTVSPost2010Prop43
 90
        3
102
RTVSPost2010PropOp43
 70
     1
102
RTVSPost2010Prop44ColorIndex
 90
        5
102
RTVSPost2010Prop44ColorRGB
 90
      255
102
RTVSPost2010PropOp44
 70
     1
102
RTVSPost2010Prop45
280
     0
102
RTVSPost2010PropOp45
 70
     1
102
RTVSPost2010Prop46
 90
       50
102
RTVSPost2010PropOp46
 70
     1
102
RTVSPost2010Prop47
 90
       50
102
RTVSPost2010PropOp47
 70
     1
102
RTVSPost2010Prop48
 90
       50
102
RTVSPost2010PropOp48
 70
     1
102
RTVSPost2010Prop49
280
     0
102
RTVSPost2010PropOp49
 70
     1
102
RTVSPost2010Prop50
 90
       50
102
RTVSPost2010PropOp50
 70
     1
102
RTVSPost2010Prop51ColorIndex
 90
      256
102
RTVSPost2010Prop51ColorRGB
 90
-16777216
102
RTVSPost2010PropOp51
 70
     0
102
RTVSPost2010Prop52
140
1.0
102
RTVSPost2010PropOp52
 70
     0
102
RTVSPost2010Prop53
 90
        2
102
RTVSPost2010PropOp53
 70
     1
102
RTVSPost2010Prop54
  1
strokes_ogs.tif
102
RTVSPost2010PropOp54
 70
     1
102
RTVSPost2010Prop55
280
     0
102
RTVSPost2010PropOp55
 70
     1
102
RTVSPost2010Prop56
140
1.0
102
RTVSPost2010PropOp56
 70
     1
102
RTVSPost2010Prop57
140
1.0
102
RTVSPost2010PropOp57
 70
     1
  0
XRECORD
  5
108
102
{ACAD_REACTORS
330
107
102
}
330
107
100
AcDbXrecord
280
     1
102
RTVSPropertyOp0
 70
     1
102
RTVSPropertyOp1
 70
     1
102
RTVSPropertyOp2
 70
     1
102
RTVSPropertyOp3
 70
     1
102
RTVSPropertyOp4
 70
     1
102
RTVSPropertyOp5
 70
     1
102
RTVSPropertyOp6
 70
     1
102
RTVSPropertyOp7
 70
     1
102
RTVSPropertyOp8
 70
     1
102
RTVSPropertyOp9
 70
     1
102
RTVSPropertyOp10
 70
     1
102
RTVSPropertyOp11
 70
     1
102
RTVSPropertyOp12
 70
     1
102
RTVSPropertyOp13
 70
     1
102
RTVSPropertyOp14
 70
     1
102
RTVSPropertyOp15
 70
     1
102
RTVSPropertyOp16
 70
     1
102
RTVSPropertyOp17
 70
     1
102
RTVSPropertyOp18
 70
     1
102
RTVSPropertyOp19
 70
     1
102
RTVSPropertyOp20
 70
     1
102
RTVSPropertyOp21
 70
     1
102
RTVSPropertyOp22
 70
     1
102
RTVSPropertyOp23
 70
     1
102
RTVSPropertyOp24
 70
     1
102
RTVSPropertyOp25
 70
     1
102
RTVSPropertyOp26
 70
     1
102
RTVSPropertyOp27
 70
     1
102
RTVSPropertyOp28
 70
     1
102
RTVSPropertyOp29
 70
     1
102
RTVSPropertyOp30
 70
     1
102
RTVSPropertyOp31
 70
     1
102
RTVSPropertyOp32
 70
     1
102
RTVSPropertyOp33
 70
     1
102
RTVSPropertyOp34
 70
     1
102
RTVSPropertyOp35
 70
     1
102
RTVSPropertyOp36
 70
     1
102
RTVSPropertyOp37
 70
     1
102
RTVSPropertyOp38
 70
     1
102
RTVSPropertyOp39
 70
     1
102
RTVSPropertyOp40
 70
     1
102
RTVSPropertyOp41
 70
     1
102
RTVSPropertyOp42
 70
     1
102
RTVSPropertyOp43
 70
     1
102
RTVSPropertyOp44
 70
     1
102
RTVSPropertyOp45
 70
     1
102
RTVSPropertyOp46
 70
     1
102
RTVSPropertyOp47
 70
     1
102
RTVSPropertyOp48
 70
     1
102
RTVSPropertyOp49
 70
     1
102
RTVSPropertyOp50
 70
     1
102
RTVSPropertyOp51
 70
     0
102
RTVSPropertyOp52
 70
     0
102
RTVSPropertyOp53
 70
     1
102
RTVSPropertyOp54
 70
     1
102
RTVSPropertyOp55
 70
     1
102
RTVSPropertyOp56
 70
     1
102
RTVSPropertyOp57
 70
     1
102
RTVSPost2010Prop28
280
     0
102
RTVSPost2010PropOp28
 70
     1
102
RTVSPost2010Prop29
280
     1
102
RTVSPost2010PropOp29
 70
     1
102
RTVSPost2010Prop30
280
     1
102
RTVSPost2010PropOp30
 70
     1
102
RTVSPost2010Prop31
280
     0
102
RTVSPost2010PropOp31
 70
     1
102
RTVSPost2010Prop32
280
     0
102
RTVSPost2010PropOp32
 70
     1
102
RTVSPost2010Prop33
280
     0
102
RTVSPost2010PropOp33
 70
     1
102
RTVSPost2010Prop34
280
     0
102
RTVSPost2010PropOp34
 70
     1
102
RTVSPost2010Prop35
280
     0
102
RTVSPost2010PropOp35
 70
     1
102
RTVSPost2010Prop36
280
     0
102
RTVSPost2010PropOp36
 70
     1
102
RTVSPost2010Prop37
 90
       50
102
RTVSPost2010PropOp37
 70
     1
102
RTVSPost2010Prop38
140
0.0
102
RTVSPost2010PropOp38
 70
     1
102
RTVSPost2010Prop39
140
1.0
102
RTVSPost2010PropOp39
 70
     1
102
RTVSPost2010Prop40
 90
        0
102
RTVSPost2010PropOp40
 70
     1
102
RTVSPost2010Prop41ColorIndex
 90
       18
102
RTVSPost2010Prop41ColorRGB
 90
        0
102
RTVSPost2010PropOp41
 70
     1
102
RTVSPost2010Prop42
 90
       50
102
RTVSPost2010PropOp42
 70
     1
102
RTVSPost2010Prop43
 90
        3
102
RTVSPost2010PropOp43
 70
     1
102
RTVSPost2010Prop44ColorIndex
 90
        5
102
RTVSPost2010Prop44ColorRGB
 90
      255
102
RTVSPost2010PropOp44
 70
     1
102
RTVSPost2010Prop45
280
     0
102
RTVSPost2010PropOp45
 70
     1
102
RTVSPost2010Prop46
 90
       50
102
RTVSPost2010PropOp46
 70
     1
102
RTVSPost2010Prop47
 90
       50
102
RTVSPost2010PropOp47
 70
     1
102
RTVSPost2010Prop48
 90
       50
102
RTVSPost2010PropOp48
 70
     1
102
RTVSPost2010Prop49
280
     0
102
RTVSPost2010PropOp49
 70
     1
102
RTVSPost2010Prop50
 90
       50
102
RTVSPost2010PropOp50
 70
     1
102
RTVSPost2010Prop51ColorIndex
 90
      256
102
RTVSPost2010Prop51ColorRGB
 90
-16777216
102
RTVSPost2010PropOp51
 70
     0
102
RTVSPost2010Prop52
140
1.0
102
RTVSPost2010PropOp52
 70
     0
102
RTVSPost2010Prop53
 90
        2
102
RTVSPost2010PropOp53
 70
     1
102
RTVSPost2010Prop54
  1
strokes_ogs.tif
102
RTVSPost2010PropOp54
 70
     1
102
RTVSPost2010Prop55
280
     0
102
RTVSPost2010PropOp55
 70
     1
102
RTVSPost2010Prop56
140
1.0
102
RTVSPost2010PropOp56
 70
     1
102
RTVSPost2010Prop57
140
1.0
102
RTVSPost2010PropOp57
 70
     1
  0
XRECORD
  5
F8
102
{ACAD_REACTORS
330
F7
102
}
330
F7
100
AcDbXrecord
280
     1
102
RTVSPropertyOp0
 70
     1
102
RTVSPropertyOp1
 70
     1
102
RTVSPropertyOp2
 70
     1
102
RTVSPropertyOp3
 70
     1
102
RTVSPropertyOp4
 70
     1
102
RTVSPropertyOp5
 70
     1
102
RTVSPropertyOp6
 70
     1
102
RTVSPropertyOp7
 70
     1
102
RTVSPropertyOp8
 70
     1
102
RTVSPropertyOp9
 70
     1
102
RTVSPropertyOp10
 70
     1
102
RTVSPropertyOp11
 70
     1
102
RTVSPropertyOp12
 70
     1
102
RTVSPropertyOp13
 70
     1
102
RTVSPropertyOp14
 70
     1
102
RTVSPropertyOp15
 70
     1
102
RTVSPropertyOp16
 70
     1
102
RTVSPropertyOp17
 70
     1
102
RTVSPropertyOp18
 70
     1
102
RTVSPropertyOp19
 70
     1
102
RTVSPropertyOp20
 70
     1
102
RTVSPropertyOp21
 70
     1
102
RTVSPropertyOp22
 70
     1
102
RTVSPropertyOp23
 70
     1
102
RTVSPropertyOp24
 70
     1
102
RTVSPropertyOp25
 70
     1
102
RTVSPropertyOp26
 70
     1
102
RTVSPropertyOp27
 70
     1
102
RTVSPropertyOp28
 70
     1
102
RTVSPropertyOp29
 70
     1
102
RTVSPropertyOp30
 70
     1
102
RTVSPropertyOp31
 70
     1
102
RTVSPropertyOp32
 70
     1
102
RTVSPropertyOp33
 70
     1
102
RTVSPropertyOp34
 70
     1
102
RTVSPropertyOp35
 70
     1
102
RTVSPropertyOp36
 70
     1
102
RTVSPropertyOp37
 70
     1
102
RTVSPropertyOp38
 70
     1
102
RTVSPropertyOp39
 70
     1
102
RTVSPropertyOp40
 70
     1
102
RTVSPropertyOp41
 70
     1
102
RTVSPropertyOp42
 70
     1
102
RTVSPropertyOp43
 70
     1
102
RTVSPropertyOp44
 70
     1
102
RTVSPropertyOp45
 70
     1
102
RTVSPropertyOp46
 70
     1
102
RTVSPropertyOp47
 70
     1
102
RTVSPropertyOp48
 70
     1
102
RTVSPropertyOp49
 70
     1
102
RTVSPropertyOp50
 70
     1
102
RTVSPropertyOp51
 70
     0
102
RTVSPropertyOp52
 70
     0
102
RTVSPropertyOp53
 70
     1
102
RTVSPropertyOp54
 70
     1
102
RTVSPropertyOp55
 70
     1
102
RTVSPropertyOp56
 70
     1
102
RTVSPropertyOp57
 70
     1
102
RTVSPost2010Prop28
280
     0
102
RTVSPost2010PropOp28
 70
     1
102
RTVSPost2010Prop29
280
     1
102
RTVSPost2010PropOp29
 70
     1
102
RTVSPost2010Prop30
280
     1
102
RTVSPost2010PropOp30
 70
     1
102
RTVSPost2010Prop31
280
     0
102
RTVSPost2010PropOp31
 70
     1
102
RTVSPost2010Prop32
280
     0
102
RTVSPost2010PropOp32
 70
     1
102
RTVSPost2010Prop33
280
     0
102
RTVSPost2010PropOp33
 70
     1
102
RTVSPost2010Prop34
280
     0
102
RTVSPost2010PropOp34
 70
     1
102
RTVSPost2010Prop35
280
     0
102
RTVSPost2010PropOp35
 70
     1
102
RTVSPost2010Prop36
280
     0
102
RTVSPost2010PropOp36
 70
     1
102
RTVSPost2010Prop37
 90
       50
102
RTVSPost2010PropOp37
 70
     1
102
RTVSPost2010Prop38
140
0.0
102
RTVSPost2010PropOp38
 70
     1
102
RTVSPost2010Prop39
140
1.0
102
RTVSPost2010PropOp39
 70
     1
102
RTVSPost2010Prop40
 90
        0
102
RTVSPost2010PropOp40
 70
     1
102
RTVSPost2010Prop41ColorIndex
 90
       18
102
RTVSPost2010Prop41ColorRGB
 90
        0
102
RTVSPost2010PropOp41
 70
     1
102
RTVSPost2010Prop42
 90
       50
102
RTVSPost2010PropOp42
 70
     1
102
RTVSPost2010Prop43
 90
        3
102
RTVSPost2010PropOp43
 70
     1
102
RTVSPost2010Prop44ColorIndex
 90
        5
102
RTVSPost2010Prop44ColorRGB
 90
      255
102
RTVSPost2010PropOp44
 70
     1
102
RTVSPost2010Prop45
280
     0
102
RTVSPost2010PropOp45
 70
     1
102
RTVSPost2010Prop46
 90
       50
102
RTVSPost2010PropOp46
 70
     1
102
RTVSPost2010Prop47
 90
       50
102
RTVSPost2010PropOp47
 70
     1
102
RTVSPost2010Prop48
 90
       50
102
RTVSPost2010PropOp48
 70
     1
102
RTVSPost2010Prop49
280
     0
102
RTVSPost2010PropOp49
 70
     1
102
RTVSPost2010Prop50
 90
       50
102
RTVSPost2010PropOp50
 70
     1
102
RTVSPost2010Prop51ColorIndex
 90
      256
102
RTVSPost2010Prop51ColorRGB
 90
-16777216
102
RTVSPost2010PropOp51
 70
     0
102
RTVSPost2010Prop52
140
1.0
102
RTVSPost2010PropOp52
 70
     0
102
RTVSPost2010Prop53
 90
        2
102
RTVSPost2010PropOp53
 70
     1
102
RTVSPost2010Prop54
  1
strokes_ogs.tif
102
RTVSPost2010PropOp54
 70
     1
102
RTVSPost2010Prop55
280
     0
102
RTVSPost2010PropOp55
 70
     1
102
RTVSPost2010Prop56
140
1.0
102
RTVSPost2010PropOp56
 70
     1
102
RTVSPost2010Prop57
140
1.0
102
RTVSPost2010PropOp57
 70
     1
  0
XRECORD
  5
EA
102
{ACAD_REACTORS
330
E9
102
}
330
E9
100
AcDbXrecord
280
     1
102
RTVSPropertyOp0
 70
     1
102
RTVSPropertyOp1
 70
     1
102
RTVSPropertyOp2
 70
     1
102
RTVSPropertyOp3
 70
     1
102
RTVSPropertyOp4
 70
     1
102
RTVSPropertyOp5
 70
     1
102
RTVSPropertyOp6
 70
     1
102
RTVSPropertyOp7
 70
     1
102
RTVSPropertyOp8
 70
     1
102
RTVSPropertyOp9
 70
     1
102
RTVSPropertyOp10
 70
     1
102
RTVSPropertyOp11
 70
     1
102
RTVSPropertyOp12
 70
     1
102
RTVSPropertyOp13
 70
     1
102
RTVSPropertyOp14
 70
     1
102
RTVSPropertyOp15
 70
     1
102
RTVSPropertyOp16
 70
     1
102
RTVSPropertyOp17
 70
     1
102
RTVSPropertyOp18
 70
     1
102
RTVSPropertyOp19
 70
     1
102
RTVSPropertyOp20
 70
     1
102
RTVSPropertyOp21
 70
     1
102
RTVSPropertyOp22
 70
     1
102
RTVSPropertyOp23
 70
     1
102
RTVSPropertyOp24
 70
     1
102
RTVSPropertyOp25
 70
     1
102
RTVSPropertyOp26
 70
     1
102
RTVSPropertyOp27
 70
     1
102
RTVSPropertyOp28
 70
     1
102
RTVSPropertyOp29
 70
     1
102
RTVSPropertyOp30
 70
     1
102
RTVSPropertyOp31
 70
     1
102
RTVSPropertyOp32
 70
     1
102
RTVSPropertyOp33
 70
     1
102
RTVSPropertyOp34
 70
     1
102
RTVSPropertyOp35
 70
     1
102
RTVSPropertyOp36
 70
     1
102
RTVSPropertyOp37
 70
     1
102
RTVSPropertyOp38
 70
     1
102
RTVSPropertyOp39
 70
     1
102
RTVSPropertyOp40
 70
     1
102
RTVSPropertyOp41
 70
     1
102
RTVSPropertyOp42
 70
     1
102
RTVSPropertyOp43
 70
     1
102
RTVSPropertyOp44
 70
     1
102
RTVSPropertyOp45
 70
     1
102
RTVSPropertyOp46
 70
     1
102
RTVSPropertyOp47
 70
     1
102
RTVSPropertyOp48
 70
     1
102
RTVSPropertyOp49
 70
     1
102
RTVSPropertyOp50
 70
     1
102
RTVSPropertyOp51
 70
     0
102
RTVSPropertyOp52
 70
     0
102
RTVSPropertyOp53
 70
     1
102
RTVSPropertyOp54
 70
     1
102
RTVSPropertyOp55
 70
     1
102
RTVSPropertyOp56
 70
     1
102
RTVSPropertyOp57
 70
     1
102
RTVSPost2010Prop28
280
     0
102
RTVSPost2010PropOp28
 70
     1
102
RTVSPost2010Prop29
280
     1
102
RTVSPost2010PropOp29
 70
     1
102
RTVSPost2010Prop30
280
     1
102
RTVSPost2010PropOp30
 70
     1
102
RTVSPost2010Prop31
280
     0
102
RTVSPost2010PropOp31
 70
     1
102
RTVSPost2010Prop32
280
     0
102
RTVSPost2010PropOp32
 70
     1
102
RTVSPost2010Prop33
280
     0
102
RTVSPost2010PropOp33
 70
     1
102
RTVSPost2010Prop34
280
     0
102
RTVSPost2010PropOp34
 70
     1
102
RTVSPost2010Prop35
280
     0
102
RTVSPost2010PropOp35
 70
     1
102
RTVSPost2010Prop36
280
     0
102
RTVSPost2010PropOp36
 70
     1
102
RTVSPost2010Prop37
 90
       50
102
RTVSPost2010PropOp37
 70
     1
102
RTVSPost2010Prop38
140
0.0
102
RTVSPost2010PropOp38
 70
     1
102
RTVSPost2010Prop39
140
1.0
102
RTVSPost2010PropOp39
 70
     1
102
RTVSPost2010Prop40
 90
        0
102
RTVSPost2010PropOp40
 70
     1
102
RTVSPost2010Prop41ColorIndex
 90
       18
102
RTVSPost2010Prop41ColorRGB
 90
        0
102
RTVSPost2010PropOp41
 70
     1
102
RTVSPost2010Prop42
 90
       50
102
RTVSPost2010PropOp42
 70
     1
102
RTVSPost2010Prop43
 90
        3
102
RTVSPost2010PropOp43
 70
     1
102
RTVSPost2010Prop44ColorIndex
 90
        5
102
RTVSPost2010Prop44ColorRGB
 90
      255
102
RTVSPost2010PropOp44
 70
     1
102
RTVSPost2010Prop45
280
     0
102
RTVSPost2010PropOp45
 70
     1
102
RTVSPost2010Prop46
 90
       50
102
RTVSPost2010PropOp46
 70
     1
102
RTVSPost2010Prop47
 90
       50
102
RTVSPost2010PropOp47
 70
     1
102
RTVSPost2010Prop48
 90
       50
102
RTVSPost2010PropOp48
 70
     1
102
RTVSPost2010Prop49
280
     0
102
RTVSPost2010PropOp49
 70
     1
102
RTVSPost2010Prop50
 90
       50
102
RTVSPost2010PropOp50
 70
     1
102
RTVSPost2010Prop51ColorIndex
 90
      256
102
RTVSPost2010Prop51ColorRGB
 90
-16777216
102
RTVSPost2010PropOp51
 70
     0
102
RTVSPost2010Prop52
140
1.0
102
RTVSPost2010PropOp52
 70
     0
102
RTVSPost2010Prop53
 90
        2
102
RTVSPost2010PropOp53
 70
     1
102
RTVSPost2010Prop54
  1
strokes_ogs.tif
102
RTVSPost2010PropOp54
 70
     1
102
RTVSPost2010Prop55
280
     0
102
RTVSPost2010PropOp55
 70
     1
102
RTVSPost2010Prop56
140
1.0
102
RTVSPost2010PropOp56
 70
     1
102
RTVSPost2010Prop57
140
1.0
102
RTVSPost2010PropOp57
 70
     1
  0
XRECORD
  5
10A
102
{ACAD_REACTORS
330
109
102
}
330
109
100
AcDbXrecord
280
     1
102
RTVSPropertyOp0
 70
     1
102
RTVSPropertyOp1
 70
     1
102
RTVSPropertyOp2
 70
     1
102
RTVSPropertyOp3
 70
     1
102
RTVSPropertyOp4
 70
     1
102
RTVSPropertyOp5
 70
     1
102
RTVSPropertyOp6
 70
     1
102
RTVSPropertyOp7
 70
     1
102
RTVSPropertyOp8
 70
     1
102
RTVSPropertyOp9
 70
     1
102
RTVSPropertyOp10
 70
     1
102
RTVSPropertyOp11
 70
     1
102
RTVSPropertyOp12
 70
     1
102
RTVSPropertyOp13
 70
     1
102
RTVSPropertyOp14
 70
     1
102
RTVSPropertyOp15
 70
     1
102
RTVSPropertyOp16
 70
     1
102
RTVSPropertyOp17
 70
     1
102
RTVSPropertyOp18
 70
     1
102
RTVSPropertyOp19
 70
     1
102
RTVSPropertyOp20
 70
     1
102
RTVSPropertyOp21
 70
     1
102
RTVSPropertyOp22
 70
     1
102
RTVSPropertyOp23
 70
     1
102
RTVSPropertyOp24
 70
     1
102
RTVSPropertyOp25
 70
     1
102
RTVSPropertyOp26
 70
     1
102
RTVSPropertyOp27
 70
     1
102
RTVSPropertyOp28
 70
     1
102
RTVSPropertyOp29
 70
     1
102
RTVSPropertyOp30
 70
     1
102
RTVSPropertyOp31
 70
     1
102
RTVSPropertyOp32
 70
     1
102
RTVSPropertyOp33
 70
     1
102
RTVSPropertyOp34
 70
     1
102
RTVSPropertyOp35
 70
     1
102
RTVSPropertyOp36
 70
     1
102
RTVSPropertyOp37
 70
     1
102
RTVSPropertyOp38
 70
     1
102
RTVSPropertyOp39
 70
     1
102
RTVSPropertyOp40
 70
     1
102
RTVSPropertyOp41
 70
     1
102
RTVSPropertyOp42
 70
     1
102
RTVSPropertyOp43
 70
     1
102
RTVSPropertyOp44
 70
     1
102
RTVSPropertyOp45
 70
     1
102
RTVSPropertyOp46
 70
     1
102
RTVSPropertyOp47
 70
     1
102
RTVSPropertyOp48
 70
     1
102
RTVSPropertyOp49
 70
     1
102
RTVSPropertyOp50
 70
     1
102
RTVSPropertyOp51
 70
     0
102
RTVSPropertyOp52
 70
     0
102
RTVSPropertyOp53
 70
     1
102
RTVSPropertyOp54
 70
     1
102
RTVSPropertyOp55
 70
     1
102
RTVSPropertyOp56
 70
     1
102
RTVSPropertyOp57
 70
     1
102
RTVSPost2010Prop28
280
     0
102
RTVSPost2010PropOp28
 70
     1
102
RTVSPost2010Prop29
280
     1
102
RTVSPost2010PropOp29
 70
     1
102
RTVSPost2010Prop30
280
     1
102
RTVSPost2010PropOp30
 70
     1
102
RTVSPost2010Prop31
280
     0
102
RTVSPost2010PropOp31
 70
     1
102
RTVSPost2010Prop32
280
     0
102
RTVSPost2010PropOp32
 70
     1
102
RTVSPost2010Prop33
280
     0
102
RTVSPost2010PropOp33
 70
     1
102
RTVSPost2010Prop34
280
     0
102
RTVSPost2010PropOp34
 70
     1
102
RTVSPost2010Prop35
280
     0
102
RTVSPost2010PropOp35
 70
     1
102
RTVSPost2010Prop36
280
     0
102
RTVSPost2010PropOp36
 70
     1
102
RTVSPost2010Prop37
 90
       50
102
RTVSPost2010PropOp37
 70
     1
102
RTVSPost2010Prop38
140
0.0
102
RTVSPost2010PropOp38
 70
     1
102
RTVSPost2010Prop39
140
1.0
102
RTVSPost2010PropOp39
 70
     1
102
RTVSPost2010Prop40
 90
        0
102
RTVSPost2010PropOp40
 70
     1
102
RTVSPost2010Prop41ColorIndex
 90
       18
102
RTVSPost2010Prop41ColorRGB
 90
        0
102
RTVSPost2010PropOp41
 70
     1
102
RTVSPost2010Prop42
 90
       50
102
RTVSPost2010PropOp42
 70
     1
102
RTVSPost2010Prop43
 90
        3
102
RTVSPost2010PropOp43
 70
     1
102
RTVSPost2010Prop44ColorIndex
 90
        5
102
RTVSPost2010Prop44ColorRGB
 90
      255
102
RTVSPost2010PropOp44
 70
     1
102
RTVSPost2010Prop45
280
     0
102
RTVSPost2010PropOp45
 70
     1
102
RTVSPost2010Prop46
 90
       50
102
RTVSPost2010PropOp46
 70
     1
102
RTVSPost2010Prop47
 90
       50
102
RTVSPost2010PropOp47
 70
     1
102
RTVSPost2010Prop48
 90
       50
102
RTVSPost2010PropOp48
 70
     1
102
RTVSPost2010Prop49
280
     0
102
RTVSPost2010PropOp49
 70
     1
102
RTVSPost2010Prop50
 90
       50
102
RTVSPost2010PropOp50
 70
     1
102
RTVSPost2010Prop51ColorIndex
 90
      256
102
RTVSPost2010Prop51ColorRGB
 90
-16777216
102
RTVSPost2010PropOp51
 70
     0
102
RTVSPost2010Prop52
140
1.0
102
RTVSPost2010PropOp52
 70
     0
102
RTVSPost2010Prop53
 90
        2
102
RTVSPost2010PropOp53
 70
     1
102
RTVSPost2010Prop54
  1
strokes_ogs.tif
102
RTVSPost2010PropOp54
 70
     1
102
RTVSPost2010Prop55
280
     0
102
RTVSPost2010PropOp55
 70
     1
102
RTVSPost2010Prop56
140
1.0
102
RTVSPost2010PropOp56
 70
     1
102
RTVSPost2010Prop57
140
1.0
102
RTVSPost2010PropOp57
 70
     1
  0
ENDSEC
  0
EOF
