  0
SECTION
  2
HEADER
  9
$ACADVER
  1
AC1015
  9
$ACADMAINTVER
 70
     6
  9
$DWGCODEPAGE
  3
ANSI_1252
  9
$INSBASE
 10
0.0
 20
0.0
 30
0.0
  9
$EXTMIN
 10
-30.195215
 20
334.777069
 30
0.0
  9
$EXTMAX
 10
531.791199
 20
714.627686
 30
0.0
  9
$LIMMIN
 10
-30.195215
 20
334.777069
  9
$LIMMAX
 10
531.791199
 20
714.627686
  9
$ORTHOMODE
 70
     0
  9
$REGENMODE
 70
     1
  9
$FILLMODE
 70
     1
  9
$QTEXTMODE
 70
     0
  9
$MIRRTEXT
 70
     1
  9
$LTSCALE
 40
1.0
  9
$ATTMODE
 70
     1
  9
$TEXTSIZE
 40
2.5
  9
$TRACEWID
 40
1.0
  9
$TEXTSTYLE
  7
Standard
  9
$CLAYER
  8
0
  9
$CELTYPE
  6
ByLayer
  9
$CECOLOR
 62
   256
  9
$CELTSCALE
 40
1.0
  9
$DISPSILH
 70
     0
  9
$DIMSCALE
 40
1.0
  9
$DIMASZ
 40
2.5
  9
$DIMEXO
 40
0.625
  9
$DIMDLI
 40
3.75
  9
$DIMRND
 40
0.0
  9
$DIMDLE
 40
0.0
  9
$DIMEXE
 40
1.25
  9
$DIMTP
 40
0.0
  9
$DIMTM
 40
0.0
  9
$DIMTXT
 40
2.5
  9
$DIMCEN
 40
2.5
  9
$DIMTSZ
 40
0.0
  9
$DIMTOL
 70
     0
  9
$DIMLIM
 70
     0
  9
$DIMTIH
 70
     0
  9
$DIMTOH
 70
     0
  9
$DIMSE1
 70
     0
  9
$DIMSE2
 70
     0
  9
$DIMTAD
 70
     1
  9
$DIMZIN
 70
     8
  9
$DIMBLK
  1

  9
$DIMASO
 70
     1
  9
$DIMSHO
 70
     1
  9
$DIMPOST
  1

  9
$DIMAPOST
  1

  9
$DIMALT
 70
     0
  9
$DIMALTD
 70
     3
  9
$DIMALTF
 40
0.03937
  9
$DIMLFAC
 40
1.0
  9
$DIMTOFL
 70
     1
  9
$DIMTVP
 40
0.0
  9
$DIMTIX
 70
     0
  9
$DIMSOXD
 70
     0
  9
$DIMSAH
 70
     0
  9
$DIMBLK1
  1

  9
$DIMBLK2
  1

  9
$DIMSTYLE
  2
ISO-25
  9
$DIMCLRD
 70
     0
  9
$DIMCLRE
 70
     0
  9
$DIMCLRT
 70
     0
  9
$DIMTFAC
 40
1.0
  9
$DIMGAP
 40
0.625
  9
$DIMJUST
 70
     0
  9
$DIMSD1
 70
     0
  9
$DIMSD2
 70
     0
  9
$DIMTOLJ
 70
     0
  9
$DIMTZIN
 70
     8
  9
$DIMALTZ
 70
     0
  9
$DIMALTTZ
 70
     0
  9
$DIMUPT
 70
     0
  9
$DIMDEC
 70
     2
  9
$DIMTDEC
 70
     2
  9
$DIMALTU
 70
     2
  9
$DIMALTTD
 70
     3
  9
$DIMTXSTY
  7
Standard
  9
$DIMAUNIT
 70
     0
  9
$DIMADEC
 70
     0
  9
$DIMALTRND
 40
0.0
  9
$DIMAZIN
 70
     0
  9
$DIMDSEP
 70
    44
  9
$DIMATFIT
 70
     3
  9
$DIMFRAC
 70
     0
  9
$DIMLDRBLK
  1

  9
$DIMLUNIT
 70
     2
  9
$DIMLWD
 70
    -2
  9
$DIMLWE
 70
    -2
  9
$DIMTMOVE
 70
     0
  9
$LUNITS
 70
     2
  9
$LUPREC
 70
     4
  9
$SKETCHINC
 40
1.0
  9
$FILLETRAD
 40
10.0
  9
$AUNITS
 70
     0
  9
$AUPREC
 70
     0
  9
$MENU
  1
.
  9
$ELEVATION
 40
0.0
  9
$PELEVATION
 40
0.0
  9
$THICKNESS
 40
0.0
  9
$LIMCHECK
 70
     0
  9
$CHAMFERA
 40
0.0
  9
$CHAMFERB
 40
0.0
  9
$CHAMFERC
 40
0.0
  9
$CHAMFERD
 40
0.0
  9
$SKPOLY
 70
     0
  9
$TDCREATE
 40
2459487.486563773
  9
$TDUCREATE
 40
2459487.40323044
  9
$TDUPDATE
 40
2459487.486564363
  9
$TDUUPDATE
 40
2459487.40323103
  9
$TDINDWG
 40
0.0000000116
  9
$TDUSRTIMER
 40
0.0000000116
  9
$USRTIMER
 70
     1
  9
$ANGBASE
 50
0.0
  9
$ANGDIR
 70
     0
  9
$PDMODE
 70
     0
  9
$PDSIZE
 40
0.0
  9
$PLINEWID
 40
0.0
  9
$SPLFRAME
 70
     0
  9
$SPLINETYPE
 70
     6
  9
$SPLINESEGS
 70
     8
  9
$HANDSEED
  5
119
  9
$SURFTAB1
 70
     6
  9
$SURFTAB2
 70
     6
  9
$SURFTYPE
 70
     6
  9
$SURFU
 70
     6
  9
$SURFV
 70
     6
  9
$UCSBASE
  2

  9
$UCSNAME
  2

  9
$UCSORG
 10
0.0
 20
0.0
 30
0.0
  9
$UCSXDIR
 10
1.0
 20
0.0
 30
0.0
  9
$UCSYDIR
 10
0.0
 20
1.0
 30
0.0
  9
$UCSORTHOREF
  2

  9
$UCSORTHOVIEW
 70
     0
  9
$UCSORGTOP
 10
0.0
 20
0.0
 30
0.0
  9
$UCSORGBOTTOM
 10
0.0
 20
0.0
 30
0.0
  9
$UCSORGLEFT
 10
0.0
 20
0.0
 30
0.0
  9
$UCSORGRIGHT
 10
0.0
 20
0.0
 30
0.0
  9
$UCSORGFRONT
 10
0.0
 20
0.0
 30
0.0
  9
$UCSORGBACK
 10
0.0
 20
0.0
 30
0.0
  9
$PUCSBASE
  2

  9
$PUCSNAME
  2

  9
$PUCSORG
 10
0.0
 20
0.0
 30
0.0
  9
$PUCSXDIR
 10
1.0
 20
0.0
 30
0.0
  9
$PUCSYDIR
 10
0.0
 20
1.0
 30
0.0
  9
$PUCSORTHOREF
  2

  9
$PUCSORTHOVIEW
 70
     0
  9
$PUCSORGTOP
 10
0.0
 20
0.0
 30
0.0
  9
$PUCSORGBOTTOM
 10
0.0
 20
0.0
 30
0.0
  9
$PUCSORGLEFT
 10
0.0
 20
0.0
 30
0.0
  9
$PUCSORGRIGHT
 10
0.0
 20
0.0
 30
0.0
  9
$PUCSORGFRONT
 10
0.0
 20
0.0
 30
0.0
  9
$PUCSORGBACK
 10
0.0
 20
0.0
 30
0.0
  9
$USERI1
 70
     0
  9
$USERI2
 70
     0
  9
$USERI3
 70
     0
  9
$USERI4
 70
     0
  9
$USERI5
 70
     0
  9
$USERR1
 40
0.0
  9
$USERR2
 40
0.0
  9
$USERR3
 40
0.0
  9
$USERR4
 40
0.0
  9
$USERR5
 40
0.0
  9
$WORLDVIEW
 70
     1
  9
$SHADEDGE
 70
     3
  9
$SHADEDIF
 70
    70
  9
$TILEMODE
 70
     1
  9
$MAXACTVP
 70
    64
  9
$PINSBASE
 10
0.0
 20
0.0
 30
0.0
  9
$PLIMCHECK
 70
     0
  9
$PEXTMIN
 10
1.000000E+20
 20
1.000000E+20
 30
1.000000E+20
  9
$PEXTMAX
 10
-1.000000E+20
 20
-1.000000E+20
 30
-1.000000E+20
  9
$PLIMMIN
 10
0.0
 20
0.0
  9
$PLIMMAX
 10
420.0
 20
297.0
  9
$UNITMODE
 70
     0
  9
$VISRETAIN
 70
     1
  9
$PLINEGEN
 70
     0
  9
$PSLTSCALE
 70
     1
  9
$TREEDEPTH
 70
  3020
  9
$CMLSTYLE
  2
Standard
  9
$CMLJUST
 70
     0
  9
$CMLSCALE
 40
20.0
  9
$PROXYGRAPHICS
 70
     1
  9
$MEASUREMENT
 70
     1
  9
$CELWEIGHT
370
    -1
  9
$ENDCAPS
280
     0
  9
$JOINSTYLE
280
     0
  9
$LWDISPLAY
290
     0
  9
$INSUNITS
 70
     4
  9
$HYPERLINKBASE
  1

  9
$STYLESHEET
  1

  9
$XEDIT
290
     1
  9
$CEPSNTYPE
380
     0
  9
$PSTYLEMODE
290
     1
  9
$FINGERPRINTGUID
  2
{dd21ed16-57d2-4054-bb93-53a2e6fdd885}
  9
$VERSIONGUID
  2
{FAEB1C32-E019-11D5-929B-00C0DF256EC4}
  9
$EXTNAMES
290
     1
  9
$PSVPSCALE
 40
0.0
  9
$OLESTARTUP
290
     0
  0
ENDSEC
  0
SECTION
  2
CLASSES
  0
CLASS
  1
ACDBDICTIONARYWDFLT
  2
AcDbDictionaryWithDefault
  3
ObjectDBX Classes
 90
        0
280
     0
281
     0
  0
CLASS
  1
VISUALSTYLE
  2
AcDbVisualStyle
  3
ObjectDBX Classes
 90
     4095
280
     0
281
     0
  0
CLASS
  1
MATERIAL
  2
AcDbMaterial
  3
ObjectDBX Classes
 90
     1153
280
     0
281
     0
  0
CLASS
  1
SCALE
  2
AcDbScale
  3
ObjectDBX Classes
 90
     1153
280
     0
281
     0
  0
CLASS
  1
TABLESTYLE
  2
AcDbTableStyle
  3
ObjectDBX Classes
 90
     4095
280
     0
281
     0
  0
CLASS
  1
MLEADERSTYLE
  2
AcDbMLeaderStyle
  3
ACDB_MLEADERSTYLE_CLASS
 90
     4095
280
     0
281
     0
  0
CLASS
  1
SUN
  2
AcDbSun
  3
SCENEOE
 90
     1153
280
     0
281
     0
  0
CLASS
  1
DICTIONARYVAR
  2
AcDbDictionaryVar
  3
ObjectDBX Classes
 90
        0
280
     0
281
     0
  0
CLASS
  1
ACDBPLACEHOLDER
  2
AcDbPlaceHolder
  3
ObjectDBX Classes
 90
        0
280
     0
281
     0
  0
CLASS
  1
LAYOUT
  2
AcDbLayout
  3
ObjectDBX Classes
 90
        0
280
     0
281
     0
  0
ENDSEC
  0
SECTION
  2
TABLES
  0
TABLE
  2
VPORT
  5
8
102
{ACAD_XDICTIONARY
360
DC
102
}
330
0
100
AcDbSymbolTable
 70
     1
  0
VPORT
  5
29
330
8
100
AcDbSymbolTableRecord
100
AcDbViewportTableRecord
  2
*Active
 70
     0
 10
0.0
 20
0.0
 11
1.0
 21
1.0
 12
344.186916
 22
148.5
 13
0.0
 23
0.0
 14
10.0
 24
10.0
 15
10.0
 25
10.0
 16
0.0
 26
0.0
 36
1.0
 17
0.0
 27
0.0
 37
0.0
 40
297.0
 41
1.972973
 42
50.0
 43
0.0
 44
0.0
 50
0.0
 51
0.0
 71
     0
 72
   100
 73
     1
 74
     3
 75
     0
 76
     0
 77
     0
 78
     0
281
     0
 65
     1
110
0.0
120
0.0
130
0.0
111
1.0
121
0.0
131
0.0
112
0.0
122
1.0
132
0.0
 79
     0
146
0.0
  0
ENDTAB
  0
TABLE
  2
LTYPE
  5
5
330
0
100
AcDbSymbolTable
 70
     1
  0
LTYPE
  5
14
330
5
100
AcDbSymbolTableRecord
100
AcDbLinetypeTableRecord
  2
ByBlock
 70
     0
  3

 72
    65
 73
     0
 40
0.0
  0
LTYPE
  5
15
330
5
100
AcDbSymbolTableRecord
100
AcDbLinetypeTableRecord
  2
ByLayer
 70
     0
  3

 72
    65
 73
     0
 40
0.0
  0
LTYPE
  5
16
330
5
100
AcDbSymbolTableRecord
100
AcDbLinetypeTableRecord
  2
Continuous
 70
     0
  3
Solid line
 72
    65
 73
     0
 40
0.0
  0
ENDTAB
  0
TABLE
  2
LAYER
  5
2
330
0
100
AcDbSymbolTable
 70
     1
  0
LAYER
  5
10
330
2
100
AcDbSymbolTableRecord
100
AcDbLayerTableRecord
  2
0
 70
     0
 62
   106
  6
Continuous
370
     0
390
F
  0
ENDTAB
  0
TABLE
  2
STYLE
  5
3
330
0
100
AcDbSymbolTable
 70
     4
  0
STYLE
  5
11
330
3
100
AcDbSymbolTableRecord
100
AcDbTextStyleTableRecord
  2
Standard
 70
     0
 40
0.0
 41
1.0
 50
0.0
 71
     0
 42
2.5
  3
txt
  4

  0
STYLE
  5
6E
330
3
100
AcDbSymbolTableRecord
100
AcDbTextStyleTableRecord
  2
Default
 70
     0
 40
0.0
 41
1.0
 50
0.0
 71
     0
 42
2.5
  3

  4

1001
ACAD
1000
txt
1071
        0
  0
STYLE
  5
6F
330
3
100
AcDbSymbolTableRecord
100
AcDbTextStyleTableRecord
  2
ISO
 70
     0
 40
0.0
 41
1.0
 50
0.0
 71
     0
 42
2.5
  3

  4

1001
ACAD
1000
txt
1071
        0
  0
STYLE
  5
70
330
3
100
AcDbSymbolTableRecord
100
AcDbTextStyleTableRecord
  2
zucchetti
 70
     0
 40
0.0
 41
1.0
 50
0.0
 71
     0
 42
2.5
  3

  4

1001
ACAD
1000
Arial
1071
        0
  0
ENDTAB
  0
TABLE
  2
VIEW
  5
6
330
0
100
AcDbSymbolTable
 70
     0
  0
ENDTAB
  0
TABLE
  2
UCS
  5
7
330
0
100
AcDbSymbolTable
 70
     0
  0
ENDTAB
  0
TABLE
  2
APPID
  5
9
330
0
100
AcDbSymbolTable
 70
     2
  0
APPID
  5
12
330
9
100
AcDbSymbolTableRecord
100
AcDbRegAppTableRecord
  2
ACAD
 70
     0
  0
APPID
  5
116
330
9
100
AcDbSymbolTableRecord
100
AcDbRegAppTableRecord
  2
ACAD_MLEADERVER
 70
     0
  0
ENDTAB
  0
TABLE
  2
DIMSTYLE
  5
A
330
0
100
AcDbSymbolTable
 70
     4
100
AcDbDimStyleTable
  0
DIMSTYLE
105
27
330
A
100
AcDbSymbolTableRecord
100
AcDbDimStyleTableRecord
  2
ISO-25
 70
     0
 41
2.5
 42
0.625
 43
3.75
 44
1.25
 73
     0
 74
     0
 77
     1
 78
     8
140
2.5
141
2.5
143
0.03937
147
0.625
171
     3
172
     1
178
     0
271
     2
272
     2
274
     3
278
    44
283
     0
284
     8
340
11
  0
DIMSTYLE
105
71
330
A
100
AcDbSymbolTableRecord
100
AcDbDimStyleTableRecord
  2
Default
 70
     0
  3
<>
 41
4.375
 42
1.05
 44
2.1
 73
     0
 74
     0
 77
     1
 78
     8
140
3.5
146
0.4
147
1.75
172
     1
271
     2
178
     3
271
     2
272
     3
284
     8
340
6E
341
72
342
72
  0
DIMSTYLE
105
79
330
A
100
AcDbSymbolTableRecord
100
AcDbDimStyleTableRecord
  2
ISO
 70
     0
  3
<>
 41
4.375
 42
1.05
 44
2.1
 73
     0
 74
     0
 77
     1
 78
     8
140
3.5
146
0.4
147
1.75
172
     1
271
     2
178
     3
271
     2
272
     3
284
     8
340
6F
341
72
342
72
  0
DIMSTYLE
105
7A
330
A
100
AcDbSymbolTableRecord
100
AcDbDimStyleTableRecord
  2
zucchetti
 70
     0
  3
<>
 41
3.0
 42
0.9
 44
1.8
 73
     0
 74
     0
 77
     1
 78
     8
140
3.0
146
0.6
147
1.5
172
     1
176
     3
177
     3
271
     2
178
     3
271
     2
272
     2
284
     8
340
70
  0
ENDTAB
  0
TABLE
  2
BLOCK_RECORD
  5
1
330
0
100
AcDbSymbolTable
 70
     7
  0
BLOCK_RECORD
  5
1F
330
1
100
AcDbSymbolTableRecord
100
AcDbBlockTableRecord
  2
*Model_Space
340
22
  0
BLOCK_RECORD
  5
1B
330
1
100
AcDbSymbolTableRecord
100
AcDbBlockTableRecord
  2
*Paper_Space
340
1E
  0
BLOCK_RECORD
  5
23
330
1
100
AcDbSymbolTableRecord
100
AcDbBlockTableRecord
  2
*Paper_Space0
340
26
  0
BLOCK_RECORD
  5
72
330
1
100
AcDbSymbolTableRecord
100
AcDbBlockTableRecord
  2
_Closed
340
0
  0
BLOCK_RECORD
  5
7B
330
1
100
AcDbSymbolTableRecord
100
AcDbBlockTableRecord
  2
a
340
0
102
{BLKREFS
331
8C
102
}
  0
BLOCK_RECORD
  5
8D
330
1
100
AcDbSymbolTableRecord
100
AcDbBlockTableRecord
  2
b
340
0
102
{BLKREFS
331
9C
102
}
  0
BLOCK_RECORD
  5
9D
330
1
100
AcDbSymbolTableRecord
100
AcDbBlockTableRecord
  2
c
340
0
102
{BLKREFS
331
AC
102
}
  0
BLOCK_RECORD
  5
AD
330
1
100
AcDbSymbolTableRecord
100
AcDbBlockTableRecord
  2
d
340
0
102
{BLKREFS
331
C1
102
}
  0
BLOCK_RECORD
  5
C2
330
1
100
AcDbSymbolTableRecord
100
AcDbBlockTableRecord
  2
e
340
0
102
{BLKREFS
331
D0
102
}
  0
ENDTAB
  0
ENDSEC
  0
SECTION
  2
BLOCKS
  0
BLOCK
  5
20
330
1F
100
AcDbEntity
  8
0
100
AcDbBlockBegin
  2
*Model_Space
 70
     0
 10
0.0
 20
0.0
 30
0.0
  3
*Model_Space
  1

  0
ENDBLK
  5
21
330
1F
100
AcDbEntity
  8
0
100
AcDbBlockEnd
  0
BLOCK
  5
1C
330
1B
100
AcDbEntity
 67
     1
  8
0
100
AcDbBlockBegin
  2
*Paper_Space
 70
     0
 10
0.0
 20
0.0
 30
0.0
  3
*Paper_Space
  1

  0
ENDBLK
  5
1D
330
1B
100
AcDbEntity
 67
     1
  8
0
100
AcDbBlockEnd
  0
BLOCK
  5
24
330
23
100
AcDbEntity
  8
0
100
AcDbBlockBegin
  2
*Paper_Space0
 70
     0
 10
0.0
 20
0.0
 30
0.0
  3
*Paper_Space0
  1

  0
ENDBLK
  5
25
330
23
100
AcDbEntity
  8
0
100
AcDbBlockEnd
  0
BLOCK
  5
73
330
72
100
AcDbEntity
  8
0
100
AcDbBlockBegin
  2
_Closed
 70
     0
 10
0.0
 20
0.0
 30
0.0
  3
_Closed
  1

  0
LINE
  5
75
330
72
100
AcDbEntity
  8
0
  6
ByBlock
 62
     0
370
    -2
100
AcDbLine
 10
-1.0
 20
0.166667
 30
0.0
 11
0.0
 21
0.0
 31
0.0
  0
LINE
  5
76
330
72
100
AcDbEntity
  8
0
  6
ByBlock
 62
     0
370
    -2
100
AcDbLine
 10
0.0
 20
0.0
 30
0.0
 11
-1.0
 21
-0.166667
 31
0.0
  0
LINE
  5
77
330
72
100
AcDbEntity
  8
0
  6
ByBlock
 62
     0
370
    -2
100
AcDbLine
 10
-1.0
 20
0.166667
 30
0.0
 11
-1.0
 21
-0.166667
 31
0.0
  0
LINE
  5
78
330
72
100
AcDbEntity
  8
0
  6
ByBlock
 62
     0
370
    -2
100
AcDbLine
 10
0.0
 20
0.0
 30
0.0
 11
-1.0
 21
0.0
 31
0.0
  0
ENDBLK
  5
74
330
72
100
AcDbEntity
  8
0
100
AcDbBlockEnd
  0
BLOCK
  5
8A
330
7B
100
AcDbEntity
  8
0
100
AcDbBlockBegin
  2
a
 70
     0
 10
63.414513
 20
116.665619
 30
0.0
  3
a
  1

  0
LINE
  5
7C
330
7B
100
AcDbEntity
  8
0
  6
Continuous
 62
     0
370
    30
100
AcDbLine
 10
368.276226
 20
518.059803
 30
0.0
 11
368.276224
 21
527.06063
 31
0.0
  0
SPLINE
  5
7D
330
7B
100
AcDbEntity
  8
0
  6
Continuous
 62
     0
370
    30
100
AcDbSpline
210
0.0
220
0.0
230
1.0
 70
     8
 71
     7
 72
    71
 73
    63
 74
     0
 42
0.000000001
 43
0.0
 40
0.0
 40
0.0
 40
0.0
 40
0.0
 40
0.0
 40
0.0
 40
0.0
 40
0.0
 40
0.18
 40
0.18
 40
0.18
 40
0.18
 40
0.18
 40
0.207136
 40
0.207136
 40
0.207136
 40
0.207136
 40
0.207136
 40
0.2312
 40
0.2312
 40
0.2312
 40
0.2312
 40
0.2312
 40
0.354848
 40
0.354848
 40
0.354848
 40
0.354848
 40
0.354848
 40
0.42161792
 40
0.42161792
 40
0.42161792
 40
0.42161792
 40
0.42161792
 40
0.4976195072
 40
0.4976195072
 40
0.4976195072
 40
0.4976195072
 40
0.4976195072
 40
0.4999999254134589
 40
0.4999999254134589
 40
0.4999999254134589
 40
0.4999999254134589
 40
0.4999999254134589
 40
0.645152
 40
0.645152
 40
0.645152
 40
0.645152
 40
0.645152
 40
0.7688
 40
0.7688
 40
0.7688
 40
0.7688
 40
0.7688
 40
0.792864
 40
0.792864
 40
0.792864
 40
0.792864
 40
0.792864
 40
0.82
 40
0.82
 40
0.82
 40
0.82
 40
0.82
 40
0.8229515128059041
 40
0.8229515128059041
 40
0.8229515128059041
 40
0.8229515128059041
 40
0.8229515128059041
 40
0.8229515128059041
 40
0.8229515128059041
 40
0.8229515128059041
 10
414.7762263987207
 20
518.0606299789886
 30
0.0
 10
414.7762267553902
 20
516.7531870215225
 30
0.0
 10
414.7762271120595
 20
515.4457440640565
 30
0.0
 10
414.7762274687201
 20
514.1383011272558
 30
0.0
 10
414.776227825392
 20
512.8308582206262
 30
0.0
 10
414.7762281821009
 20
511.5234153447465
 30
0.0
 10
414.7762285924952
 20
510.0188682201029
 30
0.0
 10
414.7762290027508
 20
508.514321114068
 30
0.0
 10
414.7756189204213
 20
508.3172235097537
 30
0.0
 10
414.7776753674577
 20
508.1200978010158
 30
0.0
 10
414.7748603458568
 20
507.9230204399824
 30
0.0
 10
414.7785921808432
 20
507.5510957293725
 30
0.0
 10
414.7724187086508
 20
507.1792439671253
 30
0.0
 10
414.7616814564449
 20
507.0045508452146
 30
0.0
 10
414.7516388009827
 20
506.8301216453987
 30
0.0
 10
414.7354558285532
 20
506.6559598075331
 30
0.0
 10
414.6166669400232
 20
505.58939433426
 30
0.0
 10
414.3587791997124
 20
504.5413286573624
 30
0.0
 10
414.049560070547
 20
503.6881725150448
 30
0.0
 10
413.6355633594186
 20
502.8802895453913
 30
0.0
 10
413.1477689463738
 20
502.116034503922
 30
0.0
 10
412.2694394018079
 20
501.0364883893695
 30
0.0
 10
411.2240779258894
 20
500.126996172224
 30
0.0
 10
410.8387858983482
 20
499.8301420416477
 30
0.0
 10
410.4368444854958
 20
499.556301089319
 30
0.0
 10
410.0198226239554
 20
499.3059317493548
 30
0.0
 10
409.0984760641083
 20
498.825811929653
 30
0.0
 10
408.1223383437126
 20
498.4684550822223
 30
0.0
 10
407.5900232823404
 20
498.3131218190051
 30
0.0
 10
407.0485904480159
 20
498.1984464602237
 30
0.0
 10
406.5007650028454
 20
498.1141805791826
 30
0.0
 10
405.9319941546509
 20
498.0671874607152
 30
0.0
 10
405.3626928449344
 20
498.0610040085033
 30
0.0
 10
405.3454030849676
 20
498.0608538144728
 30
0.0
 10
405.3281130267869
 20
498.060741170754
 30
0.0
 10
405.310822765592
 20
498.0606660348313
 30
0.0
 10
404.2392080151309
 20
498.0583313710255
 30
0.0
 10
403.1675426351707
 20
498.1997586100541
 30
0.0
 10
402.1346195182066
 20
498.4689312332291
 30
0.0
 10
401.1421550726611
 20
498.8742016877201
 30
0.0
 10
400.2173061140042
 20
499.4070486351407
 30
0.0
 10
398.644579373943
 20
500.5921012393411
 30
0.0
 10
397.4046977928529
 20
502.1160223890639
 30
0.0
 10
396.9169019929058
 20
502.880277356961
 30
0.0
 10
396.5029036747871
 20
503.6881602580651
 30
0.0
 10
396.1936831528796
 20
504.5413166963287
 30
0.0
 10
395.9357939134273
 20
505.5893829073604
 30
0.0
 10
395.8170037178425
 20
506.6559491088026
 30
0.0
 10
395.8008205423162
 20
506.8301110697484
 30
0.0
 10
395.7907776477593
 20
507.0045403992842
 30
0.0
 10
395.7800402818443
 20
507.1792336511342
 30
0.0
 10
395.7738662562382
 20
507.5510857074987
 30
0.0
 10
395.7775979876192
 20
507.923010721648
 30
0.0
 10
395.7747828966766
 20
508.120088238544
 30
0.0
 10
395.7768391643734
 20
508.3172141073464
 30
0.0
 10
395.7762290031545
 20
508.5143118687627
 30
0.0
 10
395.7762289435095
 20
508.7328548376295
 30
0.0
 10
395.7762288838674
 20
508.9513978061037
 30
0.0
 10
395.7762288780166
 20
508.9728363468743
 30
0.0
 10
395.776228872166
 20
508.9942748876411
 30
0.0
 10
395.7762288663154
 20
509.015713428404
 30
0.0
 10
395.7762288604647
 20
509.0371519691629
 30
0.0
 10
395.7762288546141
 20
509.0585905099178
 30
0.0
  0
SPLINE
  5
7E
330
7B
100
AcDbEntity
  8
0
  6
Continuous
 62
     0
370
    30
100
AcDbSpline
210
0.0
220
0.0
230
1.0
 70
     8
 71
     7
 72
    71
 73
    63
 74
     0
 42
0.000000001
 43
0.0
 40
0.1770177221907558
 40
0.1770177221907558
 40
0.1770177221907558
 40
0.1770177221907558
 40
0.1770177221907558
 40
0.1770177221907558
 40
0.1770177221907558
 40
0.1770177221907558
 40
0.18
 40
0.18
 40
0.18
 40
0.18
 40
0.18
 40
0.207136
 40
0.207136
 40
0.207136
 40
0.207136
 40
0.207136
 40
0.2312
 40
0.2312
 40
0.2312
 40
0.2312
 40
0.2312
 40
0.354848
 40
0.354848
 40
0.354848
 40
0.354848
 40
0.354848
 40
0.500000074586541
 40
0.500000074586541
 40
0.500000074586541
 40
0.500000074586541
 40
0.500000074586541
 40
0.5023804928
 40
0.5023804928
 40
0.5023804928
 40
0.5023804928
 40
0.5023804928
 40
0.57838208
 40
0.57838208
 40
0.57838208
 40
0.57838208
 40
0.57838208
 40
0.645152
 40
0.645152
 40
0.645152
 40
0.645152
 40
0.645152
 40
0.7688
 40
0.7688
 40
0.7688
 40
0.7688
 40
0.7688
 40
0.792864
 40
0.792864
 40
0.792864
 40
0.792864
 40
0.792864
 40
0.82
 40
0.82
 40
0.82
 40
0.82
 40
0.82
 40
1.0
 40
1.0
 40
1.0
 40
1.0
 40
1.0
 40
1.0
 40
1.0
 40
1.0
 10
395.776226398859
 20
527.0611000182774
 30
0.0
 10
395.7762263988612
 20
527.0827620230085
 30
0.0
 10
395.7762263988634
 20
527.1044240277437
 30
0.0
 10
395.7762263988657
 20
527.1260860324829
 30
0.0
 10
395.7762263988679
 20
527.1477480372262
 30
0.0
 10
395.7762263988702
 20
527.1694100419734
 30
0.0
 10
395.7762263988938
 20
527.3881764744556
 30
0.0
 10
395.7762263989204
 20
527.6069429073311
 30
0.0
 10
395.776836506371
 20
527.8040406689455
 30
0.0
 10
395.7747801848984
 20
528.0011665372188
 30
0.0
 10
395.7775952220782
 20
528.1982440549144
 30
0.0
 10
395.7738633892361
 20
528.5701690681054
 30
0.0
 10
395.780037313401
 20
528.9420211262141
 30
0.0
 10
395.7907746316596
 20
529.1167143810216
 30
0.0
 10
395.8008174786323
 20
529.2911437133253
 30
0.0
 10
395.8170006066472
 20
529.465305678714
 30
0.0
 10
395.9357905112728
 20
530.5318719127351
 30
0.0
 10
396.1936794648127
 20
531.5799381942904
 30
0.0
 10
396.5028997539792
 20
532.4330947170504
 30
0.0
 10
396.9168978517075
 20
533.2409777312279
 30
0.0
 10
397.4046934431659
 20
534.0052328323245
 30
0.0
 10
398.6445746085304
 20
535.5291543205464
 30
0.0
 10
400.2173010253093
 20
536.7142073539956
 30
0.0
 10
401.1421498386055
 20
537.2470545538113
 30
0.0
 10
402.1346141735933
 20
537.6523252791233
 30
0.0
 10
403.167537217127
 20
537.921498184135
 30
0.0
 10
404.2392025585058
 20
538.062925715549
 30
0.0
 10
405.3108173096038
 20
538.0605913440917
 30
0.0
 10
405.3281075708192
 20
538.060516212886
 30
0.0
 10
405.3453976290306
 20
538.0604035738841
 30
0.0
 10
405.3626873890384
 20
538.0602533845705
 30
0.0
 10
405.9319887004417
 20
538.0540700876695
 30
0.0
 10
406.5007595614559
 20
538.0070771243618
 30
0.0
 10
407.0485850296141
 20
537.9228113927603
 30
0.0
 10
407.590017895222
 20
537.8081361816696
 30
0.0
 10
408.1223329989692
 20
537.6528030636491
 30
0.0
 10
409.0984708168517
 20
537.2954464824625
 30
0.0
 10
410.0198175076753
 20
536.8153269140375
 30
0.0
 10
410.4368394375166
 20
536.5649576878013
 30
0.0
 10
410.8387809250727
 20
536.2911168450829
 30
0.0
 10
411.2240730335958
 20
535.994262819571
 30
0.0
 10
412.2694347576235
 20
535.0847708874659
 30
0.0
 10
413.1477645966896
 20
534.0052250123582
 30
0.0
 10
413.6355592182231
 20
533.2409701038418
 30
0.0
 10
414.0495561497418
 20
532.4330872470015
 30
0.0
 10
414.3587755116482
 20
531.5799311889052
 30
0.0
 10
414.616663537871
 20
530.5318655821939
 30
0.0
 10
414.73545271736
 20
529.465300141156
 30
0.0
 10
414.7516357373011
 20
529.2911383076773
 30
0.0
 10
414.7616784403474
 20
529.1167091105731
 30
0.0
 10
414.7724157402096
 20
528.9420159915636
 30
0.0
 10
414.778589313843
 20
528.5701642309407
 30
0.0
 10
414.7748575803178
 20
528.1982395192531
 30
0.0
 10
414.7776726556813
 20
528.0011621589557
 30
0.0
 10
414.7756162624209
 20
527.8040364496253
 30
0.0
 10
414.7762263985186
 20
527.6069388454456
 30
0.0
 10
414.7762263987033
 20
526.1023917391685
 30
0.0
 10
414.7762263987493
 20
524.5978446142828
 30
0.0
 10
414.7762263987107
 20
523.2904017381927
 30
0.0
 10
414.7762263987091
 20
521.9829588313527
 30
0.0
 10
414.7762263987189
 20
520.6755158943415
 30
0.0
 10
414.7762263987198
 20
519.3680729366649
 30
0.0
 10
414.7762263987207
 20
518.0606299789886
 30
0.0
  0
SPLINE
  5
7F
330
7B
100
AcDbEntity
  8
0
  6
Continuous
 62
     0
370
    30
100
AcDbSpline
210
0.0
220
0.0
230
1.0
 70
     8
 71
     3
 72
    72
 73
    68
 74
     0
 42
0.000000001
 43
0.0
 40
11.94644638553047
 40
11.94644638553047
 40
11.94644638553047
 40
11.94644638553047
 40
12.01676395909626
 40
12.19257971939
 40
12.36712063871648
 40
12.54020539356211
 40
12.71186557214175
 40
12.88239354689646
 40
13.05173202376742
 40
13.0854865927277
 40
13.21431617153803
 40
13.36141886783801
 40
13.46010095256004
 40
13.65897326732044
 40
13.85997727592521
 40
14.06331508878924
 40
14.26921769075057
 40
14.47763652134971
 40
14.69017411960274
 40
14.78374283049247
 40
14.88138920567232
 40
14.98360905728511
 40
15.08659997682971
 40
15.29501504870453
 40
15.50681559724993
 40
15.72231558834865
 40
16.16527099730289
 40
16.39334940939096
 40
16.62628404532121
 40
16.86442772470941
 40
17.10816897299954
 40
17.23226548418721
 40
17.35792098963184
 40
17.47518993201478
 40
17.54931533925755
 40
17.61401363274159
 40
17.74476119026098
 40
17.87737773605042
 40
18.01192155858999
 40
18.1484792128831
 40
18.42792032408763
 40
18.88429938120147
 40
19.48875420299911
 40
20.13417810457205
 40
20.91131910464988
 40
21.58474333574546
 40
22.01128095549751
 40
22.29404870731613
 40
22.57570771388816
 40
22.70833026215273
 40
22.83954114618212
 40
23.10715457553903
 40
23.23971165724518
 40
23.49706143393869
 40
23.70217888743813
 40
23.94183884262805
 40
24.27966081930079
 40
24.61737835869069
 40
24.95514287965565
 40
26.77640223752315
 40
28.59865608997048
 40
31.33025329400953
 40
34.06243089545871
 40
38.15811941861086
 40
42.25072400548179
 40
47.74382320801917
 40
53.22826536780227
 40
53.22826536780227
 40
53.22826536780227
 40
53.22826536780227
 10
399.9728113467108
 20
509.3958816938658
 30
0.0
 10
399.9728116787352
 20
509.3958822103246
 30
0.0
 10
399.9724864325966
 20
509.3960938625269
 30
0.0
 10
399.9701496572723
 20
509.397572437616
 30
0.0
 10
399.9629640461661
 20
509.4019931718573
 30
0.0
 10
399.9509367484572
 20
509.40926591198
 30
0.0
 10
399.9235809563309
 20
509.4253776197319
 30
0.0
 10
399.9127716267685
 20
509.4316661987882
 30
0.0
 10
399.8595777555131
 20
509.4617838162758
 30
0.0
 10
399.8966672918165
 20
509.4409848416335
 30
0.0
 10
399.9575962765734
 20
509.4074302256629
 30
0.0
 10
400.0280757676242
 20
509.36982161255
 30
0.0
 10
400.1119000929862
 20
509.3262013659699
 30
0.0
 10
400.204661206294
 20
509.2794636538072
 30
0.0
 10
400.314952389623
 20
509.2262107683434
 30
0.0
 10
400.4241650121209
 20
509.1757304719216
 30
0.0
 10
400.5311688213555
 20
509.1284041096096
 30
0.0
 10
400.6382657834099
 20
509.0831587413564
 30
0.0
 10
400.717844707249
 20
509.0510361235512
 30
0.0
 10
400.78515881562
 20
509.0247684685416
 30
0.0
 10
400.827663461274
 20
509.0085472658285
 30
0.0
 10
400.8656467128542
 20
508.9943606700421
 30
0.0
 10
400.9177319340255
 20
508.9753267046459
 30
0.0
 10
400.9798464503046
 20
508.9534176643625
 30
0.0
 10
401.05015394987
 20
508.9297414786437
 30
0.0
 10
401.1379353690764
 20
508.9015656218847
 30
0.0
 10
401.2136732827339
 20
508.879128675477
 30
0.0
 10
401.2747517522026
 20
508.8622932262905
 30
0.0
 10
401.3128706132979
 20
508.852336675729
 30
0.0
 10
401.3423472886852
 20
508.8450769887887
 30
0.0
 10
401.3571881302901
 20
508.8416119897718
 30
0.0
 10
401.3663488214393
 20
508.8395930328264
 30
0.0
 10
401.3625568239803
 20
508.8403826256862
 30
0.0
 10
401.381181053144
 20
508.83645831001
 30
0.0
 10
401.3635445632498
 20
508.8402263922379
 30
0.0
 10
401.3639853739483
 20
508.8400935679352
 30
0.0
 10
401.3562161204801
 20
508.8416636423435
 30
0.0
 10
401.3461522699739
 20
508.8435801768678
 30
0.0
 10
401.3317055153572
 20
508.8462613778902
 30
0.0
 10
401.3073615693522
 20
508.8506147533189
 30
0.0
 10
401.2566478147314
 20
508.8592452615476
 30
0.0
 10
401.1458046928958
 20
508.8764326432562
 30
0.0
 10
400.9440844315684
 20
508.9034895573619
 30
0.0
 10
400.6224139691352
 20
508.9392212681234
 30
0.0
 10
400.1995662491757
 20
508.9763032043635
 30
0.0
 10
399.7479760687783
 20
509.0058839595994
 30
0.0
 10
399.3802838211874
 20
509.0241980517586
 30
0.0
 10
399.102284101483
 20
509.0353719421291
 30
0.0
 10
398.8996966523102
 20
509.0420131961428
 30
0.0
 10
398.7367580555909
 20
509.0464792273947
 30
0.0
 10
398.578356903646
 20
509.0502643170695
 30
0.0
 10
398.4118390899689
 20
509.0533960081322
 30
0.0
 10
398.2054578211051
 20
509.0563480917091
 30
0.0
 10
398.0207484582751
 20
509.0580229275781
 30
0.0
 10
397.7913175329011
 20
509.0585755156825
 30
0.0
 10
397.529659162709
 20
509.0585289780841
 30
0.0
 10
397.2248966455944
 20
509.0585567821821
 30
0.0
 10
396.8870395804701
 20
509.058559627991
 30
0.0
 10
396.0548410492655
 20
509.0585843238393
 30
0.0
 10
394.7277057188921
 20
509.0586161278622
 30
0.0
 10
392.6026863457066
 20
509.0586731665204
 30
0.0
 10
390.1740033871372
 20
509.0587366685535
 30
0.0
 10
386.9875178632874
 20
509.0588194386444
 30
0.0
 10
383.3473600894388
 20
509.0589097987061
 30
0.0
 10
378.7868962685636
 20
509.0590132544497
 30
0.0
 10
373.7635141852503
 20
509.0591054270482
 30
0.0
 10
370.1043337561516
 20
509.0591564270882
 30
0.0
 10
368.2761863695958
 20
509.0591682692097
 30
0.0
  0
SPLINE
  5
80
330
7B
100
AcDbEntity
  8
0
  6
Continuous
 62
     0
370
    30
100
AcDbSpline
210
0.0
220
0.0
230
1.0
 70
     8
 71
     3
 72
    45
 73
    41
 74
     0
 42
0.000000001
 43
0.0
 40
17.62569964493942
 40
17.62569964493942
 40
17.62569964493942
 40
17.62569964493942
 40
17.68535586765971
 40
17.81476896836872
 40
17.94600766616827
 40
18.07915328343893
 40
18.35143479228072
 40
18.57545372598856
 40
18.922236394505
 40
19.04082857641068
 40
19.28273763012107
 40
19.53099691918569
 40
19.91595777196729
 40
20.31643424997584
 40
20.82130135245583
 40
21.08263134002603
 40
21.63458500400509
 40
21.91778877094706
 40
22.05889887276205
 40
22.48046775389458
 40
22.6127825350049
 40
22.74457958671087
 40
22.87535266917388
 40
23.00838601076905
 40
23.27359796864817
 40
23.52973857416232
 40
23.66457018055877
 40
23.81415052537088
 40
23.97924651930819
 40
24.14743764280806
 40
24.48374915010612
 40
24.82010794338284
 40
26.64127598824544
 40
28.46346050342277
 40
31.19490852347306
 40
33.92699119885868
 40
38.02249571014647
 40
42.11498970734355
 40
47.68100328038005
 40
53.23811697498566
 40
53.23811697498566
 40
53.23811697498566
 40
53.23811697498566
 10
401.3591538090623
 20
527.2786592691784
 30
0.0
 10
401.3591529964667
 20
527.2786631865306
 30
0.0
 10
401.3619886351295
 20
527.279265122079
 30
0.0
 10
401.3508431518012
 20
527.2770463125867
 30
0.0
 10
401.3401521907464
 20
527.275049669686
 30
0.0
 10
401.3186723573663
 20
527.2711181000964
 30
0.0
 10
401.2858020991812
 20
527.2654079041347
 30
0.0
 10
401.2274782890421
 20
527.2559252103472
 30
0.0
 10
401.1666523093368
 20
527.2467456259537
 30
0.0
 10
401.0932511712729
 20
527.2364059016479
 30
0.0
 10
401.0227366124201
 20
527.2269511606123
 30
0.0
 10
400.9074082589431
 20
527.2125481009475
 30
0.0
 10
400.7499905795182
 20
527.1946376252313
 30
0.0
 10
400.5220540862918
 20
527.1717567083876
 30
0.0
 10
400.2847616505481
 20
527.1513554320942
 30
0.0
 10
399.9891704433017
 20
527.1294728109882
 30
0.0
 10
399.7201883330454
 20
527.1126677857794
 30
0.0
 10
399.4620822223707
 20
527.099607730039
 30
0.0
 10
399.230873603138
 20
527.0892472111206
 30
0.0
 10
399.0330175169569
 20
527.0818389588569
 30
0.0
 10
398.8311431761074
 20
527.0757614762767
 30
0.0
 10
398.7131663826024
 20
527.0726069283994
 30
0.0
 10
398.5947587769165
 20
527.0698611635482
 30
0.0
 10
398.4307082603777
 20
527.0666149878352
 30
0.0
 10
398.2246630812465
 20
527.063433273293
 30
0.0
 10
398.020483558024
 20
527.0617314381075
 30
0.0
 10
397.8445823956841
 20
527.0612203165905
 30
0.0
 10
397.6950764735121
 20
527.0611303500993
 30
0.0
 10
397.5340457502252
 20
527.0611418456767
 30
0.0
 10
397.310872003856
 20
527.0611319862546
 30
0.0
 10
397.0305723279286
 20
527.0611283855621
 30
0.0
 10
396.1993011126631
 20
527.0611087402623
 30
0.0
 10
394.8727234080398
 20
527.0610810445037
 30
0.0
 10
392.7477928408039
 20
527.0610333243242
 30
0.0
 10
390.3192199605268
 20
527.060979557976
 30
0.0
 10
387.1328752747173
 20
527.0609098494525
 30
0.0
 10
383.4928480663391
 20
527.0608341771363
 30
0.0
 10
378.908177421442
 20
527.0607486122459
 30
0.0
 10
373.8363036496297
 20
527.0606755792077
 30
0.0
 10
370.1285945649404
 20
527.0606395514342
 30
0.0
 10
368.2762233334118
 20
527.0606347392179
 30
0.0
  0
LINE
  5
81
330
7B
100
AcDbEntity
  8
0
  6
Continuous
 62
     0
370
    30
100
AcDbLine
 10
142.276226
 20
518.058504
 30
0.0
 11
142.276229
 21
509.057677
 31
0.0
  0
SPLINE
  5
82
330
7B
100
AcDbEntity
  8
0
  6
Continuous
 62
     0
370
    30
100
AcDbSpline
210
0.0
220
0.0
230
1.0
 70
     8
 71
     7
 72
    71
 73
    63
 74
     0
 42
0.000000001
 43
0.0
 40
0.0
 40
0.0
 40
0.0
 40
0.0
 40
0.0
 40
0.0
 40
0.0
 40
0.0
 40
0.18
 40
0.18
 40
0.18
 40
0.18
 40
0.18
 40
0.207136
 40
0.207136
 40
0.207136
 40
0.207136
 40
0.207136
 40
0.2312
 40
0.2312
 40
0.2312
 40
0.2312
 40
0.2312
 40
0.354848
 40
0.354848
 40
0.354848
 40
0.354848
 40
0.354848
 40
0.42161792
 40
0.42161792
 40
0.42161792
 40
0.42161792
 40
0.42161792
 40
0.4976195072
 40
0.4976195072
 40
0.4976195072
 40
0.4976195072
 40
0.4976195072
 40
0.4999999254134589
 40
0.4999999254134589
 40
0.4999999254134589
 40
0.4999999254134589
 40
0.4999999254134589
 40
0.645152
 40
0.645152
 40
0.645152
 40
0.645152
 40
0.645152
 40
0.7688
 40
0.7688
 40
0.7688
 40
0.7688
 40
0.7688
 40
0.792864
 40
0.792864
 40
0.792864
 40
0.792864
 40
0.792864
 40
0.82
 40
0.82
 40
0.82
 40
0.82
 40
0.82
 40
0.8229515128059042
 40
0.8229515128059042
 40
0.8229515128059042
 40
0.8229515128059042
 40
0.8229515128059042
 40
0.8229515128059042
 40
0.8229515128059042
 40
0.8229515128059042
 10
95.77622639914601
 20
518.057677122081
 30
0.0
 10
95.7762260424766
 20
519.3651200795471
 30
0.0
 10
95.77622568580728
 20
520.672563037013
 30
0.0
 10
95.77622532914665
 20
521.9800059738137
 30
0.0
 10
95.77622497247475
 20
523.2874488804434
 30
0.0
 10
95.77622461576581
 20
524.594891756323
 30
0.0
 10
95.7762242053715
 20
526.0994388809667
 30
0.0
 10
95.7762237951159
 20
527.6039859870016
 30
0.0
 10
95.7768338774454
 20
527.8010835913158
 30
0.0
 10
95.77477743040909
 20
527.9982093000538
 30
0.0
 10
95.77759245200988
 20
528.1952866610872
 30
0.0
 10
95.77386061702354
 20
528.5672113716969
 30
0.0
 10
95.7800340892159
 20
528.9390631339443
 30
0.0
 10
95.79077134142184
 20
529.1137562558549
 30
0.0
 10
95.80081399688402
 20
529.2881854556708
 30
0.0
 10
95.81699696931356
 20
529.4623472935364
 30
0.0
 10
95.93578585784353
 20
530.5289127668095
 30
0.0
 10
96.19367359815429
 20
531.576978443707
 30
0.0
 10
96.50289272731973
 20
532.4301345860247
 30
0.0
 10
96.91688943844815
 20
533.2380175556782
 30
0.0
 10
97.40468385149288
 20
534.0022725971476
 30
0.0
 10
98.28301339605889
 20
535.0818187117
 30
0.0
 10
99.32837487197727
 20
535.9913109288455
 30
0.0
 10
99.7136668995185
 20
536.2881650594218
 30
0.0
 10
100.115608312371
 20
536.5620060117506
 30
0.0
 10
100.5326301739113
 20
536.8123753517148
 30
0.0
 10
101.4539767337584
 20
537.2924951714165
 30
0.0
 10
102.4301144541541
 20
537.6498520188472
 30
0.0
 10
102.9624295155263
 20
537.8051852820645
 30
0.0
 10
103.5038623498508
 20
537.9198606408459
 30
0.0
 10
104.0516877950214
 20
538.0041265218869
 30
0.0
 10
104.6204586432159
 20
538.0511196403544
 30
0.0
 10
105.1897599529323
 20
538.0573030925663
 30
0.0
 10
105.2070497128992
 20
538.0574532865967
 30
0.0
 10
105.2243397710799
 20
538.0575659303156
 30
0.0
 10
105.2416300322747
 20
538.0576410662381
 30
0.0
 10
106.3132447827359
 20
538.059975730044
 30
0.0
 10
107.384910162696
 20
537.9185484910155
 30
0.0
 10
108.4178332796601
 20
537.6493758678405
 30
0.0
 10
109.4102977252057
 20
537.2441054133494
 30
0.0
 10
110.3351466838625
 20
536.711258465929
 30
0.0
 10
111.9078734239237
 20
535.5262058617284
 30
0.0
 10
113.1477550050139
 20
534.0022847120057
 30
0.0
 10
113.635550804961
 20
533.2380297441085
 30
0.0
 10
114.0495491230796
 20
532.4301468430044
 30
0.0
 10
114.3587696449871
 20
531.5769904047407
 30
0.0
 10
114.6166588844394
 20
530.5289241937091
 30
0.0
 10
114.7354490800242
 20
529.4623579922669
 30
0.0
 10
114.7516322555505
 20
529.2881960313211
 30
0.0
 10
114.7616751501075
 20
529.1137667017854
 30
0.0
 10
114.7724125160225
 20
528.9390734499352
 30
0.0
 10
114.7785865416286
 20
528.5672213935709
 30
0.0
 10
114.7748548102475
 20
528.1952963794215
 30
0.0
 10
114.7776699011901
 20
527.9982188625256
 30
0.0
 10
114.7756136334934
 20
527.8010929937232
 30
0.0
 10
114.7762237947123
 20
527.6039952323068
 30
0.0
 10
114.7762238543573
 20
527.38545226344
 30
0.0
 10
114.7762239139994
 20
527.1669092949659
 30
0.0
 10
114.7762239198501
 20
527.1454707541952
 30
0.0
 10
114.7762239257008
 20
527.1240322134284
 30
0.0
 10
114.7762239315514
 20
527.1025936726656
 30
0.0
 10
114.7762239374021
 20
527.0811551319068
 30
0.0
 10
114.7762239432527
 20
527.0597165911519
 30
0.0
  0
SPLINE
  5
83
330
7B
100
AcDbEntity
  8
0
  6
Continuous
 62
     0
370
    30
100
AcDbSpline
210
0.0
220
0.0
230
1.0
 70
     8
 71
     7
 72
    71
 73
    63
 74
     0
 42
0.000000001
 43
0.0
 40
0.1770177221907558
 40
0.1770177221907558
 40
0.1770177221907558
 40
0.1770177221907558
 40
0.1770177221907558
 40
0.1770177221907558
 40
0.1770177221907558
 40
0.1770177221907558
 40
0.18
 40
0.18
 40
0.18
 40
0.18
 40
0.18
 40
0.207136
 40
0.207136
 40
0.207136
 40
0.207136
 40
0.207136
 40
0.2312
 40
0.2312
 40
0.2312
 40
0.2312
 40
0.2312
 40
0.354848
 40
0.354848
 40
0.354848
 40
0.354848
 40
0.354848
 40
0.500000074586541
 40
0.500000074586541
 40
0.500000074586541
 40
0.500000074586541
 40
0.500000074586541
 40
0.5023804928
 40
0.5023804928
 40
0.5023804928
 40
0.5023804928
 40
0.5023804928
 40
0.57838208
 40
0.57838208
 40
0.57838208
 40
0.57838208
 40
0.57838208
 40
0.645152
 40
0.645152
 40
0.645152
 40
0.645152
 40
0.645152
 40
0.7688
 40
0.7688
 40
0.7688
 40
0.7688
 40
0.7688
 40
0.792864
 40
0.792864
 40
0.792864
 40
0.792864
 40
0.792864
 40
0.82
 40
0.82
 40
0.82
 40
0.82
 40
0.82
 40
1.0
 40
1.0
 40
1.0
 40
1.0
 40
1.0
 40
1.0
 40
1.0
 40
1.0
 10
114.7762263990078
 20
509.0572070827923
 30
0.0
 10
114.7762263990056
 20
509.0355450780611
 30
0.0
 10
114.7762263990034
 20
509.0138830733259
 30
0.0
 10
114.7762263990011
 20
508.9922210685867
 30
0.0
 10
114.7762263989988
 20
508.9705590638434
 30
0.0
 10
114.7762263989965
 20
508.9488970590962
 30
0.0
 10
114.7762263989729
 20
508.730130626614
 30
0.0
 10
114.7762263989464
 20
508.5113641937385
 30
0.0
 10
114.7756162914957
 20
508.314266432124
 30
0.0
 10
114.7776726129684
 20
508.1171405638509
 30
0.0
 10
114.7748575757885
 20
507.9200630461551
 30
0.0
 10
114.7785894086307
 20
507.5481380329641
 30
0.0
 10
114.7724154844658
 20
507.1762859748554
 30
0.0
 10
114.7616781662071
 20
507.001592720048
 30
0.0
 10
114.7516353192345
 20
506.8271633877443
 30
0.0
 10
114.7354521912195
 20
506.6530014223556
 30
0.0
 10
114.6166622865939
 20
505.5864351883345
 30
0.0
 10
114.358773333054
 20
504.5383689067791
 30
0.0
 10
114.0495530438875
 20
503.6852123840192
 30
0.0
 10
113.6355549461593
 20
502.8773293698416
 30
0.0
 10
113.1477593547009
 20
502.1130742687451
 30
0.0
 10
111.9078781893364
 20
500.5891527805232
 30
0.0
 10
110.3351517725575
 20
499.4040997470739
 30
0.0
 10
109.4103029592613
 20
498.8712525472583
 30
0.0
 10
108.4178386242735
 20
498.4659818219463
 30
0.0
 10
107.3849155807397
 20
498.1968089169346
 30
0.0
 10
106.3132502393609
 20
498.0553813855205
 30
0.0
 10
105.2416354882629
 20
498.0577157569779
 30
0.0
 10
105.2243452270476
 20
498.0577908881835
 30
0.0
 10
105.2070551688361
 20
498.0579035271855
 30
0.0
 10
105.1897654088283
 20
498.058053716499
 30
0.0
 10
104.620464097425
 20
498.0642370134
 30
0.0
 10
104.0516932364109
 20
498.1112299767078
 30
0.0
 10
103.5038677682526
 20
498.1954957083092
 30
0.0
 10
102.9624349026447
 20
498.3101709193999
 30
0.0
 10
102.4301197988976
 20
498.4655040374204
 30
0.0
 10
101.453981981015
 20
498.822860618607
 30
0.0
 10
100.5326352901914
 20
499.302980187032
 30
0.0
 10
100.1156133603502
 20
499.5533494132682
 30
0.0
 10
99.713671872794
 20
499.8271902559866
 30
0.0
 10
99.32837976427096
 20
500.1240442814986
 30
0.0
 10
98.28301804024326
 20
501.0335362136037
 30
0.0
 10
97.40468820117718
 20
502.1130820887113
 30
0.0
 10
96.91689357964368
 20
502.8773369972277
 30
0.0
 10
96.50289664812496
 20
503.6852198540681
 30
0.0
 10
96.19367728621859
 20
504.5383759121643
 30
0.0
 10
95.9357892599957
 20
505.5864415188757
 30
0.0
 10
95.81700008050673
 20
506.6530069599135
 30
0.0
 10
95.80081706056569
 20
506.8271687933922
 30
0.0
 10
95.79077435751935
 20
507.0015979904964
 30
0.0
 10
95.78003705765711
 20
507.1762911095059
 30
0.0
 10
95.77386348402368
 20
507.5481428701289
 30
0.0
 10
95.77759521754894
 20
507.9200675818165
 30
0.0
 10
95.77478014218542
 20
508.1171449421138
 30
0.0
 10
95.77683653544582
 20
508.3142706514443
 30
0.0
 10
95.77622639934813
 20
508.5113682556239
 30
0.0
 10
95.77622639916342
 20
510.015915361901
 30
0.0
 10
95.77622639911749
 20
511.5204624867867
 30
0.0
 10
95.77622639915609
 20
512.8279053628769
 30
0.0
 10
95.77622639915765
 20
514.1353482697168
 30
0.0
 10
95.77622639914784
 20
515.4427912067281
 30
0.0
 10
95.77622639914694
 20
516.7502341644044
 30
0.0
 10
95.77622639914601
 20
518.057677122081
 30
0.0
  0
SPLINE
  5
84
330
7B
100
AcDbEntity
  8
0
  6
Continuous
 62
     0
370
    30
100
AcDbSpline
210
0.0
220
0.0
230
1.0
 70
     8
 71
     3
 72
    45
 73
    41
 74
     0
 42
0.000000001
 43
0.0
 40
17.62569964366005
 40
17.62569964366005
 40
17.62569964366005
 40
17.62569964366005
 40
17.68535586745348
 40
17.81476896814409
 40
17.94600766592438
 40
18.07915328317492
 40
18.35143479197418
 40
18.57545372567424
 40
18.9222363941783
 40
19.04082857607968
 40
19.28273762978132
 40
19.530996918837
 40
19.91595777160498
 40
20.31643424959987
 40
20.82130135206753
 40
21.08263133963193
 40
21.63458500360092
 40
21.91778877053812
 40
22.05889887235067
 40
22.48046775347541
 40
22.61278253458659
 40
22.74457958629362
 40
22.87535266874799
 40
23.00838601032878
 40
23.27359796822304
 40
23.52973857372919
 40
23.66457018006667
 40
23.81415052478743
 40
23.97924651866809
 40
24.14743764216683
 40
24.48374914945639
 40
24.82010794272462
 40
26.64127598758659
 40
28.46346050276354
 40
31.19490852281283
 40
33.92699119819773
 40
38.02249570948432
 40
42.11498970668067
 40
47.68100328015892
 40
53.23811697520477
 40
53.23811697520477
 40
53.23811697520477
 40
53.23811697520477
 10
109.1932989889213
 20
508.8396478319153
 30
0.0
 10
109.1932998015168
 20
508.8396439145632
 30
0.0
 10
109.1904641625653
 20
508.8390419789557
 30
0.0
 10
109.2016096460685
 20
508.841260788484
 30
0.0
 10
109.2123006070619
 20
508.8432574313724
 30
0.0
 10
109.2337804404385
 20
508.8471890009623
 30
0.0
 10
109.2666506985912
 20
508.8528991969188
 30
0.0
 10
109.3249745086983
 20
508.8623818907026
 30
0.0
 10
109.3858004883758
 20
508.8715614750932
 30
0.0
 10
109.4592016264115
 20
508.8819011993966
 30
0.0
 10
109.5297161852391
 20
508.8913559404303
 30
0.0
 10
109.6450445386802
 20
508.905759000093
 30
0.0
 10
109.8024622180617
 20
508.9236694758076
 30
0.0
 10
110.0303987112352
 20
508.9465503926503
 30
0.0
 10
110.2676911469324
 20
508.9669516689443
 30
0.0
 10
110.5632823541299
 20
508.988834290052
 30
0.0
 10
110.8322644643481
 20
509.005639315263
 30
0.0
 10
111.0903705749912
 20
509.0186993710063
 30
0.0
 10
111.3215791941982
 20
509.0290598899275
 30
0.0
 10
111.5194352803574
 20
509.0364681421937
 30
0.0
 10
111.7213096211951
 20
509.0425456247768
 30
0.0
 10
111.8392864146947
 20
509.0457001726559
 30
0.0
 10
111.9576940203588
 20
509.0484459375086
 30
0.0
 10
112.1217445368745
 20
509.0516921132236
 30
0.0
 10
112.3277897160135
 20
509.054873827769
 30
0.0
 10
112.5319692392074
 20
509.0565756629586
 30
0.0
 10
112.7078704014671
 20
509.0570867844779
 30
0.0
 10
112.8573763235626
 20
509.0571767509703
 30
0.0
 10
113.0184070468012
 20
509.0571652553928
 30
0.0
 10
113.2415807931478
 20
509.0571751148149
 30
0.0
 10
113.5218804690693
 20
509.0571787155073
 30
0.0
 10
114.3531516843291
 20
509.0571983608073
 30
0.0
 10
115.679729388949
 20
509.0572260565659
 30
0.0
 10
117.8046599561843
 20
509.0572737767454
 30
0.0
 10
120.2332328364607
 20
509.0573275430936
 30
0.0
 10
123.4195775222694
 20
509.057397251617
 30
0.0
 10
127.0596047306466
 20
509.0574729239332
 30
0.0
 10
131.6442753756904
 20
509.0575584888236
 30
0.0
 10
136.7161491477962
 20
509.0576315218619
 30
0.0
 10
140.4238582327796
 20
509.0576675496353
 30
0.0
 10
142.276229464455
 20
509.0576723618516
 30
0.0
  0
SPLINE
  5
85
330
7B
100
AcDbEntity
  8
0
  6
Continuous
 62
     0
370
    30
100
AcDbSpline
210
0.0
220
0.0
230
1.0
 70
     8
 71
     3
 72
    72
 73
    68
 74
     0
 42
0.000000001
 43
0.0
 40
11.94644638552849
 40
11.94644638552849
 40
11.94644638552849
 40
11.94644638552849
 40
12.01676395909717
 40
12.19257971939104
 40
12.36712063871766
 40
12.54020539356342
 40
12.71186557214319
 40
12.88239354689807
 40
13.05173202376916
 40
13.0854865927297
 40
13.21431617154053
 40
13.36141886784113
 40
13.46010095256411
 40
13.65897326732645
 40
13.85997727593254
 40
14.0633150887979
 40
14.26921769075987
 40
14.47763652136171
 40
14.69017411961613
 40
14.78374283051506
 40
14.88138920570755
 40
14.98360905733224
 40
15.08659997688816
 40
15.29501504878479
 40
15.50681559735283
 40
15.72231558847554
 40
16.16527099748006
 40
16.39334940959533
 40
16.6262840455543
 40
16.86442772497264
 40
17.1081689732941
 40
17.23226548449784
 40
17.35792098995891
 40
17.47518993183402
 40
17.54931533969394
 40
17.61401363318903
 40
17.74476119072609
 40
17.87737773653359
 40
18.01192155909396
 40
18.14847921340749
 40
18.42792032465478
 40
18.88429938178317
 40
19.48875420360034
 40
20.13417810519347
 40
20.91131910529032
 40
21.58474333639801
 40
22.01128095615642
 40
22.29404870797958
 40
22.57570771455638
 40
22.7083302628196
 40
22.83954114685158
 40
23.10715457622469
 40
23.23971165791914
 40
23.49706143461291
 40
23.70217888819722
 40
23.94183884349404
 40
24.27966082017267
 40
24.61737835957016
 40
24.95514288054271
 40
26.77640223841073
 40
28.59865609085843
 40
31.33025329489831
 40
34.06243089634803
 40
38.15811941950114
 40
42.25072400637266
 40
47.74382320850611
 40
53.22826536788661
 40
53.22826536788661
 40
53.22826536788661
 40
53.22826536788661
 10
110.5796414511561
 20
526.7224254072036
 30
0.0
 10
110.5796411191318
 20
526.7224248907447
 30
0.0
 10
110.5799663652704
 20
526.7222132385424
 30
0.0
 10
110.5823031405947
 20
526.7207346634534
 30
0.0
 10
110.5894887517009
 20
526.7163139292121
 30
0.0
 10
110.6015160494103
 20
526.7090411890891
 30
0.0
 10
110.6288718415345
 20
526.6929294813383
 30
0.0
 10
110.6396811710973
 20
526.6866409022819
 30
0.0
 10
110.6928750423541
 20
526.6565232847935
 30
0.0
 10
110.6557855060505
 20
526.6773222594359
 30
0.0
 10
110.5948565212928
 20
526.7108768754068
 30
0.0
 10
110.5243770302411
 20
526.7484854885204
 30
0.0
 10
110.4405527048791
 20
526.7921057351004
 30
0.0
 10
110.3477915915708
 20
526.8388434472633
 30
0.0
 10
110.2375004082404
 20
526.8920963327278
 30
0.0
 10
110.1282877857423
 20
526.9425766291496
 30
0.0
 10
110.0212839765047
 20
526.9899029914629
 30
0.0
 10
109.9141870144519
 20
527.0351483597152
 30
0.0
 10
109.8346080906109
 20
527.0672709775212
 30
0.0
 10
109.7672939822337
 20
527.093538632533
 30
0.0
 10
109.7247893365796
 20
527.109759835246
 30
0.0
 10
109.6868060849957
 20
527.1239464310338
 30
0.0
 10
109.6347208638202
 20
527.1429803964313
 30
0.0
 10
109.572606347535
 20
527.1648894367165
 30
0.0
 10
109.502298847964
 20
527.1885656224366
 30
0.0
 10
109.4145174287527
 20
527.2167414791966
 30
0.0
 10
109.3387795150929
 20
527.239178425604
 30
0.0
 10
109.277701045625
 20
527.2560138747895
 30
0.0
 10
109.2395821845387
 20
527.2659704253483
 30
0.0
 10
109.2101055091411
 20
527.2732301122901
 30
0.0
 10
109.1952646676001
 20
527.2766951112933
 30
0.0
 10
109.1861039763435
 20
527.2787140682607
 30
0.0
 10
109.1898959741563
 20
527.2779244753275
 30
0.0
 10
109.1712717439486
 20
527.2818487912198
 30
0.0
 10
109.1889082347519
 20
527.2780807088038
 30
0.0
 10
109.1884674238683
 20
527.2782135331447
 30
0.0
 10
109.196236677436
 20
527.2766434587163
 30
0.0
 10
109.2063005279222
 20
527.2747269241963
 30
0.0
 10
109.2207472825618
 20
527.2720457231699
 30
0.0
 10
109.2450912285826
 20
527.2676923477388
 30
0.0
 10
109.295804983237
 20
527.2590618395054
 30
0.0
 10
109.406648105122
 20
527.2418744577915
 30
0.0
 10
109.6083683665133
 20
527.2148175436812
 30
0.0
 10
109.9300388290229
 20
527.1790858329172
 30
0.0
 10
110.3528865490585
 20
527.1420038966778
 30
0.0
 10
110.8044767295176
 20
527.1124231414451
 30
0.0
 10
111.1721689771496
 20
527.0941090492897
 30
0.0
 10
111.4501686968797
 20
527.0829351589223
 30
0.0
 10
111.6527561460721
 20
527.0762939049112
 30
0.0
 10
111.8156947427976
 20
527.0718278736614
 30
0.0
 10
111.9740958947596
 20
527.0680427839887
 30
0.0
 10
112.1406137084583
 20
527.0649110929278
 30
0.0
 10
112.3469949773166
 20
527.061959009354
 30
0.0
 10
112.5317043401763
 20
527.0602841734882
 30
0.0
 10
112.7611352656494
 20
527.0597315853868
 30
0.0
 10
113.0227936359049
 20
527.0597781229856
 30
0.0
 10
113.3275561530606
 20
527.0597503188874
 30
0.0
 10
113.6654132181917
 20
527.0597474730785
 30
0.0
 10
114.4976117494016
 20
527.0597227772301
 30
0.0
 10
115.8247470797779
 20
527.0596909732074
 30
0.0
 10
117.9497664529639
 20
527.0596339345491
 30
0.0
 10
120.3784494115337
 20
527.059570432516
 30
0.0
 10
123.5649349353845
 20
527.059487662425
 30
0.0
 10
127.2050927092338
 20
527.0593973023635
 30
0.0
 10
131.7655565299748
 20
527.0592938466198
 30
0.0
 10
136.7889386130194
 20
527.0592016740213
 30
0.0
 10
140.4481190418493
 20
527.0591506739813
 30
0.0
 10
142.2762664282708
 20
527.0591388318599
 30
0.0
  0
LINE
  5
86
330
7B
100
AcDbEntity
  8
0
  6
Continuous
 62
     0
370
    30
100
AcDbLine
 10
368.276226
 20
527.059154
 30
0.0
 11
142.276226
 21
527.059154
 31
0.0
  0
LINE
  5
87
330
7B
100
AcDbEntity
  8
0
  6
Continuous
 62
     0
370
    30
100
AcDbLine
 10
368.276226
 20
518.059857
 30
0.0
 11
368.276226
 21
509.059154
 31
0.0
  0
LINE
  5
88
330
7B
100
AcDbEntity
  8
0
  6
Continuous
 62
     0
370
    30
100
AcDbLine
 10
142.276226
 20
527.059154
 30
0.0
 11
142.276226
 21
518.05845
 31
0.0
  0
LINE
  5
89
330
7B
100
AcDbEntity
  8
0
  6
Continuous
 62
     0
370
    30
100
AcDbLine
 10
368.276226
 20
509.059154
 30
0.0
 11
142.276226
 21
509.059154
 31
0.0
  0
ENDBLK
  5
8B
330
7B
100
AcDbEntity
  8
0
100
AcDbBlockEnd
  0
BLOCK
  5
9A
330
8D
100
AcDbEntity
  8
0
100
AcDbBlockBegin
  2
b
 70
     0
 10
185.615524
 20
351.11618
 30
0.0
  3
b
  1

  0
SPLINE
  5
8E
330
8D
100
AcDbEntity
  8
0
  6
Continuous
 62
     0
370
    30
100
AcDbSpline
210
0.0
220
0.0
230
1.0
 70
     8
 71
     3
 72
    21
 73
    17
 74
     0
 42
0.000000001
 43
0.0
 40
0.0
 40
0.0
 40
0.0
 40
0.0
 40
1.33596536861468
 40
3.65536308716327
 40
5.67964790609278
 40
7.873453421889209
 40
9.899165113329179
 40
12.0934334589125
 40
14.2873951391566
 40
16.4815854549223
 40
18.6761145571644
 40
20.7000813538452
 40
22.8921961922023
 40
24.9161949496415
 40
27.0101767250885
 40
28.2762551582517
 40
28.2762551582517
 40
28.2762551582517
 40
28.2762551582517
 10
368.2762187693386
 20
343.3900144375452
 30
0.0
 10
368.2762186479567
 20
343.3899812048539
 30
0.0
 10
368.2762183153217
 20
343.4802040702103
 30
0.0
 10
368.2762178145025
 20
344.0021563147714
 30
0.0
 10
368.276217294778
 20
345.0888210415793
 30
0.0
 10
368.276216877385
 20
346.5225660658912
 30
0.0
 10
368.2762165540628
 20
348.3182932429926
 30
0.0
 10
368.2762163531011
 20
350.3423331288157
 30
0.0
 10
368.2762162897222
 20
352.5406139264787
 30
0.0
 10
368.276216372948
 20
354.730094363082
 30
0.0
 10
368.2762165921417
 20
356.728120785953
 30
0.0
 10
368.2762169313605
 20
358.4826738419471
 30
0.0
 10
368.2762173611231
 20
359.8645507824469
 30
0.0
 10
368.2762178718752
 20
360.8525862565838
 30
0.0
 10
368.2762183485577
 20
361.3114087741409
 30
0.0
 10
368.2762186542907
 20
361.3900332489794
 30
0.0
 10
368.276218769331
 20
361.3900143818665
 30
0.0
  0
SPLINE
  5
8F
330
8D
100
AcDbEntity
  8
0
  6
Continuous
 62
     0
370
    30
100
AcDbSpline
210
0.0
220
0.0
230
1.0
 70
     8
 71
     7
 72
    71
 73
    63
 74
     0
 42
0.000000001
 43
0.0
 40
0.1666666666666667
 40
0.1666666666666667
 40
0.1666666666666667
 40
0.1666666666666667
 40
0.1666666666666667
 40
0.1666666666666667
 40
0.1666666666666667
 40
0.1666666666666667
 40
0.18
 40
0.18
 40
0.18
 40
0.18
 40
0.18
 40
0.207136
 40
0.207136
 40
0.207136
 40
0.207136
 40
0.207136
 40
0.2312
 40
0.2312
 40
0.2312
 40
0.2312
 40
0.2312
 40
0.354848
 40
0.354848
 40
0.354848
 40
0.354848
 40
0.354848
 40
0.500000074586541
 40
0.500000074586541
 40
0.500000074586541
 40
0.500000074586541
 40
0.500000074586541
 40
0.5023804928
 40
0.5023804928
 40
0.5023804928
 40
0.5023804928
 40
0.5023804928
 40
0.57838208
 40
0.57838208
 40
0.57838208
 40
0.57838208
 40
0.57838208
 40
0.645152
 40
0.645152
 40
0.645152
 40
0.645152
 40
0.645152
 40
0.7688
 40
0.7688
 40
0.7688
 40
0.7688
 40
0.7688
 40
0.792864
 40
0.792864
 40
0.792864
 40
0.792864
 40
0.792864
 40
0.82
 40
0.82
 40
0.82
 40
0.82
 40
0.82
 40
0.8333333333333334
 40
0.8333333333333334
 40
0.8333333333333334
 40
0.8333333333333334
 40
0.8333333333333334
 40
0.8333333333333334
 40
0.8333333333333334
 40
0.8333333333333334
 10
395.7762187694178
 20
427.3900207303711
 30
0.0
 10
395.7762187694252
 20
427.3900206355841
 30
0.0
 10
395.776218769433
 20
427.390020540797
 30
0.0
 10
395.7762187694414
 20
427.3900204460099
 30
0.0
 10
395.7762187694503
 20
427.3900203512229
 30
0.0
 10
395.7762187694597
 20
427.3900202564358
 30
0.0
 10
395.7762187694901
 20
427.3900199687382
 30
0.0
 10
395.7762187695258
 20
427.3900196810405
 30
0.0
 10
395.7768288769765
 20
427.3900194876678
 30
0.0
 10
395.7747725555038
 20
427.3900192963158
 30
0.0
 10
395.7775875926837
 20
427.3900191012692
 30
0.0
 10
395.7738557598415
 20
427.3900187401242
 30
0.0
 10
395.7800296840064
 20
427.3900183714417
 30
0.0
 10
395.7907670022651
 20
427.3900181922177
 30
0.0
 10
395.8008098492377
 20
427.3900180137854
 30
0.0
 10
395.8169929772527
 20
427.3900178308982
 30
0.0
 10
395.9357828818783
 20
427.3900166957782
 30
0.0
 10
396.1936718354182
 20
427.3900154719169
 30
0.0
 10
396.5028921245847
 20
427.3900143993886
 30
0.0
 10
396.9168902223129
 20
427.3900132906864
 30
0.0
 10
397.4046858137713
 20
427.390012167997
 30
0.0
 10
398.6445669791358
 20
427.3900097240976
 30
0.0
 10
400.2172933959147
 20
427.3900073561846
 30
0.0
 10
401.1421422092109
 20
427.3900061242612
 30
0.0
 10
402.1346065441987
 20
427.3900049652617
 30
0.0
 10
403.1675295877325
 20
427.3900039083861
 30
0.0
 10
404.2391949291113
 20
427.3900029467784
 30
0.0
 10
405.3108096802093
 20
427.3900021259126
 30
0.0
 10
405.3280999414246
 20
427.3900021127048
 30
0.0
 10
405.3453899996361
 20
427.3900020995338
 30
0.0
 10
405.3626797596439
 20
427.3900020863999
 30
0.0
 10
405.9319810710472
 20
427.3900016551483
 30
0.0
 10
406.5007519320613
 20
427.3900012642456
 30
0.0
 10
407.0485774002196
 20
427.3900009259115
 30
0.0
 10
407.5900102658275
 20
427.3900006222503
 30
0.0
 10
408.1223253695746
 20
427.3900003653857
 30
0.0
 10
409.0984631874572
 20
427.3899999653279
 30
0.0
 10
410.0198098782808
 20
427.3899997275083
 30
0.0
 10
410.4368318081221
 20
427.3899996522191
 30
0.0
 10
410.8387732956782
 20
427.3899996114859
 30
0.0
 10
411.2240654042013
 20
427.3899996060653
 30
0.0
 10
412.2694271282289
 20
427.3899996932213
 30
0.0
 10
413.147756967295
 20
427.3900000751169
 30
0.0
 10
413.6355515888285
 20
427.3900004484159
 30
0.0
 10
414.0495485203472
 20
427.3900009211015
 30
0.0
 10
414.3587678822536
 20
427.390001518581
 30
0.0
 10
414.6166559084765
 20
427.3900023462525
 30
0.0
 10
414.7354450879655
 20
427.3900032988776
 30
0.0
 10
414.7516281079065
 20
427.3900034569029
 30
0.0
 10
414.7616708109529
 20
427.3900036199066
 30
0.0
 10
414.7724081108151
 20
427.3900037826349
 30
0.0
 10
414.7785816844485
 20
427.3900041418326
 30
0.0
 10
414.7748499509233
 20
427.3900045087103
 30
0.0
 10
414.7776650262868
 20
427.390004699432
 30
0.0
 10
414.7756086330264
 20
427.3900048939431
 30
0.0
 10
414.7762187691241
 20
427.3900050863783
 30
0.0
 10
414.7762187691602
 20
427.3900053740758
 30
0.0
 10
414.776218769191
 20
427.3900056617732
 30
0.0
 10
414.7762187692006
 20
427.3900057565601
 30
0.0
 10
414.7762187692095
 20
427.3900058513471
 30
0.0
 10
414.7762187692181
 20
427.3900059461341
 30
0.0
 10
414.7762187692261
 20
427.390006040921
 30
0.0
 10
414.7762187692335
 20
427.390006135708
 30
0.0
  0
SPLINE
  5
90
330
8D
100
AcDbEntity
  8
0
  6
Continuous
 62
     0
370
    30
100
AcDbSpline
210
0.0
220
0.0
230
1.0
 70
     8
 71
     7
 72
   116
 73
   108
 74
     0
 42
0.000000001
 43
0.0
 40
0.0
 40
0.0
 40
0.0
 40
0.0
 40
0.0
 40
0.0
 40
0.0
 40
0.0
 40
0.4723920000000001
 40
0.4723920000000001
 40
0.4723920000000001
 40
0.4723920000000001
 40
0.4723920000000001
 40
0.5474578511451744
 40
0.5474578511451744
 40
0.5474578511451744
 40
0.5474578511451744
 40
0.5474578511451744
 40
0.5510656800000002
 40
0.5510656800000002
 40
0.5510656800000002
 40
0.5510656800000002
 40
0.5510656800000002
 40
0.5546004552000001
 40
0.5546004552000001
 40
0.5546004552000001
 40
0.5546004552000001
 40
0.5546004552000001
 40
0.5581352304000002
 40
0.5581352304000002
 40
0.5581352304000002
 40
0.5581352304000002
 40
0.5581352304000002
 40
0.5832000000000002
 40
0.5832000000000002
 40
0.5832000000000002
 40
0.5832000000000002
 40
0.5832000000000002
 40
0.6091372800000001
 40
0.6091372800000001
 40
0.6091372800000001
 40
0.6091372800000001
 40
0.6091372800000001
 40
0.6160320000000001
 40
0.6160320000000001
 40
0.6160320000000001
 40
0.6160320000000001
 40
0.6160320000000001
 40
0.6220205568000001
 40
0.6220205568000001
 40
0.6220205568000001
 40
0.6220205568000001
 40
0.6220205568000001
 40
0.6280091136000001
 40
0.6280091136000001
 40
0.6280091136000001
 40
0.6280091136000001
 40
0.6280091136000001
 40
0.6347462400000001
 40
0.6347462400000001
 40
0.6347462400000001
 40
0.6347462400000001
 40
0.6347462400000001
 40
0.6508254401510402
 40
0.6508254401510402
 40
0.6508254401510402
 40
0.6508254401510402
 40
0.6508254401510402
 40
0.6520357025280001
 40
0.6520357025280001
 40
0.6520357025280001
 40
0.6520357025280001
 40
0.6520357025280001
 40
0.6569122176000002
 40
0.6569122176000002
 40
0.6569122176000002
 40
0.6569122176000002
 40
0.6569122176000002
 40
0.7061206878720001
 40
0.7061206878720001
 40
0.7061206878720001
 40
0.7061206878720001
 40
0.7061206878720001
 40
0.7200000000000001
 40
0.7200000000000001
 40
0.7200000000000001
 40
0.7200000000000001
 40
0.7200000000000001
 40
0.7604838
 40
0.7604838
 40
0.7604838
 40
0.7604838
 40
0.7604838
 40
0.7636272480000001
 40
0.7636272480000001
 40
0.7636272480000001
 40
0.7636272480000001
 40
0.7636272480000001
 40
0.7676280000000001
 40
0.7676280000000001
 40
0.7676280000000001
 40
0.7676280000000001
 40
0.7676280000000001
 40
0.7788000000000002
 40
0.7788000000000002
 40
0.7788000000000002
 40
0.7788000000000002
 40
0.7788000000000002
 40
0.9609692269247103
 40
0.9609692269247103
 40
0.9609692269247103
 40
0.9609692269247103
 40
0.9609692269247103
 40
0.9609692269247103
 40
0.9609692269247103
 40
0.9609692269247103
 10
395.7762187693262
 20
427.3900144295686
 30
0.0
 10
395.8378532606602
 20
419.9938754571332
 30
0.0
 10
395.8994877519942
 20
412.5977364846977
 30
0.0
 10
395.9643915380053
 20
404.8092821503639
 30
0.0
 10
396.031535446091
 20
396.7520131666146
 30
0.0
 10
396.0977166119637
 20
388.8102732486259
 30
0.0
 10
396.1695301172154
 20
380.1926526040253
 30
0.0
 10
396.2341039185641
 20
372.4437964292378
 30
0.0
 10
396.2428172598645
 20
371.3981954714486
 30
0.0
 10
396.2513863747156
 20
370.3699016875979
 30
0.0
 10
396.2598094040986
 20
369.3591381599408
 30
0.0
 10
396.2684840523881
 20
368.3181803634657
 30
0.0
 10
396.2770001769323
 20
367.2962454164573
 30
0.0
 10
396.2773903774247
 20
367.2494213572905
 30
0.0
 10
396.2777802449715
 20
367.2026372516009
 30
0.0
 10
396.2781697798008
 20
367.1558930719992
 30
0.0
 10
396.2789403036812
 20
367.0634302061986
 30
0.0
 10
396.2797095254178
 20
366.9711235976528
 30
0.0
 10
396.2800898838578
 20
366.9254805847788
 30
0.0
 10
396.2804699238646
 20
366.8798757838859
 30
0.0
 10
396.2808496456913
 20
366.8343091646116
 30
0.0
 10
396.281608453509
 20
366.74325222633
 30
0.0
 10
396.2823659907423
 20
366.6523477581891
 30
0.0
 10
396.2824933667841
 20
366.6069318966697
 30
0.0
 10
396.2836479115551
 20
366.5615611145623
 30
0.0
 10
396.283127809705
 20
366.5162168363846
 30
0.0
 10
396.2896084458785
 20
366.1497219966218
 30
0.0
 10
396.2647773765873
 20
365.7854879807351
 30
0.0
 10
396.2194643337104
 20
365.4701587602809
 30
0.0
 10
396.1513323783752
 20
365.1607506037013
 30
0.0
 10
396.0613159952317
 20
364.8591499665829
 30
0.0
 10
395.8358613561463
 20
364.2648350416604
 30
0.0
 10
395.5294751450276
 20
363.7163482001113
 30
0.0
 10
395.3554002020418
 20
363.4521004298546
 30
0.0
 10
395.1579283865027
 20
363.1982096009637
 30
0.0
 10
394.9524662062483
 20
362.9682046365431
 30
0.0
 10
394.6671296915014
 20
362.6929770329583
 30
0.0
 10
394.3618017695702
 20
362.4478419745634
 30
0.0
 10
394.29685772714
 20
362.3977225100967
 30
0.0
 10
394.2311095178969
 20
362.3489561214211
 30
0.0
 10
394.1645340820944
 20
362.3015171164104
 30
0.0
 10
394.0386765336911
 20
362.2153994450435
 30
0.0
 10
393.9102093069009
 20
362.1340380976696
 30
0.0
 10
393.8499517788535
 20
362.0972542910914
 30
0.0
 10
393.789174420213
 20
362.0615132778524
 30
0.0
 10
393.7278993062262
 20
362.0268217368195
 30
0.0
 10
393.6043977415956
 20
361.9595498120038
 30
0.0
 10
393.4790818268945
 20
361.8965223671904
 30
0.0
 10
393.4159923628374
 20
361.86607530616
 30
0.0
 10
393.3524934666776
 20
361.8366998828376
 30
0.0
 10
393.2886071888338
 20
361.8084005159175
 30
0.0
 10
393.1520724317131
 20
361.750559203033
 30
0.0
 10
393.0139869141875
 20
361.6976094583408
 30
0.0
 10
392.9404794297566
 20
361.6709529726409
 30
0.0
 10
392.8665997215106
 20
361.6456760915707
 30
0.0
 10
392.7923788311136
 20
361.6217818369321
 30
0.0
 10
392.5399673969237
 20
361.5455501155354
 30
0.0
 10
392.2843494369514
 20
361.4852171612617
 30
0.0
 10
392.1030345977665
 20
361.4506136440577
 30
0.0
 10
391.9209568228781
 20
361.4239168111059
 30
0.0
 10
391.7385203863987
 20
361.4050936903972
 30
0.0
 10
391.542391191009
 20
361.3932592900336
 30
0.0
 10
391.3467482144402
 20
361.3903721557559
 30
0.0
 10
391.3330557333846
 20
361.3902130468273
 30
0.0
 10
391.319366041928
 20
361.3901059239877
 30
0.0
 10
391.3056790876511
 20
361.3900144074098
 30
0.0
 10
391.2368590915664
 20
361.3900144074098
 30
0.0
 10
391.1681186525285
 20
361.3900144074098
 30
0.0
 10
391.1130969481071
 20
361.3900144074098
 30
0.0
 10
391.0581256814815
 20
361.3900144074098
 30
0.0
 10
391.0032045366374
 20
361.3900144074098
 30
0.0
 10
390.3946314858199
 20
361.3900144074098
 30
0.0
 10
389.7921455089386
 20
361.3900144074098
 30
0.0
 10
389.2486930300745
 20
361.3900144074098
 30
0.0
 10
388.7096077744953
 20
361.3900144074098
 30
0.0
 10
388.1745342652408
 20
361.3900144074098
 30
0.0
 10
387.493220437048
 20
361.3900144074098
 30
0.0
 10
386.8173016061294
 20
361.3900144074098
 30
0.0
 10
386.6688523597551
 20
361.3900144074098
 30
0.0
 10
386.5206477669531
 20
361.3900144074098
 30
0.0
 10
386.372679570882
 20
361.3900144074098
 30
0.0
 10
385.7940046680968
 20
361.3900144074098
 30
0.0
 10
385.2187029514923
 20
361.3900144074098
 30
0.0
 10
384.7919457084097
 20
361.3900144074098
 30
0.0
 10
384.3666490925287
 20
361.3900144074098
 30
0.0
 10
383.9426097523312
 20
361.3900144074098
 30
0.0
 10
383.4867842119264
 20
361.3900144074098
 30
0.0
 10
383.031959433761
 20
361.3900144074098
 30
0.0
 10
382.9991933201603
 20
361.3900144074098
 30
0.0
 10
382.966432219307
 20
361.3900144074098
 30
0.0
 10
382.9336760400867
 20
361.3900144074098
 30
0.0
 10
382.8592411570867
 20
361.3900144074098
 30
0.0
 10
382.7848307573234
 20
361.3900144074098
 30
0.0
 10
382.7431684243167
 20
361.3900144074098
 30
0.0
 10
382.7015133955781
 20
361.3900144074098
 30
0.0
 10
382.6598654850198
 20
361.3900144074098
 30
0.0
 10
382.5019431165685
 20
361.3900144074098
 30
0.0
 10
382.3441177976151
 20
361.3900144074098
 30
0.0
 10
382.2279564544145
 20
361.3900144074098
 30
0.0
 10
382.1118397022933
 20
361.3900144074098
 30
0.0
 10
381.9957635794948
 20
361.3900144074098
 30
0.0
 10
379.9876000101843
 20
361.3900144074098
 30
0.0
 10
377.9892660541812
 20
361.3900144074098
 30
0.0
 10
376.0982900723017
 20
361.3900144074098
 30
0.0
 10
374.1851890412295
 20
361.3900144074098
 30
0.0
 10
372.2416736913102
 20
361.3900144074098
 30
0.0
 10
370.2680711098598
 20
361.390014407442
 30
0.0
 10
368.276218769331
 20
361.3900144074761
 30
0.0
  0
SPLINE
  5
91
330
8D
100
AcDbEntity
  8
0
  6
Continuous
 62
     0
370
    30
100
AcDbSpline
210
0.0
220
0.0
230
1.0
 70
     8
 71
     7
 72
   116
 73
   108
 74
     0
 42
0.000000001
 43
0.0
 40
0.0201561148593166
 40
0.0201561148593166
 40
0.0201561148593166
 40
0.0201561148593166
 40
0.0201561148593166
 40
0.0201561148593166
 40
0.0201561148593166
 40
0.0201561148593166
 40
0.2211999999999999
 40
0.2211999999999999
 40
0.2211999999999999
 40
0.2211999999999999
 40
0.2211999999999999
 40
0.2323719999999999
 40
0.2323719999999999
 40
0.2323719999999999
 40
0.2323719999999999
 40
0.2323719999999999
 40
0.2363727519999999
 40
0.2363727519999999
 40
0.2363727519999999
 40
0.2363727519999999
 40
0.2363727519999999
 40
0.2395161999999999
 40
0.2395161999999999
 40
0.2395161999999999
 40
0.2395161999999999
 40
0.2395161999999999
 40
0.2799999999999999
 40
0.2799999999999999
 40
0.2799999999999999
 40
0.2799999999999999
 40
0.2799999999999999
 40
0.2938793121279999
 40
0.2938793121279999
 40
0.2938793121279999
 40
0.2938793121279999
 40
0.2938793121279999
 40
0.3430877823999999
 40
0.3430877823999999
 40
0.3430877823999999
 40
0.3430877823999999
 40
0.3430877823999999
 40
0.3479642974719999
 40
0.3479642974719999
 40
0.3479642974719999
 40
0.3479642974719999
 40
0.3479642974719999
 40
0.3491745598489598
 40
0.3491745598489598
 40
0.3491745598489598
 40
0.3491745598489598
 40
0.3491745598489598
 40
0.3652537599999999
 40
0.3652537599999999
 40
0.3652537599999999
 40
0.3652537599999999
 40
0.3652537599999999
 40
0.3719908863999999
 40
0.3719908863999999
 40
0.3719908863999999
 40
0.3719908863999999
 40
0.3719908863999999
 40
0.3779794431999999
 40
0.3779794431999999
 40
0.3779794431999999
 40
0.3779794431999999
 40
0.3779794431999999
 40
0.3839679999999999
 40
0.3839679999999999
 40
0.3839679999999999
 40
0.3839679999999999
 40
0.3839679999999999
 40
0.3908627199999999
 40
0.3908627199999999
 40
0.3908627199999999
 40
0.3908627199999999
 40
0.3908627199999999
 40
0.4167999999999998
 40
0.4167999999999998
 40
0.4167999999999998
 40
0.4167999999999998
 40
0.4167999999999998
 40
0.4418647695999998
 40
0.4418647695999998
 40
0.4418647695999998
 40
0.4418647695999998
 40
0.4418647695999998
 40
0.4453995447999998
 40
0.4453995447999998
 40
0.4453995447999998
 40
0.4453995447999998
 40
0.4453995447999998
 40
0.4489343199999998
 40
0.4489343199999998
 40
0.4489343199999998
 40
0.4489343199999998
 40
0.4489343199999998
 40
0.4525421488548256
 40
0.4525421488548256
 40
0.4525421488548256
 40
0.4525421488548256
 40
0.4525421488548256
 40
0.5276079999999999
 40
0.5276079999999999
 40
0.5276079999999999
 40
0.5276079999999999
 40
0.5276079999999999
 40
1.0
 40
1.0
 40
1.0
 40
1.0
 40
1.0
 40
1.0
 40
1.0
 40
1.0
 10
368.2762187693386
 20
343.3900144626296
 30
0.0
 10
372.5542379649409
 20
343.3900144627502
 30
0.0
 10
376.8481545209484
 20
343.390014462971
 30
0.0
 10
381.185126153846
 20
343.390014462971
 30
0.0
 10
385.5701634382187
 20
343.390014462971
 30
0.0
 10
389.9918296981577
 20
343.390014462971
 30
0.0
 10
394.6744554061714
 20
343.390014462971
 30
0.0
 10
399.3428339695137
 20
343.390014462971
 30
0.0
 10
399.5885542850361
 20
343.3900144629711
 30
0.0
 10
399.8342257213519
 20
343.3900144629711
 30
0.0
 10
400.0798435122604
 20
343.390014462971
 30
0.0
 10
400.4133389405425
 20
343.390014462971
 30
0.0
 10
400.746717613188
 20
343.390014462971
 30
0.0
 10
400.8346144946579
 20
343.3905342023988
 30
0.0
 10
400.9225031457842
 20
343.3889685793561
 30
0.0
 10
401.0103824873981
 20
343.3906801825791
 30
0.0
 10
401.1672944660596
 20
343.3894673713777
 30
0.0
 10
401.3241766478846
 20
343.3904636957619
 30
0.0
 10
401.3931957504428
 20
343.3913296394485
 30
0.0
 10
401.4622025089234
 20
343.3926229828098
 30
0.0
 10
401.5311936393308
 20
343.3943435310105
 30
0.0
 10
402.4884444706311
 20
343.4241485707586
 30
0.0
 10
403.4414217834087
 20
343.5361477194614
 30
0.0
 10
404.3150543975262
 20
343.710294094271
 30
0.0
 10
405.1711054475405
 20
343.9531783345725
 30
0.0
 10
406.0029495434272
 20
344.2624219286288
 30
0.0
 10
407.0791720618455
 20
344.7625005353364
 30
0.0
 10
408.0904731942482
 20
345.3694406625757
 30
0.0
 10
408.3442080737337
 20
345.531205364401
 30
0.0
 10
408.5932666714918
 20
345.6996115669135
 30
0.0
 10
408.8374390782985
 20
345.8744833293579
 30
0.0
 10
409.9241904168024
 20
346.6979054945247
 30
0.0
 10
410.90188003444
 20
347.6471299310229
 30
0.0
 10
411.5895914196508
 20
348.4554935701284
 30
0.0
 10
412.1953744958222
 20
349.3220175092773
 30
0.0
 10
412.7139409833661
 20
350.2360294602963
 30
0.0
 10
413.184252730942
 20
351.2806417851771
 30
0.0
 10
413.5430275898808
 20
352.3558688858683
 30
0.0
 10
413.5744677740292
 20
352.4530537011015
 30
0.0
 10
413.6049981348725
 20
352.5504658516383
 30
0.0
 10
413.6346173882199
 20
352.6480945675696
 30
0.0
 10
413.670448982708
 20
352.7702098359766
 30
0.0
 10
413.7048578999798
 20
352.892628989605
 30
0.0
 10
413.7116433253187
 20
352.9169820112883
 30
0.0
 10
413.7183724765139
 20
352.9413467185265
 30
0.0
 10
413.725045340385
 20
352.9657229470825
 30
0.0
 10
413.8195676833056
 20
353.3141170283543
 30
0.0
 10
413.9025978279031
 20
353.6647953961042
 30
0.0
 10
413.9698483416474
 20
353.9925170638807
 30
0.0
 10
414.0271232690798
 20
354.3214463569548
 30
0.0
 10
414.0744340081948
 20
354.6512033128363
 30
0.0
 10
414.1274716184245
 20
355.11976903108
 30
0.0
 10
414.1606044604963
 20
355.5885014148442
 30
0.0
 10
414.1686559167295
 20
355.726894450623
 30
0.0
 10
414.1749796046316
 20
355.8652478361481
 30
0.0
 10
414.1795802026724
 20
356.0035347677499
 30
0.0
 10
414.1850253558389
 20
356.2645676645508
 30
0.0
 10
414.1843618374852
 20
356.5251745225875
 30
0.0
 10
414.1887804689089
 20
356.6476664988652
 30
0.0
 10
414.1866831150475
 20
356.770106699374
 30
0.0
 10
414.1887386837905
 20
356.8924040479711
 30
0.0
 10
414.1907753157841
 20
357.1367998876124
 30
0.0
 10
414.1928083209804
 20
357.3807605115683
 30
0.0
 10
414.1938239119946
 20
357.5026314334729
 30
0.0
 10
414.1948385865945
 20
357.6243923856767
 30
0.0
 10
414.1958523400057
 20
357.7460427952097
 30
0.0
 10
414.198031251807
 20
358.0075122118126
 30
0.0
 10
414.2002058567934
 20
358.2684648106125
 30
0.0
 10
414.2013683956147
 20
358.4079694694014
 30
0.0
 10
414.2025296868194
 20
358.5473244142022
 30
0.0
 10
414.2036897235004
 20
358.686528816143
 30
0.0
 10
414.2092077013848
 20
359.3486861633717
 30
0.0
 10
414.2146969260177
 20
360.0073931204157
 30
0.0
 10
414.2190151122393
 20
360.5255754678787
 30
0.0
 10
414.2233146625499
 20
361.0415215060067
 30
0.0
 10
414.2275952656355
 20
361.555193877134
 30
0.0
 10
414.235974655605
 20
362.5607206751521
 30
0.0
 10
414.2442786744909
 20
363.557202943108
 30
0.0
 10
414.2483412162442
 20
364.0447079543151
 30
0.0
 10
414.2523851093721
 20
364.5299751304797
 30
0.0
 10
414.2564101677831
 20
365.0129821406028
 30
0.0
 10
414.2609811892933
 20
365.5615047227371
 30
0.0
 10
414.2655273087491
 20
366.1070390583411
 30
0.0
 10
414.2660888079108
 20
366.1744189578594
 30
0.0
 10
414.2666499259415
 20
366.2417531216467
 30
0.0
 10
414.2672106624919
 20
366.3090415078149
 30
0.0
 10
414.2683313719566
 20
366.4435266437983
 30
0.0
 10
414.2694505528415
 20
366.577828350205
 30
0.0
 10
414.2700097608121
 20
366.6449333067965
 30
0.0
 10
414.2705685859954
 20
366.7119923288984
 30
0.0
 10
414.2711270280868
 20
366.7790053799824
 30
0.0
 10
414.2722546789711
 20
366.9143234863276
 30
0.0
 10
414.2733807633082
 20
367.0494536069992
 30
0.0
 10
414.273949164212
 20
367.1176617155658
 30
0.0
 10
414.2745171648393
 20
367.1858217909545
 30
0.0
 10
414.2750847649155
 20
367.2539338002144
 30
0.0
 10
414.2874533264876
 20
368.7381611913335
 30
0.0
 10
414.299631175679
 20
370.1995030967379
 30
0.0
 10
414.3110747038772
 20
371.5727264828098
 30
0.0
 10
414.3223424835948
 20
372.924860051166
 30
0.0
 10
414.3334367513288
 20
374.2561721814603
 30
0.0
 10
414.4131119728993
 20
383.8171987858337
 30
0.0
 10
414.48407745093
 20
392.333056163693
 30
0.0
 10
414.5402420543075
 20
399.0728085802043
 30
0.0
 10
414.5952484283039
 20
405.6735734707561
 30
0.0
 10
414.6529497866574
 20
412.5977364846977
 30
0.0
 10
414.7145842779918
 20
419.9938754571331
 30
0.0
 10
414.7762187693262
 20
427.3900144295685
 30
0.0
  0
SPLINE
  5
92
330
8D
100
AcDbEntity
  8
0
  6
Continuous
 62
     0
370
    30
100
AcDbSpline
210
0.0
220
0.0
230
1.0
 70
     8
 71
     3
 72
    21
 73
    17
 74
     0
 42
0.000000001
 43
0.0
 40
0.0
 40
0.0
 40
0.0
 40
0.0
 40
1.3358245375068
 40
3.6554645515445
 40
5.680419884515421
 40
7.874989878898529
 40
9.90004817234606
 40
12.0939316520475
 40
14.2881205967379
 40
16.4823755371708
 40
18.6760853374277
 40
20.6995646240973
 40
22.8920289146698
 40
24.9170064395778
 40
27.0113544874755
 40
28.2762282688505
 40
28.2762282688505
 40
28.2762282688505
 40
28.2762282688505
 10
142.2762187697467
 20
361.3900143819405
 30
0.0
 10
142.2762186483801
 20
361.3900426941969
 30
0.0
 10
142.2762183157442
 20
361.2998268337052
 30
0.0
 10
142.27621781486
 20
360.7776668997736
 30
0.0
 10
142.2762172950385
 20
359.6904749918155
 30
0.0
 10
142.2762168776752
 20
358.2562287590126
 30
0.0
 10
142.2762165544021
 20
356.4605217838657
 30
0.0
 10
142.2762163534558
 20
354.43674559112
 30
0.0
 10
142.27621629014
 20
352.2384551524224
 30
0.0
 10
142.2762163734227
 20
350.0491974887073
 30
0.0
 10
142.2762165925373
 20
348.051524605441
 30
0.0
 10
142.2762169316693
 20
346.2971282402562
 30
0.0
 10
142.2762173615121
 20
344.9151356174377
 30
0.0
 10
142.2762178724346
 20
343.9270461032184
 30
0.0
 10
142.2762183491522
 20
343.4685263275338
 30
0.0
 10
142.276218654808
 20
343.3899909328375
 30
0.0
 10
142.2762187697391
 20
343.3900144376019
 30
0.0
  0
SPLINE
  5
93
330
8D
100
AcDbEntity
  8
0
  6
Continuous
 62
     0
370
    30
100
AcDbSpline
210
0.0
220
0.0
230
1.0
 70
     8
 71
     7
 72
    71
 73
    63
 74
     0
 42
0.000000001
 43
0.0
 40
0.1666666666666667
 40
0.1666666666666667
 40
0.1666666666666667
 40
0.1666666666666667
 40
0.1666666666666667
 40
0.1666666666666667
 40
0.1666666666666667
 40
0.1666666666666667
 40
0.18
 40
0.18
 40
0.18
 40
0.18
 40
0.18
 40
0.207136
 40
0.207136
 40
0.207136
 40
0.207136
 40
0.207136
 40
0.2312
 40
0.2312
 40
0.2312
 40
0.2312
 40
0.2312
 40
0.354848
 40
0.354848
 40
0.354848
 40
0.354848
 40
0.354848
 40
0.42161792
 40
0.42161792
 40
0.42161792
 40
0.42161792
 40
0.42161792
 40
0.4976195072
 40
0.4976195072
 40
0.4976195072
 40
0.4976195072
 40
0.4976195072
 40
0.4999999254134589
 40
0.4999999254134589
 40
0.4999999254134589
 40
0.4999999254134589
 40
0.4999999254134589
 40
0.645152
 40
0.645152
 40
0.645152
 40
0.645152
 40
0.645152
 40
0.7688
 40
0.7688
 40
0.7688
 40
0.7688
 40
0.7688
 40
0.792864
 40
0.792864
 40
0.792864
 40
0.792864
 40
0.792864
 40
0.82
 40
0.82
 40
0.82
 40
0.82
 40
0.82
 40
0.8333333333333334
 40
0.8333333333333334
 40
0.8333333333333334
 40
0.8333333333333334
 40
0.8333333333333334
 40
0.8333333333333334
 40
0.8333333333333334
 40
0.8333333333333334
 10
95.77621645809215
 20
427.3900219827212
 30
0.0
 10
95.7762164316796
 20
427.3900220690414
 30
0.0
 10
95.77621640526755
 20
427.3900221553617
 30
0.0
 10
95.77621637885602
 20
427.3900222416819
 30
0.0
 10
95.77621635244503
 20
427.3900223280022
 30
0.0
 10
95.77621632603459
 20
427.3900224143225
 30
0.0
 10
95.77621624587532
 20
427.3900226763217
 30
0.0
 10
95.77621616572137
 20
427.390022938321
 30
0.0
 10
95.77682624805087
 20
427.3900231144627
 30
0.0
 10
95.77476980101456
 20
427.3900232885812
 30
0.0
 10
95.77758482261537
 20
427.3900234663986
 30
0.0
 10
95.77385298762901
 20
427.3900237950286
 30
0.0
 10
95.78002645982137
 20
427.3900241312022
 30
0.0
 10
95.79076371202733
 20
427.3900242951538
 30
0.0
 10
95.80080636748949
 20
427.3900244583368
 30
0.0
 10
95.81698933991903
 20
427.390024625998
 30
0.0
 10
95.935778228449
 20
427.3900256678744
 30
0.0
 10
96.19366596875976
 20
427.3900268001094
 30
0.0
 10
96.5028850979252
 20
427.3900277980511
 30
0.0
 10
96.91688180905363
 20
427.3900288361248
 30
0.0
 10
97.40467622209835
 20
427.3900298919999
 30
0.0
 10
98.28300576666436
 20
427.3900315288797
 30
0.0
 10
99.32836724258274
 20
427.3900331424945
 30
0.0
 10
99.71365927012397
 20
427.3900337030389
 30
0.0
 10
100.1156006829764
 20
427.3900342558608
 30
0.0
 10
100.5326225445168
 20
427.3900347993463
 30
0.0
 10
101.4539691043639
 20
427.3900359350005
 30
0.0
 10
102.4301068247596
 20
427.3900370033235
 30
0.0
 10
102.9624218861318
 20
427.3900375506647
 30
0.0
 10
103.5038547204563
 20
427.3900380687712
 30
0.0
 10
104.0516801656268
 20
427.3900385646842
 30
0.0
 10
104.6204510138214
 20
427.390039043465
 30
0.0
 10
105.1897523235378
 20
427.3900394862796
 30
0.0
 10
105.2070420835046
 20
427.3900394996945
 30
0.0
 10
105.2243321416854
 20
427.390039513076
 30
0.0
 10
105.2416224028802
 20
427.3900395264243
 30
0.0
 10
106.3132371533413
 20
427.3900403516557
 30
0.0
 10
107.3849025333015
 20
427.390041048791
 30
0.0
 10
108.4178256502656
 20
427.3900416023073
 30
0.0
 10
109.4102900958111
 20
427.3900420034417
 30
0.0
 10
110.335139054468
 20
427.390042238929
 30
0.0
 10
111.9078657945292
 20
427.3900423907664
 30
0.0
 10
113.1477473756193
 20
427.3900419848985
 30
0.0
 10
113.6355431755664
 20
427.3900416784137
 30
0.0
 10
114.049541493685
 20
427.3900412763564
 30
0.0
 10
114.3587620155926
 20
427.3900407534628
 30
0.0
 10
114.6166512550449
 20
427.3900400174165
 30
0.0
 10
114.7354414506297
 20
427.3900391580335
 30
0.0
 10
114.751624626156
 20
427.3900390152339
 30
0.0
 10
114.7616675207129
 20
427.3900388674794
 30
0.0
 10
114.7724048866279
 20
427.3900387200231
 30
0.0
 10
114.778578912234
 20
427.3900383933339
 30
0.0
 10
114.774847180853
 20
427.3900380589706
 30
0.0
 10
114.7776622717956
 20
427.3900378854778
 30
0.0
 10
114.7756060040988
 20
427.3900377082
 30
0.0
 10
114.7762161653177
 20
427.3900375329954
 30
0.0
 10
114.7762162455435
 20
427.3900372709959
 30
0.0
 10
114.776216325764
 20
427.3900370089965
 30
0.0
 10
114.7762163521935
 20
427.3900369226761
 30
0.0
 10
114.7762163786224
 20
427.3900368363558
 30
0.0
 10
114.7762164050508
 20
427.3900367500354
 30
0.0
 10
114.7762164314787
 20
427.3900366637151
 30
0.0
 10
114.7762164579061
 20
427.3900365773948
 30
0.0
  0
SPLINE
  5
94
330
8D
100
AcDbEntity
  8
0
  6
Continuous
 62
     0
370
    30
100
AcDbSpline
210
0.0
220
0.0
230
1.0
 70
     8
 71
     7
 72
   116
 73
   108
 74
     0
 42
0.000000001
 43
0.0
 40
0.0
 40
0.0
 40
0.0
 40
0.0
 40
0.0
 40
0.0
 40
0.0
 40
0.0
 40
0.4723920000000001
 40
0.4723920000000001
 40
0.4723920000000001
 40
0.4723920000000001
 40
0.4723920000000001
 40
0.5474578511451744
 40
0.5474578511451744
 40
0.5474578511451744
 40
0.5474578511451744
 40
0.5474578511451744
 40
0.5510656800000002
 40
0.5510656800000002
 40
0.5510656800000002
 40
0.5510656800000002
 40
0.5510656800000002
 40
0.5546004552000001
 40
0.5546004552000001
 40
0.5546004552000001
 40
0.5546004552000001
 40
0.5546004552000001
 40
0.5581352304000002
 40
0.5581352304000002
 40
0.5581352304000002
 40
0.5581352304000002
 40
0.5581352304000002
 40
0.5832000000000002
 40
0.5832000000000002
 40
0.5832000000000002
 40
0.5832000000000002
 40
0.5832000000000002
 40
0.6091372800000001
 40
0.6091372800000001
 40
0.6091372800000001
 40
0.6091372800000001
 40
0.6091372800000001
 40
0.6160320000000001
 40
0.6160320000000001
 40
0.6160320000000001
 40
0.6160320000000001
 40
0.6160320000000001
 40
0.6220205568000001
 40
0.6220205568000001
 40
0.6220205568000001
 40
0.6220205568000001
 40
0.6220205568000001
 40
0.6280091136000001
 40
0.6280091136000001
 40
0.6280091136000001
 40
0.6280091136000001
 40
0.6280091136000001
 40
0.6347462400000001
 40
0.6347462400000001
 40
0.6347462400000001
 40
0.6347462400000001
 40
0.6347462400000001
 40
0.6508254401510402
 40
0.6508254401510402
 40
0.6508254401510402
 40
0.6508254401510402
 40
0.6508254401510402
 40
0.6520357025280001
 40
0.6520357025280001
 40
0.6520357025280001
 40
0.6520357025280001
 40
0.6520357025280001
 40
0.6569122176000002
 40
0.6569122176000002
 40
0.6569122176000002
 40
0.6569122176000002
 40
0.6569122176000002
 40
0.7061206878720001
 40
0.7061206878720001
 40
0.7061206878720001
 40
0.7061206878720001
 40
0.7061206878720001
 40
0.7200000000000001
 40
0.7200000000000001
 40
0.7200000000000001
 40
0.7200000000000001
 40
0.7200000000000001
 40
0.7604838
 40
0.7604838
 40
0.7604838
 40
0.7604838
 40
0.7604838
 40
0.7636272480000001
 40
0.7636272480000001
 40
0.7636272480000001
 40
0.7636272480000001
 40
0.7636272480000001
 40
0.7676280000000001
 40
0.7676280000000001
 40
0.7676280000000001
 40
0.7676280000000001
 40
0.7676280000000001
 40
0.7788000000000002
 40
0.7788000000000002
 40
0.7788000000000002
 40
0.7788000000000002
 40
0.7788000000000002
 40
0.9609692269247103
 40
0.9609692269247103
 40
0.9609692269247103
 40
0.9609692269247103
 40
0.9609692269247103
 40
0.9609692269247103
 40
0.9609692269247103
 40
0.9609692269247103
 10
114.7762187697515
 20
427.3900144296975
 30
0.0
 10
114.7145842784175
 20
419.993875457262
 30
0.0
 10
114.6529497870835
 20
412.5977364848267
 30
0.0
 10
114.5880460010724
 20
404.8092821504928
 30
0.0
 10
114.5209020929867
 20
396.7520131667435
 30
0.0
 10
114.454720927114
 20
388.8102732487548
 30
0.0
 10
114.3829074218623
 20
380.1926526041543
 30
0.0
 10
114.3183336205136
 20
372.4437964293668
 30
0.0
 10
114.3096202792132
 20
371.3981954715775
 30
0.0
 10
114.3010511643621
 20
370.3699016877269
 30
0.0
 10
114.292628134979
 20
369.3591381600697
 30
0.0
 10
114.2839534866896
 20
368.3181803635948
 30
0.0
 10
114.2754373621454
 20
367.2962454165863
 30
0.0
 10
114.275047161653
 20
367.2494213574196
 30
0.0
 10
114.2746572941062
 20
367.2026372517299
 30
0.0
 10
114.2742677592769
 20
367.1558930721282
 30
0.0
 10
114.2734972353965
 20
367.0634302063277
 30
0.0
 10
114.2727280136599
 20
366.9711235977818
 30
0.0
 10
114.2723476552199
 20
366.9254805849077
 30
0.0
 10
114.2719676152131
 20
366.8798757840149
 30
0.0
 10
114.2715878933864
 20
366.8343091647406
 30
0.0
 10
114.2708290855687
 20
366.743252226459
 30
0.0
 10
114.2700715483354
 20
366.6523477583181
 30
0.0
 10
114.2699441722936
 20
366.6069318967988
 30
0.0
 10
114.2687896275225
 20
366.5615611146913
 30
0.0
 10
114.2693097293727
 20
366.5162168365136
 30
0.0
 10
114.2628290931992
 20
366.1497219967508
 30
0.0
 10
114.2876601624903
 20
365.7854879808641
 30
0.0
 10
114.3329732053673
 20
365.47015876041
 30
0.0
 10
114.4011051607025
 20
365.1607506038303
 30
0.0
 10
114.491121543846
 20
364.859149966712
 30
0.0
 10
114.7165761829314
 20
364.2648350417894
 30
0.0
 10
115.0229623940501
 20
363.7163482002402
 30
0.0
 10
115.1970373370358
 20
363.4521004299839
 30
0.0
 10
115.394509152575
 20
363.198209601092
 30
0.0
 10
115.5999713328294
 20
362.9682046366726
 30
0.0
 10
115.8853078475763
 20
362.6929770330875
 30
0.0
 10
116.1906357695075
 20
362.447841974691
 30
0.0
 10
116.2555798119377
 20
362.3977225102239
 30
0.0
 10
116.3213280211808
 20
362.3489561215478
 30
0.0
 10
116.3879034569833
 20
362.3015171165366
 30
0.0
 10
116.5137610053866
 20
362.2153994451687
 30
0.0
 10
116.6422282321768
 20
362.1340380977935
 30
0.0
 10
116.7024857602242
 20
362.0972542912147
 30
0.0
 10
116.7632631188647
 20
362.061513277975
 30
0.0
 10
116.8245382328515
 20
362.0268217369414
 30
0.0
 10
116.9480397974821
 20
361.9595498121241
 30
0.0
 10
117.0733557121832
 20
361.8965223673091
 30
0.0
 10
117.1364451762403
 20
361.8660753062778
 30
0.0
 10
117.1999440724001
 20
361.8366998829545
 30
0.0
 10
117.2638303502439
 20
361.8084005160334
 30
0.0
 10
117.4003651073646
 20
361.7505592031468
 30
0.0
 10
117.5384506248902
 20
361.6976094584523
 30
0.0
 10
117.6119581093211
 20
361.6709529727513
 30
0.0
 10
117.685837817567
 20
361.6456760916798
 30
0.0
 10
117.760058707964
 20
361.6217818370399
 30
0.0
 10
118.012470142154
 20
361.5455501156385
 30
0.0
 10
118.2680881021263
 20
361.4852171613596
 30
0.0
 10
118.4494029413112
 20
361.4506136441518
 30
0.0
 10
118.6314807161996
 20
361.4239168111958
 30
0.0
 10
118.813917152679
 20
361.4050936904828
 30
0.0
 10
119.0100463480687
 20
361.3932592901143
 30
0.0
 10
119.2056893246375
 20
361.3903721558315
 30
0.0
 10
119.2193818056931
 20
361.390213046902
 30
0.0
 10
119.2330714971497
 20
361.3901059240636
 30
0.0
 10
119.2467584514266
 20
361.3900144074838
 30
0.0
 10
119.3155784475113
 20
361.3900144074838
 30
0.0
 10
119.3843188865492
 20
361.3900144074838
 30
0.0
 10
119.4393405909706
 20
361.3900144074838
 30
0.0
 10
119.4943118575962
 20
361.3900144074838
 30
0.0
 10
119.5492330024402
 20
361.3900144074838
 30
0.0
 10
120.1578060532578
 20
361.3900144074838
 30
0.0
 10
120.7602920301391
 20
361.3900144074838
 30
0.0
 10
121.3037445090031
 20
361.3900144074838
 30
0.0
 10
121.8428297645824
 20
361.3900144074838
 30
0.0
 10
122.3779032738369
 20
361.3900144074838
 30
0.0
 10
123.0592171020297
 20
361.3900144074838
 30
0.0
 10
123.7351359329483
 20
361.3900144074838
 30
0.0
 10
123.8835851793226
 20
361.3900144074838
 30
0.0
 10
124.0317897721246
 20
361.3900144074838
 30
0.0
 10
124.1797579681957
 20
361.3900144074838
 30
0.0
 10
124.7584328709809
 20
361.3900144074838
 30
0.0
 10
125.3337345875854
 20
361.3900144074838
 30
0.0
 10
125.7604918306679
 20
361.3900144074838
 30
0.0
 10
126.1857884465489
 20
361.3900144074838
 30
0.0
 10
126.6098277867465
 20
361.3900144074838
 30
0.0
 10
127.0656533271513
 20
361.3900144074838
 30
0.0
 10
127.5204781053167
 20
361.3900144074838
 30
0.0
 10
127.5532442189174
 20
361.3900144074838
 30
0.0
 10
127.5860053197707
 20
361.3900144074838
 30
0.0
 10
127.618761498991
 20
361.3900144074838
 30
0.0
 10
127.693196381991
 20
361.3900144074838
 30
0.0
 10
127.7676067817543
 20
361.3900144074838
 30
0.0
 10
127.809269114761
 20
361.3900144074838
 30
0.0
 10
127.8509241434996
 20
361.3900144074838
 30
0.0
 10
127.8925720540579
 20
361.3900144074838
 30
0.0
 10
128.0504944225092
 20
361.3900144074838
 30
0.0
 10
128.2083197414626
 20
361.3900144074838
 30
0.0
 10
128.3244810846631
 20
361.3900144074838
 30
0.0
 10
128.4405978367844
 20
361.3900144074838
 30
0.0
 10
128.5566739595829
 20
361.3900144074838
 30
0.0
 10
130.5648375288934
 20
361.3900144074838
 30
0.0
 10
132.5631714848965
 20
361.3900144074838
 30
0.0
 10
134.454147466776
 20
361.3900144074838
 30
0.0
 10
136.3672484978481
 20
361.3900144074838
 30
0.0
 10
138.3107638477675
 20
361.3900144074838
 30
0.0
 10
140.2843664292179
 20
361.390014407516
 30
0.0
 10
142.2762187697466
 20
361.3900144075501
 30
0.0
  0
SPLINE
  5
95
330
8D
100
AcDbEntity
  8
0
  6
Continuous
 62
     0
370
    30
100
AcDbSpline
210
0.0
220
0.0
230
1.0
 70
     8
 71
     7
 72
   116
 73
   108
 74
     0
 42
0.000000001
 43
0.0
 40
0.0201561148593166
 40
0.0201561148593166
 40
0.0201561148593166
 40
0.0201561148593166
 40
0.0201561148593166
 40
0.0201561148593166
 40
0.0201561148593166
 40
0.0201561148593166
 40
0.2211999999999999
 40
0.2211999999999999
 40
0.2211999999999999
 40
0.2211999999999999
 40
0.2211999999999999
 40
0.2323719999999999
 40
0.2323719999999999
 40
0.2323719999999999
 40
0.2323719999999999
 40
0.2323719999999999
 40
0.2363727519999999
 40
0.2363727519999999
 40
0.2363727519999999
 40
0.2363727519999999
 40
0.2363727519999999
 40
0.2395161999999999
 40
0.2395161999999999
 40
0.2395161999999999
 40
0.2395161999999999
 40
0.2395161999999999
 40
0.2799999999999999
 40
0.2799999999999999
 40
0.2799999999999999
 40
0.2799999999999999
 40
0.2799999999999999
 40
0.2938793121279999
 40
0.2938793121279999
 40
0.2938793121279999
 40
0.2938793121279999
 40
0.2938793121279999
 40
0.3430877823999999
 40
0.3430877823999999
 40
0.3430877823999999
 40
0.3430877823999999
 40
0.3430877823999999
 40
0.3479642974719999
 40
0.3479642974719999
 40
0.3479642974719999
 40
0.3479642974719999
 40
0.3479642974719999
 40
0.3491745598489598
 40
0.3491745598489598
 40
0.3491745598489598
 40
0.3491745598489598
 40
0.3491745598489598
 40
0.3652537599999999
 40
0.3652537599999999
 40
0.3652537599999999
 40
0.3652537599999999
 40
0.3652537599999999
 40
0.3719908863999999
 40
0.3719908863999999
 40
0.3719908863999999
 40
0.3719908863999999
 40
0.3719908863999999
 40
0.3779794431999999
 40
0.3779794431999999
 40
0.3779794431999999
 40
0.3779794431999999
 40
0.3779794431999999
 40
0.3839679999999999
 40
0.3839679999999999
 40
0.3839679999999999
 40
0.3839679999999999
 40
0.3839679999999999
 40
0.3908627199999999
 40
0.3908627199999999
 40
0.3908627199999999
 40
0.3908627199999999
 40
0.3908627199999999
 40
0.4167999999999998
 40
0.4167999999999998
 40
0.4167999999999998
 40
0.4167999999999998
 40
0.4167999999999998
 40
0.4418647695999998
 40
0.4418647695999998
 40
0.4418647695999998
 40
0.4418647695999998
 40
0.4418647695999998
 40
0.4453995447999998
 40
0.4453995447999998
 40
0.4453995447999998
 40
0.4453995447999998
 40
0.4453995447999998
 40
0.4489343199999998
 40
0.4489343199999998
 40
0.4489343199999998
 40
0.4489343199999998
 40
0.4489343199999998
 40
0.4525421488548256
 40
0.4525421488548256
 40
0.4525421488548256
 40
0.4525421488548256
 40
0.4525421488548256
 40
0.5276079999999999
 40
0.5276079999999999
 40
0.5276079999999999
 40
0.5276079999999999
 40
0.5276079999999999
 40
1.0
 40
1.0
 40
1.0
 40
1.0
 40
1.0
 40
1.0
 40
1.0
 40
1.0
 10
142.2762187697391
 20
343.3900144626911
 30
0.0
 10
137.9981995741368
 20
343.3900144628117
 30
0.0
 10
133.7042830181293
 20
343.3900144630325
 30
0.0
 10
129.3673113852317
 20
343.3900144630325
 30
0.0
 10
124.982274100859
 20
343.3900144630325
 30
0.0
 10
120.5606078409199
 20
343.3900144630325
 30
0.0
 10
115.8779821329063
 20
343.3900144630325
 30
0.0
 10
111.209603569564
 20
343.3900144630325
 30
0.0
 10
110.9638832540416
 20
343.3900144630326
 30
0.0
 10
110.7182118177258
 20
343.3900144630326
 30
0.0
 10
110.4725940268173
 20
343.3900144630325
 30
0.0
 10
110.1390985985352
 20
343.3900144630325
 30
0.0
 10
109.8057199258896
 20
343.3900144630325
 30
0.0
 10
109.7178230444198
 20
343.3905342024603
 30
0.0
 10
109.6299343932934
 20
343.3889685794176
 30
0.0
 10
109.5420550516796
 20
343.3906801826406
 30
0.0
 10
109.3851430730181
 20
343.3894673714392
 30
0.0
 10
109.2282608911931
 20
343.3904636958234
 30
0.0
 10
109.1592417886349
 20
343.39132963951
 30
0.0
 10
109.0902350301542
 20
343.3926229828713
 30
0.0
 10
109.0212438997469
 20
343.3943435310721
 30
0.0
 10
108.0639930684466
 20
343.4241485708203
 30
0.0
 10
107.111015755669
 20
343.5361477195237
 30
0.0
 10
106.2373831415514
 20
343.7102940943342
 30
0.0
 10
105.3813320915371
 20
343.953178334637
 30
0.0
 10
104.5494879956505
 20
344.2624219286949
 30
0.0
 10
103.4732654772322
 20
344.7625005354051
 30
0.0
 10
102.4619643448295
 20
345.3694406626475
 30
0.0
 10
102.208229465344
 20
345.5312053644737
 30
0.0
 10
101.9591708675859
 20
345.6996115669871
 30
0.0
 10
101.7149984607792
 20
345.8744833294323
 30
0.0
 10
100.6282471222753
 20
346.6979054946034
 30
0.0
 10
99.65055750463767
 20
347.6471299311066
 30
0.0
 10
98.96284611942684
 20
348.4554935702164
 30
0.0
 10
98.35706304325551
 20
349.3220175093697
 30
0.0
 10
97.83849655571163
 20
350.2360294603935
 30
0.0
 10
97.3681848081357
 20
351.2806417852798
 30
0.0
 10
97.00940994919685
 20
352.3558688859766
 30
0.0
 10
96.97796976504851
 20
352.4530537012104
 30
0.0
 10
96.9474394042052
 20
352.5504658517476
 30
0.0
 10
96.91782015085779
 20
352.6480945676794
 30
0.0
 10
96.88198855636972
 20
352.7702098360871
 30
0.0
 10
96.84757963909789
 20
352.8926289897161
 30
0.0
 10
96.84079421375898
 20
352.9169820113996
 30
0.0
 10
96.83406506256372
 20
352.9413467186379
 30
0.0
 10
96.82739219869268
 20
352.965722947194
 30
0.0
 10
96.73286985577204
 20
353.3141170284676
 30
0.0
 10
96.64983971117456
 20
353.6647953962193
 30
0.0
 10
96.58258919743031
 20
353.9925170639975
 30
0.0
 10
96.52531426999786
 20
354.3214463570735
 30
0.0
 10
96.47800353088286
 20
354.6512033129567
 30
0.0
 10
96.42496592065314
 20
355.1197690312028
 30
0.0
 10
96.39183307858136
 20
355.5885014149694
 30
0.0
 10
96.3837816223482
 20
355.7268944507491
 30
0.0
 10
96.37745793444611
 20
355.8652478362748
 30
0.0
 10
96.37285733640529
 20
356.0035347678773
 30
0.0
 10
96.36741218323874
 20
356.2645676646796
 30
0.0
 10
96.36807570159246
 20
356.5251745227176
 30
0.0
 10
96.36365707016881
 20
356.6476664989912
 30
0.0
 10
96.36575442403017
 20
356.7701066995045
 30
0.0
 10
96.3636988552872
 20
356.8924040481
 30
0.0
 10
96.36166222329356
 20
357.1367998877413
 30
0.0
 10
96.35962921809733
 20
357.3807605116972
 30
0.0
 10
96.35861362708313
 20
357.5026314336018
 30
0.0
 10
96.35759895248313
 20
357.6243923858057
 30
0.0
 10
96.35658519907203
 20
357.7460427953387
 30
0.0
 10
96.35440628727063
 20
358.0075122119415
 30
0.0
 10
96.35223168228426
 20
358.2684648107414
 30
0.0
 10
96.35106914346295
 20
358.4079694695303
 30
0.0
 10
96.34990785225823
 20
358.5473244143311
 30
0.0
 10
96.3487478155773
 20
358.6865288162719
 30
0.0
 10
96.3432298376929
 20
359.3486861635005
 30
0.0
 10
96.33774061306002
 20
360.0073931205445
 30
0.0
 10
96.33342242683835
 20
360.5255754680076
 30
0.0
 10
96.32912287652775
 20
361.0415215061356
 30
0.0
 10
96.32484227344216
 20
361.5551938772629
 30
0.0
 10
96.31646288347261
 20
362.560720675281
 30
0.0
 10
96.3081588645868
 20
363.5572029432369
 30
0.0
 10
96.30409632283349
 20
364.044707954444
 30
0.0
 10
96.30005242970554
 20
364.5299751306086
 30
0.0
 10
96.29602737129454
 20
365.0129821407318
 30
0.0
 10
96.29145634978434
 20
365.5615047228661
 30
0.0
 10
96.28691023032854
 20
366.1070390584699
 30
0.0
 10
96.28634873116684
 20
366.1744189579883
 30
0.0
 10
96.28578761313622
 20
366.2417531217756
 30
0.0
 10
96.28522687658574
 20
366.3090415079438
 30
0.0
 10
96.28410616712108
 20
366.4435266439272
 30
0.0
 10
96.28298698623621
 20
366.5778283503339
 30
0.0
 10
96.28242777826556
 20
366.6449333069254
 30
0.0
 10
96.2818689530823
 20
366.7119923290273
 30
0.0
 10
96.28131051099086
 20
366.7790053801113
 30
0.0
 10
96.28018286010652
 20
366.9143234864565
 30
0.0
 10
96.27905677576946
 20
367.0494536071282
 30
0.0
 10
96.27848837486569
 20
367.1176617156947
 30
0.0
 10
96.27792037423839
 20
367.1858217910834
 30
0.0
 10
96.27735277416217
 20
367.2539338003434
 30
0.0
 10
96.26498421259006
 20
368.7381611914624
 30
0.0
 10
96.25280636339866
 20
370.1995030968668
 30
0.0
 10
96.24136283520043
 20
371.5727264829387
 30
0.0
 10
96.23009505548289
 20
372.9248600512949
 30
0.0
 10
96.21900078774891
 20
374.2561721815892
 30
0.0
 10
96.13932556617839
 20
383.8171987859627
 30
0.0
 10
96.06836008814764
 20
392.3330561638219
 30
0.0
 10
96.01219548477016
 20
399.0728085803333
 30
0.0
 10
95.95718911077377
 20
405.6735734708851
 30
0.0
 10
95.89948775242028
 20
412.5977364848267
 30
0.0
 10
95.83785326108588
 20
419.9938754572622
 30
0.0
 10
95.77621876975148
 20
427.3900144296976
 30
0.0
  0
LINE
  5
96
330
8D
100
AcDbEntity
  8
0
  6
Continuous
 62
     0
370
    30
100
AcDbLine
 10
368.276219
 20
361.389921
 30
0.0
 11
368.276219
 21
361.340831
 31
0.0
  0
LINE
  5
97
330
8D
100
AcDbEntity
  8
0
  6
Continuous
 62
     0
370
    30
100
AcDbLine
 10
142.276219
 20
361.389921
 30
0.0
 11
142.276219
 21
352.389921
 31
0.0
  0
LINE
  5
98
330
8D
100
AcDbEntity
  8
0
  6
Continuous
 62
     0
370
    30
100
AcDbLine
 10
368.276219
 20
343.389921
 30
0.0
 11
142.276219
 21
343.389921
 31
0.0
  0
LINE
  5
99
330
8D
100
AcDbEntity
  8
0
  6
Continuous
 62
     0
370
    30
100
AcDbLine
 10
368.276219
 20
361.389921
 30
0.0
 11
142.276219
 21
361.389921
 31
0.0
  0
ENDBLK
  5
9B
330
8D
100
AcDbEntity
  8
0
100
AcDbBlockEnd
  0
BLOCK
  5
AA
330
9D
100
AcDbEntity
  8
0
100
AcDbBlockBegin
  2
c
 70
     0
 10
63.414513
 20
-46.029755
 30
0.0
  3
c
  1

  0
ARC
  5
9E
330
9D
100
AcDbEntity
  8
0
  6
Continuous
 62
     0
370
    30
100
AcDbCircle
 10
522.791461
 20
518.059178
 30
0.0
 40
9.001445864809146
100
AcDbArc
 50
37.820372
 51
89.621319
  0
SPLINE
  5
9F
330
9D
100
AcDbEntity
  8
0
  6
Continuous
 62
     0
370
    30
100
AcDbSpline
210
0.0
220
0.0
230
1.0
 70
     8
 71
     3
 72
    31
 73
    27
 74
     0
 42
0.000000001
 43
0.0
 40
0.0
 40
0.0
 40
0.0
 40
0.0
 40
13.54650901424158
 40
27.03828310266823
 40
37.16130921134431
 40
47.33587000511031
 40
54.16640382727151
 40
61.05311863596344
 40
64.53048385669136
 40
65.4054679273897
 40
67.16613546915958
 40
68.05355138884254
 40
68.27255968602113
 40
68.4918720839464
 40
68.93059387867966
 40
69.36927326191989
 40
70.24601525807944
 40
71.55796816037571
 40
72.64672302105136
 40
73.72921456545332
 40
75.87395694339666
 40
77.15546840733894
 40
77.80048173043619
 40
78.2354066699988
 40
78.64998605487663
 40
78.65932947379767
 40
78.65932947379767
 40
78.65932947379767
 40
78.65932947379767
 10
447.7911941257177
 20
538.0606292484347
 30
0.0
 10
452.2588980824083
 20
537.4053656776537
 30
0.0
 10
461.1762910449755
 20
536.0975387289556
 30
0.0
 10
473.4321654172286
 20
534.300495665096
 30
0.0
 10
484.5760601218474
 20
532.6672708505736
 30
0.0
 10
493.5231649311445
 20
531.35553458539
 30
0.0
 10
501.4026037744563
 20
530.199080216709
 30
0.0
 10
507.072800335416
 20
529.3666416523871
 30
0.0
 10
510.7787584034562
 20
528.8234266312687
 30
0.0
 10
512.7939030807656
 20
528.5286865257264
 30
0.0
 10
513.9549276371217
 20
528.359203228846
 30
0.0
 10
514.8993622283432
 20
528.2217983857397
 30
0.0
 10
515.3358962235476
 20
528.1584035618407
 30
0.0
 10
515.6247080431236
 20
528.1164932705256
 30
0.0
 10
515.9865856016846
 20
528.0640439672688
 30
0.0
 10
516.565174318549
 20
527.9803402465427
 30
0.0
 10
517.428126649992
 20
527.8558972949626
 30
0.0
 10
518.4827661414795
 20
527.7048223923433
 30
0.0
 10
519.5527075544707
 20
527.5531817610838
 30
0.0
 10
520.7963944253723
 20
527.378821628412
 30
0.0
 10
521.9180820067672
 20
527.2244140297362
 30
0.0
 10
522.6726074924969
 20
527.1237296803563
 30
0.0
 10
523.0058987733894
 20
527.0804903689369
 30
0.0
 10
523.1752050117258
 20
527.0590355136186
 30
0.0
 10
523.2514282883911
 20
527.0496235818906
 30
0.0
 10
523.2833983360365
 20
527.0457362570069
 30
0.0
 10
523.2841001800273
 20
527.045650951909
 30
0.0
  0
ARC
  5
A0
330
9D
100
AcDbEntity
  8
0
  6
Continuous
 62
     0
370
    30
100
AcDbCircle
 10
522.79272
 20
518.056163
 30
0.0
 40
8.9984862688134
100
AcDbArc
 50
269.998921
 51
0.014906
  0
ARC
  5
A1
330
9D
100
AcDbEntity
  8
0
  6
Continuous
 62
     0
370
    30
100
AcDbCircle
 10
522.792851
 20
518.060721
 30
0.0
 40
8.998355281365535
100
AcDbArc
 50
359.985885
 51
88.753102
  0
LINE
  5
A2
330
9D
100
AcDbEntity
  8
0
  6
Continuous
 62
     0
370
    30
100
AcDbLine
 10
447.791208
 20
518.057677
 30
0.0
 11
447.791181
 21
538.057679
 31
0.0
  0
LINE
  5
A3
330
9D
100
AcDbEntity
  8
0
  6
Continuous
 62
     0
370
    30
100
AcDbLine
 10
447.791219
 20
498.057678
 30
0.0
 11
447.791208
 21
518.057677
 31
0.0
  0
ARC
  5
A4
330
9D
100
AcDbEntity
  8
0
  6
Continuous
 62
     0
370
    30
100
AcDbCircle
 10
522.791208
 20
518.056379
 30
0.0
 40
8.999998300209558
100
AcDbArc
 50
322.531308
 51
0.013182
  0
SPLINE
  5
A5
330
9D
100
AcDbEntity
  8
0
  6
Continuous
 62
     0
370
    30
100
AcDbSpline
210
0.0
220
0.0
230
1.0
 70
     8
 71
     3
 72
    50
 73
    46
 74
     0
 42
0.000000001
 43
0.0
 40
0.0
 40
0.0
 40
0.0
 40
0.0
 40
13.54650901424158
 40
27.03828310266825
 40
37.16130921134432
 40
47.33587000511031
 40
54.16640382727151
 40
61.05311863596344
 40
64.53048385669138
 40
65.40546792738971
 40
67.16613546915958
 40
68.05355138884254
 40
68.27255968602111
 40
68.49187208394639
 40
68.93059387867966
 40
69.36927326191987
 40
70.24601525807938
 40
71.55796816037558
 40
72.64672302105126
 40
73.72921456545323
 40
75.87395694339654
 40
77.15546840733876
 40
77.80048173043606
 40
78.23540666999861
 40
78.64998605487642
 40
78.84721258937076
 40
79.04910832769806
 40
79.25551305472132
 40
79.58253643111956
 40
79.81053950920864
 40
80.06054920605841
 40
80.29218057904522
 40
80.57846305010779
 40
80.70984813920848
 40
80.8363462914424
 40
82.03700811031219
 40
82.46600871545041
 40
82.89525742715364
 40
84.69776189771699
 40
86.50460130074464
 40
89.20973551360797
 40
91.86891822924426
 40
96.35750983287394
 40
100.8467218512362
 40
101.5551677269318
 40
101.5551677269318
 40
101.5551677269318
 40
101.5551677269318
 10
447.7912072391239
 20
498.0576778526348
 30
0.0
 10
452.2589111958154
 20
498.7129414234158
 30
0.0
 10
461.1763041579246
 20
500.0207683721139
 30
0.0
 10
473.4321785239864
 20
501.8178114359735
 30
0.0
 10
484.5760732229955
 20
503.451036250496
 30
0.0
 10
493.5231780314439
 20
504.7627725156796
 30
0.0
 10
501.4026168790175
 20
505.9192268843605
 30
0.0
 10
507.0728134471361
 20
506.7516654486824
 30
0.0
 10
510.7787715222192
 20
507.2948804698009
 30
0.0
 10
512.7939162053854
 20
507.5896205753431
 30
0.0
 10
513.9549407660763
 20
507.7591038722235
 30
0.0
 10
514.8993753617224
 20
507.8965087153299
 30
0.0
 10
515.335909359241
 20
507.9599035392289
 30
0.0
 10
515.6247211803515
 20
508.0018138305439
 30
0.0
 10
515.9865987395065
 20
508.0542631338006
 30
0.0
 10
516.5651874547563
 20
508.1379668545268
 30
0.0
 10
517.4281397779555
 20
508.2624098061069
 30
0.0
 10
518.4827792470314
 20
508.4134847087263
 30
0.0
 10
519.5527206222891
 20
508.5651253399858
 30
0.0
 10
520.7964074312288
 20
508.7394854726576
 30
0.0
 10
521.9180949239928
 20
508.8938930713333
 30
0.0
 10
522.6726203108092
 20
508.9945774207133
 30
0.0
 10
523.0059115293639
 20
509.0378167321327
 30
0.0
 10
523.1752177267465
 20
509.0592715874509
 30
0.0
 10
523.2681157185182
 20
509.0707424907141
 30
0.0
 10
523.3246714794212
 20
509.0775589064692
 30
0.0
 10
523.3567205172295
 20
509.0813416020878
 30
0.0
 10
523.3848481971374
 20
509.0845747453853
 30
0.0
 10
523.4017179208481
 20
509.0864047786814
 30
0.0
 10
523.3885299085031
 20
509.0849774901766
 30
0.0
 10
523.3489448749558
 20
509.0811178269296
 30
0.0
 10
523.2807647350656
 20
509.0752912220727
 30
0.0
 10
523.2051756011874
 20
509.0699639294259
 30
0.0
 10
523.1361826850718
 20
509.0660215543702
 30
0.0
 10
522.9329477259049
 20
509.0563241483862
 30
0.0
 10
522.8427469781489
 20
509.057618991085
 30
0.0
 10
522.8648687368209
 20
509.0575151366704
 30
0.0
 10
522.871732851475
 20
509.0576765886929
 30
0.0
 10
522.8824751933815
 20
509.0577193211335
 30
0.0
 10
522.9649974242469
 20
509.0587369534057
 30
0.0
 10
522.6705172932969
 20
509.0557225724644
 30
0.0
 10
522.3283415136077
 20
509.0688746776455
 30
0.0
 10
522.4814088126029
 20
509.0629494361995
 30
0.0
 10
522.4492966311601
 20
509.064187868153
 30
0.0
 10
522.4497256407137
 20
509.0641528478278
 30
0.0
 10
522.449960101575
 20
509.0641412018023
 30
0.0
  0
ARC
  5
A6
330
9D
100
AcDbEntity
  8
0
  6
Continuous
 62
     0
370
    30
100
AcDbCircle
 10
522.79259
 20
518.061039
 30
0.0
 40
8.998528131863731
100
AcDbArc
 50
0.962147
 51
37.815384
  0
SPLINE
  5
A7
330
9D
100
AcDbEntity
  8
0
  6
Continuous
 62
     0
370
    30
100
AcDbSpline
210
0.0
220
0.0
230
1.0
 70
     8
 71
     3
 72
    18
 73
    14
 74
     0
 42
0.000000001
 43
0.0
 40
0.0
 40
0.0
 40
0.0
 40
0.0
 40
0.6653709870503204
 40
1.107665986847294
 40
1.550523202021904
 40
1.772581766359768
 40
2.218744505495633
 40
2.44316509054902
 40
2.668677040262037
 40
2.895488955634192
 40
3.123779986160153
 40
3.353849476176858
 40
3.586867138228919
 40
3.586867138228919
 40
3.586867138228919
 40
3.586867138228919
 10
531.7912070281741
 20
518.0586941430159
 30
0.0
 10
531.7912021568604
 20
518.2803942276416
 30
0.0
 10
531.7770754735168
 20
518.6497687866906
 30
0.0
 10
531.724685310583
 20
519.1618694155022
 30
0.0
 10
531.669098295116
 20
519.5231815806706
 30
0.0
 10
531.6001217156856
 20
519.8811799659609
 30
0.0
 10
531.5342781424505
 20
520.1646558838914
 30
0.0
 10
531.4583238504113
 20
520.4442169977759
 30
0.0
 10
531.3959847379599
 20
520.6525190934507
 30
0.0
 10
531.3290470172772
 20
520.8593854421304
 30
0.0
 10
531.2553422938643
 20
521.0628827204387
 30
0.0
 10
531.1831664231275
 20
521.2704317415001
 30
0.0
 10
531.1154919762539
 20
521.3922108270616
 30
0.0
 10
531.0966420679003
 20
521.4657788063618
 30
0.0
  0
SPLINE
  5
A8
330
9D
100
AcDbEntity
  8
0
  6
Continuous
 62
     0
370
    30
100
AcDbSpline
210
0.0
220
0.0
230
1.0
 70
     8
 71
     3
 72
    59
 73
    55
 74
     0
 42
0.000000001
 43
0.0
 40
0.0
 40
0.0
 40
0.0
 40
0.0
 40
10.16547253405543
 40
20.29666150257572
 40
30.40940746553171
 40
40.54512833271395
 40
47.33586621687222
 40
52.45421858451491
 40
55.88146211067438
 40
59.32422451519677
 40
61.05311880774651
 40
62.78804304881414
 40
64.5304863306263
 40
65.40547123198724
 40
66.28375486451226
 40
67.16614092712139
 40
68.05355821115774
 40
68.71123878010883
 40
68.9306016712854
 40
69.1499536096059
 40
69.80779859298467
 40
70.46500104083938
 40
71.33967973325345
 40
71.99405598413588
 40
73.08062356781483
 40
75.01877130888991
 40
76.3008571212609
 40
77.15547266155731
 40
78.01722488536794
 40
78.45548226486024
 40
78.84712372652278
 40
79.25534002426836
 40
79.58225488291055
 40
79.81013465735084
 40
79.96824456238339
 40
80.14276773726549
 40
80.21941427585243
 40
80.43991270711898
 40
80.57741424021472
 40
80.70867763453174
 40
80.83509028369056
 40
82.02862861454113
 40
82.45734919470833
 40
82.88633137020739
 40
83.77896530945394
 40
84.67327590441455
 40
85.1043652196397
 40
85.53646204767357
 40
85.73518012713355
 40
85.93450831928865
 40
86.02952922806737
 40
86.12475570999315
 40
86.53209078460236
 40
87.83415356155729
 40
87.83415356155729
 40
87.83415356155729
 40
87.83415356155729
 10
447.7907677887869
 20
538.0576373664944
 30
0.0
 10
451.1434013424233
 20
537.5659927859484
 30
0.0
 10
457.8373770402875
 20
536.5844075090827
 30
0.0
 10
467.8665552562554
 20
535.1139024206669
 30
0.0
 10
477.8858566113912
 20
533.6453504781474
 30
0.0
 10
486.8036112158703
 20
532.3385946468891
 30
0.0
 10
494.074172387398
 20
531.2725710987711
 30
0.0
 10
499.1320681368617
 20
530.5304371554938
 30
0.0
 10
503.0856369887606
 20
529.9501599159934
 30
0.0
 10
505.92128031747
 20
529.5340094893678
 30
0.0
 10
508.1987311600262
 20
529.1999684208758
 30
0.0
 10
509.915441941792
 20
528.9483274025345
 30
0.0
 10
511.3504572924971
 20
528.7381791810723
 30
0.0
 10
512.502809624564
 20
528.5696613647576
 30
0.0
 10
513.3714869072071
 20
528.4427915228174
 30
0.0
 10
514.2440367413336
 20
528.315578904169
 30
0.0
 10
515.0436339705329
 20
528.1992650656964
 30
0.0
 10
515.6246172768056
 20
528.1149663998575
 30
0.0
 10
515.9863794129013
 20
528.0625661096926
 30
0.0
 10
516.3480956110087
 20
528.0102209179739
 30
0.0
 10
516.853466031267
 20
527.9372329087439
 30
0.0
 10
517.5687721703564
 20
527.834293410136
 30
0.0
 10
518.2710763318354
 20
527.7337328188789
 30
0.0
 10
519.0888856787877
 20
527.6173460944345
 30
0.0
 10
520.1943308633329
 20
527.461419443627
 30
0.0
 10
521.3554207685163
 20
527.3000940153908
 30
0.0
 10
522.2443675042504
 20
527.1793817985684
 30
0.0
 10
522.7707041104782
 20
527.1095025069213
 30
0.0
 10
523.0644326032077
 20
527.0715737022789
 30
0.0
 10
523.2351600045945
 20
527.0502034361847
 30
0.0
 10
523.330030715596
 20
527.0386860067136
 30
0.0
 10
523.3803516130607
 20
527.0328445733501
 30
0.0
 10
523.4016667152309
 20
527.0305319286493
 30
0.0
 10
523.390053864921
 20
527.0317885687767
 30
0.0
 10
523.3630985315313
 20
527.0344372778695
 30
0.0
 10
523.3333283772203
 20
527.0371440443002
 30
0.0
 10
523.2915477448515
 20
527.0406539072726
 30
0.0
 10
523.2458532021296
 20
527.0441587145042
 30
0.0
 10
523.1867337916151
 20
527.0480171721894
 30
0.0
 10
523.1367789401747
 20
527.0508790502239
 30
0.0
 10
522.9346425343238
 20
527.0605389841221
 30
0.0
 10
522.848286338973
 20
527.0592661225999
 30
0.0
 10
522.8712079350962
 20
527.0593467847923
 30
0.0
 10
522.8739441517996
 20
527.0592555094854
 30
0.0
 10
522.8996194579388
 20
527.0589635967797
 30
0.0
 10
522.8963109963261
 20
527.059059071138
 30
0.0
 10
522.9442399554232
 20
527.058257127402
 30
0.0
 10
522.9454573076603
 20
527.0582901636967
 30
0.0
 10
522.9982887157319
 20
527.0571257159713
 30
0.0
 10
523.0189068370471
 20
527.0565907017879
 30
0.0
 10
523.0487081876186
 20
527.0557265415578
 30
0.0
 10
523.1092048964159
 20
527.0538322031982
 30
0.0
 10
522.7082416801534
 20
527.0642213821811
 30
0.0
 10
522.6317883208628
 20
527.0655238753315
 30
0.0
 10
522.6317541974557
 20
527.0645196385001
 30
0.0
  0
ARC
  5
A9
330
9D
100
AcDbEntity
  8
0
  6
Continuous
 62
     0
370
    30
100
AcDbCircle
 10
522.791299
 20
518.059154
 30
0.0
 40
9.0
100
AcDbArc
 50
37.819825
 51
86.989656
  0
ENDBLK
  5
AB
330
9D
100
AcDbEntity
  8
0
100
AcDbBlockEnd
  0
BLOCK
  5
BF
330
AD
100
AcDbEntity
  8
0
100
AcDbBlockBegin
  2
d
 70
     0
 10
-276.972847
 20
617.364716
 30
0.0
  3
d
  1

  0
SPLINE
  5
AE
330
AD
100
AcDbEntity
  8
0
  6
Continuous
 62
     0
370
    30
100
AcDbSpline
210
0.0
220
0.0
230
1.0
 70
     8
 71
     3
 72
    16
 73
    12
 74
     0
 42
0.000000001
 43
0.0
 40
0.0
 40
0.0
 40
0.0
 40
0.0
 40
1.33596536861468
 40
3.65536308716327
 40
5.67964790609278
 40
7.873453421889209
 40
9.899165113329179
 40
12.0934334589125
 40
14.2873951391566
 40
16.4815854549223
 40
17.4892237184587
 40
17.4892237184587
 40
17.4892237184587
 40
17.4892237184587
 10
311.8688270393222
 20
649.2828323415919
 30
0.0
 10
311.8066024950264
 20
649.7072895363465
 30
0.0
 10
311.6970206595063
 20
650.896463594401
 30
0.0
 10
311.7925575332837
 20
652.7980167814429
 30
0.0
 10
312.2594398732724
 20
654.9281993385778
 30
0.0
 10
313.0129505251216
 20
656.8004197300272
 30
0.0
 10
314.0589112064708
 20
658.4478534949518
 30
0.0
 10
315.3216269906233
 20
659.7331042121433
 30
0.0
 10
316.7724140991577
 20
660.5873795738884
 30
0.0
 10
318.018331314856
 20
660.8653157595417
 30
0.0
 10
318.7502737759099
 20
660.8401618556278
 30
0.0
 10
318.9784625365851
 20
660.8136194590215
 30
0.0
  0
SPLINE
  5
AF
330
AD
100
AcDbEntity
  8
0
  6
Continuous
 62
     0
370
    30
100
AcDbSpline
210
0.0
220
0.0
230
1.0
 70
     8
 71
     7
 72
    41
 73
    33
 74
     0
 42
0.000000001
 43
0.0
 40
0.0
 40
0.0
 40
0.0
 40
0.0
 40
0.0
 40
0.0
 40
0.0
 40
0.0
 40
0.18
 40
0.18
 40
0.18
 40
0.18
 40
0.18
 40
0.207136
 40
0.207136
 40
0.207136
 40
0.207136
 40
0.207136
 40
0.2312
 40
0.2312
 40
0.2312
 40
0.2312
 40
0.2312
 40
0.354848
 40
0.354848
 40
0.354848
 40
0.354848
 40
0.354848
 40
0.42161792
 40
0.42161792
 40
0.42161792
 40
0.42161792
 40
0.42161792
 40
0.4559766031495554
 40
0.4559766031495554
 40
0.4559766031495554
 40
0.4559766031495554
 40
0.4559766031495554
 40
0.4559766031495554
 40
0.4559766031495554
 40
0.4559766031495554
 10
402.2451438398772
 20
669.5557377550256
 30
0.0
 10
402.4279290716488
 20
668.308419104763
 30
0.0
 10
402.6107143034203
 20
667.0611004545003
 30
0.0
 10
402.7934995322964
 20
665.8137818239534
 30
0.0
 10
402.9762847569627
 20
664.5664632221892
 30
0.0
 10
403.1590699773569
 20
663.3191446497578
 30
0.0
 10
403.3694110811705
 20
661.8837859000352
 30
0.0
 10
403.5797521822819
 20
660.4484271680772
 30
0.0
 10
403.606864975452
 20
660.260444521474
 30
0.0
 10
403.6359141130287
 20
660.0722113350195
 30
0.0
 10
403.6614261719426
 20
659.8844330001763
 30
0.0
 10
403.7161269466484
 20
659.5292985853799
 30
0.0
 10
403.7636392156046
 20
659.1750648419987
 30
0.0
 10
403.7802806962393
 20
659.0093060731781
 30
0.0
 10
403.7973886491037
 20
658.8437408114398
 30
0.0
 10
403.8100093787959
 20
658.6789458031693
 30
0.0
 10
403.8730333778183
 20
657.6713942825215
 30
0.0
 10
403.8326670705239
 20
656.6931625310623
 30
0.0
 10
403.7278522462166
 20
655.9051839843761
 30
0.0
 10
403.5407764923827
 20
655.1691877451055
 30
0.0
 10
403.2941207237131
 20
654.4810049453276
 30
0.0
 10
402.8085256221026
 20
653.5247968923628
 30
0.0
 10
402.178109526502
 20
652.7448369605167
 30
0.0
 10
401.9403922873184
 20
652.4939608965776
 30
0.0
 10
401.6873920336208
 20
652.2664366432778
 30
0.0
 10
401.4201816722348
 20
652.0625699157595
 30
0.0
 10
400.9947822735892
 20
651.792883828071
 30
0.0
 10
400.540850101213
 20
651.5842649196525
 30
0.0
 10
400.3835206447653
 20
651.5204229749788
 30
0.0
 10
400.2232640607368
 20
651.4638281259981
 30
0.0
 10
400.0602828911936
 20
651.4145255390467
 30
0.0
 10
399.8947879058826
 20
651.372463627666
 30
0.0
 10
399.7269852410589
 20
651.3375851844004
 30
0.0
  0
SPLINE
  5
B0
330
AD
100
AcDbEntity
  8
0
  6
Continuous
 62
     0
370
    30
100
AcDbSpline
210
0.0
220
0.0
230
1.0
 70
     8
 71
     7
 72
    51
 73
    43
 74
     0
 42
0.000000001
 43
0.0
 40
0.409414102934367
 40
0.409414102934367
 40
0.409414102934367
 40
0.409414102934367
 40
0.409414102934367
 40
0.409414102934367
 40
0.409414102934367
 40
0.409414102934367
 40
0.500000074586541
 40
0.500000074586541
 40
0.500000074586541
 40
0.500000074586541
 40
0.500000074586541
 40
0.5023804928
 40
0.5023804928
 40
0.5023804928
 40
0.5023804928
 40
0.5023804928
 40
0.57838208
 40
0.57838208
 40
0.57838208
 40
0.57838208
 40
0.57838208
 40
0.645152
 40
0.645152
 40
0.645152
 40
0.645152
 40
0.645152
 40
0.7688
 40
0.7688
 40
0.7688
 40
0.7688
 40
0.7688
 40
0.792864
 40
0.792864
 40
0.792864
 40
0.792864
 40
0.792864
 40
0.82
 40
0.82
 40
0.82
 40
0.82
 40
0.82
 40
1.0
 40
1.0
 40
1.0
 40
1.0
 40
1.0
 40
1.0
 40
1.0
 40
1.0
 10
389.508974619533
 20
688.7600055073951
 30
0.0
 10
389.8878609193149
 20
689.0038575001468
 30
0.0
 10
390.2913066075034
 20
689.2006652174667
 30
0.0
 10
390.7164975057063
 20
689.3482616063153
 30
0.0
 10
391.1601630474119
 20
689.4452921416348
 30
0.0
 10
391.6183939031771
 20
689.4918079890385
 30
0.0
 10
392.0999963930483
 20
689.48820602146
 30
0.0
 10
392.589564972463
 20
689.4301460650063
 30
0.0
 10
392.6021056082836
 20
689.4286236967857
 30
0.0
 10
392.6146513407061
 20
689.4270655626426
 30
0.0
 10
392.627202106684
 20
689.425471630004
 30
0.0
 10
393.0406352592199
 20
689.3718070120852
 30
0.0
 10
393.4593893282388
 20
689.2792539153468
 30
0.0
 10
393.8681752763271
 20
689.1528994492237
 30
0.0
 10
394.2765798984273
 20
688.9980702739147
 30
0.0
 10
394.6840610555341
 20
688.8052178952712
 30
0.0
 10
395.4414210186624
 20
688.3823946161172
 30
0.0
 10
396.1762369157817
 20
687.847050852822
 30
0.0
 10
396.5134522817021
 20
687.573206073717
 30
0.0
 10
396.8430203676651
 20
687.2782343318562
 30
0.0
 10
397.163740085516
 20
686.9627046166448
 30
0.0
 10
398.0484565330592
 20
686.0073285525918
 30
0.0
 10
398.8359002533469
 20
684.9037330335144
 30
0.0
 10
399.2962470640134
 20
684.1336962345163
 30
0.0
 10
399.7092125368442
 20
683.3282295639458
 30
0.0
 10
400.0525757802063
 20
682.4883627097583
 30
0.0
 10
400.3859885790598
 20
681.4668562721436
 30
0.0
 10
400.6211837494967
 20
680.4393714451166
 30
0.0
 10
400.6572598884658
 20
680.2718608610836
 30
0.0
 10
400.6889235607699
 20
680.1046103949352
 30
0.0
 10
400.7211274997428
 20
679.9370498654044
 30
0.0
 10
400.7775875868321
 20
679.5817801785082
 30
0.0
 10
400.8268795654224
 20
679.2272719729588
 30
0.0
 10
400.8564717164026
 20
679.0390212609516
 30
0.0
 10
400.8825403072624
 20
678.8511331505326
 30
0.0
 10
400.9105373842335
 20
678.6630481249726
 30
0.0
 10
401.1208781882034
 20
677.2276894271895
 30
0.0
 10
401.3312189946743
 20
675.792330711665
 30
0.0
 10
401.5140039565654
 20
674.5450121689648
 30
0.0
 10
401.6967889227823
 20
673.2976935969256
 30
0.0
 10
401.8795738932255
 20
672.0503749961017
 30
0.0
 10
402.0623588665513
 20
670.8030563755636
 30
0.0
 10
402.2451438398772
 20
669.5557377550256
 30
0.0
  0
SPLINE
  5
B1
330
AD
100
AcDbEntity
  8
0
  6
Continuous
 62
     0
370
    30
100
AcDbSpline
210
0.0
220
0.0
230
1.0
 70
     8
 71
     3
 72
    72
 73
    68
 74
     0
 42
0.000000001
 43
0.0
 40
0.0
 40
0.0
 40
0.0
 40
0.0
 40
7.805098259381494
 40
11.72801915190229
 40
15.66456311524821
 40
19.61097086521483
 40
23.56309325717926
 40
25.53943178673281
 40
27.51385751707629
 40
27.7581732819936
 40
28.24244289862786
 40
28.95781866170995
 40
30.34779283056146
 40
31.24299371888218
 40
31.64156393690093
 40
32.03456054276251
 40
32.42186936858064
 40
32.80533500480042
 40
33.00116061115204
 40
33.20031072924282
 40
33.40053314290384
 40
33.80049198300649
 40
34.00161870972597
 40
34.40575466993832
 40
35.22013177928972
 40
36.45740502864514
 40
38.5613574595899
 40
39.63238737416246
 40
40.28058782716565
 40
40.49751019766383
 40
40.71497543947108
 40
40.93228267820551
 40
41.1497584333227
 40
41.58488647039943
 40
42.02005989362284
 40
42.88950103888942
 40
43.32315302574074
 40
43.53955597550515
 40
44.18793878843711
 40
44.61789830063012
 40
44.85741319154484
 40
45.09597884344743
 40
45.21514791932406
 40
45.27550848611481
 40
45.4615401493764
 40
45.5867176308869
 40
46.08084999770664
 40
46.57161706042023
 40
47.54208584872913
 40
48.02209062270889
 40
48.49887181137267
 40
49.21533376740229
 40
50.63016698539931
 40
51.33006750925443
 40
52.02599783163627
 40
52.71821099595098
 40
54.09566971171494
 40
55.85242021465429
 40
59.33129723343688
 40
62.77134212953089
 40
66.17932503111844
 40
71.27460143085881
 40
78.01961675895821
 40
84.71493922512464
 40
91.39354858593286
 40
101.4440928643748
 40
114.0589782795751
 40
114.0589782795751
 40
114.0589782795751
 40
114.0589782795751
 10
316.9066552537352
 20
642.9317858135988
 30
0.0
 10
318.7948590848475
 20
642.7135676726439
 30
0.0
 10
321.6366595755488
 20
642.3872061540278
 30
0.0
 10
325.438695371339
 20
641.9533086603716
 30
0.0
 10
328.3063974381498
 20
641.6270070426698
 30
0.0
 10
331.1838835886352
 20
641.3004660815806
 30
0.0
 10
333.5832128349698
 20
641.0278891298683
 30
0.0
 10
335.509341938332
 20
640.8104326396192
 30
0.0
 10
336.5208944504832
 20
640.6936339037097
 30
0.0
 10
337.1894676759575
 20
640.6203206644134
 30
0.0
 10
337.5532404150017
 20
640.5822834485866
 30
0.0
 10
338.2226714405956
 20
640.5171132772498
 30
0.0
 10
339.0321244207373
 20
640.4483077944323
 30
0.0
 10
339.7844231352119
 20
640.393266741803
 30
0.0
 10
340.2660746149595
 20
640.3608526597576
 30
0.0
 10
340.6062993511682
 20
640.3390605811469
 30
0.0
 10
340.9451261721495
 20
640.3184403001212
 30
0.0
 10
341.2297060480109
 20
640.3016722458902
 30
0.0
 10
341.4554454123192
 20
640.289451418915
 30
0.0
 10
341.6287063221939
 20
640.2811763232212
 30
0.0
 10
341.8649529706986
 20
640.2714946151586
 30
0.0
 10
342.1080881276652
 20
640.2636874068588
 30
0.0
 10
342.4164495430877
 20
640.2561778944267
 30
0.0
 10
342.8592346424577
 20
640.2490888693294
 30
0.0
 10
343.6457333476333
 20
640.2484052025039
 30
0.0
 10
345.0170627180472
 20
640.2794393630891
 30
0.0
 10
346.4954160314322
 20
640.364545063024
 30
0.0
 10
347.7375686396664
 20
640.4754620859453
 30
0.0
 10
348.3505592849598
 20
640.5411129050254
 30
0.0
 10
348.6870057654161
 20
640.5802909174616
 30
0.0
 10
348.8893813554362
 20
640.6047927640022
 30
0.0
 10
349.0867761409243
 20
640.6296530155035
 30
0.0
 10
349.3500415510707
 20
640.6639983313233
 30
0.0
 10
349.6736332532525
 20
640.7085553195318
 30
0.0
 10
350.1807274678365
 20
640.7834624411495
 30
0.0
 10
350.6701898714837
 20
640.8636940589843
 30
0.0
 10
351.0815338551479
 20
640.9385673335476
 30
0.0
 10
351.4268582451839
 20
641.0048983766642
 30
0.0
 10
351.7552818632488
 20
641.0723725263878
 30
0.0
 10
352.083542630941
 20
641.1451829014159
 30
0.0
 10
352.3062286356737
 20
641.1972390774284
 30
0.0
 10
352.4507208845191
 20
641.2322883589642
 30
0.0
 10
352.5521713195276
 20
641.2576494537922
 30
0.0
 10
352.6331862081006
 20
641.2781325229894
 30
0.0
 10
352.7036797930213
 20
641.2960517930645
 30
0.0
 10
352.8554338413782
 20
641.3342918482931
 30
0.0
 10
353.0769475022921
 20
641.3898447478524
 30
0.0
 10
353.4586097887085
 20
641.4845541381288
 30
0.0
 10
353.8447801327377
 20
641.578953827558
 30
0.0
 10
354.2315954588298
 20
641.672086322593
 30
0.0
 10
354.5703543466633
 20
641.7528346492943
 30
0.0
 10
355.1043660096678
 20
641.8785480899656
 30
0.0
 10
355.6960612958705
 20
642.0148287692375
 30
0.0
 10
356.2974119581908
 20
642.1505278012345
 30
0.0
 10
356.7487030476971
 20
642.2510213234966
 30
0.0
 10
357.3650028557211
 20
642.3868397454694
 30
0.0
 10
358.2192648971388
 20
642.5745782761599
 30
0.0
 10
359.7045625396853
 20
642.8988207785553
 30
0.0
 10
361.668636711634
 20
643.3237511112773
 30
0.0
 10
364.027729388129
 20
643.829118902319
 30
0.0
 10
366.7762530877447
 20
644.4132168433944
 30
0.0
 10
370.3120301604165
 20
645.15847411392
 30
0.0
 10
374.6425998846469
 20
646.0637067190551
 30
0.0
 10
379.362820903959
 20
647.0456348800899
 30
0.0
 10
384.8572451260084
 20
648.1887410870547
 30
0.0
 10
391.7008282590078
 20
649.6216269801645
 30
0.0
 10
396.8986035719464
 20
650.7293544724984
 30
0.0
 10
399.7579312700191
 20
651.3442397683059
 30
0.0
  0
SPLINE
  5
B2
330
AD
100
AcDbEntity
  8
0
  6
Continuous
 62
     0
370
    30
100
AcDbSpline
210
0.0
220
0.0
230
1.0
 70
     8
 71
     3
 72
    98
 73
    94
 74
     0
 42
0.000000001
 43
0.0
 40
0.0
 40
0.0
 40
0.0
 40
0.0
 40
9.33201445670131
 40
12.43171386853893
 40
15.52789135967585
 40
18.62368533350251
 40
20.17216483939134
 40
21.72692877578351
 40
22.51789540087747
 40
22.91815268035563
 40
23.32203636836386
 40
23.72978552457244
 40
24.14176748271919
 40
24.55824469413939
 40
24.97949995439955
 40
25.39497262593864
 40
25.8117665816227
 40
25.90700121868178
 40
26.07914740549175
 40
26.32292047384625
 40
26.49228470535113
 40
26.66609375716682
 40
26.83779918392561
 40
27.01039148401158
 40
27.36041878711522
 40
27.89201541218754
 40
28.60880984992963
 40
29.32989589905896
 40
29.87074014303099
 40
30.76744620512061
 40
31.12326522896591
 40
31.30038964623119
 40
31.65278235294227
 40
31.91535787473449
 40
32.00253350203197
 40
32.08867235690021
 40
32.17358912815373
 40
32.26163884690521
 40
32.34785567149893
 40
32.43405520774461
 40
32.5202949231526
 40
32.69275694664154
 40
33.03785006378989
 40
33.55622017696217
 40
33.9025022345895
 40
34.07592290058499
 40
34.24955980370424
 40
34.4230470014209
 40
34.77065199958526
 40
34.94498547977258
 40
35.11982060784469
 40
35.29523514566943
 40
35.38319671576977
 40
35.47133050597718
 40
35.51513111097277
 40
35.55878338739995
 40
35.60292492873143
 40
35.73976061778091
 40
35.83142897074953
 40
35.92215709909756
 40
36.0131573917328
 40
36.19689179376996
 40
36.38082353469054
 40
36.55482051358712
 40
36.72948208203838
 40
37.25750045762545
 40
37.96954145210824
 40
38.32844757332613
 40
39.45509798758713
 40
39.90033188332875
 40
40.12361784455087
 40
40.5714397915188
 40
40.79595919756705
 40
41.02088483716878
 40
41.13350778355765
 40
41.24623726864808
 40
41.30264414610076
 40
41.35894074132235
 40
41.41532697321705
 40
41.47166535475756
 40
41.69713294761129
 40
41.92283217371535
 40
42.37485955662289
 40
42.8277198697657
 40
44.16111821521422
 40
45.50130343222914
 40
46.84798003800714
 40
50.20193087251843
 40
56.27186198820301
 40
68.35608162008077
 40
80.36399106393314
 40
90.62441656895479
 40
103.080756674897
 40
103.080756674897
 40
103.080756674897
 40
103.080756674897
 10
318.9784733189906
 20
660.8137121570112
 30
0.0
 10
321.2331772964449
 20
660.5516887385729
 30
0.0
 10
324.2229066236505
 20
660.2002523903775
 30
0.0
 10
327.9439023768341
 20
659.7595669919849
 30
0.0
 10
330.1673792573392
 20
659.4955014964555
 30
0.0
 10
332.01889271862
 20
659.2756079523303
 30
0.0
 10
333.4998409694219
 20
659.0991448168436
 30
0.0
 10
334.4337917510047
 20
658.9892419299616
 30
0.0
 10
335.0664048589983
 20
658.907194932658
 30
0.0
 10
335.4278022731363
 20
658.8584820184996
 30
0.0
 10
335.6990649393814
 20
658.8209426838444
 30
0.0
 10
335.9698480440877
 20
658.7825279581973
 30
0.0
 10
336.2401913719225
 20
658.7432503703988
 30
0.0
 10
336.5106211211652
 20
658.7030688228747
 30
0.0
 10
336.7781381634642
 20
658.6624388890098
 30
0.0
 10
337.0455330496288
 20
658.6211115092498
 30
0.0
 10
337.2342538524238
 20
658.5911240974133
 30
0.0
 10
337.3884860492631
 20
658.5669570184722
 30
0.0
 10
337.5165948050592
 20
658.5478777561975
 30
0.0
 10
337.676276800419
 20
658.5283625449553
 30
0.0
 10
337.8320972614182
 20
658.5132225915336
 30
0.0
 10
337.9679961617132
 20
658.502002593473
 30
0.0
 10
338.1101549406993
 20
658.492420886885
 30
0.0
 10
338.302512787654
 20
658.482669707055
 30
0.0
 10
338.5983478303442
 20
658.4741966691072
 30
0.0
 10
339.0598502391845
 20
658.4769421135937
 30
0.0
 10
339.6475759238754
 20
658.5063735116253
 30
0.0
 10
340.2569415604712
 20
658.5648657616024
 30
0.0
 10
340.9359358510724
 20
658.6555544643292
 30
0.0
 10
341.5104990076472
 20
658.755843898615
 30
0.0
 10
341.9718088014935
 20
658.8525426127142
 30
0.0
 10
342.2578401570237
 20
658.9167614810792
 30
0.0
 10
342.5138585637827
 20
658.9780463533598
 30
0.0
 10
342.7404406062698
 20
659.0362168176857
 30
0.0
 10
342.8807836939817
 20
659.0736759756227
 30
0.0
 10
342.96392335165
 20
659.0962323582248
 30
0.0
 10
343.046762993749
 20
659.1193127067063
 30
0.0
 10
343.1300479366976
 20
659.1428120697378
 30
0.0
 10
343.2132791917084
 20
659.166761582562
 30
0.0
 10
343.2957906930302
 20
659.1909418386631
 30
0.0
 10
343.4055126413901
 20
659.2236879289696
 30
0.0
 10
343.5967277409894
 20
659.2823046719845
 30
0.0
 10
343.9213637780479
 20
659.3871407102612
 30
0.0
 10
344.29184851121
 20
659.5171336726237
 30
0.0
 10
344.6000893301439
 20
659.6342023153215
 30
0.0
 10
344.801153474948
 20
659.7141722850586
 30
0.0
 10
344.9504210007553
 20
659.7753964694263
 30
0.0
 10
345.1423498367346
 20
659.8565299460437
 30
0.0
 10
345.3260737186465
 20
659.9382541153891
 30
0.0
 10
345.5031602629048
 20
660.0209936194096
 30
0.0
 10
345.6321650997695
 20
660.0833120860166
 30
0.0
 10
345.7362422910865
 20
660.1352915743596
 30
0.0
 10
345.81784677654
 20
660.1770897962155
 30
0.0
 10
345.8670254754416
 20
660.202703791295
 30
0.0
 10
345.9079334967715
 20
660.2242786068867
 30
0.0
 10
345.9414273324994
 20
660.2420605641993
 30
0.0
 10
346.0022016468163
 20
660.2744799490922
 30
0.0
 10
346.0804972022506
 20
660.3164398875416
 30
0.0
 10
346.1705704548831
 20
660.3647700254712
 30
0.0
 10
346.2457077044654
 20
660.4052265496775
 30
0.0
 10
346.3461918550942
 20
660.459587304269
 30
0.0
 10
346.4735959015679
 20
660.5287975489716
 30
0.0
 10
346.6208666674044
 20
660.609354873503
 30
0.0
 10
346.7648350461269
 20
660.6886458467927
 30
0.0
 10
346.9998442480324
 20
660.8189348959825
 30
0.0
 10
347.3736246410803
 20
661.0288439420323
 30
0.0
 10
347.7825942567242
 20
661.2635723597857
 30
0.0
 10
348.327378877492
 20
661.5824443969977
 30
0.0
 10
348.7858021829645
 20
661.8582560855267
 30
0.0
 10
349.1883797082593
 20
662.1078304200676
 30
0.0
 10
349.4321241749698
 20
662.2609677974174
 30
0.0
 10
349.6220718863644
 20
662.3819758356169
 30
0.0
 10
349.806242802484
 20
662.5010044645896
 30
0.0
 10
349.9189834691319
 20
662.5746004288571
 30
0.0
 10
350.0074634529203
 20
662.6328044180225
 30
0.0
 10
350.0622688564155
 20
662.669048561945
 30
0.0
 10
350.1053122896484
 20
662.6976242197279
 30
0.0
 10
350.1382961771957
 20
662.7195900177646
 30
0.0
 10
350.176190409915
 20
662.7448251217909
 30
0.0
 10
350.2476574096667
 20
662.7923968142285
 30
0.0
 10
350.3563068128071
 20
662.8647655337796
 30
0.0
 10
350.5489890317338
 20
662.9930957973024
 30
0.0
 10
350.7901625005774
 20
663.1537737163139
 30
0.0
 10
351.2670575137978
 20
663.4715970852062
 30
0.0
 10
351.9321035137552
 20
663.9150908850653
 30
0.0
 10
352.7853612364661
 20
664.4845029737257
 30
0.0
 10
354.0649797081586
 20
665.3389017761433
 30
0.0
 10
356.3397784515397
 20
666.8587713548229
 30
0.0
 10
360.864250706536
 20
669.8822840521949
 30
0.0
 10
367.1905314104255
 20
674.1010530471004
 30
0.0
 10
374.4261580332046
 20
678.9014597588243
 30
0.0
 10
381.8214264369408
 20
683.7740534966963
 30
0.0
 10
386.7559391224744
 20
686.9881408557592
 30
0.0
 10
389.5089750847237
 20
688.7600047846033
 30
0.0
  0
SPLINE
  5
B3
330
AD
100
AcDbEntity
  8
0
  6
Continuous
 62
     0
370
    30
100
AcDbSpline
210
0.0
220
0.0
230
1.0
 70
     8
 71
     3
 72
    13
 73
     9
 74
     0
 42
0.000000001
 43
0.0
 40
0.0
 40
0.0
 40
0.0
 40
0.0
 40
1.33596536861468
 40
3.65536308716327
 40
5.67964790609278
 40
7.873453421889209
 40
9.899165113329179
 40
10.94966846623603
 40
10.94966846623603
 40
10.94966846623603
 40
10.94966846623603
 10
148.0882609534477
 20
668.2434549695826
 30
0.0
 10
148.1504406771196
 20
667.8189786585815
 30
0.0
 10
148.3817765826855
 20
666.6817333916193
 30
0.0
 10
148.9906041970423
 20
665.0805955939234
 30
0.0
 10
149.9901548363728
 20
663.5758548951633
 30
0.0
 10
151.1714552377131
 20
662.5288422273377
 30
0.0
 10
152.3031738817238
 20
662.0244322627851
 30
0.0
 10
152.9957060329339
 20
661.9025733712541
 30
0.0
 10
153.2342961817297
 20
661.8812246684321
 30
0.0
  0
SPLINE
  5
B4
330
AD
100
AcDbEntity
  8
0
  6
Continuous
 62
     0
370
    30
100
AcDbSpline
210
0.0
220
0.0
230
1.0
 70
     8
 71
     3
 72
    16
 73
    12
 74
     0
 42
0.000000001
 43
0.0
 40
10.78970685553653
 40
10.78970685553653
 40
10.78970685553653
 40
10.78970685553653
 40
12.0939316520475
 40
14.2881205967379
 40
16.4823755371708
 40
18.6760853374277
 40
20.6995646240973
 40
22.8920289146698
 40
24.9170064395778
 40
27.0113544874755
 40
28.2762282688505
 40
28.2762282688505
 40
28.2762282688505
 40
28.2762282688505
 10
155.1962278502694
 20
679.7742262727629
 30
0.0
 10
154.9008554412454
 20
679.8084232756275
 30
0.0
 10
154.0988628227382
 20
679.8164406083337
 30
0.0
 10
152.7880019676301
 20
679.4608240517505
 30
0.0
 10
151.3534970024766
 20
678.5395824758093
 30
0.0
 10
150.1178692961299
 20
677.198475652886
 30
0.0
 10
149.1078932128244
 20
675.5076819857477
 30
0.0
 10
148.3956781376497
 20
673.6068441433549
 30
0.0
 10
147.9907951200538
 20
671.5358286145016
 30
0.0
 10
147.9257065651498
 20
669.7368208277328
 30
0.0
 10
148.0293487199744
 20
668.6453565736571
 30
0.0
 10
148.0882609534477
 20
668.2434549695826
 30
0.0
  0
SPLINE
  5
B5
330
AD
100
AcDbEntity
  8
0
  6
Continuous
 62
     0
370
    30
100
AcDbSpline
210
0.0
220
0.0
230
1.0
 70
     8
 71
     7
 72
    51
 73
    43
 74
     0
 42
0.000000001
 43
0.0
 40
0.4086774016421473
 40
0.4086774016421473
 40
0.4086774016421473
 40
0.4086774016421473
 40
0.4086774016421473
 40
0.4086774016421473
 40
0.4086774016421473
 40
0.4086774016421473
 40
0.42161792
 40
0.42161792
 40
0.42161792
 40
0.42161792
 40
0.42161792
 40
0.4976195072
 40
0.4976195072
 40
0.4976195072
 40
0.4976195072
 40
0.4976195072
 40
0.4999999254134589
 40
0.4999999254134589
 40
0.4999999254134589
 40
0.4999999254134589
 40
0.4999999254134589
 40
0.645152
 40
0.645152
 40
0.645152
 40
0.645152
 40
0.645152
 40
0.7688
 40
0.7688
 40
0.7688
 40
0.7688
 40
0.7688
 40
0.792864
 40
0.792864
 40
0.792864
 40
0.792864
 40
0.792864
 40
0.82
 40
0.82
 40
0.82
 40
0.82
 40
0.82
 40
1.0
 40
1.0
 40
1.0
 40
1.0
 40
1.0
 40
1.0
 40
1.0
 40
1.0
 10
172.0796533430772
 20
713.9141589649735
 30
0.0
 10
172.1335766312144
 20
713.9493933447662
 30
0.0
 10
172.1880049913753
 20
713.9836689427859
 30
0.0
 10
172.2429316482889
 20
714.0169764388963
 30
0.0
 10
172.2983496470513
 20
714.0493065747071
 30
0.0
 10
172.3542516655359
 20
714.0806505266618
 30
0.0
 10
172.7417467097085
 20
714.2892503105152
 30
0.0
 10
173.1513121454803
 20
714.450613910414
 30
0.0
 10
173.515361802702
 20
714.5541418682565
 30
0.0
 10
173.8917031181658
 20
714.6181166046888
 30
0.0
 10
174.2769284310089
 20
714.6525439117502
 30
0.0
 10
174.6825435656474
 20
714.6496551115855
 30
0.0
 10
175.0942484012985
 20
714.6077887981096
 30
0.0
 10
175.1067571907452
 20
714.6064814430539
 30
0.0
 10
175.1192714459196
 20
714.6051382394419
 30
0.0
 10
175.1317910918872
 20
714.6037592358214
 30
0.0
 10
175.9080575790442
 20
714.5160761115727
 30
0.0
 10
176.7044589787899
 20
714.29123782325
 30
0.0
 10
177.4906431675454
 20
713.9477791535326
 30
0.0
 10
178.2665339642581
 20
713.4778757578754
 30
0.0
 10
179.0112596838662
 20
712.8919356214747
 30
0.0
 10
180.3166783503931
 20
711.6294238145301
 30
0.0
 10
181.4282606446857
 20
710.071552871723
 30
0.0
 10
181.8886078589651
 20
709.301515721575
 30
0.0
 10
182.3015737526198
 20
708.496048640704
 30
0.0
 10
182.6449371338149
 20
707.6561810040832
 30
0.0
 10
182.9783498412703
 20
706.6346734381386
 30
0.0
 10
183.213544631737
 20
705.6071872789621
 30
0.0
 10
183.2496206982993
 20
705.4396764736982
 30
0.0
 10
183.2812843182232
 20
705.27242577571
 30
0.0
 10
183.3134881143415
 20
705.1048650246404
 30
0.0
 10
183.3699481075224
 20
704.7495948202964
 30
0.0
 10
183.4192396567962
 20
704.3950861242108
 30
0.0
 10
183.4488315952091
 20
704.2068351566852
 30
0.0
 10
183.4749000484978
 20
704.0189467765993
 30
0.0
 10
183.502896917595
 20
703.830861493126
 30
0.0
 10
183.7132362882093
 20
702.395500807455
 30
0.0
 10
183.9235756561214
 20
700.9601401395488
 30
0.0
 10
184.1063593610259
 20
699.7128199472402
 30
0.0
 10
184.2891430616583
 20
698.4654997842642
 30
0.0
 10
184.4719267580808
 20
697.2181796500711
 30
0.0
 10
184.654710451608
 20
695.9708595355937
 30
0.0
 10
184.8374941451351
 20
694.7235394211164
 30
0.0
  0
SPLINE
  5
B6
330
AD
100
AcDbEntity
  8
0
  6
Continuous
 62
     0
370
    30
100
AcDbSpline
210
0.0
220
0.0
230
1.0
 70
     8
 71
     7
 72
    36
 73
    28
 74
     0
 42
0.000000001
 43
0.0
 40
0.0
 40
0.0
 40
0.0
 40
0.0
 40
0.0
 40
0.0
 40
0.0
 40
0.0
 40
0.18
 40
0.18
 40
0.18
 40
0.18
 40
0.18
 40
0.207136
 40
0.207136
 40
0.207136
 40
0.207136
 40
0.207136
 40
0.2312
 40
0.2312
 40
0.2312
 40
0.2312
 40
0.2312
 40
0.354848
 40
0.354848
 40
0.354848
 40
0.354848
 40
0.354848
 40
0.4455724723969632
 40
0.4455724723969632
 40
0.4455724723969632
 40
0.4455724723969632
 40
0.4455724723969632
 40
0.4455724723969632
 40
0.4455724723969632
 40
0.4455724723969632
 10
184.8374941451351
 20
694.7235394211164
 30
0.0
 10
185.020277580216
 20
693.4762193363633
 30
0.0
 10
185.203061015297
 20
692.2288992516103
 30
0.0
 10
185.3858444532605
 20
690.9815791471431
 30
0.0
 10
185.5686278954502
 20
689.7342590138911
 30
0.0
 10
185.7514113419656
 20
688.4869388513002
 30
0.0
 10
185.9617504124044
 20
687.0515782176069
 30
0.0
 10
186.1720894853439
 20
685.6162175661724
 30
0.0
 10
186.1992020329736
 20
685.4282346652712
 30
0.0
 10
186.2282508552609
 20
685.2400012319775
 30
0.0
 10
186.2537626732001
 20
685.0522226416805
 30
0.0
 10
186.3084630232349
 20
684.6970877398936
 30
0.0
 10
186.3559745304169
 20
684.342853549334
 30
0.0
 10
186.3726157502085
 20
684.1770945605108
 30
0.0
 10
186.3897233523072
 20
684.0115290901351
 30
0.0
 10
186.4023437505466
 20
683.8467338723788
 30
0.0
 10
186.4653656506587
 20
682.8391810847221
 30
0.0
 10
186.4249969589248
 20
681.8609481801647
 30
0.0
 10
186.3201799501295
 20
681.0729687720168
 30
0.0
 10
186.1331017491442
 20
680.3369719888079
 30
0.0
 10
185.8864436648566
 20
679.6487886040679
 30
0.0
 10
185.3397564733386
 20
678.5722892524846
 30
0.0
 10
184.6095195291936
 20
677.7191719247446
 30
0.0
 10
184.2711203552374
 20
677.3996194837089
 30
0.0
 10
183.9051279380845
 20
677.1250012212488
 30
0.0
 10
183.5141331060138
 20
676.8982455784796
 30
0.0
 10
183.1013641871176
 20
676.7208340471036
 30
0.0
 10
182.6703128407558
 20
676.5934715966566
 30
0.0
  0
SPLINE
  5
B7
330
AD
100
AcDbEntity
  8
0
  6
Continuous
 62
     0
370
    30
100
AcDbSpline
210
0.0
220
0.0
230
1.0
 70
     8
 71
     3
 72
    54
 73
    50
 74
     0
 42
0.000000001
 43
0.0
 40
0.0
 40
0.0
 40
0.0
 40
0.0
 40
7.809960088797368
 40
11.73693432941683
 40
15.67807155551035
 40
19.62938457072071
 40
23.5860177183818
 40
24.57522149733232
 40
25.56430465886705
 40
26.05871584211779
 40
26.55305126087987
 40
26.80017336266277
 40
27.04628231734532
 40
27.17236408776555
 40
27.29273508486715
 40
27.42998700324233
 40
27.57251516157973
 40
28.14270649621837
 40
28.71272606621466
 40
29.28215333722292
 40
30.13421559670742
 40
31.54476338548838
 40
32.58313081156588
 40
33.05895652439366
 40
33.53101255619041
 40
34.01182143077232
 40
34.10524386744248
 40
34.43641949222886
 40
34.75989042275188
 40
34.95997383243223
 40
35.54026355588228
 40
36.11656736086503
 40
37.05717662203917
 40
37.48133760592521
 40
38.2845901212976
 40
39.41696167892135
 40
39.78173024246124
 40
39.96243432676746
 40
40.15991322114724
 40
40.35626142937627
 40
40.55077218719948
 40
40.74376705643986
 40
41.12520109042965
 40
42.05910430653614
 40
42.42696178377952
 40
43.13319343507548
 40
44.39783020032649
 40
45.73991395526956
 40
46.41540581686532
 40
46.41540581686532
 40
46.41540581686532
 40
46.41540581686532
 10
153.1244192864579
 20
661.8924163355969
 30
0.0
 10
151.2365693695359
 20
662.1113844207013
 30
0.0
 10
148.4050714535244
 20
662.441877326548
 30
0.0
 10
144.6312063796509
 20
662.885101094917
 30
0.0
 10
141.7895852404289
 20
663.2198661195915
 30
0.0
 10
138.9437782091846
 20
663.5558163864105
 30
0.0
 10
136.8084670328202
 20
663.8081661822276
 30
0.0
 10
135.3845962513663
 20
663.9764545389487
 30
0.0
 10
134.7915106612009
 20
664.0465503978555
 30
0.0
 10
134.3167860029707
 20
664.1026544109184
 30
0.0
 10
134.0211525835249
 20
664.1375907191173
 30
0.0
 10
133.7826100842378
 20
664.1657801047747
 30
0.0
 10
133.6383466709403
 20
664.1828249460013
 30
0.0
 10
133.513706520945
 20
664.1975537441333
 30
0.0
 10
133.4297587790755
 20
664.2074797484354
 30
0.0
 10
133.3204543069862
 20
664.2203913945514
 30
0.0
 10
133.0930409613312
 20
664.2477080101044
 30
0.0
 10
132.7501292035602
 20
664.2903127372817
 30
0.0
 10
132.2990352705075
 20
664.3496657664848
 30
0.0
 10
131.7794473766976
 20
664.4220700935007
 30
0.0
 10
131.0524960273322
 20
664.5309920861616
 30
0.0
 10
130.2302508815713
 20
664.6694380758943
 30
0.0
 10
129.5291402656184
 20
664.804174242661
 30
0.0
 10
129.0692802263055
 20
664.900087660525
 30
0.0
 10
128.739464048102
 20
664.9727730042939
 30
0.0
 10
128.520109557245
 20
665.0233662679932
 30
0.0
 10
128.281535832939
 20
665.0807931726933
 30
0.0
 10
128.0663414735718
 20
665.1346287960938
 30
0.0
 10
127.8134667289762
 20
665.202574749434
 30
0.0
 10
127.4839854034311
 20
665.2964002047664
 30
0.0
 10
127.0772241672186
 20
665.4224001207606
 30
0.0
 10
126.4522037207255
 20
665.641579616449
 30
0.0
 10
125.8785893109072
 20
665.8763194921388
 30
0.0
 10
125.2434837322075
 20
666.1752471337905
 30
0.0
 10
124.5612062278491
 20
666.5374359881844
 30
0.0
 10
123.9205065737568
 20
666.9482354808503
 30
0.0
 10
123.4745081753363
 20
667.2801602576108
 30
0.0
 10
123.2803767140592
 20
667.432528568321
 30
0.0
 10
123.1334088675823
 20
667.5523760463961
 30
0.0
 10
122.985267886333
 20
667.6784249736602
 30
0.0
 10
122.8407210231519
 20
667.8066835100882
 30
0.0
 10
122.6538302674849
 20
667.9796715852699
 30
0.0
 10
122.2975343698047
 20
668.3309472047978
 30
0.0
 10
121.9290054765532
 20
668.7526199691746
 30
0.0
 10
121.5298004616553
 20
669.2879513731351
 30
0.0
 10
121.1057288872993
 20
669.9409030799955
 30
0.0
 10
120.6204740245081
 20
670.9339420132217
 30
0.0
 10
120.302315405949
 20
671.9802399747239
 30
0.0
 10
120.1816168242938
 20
672.6389548980312
 30
0.0
 10
120.149167741807
 20
672.8604653659502
 30
0.0
  0
SPLINE
  5
B8
330
AD
100
AcDbEntity
  8
0
  6
Continuous
 62
     0
370
    30
100
AcDbSpline
210
0.0
220
0.0
230
1.0
 70
     8
 71
     3
 72
    22
 73
    18
 74
     0
 42
0.000000001
 43
0.0
 40
0.0
 40
0.0
 40
0.0
 40
0.0
 40
6.234888438574426
 40
9.345166287248768
 40
12.45125438438749
 40
15.55350503494658
 40
18.65463146486342
 40
19.42986012362668
 40
20.20523974939983
 40
20.59292791285492
 40
20.97955003026792
 40
21.41054332732529
 40
21.84656495453378
 40
22.72666491208233
 40
23.61800390782935
 40
24.52110345799006
 40
25.43642853449105
 40
25.43642853449105
 40
25.43642853449105
 40
25.43642853449105
 10
155.1939385234522
 20
679.7746088267647
 30
0.0
 10
153.6832589445839
 20
679.9488603841878
 30
0.0
 10
151.4132275068163
 20
680.2087100467861
 30
0.0
 10
148.3812267668219
 20
680.5531276712903
 30
0.0
 10
146.1094103667975
 20
680.8102120523921
 30
0.0
 10
143.8380570329898
 20
681.0665986933095
 30
0.0
 10
142.1355781829708
 20
681.2585476869467
 30
0.0
 10
140.9999781462852
 20
681.3865765956939
 30
0.0
 10
140.5285191345648
 20
681.4397513944145
 30
0.0
 10
140.1474627548913
 20
681.4826955270282
 30
0.0
 10
139.8630959486924
 20
681.5148584028345
 30
0.0
 10
139.5220304933256
 20
681.5529388857541
 30
0.0
 10
139.0589157573702
 20
681.6031057310365
 30
0.0
 10
138.462633405705
 20
681.662911456443
 30
0.0
 10
137.7466092078892
 20
681.7397256885711
 30
0.0
 10
136.9792037834213
 20
681.7830876747457
 30
0.0
 10
136.5540701034063
 20
681.8883022399294
 30
0.0
 10
136.2528805571151
 20
681.8673322708213
 30
0.0
  0
SPLINE
  5
B9
330
AD
100
AcDbEntity
  8
0
  6
Continuous
 62
     0
370
    30
100
AcDbSpline
210
0.0
220
0.0
230
1.0
 70
     8
 71
     3
 72
    45
 73
    41
 74
     0
 42
0.000000001
 43
0.0
 40
0.0
 40
0.0
 40
0.0
 40
0.0
 40
0.7301374035141287
 40
1.71005971358621
 40
3.967935637567395
 40
4.860676568984872
 40
5.410656056071315
 40
5.974547108111143
 40
6.359906014716868
 40
6.753870884112951
 40
6.954339162957588
 40
7.159220754132667
 40
7.364099361197146
 40
7.57215759282919
 40
7.995872176768923
 40
8.431978285439346
 40
9.112622300738847
 40
9.347602987928356
 40
9.831702494918211
 40
10.08159048208918
 40
10.34543970218973
 40
10.60579783574548
 40
22.01751374573001
 40
22.632256061611
 40
23.24528990213282
 40
23.85743839654675
 40
24.46730412887965
 40
25.68043554764822
 40
26.88513916157835
 40
28.08183408603393
 40
29.27091827106226
 40
30.45276794350479
 40
33.38154224484116
 40
38.56468652380116
 40
41.96436744185846
 40
48.67562524648213
 40
55.31196135499878
 40
63.57200271533218
 40
73.50627941819947
 40
84.95575055020889
 40
84.95575055020889
 40
84.95575055020889
 40
84.95575055020889
 10
120.1490746936458
 20
672.8611003691639
 30
0.0
 10
120.1139959387918
 20
673.1005097778202
 30
0.0
 10
120.0537061926516
 20
673.6634079334553
 30
0.0
 10
120.0333408966899
 20
674.9692470050944
 30
0.0
 10
120.2445038720416
 20
676.3037681000673
 30
0.0
 10
120.6137602671379
 20
677.4360905008019
 30
0.0
 10
120.8551365479088
 20
678.0311237020219
 30
0.0
 10
121.0580144571588
 20
678.4637937186544
 30
0.0
 10
121.255675156915
 20
678.8413059772392
 30
0.0
 10
121.4093230188741
 20
679.1111150805119
 30
0.0
 10
121.5394042729919
 20
679.3261829616123
 30
0.0
 10
121.6435004072256
 20
679.4917819027506
 30
0.0
 10
121.7514521939929
 20
679.6577631399689
 30
0.0
 10
121.9005456836729
 20
679.8792357376973
 30
0.0
 10
122.0973037935746
 20
680.1570116684109
 30
0.0
 10
122.3923592993672
 20
680.5467981478225
 30
0.0
 10
122.6635993205209
 20
680.8768952597113
 30
0.0
 10
122.9540436578729
 20
681.2087566471075
 30
0.0
 10
123.1596260363313
 20
681.4326451643769
 30
0.0
 10
123.3775380176052
 20
681.6588351074274
 30
0.0
 10
123.5453106920106
 20
681.8277448478948
 30
0.0
 10
126.2340095930215
 20
684.4467763714645
 30
0.0
 10
129.6673102038278
 20
685.9833385542966
 30
0.0
 10
132.3881164734375
 20
687.6945477885474
 30
0.0
 10
132.7834745144949
 20
687.944523839222
 30
0.0
 10
133.188875498795
 20
688.2020835987406
 30
0.0
 10
133.7215138457557
 20
688.541049183875
 30
0.0
 10
134.3831387138973
 20
688.9636026958487
 30
0.0
 10
135.1692788515206
 20
689.4678121213044
 30
0.0
 10
135.9473373959671
 20
689.9688809655493
 30
0.0
 10
136.7175365255476
 20
690.4668032735672
 30
0.0
 10
137.8575767228688
 20
691.2065214895292
 30
0.0
 10
139.8447780959829
 20
692.5037359549808
 30
0.0
 10
142.2798641491224
 20
694.1100995815953
 30
0.0
 10
145.4868552451199
 20
696.2437482209989
 30
0.0
 10
148.9711259881192
 20
698.5805695741664
 30
0.0
 10
153.452957335135
 20
701.6010937296068
 30
0.0
 10
158.6303550019505
 20
705.0854781941132
 30
0.0
 10
164.9170987202443
 20
709.2687006282555
 30
0.0
 10
169.5753588298739
 20
712.3023889286627
 30
0.0
 10
172.1059168231081
 20
713.9310628973092
 30
0.0
  0
ELLIPSE
  5
BA
330
AD
100
AcDbEntity
  8
0
  6
Continuous
 62
     0
370
    30
100
AcDbEllipse
 10
317.941517
 20
651.872211
 30
0.0
 11
1.035069000352117
 21
8.940281436538257
 31
0.0
210
0.0
220
0.0
230
1.0
 40
0.683944
 41
1.884545294038796
 42
3.141628733744389
  0
ELLIPSE
  5
BB
330
AD
100
AcDbEntity
  8
0
  6
Continuous
 62
     0
370
    30
100
AcDbEllipse
 10
154.16077
 20
670.834072
 30
0.0
 11
1.035069000352114
 21
8.94028143653823
 31
0.0
210
0.0
220
0.0
230
1.0
 40
0.683944
 41
-0.0000000010349916
 42
0.3719912950240234
  0
ELLIPSE
  5
BC
330
AD
100
AcDbEntity
  8
0
  6
Continuous
 62
     0
370
    30
100
AcDbEllipse
 10
154.16077
 20
670.834072
 30
0.0
 11
1.035069000352114
 21
8.94028143653823
 31
0.0
210
0.0
220
0.0
230
1.0
 40
0.683944
 41
0.3719912950240234
 42
3.1415926525548
  0
LINE
  5
BD
330
AD
100
AcDbEntity
  8
0
  6
Continuous
 62
     0
370
    30
100
AcDbLine
 10
316.906448
 20
642.931929
 30
0.0
 11
153.125701
 21
661.89379
 31
0.0
  0
LINE
  5
BE
330
AD
100
AcDbEntity
  8
0
  6
Continuous
 62
     0
370
    30
100
AcDbLine
 10
318.976586
 20
660.812492
 30
0.0
 11
155.195839
 21
679.774353
 31
0.0
  0
ENDBLK
  5
C0
330
AD
100
AcDbEntity
  8
0
100
AcDbBlockEnd
  0
BLOCK
  5
CE
330
C2
100
AcDbEntity
  8
0
100
AcDbBlockBegin
  2
e
 70
     0
 10
86.351028
 20
0.0
 30
0.0
  3
e
  1

  0
ARC
  5
C3
330
C2
100
AcDbEntity
  8
0
  6
Continuous
 62
     0
370
    30
100
AcDbCircle
 10
-21.196729
 20
518.062174
 30
0.0
 40
8.998486268813622
100
AcDbArc
 50
89.998921
 51
180.014906
  0
LINE
  5
C4
330
C2
100
AcDbEntity
  8
0
  6
Continuous
 62
     0
370
    30
100
AcDbLine
 10
53.804783
 20
518.06066
 30
0.0
 11
53.80481
 21
498.060659
 31
0.0
  0
LINE
  5
C5
330
C2
100
AcDbEntity
  8
0
  6
Continuous
 62
     0
370
    30
100
AcDbLine
 10
53.804772
 20
538.06066
 30
0.0
 11
53.804783
 21
518.06066
 31
0.0
  0
ARC
  5
C6
330
C2
100
AcDbEntity
  8
0
  6
Continuous
 62
     0
370
    30
100
AcDbCircle
 10
-21.196599
 20
518.057299
 30
0.0
 40
8.998528131864727
100
AcDbArc
 50
180.962147
 51
217.815384
  0
SPLINE
  5
C7
330
C2
100
AcDbEntity
  8
0
  6
Continuous
 62
     0
370
    30
100
AcDbSpline
210
0.0
220
0.0
230
1.0
 70
     8
 71
     3
 72
    18
 73
    14
 74
     0
 42
0.000000001
 43
0.0
 40
0.0
 40
0.0
 40
0.0
 40
0.0
 40
0.6653709870503206
 40
1.107665986847294
 40
1.550523202021901
 40
1.772581766359763
 40
2.218744505495633
 40
2.443165090548997
 40
2.668677040262021
 40
2.895488955634185
 40
3.123779986160111
 40
3.353849476176812
 40
3.586867138228753
 40
3.586867138228753
 40
3.586867138228753
 40
3.586867138228753
 10
-30.19521613245377
 20
518.0596434756318
 30
0.0
 10
-30.19521126114005
 20
517.8379433910061
 30
0.0
 10
-30.18108457779648
 20
517.4685688319571
 30
0.0
 10
-30.12869441486265
 20
516.9564682031454
 30
0.0
 10
-30.07310739939571
 20
516.5951560379771
 30
0.0
 10
-30.00413081996525
 20
516.2371576526868
 30
0.0
 10
-29.93828724673014
 20
515.9536817347563
 30
0.0
 10
-29.86233295469098
 20
515.6741206208718
 30
0.0
 10
-29.79999384223954
 20
515.465818525197
 30
0.0
 10
-29.73305612155671
 20
515.2589521765174
 30
0.0
 10
-29.65935139814411
 20
515.0554548982088
 30
0.0
 10
-29.58717552740626
 20
514.847905877148
 30
0.0
 10
-29.5195010805357
 20
514.7261267915851
 30
0.0
 10
-29.50065117218008
 20
514.6525588122859
 30
0.0
  0
SPLINE
  5
C8
330
C2
100
AcDbEntity
  8
0
  6
Continuous
 62
     0
370
    30
100
AcDbSpline
210
0.0
220
0.0
230
1.0
 70
     8
 71
     3
 72
    59
 73
    55
 74
     0
 42
0.000000001
 43
0.0
 40
0.0
 40
0.0
 40
0.0
 40
0.0
 40
10.16547253405544
 40
20.29666150257573
 40
30.40940746553171
 40
40.54512833271394
 40
47.33586621687221
 40
52.45421858451492
 40
55.88146211067439
 40
59.32422451519678
 40
61.05311880774653
 40
62.78804304881414
 40
64.53048633062632
 40
65.40547123198725
 40
66.28375486451228
 40
67.1661409271214
 40
68.05355821115775
 40
68.71123878010887
 40
68.93060167128546
 40
69.14995360960594
 40
69.80779859298474
 40
70.46500104083947
 40
71.33967973325356
 40
71.99405598413603
 40
73.08062356781508
 40
75.0187713088902
 40
76.30085712126117
 40
77.15547266155758
 40
78.01722488536828
 40
78.45548226486068
 40
78.84712372652315
 40
79.25534002426859
 40
79.58225488291082
 40
79.81013465735103
 40
79.96824456238373
 40
80.1427677372661
 40
80.21941427585314
 40
80.43991270712002
 40
80.57741424021596
 40
80.7086776345332
 40
80.83509028369228
 40
82.02862861454149
 40
82.45734919470794
 40
82.88633137020639
 40
83.77896530945418
 40
84.67327590441602
 40
85.10436521964579
 40
85.5364620476841
 40
85.73518012715185
 40
85.93450831931456
 40
86.0295292280881
 40
86.12475571000894
 40
86.53209078458724
 40
87.83415354448793
 40
87.83415354448793
 40
87.83415354448793
 40
87.83415354448793
 10
53.80522310693342
 20
498.0607002521533
 30
0.0
 10
50.45258955329702
 20
498.5523448326992
 30
0.0
 10
43.75861385543286
 20
499.533930109565
 30
0.0
 10
33.72943563946495
 20
501.0044351979807
 30
0.0
 10
23.71013428432917
 20
502.4729871405003
 30
0.0
 10
14.79237967985
 20
503.7797429717585
 30
0.0
 10
7.521818508322383
 20
504.8457665198766
 30
0.0
 10
2.463922758858644
 20
505.5879004631538
 30
0.0
 10
-1.489646093040236
 20
506.1681777026544
 30
0.0
 10
-4.325289421749659
 20
506.5843281292799
 30
0.0
 10
-6.602740264305851
 20
506.9183691977719
 30
0.0
 10
-8.319451046071691
 20
507.1700102161132
 30
0.0
 10
-9.75446639677672
 20
507.3801584375754
 30
0.0
 10
-10.90681872884356
 20
507.54867625389
 30
0.0
 10
-11.77549601148674
 20
507.6755460958303
 30
0.0
 10
-12.64804584561325
 20
507.8027587144786
 30
0.0
 10
-13.44764307481267
 20
507.9190725529513
 30
0.0
 10
-14.02862638108515
 20
508.0033712187902
 30
0.0
 10
-14.39038851718108
 20
508.055771508955
 30
0.0
 10
-14.7521047152884
 20
508.1081167006738
 30
0.0
 10
-15.2574751355467
 20
508.1811047099038
 30
0.0
 10
-15.97278127463606
 20
508.2840442085118
 30
0.0
 10
-16.67508543611511
 20
508.3846047997687
 30
0.0
 10
-17.49289478306751
 20
508.5009915242132
 30
0.0
 10
-18.59833996761265
 20
508.6569181750207
 30
0.0
 10
-19.7594298727961
 20
508.8182436032569
 30
0.0
 10
-20.64837660853017
 20
508.9389558200793
 30
0.0
 10
-21.17471321475804
 20
509.0088351117264
 30
0.0
 10
-21.46844170748759
 20
509.0467639163688
 30
0.0
 10
-21.63916910887433
 20
509.068134182463
 30
0.0
 10
-21.73403981987568
 20
509.079651611934
 30
0.0
 10
-21.78436071734056
 20
509.0854930452976
 30
0.0
 10
-21.8056758195105
 20
509.0878056899984
 30
0.0
 10
-21.79406296920058
 20
509.086549049871
 30
0.0
 10
-21.76710763581079
 20
509.0839003407782
 30
0.0
 10
-21.73733748149965
 20
509.0811935743475
 30
0.0
 10
-21.69555684913082
 20
509.077683711375
 30
0.0
 10
-21.64986230640888
 20
509.0741789041434
 30
0.0
 10
-21.59074289589408
 20
509.0703204464583
 30
0.0
 10
-21.54078804445361
 20
509.0674585684237
 30
0.0
 10
-21.33865163860283
 20
509.0577986345255
 30
0.0
 10
-21.25229544325256
 20
509.0590714960479
 30
0.0
 10
-21.27521703937651
 20
509.0589908338554
 30
0.0
 10
-21.2779532560813
 20
509.0590821091623
 30
0.0
 10
-21.30362856221697
 20
509.0593740218679
 30
0.0
 10
-21.3003201006082
 20
509.0592785475098
 30
0.0
 10
-21.34824905969518
 20
509.0600804912455
 30
0.0
 10
-21.34946641193385
 20
509.060047454951
 30
0.0
 10
-21.40229781999346
 20
509.061211902676
 30
0.0
 10
-21.42291594129183
 20
509.0617469168589
 30
0.0
 10
-21.45271729187401
 20
509.0626110770892
 30
0.0
 10
-21.51321400070145
 20
509.0645054154496
 30
0.0
 10
-21.11225078759809
 20
509.0541162365446
 30
0.0
 10
-21.03579743090269
 20
509.0528137434779
 30
0.0
 10
-21.03576330749294
 20
509.0538179803391
 30
0.0
  0
ARC
  5
C9
330
C2
100
AcDbEntity
  8
0
  6
Continuous
 62
     0
370
    30
100
AcDbCircle
 10
-21.195217
 20
518.061958
 30
0.0
 40
8.999998300209235
100
AcDbArc
 50
142.531308
 51
180.013182
  0
SPLINE
  5
CA
330
C2
100
AcDbEntity
  8
0
  6
Continuous
 62
     0
370
    30
100
AcDbSpline
210
0.0
220
0.0
230
1.0
 70
     8
 71
     3
 72
    50
 73
    46
 74
     0
 42
0.000000001
 43
0.0
 40
0.0
 40
0.0
 40
0.0
 40
0.0
 40
13.54650901424158
 40
27.03828310266823
 40
37.16130921134431
 40
47.33587000511031
 40
54.16640382727151
 40
61.05311863596344
 40
64.53048385669136
 40
65.4054679273897
 40
67.16613546915958
 40
68.05355138884254
 40
68.27255968602113
 40
68.4918720839464
 40
68.93059387867966
 40
69.36927326191989
 40
70.24601525807944
 40
71.55796816037571
 40
72.64672302105136
 40
73.72921456545332
 40
75.87395694339666
 40
77.15546840733894
 40
77.80048173043619
 40
78.2354066699988
 40
78.64998605487663
 40
78.84721258937097
 40
79.04910832769835
 40
79.25551305472162
 40
79.58253643111998
 40
79.81053950920926
 40
80.0605492060592
 40
80.29218057904612
 40
80.57846305010892
 40
80.70984813920973
 40
80.83634629144377
 40
82.03700811031432
 40
82.46600871545067
 40
82.89525742715206
 40
84.69776189770974
 40
86.50460130073242
 40
89.20973539935545
 40
91.8689180026866
 40
96.35750920025487
 40
100.8467208128503
 40
101.5551677279768
 40
101.5551677279768
 40
101.5551677279768
 40
101.5551677279768
 10
53.80478365659648
 20
538.0606597660128
 30
0.0
 10
49.33707969990497
 20
537.4053961952318
 30
0.0
 10
40.41968673779579
 20
536.0975692465337
 30
0.0
 10
28.16381237173395
 20
534.3005261826742
 30
0.0
 10
17.01991767272476
 20
532.6673013681517
 30
0.0
 10
8.072812864276472
 20
531.3555651029682
 30
0.0
 10
0.1933740167028475
 20
530.1991107342872
 30
0.0
 10
-5.476822551415751
 20
529.3666721699652
 30
0.0
 10
-9.182780626498882
 20
528.8234571488468
 30
0.0
 10
-11.19792530966511
 20
528.5287170433045
 30
0.0
 10
-12.35894987035593
 20
528.3592337464241
 30
0.0
 10
-13.30338446600209
 20
528.2218289033178
 30
0.0
 10
-13.73991846352071
 20
528.1584340794188
 30
0.0
 10
-14.02873028463117
 20
528.1165237881037
 30
0.0
 10
-14.39060784378617
 20
528.064074484847
 30
0.0
 10
-14.96919655903598
 20
527.9803707641208
 30
0.0
 10
-15.83214888223529
 20
527.8559278125407
 30
0.0
 10
-16.88678835131111
 20
527.7048529099214
 30
0.0
 10
-17.95672972656875
 20
527.5532122786619
 30
0.0
 10
-19.20041653550845
 20
527.3788521459901
 30
0.0
 10
-20.32210402827255
 20
527.2244445473143
 30
0.0
 10
-21.07662941508886
 20
527.1237601979344
 30
0.0
 10
-21.40992063364367
 20
527.080520886515
 30
0.0
 10
-21.57922683102625
 20
527.0590660311967
 30
0.0
 10
-21.67212482279783
 20
527.0475951279335
 30
0.0
 10
-21.72868058370088
 20
527.0407787121785
 30
0.0
 10
-21.76072962150916
 20
527.0369960165598
 30
0.0
 10
-21.7888573014171
 20
527.0337628732624
 30
0.0
 10
-21.80572702512785
 20
527.0319328399663
 30
0.0
 10
-21.79253901278267
 20
527.033360128471
 30
0.0
 10
-21.75295397923527
 20
527.0372197917181
 30
0.0
 10
-21.68477383934501
 20
527.043046396575
 30
0.0
 10
-21.60918470546657
 20
527.0483736892219
 30
0.0
 10
-21.54019178935081
 20
527.0523160642775
 30
0.0
 10
-21.33695683018354
 20
527.0620134702614
 30
0.0
 10
-21.24675608242951
 20
527.0607186275627
 30
0.0
 10
-21.26887784109641
 20
527.0608224819773
 30
0.0
 10
-21.27574195579798
 20
527.0606610299543
 30
0.0
 10
-21.28648429694319
 20
527.0606182975222
 30
0.0
 10
-21.36900653020051
 20
527.0596006652249
 30
0.0
 10
-21.07452639699217
 20
527.0626150462044
 30
0.0
 10
-20.73235061990552
 20
527.0494629410462
 30
0.0
 10
-20.88541791142073
 20
527.0553881822383
 30
0.0
 10
-20.85330572923903
 20
527.0541497502549
 30
0.0
 10
-20.85373474167719
 20
527.0541847706963
 30
0.0
 10
-20.85396920333938
 20
527.0541964167568
 30
0.0
  0
ARC
  5
CB
330
C2
100
AcDbEntity
  8
0
  6
Continuous
 62
     0
370
    30
100
AcDbCircle
 10
-21.19547
 20
518.05916
 30
0.0
 40
9.001445864809227
100
AcDbArc
 50
217.820372
 51
269.621319
  0
SPLINE
  5
CC
330
C2
100
AcDbEntity
  8
0
  6
Continuous
 62
     0
370
    30
100
AcDbSpline
210
0.0
220
0.0
230
1.0
 70
     8
 71
     3
 72
    46
 73
    42
 74
     0
 42
0.000000001
 43
0.0
 40
0.0
 40
0.0
 40
0.0
 40
0.0
 40
13.54650901424158
 40
27.03828310266825
 40
37.16130921134432
 40
47.33587000511031
 40
54.16640382727151
 40
61.05311863596344
 40
64.53048385669138
 40
65.40546792738971
 40
67.16613546915958
 40
68.05355138884254
 40
68.27255968602111
 40
68.49187208394639
 40
68.93059387867966
 40
69.36927326191987
 40
70.24601525807938
 40
71.55796816037558
 40
72.64672302105126
 40
73.72921456545323
 40
75.87395694339654
 40
77.15546840733876
 40
77.80048173043606
 40
78.23540666999861
 40
78.64998605487642
 40
78.84721258937076
 40
79.04910832769806
 40
79.25551305472132
 40
79.58253643111956
 40
79.81053950920864
 40
80.06054920605841
 40
80.29218057904522
 40
80.57846305010779
 40
80.70984813920848
 40
80.8363462914424
 40
82.03700811031219
 40
82.46600871545041
 40
82.89525742715364
 40
84.69776189771699
 40
86.50460130074464
 40
88.1813701041864
 40
88.1813701041864
 40
88.1813701041864
 40
88.1813701041864
 10
53.80479677000262
 20
498.0577083702129
 30
0.0
 10
49.33709281331205
 20
498.712971940994
 30
0.0
 10
40.41969985074488
 20
500.0207988896921
 30
0.0
 10
28.16382547849169
 20
501.8178419535516
 30
0.0
 10
17.0199307738729
 20
503.4510667680741
 30
0.0
 10
8.072825964575856
 20
504.7628030332576
 30
0.0
 10
0.1933871212640668
 20
505.9192574019386
 30
0.0
 10
-5.476809439695671
 20
506.7516959662605
 30
0.0
 10
-9.182767507735832
 20
507.294910987379
 30
0.0
 10
-11.19791218504525
 20
507.5896510929213
 30
0.0
 10
-12.35893674140146
 20
507.7591343898016
 30
0.0
 10
-13.30337133262282
 20
507.896539232908
 30
0.0
 10
-13.73990532782727
 20
507.959934056807
 30
0.0
 10
-14.02871714740326
 20
508.0018443481221
 30
0.0
 10
-14.39059470596432
 20
508.0542936513788
 30
0.0
 10
-14.96918342282861
 20
508.137997372105
 30
0.0
 10
-15.83213575427159
 20
508.262440323685
 30
0.0
 10
-16.88677524575917
 20
508.4135152263044
 30
0.0
 10
-17.95671665875025
 20
508.5651558575639
 30
0.0
 10
-19.20040352965188
 20
508.7395159902357
 30
0.0
 10
-20.32209111104673
 20
508.8939235889114
 30
0.0
 10
-21.07661659677657
 20
508.9946079382914
 30
0.0
 10
-21.40990787766899
 20
509.0378472497108
 30
0.0
 10
-21.57921411600537
 20
509.059302105029
 30
0.0
 10
-21.67211213718717
 20
509.0707730082922
 30
0.0
 10
-21.72866792128146
 20
509.0775894240473
 30
0.0
 10
-21.76071697651673
 20
509.081372119666
 30
0.0
 10
-21.78884467771128
 20
509.0846052629634
 30
0.0
 10
-21.80571442359181
 20
509.0864352962595
 30
0.0
 10
-21.79252643471989
 20
509.0850080077548
 30
0.0
 10
-21.75294142159501
 20
509.0811483445077
 30
0.0
 10
-21.68476130329304
 20
509.0753217396508
 30
0.0
 10
-21.60917218715178
 20
509.069994447004
 30
0.0
 10
-21.54017928569979
 20
509.0660520719483
 30
0.0
 10
-21.33694436514648
 20
509.0563546659644
 30
0.0
 10
-21.24674366975255
 20
509.0576495086631
 30
0.0
 10
-21.26886548824579
 20
509.0575456542485
 30
0.0
 10
-21.27572968048428
 20
509.057707106271
 30
0.0
 10
-21.28647213999017
 20
509.0577498387116
 30
0.0
 10
-21.35555509165496
 20
509.0586017410828
 30
0.0
 10
-21.25548326450317
 20
509.0575991187256
 30
0.0
 10
-21.19655065078587
 20
509.0575489933103
 30
0.0
  0
ARC
  5
CD
330
C2
100
AcDbEntity
  8
0
  6
Continuous
 62
     0
370
    30
100
AcDbCircle
 10
-21.195308
 20
518.059184
 30
0.0
 40
9.000000000000027
100
AcDbArc
 50
217.819825
 51
268.810789
  0
ENDBLK
  5
CF
330
C2
100
AcDbEntity
  8
0
100
AcDbBlockEnd
  0
ENDSEC
  0
SECTION
  2
ENTITIES
  0
INSERT
  5
8C
330
1F
100
AcDbEntity
  8
0
  6
Continuous
 62
     7
370
     0
100
AcDbBlockReference
  2
a
 10
63.414513
 20
116.665619
 30
0.0
  0
INSERT
  5
9C
330
1F
100
AcDbEntity
  8
0
  6
Continuous
 62
     7
370
     0
100
AcDbBlockReference
  2
b
 10
185.615524
 20
351.11618
 30
0.0
  0
INSERT
  5
AC
330
1F
100
AcDbEntity
  8
0
  6
Continuous
 62
     7
370
     0
100
AcDbBlockReference
  2
c
 10
63.414513
 20
-46.029755
 30
0.0
  0
INSERT
  5
C1
330
1F
100
AcDbEntity
  8
0
  6
Continuous
 62
     7
370
     0
100
AcDbBlockReference
  2
d
 10
-276.972847
 20
617.364716
 30
0.0
  0
INSERT
  5
D0
330
1F
100
AcDbEntity
  8
0
  6
Continuous
 62
     7
370
     0
100
AcDbBlockReference
  2
e
 10
86.351028
 20
0.0
 30
0.0
  0
ENDSEC
  0
SECTION
  2
OBJECTS
  0
DICTIONARY
  5
C
330
0
100
AcDbDictionary
281
     1
  3
ACAD_GROUP
350
D
  3
ACAD_LAYOUT
350
1A
  3
ACAD_MATERIAL
350
43
  3
ACAD_MLEADERSTYLE
350
6B
  3
ACAD_MLINESTYLE
350
17
  3
ACAD_PLOTSETTINGS
350
19
  3
ACAD_PLOTSTYLENAME
350
E
  3
ACAD_SCALELIST
350
47
  3
ACAD_TABLESTYLE
350
69
  3
ACAD_VISUALSTYLE
350
2A
  3
AcDbVariableDictionary
350
D1
  0
DICTIONARY
  5
DC
330
8
100
AcDbDictionary
280
     1
281
     1
  3
ACAD_XREC_ROUNDTRIP
360
DD
  0
DICTIONARY
  5
D
102
{ACAD_REACTORS
330
C
102
}
330
C
100
AcDbDictionary
281
     1
  0
DICTIONARY
  5
1A
102
{ACAD_REACTORS
330
C
102
}
330
C
100
AcDbDictionary
281
     1
  3
Layout1
350
1E
  3
Layout2
350
26
  3
Model
350
22
  0
DICTIONARY
  5
43
102
{ACAD_REACTORS
330
C
102
}
330
C
100
AcDbDictionary
281
     1
  3
ByBlock
350
45
  3
ByLayer
350
44
  3
Global
350
46
  0
DICTIONARY
  5
6B
102
{ACAD_REACTORS
330
C
102
}
330
C
100
AcDbDictionary
281
     1
  3
Standard
350
6C
  0
DICTIONARY
  5
17
102
{ACAD_REACTORS
330
C
102
}
330
C
100
AcDbDictionary
281
     1
  3
Standard
350
18
  0
DICTIONARY
  5
19
102
{ACAD_REACTORS
330
C
102
}
330
C
100
AcDbDictionary
281
     1
  0
ACDBDICTIONARYWDFLT
  5
E
102
{ACAD_REACTORS
330
C
102
}
330
C
100
AcDbDictionary
281
     1
  3
Normal
350
F
100
AcDbDictionaryWithDefault
340
F
  0
DICTIONARY
  5
47
102
{ACAD_REACTORS
330
C
102
}
330
C
100
AcDbDictionary
281
     1
  3
A0
350
48
  3
A1
350
49
  3
A2
350
4A
  3
A3
350
4B
  3
A4
350
4C
  3
A5
350
4D
  3
A6
350
4E
  3
A7
350
4F
  3
A8
350
50
  3
A9
350
51
  3
B0
350
52
  3
B1
350
53
  3
B2
350
54
  3
B3
350
55
  3
B4
350
56
  3
B5
350
57
  3
B6
350
58
  3
B7
350
59
  3
B8
350
5A
  3
B9
350
5B
  3
C0
350
5C
  3
C1
350
5D
  3
C2
350
5E
  3
C3
350
5F
  3
C4
350
60
  3
C5
350
61
  3
C6
350
62
  3
C7
350
63
  3
C8
350
64
  3
C9
350
65
  3
D0
350
66
  3
D1
350
67
  3
D2
350
68
  0
DICTIONARY
  5
69
102
{ACAD_REACTORS
330
C
102
}
330
C
100
AcDbDictionary
281
     1
  3
Standard
350
6A
  0
DICTIONARY
  5
2A
102
{ACAD_REACTORS
330
C
102
}
330
C
100
AcDbDictionary
281
     1
  3
2dWireframe
350
2F
  3
Basic
350
32
  3
Brighten
350
36
  3
ColorChange
350
3A
  3
Conceptual
350
34
  3
Dim
350
35
  3
EdgeColorOff
350
3D
  3
Facepattern
350
39
  3
Flat
350
2B
  3
FlatWithEdges
350
2C
  3
Gouraud
350
2D
  3
GouraudWithEdges
350
2E
  3
Hidden
350
31
  3
JitterOff
350
3B
  3
Linepattern
350
38
  3
OverhangOff
350
3C
  3
Realistic
350
33
  3
Shaded
350
42
  3
Shaded with edges
350
41
  3
Shades of Gray
350
3E
  3
Sketchy
350
3F
  3
Thicken
350
37
  3
Wireframe
350
30
  3
X-Ray
350
40
  0
DICTIONARY
  5
D1
102
{ACAD_REACTORS
330
C
102
}
330
C
100
AcDbDictionary
281
     1
  3
CANNOSCALE
350
DE
  3
CENTEREXE
350
D8
  3
CENTERLTYPEFILE
350
D9
  3
CMLEADERSTYLE
350
D3
  3
CTABLESTYLE
350
D2
  3
DIMASSOC
350
DA
  3
HIDETEXT
350
DB
  3
MSLTSCALE
350
DF
  3
PSOLHEIGHT
350
D5
  3
PSOLWIDTH
350
D4
  0
XRECORD
  5
DD
102
{ACAD_REACTORS
330
DC
102
}
330
DC
100
AcDbXrecord
280
     1
102
VTR_0.000_0.000_1.000_1.000_VISUALSTYLE
340
2F
102
VTR_0.000_0.000_1.000_1.000_GRIDDISPLAY
 70
     3
102
VTR_0.000_0.000_1.000_1.000_GRIDMAJOR
 70
     5
102
VTR_0.000_0.000_1.000_1.000_DEFAULTLIGHTING
280
     1
102
VTR_0.000_0.000_1.000_1.000_DEFAULTLIGHTINGTYPE
 70
     1
102
VTR_0.000_0.000_1.000_1.000_BRIGHTNESS
141
0.0
102
VTR_0.000_0.000_1.000_1.000_CONTRAST
142
0.0
  0
LAYOUT
  5
1E
102
{ACAD_REACTORS
330
1A
102
}
330
1A
100
AcDbPlotSettings
  1

  2
none_device
  4

  6

 40
0.0
 41
0.0
 42
0.0
 43
0.0
 44
0.0
 45
0.0
 46
0.0
 47
0.0
 48
0.0
 49
0.0
140
0.0
141
0.0
142
1.0
143
1.0
 70
   688
 72
     1
 73
     0
 74
     5
  7

 75
    16
147
1.0
148
0.0
149
0.0
100
AcDbLayout
  1
Layout1
 70
     1
 71
     1
 10
0.0
 20
0.0
 11
420.0
 21
297.0
 12
0.0
 22
0.0
 32
0.0
 14
1.000000E+20
 24
1.000000E+20
 34
1.000000E+20
 15
-1.000000E+20
 25
-1.000000E+20
 35
-1.000000E+20
146
0.0
 13
0.0
 23
0.0
 33
0.0
 16
1.0
 26
0.0
 36
0.0
 17
0.0
 27
1.0
 37
0.0
 76
     0
330
1B
  0
LAYOUT
  5
26
102
{ACAD_REACTORS
330
1A
102
}
330
1A
100
AcDbPlotSettings
  1

  2
none_device
  4

  6

 40
0.0
 41
0.0
 42
0.0
 43
0.0
 44
0.0
 45
0.0
 46
0.0
 47
0.0
 48
0.0
 49
0.0
140
0.0
141
0.0
142
1.0
143
1.0
 70
   688
 72
     1
 73
     0
 74
     5
  7

 75
    16
147
1.0
148
0.0
149
0.0
100
AcDbLayout
  1
Layout2
 70
     1
 71
     2
 10
0.0
 20
0.0
 11
0.0
 21
0.0
 12
0.0
 22
0.0
 32
0.0
 14
0.0
 24
0.0
 34
0.0
 15
0.0
 25
0.0
 35
0.0
146
0.0
 13
0.0
 23
0.0
 33
0.0
 16
1.0
 26
0.0
 36
0.0
 17
0.0
 27
1.0
 37
0.0
 76
     0
330
23
  0
LAYOUT
  5
22
102
{ACAD_REACTORS
330
1A
102
}
330
1A
100
AcDbPlotSettings
  1

  2
none_device
  4
Letter_(8.50_x_11.00_Inches)
  6

 40
6.35
 41
6.35
 42
6.350005
 43
6.350005
 44
215.9
 45
279.4
 46
0.0
 47
0.0
 48
0.0
 49
0.0
140
0.0
141
0.0
142
1.0
143
1.0
 70
  1712
 72
     1
 73
     0
 74
     0
  7

 75
     0
147
1.0
148
0.0
149
0.0
100
AcDbLayout
  1
Model
 70
     1
 71
     0
 10
-30.195215
 20
334.777069
 11
531.791199
 21
714.627686
 12
0.0
 22
0.0
 32
0.0
 14
-30.195215
 24
334.777069
 34
0.0
 15
531.791199
 25
714.627686
 35
0.0
146
0.0
 13
0.0
 23
0.0
 33
0.0
 16
1.0
 26
0.0
 36
0.0
 17
0.0
 27
1.0
 37
0.0
 76
     0
330
1F
331
29
  0
MATERIAL
  5
45
102
{ACAD_REACTORS
330
43
102
}
102
{ACAD_XDICTIONARY
360
112
102
}
330
43
100
AcDbMaterial
  1
ByBlock
  0
MATERIAL
  5
44
102
{ACAD_REACTORS
330
43
102
}
102
{ACAD_XDICTIONARY
360
110
102
}
330
43
100
AcDbMaterial
  1
ByLayer
  0
MATERIAL
  5
46
102
{ACAD_REACTORS
330
43
102
}
102
{ACAD_XDICTIONARY
360
114
102
}
330
43
100
AcDbMaterial
  1
Global
  0
MLEADERSTYLE
  5
6C
102
{ACAD_REACTORS
330
6B
102
}
102
{ACAD_XDICTIONARY
360
117
102
}
330
6B
100
AcDbMLeaderStyle
170
     2
171
     1
172
     0
 90
        2
 40
0.0
 41
0.0
173
     1
 91
-1056964608
340
14
 92
       -2
290
     1
 42
2.0
291
     1
 43
8.0
  3
Standard
341
0
 44
4.0
300

342
11
174
     1
178
     6
175
     1
176
     0
 93
-1056964608
 45
4.0
292
     0
297
     0
 46
4.0
343
0
 94
-1056964608
 47
1.0
 49
1.0
140
1.0
293
     1
141
0.0
294
     1
177
     0
142
1.0
295
     0
296
     0
143
3.75
1001
ACAD_MLEADERVER
1070
     2
  0
MLINESTYLE
  5
18
102
{ACAD_REACTORS
330
17
102
}
330
17
100
AcDbMlineStyle
  2
Standard
 70
     0
  3

 62
   256
 51
90.0
 52
90.0
 71
     2
 49
0.5
 62
   256
  6
BYLAYER
 49
-0.5
 62
   256
  6
BYLAYER
  0
ACDBPLACEHOLDER
  5
F
102
{ACAD_REACTORS
330
E
102
}
330
E
  0
SCALE
  5
48
102
{ACAD_REACTORS
330
47
102
}
330
47
100
AcDbScale
 70
     0
300
1:1
140
1.0
141
1.0
290
     1
  0
SCALE
  5
49
102
{ACAD_REACTORS
330
47
102
}
330
47
100
AcDbScale
 70
     0
300
1:2
140
1.0
141
2.0
290
     0
  0
SCALE
  5
4A
102
{ACAD_REACTORS
330
47
102
}
330
47
100
AcDbScale
 70
     0
300
1:4
140
1.0
141
4.0
290
     0
  0
SCALE
  5
4B
102
{ACAD_REACTORS
330
47
102
}
330
47
100
AcDbScale
 70
     0
300
1:5
140
1.0
141
5.0
290
     0
  0
SCALE
  5
4C
102
{ACAD_REACTORS
330
47
102
}
330
47
100
AcDbScale
 70
     0
300
1:8
140
1.0
141
8.0
290
     0
  0
SCALE
  5
4D
102
{ACAD_REACTORS
330
47
102
}
330
47
100
AcDbScale
 70
     0
300
1:10
140
1.0
141
10.0
290
     0
  0
SCALE
  5
4E
102
{ACAD_REACTORS
330
47
102
}
330
47
100
AcDbScale
 70
     0
300
1:16
140
1.0
141
16.0
290
     0
  0
SCALE
  5
4F
102
{ACAD_REACTORS
330
47
102
}
330
47
100
AcDbScale
 70
     0
300
1:20
140
1.0
141
20.0
290
     0
  0
SCALE
  5
50
102
{ACAD_REACTORS
330
47
102
}
330
47
100
AcDbScale
 70
     0
300
1:30
140
1.0
141
30.0
290
     0
  0
SCALE
  5
51
102
{ACAD_REACTORS
330
47
102
}
330
47
100
AcDbScale
 70
     0
300
1:40
140
1.0
141
40.0
290
     0
  0
SCALE
  5
52
102
{ACAD_REACTORS
330
47
102
}
330
47
100
AcDbScale
 70
     0
300
1:50
140
1.0
141
50.0
290
     0
  0
SCALE
  5
53
102
{ACAD_REACTORS
330
47
102
}
330
47
100
AcDbScale
 70
     0
300
1:100
140
1.0
141
100.0
290
     0
  0
SCALE
  5
54
102
{ACAD_REACTORS
330
47
102
}
330
47
100
AcDbScale
 70
     0
300
2:1
140
2.0
141
1.0
290
     0
  0
SCALE
  5
55
102
{ACAD_REACTORS
330
47
102
}
330
47
100
AcDbScale
 70
     0
300
4:1
140
4.0
141
1.0
290
     0
  0
SCALE
  5
56
102
{ACAD_REACTORS
330
47
102
}
330
47
100
AcDbScale
 70
     0
300
8:1
140
8.0
141
1.0
290
     0
  0
SCALE
  5
57
102
{ACAD_REACTORS
330
47
102
}
330
47
100
AcDbScale
 70
     0
300
10:1
140
10.0
141
1.0
290
     0
  0
SCALE
  5
58
102
{ACAD_REACTORS
330
47
102
}
330
47
100
AcDbScale
 70
     0
300
100:1
140
100.0
141
1.0
290
     0
  0
SCALE
  5
59
102
{ACAD_REACTORS
330
47
102
}
330
47
100
AcDbScale
 70
     0
300
1/128" = 1'-0"
140
0.007812
141
12.0
290
     0
  0
SCALE
  5
5A
102
{ACAD_REACTORS
330
47
102
}
330
47
100
AcDbScale
 70
     0
300
1/64" = 1'-0"
140
0.015625
141
12.0
290
     0
  0
SCALE
  5
5B
102
{ACAD_REACTORS
330
47
102
}
330
47
100
AcDbScale
 70
     0
300
1/32" = 1'-0"
140
0.03125
141
12.0
290
     0
  0
SCALE
  5
5C
102
{ACAD_REACTORS
330
47
102
}
330
47
100
AcDbScale
 70
     0
300
1/16" = 1'-0"
140
0.0625
141
12.0
290
     0
  0
SCALE
  5
5D
102
{ACAD_REACTORS
330
47
102
}
330
47
100
AcDbScale
 70
     0
300
3/32" = 1'-0"
140
0.09375
141
12.0
290
     0
  0
SCALE
  5
5E
102
{ACAD_REACTORS
330
47
102
}
330
47
100
AcDbScale
 70
     0
300
1/8" = 1'-0"
140
0.125
141
12.0
290
     0
  0
SCALE
  5
5F
102
{ACAD_REACTORS
330
47
102
}
330
47
100
AcDbScale
 70
     0
300
3/16" = 1'-0"
140
0.1875
141
12.0
290
     0
  0
SCALE
  5
60
102
{ACAD_REACTORS
330
47
102
}
330
47
100
AcDbScale
 70
     0
300
1/4" = 1'-0"
140
0.25
141
12.0
290
     0
  0
SCALE
  5
61
102
{ACAD_REACTORS
330
47
102
}
330
47
100
AcDbScale
 70
     0
300
3/8" = 1'-0"
140
0.375
141
12.0
290
     0
  0
SCALE
  5
62
102
{ACAD_REACTORS
330
47
102
}
330
47
100
AcDbScale
 70
     0
300
1/2" = 1'-0"
140
0.5
141
12.0
290
     0
  0
SCALE
  5
63
102
{ACAD_REACTORS
330
47
102
}
330
47
100
AcDbScale
 70
     0
300
3/4" = 1'-0"
140
0.75
141
12.0
290
     0
  0
SCALE
  5
64
102
{ACAD_REACTORS
330
47
102
}
330
47
100
AcDbScale
 70
     0
300
1" = 1'-0"
140
1.0
141
12.0
290
     0
  0
SCALE
  5
65
102
{ACAD_REACTORS
330
47
102
}
330
47
100
AcDbScale
 70
     0
300
1-1/2" = 1'-0"
140
1.5
141
12.0
290
     0
  0
SCALE
  5
66
102
{ACAD_REACTORS
330
47
102
}
330
47
100
AcDbScale
 70
     0
300
3" = 1'-0"
140
3.0
141
12.0
290
     0
  0
SCALE
  5
67
102
{ACAD_REACTORS
330
47
102
}
330
47
100
AcDbScale
 70
     0
300
6" = 1'-0"
140
6.0
141
12.0
290
     0
  0
SCALE
  5
68
102
{ACAD_REACTORS
330
47
102
}
330
47
100
AcDbScale
 70
     0
300
1'-0" = 1'-0"
140
12.0
141
12.0
290
     0
  0
TABLESTYLE
  5
6A
102
{ACAD_REACTORS
330
69
102
}
330
69
100
AcDbTableStyle
  3
Standard
 70
     0
 71
     0
 40
1.5
 41
1.5
280
     0
281
     0
  7
Standard
140
4.5
170
     2
 62
     0
 63
   257
283
     0
274
    -2
284
     1
 64
     0
275
    -2
285
     1
 65
     0
276
    -2
286
     1
 66
     0
277
    -2
287
     1
 67
     0
278
    -2
288
     1
 68
     0
279
    -2
289
     1
 69
     0
  7
Standard
140
6.0
170
     5
 62
     0
 63
   257
283
     0
274
    -2
284
     1
 64
     0
275
    -2
285
     1
 65
     0
276
    -2
286
     1
 66
     0
277
    -2
287
     1
 67
     0
278
    -2
288
     1
 68
     0
279
    -2
289
     1
 69
     0
  7
Standard
140
4.5
170
     5
 62
     0
 63
   257
283
     0
274
    -2
284
     1
 64
     0
275
    -2
285
     1
 65
     0
276
    -2
286
     1
 66
     0
277
    -2
287
     1
 67
     0
278
    -2
288
     1
 68
     0
279
    -2
289
     1
 69
     0
  0
VISUALSTYLE
  5
2F
102
{ACAD_REACTORS
330
2A
102
}
102
{ACAD_XDICTIONARY
360
E8
102
}
330
2A
100
AcDbVisualStyle
  2
2dWireframe
 70
     4
 71
     0
 72
     2
 73
     0
 90
        0
 40
0.6
 41
30.0
 62
     5
 63
     7
 74
     1
 91
        4
 64
     7
 65
   257
 75
     1
175
     1
 42
1.0
 92
        0
 66
   257
 43
1.0
 76
     1
 77
     6
 78
     2
 67
     7
 79
     5
170
     0
171
     0
290
     0
174
     0
 93
        1
 44
0.0
173
     0
291
     0
 45
0.0
1001
ACAD
1000
AcDbSavedByObjectVersion
1070
     0
  0
VISUALSTYLE
  5
32
102
{ACAD_REACTORS
330
2A
102
}
102
{ACAD_XDICTIONARY
360
EE
102
}
330
2A
100
AcDbVisualStyle
  2
Basic
 70
     7
 71
     1
 72
     0
 73
     1
 90
        0
 40
0.6
 41
30.0
 62
     5
 63
     7
 74
     0
 91
        4
 64
     7
 65
   257
 75
     1
175
     1
 42
1.0
 92
        8
 66
     7
 43
1.0
 76
     1
 77
     6
 78
     2
 67
     7
 79
     5
170
     0
171
     0
290
     0
174
     0
 93
        1
 44
0.0
173
     0
291
     1
 45
0.0
1001
ACAD
1000
AcDbSavedByObjectVersion
1070
     0
  0
VISUALSTYLE
  5
36
102
{ACAD_REACTORS
330
2A
102
}
102
{ACAD_XDICTIONARY
360
F6
102
}
330
2A
100
AcDbVisualStyle
  2
Brighten
 70
    12
 71
     2
 72
     2
 73
     0
 90
        0
 40
0.6
 41
30.0
 62
     5
 63
     7
 74
     1
 91
        4
 64
     7
 65
   257
 75
     1
175
     1
 42
1.0
 92
        8
 66
     7
 43
1.0
 76
     1
 77
     6
 78
     2
 67
     7
 79
     5
170
     0
171
     0
290
     0
174
     0
 93
        1
 44
50.0
173
     0
291
     1
 45
0.0
1001
ACAD
1000
AcDbSavedByObjectVersion
1070
     0
  0
VISUALSTYLE
  5
3A
102
{ACAD_REACTORS
330
2A
102
}
102
{ACAD_XDICTIONARY
360
FE
102
}
330
2A
100
AcDbVisualStyle
  2
ColorChange
 70
    16
 71
     2
 72
     2
 73
     3
 90
        0
 40
0.6
 41
30.0
 62
     5
 63
     8
 74
     1
 91
        4
 64
     7
 65
   257
 75
     1
175
     1
 42
1.0
 92
        8
 66
     8
 43
1.0
 76
     1
 77
     6
 78
     2
 67
     7
 79
     5
170
     0
171
     0
290
     0
174
     0
 93
        1
 44
0.0
173
     0
291
     1
 45
0.0
1001
ACAD
1000
AcDbSavedByObjectVersion
1070
     0
  0
VISUALSTYLE
  5
34
102
{ACAD_REACTORS
330
2A
102
}
102
{ACAD_XDICTIONARY
360
F2
102
}
330
2A
100
AcDbVisualStyle
  2
Conceptual
 70
     9
 71
     3
 72
     2
 73
     0
 90
        0
 40
0.6
 41
30.0
 62
     5
 63
     7
 74
     2
 91
        2
 64
     7
 65
   257
 75
     1
175
     1
 42
179.0
 92
        8
 66
     7
 43
1.0
 76
     1
 77
     6
 78
     2
 67
     7
 79
     3
170
     0
171
     0
290
     0
174
     0
 93
        1
 44
0.0
173
     0
291
     0
 45
0.0
1001
ACAD
1000
AcDbSavedByObjectVersion
1070
     0
  0
VISUALSTYLE
  5
35
102
{ACAD_REACTORS
330
2A
102
}
102
{ACAD_XDICTIONARY
360
F4
102
}
330
2A
100
AcDbVisualStyle
  2
Dim
 70
    11
 71
     2
 72
     2
 73
     0
 90
        0
 40
0.6
 41
30.0
 62
     5
 63
     7
 74
     1
 91
        4
 64
     7
 65
   257
 75
     1
175
     1
 42
1.0
 92
        8
 66
     7
 43
1.0
 76
     1
 77
     6
 78
     2
 67
     7
 79
     5
170
     0
171
     0
290
     0
174
     0
 93
        1
 44
-50.0
173
     0
291
     1
 45
0.0
1001
ACAD
1000
AcDbSavedByObjectVersion
1070
     0
  0
VISUALSTYLE
  5
3D
102
{ACAD_REACTORS
330
2A
102
}
102
{ACAD_XDICTIONARY
360
104
102
}
330
2A
100
AcDbVisualStyle
  2
EdgeColorOff
 70
    22
 71
     2
 72
     2
 73
     0
 90
        0
 40
0.6
 41
30.0
 62
     5
 63
     7
 74
     1
 91
        4
 64
     7
 65
   257
 75
     1
175
     1
 42
1.0
 92
        8
 66
     7
 43
1.0
 76
     1
 77
     6
 78
     2
 67
     7
 79
     5
170
     0
171
     0
290
     0
174
     0
 93
        1
 44
0.0
173
     0
291
     1
 45
0.0
1001
ACAD
1000
AcDbSavedByObjectVersion
1070
     0
  0
VISUALSTYLE
  5
39
102
{ACAD_REACTORS
330
2A
102
}
102
{ACAD_XDICTIONARY
360
FC
102
}
330
2A
100
AcDbVisualStyle
  2
Facepattern
 70
    15
 71
     2
 72
     2
 73
     0
 90
        0
 40
0.6
 41
30.0
 62
     5
 63
     7
 74
     1
 91
        4
 64
     7
 65
   257
 75
     1
175
     1
 42
1.0
 92
        8
 66
     7
 43
1.0
 76
     1
 77
     6
 78
     2
 67
     7
 79
     5
170
     0
171
     0
290
     0
174
     0
 93
        1
 44
0.0
173
     0
291
     1
 45
0.0
1001
ACAD
1000
AcDbSavedByObjectVersion
1070
     0
  0
VISUALSTYLE
  5
2B
102
{ACAD_REACTORS
330
2A
102
}
102
{ACAD_XDICTIONARY
360
E0
102
}
330
2A
100
AcDbVisualStyle
  2
Flat
 70
     0
 71
     2
 72
     1
 73
     1
 90
        2
 40
0.6
 41
30.0
 62
     5
 63
     7
 74
     0
 91
        0
 64
     7
 65
   257
 75
     1
175
     1
 42
1.0
 92
        8
 66
     7
 43
1.0
 76
     1
 77
     6
 78
     2
 67
     7
 79
     5
170
     0
171
     0
290
     0
174
     0
 93
       13
 44
0.0
173
     0
291
     1
 45
0.0
1001
ACAD
1000
AcDbSavedByObjectVersion
1070
     0
  0
VISUALSTYLE
  5
2C
102
{ACAD_REACTORS
330
2A
102
}
102
{ACAD_XDICTIONARY
360
E2
102
}
330
2A
100
AcDbVisualStyle
  2
FlatWithEdges
 70
     1
 71
     2
 72
     1
 73
     1
 90
        2
 40
0.6
 41
30.0
 62
     5
 63
     7
 74
     1
 91
        0
 64
     7
 65
   257
 75
     1
175
     1
 42
1.0
 92
        0
 66
   257
 43
1.0
 76
     1
 77
     6
 78
     2
 67
     7
 79
     5
170
     0
171
     0
290
     0
174
     0
 93
       13
 44
0.0
173
     0
291
     1
 45
0.0
1001
ACAD
1000
AcDbSavedByObjectVersion
1070
     0
  0
VISUALSTYLE
  5
2D
102
{ACAD_REACTORS
330
2A
102
}
102
{ACAD_XDICTIONARY
360
E4
102
}
330
2A
100
AcDbVisualStyle
  2
Gouraud
 70
     2
 71
     2
 72
     2
 73
     1
 90
        2
 40
0.6
 41
30.0
 62
     5
 63
     7
 74
     0
 91
        0
 64
     7
 65
   257
 75
     1
175
     1
 42
1.0
 92
        0
 66
     7
 43
1.0
 76
     1
 77
     6
 78
     2
 67
     7
 79
     5
170
     0
171
     0
290
     0
174
     0
 93
       13
 44
0.0
173
     0
291
     1
 45
0.0
1001
ACAD
1000
AcDbSavedByObjectVersion
1070
     0
  0
VISUALSTYLE
  5
2E
102
{ACAD_REACTORS
330
2A
102
}
102
{ACAD_XDICTIONARY
360
E6
102
}
330
2A
100
AcDbVisualStyle
  2
GouraudWithEdges
 70
     3
 71
     2
 72
     2
 73
     1
 90
        2
 40
0.6
 41
30.0
 62
     5
 63
     7
 74
     1
 91
        0
 64
     7
 65
   257
 75
     1
175
     1
 42
1.0
 92
        0
 66
   257
 43
1.0
 76
     1
 77
     6
 78
     2
 67
     7
 79
     5
170
     0
171
     0
290
     0
174
     0
 93
       13
 44
0.0
173
     0
291
     1
 45
0.0
1001
ACAD
1000
AcDbSavedByObjectVersion
1070
     0
  0
VISUALSTYLE
  5
31
102
{ACAD_REACTORS
330
2A
102
}
102
{ACAD_XDICTIONARY
360
EC
102
}
330
2A
100
AcDbVisualStyle
  2
Hidden
 70
     6
 71
     1
 72
     2
 73
     2
 90
        0
 40
0.6
 41
30.0
 62
     5
 63
     7
 74
     2
 91
        2
 64
     7
 65
   257
 75
     2
175
     1
 42
40.0
 92
        0
 66
   257
 43
1.0
 76
     1
 77
     6
 78
     2
 67
     7
 79
     3
170
     0
171
     0
290
     0
174
     0
 93
        1
 44
0.0
173
     0
291
     0
 45
0.0
1001
ACAD
1000
AcDbSavedByObjectVersion
1070
     0
  0
VISUALSTYLE
  5
3B
102
{ACAD_REACTORS
330
2A
102
}
102
{ACAD_XDICTIONARY
360
100
102
}
330
2A
100
AcDbVisualStyle
  2
JitterOff
 70
    20
 71
     2
 72
     2
 73
     0
 90
        0
 40
0.6
 41
30.0
 62
     5
 63
     7
 74
     1
 91
        4
 64
     7
 65
   257
 75
     1
175
     1
 42
1.0
 92
       10
 66
     7
 43
1.0
 76
     1
 77
     6
 78
     2
 67
     7
 79
     5
170
     0
171
     0
290
     0
174
     0
 93
        1
 44
0.0
173
     0
291
     1
 45
0.0
1001
ACAD
1000
AcDbSavedByObjectVersion
1070
     0
  0
VISUALSTYLE
  5
38
102
{ACAD_REACTORS
330
2A
102
}
102
{ACAD_XDICTIONARY
360
FA
102
}
330
2A
100
AcDbVisualStyle
  2
Linepattern
 70
    14
 71
     2
 72
     2
 73
     0
 90
        0
 40
0.6
 41
30.0
 62
     5
 63
     7
 74
     1
 91
        4
 64
     7
 65
   257
 75
     7
175
     7
 42
1.0
 92
        8
 66
     7
 43
1.0
 76
     1
 77
     6
 78
     2
 67
     7
 79
     5
170
     0
171
     0
290
     0
174
     0
 93
        1
 44
0.0
173
     0
291
     1
 45
0.0
1001
ACAD
1000
AcDbSavedByObjectVersion
1070
     0
  0
VISUALSTYLE
  5
3C
102
{ACAD_REACTORS
330
2A
102
}
102
{ACAD_XDICTIONARY
360
102
102
}
330
2A
100
AcDbVisualStyle
  2
OverhangOff
 70
    21
 71
     2
 72
     2
 73
     0
 90
        0
 40
0.6
 41
30.0
 62
     5
 63
     7
 74
     1
 91
        4
 64
     7
 65
   257
 75
     1
175
     1
 42
1.0
 92
        9
 66
     7
 43
1.0
 76
     1
 77
     6
 78
     2
 67
     7
 79
     5
170
     0
171
     0
290
     0
174
     0
 93
        1
 44
0.0
173
     0
291
     1
 45
0.0
1001
ACAD
1000
AcDbSavedByObjectVersion
1070
     0
  0
VISUALSTYLE
  5
33
102
{ACAD_REACTORS
330
2A
102
}
102
{ACAD_XDICTIONARY
360
F0
102
}
330
2A
100
AcDbVisualStyle
  2
Realistic
 70
     8
 71
     2
 72
     3
 73
     0
 90
        2
 40
0.6
 41
30.0
 62
     5
 63
     7
 74
     0
 91
        0
 64
     7
 65
   257
 75
     1
175
     1
 42
1.0
 92
        8
 66
   257
 43
1.0
 76
     1
 77
     6
 78
     2
 67
     7
 79
     3
170
     0
171
     0
290
     0
174
     0
 93
       13
 44
0.0
173
     0
291
     0
 45
0.0
1001
ACAD
1000
AcDbSavedByObjectVersion
1070
     0
  0
VISUALSTYLE
  5
42
102
{ACAD_REACTORS
330
2A
102
}
102
{ACAD_XDICTIONARY
360
10E
102
}
330
2A
100
AcDbVisualStyle
  2
Shaded
 70
    27
 71
     2
 72
     2
 73
     1
 90
        2
 40
0.6
 41
30.0
 62
     5
 63
     7
 74
     0
 91
        4
 64
     7
 65
   257
 75
     1
175
     1
 42
1.0
 92
        8
 66
   257
 43
1.0
 76
     1
 77
     6
 78
     2
 67
     8
 79
     3
170
     0
171
     0
290
     0
174
     0
 93
        5
 44
0.0
173
     0
291
     0
 45
0.0
1001
ACAD
1000
AcDbSavedByObjectVersion
1070
     0
  0
VISUALSTYLE
  5
41
102
{ACAD_REACTORS
330
2A
102
}
102
{ACAD_XDICTIONARY
360
10C
102
}
330
2A
100
AcDbVisualStyle
  2
Shaded with edges
 70
    26
 71
     2
 72
     2
 73
     1
 90
        2
 40
0.6
 41
30.0
 62
     5
 63
     7
 74
     1
 91
       10
 64
     7
 65
   257
 75
     2
175
     1
 42
1.0
 92
        8
 66
   257
 43
1.0
 76
     1
 77
     6
 78
     2
 67
     7
 79
     3
170
     0
171
     0
290
     0
174
     0
 93
        5
 44
0.0
173
     0
291
     0
 45
0.0
1001
ACAD
1000
AcDbSavedByObjectVersion
1070
     0
  0
VISUALSTYLE
  5
3E
102
{ACAD_REACTORS
330
2A
102
}
102
{ACAD_XDICTIONARY
360
106
102
}
330
2A
100
AcDbVisualStyle
  2
Shades of Gray
 70
    23
 71
     2
 72
     2
 73
     3
 90
        0
 40
0.6
 41
30.0
 62
     5
 63
     7
 74
     2
 91
        2
 64
     7
 65
     7
 75
     1
175
     1
 42
40.0
 92
        8
 66
     7
 43
1.0
 76
     1
 77
     6
 78
     2
 67
     7
 79
     3
170
     0
171
     0
290
     0
174
     0
 93
        1
 44
0.0
173
     0
291
     0
 45
0.0
1001
ACAD
1000
AcDbSavedByObjectVersion
1070
     0
  0
VISUALSTYLE
  5
3F
102
{ACAD_REACTORS
330
2A
102
}
102
{ACAD_XDICTIONARY
360
108
102
}
330
2A
100
AcDbVisualStyle
  2
Sketchy
 70
    24
 71
     1
 72
     2
 73
     2
 90
        0
 40
0.6
 41
30.0
 62
     5
 63
     7
 74
     2
 91
        2
 64
     7
 65
     7
 75
     1
175
     1
 42
40.0
 92
       11
 66
     7
 43
1.0
 76
     1
 77
     6
 78
     2
 67
     7
 79
     6
170
     0
171
     0
290
     0
174
     0
 93
        1
 44
0.0
173
     0
291
     0
 45
0.0
1001
ACAD
1000
AcDbSavedByObjectVersion
1070
     0
  0
VISUALSTYLE
  5
37
102
{ACAD_REACTORS
330
2A
102
}
102
{ACAD_XDICTIONARY
360
F8
102
}
330
2A
100
AcDbVisualStyle
  2
Thicken
 70
    13
 71
     2
 72
     2
 73
     0
 90
        0
 40
0.6
 41
30.0
 62
     5
 63
     7
 74
     1
 91
        4
 64
     7
 65
   257
 75
     1
175
     1
 42
1.0
 92
       12
 66
     7
 43
1.0
 76
     1
 77
     6
 78
     2
 67
     7
 79
     5
170
     0
171
     0
290
     0
174
     0
 93
        1
 44
0.0
173
     0
291
     1
 45
0.0
1001
ACAD
1000
AcDbSavedByObjectVersion
1070
     0
  0
VISUALSTYLE
  5
30
102
{ACAD_REACTORS
330
2A
102
}
102
{ACAD_XDICTIONARY
360
EA
102
}
330
2A
100
AcDbVisualStyle
  2
Wireframe
 70
     5
 71
     0
 72
     2
 73
     0
 90
        0
 40
0.6
 41
30.0
 62
     5
 63
     7
 74
     1
 91
        4
 64
     7
 65
   257
 75
     1
175
     1
 42
1.0
 92
        0
 66
   257
 43
1.0
 76
     1
 77
     6
 78
     2
 67
     7
 79
     3
170
     0
171
     0
290
     0
174
     0
 93
        1
 44
0.0
173
     0
291
     0
 45
0.0
1001
ACAD
1000
AcDbSavedByObjectVersion
1070
     0
  0
VISUALSTYLE
  5
40
102
{ACAD_REACTORS
330
2A
102
}
102
{ACAD_XDICTIONARY
360
10A
102
}
330
2A
100
AcDbVisualStyle
  2
X-Ray
 70
    25
 71
     2
 72
     2
 73
     1
 90
        1
 40
0.5
 41
30.0
 62
     5
 63
     7
 74
     1
 91
        0
 64
     7
 65
   257
 75
     1
175
     1
 42
1.0
 92
        8
 66
     7
 43
1.0
 76
     1
 77
     6
 78
     2
 67
     7
 79
     3
170
     0
171
     0
290
     0
174
     0
 93
       13
 44
0.0
173
     0
291
     0
 45
0.0
1001
ACAD
1000
AcDbSavedByObjectVersion
1070
     0
  0
DICTIONARYVAR
  5
DE
102
{ACAD_REACTORS
330
D1
102
}
330
D1
100
DictionaryVariables
280
     0
  1
1:1
  0
DICTIONARYVAR
  5
D8
102
{ACAD_REACTORS
330
D1
102
}
330
D1
100
DictionaryVariables
280
     0
  1
3.500000
  0
DICTIONARYVAR
  5
D9
102
{ACAD_REACTORS
330
D1
102
}
330
D1
100
DictionaryVariables
280
     0
  1
acadiso.lin
  0
DICTIONARYVAR
  5
D3
102
{ACAD_REACTORS
330
D1
102
}
330
D1
100
DictionaryVariables
280
     0
  1
Standard
  0
DICTIONARYVAR
  5
D2
102
{ACAD_REACTORS
330
D1
102
}
330
D1
100
DictionaryVariables
280
     0
  1
Standard
  0
DICTIONARYVAR
  5
DA
102
{ACAD_REACTORS
330
D1
102
}
330
D1
100
DictionaryVariables
280
     0
  1
2
  0
DICTIONARYVAR
  5
DB
102
{ACAD_REACTORS
330
D1
102
}
330
D1
100
DictionaryVariables
280
     0
  1
1
  0
DICTIONARYVAR
  5
DF
102
{ACAD_REACTORS
330
D1
102
}
330
D1
100
DictionaryVariables
280
     0
  1
1
  0
DICTIONARYVAR
  5
D5
102
{ACAD_REACTORS
330
D1
102
}
330
D1
100
DictionaryVariables
280
     0
  1
80.000000
  0
DICTIONARYVAR
  5
D4
102
{ACAD_REACTORS
330
D1
102
}
330
D1
100
DictionaryVariables
280
     0
  1
5.000000
  0
DICTIONARY
  5
112
330
45
100
AcDbDictionary
280
     1
281
     1
  3
ACAD_XREC_ROUNDTRIP
360
113
  0
DICTIONARY
  5
110
330
44
100
AcDbDictionary
280
     1
281
     1
  3
ACAD_XREC_ROUNDTRIP
360
111
  0
DICTIONARY
  5
114
330
46
100
AcDbDictionary
280
     1
281
     1
  3
ACAD_XREC_ROUNDTRIP
360
115
  0
DICTIONARY
  5
117
330
6C
100
AcDbDictionary
280
     1
281
     1
  3
ACAD_XREC_ROUNDTRIP
360
118
  0
DICTIONARY
  5
E8
330
2F
100
AcDbDictionary
280
     1
281
     1
  3
ACAD_XREC_ROUNDTRIP
360
E9
  0
DICTIONARY
  5
EE
330
32
100
AcDbDictionary
280
     1
281
     1
  3
ACAD_XREC_ROUNDTRIP
360
EF
  0
DICTIONARY
  5
F6
330
36
100
AcDbDictionary
280
     1
281
     1
  3
ACAD_XREC_ROUNDTRIP
360
F7
  0
DICTIONARY
  5
FE
330
3A
100
AcDbDictionary
280
     1
281
     1
  3
ACAD_XREC_ROUNDTRIP
360
FF
  0
DICTIONARY
  5
F2
330
34
100
AcDbDictionary
280
     1
281
     1
  3
ACAD_XREC_ROUNDTRIP
360
F3
  0
DICTIONARY
  5
F4
330
35
100
AcDbDictionary
280
     1
281
     1
  3
ACAD_XREC_ROUNDTRIP
360
F5
  0
DICTIONARY
  5
104
330
3D
100
AcDbDictionary
280
     1
281
     1
  3
ACAD_XREC_ROUNDTRIP
360
105
  0
DICTIONARY
  5
FC
330
39
100
AcDbDictionary
280
     1
281
     1
  3
ACAD_XREC_ROUNDTRIP
360
FD
  0
DICTIONARY
  5
E0
330
2B
100
AcDbDictionary
280
     1
281
     1
  3
ACAD_XREC_ROUNDTRIP
360
E1
  0
DICTIONARY
  5
E2
330
2C
100
AcDbDictionary
280
     1
281
     1
  3
ACAD_XREC_ROUNDTRIP
360
E3
  0
DICTIONARY
  5
E4
330
2D
100
AcDbDictionary
280
     1
281
     1
  3
ACAD_XREC_ROUNDTRIP
360
E5
  0
DICTIONARY
  5
E6
330
2E
100
AcDbDictionary
280
     1
281
     1
  3
ACAD_XREC_ROUNDTRIP
360
E7
  0
DICTIONARY
  5
EC
330
31
100
AcDbDictionary
280
     1
281
     1
  3
ACAD_XREC_ROUNDTRIP
360
ED
  0
DICTIONARY
  5
100
330
3B
100
AcDbDictionary
280
     1
281
     1
  3
ACAD_XREC_ROUNDTRIP
360
101
  0
DICTIONARY
  5
FA
330
38
100
AcDbDictionary
280
     1
281
     1
  3
ACAD_XREC_ROUNDTRIP
360
FB
  0
DICTIONARY
  5
102
330
3C
100
AcDbDictionary
280
     1
281
     1
  3
ACAD_XREC_ROUNDTRIP
360
103
  0
DICTIONARY
  5
F0
330
33
100
AcDbDictionary
280
     1
281
     1
  3
ACAD_XREC_ROUNDTRIP
360
F1
  0
DICTIONARY
  5
10E
330
42
100
AcDbDictionary
280
     1
281
     1
  3
ACAD_XREC_ROUNDTRIP
360
10F
  0
DICTIONARY
  5
10C
330
41
100
AcDbDictionary
280
     1
281
     1
  3
ACAD_XREC_ROUNDTRIP
360
10D
  0
DICTIONARY
  5
106
330
3E
100
AcDbDictionary
280
     1
281
     1
  3
ACAD_XREC_ROUNDTRIP
360
107
  0
DICTIONARY
  5
108
330
3F
100
AcDbDictionary
280
     1
281
     1
  3
ACAD_XREC_ROUNDTRIP
360
109
  0
DICTIONARY
  5
F8
330
37
100
AcDbDictionary
280
     1
281
     1
  3
ACAD_XREC_ROUNDTRIP
360
F9
  0
DICTIONARY
  5
EA
330
30
100
AcDbDictionary
280
     1
281
     1
  3
ACAD_XREC_ROUNDTRIP
360
EB
  0
DICTIONARY
  5
10A
330
40
100
AcDbDictionary
280
     1
281
     1
  3
ACAD_XREC_ROUNDTRIP
360
10B
  0
XRECORD
  5
113
102
{ACAD_REACTORS
330
112
102
}
330
112
100
AcDbXrecord
280
     1
102
MATERIAL
148
0.0
149
0.0
149
0.0
 93
        0
 94
      127
282
     0
 72
     1
 77
     1
171
     1
175
     1
179
     1
273
     0
  0
XRECORD
  5
111
102
{ACAD_REACTORS
330
110
102
}
330
110
100
AcDbXrecord
280
     1
102
MATERIAL
148
0.0
149
0.0
149
0.0
 93
        0
 94
      127
282
     0
 72
     1
 77
     1
171
     1
175
     1
179
     1
273
     0
  0
XRECORD
  5
115
102
{ACAD_REACTORS
330
114
102
}
330
114
100
AcDbXrecord
280
     1
102
MATERIAL
148
0.0
149
0.0
149
0.0
 93
        0
 94
      127
282
     0
 72
     1
 77
     1
171
     1
175
     1
179
     1
273
     0
  0
XRECORD
  5
118
102
{ACAD_REACTORS
330
117
102
}
330
117
100
AcDbXrecord
280
     1
102
ACAD_ROUNDTRIP_2010_MLEADER_STYLE
  0
XRECORD
  5
E9
102
{ACAD_REACTORS
330
E8
102
}
330
E8
100
AcDbXrecord
280
     1
102
RTVSPropertyOp0
 70
     1
102
RTVSPropertyOp1
 70
     1
102
RTVSPropertyOp2
 70
     1
102
RTVSPropertyOp3
 70
     1
102
RTVSPropertyOp4
 70
     1
102
RTVSPropertyOp5
 70
     1
102
RTVSPropertyOp6
 70
     1
102
RTVSPropertyOp7
 70
     1
102
RTVSPropertyOp8
 70
     1
102
RTVSPropertyOp9
 70
     1
102
RTVSPropertyOp10
 70
     1
102
RTVSPropertyOp11
 70
     1
102
RTVSPropertyOp12
 70
     1
102
RTVSPropertyOp13
 70
     1
102
RTVSPropertyOp14
 70
     1
102
RTVSPropertyOp15
 70
     1
102
RTVSPropertyOp16
 70
     1
102
RTVSPropertyOp17
 70
     1
102
RTVSPropertyOp18
 70
     1
102
RTVSPropertyOp19
 70
     1
102
RTVSPropertyOp20
 70
     1
102
RTVSPropertyOp21
 70
     1
102
RTVSPropertyOp22
 70
     1
102
RTVSPropertyOp23
 70
     1
102
RTVSPropertyOp24
 70
     1
102
RTVSPropertyOp25
 70
     1
102
RTVSPropertyOp26
 70
     1
102
RTVSPropertyOp27
 70
     1
102
RTVSPropertyOp28
 70
     1
102
RTVSPropertyOp29
 70
     1
102
RTVSPropertyOp30
 70
     1
102
RTVSPropertyOp31
 70
     1
102
RTVSPropertyOp32
 70
     1
102
RTVSPropertyOp33
 70
     1
102
RTVSPropertyOp34
 70
     1
102
RTVSPropertyOp35
 70
     1
102
RTVSPropertyOp36
 70
     1
102
RTVSPropertyOp37
 70
     1
102
RTVSPropertyOp38
 70
     1
102
RTVSPropertyOp39
 70
     1
102
RTVSPropertyOp40
 70
     1
102
RTVSPropertyOp41
 70
     1
102
RTVSPropertyOp42
 70
     1
102
RTVSPropertyOp43
 70
     1
102
RTVSPropertyOp44
 70
     1
102
RTVSPropertyOp45
 70
     1
102
RTVSPropertyOp46
 70
     1
102
RTVSPropertyOp47
 70
     1
102
RTVSPropertyOp48
 70
     1
102
RTVSPropertyOp49
 70
     1
102
RTVSPropertyOp50
 70
     1
102
RTVSPropertyOp51
 70
     0
102
RTVSPropertyOp52
 70
     0
102
RTVSPropertyOp53
 70
     1
102
RTVSPropertyOp54
 70
     1
102
RTVSPropertyOp55
 70
     1
102
RTVSPropertyOp56
 70
     1
102
RTVSPropertyOp57
 70
     1
102
RTVSPost2010Prop28
280
     1
102
RTVSPost2010PropOp28
 70
     1
102
RTVSPost2010Prop29
280
     1
102
RTVSPost2010PropOp29
 70
     1
102
RTVSPost2010Prop30
280
     0
102
RTVSPost2010PropOp30
 70
     1
102
RTVSPost2010Prop31
280
     0
102
RTVSPost2010PropOp31
 70
     1
102
RTVSPost2010Prop32
280
     0
102
RTVSPost2010PropOp32
 70
     1
102
RTVSPost2010Prop33
280
     0
102
RTVSPost2010PropOp33
 70
     1
102
RTVSPost2010Prop34
280
     0
102
RTVSPost2010PropOp34
 70
     1
102
RTVSPost2010Prop35
280
     0
102
RTVSPost2010PropOp35
 70
     1
102
RTVSPost2010Prop36
280
     0
102
RTVSPost2010PropOp36
 70
     1
102
RTVSPost2010Prop37
 90
       50
102
RTVSPost2010PropOp37
 70
     1
102
RTVSPost2010Prop38
140
0.0
102
RTVSPost2010PropOp38
 70
     1
102
RTVSPost2010Prop39
140
1.0
102
RTVSPost2010PropOp39
 70
     1
102
RTVSPost2010Prop40
 90
        0
102
RTVSPost2010PropOp40
 70
     1
102
RTVSPost2010Prop41ColorIndex
 90
       18
102
RTVSPost2010Prop41ColorRGB
 90
        0
102
RTVSPost2010PropOp41
 70
     1
102
RTVSPost2010Prop42
 90
       50
102
RTVSPost2010PropOp42
 70
     1
102
RTVSPost2010Prop43
 90
        3
102
RTVSPost2010PropOp43
 70
     1
102
RTVSPost2010Prop44ColorIndex
 90
        5
102
RTVSPost2010Prop44ColorRGB
 90
      255
102
RTVSPost2010PropOp44
 70
     1
102
RTVSPost2010Prop45
280
     0
102
RTVSPost2010PropOp45
 70
     1
102
RTVSPost2010Prop46
 90
       50
102
RTVSPost2010PropOp46
 70
     1
102
RTVSPost2010Prop47
 90
       50
102
RTVSPost2010PropOp47
 70
     1
102
RTVSPost2010Prop48
 90
       50
102
RTVSPost2010PropOp48
 70
     1
102
RTVSPost2010Prop49
280
     0
102
RTVSPost2010PropOp49
 70
     1
102
RTVSPost2010Prop50
 90
       50
102
RTVSPost2010PropOp50
 70
     1
102
RTVSPost2010Prop51ColorIndex
 90
      256
102
RTVSPost2010Prop51ColorRGB
 90
-16777216
102
RTVSPost2010PropOp51
 70
     0
102
RTVSPost2010Prop52
140
1.0
102
RTVSPost2010PropOp52
 70
     0
102
RTVSPost2010Prop53
 90
        2
102
RTVSPost2010PropOp53
 70
     1
102
RTVSPost2010Prop54
  1
strokes_ogs.tif
102
RTVSPost2010PropOp54
 70
     1
102
RTVSPost2010Prop55
280
     0
102
RTVSPost2010PropOp55
 70
     1
102
RTVSPost2010Prop56
140
1.0
102
RTVSPost2010PropOp56
 70
     1
102
RTVSPost2010Prop57
140
1.0
102
RTVSPost2010PropOp57
 70
     1
  0
XRECORD
  5
EF
102
{ACAD_REACTORS
330
EE
102
}
330
EE
100
AcDbXrecord
280
     1
102
RTVSPropertyOp0
 70
     1
102
RTVSPropertyOp1
 70
     1
102
RTVSPropertyOp2
 70
     1
102
RTVSPropertyOp3
 70
     1
102
RTVSPropertyOp4
 70
     1
102
RTVSPropertyOp5
 70
     1
102
RTVSPropertyOp6
 70
     1
102
RTVSPropertyOp7
 70
     1
102
RTVSPropertyOp8
 70
     1
102
RTVSPropertyOp9
 70
     1
102
RTVSPropertyOp10
 70
     1
102
RTVSPropertyOp11
 70
     1
102
RTVSPropertyOp12
 70
     1
102
RTVSPropertyOp13
 70
     1
102
RTVSPropertyOp14
 70
     1
102
RTVSPropertyOp15
 70
     1
102
RTVSPropertyOp16
 70
     1
102
RTVSPropertyOp17
 70
     1
102
RTVSPropertyOp18
 70
     1
102
RTVSPropertyOp19
 70
     1
102
RTVSPropertyOp20
 70
     1
102
RTVSPropertyOp21
 70
     1
102
RTVSPropertyOp22
 70
     1
102
RTVSPropertyOp23
 70
     1
102
RTVSPropertyOp24
 70
     1
102
RTVSPropertyOp25
 70
     1
102
RTVSPropertyOp26
 70
     1
102
RTVSPropertyOp27
 70
     1
102
RTVSPropertyOp28
 70
     1
102
RTVSPropertyOp29
 70
     1
102
RTVSPropertyOp30
 70
     1
102
RTVSPropertyOp31
 70
     1
102
RTVSPropertyOp32
 70
     1
102
RTVSPropertyOp33
 70
     1
102
RTVSPropertyOp34
 70
     1
102
RTVSPropertyOp35
 70
     1
102
RTVSPropertyOp36
 70
     1
102
RTVSPropertyOp37
 70
     1
102
RTVSPropertyOp38
 70
     1
102
RTVSPropertyOp39
 70
     1
102
RTVSPropertyOp40
 70
     1
102
RTVSPropertyOp41
 70
     1
102
RTVSPropertyOp42
 70
     1
102
RTVSPropertyOp43
 70
     1
102
RTVSPropertyOp44
 70
     1
102
RTVSPropertyOp45
 70
     1
102
RTVSPropertyOp46
 70
     1
102
RTVSPropertyOp47
 70
     1
102
RTVSPropertyOp48
 70
     1
102
RTVSPropertyOp49
 70
     1
102
RTVSPropertyOp50
 70
     1
102
RTVSPropertyOp51
 70
     0
102
RTVSPropertyOp52
 70
     0
102
RTVSPropertyOp53
 70
     1
102
RTVSPropertyOp54
 70
     1
102
RTVSPropertyOp55
 70
     1
102
RTVSPropertyOp56
 70
     1
102
RTVSPropertyOp57
 70
     1
102
RTVSPost2010Prop28
280
     0
102
RTVSPost2010PropOp28
 70
     1
102
RTVSPost2010Prop29
280
     1
102
RTVSPost2010PropOp29
 70
     1
102
RTVSPost2010Prop30
280
     1
102
RTVSPost2010PropOp30
 70
     1
102
RTVSPost2010Prop31
280
     0
102
RTVSPost2010PropOp31
 70
     1
102
RTVSPost2010Prop32
280
     0
102
RTVSPost2010PropOp32
 70
     1
102
RTVSPost2010Prop33
280
     0
102
RTVSPost2010PropOp33
 70
     1
102
RTVSPost2010Prop34
280
     0
102
RTVSPost2010PropOp34
 70
     1
102
RTVSPost2010Prop35
280
     0
102
RTVSPost2010PropOp35
 70
     1
102
RTVSPost2010Prop36
280
     0
102
RTVSPost2010PropOp36
 70
     1
102
RTVSPost2010Prop37
 90
       50
102
RTVSPost2010PropOp37
 70
     1
102
RTVSPost2010Prop38
140
0.0
102
RTVSPost2010PropOp38
 70
     1
102
RTVSPost2010Prop39
140
1.0
102
RTVSPost2010PropOp39
 70
     1
102
RTVSPost2010Prop40
 90
        0
102
RTVSPost2010PropOp40
 70
     1
102
RTVSPost2010Prop41ColorIndex
 90
       18
102
RTVSPost2010Prop41ColorRGB
 90
        0
102
RTVSPost2010PropOp41
 70
     1
102
RTVSPost2010Prop42
 90
       50
102
RTVSPost2010PropOp42
 70
     1
102
RTVSPost2010Prop43
 90
        3
102
RTVSPost2010PropOp43
 70
     1
102
RTVSPost2010Prop44ColorIndex
 90
        5
102
RTVSPost2010Prop44ColorRGB
 90
      255
102
RTVSPost2010PropOp44
 70
     1
102
RTVSPost2010Prop45
280
     0
102
RTVSPost2010PropOp45
 70
     1
102
RTVSPost2010Prop46
 90
       50
102
RTVSPost2010PropOp46
 70
     1
102
RTVSPost2010Prop47
 90
       50
102
RTVSPost2010PropOp47
 70
     1
102
RTVSPost2010Prop48
 90
       50
102
RTVSPost2010PropOp48
 70
     1
102
RTVSPost2010Prop49
280
     0
102
RTVSPost2010PropOp49
 70
     1
102
RTVSPost2010Prop50
 90
       50
102
RTVSPost2010PropOp50
 70
     1
102
RTVSPost2010Prop51ColorIndex
 90
      256
102
RTVSPost2010Prop51ColorRGB
 90
-16777216
102
RTVSPost2010PropOp51
 70
     0
102
RTVSPost2010Prop52
140
1.0
102
RTVSPost2010PropOp52
 70
     0
102
RTVSPost2010Prop53
 90
        2
102
RTVSPost2010PropOp53
 70
     1
102
RTVSPost2010Prop54
  1
strokes_ogs.tif
102
RTVSPost2010PropOp54
 70
     1
102
RTVSPost2010Prop55
280
     0
102
RTVSPost2010PropOp55
 70
     1
102
RTVSPost2010Prop56
140
1.0
102
RTVSPost2010PropOp56
 70
     1
102
RTVSPost2010Prop57
140
1.0
102
RTVSPost2010PropOp57
 70
     1
  0
XRECORD
  5
F7
102
{ACAD_REACTORS
330
F6
102
}
330
F6
100
AcDbXrecord
280
     1
102
RTVSPropertyOp0
 70
     1
102
RTVSPropertyOp1
 70
     1
102
RTVSPropertyOp2
 70
     1
102
RTVSPropertyOp3
 70
     1
102
RTVSPropertyOp4
 70
     1
102
RTVSPropertyOp5
 70
     1
102
RTVSPropertyOp6
 70
     1
102
RTVSPropertyOp7
 70
     1
102
RTVSPropertyOp8
 70
     1
102
RTVSPropertyOp9
 70
     1
102
RTVSPropertyOp10
 70
     1
102
RTVSPropertyOp11
 70
     1
102
RTVSPropertyOp12
 70
     1
102
RTVSPropertyOp13
 70
     1
102
RTVSPropertyOp14
 70
     1
102
RTVSPropertyOp15
 70
     1
102
RTVSPropertyOp16
 70
     1
102
RTVSPropertyOp17
 70
     1
102
RTVSPropertyOp18
 70
     1
102
RTVSPropertyOp19
 70
     1
102
RTVSPropertyOp20
 70
     1
102
RTVSPropertyOp21
 70
     1
102
RTVSPropertyOp22
 70
     1
102
RTVSPropertyOp23
 70
     1
102
RTVSPropertyOp24
 70
     1
102
RTVSPropertyOp25
 70
     1
102
RTVSPropertyOp26
 70
     1
102
RTVSPropertyOp27
 70
     1
102
RTVSPropertyOp28
 70
     1
102
RTVSPropertyOp29
 70
     1
102
RTVSPropertyOp30
 70
     1
102
RTVSPropertyOp31
 70
     1
102
RTVSPropertyOp32
 70
     1
102
RTVSPropertyOp33
 70
     1
102
RTVSPropertyOp34
 70
     1
102
RTVSPropertyOp35
 70
     1
102
RTVSPropertyOp36
 70
     1
102
RTVSPropertyOp37
 70
     1
102
RTVSPropertyOp38
 70
     1
102
RTVSPropertyOp39
 70
     1
102
RTVSPropertyOp40
 70
     1
102
RTVSPropertyOp41
 70
     1
102
RTVSPropertyOp42
 70
     1
102
RTVSPropertyOp43
 70
     1
102
RTVSPropertyOp44
 70
     1
102
RTVSPropertyOp45
 70
     1
102
RTVSPropertyOp46
 70
     1
102
RTVSPropertyOp47
 70
     1
102
RTVSPropertyOp48
 70
     1
102
RTVSPropertyOp49
 70
     1
102
RTVSPropertyOp50
 70
     1
102
RTVSPropertyOp51
 70
     0
102
RTVSPropertyOp52
 70
     0
102
RTVSPropertyOp53
 70
     1
102
RTVSPropertyOp54
 70
     1
102
RTVSPropertyOp55
 70
     1
102
RTVSPropertyOp56
 70
     1
102
RTVSPropertyOp57
 70
     1
102
RTVSPost2010Prop28
280
     0
102
RTVSPost2010PropOp28
 70
     1
102
RTVSPost2010Prop29
280
     1
102
RTVSPost2010PropOp29
 70
     1
102
RTVSPost2010Prop30
280
     1
102
RTVSPost2010PropOp30
 70
     1
102
RTVSPost2010Prop31
280
     0
102
RTVSPost2010PropOp31
 70
     1
102
RTVSPost2010Prop32
280
     0
102
RTVSPost2010PropOp32
 70
     1
102
RTVSPost2010Prop33
280
     0
102
RTVSPost2010PropOp33
 70
     1
102
RTVSPost2010Prop34
280
     0
102
RTVSPost2010PropOp34
 70
     1
102
RTVSPost2010Prop35
280
     0
102
RTVSPost2010PropOp35
 70
     1
102
RTVSPost2010Prop36
280
     0
102
RTVSPost2010PropOp36
 70
     1
102
RTVSPost2010Prop37
 90
       50
102
RTVSPost2010PropOp37
 70
     1
102
RTVSPost2010Prop38
140
0.0
102
RTVSPost2010PropOp38
 70
     1
102
RTVSPost2010Prop39
140
1.0
102
RTVSPost2010PropOp39
 70
     1
102
RTVSPost2010Prop40
 90
        0
102
RTVSPost2010PropOp40
 70
     1
102
RTVSPost2010Prop41ColorIndex
 90
       18
102
RTVSPost2010Prop41ColorRGB
 90
        0
102
RTVSPost2010PropOp41
 70
     1
102
RTVSPost2010Prop42
 90
       50
102
RTVSPost2010PropOp42
 70
     1
102
RTVSPost2010Prop43
 90
        3
102
RTVSPost2010PropOp43
 70
     1
102
RTVSPost2010Prop44ColorIndex
 90
        5
102
RTVSPost2010Prop44ColorRGB
 90
      255
102
RTVSPost2010PropOp44
 70
     1
102
RTVSPost2010Prop45
280
     0
102
RTVSPost2010PropOp45
 70
     1
102
RTVSPost2010Prop46
 90
       50
102
RTVSPost2010PropOp46
 70
     1
102
RTVSPost2010Prop47
 90
       50
102
RTVSPost2010PropOp47
 70
     1
102
RTVSPost2010Prop48
 90
       50
102
RTVSPost2010PropOp48
 70
     1
102
RTVSPost2010Prop49
280
     0
102
RTVSPost2010PropOp49
 70
     1
102
RTVSPost2010Prop50
 90
       50
102
RTVSPost2010PropOp50
 70
     1
102
RTVSPost2010Prop51ColorIndex
 90
      256
102
RTVSPost2010Prop51ColorRGB
 90
-16777216
102
RTVSPost2010PropOp51
 70
     0
102
RTVSPost2010Prop52
140
1.0
102
RTVSPost2010PropOp52
 70
     0
102
RTVSPost2010Prop53
 90
        2
102
RTVSPost2010PropOp53
 70
     1
102
RTVSPost2010Prop54
  1
strokes_ogs.tif
102
RTVSPost2010PropOp54
 70
     1
102
RTVSPost2010Prop55
280
     0
102
RTVSPost2010PropOp55
 70
     1
102
RTVSPost2010Prop56
140
1.0
102
RTVSPost2010PropOp56
 70
     1
102
RTVSPost2010Prop57
140
1.0
102
RTVSPost2010PropOp57
 70
     1
  0
XRECORD
  5
FF
102
{ACAD_REACTORS
330
FE
102
}
330
FE
100
AcDbXrecord
280
     1
102
RTVSPropertyOp0
 70
     1
102
RTVSPropertyOp1
 70
     1
102
RTVSPropertyOp2
 70
     1
102
RTVSPropertyOp3
 70
     1
102
RTVSPropertyOp4
 70
     1
102
RTVSPropertyOp5
 70
     1
102
RTVSPropertyOp6
 70
     1
102
RTVSPropertyOp7
 70
     1
102
RTVSPropertyOp8
 70
     1
102
RTVSPropertyOp9
 70
     1
102
RTVSPropertyOp10
 70
     1
102
RTVSPropertyOp11
 70
     1
102
RTVSPropertyOp12
 70
     1
102
RTVSPropertyOp13
 70
     1
102
RTVSPropertyOp14
 70
     1
102
RTVSPropertyOp15
 70
     1
102
RTVSPropertyOp16
 70
     1
102
RTVSPropertyOp17
 70
     1
102
RTVSPropertyOp18
 70
     1
102
RTVSPropertyOp19
 70
     1
102
RTVSPropertyOp20
 70
     1
102
RTVSPropertyOp21
 70
     1
102
RTVSPropertyOp22
 70
     1
102
RTVSPropertyOp23
 70
     1
102
RTVSPropertyOp24
 70
     1
102
RTVSPropertyOp25
 70
     1
102
RTVSPropertyOp26
 70
     1
102
RTVSPropertyOp27
 70
     1
102
RTVSPropertyOp28
 70
     1
102
RTVSPropertyOp29
 70
     1
102
RTVSPropertyOp30
 70
     1
102
RTVSPropertyOp31
 70
     1
102
RTVSPropertyOp32
 70
     1
102
RTVSPropertyOp33
 70
     1
102
RTVSPropertyOp34
 70
     1
102
RTVSPropertyOp35
 70
     1
102
RTVSPropertyOp36
 70
     1
102
RTVSPropertyOp37
 70
     1
102
RTVSPropertyOp38
 70
     1
102
RTVSPropertyOp39
 70
     1
102
RTVSPropertyOp40
 70
     1
102
RTVSPropertyOp41
 70
     1
102
RTVSPropertyOp42
 70
     1
102
RTVSPropertyOp43
 70
     1
102
RTVSPropertyOp44
 70
     1
102
RTVSPropertyOp45
 70
     1
102
RTVSPropertyOp46
 70
     1
102
RTVSPropertyOp47
 70
     1
102
RTVSPropertyOp48
 70
     1
102
RTVSPropertyOp49
 70
     1
102
RTVSPropertyOp50
 70
     1
102
RTVSPropertyOp51
 70
     0
102
RTVSPropertyOp52
 70
     0
102
RTVSPropertyOp53
 70
     1
102
RTVSPropertyOp54
 70
     1
102
RTVSPropertyOp55
 70
     1
102
RTVSPropertyOp56
 70
     1
102
RTVSPropertyOp57
 70
     1
102
RTVSPost2010Prop28
280
     0
102
RTVSPost2010PropOp28
 70
     1
102
RTVSPost2010Prop29
280
     1
102
RTVSPost2010PropOp29
 70
     1
102
RTVSPost2010Prop30
280
     1
102
RTVSPost2010PropOp30
 70
     1
102
RTVSPost2010Prop31
280
     0
102
RTVSPost2010PropOp31
 70
     1
102
RTVSPost2010Prop32
280
     0
102
RTVSPost2010PropOp32
 70
     1
102
RTVSPost2010Prop33
280
     0
102
RTVSPost2010PropOp33
 70
     1
102
RTVSPost2010Prop34
280
     0
102
RTVSPost2010PropOp34
 70
     1
102
RTVSPost2010Prop35
280
     0
102
RTVSPost2010PropOp35
 70
     1
102
RTVSPost2010Prop36
280
     0
102
RTVSPost2010PropOp36
 70
     1
102
RTVSPost2010Prop37
 90
       50
102
RTVSPost2010PropOp37
 70
     1
102
RTVSPost2010Prop38
140
0.0
102
RTVSPost2010PropOp38
 70
     1
102
RTVSPost2010Prop39
140
1.0
102
RTVSPost2010PropOp39
 70
     1
102
RTVSPost2010Prop40
 90
        0
102
RTVSPost2010PropOp40
 70
     1
102
RTVSPost2010Prop41ColorIndex
 90
       18
102
RTVSPost2010Prop41ColorRGB
 90
        0
102
RTVSPost2010PropOp41
 70
     1
102
RTVSPost2010Prop42
 90
       50
102
RTVSPost2010PropOp42
 70
     1
102
RTVSPost2010Prop43
 90
        3
102
RTVSPost2010PropOp43
 70
     1
102
RTVSPost2010Prop44ColorIndex
 90
        5
102
RTVSPost2010Prop44ColorRGB
 90
      255
102
RTVSPost2010PropOp44
 70
     1
102
RTVSPost2010Prop45
280
     0
102
RTVSPost2010PropOp45
 70
     1
102
RTVSPost2010Prop46
 90
       50
102
RTVSPost2010PropOp46
 70
     1
102
RTVSPost2010Prop47
 90
       50
102
RTVSPost2010PropOp47
 70
     1
102
RTVSPost2010Prop48
 90
       50
102
RTVSPost2010PropOp48
 70
     1
102
RTVSPost2010Prop49
280
     0
102
RTVSPost2010PropOp49
 70
     1
102
RTVSPost2010Prop50
 90
       50
102
RTVSPost2010PropOp50
 70
     1
102
RTVSPost2010Prop51ColorIndex
 90
      256
102
RTVSPost2010Prop51ColorRGB
 90
-16777216
102
RTVSPost2010PropOp51
 70
     0
102
RTVSPost2010Prop52
140
1.0
102
RTVSPost2010PropOp52
 70
     0
102
RTVSPost2010Prop53
 90
        2
102
RTVSPost2010PropOp53
 70
     1
102
RTVSPost2010Prop54
  1
strokes_ogs.tif
102
RTVSPost2010PropOp54
 70
     1
102
RTVSPost2010Prop55
280
     0
102
RTVSPost2010PropOp55
 70
     1
102
RTVSPost2010Prop56
140
1.0
102
RTVSPost2010PropOp56
 70
     1
102
RTVSPost2010Prop57
140
1.0
102
RTVSPost2010PropOp57
 70
     1
  0
XRECORD
  5
F3
102
{ACAD_REACTORS
330
F2
102
}
330
F2
100
AcDbXrecord
280
     1
102
RTVSPropertyOp0
 70
     1
102
RTVSPropertyOp1
 70
     1
102
RTVSPropertyOp2
 70
     1
102
RTVSPropertyOp3
 70
     1
102
RTVSPropertyOp4
 70
     1
102
RTVSPropertyOp5
 70
     1
102
RTVSPropertyOp6
 70
     1
102
RTVSPropertyOp7
 70
     1
102
RTVSPropertyOp8
 70
     1
102
RTVSPropertyOp9
 70
     1
102
RTVSPropertyOp10
 70
     1
102
RTVSPropertyOp11
 70
     1
102
RTVSPropertyOp12
 70
     1
102
RTVSPropertyOp13
 70
     1
102
RTVSPropertyOp14
 70
     1
102
RTVSPropertyOp15
 70
     1
102
RTVSPropertyOp16
 70
     1
102
RTVSPropertyOp17
 70
     1
102
RTVSPropertyOp18
 70
     1
102
RTVSPropertyOp19
 70
     1
102
RTVSPropertyOp20
 70
     1
102
RTVSPropertyOp21
 70
     1
102
RTVSPropertyOp22
 70
     1
102
RTVSPropertyOp23
 70
     1
102
RTVSPropertyOp24
 70
     1
102
RTVSPropertyOp25
 70
     1
102
RTVSPropertyOp26
 70
     1
102
RTVSPropertyOp27
 70
     1
102
RTVSPropertyOp28
 70
     1
102
RTVSPropertyOp29
 70
     1
102
RTVSPropertyOp30
 70
     1
102
RTVSPropertyOp31
 70
     1
102
RTVSPropertyOp32
 70
     1
102
RTVSPropertyOp33
 70
     1
102
RTVSPropertyOp34
 70
     1
102
RTVSPropertyOp35
 70
     1
102
RTVSPropertyOp36
 70
     1
102
RTVSPropertyOp37
 70
     1
102
RTVSPropertyOp38
 70
     1
102
RTVSPropertyOp39
 70
     1
102
RTVSPropertyOp40
 70
     1
102
RTVSPropertyOp41
 70
     1
102
RTVSPropertyOp42
 70
     1
102
RTVSPropertyOp43
 70
     1
102
RTVSPropertyOp44
 70
     1
102
RTVSPropertyOp45
 70
     1
102
RTVSPropertyOp46
 70
     1
102
RTVSPropertyOp47
 70
     1
102
RTVSPropertyOp48
 70
     1
102
RTVSPropertyOp49
 70
     1
102
RTVSPropertyOp50
 70
     1
102
RTVSPropertyOp51
 70
     0
102
RTVSPropertyOp52
 70
     0
102
RTVSPropertyOp53
 70
     1
102
RTVSPropertyOp54
 70
     1
102
RTVSPropertyOp55
 70
     1
102
RTVSPropertyOp56
 70
     1
102
RTVSPropertyOp57
 70
     1
102
RTVSPost2010Prop28
280
     0
102
RTVSPost2010PropOp28
 70
     1
102
RTVSPost2010Prop29
280
     1
102
RTVSPost2010PropOp29
 70
     1
102
RTVSPost2010Prop30
280
     1
102
RTVSPost2010PropOp30
 70
     1
102
RTVSPost2010Prop31
280
     0
102
RTVSPost2010PropOp31
 70
     1
102
RTVSPost2010Prop32
280
     0
102
RTVSPost2010PropOp32
 70
     1
102
RTVSPost2010Prop33
280
     0
102
RTVSPost2010PropOp33
 70
     1
102
RTVSPost2010Prop34
280
     0
102
RTVSPost2010PropOp34
 70
     1
102
RTVSPost2010Prop35
280
     0
102
RTVSPost2010PropOp35
 70
     1
102
RTVSPost2010Prop36
280
     0
102
RTVSPost2010PropOp36
 70
     1
102
RTVSPost2010Prop37
 90
       50
102
RTVSPost2010PropOp37
 70
     1
102
RTVSPost2010Prop38
140
0.0
102
RTVSPost2010PropOp38
 70
     1
102
RTVSPost2010Prop39
140
1.0
102
RTVSPost2010PropOp39
 70
     1
102
RTVSPost2010Prop40
 90
        0
102
RTVSPost2010PropOp40
 70
     1
102
RTVSPost2010Prop41ColorIndex
 90
       18
102
RTVSPost2010Prop41ColorRGB
 90
        0
102
RTVSPost2010PropOp41
 70
     1
102
RTVSPost2010Prop42
 90
       50
102
RTVSPost2010PropOp42
 70
     1
102
RTVSPost2010Prop43
 90
        3
102
RTVSPost2010PropOp43
 70
     1
102
RTVSPost2010Prop44ColorIndex
 90
        5
102
RTVSPost2010Prop44ColorRGB
 90
      255
102
RTVSPost2010PropOp44
 70
     1
102
RTVSPost2010Prop45
280
     0
102
RTVSPost2010PropOp45
 70
     1
102
RTVSPost2010Prop46
 90
       50
102
RTVSPost2010PropOp46
 70
     1
102
RTVSPost2010Prop47
 90
       50
102
RTVSPost2010PropOp47
 70
     1
102
RTVSPost2010Prop48
 90
       50
102
RTVSPost2010PropOp48
 70
     1
102
RTVSPost2010Prop49
280
     0
102
RTVSPost2010PropOp49
 70
     1
102
RTVSPost2010Prop50
 90
       50
102
RTVSPost2010PropOp50
 70
     1
102
RTVSPost2010Prop51ColorIndex
 90
      256
102
RTVSPost2010Prop51ColorRGB
 90
-16777216
102
RTVSPost2010PropOp51
 70
     0
102
RTVSPost2010Prop52
140
1.0
102
RTVSPost2010PropOp52
 70
     0
102
RTVSPost2010Prop53
 90
        2
102
RTVSPost2010PropOp53
 70
     1
102
RTVSPost2010Prop54
  1
strokes_ogs.tif
102
RTVSPost2010PropOp54
 70
     1
102
RTVSPost2010Prop55
280
     0
102
RTVSPost2010PropOp55
 70
     1
102
RTVSPost2010Prop56
140
1.0
102
RTVSPost2010PropOp56
 70
     1
102
RTVSPost2010Prop57
140
1.0
102
RTVSPost2010PropOp57
 70
     1
  0
XRECORD
  5
F5
102
{ACAD_REACTORS
330
F4
102
}
330
F4
100
AcDbXrecord
280
     1
102
RTVSPropertyOp0
 70
     1
102
RTVSPropertyOp1
 70
     1
102
RTVSPropertyOp2
 70
     1
102
RTVSPropertyOp3
 70
     1
102
RTVSPropertyOp4
 70
     1
102
RTVSPropertyOp5
 70
     1
102
RTVSPropertyOp6
 70
     1
102
RTVSPropertyOp7
 70
     1
102
RTVSPropertyOp8
 70
     1
102
RTVSPropertyOp9
 70
     1
102
RTVSPropertyOp10
 70
     1
102
RTVSPropertyOp11
 70
     1
102
RTVSPropertyOp12
 70
     1
102
RTVSPropertyOp13
 70
     1
102
RTVSPropertyOp14
 70
     1
102
RTVSPropertyOp15
 70
     1
102
RTVSPropertyOp16
 70
     1
102
RTVSPropertyOp17
 70
     1
102
RTVSPropertyOp18
 70
     1
102
RTVSPropertyOp19
 70
     1
102
RTVSPropertyOp20
 70
     1
102
RTVSPropertyOp21
 70
     1
102
RTVSPropertyOp22
 70
     1
102
RTVSPropertyOp23
 70
     1
102
RTVSPropertyOp24
 70
     1
102
RTVSPropertyOp25
 70
     1
102
RTVSPropertyOp26
 70
     1
102
RTVSPropertyOp27
 70
     1
102
RTVSPropertyOp28
 70
     1
102
RTVSPropertyOp29
 70
     1
102
RTVSPropertyOp30
 70
     1
102
RTVSPropertyOp31
 70
     1
102
RTVSPropertyOp32
 70
     1
102
RTVSPropertyOp33
 70
     1
102
RTVSPropertyOp34
 70
     1
102
RTVSPropertyOp35
 70
     1
102
RTVSPropertyOp36
 70
     1
102
RTVSPropertyOp37
 70
     1
102
RTVSPropertyOp38
 70
     1
102
RTVSPropertyOp39
 70
     1
102
RTVSPropertyOp40
 70
     1
102
RTVSPropertyOp41
 70
     1
102
RTVSPropertyOp42
 70
     1
102
RTVSPropertyOp43
 70
     1
102
RTVSPropertyOp44
 70
     1
102
RTVSPropertyOp45
 70
     1
102
RTVSPropertyOp46
 70
     1
102
RTVSPropertyOp47
 70
     1
102
RTVSPropertyOp48
 70
     1
102
RTVSPropertyOp49
 70
     1
102
RTVSPropertyOp50
 70
     1
102
RTVSPropertyOp51
 70
     0
102
RTVSPropertyOp52
 70
     0
102
RTVSPropertyOp53
 70
     1
102
RTVSPropertyOp54
 70
     1
102
RTVSPropertyOp55
 70
     1
102
RTVSPropertyOp56
 70
     1
102
RTVSPropertyOp57
 70
     1
102
RTVSPost2010Prop28
280
     0
102
RTVSPost2010PropOp28
 70
     1
102
RTVSPost2010Prop29
280
     1
102
RTVSPost2010PropOp29
 70
     1
102
RTVSPost2010Prop30
280
     1
102
RTVSPost2010PropOp30
 70
     1
102
RTVSPost2010Prop31
280
     0
102
RTVSPost2010PropOp31
 70
     1
102
RTVSPost2010Prop32
280
     0
102
RTVSPost2010PropOp32
 70
     1
102
RTVSPost2010Prop33
280
     0
102
RTVSPost2010PropOp33
 70
     1
102
RTVSPost2010Prop34
280
     0
102
RTVSPost2010PropOp34
 70
     1
102
RTVSPost2010Prop35
280
     0
102
RTVSPost2010PropOp35
 70
     1
102
RTVSPost2010Prop36
280
     0
102
RTVSPost2010PropOp36
 70
     1
102
RTVSPost2010Prop37
 90
       50
102
RTVSPost2010PropOp37
 70
     1
102
RTVSPost2010Prop38
140
0.0
102
RTVSPost2010PropOp38
 70
     1
102
RTVSPost2010Prop39
140
1.0
102
RTVSPost2010PropOp39
 70
     1
102
RTVSPost2010Prop40
 90
        0
102
RTVSPost2010PropOp40
 70
     1
102
RTVSPost2010Prop41ColorIndex
 90
       18
102
RTVSPost2010Prop41ColorRGB
 90
        0
102
RTVSPost2010PropOp41
 70
     1
102
RTVSPost2010Prop42
 90
       50
102
RTVSPost2010PropOp42
 70
     1
102
RTVSPost2010Prop43
 90
        3
102
RTVSPost2010PropOp43
 70
     1
102
RTVSPost2010Prop44ColorIndex
 90
        5
102
RTVSPost2010Prop44ColorRGB
 90
      255
102
RTVSPost2010PropOp44
 70
     1
102
RTVSPost2010Prop45
280
     0
102
RTVSPost2010PropOp45
 70
     1
102
RTVSPost2010Prop46
 90
       50
102
RTVSPost2010PropOp46
 70
     1
102
RTVSPost2010Prop47
 90
       50
102
RTVSPost2010PropOp47
 70
     1
102
RTVSPost2010Prop48
 90
       50
102
RTVSPost2010PropOp48
 70
     1
102
RTVSPost2010Prop49
280
     0
102
RTVSPost2010PropOp49
 70
     1
102
RTVSPost2010Prop50
 90
       50
102
RTVSPost2010PropOp50
 70
     1
102
RTVSPost2010Prop51ColorIndex
 90
      256
102
RTVSPost2010Prop51ColorRGB
 90
-16777216
102
RTVSPost2010PropOp51
 70
     0
102
RTVSPost2010Prop52
140
1.0
102
RTVSPost2010PropOp52
 70
     0
102
RTVSPost2010Prop53
 90
        2
102
RTVSPost2010PropOp53
 70
     1
102
RTVSPost2010Prop54
  1
strokes_ogs.tif
102
RTVSPost2010PropOp54
 70
     1
102
RTVSPost2010Prop55
280
     0
102
RTVSPost2010PropOp55
 70
     1
102
RTVSPost2010Prop56
140
1.0
102
RTVSPost2010PropOp56
 70
     1
102
RTVSPost2010Prop57
140
1.0
102
RTVSPost2010PropOp57
 70
     1
  0
XRECORD
  5
105
102
{ACAD_REACTORS
330
104
102
}
330
104
100
AcDbXrecord
280
     1
102
RTVSPropertyOp0
 70
     0
102
RTVSPropertyOp1
 70
     0
102
RTVSPropertyOp2
 70
     0
102
RTVSPropertyOp3
 70
     0
102
RTVSPropertyOp4
 70
     0
102
RTVSPropertyOp5
 70
     0
102
RTVSPropertyOp6
 70
     0
102
RTVSPropertyOp7
 70
     0
102
RTVSPropertyOp8
 70
     0
102
RTVSPropertyOp9
 70
     0
102
RTVSPropertyOp10
 70
     0
102
RTVSPropertyOp11
 70
     0
102
RTVSPropertyOp12
 70
     0
102
RTVSPropertyOp13
 70
     0
102
RTVSPropertyOp14
 70
     2
102
RTVSPropertyOp15
 70
     0
102
RTVSPropertyOp16
 70
     0
102
RTVSPropertyOp17
 70
     0
102
RTVSPropertyOp18
 70
     0
102
RTVSPropertyOp19
 70
     0
102
RTVSPropertyOp20
 70
     0
102
RTVSPropertyOp21
 70
     0
102
RTVSPropertyOp22
 70
     0
102
RTVSPropertyOp23
 70
     0
102
RTVSPropertyOp24
 70
     0
102
RTVSPropertyOp25
 70
     0
102
RTVSPropertyOp26
 70
     0
102
RTVSPropertyOp27
 70
     0
102
RTVSPropertyOp28
 70
     0
102
RTVSPropertyOp29
 70
     0
102
RTVSPropertyOp30
 70
     0
102
RTVSPropertyOp31
 70
     0
102
RTVSPropertyOp32
 70
     0
102
RTVSPropertyOp33
 70
     0
102
RTVSPropertyOp34
 70
     0
102
RTVSPropertyOp35
 70
     0
102
RTVSPropertyOp36
 70
     0
102
RTVSPropertyOp37
 70
     0
102
RTVSPropertyOp38
 70
     0
102
RTVSPropertyOp39
 70
     0
102
RTVSPropertyOp40
 70
     0
102
RTVSPropertyOp41
 70
     0
102
RTVSPropertyOp42
 70
     0
102
RTVSPropertyOp43
 70
     0
102
RTVSPropertyOp44
 70
     0
102
RTVSPropertyOp45
 70
     0
102
RTVSPropertyOp46
 70
     0
102
RTVSPropertyOp47
 70
     0
102
RTVSPropertyOp48
 70
     0
102
RTVSPropertyOp49
 70
     0
102
RTVSPropertyOp50
 70
     0
102
RTVSPropertyOp51
 70
     0
102
RTVSPropertyOp52
 70
     0
102
RTVSPropertyOp53
 70
     0
102
RTVSPropertyOp54
 70
     0
102
RTVSPropertyOp55
 70
     0
102
RTVSPropertyOp56
 70
     0
102
RTVSPropertyOp57
 70
     0
102
RTVSPost2010Prop28
280
     0
102
RTVSPost2010PropOp28
 70
     0
102
RTVSPost2010Prop29
280
     1
102
RTVSPost2010PropOp29
 70
     0
102
RTVSPost2010Prop30
280
     1
102
RTVSPost2010PropOp30
 70
     0
102
RTVSPost2010Prop31
280
     0
102
RTVSPost2010PropOp31
 70
     0
102
RTVSPost2010Prop32
280
     0
102
RTVSPost2010PropOp32
 70
     0
102
RTVSPost2010Prop33
280
     0
102
RTVSPost2010PropOp33
 70
     0
102
RTVSPost2010Prop34
280
     0
102
RTVSPost2010PropOp34
 70
     0
102
RTVSPost2010Prop35
280
     0
102
RTVSPost2010PropOp35
 70
     0
102
RTVSPost2010Prop36
280
     0
102
RTVSPost2010PropOp36
 70
     0
102
RTVSPost2010Prop37
 90
       50
102
RTVSPost2010PropOp37
 70
     0
102
RTVSPost2010Prop38
140
0.0
102
RTVSPost2010PropOp38
 70
     0
102
RTVSPost2010Prop39
140
1.0
102
RTVSPost2010PropOp39
 70
     0
102
RTVSPost2010Prop40
 90
        0
102
RTVSPost2010PropOp40
 70
     0
102
RTVSPost2010Prop41ColorIndex
 90
       18
102
RTVSPost2010Prop41ColorRGB
 90
        0
102
RTVSPost2010PropOp41
 70
     0
102
RTVSPost2010Prop42
 90
       50
102
RTVSPost2010PropOp42
 70
     0
102
RTVSPost2010Prop43
 90
        3
102
RTVSPost2010PropOp43
 70
     0
102
RTVSPost2010Prop44ColorIndex
 90
        5
102
RTVSPost2010Prop44ColorRGB
 90
      255
102
RTVSPost2010PropOp44
 70
     0
102
RTVSPost2010Prop45
280
     0
102
RTVSPost2010PropOp45
 70
     0
102
RTVSPost2010Prop46
 90
       50
102
RTVSPost2010PropOp46
 70
     0
102
RTVSPost2010Prop47
 90
       50
102
RTVSPost2010PropOp47
 70
     0
102
RTVSPost2010Prop48
 90
       50
102
RTVSPost2010PropOp48
 70
     0
102
RTVSPost2010Prop49
280
     0
102
RTVSPost2010PropOp49
 70
     0
102
RTVSPost2010Prop50
 90
       50
102
RTVSPost2010PropOp50
 70
     0
102
RTVSPost2010Prop51ColorIndex
 90
      256
102
RTVSPost2010Prop51ColorRGB
 90
-16777216
102
RTVSPost2010PropOp51
 70
     0
102
RTVSPost2010Prop52
140
1.0
102
RTVSPost2010PropOp52
 70
     0
102
RTVSPost2010Prop53
 90
        2
102
RTVSPost2010PropOp53
 70
     0
102
RTVSPost2010Prop54
  1
strokes_ogs.tif
102
RTVSPost2010PropOp54
 70
     0
102
RTVSPost2010Prop55
280
     0
102
RTVSPost2010PropOp55
 70
     0
102
RTVSPost2010Prop56
140
1.0
102
RTVSPost2010PropOp56
 70
     0
102
RTVSPost2010Prop57
140
1.0
102
RTVSPost2010PropOp57
 70
     0
  0
XRECORD
  5
FD
102
{ACAD_REACTORS
330
FC
102
}
330
FC
100
AcDbXrecord
280
     1
102
RTVSPropertyOp0
 70
     1
102
RTVSPropertyOp1
 70
     1
102
RTVSPropertyOp2
 70
     1
102
RTVSPropertyOp3
 70
     1
102
RTVSPropertyOp4
 70
     1
102
RTVSPropertyOp5
 70
     1
102
RTVSPropertyOp6
 70
     1
102
RTVSPropertyOp7
 70
     1
102
RTVSPropertyOp8
 70
     1
102
RTVSPropertyOp9
 70
     1
102
RTVSPropertyOp10
 70
     1
102
RTVSPropertyOp11
 70
     1
102
RTVSPropertyOp12
 70
     1
102
RTVSPropertyOp13
 70
     1
102
RTVSPropertyOp14
 70
     1
102
RTVSPropertyOp15
 70
     1
102
RTVSPropertyOp16
 70
     1
102
RTVSPropertyOp17
 70
     1
102
RTVSPropertyOp18
 70
     1
102
RTVSPropertyOp19
 70
     1
102
RTVSPropertyOp20
 70
     1
102
RTVSPropertyOp21
 70
     1
102
RTVSPropertyOp22
 70
     1
102
RTVSPropertyOp23
 70
     1
102
RTVSPropertyOp24
 70
     1
102
RTVSPropertyOp25
 70
     1
102
RTVSPropertyOp26
 70
     1
102
RTVSPropertyOp27
 70
     1
102
RTVSPropertyOp28
 70
     1
102
RTVSPropertyOp29
 70
     1
102
RTVSPropertyOp30
 70
     1
102
RTVSPropertyOp31
 70
     1
102
RTVSPropertyOp32
 70
     1
102
RTVSPropertyOp33
 70
     1
102
RTVSPropertyOp34
 70
     1
102
RTVSPropertyOp35
 70
     1
102
RTVSPropertyOp36
 70
     1
102
RTVSPropertyOp37
 70
     1
102
RTVSPropertyOp38
 70
     1
102
RTVSPropertyOp39
 70
     1
102
RTVSPropertyOp40
 70
     1
102
RTVSPropertyOp41
 70
     1
102
RTVSPropertyOp42
 70
     1
102
RTVSPropertyOp43
 70
     1
102
RTVSPropertyOp44
 70
     1
102
RTVSPropertyOp45
 70
     1
102
RTVSPropertyOp46
 70
     1
102
RTVSPropertyOp47
 70
     1
102
RTVSPropertyOp48
 70
     1
102
RTVSPropertyOp49
 70
     1
102
RTVSPropertyOp50
 70
     1
102
RTVSPropertyOp51
 70
     0
102
RTVSPropertyOp52
 70
     0
102
RTVSPropertyOp53
 70
     1
102
RTVSPropertyOp54
 70
     1
102
RTVSPropertyOp55
 70
     1
102
RTVSPropertyOp56
 70
     1
102
RTVSPropertyOp57
 70
     1
102
RTVSPost2010Prop28
280
     0
102
RTVSPost2010PropOp28
 70
     1
102
RTVSPost2010Prop29
280
     1
102
RTVSPost2010PropOp29
 70
     1
102
RTVSPost2010Prop30
280
     1
102
RTVSPost2010PropOp30
 70
     1
102
RTVSPost2010Prop31
280
     0
102
RTVSPost2010PropOp31
 70
     1
102
RTVSPost2010Prop32
280
     0
102
RTVSPost2010PropOp32
 70
     1
102
RTVSPost2010Prop33
280
     0
102
RTVSPost2010PropOp33
 70
     1
102
RTVSPost2010Prop34
280
     0
102
RTVSPost2010PropOp34
 70
     1
102
RTVSPost2010Prop35
280
     0
102
RTVSPost2010PropOp35
 70
     1
102
RTVSPost2010Prop36
280
     0
102
RTVSPost2010PropOp36
 70
     1
102
RTVSPost2010Prop37
 90
       50
102
RTVSPost2010PropOp37
 70
     1
102
RTVSPost2010Prop38
140
0.0
102
RTVSPost2010PropOp38
 70
     1
102
RTVSPost2010Prop39
140
1.0
102
RTVSPost2010PropOp39
 70
     1
102
RTVSPost2010Prop40
 90
        0
102
RTVSPost2010PropOp40
 70
     1
102
RTVSPost2010Prop41ColorIndex
 90
       18
102
RTVSPost2010Prop41ColorRGB
 90
        0
102
RTVSPost2010PropOp41
 70
     1
102
RTVSPost2010Prop42
 90
       50
102
RTVSPost2010PropOp42
 70
     1
102
RTVSPost2010Prop43
 90
        3
102
RTVSPost2010PropOp43
 70
     1
102
RTVSPost2010Prop44ColorIndex
 90
        5
102
RTVSPost2010Prop44ColorRGB
 90
      255
102
RTVSPost2010PropOp44
 70
     1
102
RTVSPost2010Prop45
280
     0
102
RTVSPost2010PropOp45
 70
     1
102
RTVSPost2010Prop46
 90
       50
102
RTVSPost2010PropOp46
 70
     1
102
RTVSPost2010Prop47
 90
       50
102
RTVSPost2010PropOp47
 70
     1
102
RTVSPost2010Prop48
 90
       50
102
RTVSPost2010PropOp48
 70
     1
102
RTVSPost2010Prop49
280
     0
102
RTVSPost2010PropOp49
 70
     1
102
RTVSPost2010Prop50
 90
       50
102
RTVSPost2010PropOp50
 70
     1
102
RTVSPost2010Prop51ColorIndex
 90
      256
102
RTVSPost2010Prop51ColorRGB
 90
-16777216
102
RTVSPost2010PropOp51
 70
     0
102
RTVSPost2010Prop52
140
1.0
102
RTVSPost2010PropOp52
 70
     0
102
RTVSPost2010Prop53
 90
        2
102
RTVSPost2010PropOp53
 70
     1
102
RTVSPost2010Prop54
  1
strokes_ogs.tif
102
RTVSPost2010PropOp54
 70
     1
102
RTVSPost2010Prop55
280
     0
102
RTVSPost2010PropOp55
 70
     1
102
RTVSPost2010Prop56
140
1.0
102
RTVSPost2010PropOp56
 70
     1
102
RTVSPost2010Prop57
140
1.0
102
RTVSPost2010PropOp57
 70
     1
  0
XRECORD
  5
E1
102
{ACAD_REACTORS
330
E0
102
}
330
E0
100
AcDbXrecord
280
     1
102
RTVSPropertyOp0
 70
     1
102
RTVSPropertyOp1
 70
     1
102
RTVSPropertyOp2
 70
     1
102
RTVSPropertyOp3
 70
     1
102
RTVSPropertyOp4
 70
     1
102
RTVSPropertyOp5
 70
     1
102
RTVSPropertyOp6
 70
     1
102
RTVSPropertyOp7
 70
     1
102
RTVSPropertyOp8
 70
     1
102
RTVSPropertyOp9
 70
     1
102
RTVSPropertyOp10
 70
     1
102
RTVSPropertyOp11
 70
     1
102
RTVSPropertyOp12
 70
     1
102
RTVSPropertyOp13
 70
     1
102
RTVSPropertyOp14
 70
     1
102
RTVSPropertyOp15
 70
     1
102
RTVSPropertyOp16
 70
     1
102
RTVSPropertyOp17
 70
     1
102
RTVSPropertyOp18
 70
     1
102
RTVSPropertyOp19
 70
     1
102
RTVSPropertyOp20
 70
     1
102
RTVSPropertyOp21
 70
     1
102
RTVSPropertyOp22
 70
     1
102
RTVSPropertyOp23
 70
     1
102
RTVSPropertyOp24
 70
     1
102
RTVSPropertyOp25
 70
     1
102
RTVSPropertyOp26
 70
     1
102
RTVSPropertyOp27
 70
     1
102
RTVSPropertyOp28
 70
     1
102
RTVSPropertyOp29
 70
     1
102
RTVSPropertyOp30
 70
     1
102
RTVSPropertyOp31
 70
     1
102
RTVSPropertyOp32
 70
     1
102
RTVSPropertyOp33
 70
     1
102
RTVSPropertyOp34
 70
     1
102
RTVSPropertyOp35
 70
     1
102
RTVSPropertyOp36
 70
     1
102
RTVSPropertyOp37
 70
     1
102
RTVSPropertyOp38
 70
     1
102
RTVSPropertyOp39
 70
     1
102
RTVSPropertyOp40
 70
     1
102
RTVSPropertyOp41
 70
     1
102
RTVSPropertyOp42
 70
     1
102
RTVSPropertyOp43
 70
     1
102
RTVSPropertyOp44
 70
     1
102
RTVSPropertyOp45
 70
     1
102
RTVSPropertyOp46
 70
     1
102
RTVSPropertyOp47
 70
     1
102
RTVSPropertyOp48
 70
     1
102
RTVSPropertyOp49
 70
     1
102
RTVSPropertyOp50
 70
     1
102
RTVSPropertyOp51
 70
     0
102
RTVSPropertyOp52
 70
     0
102
RTVSPropertyOp53
 70
     1
102
RTVSPropertyOp54
 70
     1
102
RTVSPropertyOp55
 70
     1
102
RTVSPropertyOp56
 70
     1
102
RTVSPropertyOp57
 70
     1
102
RTVSPost2010Prop28
280
     0
102
RTVSPost2010PropOp28
 70
     1
102
RTVSPost2010Prop29
280
     1
102
RTVSPost2010PropOp29
 70
     1
102
RTVSPost2010Prop30
280
     1
102
RTVSPost2010PropOp30
 70
     1
102
RTVSPost2010Prop31
280
     0
102
RTVSPost2010PropOp31
 70
     1
102
RTVSPost2010Prop32
280
     0
102
RTVSPost2010PropOp32
 70
     1
102
RTVSPost2010Prop33
280
     0
102
RTVSPost2010PropOp33
 70
     1
102
RTVSPost2010Prop34
280
     0
102
RTVSPost2010PropOp34
 70
     1
102
RTVSPost2010Prop35
280
     0
102
RTVSPost2010PropOp35
 70
     1
102
RTVSPost2010Prop36
280
     0
102
RTVSPost2010PropOp36
 70
     1
102
RTVSPost2010Prop37
 90
       50
102
RTVSPost2010PropOp37
 70
     1
102
RTVSPost2010Prop38
140
0.0
102
RTVSPost2010PropOp38
 70
     1
102
RTVSPost2010Prop39
140
1.0
102
RTVSPost2010PropOp39
 70
     1
102
RTVSPost2010Prop40
 90
        0
102
RTVSPost2010PropOp40
 70
     1
102
RTVSPost2010Prop41ColorIndex
 90
       18
102
RTVSPost2010Prop41ColorRGB
 90
        0
102
RTVSPost2010PropOp41
 70
     1
102
RTVSPost2010Prop42
 90
       50
102
RTVSPost2010PropOp42
 70
     1
102
RTVSPost2010Prop43
 90
        3
102
RTVSPost2010PropOp43
 70
     1
102
RTVSPost2010Prop44ColorIndex
 90
        5
102
RTVSPost2010Prop44ColorRGB
 90
      255
102
RTVSPost2010PropOp44
 70
     1
102
RTVSPost2010Prop45
280
     0
102
RTVSPost2010PropOp45
 70
     1
102
RTVSPost2010Prop46
 90
       50
102
RTVSPost2010PropOp46
 70
     1
102
RTVSPost2010Prop47
 90
       50
102
RTVSPost2010PropOp47
 70
     1
102
RTVSPost2010Prop48
 90
       50
102
RTVSPost2010PropOp48
 70
     1
102
RTVSPost2010Prop49
280
     0
102
RTVSPost2010PropOp49
 70
     1
102
RTVSPost2010Prop50
 90
       50
102
RTVSPost2010PropOp50
 70
     1
102
RTVSPost2010Prop51ColorIndex
 90
      256
102
RTVSPost2010Prop51ColorRGB
 90
-16777216
102
RTVSPost2010PropOp51
 70
     0
102
RTVSPost2010Prop52
140
1.0
102
RTVSPost2010PropOp52
 70
     0
102
RTVSPost2010Prop53
 90
        2
102
RTVSPost2010PropOp53
 70
     1
102
RTVSPost2010Prop54
  1
strokes_ogs.tif
102
RTVSPost2010PropOp54
 70
     1
102
RTVSPost2010Prop55
280
     0
102
RTVSPost2010PropOp55
 70
     1
102
RTVSPost2010Prop56
140
1.0
102
RTVSPost2010PropOp56
 70
     1
102
RTVSPost2010Prop57
140
1.0
102
RTVSPost2010PropOp57
 70
     1
  0
XRECORD
  5
E3
102
{ACAD_REACTORS
330
E2
102
}
330
E2
100
AcDbXrecord
280
     1
102
RTVSPropertyOp0
 70
     1
102
RTVSPropertyOp1
 70
     1
102
RTVSPropertyOp2
 70
     1
102
RTVSPropertyOp3
 70
     1
102
RTVSPropertyOp4
 70
     1
102
RTVSPropertyOp5
 70
     1
102
RTVSPropertyOp6
 70
     1
102
RTVSPropertyOp7
 70
     1
102
RTVSPropertyOp8
 70
     1
102
RTVSPropertyOp9
 70
     1
102
RTVSPropertyOp10
 70
     1
102
RTVSPropertyOp11
 70
     1
102
RTVSPropertyOp12
 70
     1
102
RTVSPropertyOp13
 70
     1
102
RTVSPropertyOp14
 70
     1
102
RTVSPropertyOp15
 70
     1
102
RTVSPropertyOp16
 70
     1
102
RTVSPropertyOp17
 70
     1
102
RTVSPropertyOp18
 70
     1
102
RTVSPropertyOp19
 70
     1
102
RTVSPropertyOp20
 70
     1
102
RTVSPropertyOp21
 70
     1
102
RTVSPropertyOp22
 70
     1
102
RTVSPropertyOp23
 70
     1
102
RTVSPropertyOp24
 70
     1
102
RTVSPropertyOp25
 70
     1
102
RTVSPropertyOp26
 70
     1
102
RTVSPropertyOp27
 70
     1
102
RTVSPropertyOp28
 70
     1
102
RTVSPropertyOp29
 70
     1
102
RTVSPropertyOp30
 70
     1
102
RTVSPropertyOp31
 70
     1
102
RTVSPropertyOp32
 70
     1
102
RTVSPropertyOp33
 70
     1
102
RTVSPropertyOp34
 70
     1
102
RTVSPropertyOp35
 70
     1
102
RTVSPropertyOp36
 70
     1
102
RTVSPropertyOp37
 70
     1
102
RTVSPropertyOp38
 70
     1
102
RTVSPropertyOp39
 70
     1
102
RTVSPropertyOp40
 70
     1
102
RTVSPropertyOp41
 70
     1
102
RTVSPropertyOp42
 70
     1
102
RTVSPropertyOp43
 70
     1
102
RTVSPropertyOp44
 70
     1
102
RTVSPropertyOp45
 70
     1
102
RTVSPropertyOp46
 70
     1
102
RTVSPropertyOp47
 70
     1
102
RTVSPropertyOp48
 70
     1
102
RTVSPropertyOp49
 70
     1
102
RTVSPropertyOp50
 70
     1
102
RTVSPropertyOp51
 70
     0
102
RTVSPropertyOp52
 70
     0
102
RTVSPropertyOp53
 70
     1
102
RTVSPropertyOp54
 70
     1
102
RTVSPropertyOp55
 70
     1
102
RTVSPropertyOp56
 70
     1
102
RTVSPropertyOp57
 70
     1
102
RTVSPost2010Prop28
280
     0
102
RTVSPost2010PropOp28
 70
     1
102
RTVSPost2010Prop29
280
     1
102
RTVSPost2010PropOp29
 70
     1
102
RTVSPost2010Prop30
280
     1
102
RTVSPost2010PropOp30
 70
     1
102
RTVSPost2010Prop31
280
     0
102
RTVSPost2010PropOp31
 70
     1
102
RTVSPost2010Prop32
280
     0
102
RTVSPost2010PropOp32
 70
     1
102
RTVSPost2010Prop33
280
     0
102
RTVSPost2010PropOp33
 70
     1
102
RTVSPost2010Prop34
280
     0
102
RTVSPost2010PropOp34
 70
     1
102
RTVSPost2010Prop35
280
     0
102
RTVSPost2010PropOp35
 70
     1
102
RTVSPost2010Prop36
280
     0
102
RTVSPost2010PropOp36
 70
     1
102
RTVSPost2010Prop37
 90
       50
102
RTVSPost2010PropOp37
 70
     1
102
RTVSPost2010Prop38
140
0.0
102
RTVSPost2010PropOp38
 70
     1
102
RTVSPost2010Prop39
140
1.0
102
RTVSPost2010PropOp39
 70
     1
102
RTVSPost2010Prop40
 90
        0
102
RTVSPost2010PropOp40
 70
     1
102
RTVSPost2010Prop41ColorIndex
 90
       18
102
RTVSPost2010Prop41ColorRGB
 90
        0
102
RTVSPost2010PropOp41
 70
     1
102
RTVSPost2010Prop42
 90
       50
102
RTVSPost2010PropOp42
 70
     1
102
RTVSPost2010Prop43
 90
        3
102
RTVSPost2010PropOp43
 70
     1
102
RTVSPost2010Prop44ColorIndex
 90
        5
102
RTVSPost2010Prop44ColorRGB
 90
      255
102
RTVSPost2010PropOp44
 70
     1
102
RTVSPost2010Prop45
280
     0
102
RTVSPost2010PropOp45
 70
     1
102
RTVSPost2010Prop46
 90
       50
102
RTVSPost2010PropOp46
 70
     1
102
RTVSPost2010Prop47
 90
       50
102
RTVSPost2010PropOp47
 70
     1
102
RTVSPost2010Prop48
 90
       50
102
RTVSPost2010PropOp48
 70
     1
102
RTVSPost2010Prop49
280
     0
102
RTVSPost2010PropOp49
 70
     1
102
RTVSPost2010Prop50
 90
       50
102
RTVSPost2010PropOp50
 70
     1
102
RTVSPost2010Prop51ColorIndex
 90
      256
102
RTVSPost2010Prop51ColorRGB
 90
-16777216
102
RTVSPost2010PropOp51
 70
     0
102
RTVSPost2010Prop52
140
1.0
102
RTVSPost2010PropOp52
 70
     0
102
RTVSPost2010Prop53
 90
        2
102
RTVSPost2010PropOp53
 70
     1
102
RTVSPost2010Prop54
  1
strokes_ogs.tif
102
RTVSPost2010PropOp54
 70
     1
102
RTVSPost2010Prop55
280
     0
102
RTVSPost2010PropOp55
 70
     1
102
RTVSPost2010Prop56
140
1.0
102
RTVSPost2010PropOp56
 70
     1
102
RTVSPost2010Prop57
140
1.0
102
RTVSPost2010PropOp57
 70
     1
  0
XRECORD
  5
E5
102
{ACAD_REACTORS
330
E4
102
}
330
E4
100
AcDbXrecord
280
     1
102
RTVSPropertyOp0
 70
     1
102
RTVSPropertyOp1
 70
     1
102
RTVSPropertyOp2
 70
     1
102
RTVSPropertyOp3
 70
     1
102
RTVSPropertyOp4
 70
     1
102
RTVSPropertyOp5
 70
     1
102
RTVSPropertyOp6
 70
     1
102
RTVSPropertyOp7
 70
     1
102
RTVSPropertyOp8
 70
     1
102
RTVSPropertyOp9
 70
     1
102
RTVSPropertyOp10
 70
     1
102
RTVSPropertyOp11
 70
     1
102
RTVSPropertyOp12
 70
     1
102
RTVSPropertyOp13
 70
     1
102
RTVSPropertyOp14
 70
     1
102
RTVSPropertyOp15
 70
     1
102
RTVSPropertyOp16
 70
     1
102
RTVSPropertyOp17
 70
     1
102
RTVSPropertyOp18
 70
     1
102
RTVSPropertyOp19
 70
     1
102
RTVSPropertyOp20
 70
     1
102
RTVSPropertyOp21
 70
     1
102
RTVSPropertyOp22
 70
     1
102
RTVSPropertyOp23
 70
     1
102
RTVSPropertyOp24
 70
     1
102
RTVSPropertyOp25
 70
     1
102
RTVSPropertyOp26
 70
     1
102
RTVSPropertyOp27
 70
     1
102
RTVSPropertyOp28
 70
     1
102
RTVSPropertyOp29
 70
     1
102
RTVSPropertyOp30
 70
     1
102
RTVSPropertyOp31
 70
     1
102
RTVSPropertyOp32
 70
     1
102
RTVSPropertyOp33
 70
     1
102
RTVSPropertyOp34
 70
     1
102
RTVSPropertyOp35
 70
     1
102
RTVSPropertyOp36
 70
     1
102
RTVSPropertyOp37
 70
     1
102
RTVSPropertyOp38
 70
     1
102
RTVSPropertyOp39
 70
     1
102
RTVSPropertyOp40
 70
     1
102
RTVSPropertyOp41
 70
     1
102
RTVSPropertyOp42
 70
     1
102
RTVSPropertyOp43
 70
     1
102
RTVSPropertyOp44
 70
     1
102
RTVSPropertyOp45
 70
     1
102
RTVSPropertyOp46
 70
     1
102
RTVSPropertyOp47
 70
     1
102
RTVSPropertyOp48
 70
     1
102
RTVSPropertyOp49
 70
     1
102
RTVSPropertyOp50
 70
     1
102
RTVSPropertyOp51
 70
     0
102
RTVSPropertyOp52
 70
     0
102
RTVSPropertyOp53
 70
     1
102
RTVSPropertyOp54
 70
     1
102
RTVSPropertyOp55
 70
     1
102
RTVSPropertyOp56
 70
     1
102
RTVSPropertyOp57
 70
     1
102
RTVSPost2010Prop28
280
     0
102
RTVSPost2010PropOp28
 70
     1
102
RTVSPost2010Prop29
280
     1
102
RTVSPost2010PropOp29
 70
     1
102
RTVSPost2010Prop30
280
     1
102
RTVSPost2010PropOp30
 70
     1
102
RTVSPost2010Prop31
280
     0
102
RTVSPost2010PropOp31
 70
     1
102
RTVSPost2010Prop32
280
     0
102
RTVSPost2010PropOp32
 70
     1
102
RTVSPost2010Prop33
280
     0
102
RTVSPost2010PropOp33
 70
     1
102
RTVSPost2010Prop34
280
     0
102
RTVSPost2010PropOp34
 70
     1
102
RTVSPost2010Prop35
280
     0
102
RTVSPost2010PropOp35
 70
     1
102
RTVSPost2010Prop36
280
     0
102
RTVSPost2010PropOp36
 70
     1
102
RTVSPost2010Prop37
 90
       50
102
RTVSPost2010PropOp37
 70
     1
102
RTVSPost2010Prop38
140
0.0
102
RTVSPost2010PropOp38
 70
     1
102
RTVSPost2010Prop39
140
1.0
102
RTVSPost2010PropOp39
 70
     1
102
RTVSPost2010Prop40
 90
        0
102
RTVSPost2010PropOp40
 70
     1
102
RTVSPost2010Prop41ColorIndex
 90
       18
102
RTVSPost2010Prop41ColorRGB
 90
        0
102
RTVSPost2010PropOp41
 70
     1
102
RTVSPost2010Prop42
 90
       50
102
RTVSPost2010PropOp42
 70
     1
102
RTVSPost2010Prop43
 90
        3
102
RTVSPost2010PropOp43
 70
     1
102
RTVSPost2010Prop44ColorIndex
 90
        5
102
RTVSPost2010Prop44ColorRGB
 90
      255
102
RTVSPost2010PropOp44
 70
     1
102
RTVSPost2010Prop45
280
     0
102
RTVSPost2010PropOp45
 70
     1
102
RTVSPost2010Prop46
 90
       50
102
RTVSPost2010PropOp46
 70
     1
102
RTVSPost2010Prop47
 90
       50
102
RTVSPost2010PropOp47
 70
     1
102
RTVSPost2010Prop48
 90
       50
102
RTVSPost2010PropOp48
 70
     1
102
RTVSPost2010Prop49
280
     0
102
RTVSPost2010PropOp49
 70
     1
102
RTVSPost2010Prop50
 90
       50
102
RTVSPost2010PropOp50
 70
     1
102
RTVSPost2010Prop51ColorIndex
 90
      256
102
RTVSPost2010Prop51ColorRGB
 90
-16777216
102
RTVSPost2010PropOp51
 70
     0
102
RTVSPost2010Prop52
140
1.0
102
RTVSPost2010PropOp52
 70
     0
102
RTVSPost2010Prop53
 90
        2
102
RTVSPost2010PropOp53
 70
     1
102
RTVSPost2010Prop54
  1
strokes_ogs.tif
102
RTVSPost2010PropOp54
 70
     1
102
RTVSPost2010Prop55
280
     0
102
RTVSPost2010PropOp55
 70
     1
102
RTVSPost2010Prop56
140
1.0
102
RTVSPost2010PropOp56
 70
     1
102
RTVSPost2010Prop57
140
1.0
102
RTVSPost2010PropOp57
 70
     1
  0
XRECORD
  5
E7
102
{ACAD_REACTORS
330
E6
102
}
330
E6
100
AcDbXrecord
280
     1
102
RTVSPropertyOp0
 70
     1
102
RTVSPropertyOp1
 70
     1
102
RTVSPropertyOp2
 70
     1
102
RTVSPropertyOp3
 70
     1
102
RTVSPropertyOp4
 70
     1
102
RTVSPropertyOp5
 70
     1
102
RTVSPropertyOp6
 70
     1
102
RTVSPropertyOp7
 70
     1
102
RTVSPropertyOp8
 70
     1
102
RTVSPropertyOp9
 70
     1
102
RTVSPropertyOp10
 70
     1
102
RTVSPropertyOp11
 70
     1
102
RTVSPropertyOp12
 70
     1
102
RTVSPropertyOp13
 70
     1
102
RTVSPropertyOp14
 70
     1
102
RTVSPropertyOp15
 70
     1
102
RTVSPropertyOp16
 70
     1
102
RTVSPropertyOp17
 70
     1
102
RTVSPropertyOp18
 70
     1
102
RTVSPropertyOp19
 70
     1
102
RTVSPropertyOp20
 70
     1
102
RTVSPropertyOp21
 70
     1
102
RTVSPropertyOp22
 70
     1
102
RTVSPropertyOp23
 70
     1
102
RTVSPropertyOp24
 70
     1
102
RTVSPropertyOp25
 70
     1
102
RTVSPropertyOp26
 70
     1
102
RTVSPropertyOp27
 70
     1
102
RTVSPropertyOp28
 70
     1
102
RTVSPropertyOp29
 70
     1
102
RTVSPropertyOp30
 70
     1
102
RTVSPropertyOp31
 70
     1
102
RTVSPropertyOp32
 70
     1
102
RTVSPropertyOp33
 70
     1
102
RTVSPropertyOp34
 70
     1
102
RTVSPropertyOp35
 70
     1
102
RTVSPropertyOp36
 70
     1
102
RTVSPropertyOp37
 70
     1
102
RTVSPropertyOp38
 70
     1
102
RTVSPropertyOp39
 70
     1
102
RTVSPropertyOp40
 70
     1
102
RTVSPropertyOp41
 70
     1
102
RTVSPropertyOp42
 70
     1
102
RTVSPropertyOp43
 70
     1
102
RTVSPropertyOp44
 70
     1
102
RTVSPropertyOp45
 70
     1
102
RTVSPropertyOp46
 70
     1
102
RTVSPropertyOp47
 70
     1
102
RTVSPropertyOp48
 70
     1
102
RTVSPropertyOp49
 70
     1
102
RTVSPropertyOp50
 70
     1
102
RTVSPropertyOp51
 70
     0
102
RTVSPropertyOp52
 70
     0
102
RTVSPropertyOp53
 70
     1
102
RTVSPropertyOp54
 70
     1
102
RTVSPropertyOp55
 70
     1
102
RTVSPropertyOp56
 70
     1
102
RTVSPropertyOp57
 70
     1
102
RTVSPost2010Prop28
280
     0
102
RTVSPost2010PropOp28
 70
     1
102
RTVSPost2010Prop29
280
     1
102
RTVSPost2010PropOp29
 70
     1
102
RTVSPost2010Prop30
280
     1
102
RTVSPost2010PropOp30
 70
     1
102
RTVSPost2010Prop31
280
     0
102
RTVSPost2010PropOp31
 70
     1
102
RTVSPost2010Prop32
280
     0
102
RTVSPost2010PropOp32
 70
     1
102
RTVSPost2010Prop33
280
     0
102
RTVSPost2010PropOp33
 70
     1
102
RTVSPost2010Prop34
280
     0
102
RTVSPost2010PropOp34
 70
     1
102
RTVSPost2010Prop35
280
     0
102
RTVSPost2010PropOp35
 70
     1
102
RTVSPost2010Prop36
280
     0
102
RTVSPost2010PropOp36
 70
     1
102
RTVSPost2010Prop37
 90
       50
102
RTVSPost2010PropOp37
 70
     1
102
RTVSPost2010Prop38
140
0.0
102
RTVSPost2010PropOp38
 70
     1
102
RTVSPost2010Prop39
140
1.0
102
RTVSPost2010PropOp39
 70
     1
102
RTVSPost2010Prop40
 90
        0
102
RTVSPost2010PropOp40
 70
     1
102
RTVSPost2010Prop41ColorIndex
 90
       18
102
RTVSPost2010Prop41ColorRGB
 90
        0
102
RTVSPost2010PropOp41
 70
     1
102
RTVSPost2010Prop42
 90
       50
102
RTVSPost2010PropOp42
 70
     1
102
RTVSPost2010Prop43
 90
        3
102
RTVSPost2010PropOp43
 70
     1
102
RTVSPost2010Prop44ColorIndex
 90
        5
102
RTVSPost2010Prop44ColorRGB
 90
      255
102
RTVSPost2010PropOp44
 70
     1
102
RTVSPost2010Prop45
280
     0
102
RTVSPost2010PropOp45
 70
     1
102
RTVSPost2010Prop46
 90
       50
102
RTVSPost2010PropOp46
 70
     1
102
RTVSPost2010Prop47
 90
       50
102
RTVSPost2010PropOp47
 70
     1
102
RTVSPost2010Prop48
 90
       50
102
RTVSPost2010PropOp48
 70
     1
102
RTVSPost2010Prop49
280
     0
102
RTVSPost2010PropOp49
 70
     1
102
RTVSPost2010Prop50
 90
       50
102
RTVSPost2010PropOp50
 70
     1
102
RTVSPost2010Prop51ColorIndex
 90
      256
102
RTVSPost2010Prop51ColorRGB
 90
-16777216
102
RTVSPost2010PropOp51
 70
     0
102
RTVSPost2010Prop52
140
1.0
102
RTVSPost2010PropOp52
 70
     0
102
RTVSPost2010Prop53
 90
        2
102
RTVSPost2010PropOp53
 70
     1
102
RTVSPost2010Prop54
  1
strokes_ogs.tif
102
RTVSPost2010PropOp54
 70
     1
102
RTVSPost2010Prop55
280
     0
102
RTVSPost2010PropOp55
 70
     1
102
RTVSPost2010Prop56
140
1.0
102
RTVSPost2010PropOp56
 70
     1
102
RTVSPost2010Prop57
140
1.0
102
RTVSPost2010PropOp57
 70
     1
  0
XRECORD
  5
ED
102
{ACAD_REACTORS
330
EC
102
}
330
EC
100
AcDbXrecord
280
     1
102
RTVSPropertyOp0
 70
     1
102
RTVSPropertyOp1
 70
     1
102
RTVSPropertyOp2
 70
     1
102
RTVSPropertyOp3
 70
     1
102
RTVSPropertyOp4
 70
     1
102
RTVSPropertyOp5
 70
     1
102
RTVSPropertyOp6
 70
     1
102
RTVSPropertyOp7
 70
     1
102
RTVSPropertyOp8
 70
     1
102
RTVSPropertyOp9
 70
     1
102
RTVSPropertyOp10
 70
     1
102
RTVSPropertyOp11
 70
     1
102
RTVSPropertyOp12
 70
     1
102
RTVSPropertyOp13
 70
     1
102
RTVSPropertyOp14
 70
     1
102
RTVSPropertyOp15
 70
     1
102
RTVSPropertyOp16
 70
     1
102
RTVSPropertyOp17
 70
     1
102
RTVSPropertyOp18
 70
     1
102
RTVSPropertyOp19
 70
     1
102
RTVSPropertyOp20
 70
     1
102
RTVSPropertyOp21
 70
     1
102
RTVSPropertyOp22
 70
     1
102
RTVSPropertyOp23
 70
     1
102
RTVSPropertyOp24
 70
     1
102
RTVSPropertyOp25
 70
     1
102
RTVSPropertyOp26
 70
     1
102
RTVSPropertyOp27
 70
     1
102
RTVSPropertyOp28
 70
     1
102
RTVSPropertyOp29
 70
     1
102
RTVSPropertyOp30
 70
     1
102
RTVSPropertyOp31
 70
     1
102
RTVSPropertyOp32
 70
     1
102
RTVSPropertyOp33
 70
     1
102
RTVSPropertyOp34
 70
     1
102
RTVSPropertyOp35
 70
     1
102
RTVSPropertyOp36
 70
     1
102
RTVSPropertyOp37
 70
     1
102
RTVSPropertyOp38
 70
     1
102
RTVSPropertyOp39
 70
     1
102
RTVSPropertyOp40
 70
     1
102
RTVSPropertyOp41
 70
     1
102
RTVSPropertyOp42
 70
     1
102
RTVSPropertyOp43
 70
     1
102
RTVSPropertyOp44
 70
     1
102
RTVSPropertyOp45
 70
     1
102
RTVSPropertyOp46
 70
     1
102
RTVSPropertyOp47
 70
     1
102
RTVSPropertyOp48
 70
     1
102
RTVSPropertyOp49
 70
     1
102
RTVSPropertyOp50
 70
     1
102
RTVSPropertyOp51
 70
     0
102
RTVSPropertyOp52
 70
     0
102
RTVSPropertyOp53
 70
     1
102
RTVSPropertyOp54
 70
     1
102
RTVSPropertyOp55
 70
     1
102
RTVSPropertyOp56
 70
     1
102
RTVSPropertyOp57
 70
     1
102
RTVSPost2010Prop28
280
     0
102
RTVSPost2010PropOp28
 70
     1
102
RTVSPost2010Prop29
280
     1
102
RTVSPost2010PropOp29
 70
     1
102
RTVSPost2010Prop30
280
     1
102
RTVSPost2010PropOp30
 70
     1
102
RTVSPost2010Prop31
280
     0
102
RTVSPost2010PropOp31
 70
     1
102
RTVSPost2010Prop32
280
     0
102
RTVSPost2010PropOp32
 70
     1
102
RTVSPost2010Prop33
280
     0
102
RTVSPost2010PropOp33
 70
     1
102
RTVSPost2010Prop34
280
     0
102
RTVSPost2010PropOp34
 70
     1
102
RTVSPost2010Prop35
280
     0
102
RTVSPost2010PropOp35
 70
     1
102
RTVSPost2010Prop36
280
     0
102
RTVSPost2010PropOp36
 70
     1
102
RTVSPost2010Prop37
 90
       50
102
RTVSPost2010PropOp37
 70
     1
102
RTVSPost2010Prop38
140
0.0
102
RTVSPost2010PropOp38
 70
     1
102
RTVSPost2010Prop39
140
1.0
102
RTVSPost2010PropOp39
 70
     1
102
RTVSPost2010Prop40
 90
        0
102
RTVSPost2010PropOp40
 70
     1
102
RTVSPost2010Prop41ColorIndex
 90
       18
102
RTVSPost2010Prop41ColorRGB
 90
        0
102
RTVSPost2010PropOp41
 70
     1
102
RTVSPost2010Prop42
 90
       50
102
RTVSPost2010PropOp42
 70
     1
102
RTVSPost2010Prop43
 90
        3
102
RTVSPost2010PropOp43
 70
     1
102
RTVSPost2010Prop44ColorIndex
 90
        5
102
RTVSPost2010Prop44ColorRGB
 90
      255
102
RTVSPost2010PropOp44
 70
     1
102
RTVSPost2010Prop45
280
     0
102
RTVSPost2010PropOp45
 70
     1
102
RTVSPost2010Prop46
 90
       50
102
RTVSPost2010PropOp46
 70
     1
102
RTVSPost2010Prop47
 90
       50
102
RTVSPost2010PropOp47
 70
     1
102
RTVSPost2010Prop48
 90
       50
102
RTVSPost2010PropOp48
 70
     1
102
RTVSPost2010Prop49
280
     0
102
RTVSPost2010PropOp49
 70
     1
102
RTVSPost2010Prop50
 90
       50
102
RTVSPost2010PropOp50
 70
     1
102
RTVSPost2010Prop51ColorIndex
 90
      256
102
RTVSPost2010Prop51ColorRGB
 90
-16777216
102
RTVSPost2010PropOp51
 70
     0
102
RTVSPost2010Prop52
140
1.0
102
RTVSPost2010PropOp52
 70
     0
102
RTVSPost2010Prop53
 90
        2
102
RTVSPost2010PropOp53
 70
     1
102
RTVSPost2010Prop54
  1
strokes_ogs.tif
102
RTVSPost2010PropOp54
 70
     1
102
RTVSPost2010Prop55
280
     0
102
RTVSPost2010PropOp55
 70
     1
102
RTVSPost2010Prop56
140
1.0
102
RTVSPost2010PropOp56
 70
     1
102
RTVSPost2010Prop57
140
1.0
102
RTVSPost2010PropOp57
 70
     1
  0
XRECORD
  5
101
102
{ACAD_REACTORS
330
100
102
}
330
100
100
AcDbXrecord
280
     1
102
RTVSPropertyOp0
 70
     0
102
RTVSPropertyOp1
 70
     0
102
RTVSPropertyOp2
 70
     0
102
RTVSPropertyOp3
 70
     0
102
RTVSPropertyOp4
 70
     0
102
RTVSPropertyOp5
 70
     0
102
RTVSPropertyOp6
 70
     0
102
RTVSPropertyOp7
 70
     0
102
RTVSPropertyOp8
 70
     0
102
RTVSPropertyOp9
 70
     0
102
RTVSPropertyOp10
 70
     0
102
RTVSPropertyOp11
 70
     0
102
RTVSPropertyOp12
 70
     0
102
RTVSPropertyOp13
 70
     0
102
RTVSPropertyOp14
 70
     2
102
RTVSPropertyOp15
 70
     0
102
RTVSPropertyOp16
 70
     0
102
RTVSPropertyOp17
 70
     0
102
RTVSPropertyOp18
 70
     0
102
RTVSPropertyOp19
 70
     0
102
RTVSPropertyOp20
 70
     0
102
RTVSPropertyOp21
 70
     0
102
RTVSPropertyOp22
 70
     0
102
RTVSPropertyOp23
 70
     0
102
RTVSPropertyOp24
 70
     0
102
RTVSPropertyOp25
 70
     0
102
RTVSPropertyOp26
 70
     0
102
RTVSPropertyOp27
 70
     0
102
RTVSPropertyOp28
 70
     0
102
RTVSPropertyOp29
 70
     0
102
RTVSPropertyOp30
 70
     0
102
RTVSPropertyOp31
 70
     0
102
RTVSPropertyOp32
 70
     0
102
RTVSPropertyOp33
 70
     0
102
RTVSPropertyOp34
 70
     0
102
RTVSPropertyOp35
 70
     0
102
RTVSPropertyOp36
 70
     0
102
RTVSPropertyOp37
 70
     0
102
RTVSPropertyOp38
 70
     0
102
RTVSPropertyOp39
 70
     0
102
RTVSPropertyOp40
 70
     0
102
RTVSPropertyOp41
 70
     0
102
RTVSPropertyOp42
 70
     0
102
RTVSPropertyOp43
 70
     0
102
RTVSPropertyOp44
 70
     0
102
RTVSPropertyOp45
 70
     0
102
RTVSPropertyOp46
 70
     0
102
RTVSPropertyOp47
 70
     0
102
RTVSPropertyOp48
 70
     0
102
RTVSPropertyOp49
 70
     0
102
RTVSPropertyOp50
 70
     0
102
RTVSPropertyOp51
 70
     0
102
RTVSPropertyOp52
 70
     0
102
RTVSPropertyOp53
 70
     0
102
RTVSPropertyOp54
 70
     0
102
RTVSPropertyOp55
 70
     0
102
RTVSPropertyOp56
 70
     0
102
RTVSPropertyOp57
 70
     0
102
RTVSPost2010Prop28
280
     0
102
RTVSPost2010PropOp28
 70
     0
102
RTVSPost2010Prop29
280
     1
102
RTVSPost2010PropOp29
 70
     0
102
RTVSPost2010Prop30
280
     1
102
RTVSPost2010PropOp30
 70
     0
102
RTVSPost2010Prop31
280
     0
102
RTVSPost2010PropOp31
 70
     0
102
RTVSPost2010Prop32
280
     0
102
RTVSPost2010PropOp32
 70
     0
102
RTVSPost2010Prop33
280
     0
102
RTVSPost2010PropOp33
 70
     0
102
RTVSPost2010Prop34
280
     0
102
RTVSPost2010PropOp34
 70
     0
102
RTVSPost2010Prop35
280
     0
102
RTVSPost2010PropOp35
 70
     0
102
RTVSPost2010Prop36
280
     0
102
RTVSPost2010PropOp36
 70
     0
102
RTVSPost2010Prop37
 90
       50
102
RTVSPost2010PropOp37
 70
     0
102
RTVSPost2010Prop38
140
0.0
102
RTVSPost2010PropOp38
 70
     0
102
RTVSPost2010Prop39
140
1.0
102
RTVSPost2010PropOp39
 70
     0
102
RTVSPost2010Prop40
 90
        0
102
RTVSPost2010PropOp40
 70
     0
102
RTVSPost2010Prop41ColorIndex
 90
       18
102
RTVSPost2010Prop41ColorRGB
 90
        0
102
RTVSPost2010PropOp41
 70
     0
102
RTVSPost2010Prop42
 90
       50
102
RTVSPost2010PropOp42
 70
     0
102
RTVSPost2010Prop43
 90
        3
102
RTVSPost2010PropOp43
 70
     0
102
RTVSPost2010Prop44ColorIndex
 90
        5
102
RTVSPost2010Prop44ColorRGB
 90
      255
102
RTVSPost2010PropOp44
 70
     0
102
RTVSPost2010Prop45
280
     0
102
RTVSPost2010PropOp45
 70
     0
102
RTVSPost2010Prop46
 90
       50
102
RTVSPost2010PropOp46
 70
     0
102
RTVSPost2010Prop47
 90
       50
102
RTVSPost2010PropOp47
 70
     0
102
RTVSPost2010Prop48
 90
       50
102
RTVSPost2010PropOp48
 70
     0
102
RTVSPost2010Prop49
280
     0
102
RTVSPost2010PropOp49
 70
     0
102
RTVSPost2010Prop50
 90
       50
102
RTVSPost2010PropOp50
 70
     0
102
RTVSPost2010Prop51ColorIndex
 90
      256
102
RTVSPost2010Prop51ColorRGB
 90
-16777216
102
RTVSPost2010PropOp51
 70
     0
102
RTVSPost2010Prop52
140
1.0
102
RTVSPost2010PropOp52
 70
     0
102
RTVSPost2010Prop53
 90
        2
102
RTVSPost2010PropOp53
 70
     0
102
RTVSPost2010Prop54
  1
strokes_ogs.tif
102
RTVSPost2010PropOp54
 70
     0
102
RTVSPost2010Prop55
280
     0
102
RTVSPost2010PropOp55
 70
     0
102
RTVSPost2010Prop56
140
1.0
102
RTVSPost2010PropOp56
 70
     0
102
RTVSPost2010Prop57
140
1.0
102
RTVSPost2010PropOp57
 70
     0
  0
XRECORD
  5
FB
102
{ACAD_REACTORS
330
FA
102
}
330
FA
100
AcDbXrecord
280
     1
102
RTVSPropertyOp0
 70
     1
102
RTVSPropertyOp1
 70
     1
102
RTVSPropertyOp2
 70
     1
102
RTVSPropertyOp3
 70
     1
102
RTVSPropertyOp4
 70
     1
102
RTVSPropertyOp5
 70
     1
102
RTVSPropertyOp6
 70
     1
102
RTVSPropertyOp7
 70
     1
102
RTVSPropertyOp8
 70
     1
102
RTVSPropertyOp9
 70
     1
102
RTVSPropertyOp10
 70
     1
102
RTVSPropertyOp11
 70
     1
102
RTVSPropertyOp12
 70
     1
102
RTVSPropertyOp13
 70
     1
102
RTVSPropertyOp14
 70
     1
102
RTVSPropertyOp15
 70
     1
102
RTVSPropertyOp16
 70
     1
102
RTVSPropertyOp17
 70
     1
102
RTVSPropertyOp18
 70
     1
102
RTVSPropertyOp19
 70
     1
102
RTVSPropertyOp20
 70
     1
102
RTVSPropertyOp21
 70
     1
102
RTVSPropertyOp22
 70
     1
102
RTVSPropertyOp23
 70
     1
102
RTVSPropertyOp24
 70
     1
102
RTVSPropertyOp25
 70
     1
102
RTVSPropertyOp26
 70
     1
102
RTVSPropertyOp27
 70
     1
102
RTVSPropertyOp28
 70
     1
102
RTVSPropertyOp29
 70
     1
102
RTVSPropertyOp30
 70
     1
102
RTVSPropertyOp31
 70
     1
102
RTVSPropertyOp32
 70
     1
102
RTVSPropertyOp33
 70
     1
102
RTVSPropertyOp34
 70
     1
102
RTVSPropertyOp35
 70
     1
102
RTVSPropertyOp36
 70
     1
102
RTVSPropertyOp37
 70
     1
102
RTVSPropertyOp38
 70
     1
102
RTVSPropertyOp39
 70
     1
102
RTVSPropertyOp40
 70
     1
102
RTVSPropertyOp41
 70
     1
102
RTVSPropertyOp42
 70
     1
102
RTVSPropertyOp43
 70
     1
102
RTVSPropertyOp44
 70
     1
102
RTVSPropertyOp45
 70
     1
102
RTVSPropertyOp46
 70
     1
102
RTVSPropertyOp47
 70
     1
102
RTVSPropertyOp48
 70
     1
102
RTVSPropertyOp49
 70
     1
102
RTVSPropertyOp50
 70
     1
102
RTVSPropertyOp51
 70
     0
102
RTVSPropertyOp52
 70
     0
102
RTVSPropertyOp53
 70
     1
102
RTVSPropertyOp54
 70
     1
102
RTVSPropertyOp55
 70
     1
102
RTVSPropertyOp56
 70
     1
102
RTVSPropertyOp57
 70
     1
102
RTVSPost2010Prop28
280
     0
102
RTVSPost2010PropOp28
 70
     1
102
RTVSPost2010Prop29
280
     1
102
RTVSPost2010PropOp29
 70
     1
102
RTVSPost2010Prop30
280
     1
102
RTVSPost2010PropOp30
 70
     1
102
RTVSPost2010Prop31
280
     0
102
RTVSPost2010PropOp31
 70
     1
102
RTVSPost2010Prop32
280
     0
102
RTVSPost2010PropOp32
 70
     1
102
RTVSPost2010Prop33
280
     0
102
RTVSPost2010PropOp33
 70
     1
102
RTVSPost2010Prop34
280
     0
102
RTVSPost2010PropOp34
 70
     1
102
RTVSPost2010Prop35
280
     0
102
RTVSPost2010PropOp35
 70
     1
102
RTVSPost2010Prop36
280
     0
102
RTVSPost2010PropOp36
 70
     1
102
RTVSPost2010Prop37
 90
       50
102
RTVSPost2010PropOp37
 70
     1
102
RTVSPost2010Prop38
140
0.0
102
RTVSPost2010PropOp38
 70
     1
102
RTVSPost2010Prop39
140
1.0
102
RTVSPost2010PropOp39
 70
     1
102
RTVSPost2010Prop40
 90
        0
102
RTVSPost2010PropOp40
 70
     1
102
RTVSPost2010Prop41ColorIndex
 90
       18
102
RTVSPost2010Prop41ColorRGB
 90
        0
102
RTVSPost2010PropOp41
 70
     1
102
RTVSPost2010Prop42
 90
       50
102
RTVSPost2010PropOp42
 70
     1
102
RTVSPost2010Prop43
 90
        3
102
RTVSPost2010PropOp43
 70
     1
102
RTVSPost2010Prop44ColorIndex
 90
        5
102
RTVSPost2010Prop44ColorRGB
 90
      255
102
RTVSPost2010PropOp44
 70
     1
102
RTVSPost2010Prop45
280
     0
102
RTVSPost2010PropOp45
 70
     1
102
RTVSPost2010Prop46
 90
       50
102
RTVSPost2010PropOp46
 70
     1
102
RTVSPost2010Prop47
 90
       50
102
RTVSPost2010PropOp47
 70
     1
102
RTVSPost2010Prop48
 90
       50
102
RTVSPost2010PropOp48
 70
     1
102
RTVSPost2010Prop49
280
     0
102
RTVSPost2010PropOp49
 70
     1
102
RTVSPost2010Prop50
 90
       50
102
RTVSPost2010PropOp50
 70
     1
102
RTVSPost2010Prop51ColorIndex
 90
      256
102
RTVSPost2010Prop51ColorRGB
 90
-16777216
102
RTVSPost2010PropOp51
 70
     0
102
RTVSPost2010Prop52
140
1.0
102
RTVSPost2010PropOp52
 70
     0
102
RTVSPost2010Prop53
 90
        2
102
RTVSPost2010PropOp53
 70
     1
102
RTVSPost2010Prop54
  1
strokes_ogs.tif
102
RTVSPost2010PropOp54
 70
     1
102
RTVSPost2010Prop55
280
     0
102
RTVSPost2010PropOp55
 70
     1
102
RTVSPost2010Prop56
140
1.0
102
RTVSPost2010PropOp56
 70
     1
102
RTVSPost2010Prop57
140
1.0
102
RTVSPost2010PropOp57
 70
     1
  0
XRECORD
  5
103
102
{ACAD_REACTORS
330
102
102
}
330
102
100
AcDbXrecord
280
     1
102
RTVSPropertyOp0
 70
     0
102
RTVSPropertyOp1
 70
     0
102
RTVSPropertyOp2
 70
     0
102
RTVSPropertyOp3
 70
     0
102
RTVSPropertyOp4
 70
     0
102
RTVSPropertyOp5
 70
     0
102
RTVSPropertyOp6
 70
     0
102
RTVSPropertyOp7
 70
     0
102
RTVSPropertyOp8
 70
     0
102
RTVSPropertyOp9
 70
     0
102
RTVSPropertyOp10
 70
     0
102
RTVSPropertyOp11
 70
     0
102
RTVSPropertyOp12
 70
     0
102
RTVSPropertyOp13
 70
     0
102
RTVSPropertyOp14
 70
     2
102
RTVSPropertyOp15
 70
     0
102
RTVSPropertyOp16
 70
     0
102
RTVSPropertyOp17
 70
     0
102
RTVSPropertyOp18
 70
     0
102
RTVSPropertyOp19
 70
     0
102
RTVSPropertyOp20
 70
     0
102
RTVSPropertyOp21
 70
     0
102
RTVSPropertyOp22
 70
     0
102
RTVSPropertyOp23
 70
     0
102
RTVSPropertyOp24
 70
     0
102
RTVSPropertyOp25
 70
     0
102
RTVSPropertyOp26
 70
     0
102
RTVSPropertyOp27
 70
     0
102
RTVSPropertyOp28
 70
     0
102
RTVSPropertyOp29
 70
     0
102
RTVSPropertyOp30
 70
     0
102
RTVSPropertyOp31
 70
     0
102
RTVSPropertyOp32
 70
     0
102
RTVSPropertyOp33
 70
     0
102
RTVSPropertyOp34
 70
     0
102
RTVSPropertyOp35
 70
     0
102
RTVSPropertyOp36
 70
     0
102
RTVSPropertyOp37
 70
     0
102
RTVSPropertyOp38
 70
     0
102
RTVSPropertyOp39
 70
     0
102
RTVSPropertyOp40
 70
     0
102
RTVSPropertyOp41
 70
     0
102
RTVSPropertyOp42
 70
     0
102
RTVSPropertyOp43
 70
     0
102
RTVSPropertyOp44
 70
     0
102
RTVSPropertyOp45
 70
     0
102
RTVSPropertyOp46
 70
     0
102
RTVSPropertyOp47
 70
     0
102
RTVSPropertyOp48
 70
     0
102
RTVSPropertyOp49
 70
     0
102
RTVSPropertyOp50
 70
     0
102
RTVSPropertyOp51
 70
     0
102
RTVSPropertyOp52
 70
     0
102
RTVSPropertyOp53
 70
     0
102
RTVSPropertyOp54
 70
     0
102
RTVSPropertyOp55
 70
     0
102
RTVSPropertyOp56
 70
     0
102
RTVSPropertyOp57
 70
     0
102
RTVSPost2010Prop28
280
     0
102
RTVSPost2010PropOp28
 70
     0
102
RTVSPost2010Prop29
280
     1
102
RTVSPost2010PropOp29
 70
     0
102
RTVSPost2010Prop30
280
     1
102
RTVSPost2010PropOp30
 70
     0
102
RTVSPost2010Prop31
280
     0
102
RTVSPost2010PropOp31
 70
     0
102
RTVSPost2010Prop32
280
     0
102
RTVSPost2010PropOp32
 70
     0
102
RTVSPost2010Prop33
280
     0
102
RTVSPost2010PropOp33
 70
     0
102
RTVSPost2010Prop34
280
     0
102
RTVSPost2010PropOp34
 70
     0
102
RTVSPost2010Prop35
280
     0
102
RTVSPost2010PropOp35
 70
     0
102
RTVSPost2010Prop36
280
     0
102
RTVSPost2010PropOp36
 70
     0
102
RTVSPost2010Prop37
 90
       50
102
RTVSPost2010PropOp37
 70
     0
102
RTVSPost2010Prop38
140
0.0
102
RTVSPost2010PropOp38
 70
     0
102
RTVSPost2010Prop39
140
1.0
102
RTVSPost2010PropOp39
 70
     0
102
RTVSPost2010Prop40
 90
        0
102
RTVSPost2010PropOp40
 70
     0
102
RTVSPost2010Prop41ColorIndex
 90
       18
102
RTVSPost2010Prop41ColorRGB
 90
        0
102
RTVSPost2010PropOp41
 70
     0
102
RTVSPost2010Prop42
 90
       50
102
RTVSPost2010PropOp42
 70
     0
102
RTVSPost2010Prop43
 90
        3
102
RTVSPost2010PropOp43
 70
     0
102
RTVSPost2010Prop44ColorIndex
 90
        5
102
RTVSPost2010Prop44ColorRGB
 90
      255
102
RTVSPost2010PropOp44
 70
     0
102
RTVSPost2010Prop45
280
     0
102
RTVSPost2010PropOp45
 70
     0
102
RTVSPost2010Prop46
 90
       50
102
RTVSPost2010PropOp46
 70
     0
102
RTVSPost2010Prop47
 90
       50
102
RTVSPost2010PropOp47
 70
     0
102
RTVSPost2010Prop48
 90
       50
102
RTVSPost2010PropOp48
 70
     0
102
RTVSPost2010Prop49
280
     0
102
RTVSPost2010PropOp49
 70
     0
102
RTVSPost2010Prop50
 90
       50
102
RTVSPost2010PropOp50
 70
     0
102
RTVSPost2010Prop51ColorIndex
 90
      256
102
RTVSPost2010Prop51ColorRGB
 90
-16777216
102
RTVSPost2010PropOp51
 70
     0
102
RTVSPost2010Prop52
140
1.0
102
RTVSPost2010PropOp52
 70
     0
102
RTVSPost2010Prop53
 90
        2
102
RTVSPost2010PropOp53
 70
     0
102
RTVSPost2010Prop54
  1
strokes_ogs.tif
102
RTVSPost2010PropOp54
 70
     0
102
RTVSPost2010Prop55
280
     0
102
RTVSPost2010PropOp55
 70
     0
102
RTVSPost2010Prop56
140
1.0
102
RTVSPost2010PropOp56
 70
     0
102
RTVSPost2010Prop57
140
1.0
102
RTVSPost2010PropOp57
 70
     0
  0
XRECORD
  5
F1
102
{ACAD_REACTORS
330
F0
102
}
330
F0
100
AcDbXrecord
280
     1
102
RTVSPropertyOp0
 70
     1
102
RTVSPropertyOp1
 70
     1
102
RTVSPropertyOp2
 70
     1
102
RTVSPropertyOp3
 70
     1
102
RTVSPropertyOp4
 70
     1
102
RTVSPropertyOp5
 70
     1
102
RTVSPropertyOp6
 70
     1
102
RTVSPropertyOp7
 70
     1
102
RTVSPropertyOp8
 70
     1
102
RTVSPropertyOp9
 70
     1
102
RTVSPropertyOp10
 70
     1
102
RTVSPropertyOp11
 70
     1
102
RTVSPropertyOp12
 70
     1
102
RTVSPropertyOp13
 70
     1
102
RTVSPropertyOp14
 70
     1
102
RTVSPropertyOp15
 70
     1
102
RTVSPropertyOp16
 70
     1
102
RTVSPropertyOp17
 70
     1
102
RTVSPropertyOp18
 70
     1
102
RTVSPropertyOp19
 70
     1
102
RTVSPropertyOp20
 70
     1
102
RTVSPropertyOp21
 70
     1
102
RTVSPropertyOp22
 70
     1
102
RTVSPropertyOp23
 70
     1
102
RTVSPropertyOp24
 70
     1
102
RTVSPropertyOp25
 70
     1
102
RTVSPropertyOp26
 70
     1
102
RTVSPropertyOp27
 70
     1
102
RTVSPropertyOp28
 70
     1
102
RTVSPropertyOp29
 70
     1
102
RTVSPropertyOp30
 70
     1
102
RTVSPropertyOp31
 70
     1
102
RTVSPropertyOp32
 70
     1
102
RTVSPropertyOp33
 70
     1
102
RTVSPropertyOp34
 70
     1
102
RTVSPropertyOp35
 70
     1
102
RTVSPropertyOp36
 70
     1
102
RTVSPropertyOp37
 70
     1
102
RTVSPropertyOp38
 70
     1
102
RTVSPropertyOp39
 70
     1
102
RTVSPropertyOp40
 70
     1
102
RTVSPropertyOp41
 70
     1
102
RTVSPropertyOp42
 70
     1
102
RTVSPropertyOp43
 70
     1
102
RTVSPropertyOp44
 70
     1
102
RTVSPropertyOp45
 70
     1
102
RTVSPropertyOp46
 70
     1
102
RTVSPropertyOp47
 70
     1
102
RTVSPropertyOp48
 70
     1
102
RTVSPropertyOp49
 70
     1
102
RTVSPropertyOp50
 70
     1
102
RTVSPropertyOp51
 70
     0
102
RTVSPropertyOp52
 70
     0
102
RTVSPropertyOp53
 70
     1
102
RTVSPropertyOp54
 70
     1
102
RTVSPropertyOp55
 70
     1
102
RTVSPropertyOp56
 70
     1
102
RTVSPropertyOp57
 70
     1
102
RTVSPost2010Prop28
280
     0
102
RTVSPost2010PropOp28
 70
     1
102
RTVSPost2010Prop29
280
     1
102
RTVSPost2010PropOp29
 70
     1
102
RTVSPost2010Prop30
280
     1
102
RTVSPost2010PropOp30
 70
     1
102
RTVSPost2010Prop31
280
     0
102
RTVSPost2010PropOp31
 70
     1
102
RTVSPost2010Prop32
280
     0
102
RTVSPost2010PropOp32
 70
     1
102
RTVSPost2010Prop33
280
     0
102
RTVSPost2010PropOp33
 70
     1
102
RTVSPost2010Prop34
280
     0
102
RTVSPost2010PropOp34
 70
     1
102
RTVSPost2010Prop35
280
     0
102
RTVSPost2010PropOp35
 70
     1
102
RTVSPost2010Prop36
280
     0
102
RTVSPost2010PropOp36
 70
     1
102
RTVSPost2010Prop37
 90
       50
102
RTVSPost2010PropOp37
 70
     1
102
RTVSPost2010Prop38
140
0.0
102
RTVSPost2010PropOp38
 70
     1
102
RTVSPost2010Prop39
140
1.0
102
RTVSPost2010PropOp39
 70
     1
102
RTVSPost2010Prop40
 90
        0
102
RTVSPost2010PropOp40
 70
     1
102
RTVSPost2010Prop41ColorIndex
 90
       18
102
RTVSPost2010Prop41ColorRGB
 90
        0
102
RTVSPost2010PropOp41
 70
     1
102
RTVSPost2010Prop42
 90
       50
102
RTVSPost2010PropOp42
 70
     1
102
RTVSPost2010Prop43
 90
        3
102
RTVSPost2010PropOp43
 70
     1
102
RTVSPost2010Prop44ColorIndex
 90
        5
102
RTVSPost2010Prop44ColorRGB
 90
      255
102
RTVSPost2010PropOp44
 70
     1
102
RTVSPost2010Prop45
280
     0
102
RTVSPost2010PropOp45
 70
     1
102
RTVSPost2010Prop46
 90
       50
102
RTVSPost2010PropOp46
 70
     1
102
RTVSPost2010Prop47
 90
       50
102
RTVSPost2010PropOp47
 70
     1
102
RTVSPost2010Prop48
 90
       50
102
RTVSPost2010PropOp48
 70
     1
102
RTVSPost2010Prop49
280
     0
102
RTVSPost2010PropOp49
 70
     1
102
RTVSPost2010Prop50
 90
       50
102
RTVSPost2010PropOp50
 70
     1
102
RTVSPost2010Prop51ColorIndex
 90
      256
102
RTVSPost2010Prop51ColorRGB
 90
-16777216
102
RTVSPost2010PropOp51
 70
     0
102
RTVSPost2010Prop52
140
1.0
102
RTVSPost2010PropOp52
 70
     0
102
RTVSPost2010Prop53
 90
        2
102
RTVSPost2010PropOp53
 70
     1
102
RTVSPost2010Prop54
  1
strokes_ogs.tif
102
RTVSPost2010PropOp54
 70
     1
102
RTVSPost2010Prop55
280
     0
102
RTVSPost2010PropOp55
 70
     1
102
RTVSPost2010Prop56
140
1.0
102
RTVSPost2010PropOp56
 70
     1
102
RTVSPost2010Prop57
140
1.0
102
RTVSPost2010PropOp57
 70
     1
  0
XRECORD
  5
10F
102
{ACAD_REACTORS
330
10E
102
}
330
10E
100
AcDbXrecord
280
     1
102
RTVSPropertyOp0
 70
     1
102
RTVSPropertyOp1
 70
     1
102
RTVSPropertyOp2
 70
     1
102
RTVSPropertyOp3
 70
     1
102
RTVSPropertyOp4
 70
     1
102
RTVSPropertyOp5
 70
     1
102
RTVSPropertyOp6
 70
     1
102
RTVSPropertyOp7
 70
     1
102
RTVSPropertyOp8
 70
     1
102
RTVSPropertyOp9
 70
     1
102
RTVSPropertyOp10
 70
     1
102
RTVSPropertyOp11
 70
     1
102
RTVSPropertyOp12
 70
     1
102
RTVSPropertyOp13
 70
     1
102
RTVSPropertyOp14
 70
     1
102
RTVSPropertyOp15
 70
     1
102
RTVSPropertyOp16
 70
     1
102
RTVSPropertyOp17
 70
     1
102
RTVSPropertyOp18
 70
     1
102
RTVSPropertyOp19
 70
     1
102
RTVSPropertyOp20
 70
     1
102
RTVSPropertyOp21
 70
     1
102
RTVSPropertyOp22
 70
     1
102
RTVSPropertyOp23
 70
     1
102
RTVSPropertyOp24
 70
     1
102
RTVSPropertyOp25
 70
     1
102
RTVSPropertyOp26
 70
     1
102
RTVSPropertyOp27
 70
     1
102
RTVSPropertyOp28
 70
     1
102
RTVSPropertyOp29
 70
     1
102
RTVSPropertyOp30
 70
     1
102
RTVSPropertyOp31
 70
     1
102
RTVSPropertyOp32
 70
     1
102
RTVSPropertyOp33
 70
     1
102
RTVSPropertyOp34
 70
     1
102
RTVSPropertyOp35
 70
     1
102
RTVSPropertyOp36
 70
     1
102
RTVSPropertyOp37
 70
     1
102
RTVSPropertyOp38
 70
     1
102
RTVSPropertyOp39
 70
     1
102
RTVSPropertyOp40
 70
     1
102
RTVSPropertyOp41
 70
     1
102
RTVSPropertyOp42
 70
     1
102
RTVSPropertyOp43
 70
     1
102
RTVSPropertyOp44
 70
     1
102
RTVSPropertyOp45
 70
     1
102
RTVSPropertyOp46
 70
     1
102
RTVSPropertyOp47
 70
     1
102
RTVSPropertyOp48
 70
     1
102
RTVSPropertyOp49
 70
     1
102
RTVSPropertyOp50
 70
     1
102
RTVSPropertyOp51
 70
     0
102
RTVSPropertyOp52
 70
     0
102
RTVSPropertyOp53
 70
     1
102
RTVSPropertyOp54
 70
     1
102
RTVSPropertyOp55
 70
     1
102
RTVSPropertyOp56
 70
     1
102
RTVSPropertyOp57
 70
     1
102
RTVSPost2010Prop28
280
     0
102
RTVSPost2010PropOp28
 70
     1
102
RTVSPost2010Prop29
280
     1
102
RTVSPost2010PropOp29
 70
     1
102
RTVSPost2010Prop30
280
     1
102
RTVSPost2010PropOp30
 70
     1
102
RTVSPost2010Prop31
280
     0
102
RTVSPost2010PropOp31
 70
     1
102
RTVSPost2010Prop32
280
     0
102
RTVSPost2010PropOp32
 70
     1
102
RTVSPost2010Prop33
280
     0
102
RTVSPost2010PropOp33
 70
     1
102
RTVSPost2010Prop34
280
     0
102
RTVSPost2010PropOp34
 70
     1
102
RTVSPost2010Prop35
280
     0
102
RTVSPost2010PropOp35
 70
     1
102
RTVSPost2010Prop36
280
     0
102
RTVSPost2010PropOp36
 70
     1
102
RTVSPost2010Prop37
 90
       50
102
RTVSPost2010PropOp37
 70
     1
102
RTVSPost2010Prop38
140
0.0
102
RTVSPost2010PropOp38
 70
     1
102
RTVSPost2010Prop39
140
1.0
102
RTVSPost2010PropOp39
 70
     1
102
RTVSPost2010Prop40
 90
        0
102
RTVSPost2010PropOp40
 70
     1
102
RTVSPost2010Prop41ColorIndex
 90
       18
102
RTVSPost2010Prop41ColorRGB
 90
        0
102
RTVSPost2010PropOp41
 70
     1
102
RTVSPost2010Prop42
 90
       50
102
RTVSPost2010PropOp42
 70
     1
102
RTVSPost2010Prop43
 90
        3
102
RTVSPost2010PropOp43
 70
     1
102
RTVSPost2010Prop44ColorIndex
 90
        5
102
RTVSPost2010Prop44ColorRGB
 90
      255
102
RTVSPost2010PropOp44
 70
     1
102
RTVSPost2010Prop45
280
     0
102
RTVSPost2010PropOp45
 70
     1
102
RTVSPost2010Prop46
 90
       50
102
RTVSPost2010PropOp46
 70
     1
102
RTVSPost2010Prop47
 90
       50
102
RTVSPost2010PropOp47
 70
     1
102
RTVSPost2010Prop48
 90
       50
102
RTVSPost2010PropOp48
 70
     1
102
RTVSPost2010Prop49
280
     0
102
RTVSPost2010PropOp49
 70
     1
102
RTVSPost2010Prop50
 90
       50
102
RTVSPost2010PropOp50
 70
     1
102
RTVSPost2010Prop51ColorIndex
 90
      256
102
RTVSPost2010Prop51ColorRGB
 90
-16777216
102
RTVSPost2010PropOp51
 70
     0
102
RTVSPost2010Prop52
140
1.0
102
RTVSPost2010PropOp52
 70
     0
102
RTVSPost2010Prop53
 90
        2
102
RTVSPost2010PropOp53
 70
     1
102
RTVSPost2010Prop54
  1
strokes_ogs.tif
102
RTVSPost2010PropOp54
 70
     1
102
RTVSPost2010Prop55
280
     0
102
RTVSPost2010PropOp55
 70
     1
102
RTVSPost2010Prop56
140
1.0
102
RTVSPost2010PropOp56
 70
     1
102
RTVSPost2010Prop57
140
1.0
102
RTVSPost2010PropOp57
 70
     1
  0
XRECORD
  5
10D
102
{ACAD_REACTORS
330
10C
102
}
330
10C
100
AcDbXrecord
280
     1
102
RTVSPropertyOp0
 70
     1
102
RTVSPropertyOp1
 70
     1
102
RTVSPropertyOp2
 70
     1
102
RTVSPropertyOp3
 70
     1
102
RTVSPropertyOp4
 70
     1
102
RTVSPropertyOp5
 70
     1
102
RTVSPropertyOp6
 70
     1
102
RTVSPropertyOp7
 70
     1
102
RTVSPropertyOp8
 70
     1
102
RTVSPropertyOp9
 70
     1
102
RTVSPropertyOp10
 70
     1
102
RTVSPropertyOp11
 70
     1
102
RTVSPropertyOp12
 70
     1
102
RTVSPropertyOp13
 70
     1
102
RTVSPropertyOp14
 70
     1
102
RTVSPropertyOp15
 70
     1
102
RTVSPropertyOp16
 70
     1
102
RTVSPropertyOp17
 70
     1
102
RTVSPropertyOp18
 70
     1
102
RTVSPropertyOp19
 70
     1
102
RTVSPropertyOp20
 70
     1
102
RTVSPropertyOp21
 70
     1
102
RTVSPropertyOp22
 70
     1
102
RTVSPropertyOp23
 70
     1
102
RTVSPropertyOp24
 70
     1
102
RTVSPropertyOp25
 70
     1
102
RTVSPropertyOp26
 70
     1
102
RTVSPropertyOp27
 70
     1
102
RTVSPropertyOp28
 70
     1
102
RTVSPropertyOp29
 70
     1
102
RTVSPropertyOp30
 70
     1
102
RTVSPropertyOp31
 70
     1
102
RTVSPropertyOp32
 70
     1
102
RTVSPropertyOp33
 70
     1
102
RTVSPropertyOp34
 70
     1
102
RTVSPropertyOp35
 70
     1
102
RTVSPropertyOp36
 70
     1
102
RTVSPropertyOp37
 70
     1
102
RTVSPropertyOp38
 70
     1
102
RTVSPropertyOp39
 70
     1
102
RTVSPropertyOp40
 70
     1
102
RTVSPropertyOp41
 70
     1
102
RTVSPropertyOp42
 70
     1
102
RTVSPropertyOp43
 70
     1
102
RTVSPropertyOp44
 70
     1
102
RTVSPropertyOp45
 70
     1
102
RTVSPropertyOp46
 70
     1
102
RTVSPropertyOp47
 70
     1
102
RTVSPropertyOp48
 70
     1
102
RTVSPropertyOp49
 70
     1
102
RTVSPropertyOp50
 70
     1
102
RTVSPropertyOp51
 70
     0
102
RTVSPropertyOp52
 70
     0
102
RTVSPropertyOp53
 70
     1
102
RTVSPropertyOp54
 70
     1
102
RTVSPropertyOp55
 70
     1
102
RTVSPropertyOp56
 70
     1
102
RTVSPropertyOp57
 70
     1
102
RTVSPost2010Prop28
280
     0
102
RTVSPost2010PropOp28
 70
     1
102
RTVSPost2010Prop29
280
     1
102
RTVSPost2010PropOp29
 70
     1
102
RTVSPost2010Prop30
280
     1
102
RTVSPost2010PropOp30
 70
     1
102
RTVSPost2010Prop31
280
     0
102
RTVSPost2010PropOp31
 70
     1
102
RTVSPost2010Prop32
280
     0
102
RTVSPost2010PropOp32
 70
     1
102
RTVSPost2010Prop33
280
     0
102
RTVSPost2010PropOp33
 70
     1
102
RTVSPost2010Prop34
280
     0
102
RTVSPost2010PropOp34
 70
     1
102
RTVSPost2010Prop35
280
     0
102
RTVSPost2010PropOp35
 70
     1
102
RTVSPost2010Prop36
280
     0
102
RTVSPost2010PropOp36
 70
     1
102
RTVSPost2010Prop37
 90
       50
102
RTVSPost2010PropOp37
 70
     1
102
RTVSPost2010Prop38
140
0.0
102
RTVSPost2010PropOp38
 70
     1
102
RTVSPost2010Prop39
140
1.0
102
RTVSPost2010PropOp39
 70
     1
102
RTVSPost2010Prop40
 90
        0
102
RTVSPost2010PropOp40
 70
     1
102
RTVSPost2010Prop41ColorIndex
 90
       18
102
RTVSPost2010Prop41ColorRGB
 90
        0
102
RTVSPost2010PropOp41
 70
     1
102
RTVSPost2010Prop42
 90
       50
102
RTVSPost2010PropOp42
 70
     1
102
RTVSPost2010Prop43
 90
        3
102
RTVSPost2010PropOp43
 70
     1
102
RTVSPost2010Prop44ColorIndex
 90
        5
102
RTVSPost2010Prop44ColorRGB
 90
      255
102
RTVSPost2010PropOp44
 70
     1
102
RTVSPost2010Prop45
280
     0
102
RTVSPost2010PropOp45
 70
     1
102
RTVSPost2010Prop46
 90
       50
102
RTVSPost2010PropOp46
 70
     1
102
RTVSPost2010Prop47
 90
       50
102
RTVSPost2010PropOp47
 70
     1
102
RTVSPost2010Prop48
 90
       50
102
RTVSPost2010PropOp48
 70
     1
102
RTVSPost2010Prop49
280
     0
102
RTVSPost2010PropOp49
 70
     1
102
RTVSPost2010Prop50
 90
       50
102
RTVSPost2010PropOp50
 70
     1
102
RTVSPost2010Prop51ColorIndex
 90
      256
102
RTVSPost2010Prop51ColorRGB
 90
-16777216
102
RTVSPost2010PropOp51
 70
     0
102
RTVSPost2010Prop52
140
1.0
102
RTVSPost2010PropOp52
 70
     0
102
RTVSPost2010Prop53
 90
        2
102
RTVSPost2010PropOp53
 70
     1
102
RTVSPost2010Prop54
  1
strokes_ogs.tif
102
RTVSPost2010PropOp54
 70
     1
102
RTVSPost2010Prop55
280
     0
102
RTVSPost2010PropOp55
 70
     1
102
RTVSPost2010Prop56
140
1.0
102
RTVSPost2010PropOp56
 70
     1
102
RTVSPost2010Prop57
140
1.0
102
RTVSPost2010PropOp57
 70
     1
  0
XRECORD
  5
107
102
{ACAD_REACTORS
330
106
102
}
330
106
100
AcDbXrecord
280
     1
102
RTVSPropertyOp0
 70
     1
102
RTVSPropertyOp1
 70
     1
102
RTVSPropertyOp2
 70
     1
102
RTVSPropertyOp3
 70
     1
102
RTVSPropertyOp4
 70
     1
102
RTVSPropertyOp5
 70
     1
102
RTVSPropertyOp6
 70
     1
102
RTVSPropertyOp7
 70
     1
102
RTVSPropertyOp8
 70
     1
102
RTVSPropertyOp9
 70
     1
102
RTVSPropertyOp10
 70
     1
102
RTVSPropertyOp11
 70
     1
102
RTVSPropertyOp12
 70
     1
102
RTVSPropertyOp13
 70
     1
102
RTVSPropertyOp14
 70
     1
102
RTVSPropertyOp15
 70
     1
102
RTVSPropertyOp16
 70
     1
102
RTVSPropertyOp17
 70
     1
102
RTVSPropertyOp18
 70
     1
102
RTVSPropertyOp19
 70
     1
102
RTVSPropertyOp20
 70
     1
102
RTVSPropertyOp21
 70
     1
102
RTVSPropertyOp22
 70
     1
102
RTVSPropertyOp23
 70
     1
102
RTVSPropertyOp24
 70
     1
102
RTVSPropertyOp25
 70
     1
102
RTVSPropertyOp26
 70
     1
102
RTVSPropertyOp27
 70
     1
102
RTVSPropertyOp28
 70
     1
102
RTVSPropertyOp29
 70
     1
102
RTVSPropertyOp30
 70
     1
102
RTVSPropertyOp31
 70
     1
102
RTVSPropertyOp32
 70
     1
102
RTVSPropertyOp33
 70
     1
102
RTVSPropertyOp34
 70
     1
102
RTVSPropertyOp35
 70
     1
102
RTVSPropertyOp36
 70
     1
102
RTVSPropertyOp37
 70
     1
102
RTVSPropertyOp38
 70
     1
102
RTVSPropertyOp39
 70
     1
102
RTVSPropertyOp40
 70
     1
102
RTVSPropertyOp41
 70
     1
102
RTVSPropertyOp42
 70
     1
102
RTVSPropertyOp43
 70
     1
102
RTVSPropertyOp44
 70
     1
102
RTVSPropertyOp45
 70
     1
102
RTVSPropertyOp46
 70
     1
102
RTVSPropertyOp47
 70
     1
102
RTVSPropertyOp48
 70
     1
102
RTVSPropertyOp49
 70
     1
102
RTVSPropertyOp50
 70
     1
102
RTVSPropertyOp51
 70
     0
102
RTVSPropertyOp52
 70
     0
102
RTVSPropertyOp53
 70
     1
102
RTVSPropertyOp54
 70
     1
102
RTVSPropertyOp55
 70
     1
102
RTVSPropertyOp56
 70
     1
102
RTVSPropertyOp57
 70
     1
102
RTVSPost2010Prop28
280
     0
102
RTVSPost2010PropOp28
 70
     1
102
RTVSPost2010Prop29
280
     1
102
RTVSPost2010PropOp29
 70
     1
102
RTVSPost2010Prop30
280
     1
102
RTVSPost2010PropOp30
 70
     1
102
RTVSPost2010Prop31
280
     0
102
RTVSPost2010PropOp31
 70
     1
102
RTVSPost2010Prop32
280
     0
102
RTVSPost2010PropOp32
 70
     1
102
RTVSPost2010Prop33
280
     0
102
RTVSPost2010PropOp33
 70
     1
102
RTVSPost2010Prop34
280
     0
102
RTVSPost2010PropOp34
 70
     1
102
RTVSPost2010Prop35
280
     0
102
RTVSPost2010PropOp35
 70
     1
102
RTVSPost2010Prop36
280
     0
102
RTVSPost2010PropOp36
 70
     1
102
RTVSPost2010Prop37
 90
       50
102
RTVSPost2010PropOp37
 70
     1
102
RTVSPost2010Prop38
140
0.0
102
RTVSPost2010PropOp38
 70
     1
102
RTVSPost2010Prop39
140
1.0
102
RTVSPost2010PropOp39
 70
     1
102
RTVSPost2010Prop40
 90
        0
102
RTVSPost2010PropOp40
 70
     1
102
RTVSPost2010Prop41ColorIndex
 90
       18
102
RTVSPost2010Prop41ColorRGB
 90
        0
102
RTVSPost2010PropOp41
 70
     1
102
RTVSPost2010Prop42
 90
       50
102
RTVSPost2010PropOp42
 70
     1
102
RTVSPost2010Prop43
 90
        3
102
RTVSPost2010PropOp43
 70
     1
102
RTVSPost2010Prop44ColorIndex
 90
        5
102
RTVSPost2010Prop44ColorRGB
 90
      255
102
RTVSPost2010PropOp44
 70
     1
102
RTVSPost2010Prop45
280
     0
102
RTVSPost2010PropOp45
 70
     1
102
RTVSPost2010Prop46
 90
       50
102
RTVSPost2010PropOp46
 70
     1
102
RTVSPost2010Prop47
 90
       50
102
RTVSPost2010PropOp47
 70
     1
102
RTVSPost2010Prop48
 90
       50
102
RTVSPost2010PropOp48
 70
     1
102
RTVSPost2010Prop49
280
     0
102
RTVSPost2010PropOp49
 70
     1
102
RTVSPost2010Prop50
 90
       50
102
RTVSPost2010PropOp50
 70
     1
102
RTVSPost2010Prop51ColorIndex
 90
      256
102
RTVSPost2010Prop51ColorRGB
 90
-16777216
102
RTVSPost2010PropOp51
 70
     0
102
RTVSPost2010Prop52
140
1.0
102
RTVSPost2010PropOp52
 70
     0
102
RTVSPost2010Prop53
 90
        2
102
RTVSPost2010PropOp53
 70
     1
102
RTVSPost2010Prop54
  1
strokes_ogs.tif
102
RTVSPost2010PropOp54
 70
     1
102
RTVSPost2010Prop55
280
     0
102
RTVSPost2010PropOp55
 70
     1
102
RTVSPost2010Prop56
140
1.0
102
RTVSPost2010PropOp56
 70
     1
102
RTVSPost2010Prop57
140
1.0
102
RTVSPost2010PropOp57
 70
     1
  0
XRECORD
  5
109
102
{ACAD_REACTORS
330
108
102
}
330
108
100
AcDbXrecord
280
     1
102
RTVSPropertyOp0
 70
     1
102
RTVSPropertyOp1
 70
     1
102
RTVSPropertyOp2
 70
     1
102
RTVSPropertyOp3
 70
     1
102
RTVSPropertyOp4
 70
     1
102
RTVSPropertyOp5
 70
     1
102
RTVSPropertyOp6
 70
     1
102
RTVSPropertyOp7
 70
     1
102
RTVSPropertyOp8
 70
     1
102
RTVSPropertyOp9
 70
     1
102
RTVSPropertyOp10
 70
     1
102
RTVSPropertyOp11
 70
     1
102
RTVSPropertyOp12
 70
     1
102
RTVSPropertyOp13
 70
     1
102
RTVSPropertyOp14
 70
     1
102
RTVSPropertyOp15
 70
     1
102
RTVSPropertyOp16
 70
     1
102
RTVSPropertyOp17
 70
     1
102
RTVSPropertyOp18
 70
     1
102
RTVSPropertyOp19
 70
     1
102
RTVSPropertyOp20
 70
     1
102
RTVSPropertyOp21
 70
     1
102
RTVSPropertyOp22
 70
     1
102
RTVSPropertyOp23
 70
     1
102
RTVSPropertyOp24
 70
     1
102
RTVSPropertyOp25
 70
     1
102
RTVSPropertyOp26
 70
     1
102
RTVSPropertyOp27
 70
     1
102
RTVSPropertyOp28
 70
     1
102
RTVSPropertyOp29
 70
     1
102
RTVSPropertyOp30
 70
     1
102
RTVSPropertyOp31
 70
     1
102
RTVSPropertyOp32
 70
     1
102
RTVSPropertyOp33
 70
     1
102
RTVSPropertyOp34
 70
     1
102
RTVSPropertyOp35
 70
     1
102
RTVSPropertyOp36
 70
     1
102
RTVSPropertyOp37
 70
     1
102
RTVSPropertyOp38
 70
     1
102
RTVSPropertyOp39
 70
     1
102
RTVSPropertyOp40
 70
     1
102
RTVSPropertyOp41
 70
     1
102
RTVSPropertyOp42
 70
     1
102
RTVSPropertyOp43
 70
     1
102
RTVSPropertyOp44
 70
     1
102
RTVSPropertyOp45
 70
     1
102
RTVSPropertyOp46
 70
     1
102
RTVSPropertyOp47
 70
     1
102
RTVSPropertyOp48
 70
     1
102
RTVSPropertyOp49
 70
     1
102
RTVSPropertyOp50
 70
     1
102
RTVSPropertyOp51
 70
     0
102
RTVSPropertyOp52
 70
     0
102
RTVSPropertyOp53
 70
     1
102
RTVSPropertyOp54
 70
     1
102
RTVSPropertyOp55
 70
     1
102
RTVSPropertyOp56
 70
     1
102
RTVSPropertyOp57
 70
     1
102
RTVSPost2010Prop28
280
     0
102
RTVSPost2010PropOp28
 70
     1
102
RTVSPost2010Prop29
280
     1
102
RTVSPost2010PropOp29
 70
     1
102
RTVSPost2010Prop30
280
     1
102
RTVSPost2010PropOp30
 70
     1
102
RTVSPost2010Prop31
280
     0
102
RTVSPost2010PropOp31
 70
     1
102
RTVSPost2010Prop32
280
     0
102
RTVSPost2010PropOp32
 70
     1
102
RTVSPost2010Prop33
280
     0
102
RTVSPost2010PropOp33
 70
     1
102
RTVSPost2010Prop34
280
     0
102
RTVSPost2010PropOp34
 70
     1
102
RTVSPost2010Prop35
280
     0
102
RTVSPost2010PropOp35
 70
     1
102
RTVSPost2010Prop36
280
     0
102
RTVSPost2010PropOp36
 70
     1
102
RTVSPost2010Prop37
 90
       50
102
RTVSPost2010PropOp37
 70
     1
102
RTVSPost2010Prop38
140
0.0
102
RTVSPost2010PropOp38
 70
     1
102
RTVSPost2010Prop39
140
1.0
102
RTVSPost2010PropOp39
 70
     1
102
RTVSPost2010Prop40
 90
        0
102
RTVSPost2010PropOp40
 70
     1
102
RTVSPost2010Prop41ColorIndex
 90
       18
102
RTVSPost2010Prop41ColorRGB
 90
        0
102
RTVSPost2010PropOp41
 70
     1
102
RTVSPost2010Prop42
 90
       50
102
RTVSPost2010PropOp42
 70
     1
102
RTVSPost2010Prop43
 90
        3
102
RTVSPost2010PropOp43
 70
     1
102
RTVSPost2010Prop44ColorIndex
 90
        5
102
RTVSPost2010Prop44ColorRGB
 90
      255
102
RTVSPost2010PropOp44
 70
     1
102
RTVSPost2010Prop45
280
     0
102
RTVSPost2010PropOp45
 70
     1
102
RTVSPost2010Prop46
 90
       50
102
RTVSPost2010PropOp46
 70
     1
102
RTVSPost2010Prop47
 90
       50
102
RTVSPost2010PropOp47
 70
     1
102
RTVSPost2010Prop48
 90
       50
102
RTVSPost2010PropOp48
 70
     1
102
RTVSPost2010Prop49
280
     0
102
RTVSPost2010PropOp49
 70
     1
102
RTVSPost2010Prop50
 90
       50
102
RTVSPost2010PropOp50
 70
     1
102
RTVSPost2010Prop51ColorIndex
 90
      256
102
RTVSPost2010Prop51ColorRGB
 90
-16777216
102
RTVSPost2010PropOp51
 70
     0
102
RTVSPost2010Prop52
140
1.0
102
RTVSPost2010PropOp52
 70
     0
102
RTVSPost2010Prop53
 90
        2
102
RTVSPost2010PropOp53
 70
     1
102
RTVSPost2010Prop54
  1
strokes_ogs.tif
102
RTVSPost2010PropOp54
 70
     1
102
RTVSPost2010Prop55
280
     0
102
RTVSPost2010PropOp55
 70
     1
102
RTVSPost2010Prop56
140
1.0
102
RTVSPost2010PropOp56
 70
     1
102
RTVSPost2010Prop57
140
1.0
102
RTVSPost2010PropOp57
 70
     1
  0
XRECORD
  5
F9
102
{ACAD_REACTORS
330
F8
102
}
330
F8
100
AcDbXrecord
280
     1
102
RTVSPropertyOp0
 70
     1
102
RTVSPropertyOp1
 70
     1
102
RTVSPropertyOp2
 70
     1
102
RTVSPropertyOp3
 70
     1
102
RTVSPropertyOp4
 70
     1
102
RTVSPropertyOp5
 70
     1
102
RTVSPropertyOp6
 70
     1
102
RTVSPropertyOp7
 70
     1
102
RTVSPropertyOp8
 70
     1
102
RTVSPropertyOp9
 70
     1
102
RTVSPropertyOp10
 70
     1
102
RTVSPropertyOp11
 70
     1
102
RTVSPropertyOp12
 70
     1
102
RTVSPropertyOp13
 70
     1
102
RTVSPropertyOp14
 70
     1
102
RTVSPropertyOp15
 70
     1
102
RTVSPropertyOp16
 70
     1
102
RTVSPropertyOp17
 70
     1
102
RTVSPropertyOp18
 70
     1
102
RTVSPropertyOp19
 70
     1
102
RTVSPropertyOp20
 70
     1
102
RTVSPropertyOp21
 70
     1
102
RTVSPropertyOp22
 70
     1
102
RTVSPropertyOp23
 70
     1
102
RTVSPropertyOp24
 70
     1
102
RTVSPropertyOp25
 70
     1
102
RTVSPropertyOp26
 70
     1
102
RTVSPropertyOp27
 70
     1
102
RTVSPropertyOp28
 70
     1
102
RTVSPropertyOp29
 70
     1
102
RTVSPropertyOp30
 70
     1
102
RTVSPropertyOp31
 70
     1
102
RTVSPropertyOp32
 70
     1
102
RTVSPropertyOp33
 70
     1
102
RTVSPropertyOp34
 70
     1
102
RTVSPropertyOp35
 70
     1
102
RTVSPropertyOp36
 70
     1
102
RTVSPropertyOp37
 70
     1
102
RTVSPropertyOp38
 70
     1
102
RTVSPropertyOp39
 70
     1
102
RTVSPropertyOp40
 70
     1
102
RTVSPropertyOp41
 70
     1
102
RTVSPropertyOp42
 70
     1
102
RTVSPropertyOp43
 70
     1
102
RTVSPropertyOp44
 70
     1
102
RTVSPropertyOp45
 70
     1
102
RTVSPropertyOp46
 70
     1
102
RTVSPropertyOp47
 70
     1
102
RTVSPropertyOp48
 70
     1
102
RTVSPropertyOp49
 70
     1
102
RTVSPropertyOp50
 70
     1
102
RTVSPropertyOp51
 70
     0
102
RTVSPropertyOp52
 70
     0
102
RTVSPropertyOp53
 70
     1
102
RTVSPropertyOp54
 70
     1
102
RTVSPropertyOp55
 70
     1
102
RTVSPropertyOp56
 70
     1
102
RTVSPropertyOp57
 70
     1
102
RTVSPost2010Prop28
280
     0
102
RTVSPost2010PropOp28
 70
     1
102
RTVSPost2010Prop29
280
     1
102
RTVSPost2010PropOp29
 70
     1
102
RTVSPost2010Prop30
280
     1
102
RTVSPost2010PropOp30
 70
     1
102
RTVSPost2010Prop31
280
     0
102
RTVSPost2010PropOp31
 70
     1
102
RTVSPost2010Prop32
280
     0
102
RTVSPost2010PropOp32
 70
     1
102
RTVSPost2010Prop33
280
     0
102
RTVSPost2010PropOp33
 70
     1
102
RTVSPost2010Prop34
280
     0
102
RTVSPost2010PropOp34
 70
     1
102
RTVSPost2010Prop35
280
     0
102
RTVSPost2010PropOp35
 70
     1
102
RTVSPost2010Prop36
280
     0
102
RTVSPost2010PropOp36
 70
     1
102
RTVSPost2010Prop37
 90
       50
102
RTVSPost2010PropOp37
 70
     1
102
RTVSPost2010Prop38
140
0.0
102
RTVSPost2010PropOp38
 70
     1
102
RTVSPost2010Prop39
140
1.0
102
RTVSPost2010PropOp39
 70
     1
102
RTVSPost2010Prop40
 90
        0
102
RTVSPost2010PropOp40
 70
     1
102
RTVSPost2010Prop41ColorIndex
 90
       18
102
RTVSPost2010Prop41ColorRGB
 90
        0
102
RTVSPost2010PropOp41
 70
     1
102
RTVSPost2010Prop42
 90
       50
102
RTVSPost2010PropOp42
 70
     1
102
RTVSPost2010Prop43
 90
        3
102
RTVSPost2010PropOp43
 70
     1
102
RTVSPost2010Prop44ColorIndex
 90
        5
102
RTVSPost2010Prop44ColorRGB
 90
      255
102
RTVSPost2010PropOp44
 70
     1
102
RTVSPost2010Prop45
280
     0
102
RTVSPost2010PropOp45
 70
     1
102
RTVSPost2010Prop46
 90
       50
102
RTVSPost2010PropOp46
 70
     1
102
RTVSPost2010Prop47
 90
       50
102
RTVSPost2010PropOp47
 70
     1
102
RTVSPost2010Prop48
 90
       50
102
RTVSPost2010PropOp48
 70
     1
102
RTVSPost2010Prop49
280
     0
102
RTVSPost2010PropOp49
 70
     1
102
RTVSPost2010Prop50
 90
       50
102
RTVSPost2010PropOp50
 70
     1
102
RTVSPost2010Prop51ColorIndex
 90
      256
102
RTVSPost2010Prop51ColorRGB
 90
-16777216
102
RTVSPost2010PropOp51
 70
     0
102
RTVSPost2010Prop52
140
1.0
102
RTVSPost2010PropOp52
 70
     0
102
RTVSPost2010Prop53
 90
        2
102
RTVSPost2010PropOp53
 70
     1
102
RTVSPost2010Prop54
  1
strokes_ogs.tif
102
RTVSPost2010PropOp54
 70
     1
102
RTVSPost2010Prop55
280
     0
102
RTVSPost2010PropOp55
 70
     1
102
RTVSPost2010Prop56
140
1.0
102
RTVSPost2010PropOp56
 70
     1
102
RTVSPost2010Prop57
140
1.0
102
RTVSPost2010PropOp57
 70
     1
  0
XRECORD
  5
EB
102
{ACAD_REACTORS
330
EA
102
}
330
EA
100
AcDbXrecord
280
     1
102
RTVSPropertyOp0
 70
     1
102
RTVSPropertyOp1
 70
     1
102
RTVSPropertyOp2
 70
     1
102
RTVSPropertyOp3
 70
     1
102
RTVSPropertyOp4
 70
     1
102
RTVSPropertyOp5
 70
     1
102
RTVSPropertyOp6
 70
     1
102
RTVSPropertyOp7
 70
     1
102
RTVSPropertyOp8
 70
     1
102
RTVSPropertyOp9
 70
     1
102
RTVSPropertyOp10
 70
     1
102
RTVSPropertyOp11
 70
     1
102
RTVSPropertyOp12
 70
     1
102
RTVSPropertyOp13
 70
     1
102
RTVSPropertyOp14
 70
     1
102
RTVSPropertyOp15
 70
     1
102
RTVSPropertyOp16
 70
     1
102
RTVSPropertyOp17
 70
     1
102
RTVSPropertyOp18
 70
     1
102
RTVSPropertyOp19
 70
     1
102
RTVSPropertyOp20
 70
     1
102
RTVSPropertyOp21
 70
     1
102
RTVSPropertyOp22
 70
     1
102
RTVSPropertyOp23
 70
     1
102
RTVSPropertyOp24
 70
     1
102
RTVSPropertyOp25
 70
     1
102
RTVSPropertyOp26
 70
     1
102
RTVSPropertyOp27
 70
     1
102
RTVSPropertyOp28
 70
     1
102
RTVSPropertyOp29
 70
     1
102
RTVSPropertyOp30
 70
     1
102
RTVSPropertyOp31
 70
     1
102
RTVSPropertyOp32
 70
     1
102
RTVSPropertyOp33
 70
     1
102
RTVSPropertyOp34
 70
     1
102
RTVSPropertyOp35
 70
     1
102
RTVSPropertyOp36
 70
     1
102
RTVSPropertyOp37
 70
     1
102
RTVSPropertyOp38
 70
     1
102
RTVSPropertyOp39
 70
     1
102
RTVSPropertyOp40
 70
     1
102
RTVSPropertyOp41
 70
     1
102
RTVSPropertyOp42
 70
     1
102
RTVSPropertyOp43
 70
     1
102
RTVSPropertyOp44
 70
     1
102
RTVSPropertyOp45
 70
     1
102
RTVSPropertyOp46
 70
     1
102
RTVSPropertyOp47
 70
     1
102
RTVSPropertyOp48
 70
     1
102
RTVSPropertyOp49
 70
     1
102
RTVSPropertyOp50
 70
     1
102
RTVSPropertyOp51
 70
     0
102
RTVSPropertyOp52
 70
     0
102
RTVSPropertyOp53
 70
     1
102
RTVSPropertyOp54
 70
     1
102
RTVSPropertyOp55
 70
     1
102
RTVSPropertyOp56
 70
     1
102
RTVSPropertyOp57
 70
     1
102
RTVSPost2010Prop28
280
     0
102
RTVSPost2010PropOp28
 70
     1
102
RTVSPost2010Prop29
280
     1
102
RTVSPost2010PropOp29
 70
     1
102
RTVSPost2010Prop30
280
     1
102
RTVSPost2010PropOp30
 70
     1
102
RTVSPost2010Prop31
280
     0
102
RTVSPost2010PropOp31
 70
     1
102
RTVSPost2010Prop32
280
     0
102
RTVSPost2010PropOp32
 70
     1
102
RTVSPost2010Prop33
280
     0
102
RTVSPost2010PropOp33
 70
     1
102
RTVSPost2010Prop34
280
     0
102
RTVSPost2010PropOp34
 70
     1
102
RTVSPost2010Prop35
280
     0
102
RTVSPost2010PropOp35
 70
     1
102
RTVSPost2010Prop36
280
     0
102
RTVSPost2010PropOp36
 70
     1
102
RTVSPost2010Prop37
 90
       50
102
RTVSPost2010PropOp37
 70
     1
102
RTVSPost2010Prop38
140
0.0
102
RTVSPost2010PropOp38
 70
     1
102
RTVSPost2010Prop39
140
1.0
102
RTVSPost2010PropOp39
 70
     1
102
RTVSPost2010Prop40
 90
        0
102
RTVSPost2010PropOp40
 70
     1
102
RTVSPost2010Prop41ColorIndex
 90
       18
102
RTVSPost2010Prop41ColorRGB
 90
        0
102
RTVSPost2010PropOp41
 70
     1
102
RTVSPost2010Prop42
 90
       50
102
RTVSPost2010PropOp42
 70
     1
102
RTVSPost2010Prop43
 90
        3
102
RTVSPost2010PropOp43
 70
     1
102
RTVSPost2010Prop44ColorIndex
 90
        5
102
RTVSPost2010Prop44ColorRGB
 90
      255
102
RTVSPost2010PropOp44
 70
     1
102
RTVSPost2010Prop45
280
     0
102
RTVSPost2010PropOp45
 70
     1
102
RTVSPost2010Prop46
 90
       50
102
RTVSPost2010PropOp46
 70
     1
102
RTVSPost2010Prop47
 90
       50
102
RTVSPost2010PropOp47
 70
     1
102
RTVSPost2010Prop48
 90
       50
102
RTVSPost2010PropOp48
 70
     1
102
RTVSPost2010Prop49
280
     0
102
RTVSPost2010PropOp49
 70
     1
102
RTVSPost2010Prop50
 90
       50
102
RTVSPost2010PropOp50
 70
     1
102
RTVSPost2010Prop51ColorIndex
 90
      256
102
RTVSPost2010Prop51ColorRGB
 90
-16777216
102
RTVSPost2010PropOp51
 70
     0
102
RTVSPost2010Prop52
140
1.0
102
RTVSPost2010PropOp52
 70
     0
102
RTVSPost2010Prop53
 90
        2
102
RTVSPost2010PropOp53
 70
     1
102
RTVSPost2010Prop54
  1
strokes_ogs.tif
102
RTVSPost2010PropOp54
 70
     1
102
RTVSPost2010Prop55
280
     0
102
RTVSPost2010PropOp55
 70
     1
102
RTVSPost2010Prop56
140
1.0
102
RTVSPost2010PropOp56
 70
     1
102
RTVSPost2010Prop57
140
1.0
102
RTVSPost2010PropOp57
 70
     1
  0
XRECORD
  5
10B
102
{ACAD_REACTORS
330
10A
102
}
330
10A
100
AcDbXrecord
280
     1
102
RTVSPropertyOp0
 70
     1
102
RTVSPropertyOp1
 70
     1
102
RTVSPropertyOp2
 70
     1
102
RTVSPropertyOp3
 70
     1
102
RTVSPropertyOp4
 70
     1
102
RTVSPropertyOp5
 70
     1
102
RTVSPropertyOp6
 70
     1
102
RTVSPropertyOp7
 70
     1
102
RTVSPropertyOp8
 70
     1
102
RTVSPropertyOp9
 70
     1
102
RTVSPropertyOp10
 70
     1
102
RTVSPropertyOp11
 70
     1
102
RTVSPropertyOp12
 70
     1
102
RTVSPropertyOp13
 70
     1
102
RTVSPropertyOp14
 70
     1
102
RTVSPropertyOp15
 70
     1
102
RTVSPropertyOp16
 70
     1
102
RTVSPropertyOp17
 70
     1
102
RTVSPropertyOp18
 70
     1
102
RTVSPropertyOp19
 70
     1
102
RTVSPropertyOp20
 70
     1
102
RTVSPropertyOp21
 70
     1
102
RTVSPropertyOp22
 70
     1
102
RTVSPropertyOp23
 70
     1
102
RTVSPropertyOp24
 70
     1
102
RTVSPropertyOp25
 70
     1
102
RTVSPropertyOp26
 70
     1
102
RTVSPropertyOp27
 70
     1
102
RTVSPropertyOp28
 70
     1
102
RTVSPropertyOp29
 70
     1
102
RTVSPropertyOp30
 70
     1
102
RTVSPropertyOp31
 70
     1
102
RTVSPropertyOp32
 70
     1
102
RTVSPropertyOp33
 70
     1
102
RTVSPropertyOp34
 70
     1
102
RTVSPropertyOp35
 70
     1
102
RTVSPropertyOp36
 70
     1
102
RTVSPropertyOp37
 70
     1
102
RTVSPropertyOp38
 70
     1
102
RTVSPropertyOp39
 70
     1
102
RTVSPropertyOp40
 70
     1
102
RTVSPropertyOp41
 70
     1
102
RTVSPropertyOp42
 70
     1
102
RTVSPropertyOp43
 70
     1
102
RTVSPropertyOp44
 70
     1
102
RTVSPropertyOp45
 70
     1
102
RTVSPropertyOp46
 70
     1
102
RTVSPropertyOp47
 70
     1
102
RTVSPropertyOp48
 70
     1
102
RTVSPropertyOp49
 70
     1
102
RTVSPropertyOp50
 70
     1
102
RTVSPropertyOp51
 70
     0
102
RTVSPropertyOp52
 70
     0
102
RTVSPropertyOp53
 70
     1
102
RTVSPropertyOp54
 70
     1
102
RTVSPropertyOp55
 70
     1
102
RTVSPropertyOp56
 70
     1
102
RTVSPropertyOp57
 70
     1
102
RTVSPost2010Prop28
280
     0
102
RTVSPost2010PropOp28
 70
     1
102
RTVSPost2010Prop29
280
     1
102
RTVSPost2010PropOp29
 70
     1
102
RTVSPost2010Prop30
280
     1
102
RTVSPost2010PropOp30
 70
     1
102
RTVSPost2010Prop31
280
     0
102
RTVSPost2010PropOp31
 70
     1
102
RTVSPost2010Prop32
280
     0
102
RTVSPost2010PropOp32
 70
     1
102
RTVSPost2010Prop33
280
     0
102
RTVSPost2010PropOp33
 70
     1
102
RTVSPost2010Prop34
280
     0
102
RTVSPost2010PropOp34
 70
     1
102
RTVSPost2010Prop35
280
     0
102
RTVSPost2010PropOp35
 70
     1
102
RTVSPost2010Prop36
280
     0
102
RTVSPost2010PropOp36
 70
     1
102
RTVSPost2010Prop37
 90
       50
102
RTVSPost2010PropOp37
 70
     1
102
RTVSPost2010Prop38
140
0.0
102
RTVSPost2010PropOp38
 70
     1
102
RTVSPost2010Prop39
140
1.0
102
RTVSPost2010PropOp39
 70
     1
102
RTVSPost2010Prop40
 90
        0
102
RTVSPost2010PropOp40
 70
     1
102
RTVSPost2010Prop41ColorIndex
 90
       18
102
RTVSPost2010Prop41ColorRGB
 90
        0
102
RTVSPost2010PropOp41
 70
     1
102
RTVSPost2010Prop42
 90
       50
102
RTVSPost2010PropOp42
 70
     1
102
RTVSPost2010Prop43
 90
        3
102
RTVSPost2010PropOp43
 70
     1
102
RTVSPost2010Prop44ColorIndex
 90
        5
102
RTVSPost2010Prop44ColorRGB
 90
      255
102
RTVSPost2010PropOp44
 70
     1
102
RTVSPost2010Prop45
280
     0
102
RTVSPost2010PropOp45
 70
     1
102
RTVSPost2010Prop46
 90
       50
102
RTVSPost2010PropOp46
 70
     1
102
RTVSPost2010Prop47
 90
       50
102
RTVSPost2010PropOp47
 70
     1
102
RTVSPost2010Prop48
 90
       50
102
RTVSPost2010PropOp48
 70
     1
102
RTVSPost2010Prop49
280
     0
102
RTVSPost2010PropOp49
 70
     1
102
RTVSPost2010Prop50
 90
       50
102
RTVSPost2010PropOp50
 70
     1
102
RTVSPost2010Prop51ColorIndex
 90
      256
102
RTVSPost2010Prop51ColorRGB
 90
-16777216
102
RTVSPost2010PropOp51
 70
     0
102
RTVSPost2010Prop52
140
1.0
102
RTVSPost2010PropOp52
 70
     0
102
RTVSPost2010Prop53
 90
        2
102
RTVSPost2010PropOp53
 70
     1
102
RTVSPost2010Prop54
  1
strokes_ogs.tif
102
RTVSPost2010PropOp54
 70
     1
102
RTVSPost2010Prop55
280
     0
102
RTVSPost2010PropOp55
 70
     1
102
RTVSPost2010Prop56
140
1.0
102
RTVSPost2010PropOp56
 70
     1
102
RTVSPost2010Prop57
140
1.0
102
RTVSPost2010PropOp57
 70
     1
  0
ENDSEC
  0
EOF
