  0
SECTION
  2
HEADER
  9
$ACADVER
  1
AC1015
  9
$ACADMAINTVER
 70
     6
  9
$DWGCODEPAGE
  3
ANSI_1252
  9
$INSBASE
 10
0.0
 20
0.0
 30
0.0
  9
$EXTMIN
 10
-12.641235
 20
118.817711
 30
0.0
  9
$EXTMAX
 10
599.959534
 20
868.924744
 30
0.0
  9
$LIMMIN
 10
-12.641235
 20
118.817711
  9
$LIMMAX
 10
599.959534
 20
868.924744
  9
$ORTHOMODE
 70
     0
  9
$REGENMODE
 70
     1
  9
$FILLMODE
 70
     1
  9
$QTEXTMODE
 70
     0
  9
$MIRRTEXT
 70
     1
  9
$LTSCALE
 40
1.0
  9
$ATTMODE
 70
     1
  9
$TEXTSIZE
 40
2.5
  9
$TRACEWID
 40
1.0
  9
$TEXTSTYLE
  7
Standard
  9
$CLAYER
  8
0
  9
$CELTYPE
  6
ByLayer
  9
$CECOLOR
 62
   256
  9
$CELTSCALE
 40
1.0
  9
$DISPSILH
 70
     0
  9
$DIMSCALE
 40
1.0
  9
$DIMASZ
 40
2.5
  9
$DIMEXO
 40
0.625
  9
$DIMDLI
 40
3.75
  9
$DIMRND
 40
0.0
  9
$DIMDLE
 40
0.0
  9
$DIMEXE
 40
1.25
  9
$DIMTP
 40
0.0
  9
$DIMTM
 40
0.0
  9
$DIMTXT
 40
2.5
  9
$DIMCEN
 40
2.5
  9
$DIMTSZ
 40
0.0
  9
$DIMTOL
 70
     0
  9
$DIMLIM
 70
     0
  9
$DIMTIH
 70
     0
  9
$DIMTOH
 70
     0
  9
$DIMSE1
 70
     0
  9
$DIMSE2
 70
     0
  9
$DIMTAD
 70
     1
  9
$DIMZIN
 70
     8
  9
$DIMBLK
  1

  9
$DIMASO
 70
     1
  9
$DIMSHO
 70
     1
  9
$DIMPOST
  1

  9
$DIMAPOST
  1

  9
$DIMALT
 70
     0
  9
$DIMALTD
 70
     3
  9
$DIMALTF
 40
0.03937
  9
$DIMLFAC
 40
1.0
  9
$DIMTOFL
 70
     1
  9
$DIMTVP
 40
0.0
  9
$DIMTIX
 70
     0
  9
$DIMSOXD
 70
     0
  9
$DIMSAH
 70
     0
  9
$DIMBLK1
  1

  9
$DIMBLK2
  1

  9
$DIMSTYLE
  2
ISO-25
  9
$DIMCLRD
 70
     0
  9
$DIMCLRE
 70
     0
  9
$DIMCLRT
 70
     0
  9
$DIMTFAC
 40
1.0
  9
$DIMGAP
 40
0.625
  9
$DIMJUST
 70
     0
  9
$DIMSD1
 70
     0
  9
$DIMSD2
 70
     0
  9
$DIMTOLJ
 70
     0
  9
$DIMTZIN
 70
     8
  9
$DIMALTZ
 70
     0
  9
$DIMALTTZ
 70
     0
  9
$DIMUPT
 70
     0
  9
$DIMDEC
 70
     2
  9
$DIMTDEC
 70
     2
  9
$DIMALTU
 70
     2
  9
$DIMALTTD
 70
     3
  9
$DIMTXSTY
  7
Standard
  9
$DIMAUNIT
 70
     0
  9
$DIMADEC
 70
     0
  9
$DIMALTRND
 40
0.0
  9
$DIMAZIN
 70
     0
  9
$DIMDSEP
 70
    44
  9
$DIMATFIT
 70
     3
  9
$DIMFRAC
 70
     0
  9
$DIMLDRBLK
  1

  9
$DIMLUNIT
 70
     2
  9
$DIMLWD
 70
    -2
  9
$DIMLWE
 70
    -2
  9
$DIMTMOVE
 70
     0
  9
$LUNITS
 70
     2
  9
$LUPREC
 70
     4
  9
$SKETCHINC
 40
1.0
  9
$FILLETRAD
 40
10.0
  9
$AUNITS
 70
     0
  9
$AUPREC
 70
     0
  9
$MENU
  1
.
  9
$ELEVATION
 40
0.0
  9
$PELEVATION
 40
0.0
  9
$THICKNESS
 40
0.0
  9
$LIMCHECK
 70
     0
  9
$CHAMFERA
 40
0.0
  9
$CHAMFERB
 40
0.0
  9
$CHAMFERC
 40
0.0
  9
$CHAMFERD
 40
0.0
  9
$SKPOLY
 70
     0
  9
$TDCREATE
 40
2459487.563634838
  9
$TDUCREATE
 40
2459487.480301504
  9
$TDUPDATE
 40
2459487.56363537
  9
$TDUUPDATE
 40
2459487.480302037
  9
$TDINDWG
 40
0.0000000116
  9
$TDUSRTIMER
 40
0.0000000116
  9
$USRTIMER
 70
     1
  9
$ANGBASE
 50
0.0
  9
$ANGDIR
 70
     0
  9
$PDMODE
 70
     0
  9
$PDSIZE
 40
0.0
  9
$PLINEWID
 40
0.0
  9
$SPLFRAME
 70
     0
  9
$SPLINETYPE
 70
     6
  9
$SPLINESEGS
 70
     8
  9
$HANDSEED
  5
1C8
  9
$SURFTAB1
 70
     6
  9
$SURFTAB2
 70
     6
  9
$SURFTYPE
 70
     6
  9
$SURFU
 70
     6
  9
$SURFV
 70
     6
  9
$UCSBASE
  2

  9
$UCSNAME
  2

  9
$UCSORG
 10
0.0
 20
0.0
 30
0.0
  9
$UCSXDIR
 10
1.0
 20
0.0
 30
0.0
  9
$UCSYDIR
 10
0.0
 20
1.0
 30
0.0
  9
$UCSORTHOREF
  2

  9
$UCSORTHOVIEW
 70
     0
  9
$UCSORGTOP
 10
0.0
 20
0.0
 30
0.0
  9
$UCSORGBOTTOM
 10
0.0
 20
0.0
 30
0.0
  9
$UCSORGLEFT
 10
0.0
 20
0.0
 30
0.0
  9
$UCSORGRIGHT
 10
0.0
 20
0.0
 30
0.0
  9
$UCSORGFRONT
 10
0.0
 20
0.0
 30
0.0
  9
$UCSORGBACK
 10
0.0
 20
0.0
 30
0.0
  9
$PUCSBASE
  2

  9
$PUCSNAME
  2

  9
$PUCSORG
 10
0.0
 20
0.0
 30
0.0
  9
$PUCSXDIR
 10
1.0
 20
0.0
 30
0.0
  9
$PUCSYDIR
 10
0.0
 20
1.0
 30
0.0
  9
$PUCSORTHOREF
  2

  9
$PUCSORTHOVIEW
 70
     0
  9
$PUCSORGTOP
 10
0.0
 20
0.0
 30
0.0
  9
$PUCSORGBOTTOM
 10
0.0
 20
0.0
 30
0.0
  9
$PUCSORGLEFT
 10
0.0
 20
0.0
 30
0.0
  9
$PUCSORGRIGHT
 10
0.0
 20
0.0
 30
0.0
  9
$PUCSORGFRONT
 10
0.0
 20
0.0
 30
0.0
  9
$PUCSORGBACK
 10
0.0
 20
0.0
 30
0.0
  9
$USERI1
 70
     0
  9
$USERI2
 70
     0
  9
$USERI3
 70
     0
  9
$USERI4
 70
     0
  9
$USERI5
 70
     0
  9
$USERR1
 40
0.0
  9
$USERR2
 40
0.0
  9
$USERR3
 40
0.0
  9
$USERR4
 40
0.0
  9
$USERR5
 40
0.0
  9
$WORLDVIEW
 70
     1
  9
$SHADEDGE
 70
     3
  9
$SHADEDIF
 70
    70
  9
$TILEMODE
 70
     1
  9
$MAXACTVP
 70
    64
  9
$PINSBASE
 10
0.0
 20
0.0
 30
0.0
  9
$PLIMCHECK
 70
     0
  9
$PEXTMIN
 10
1.000000E+20
 20
1.000000E+20
 30
1.000000E+20
  9
$PEXTMAX
 10
-1.000000E+20
 20
-1.000000E+20
 30
-1.000000E+20
  9
$PLIMMIN
 10
0.0
 20
0.0
  9
$PLIMMAX
 10
420.0
 20
297.0
  9
$UNITMODE
 70
     0
  9
$VISRETAIN
 70
     1
  9
$PLINEGEN
 70
     0
  9
$PSLTSCALE
 70
     1
  9
$TREEDEPTH
 70
  3020
  9
$CMLSTYLE
  2
Standard
  9
$CMLJUST
 70
     0
  9
$CMLSCALE
 40
20.0
  9
$PROXYGRAPHICS
 70
     1
  9
$MEASUREMENT
 70
     1
  9
$CELWEIGHT
370
    -1
  9
$ENDCAPS
280
     0
  9
$JOINSTYLE
280
     0
  9
$LWDISPLAY
290
     0
  9
$INSUNITS
 70
     4
  9
$HYPERLINKBASE
  1

  9
$STYLESHEET
  1

  9
$XEDIT
290
     1
  9
$CEPSNTYPE
380
     0
  9
$PSTYLEMODE
290
     1
  9
$FINGERPRINTGUID
  2
{b38d6f05-d615-4065-ade0-78432a62ddf4}
  9
$VERSIONGUID
  2
{FAEB1C32-E019-11D5-929B-00C0DF256EC4}
  9
$EXTNAMES
290
     1
  9
$PSVPSCALE
 40
0.0
  9
$OLESTARTUP
290
     0
  0
ENDSEC
  0
SECTION
  2
CLASSES
  0
CLASS
  1
ACDBDICTIONARYWDFLT
  2
AcDbDictionaryWithDefault
  3
ObjectDBX Classes
 90
        0
280
     0
281
     0
  0
CLASS
  1
VISUALSTYLE
  2
AcDbVisualStyle
  3
ObjectDBX Classes
 90
     4095
280
     0
281
     0
  0
CLASS
  1
MATERIAL
  2
AcDbMaterial
  3
ObjectDBX Classes
 90
     1153
280
     0
281
     0
  0
CLASS
  1
SCALE
  2
AcDbScale
  3
ObjectDBX Classes
 90
     1153
280
     0
281
     0
  0
CLASS
  1
TABLESTYLE
  2
AcDbTableStyle
  3
ObjectDBX Classes
 90
     4095
280
     0
281
     0
  0
CLASS
  1
MLEADERSTYLE
  2
AcDbMLeaderStyle
  3
ACDB_MLEADERSTYLE_CLASS
 90
     4095
280
     0
281
     0
  0
CLASS
  1
SUN
  2
AcDbSun
  3
SCENEOE
 90
     1153
280
     0
281
     0
  0
CLASS
  1
DICTIONARYVAR
  2
AcDbDictionaryVar
  3
ObjectDBX Classes
 90
        0
280
     0
281
     0
  0
CLASS
  1
ACDBPLACEHOLDER
  2
AcDbPlaceHolder
  3
ObjectDBX Classes
 90
        0
280
     0
281
     0
  0
CLASS
  1
LAYOUT
  2
AcDbLayout
  3
ObjectDBX Classes
 90
        0
280
     0
281
     0
  0
ENDSEC
  0
SECTION
  2
TABLES
  0
TABLE
  2
VPORT
  5
8
102
{ACAD_XDICTIONARY
360
18B
102
}
330
0
100
AcDbSymbolTable
 70
     1
  0
VPORT
  5
29
330
8
100
AcDbSymbolTableRecord
100
AcDbViewportTableRecord
  2
*Active
 70
     0
 10
0.0
 20
0.0
 11
1.0
 21
1.0
 12
344.186916
 22
148.5
 13
0.0
 23
0.0
 14
10.0
 24
10.0
 15
10.0
 25
10.0
 16
0.0
 26
0.0
 36
1.0
 17
0.0
 27
0.0
 37
0.0
 40
297.0
 41
1.972973
 42
50.0
 43
0.0
 44
0.0
 50
0.0
 51
0.0
 71
     0
 72
   100
 73
     1
 74
     3
 75
     0
 76
     0
 77
     0
 78
     0
281
     0
 65
     1
110
0.0
120
0.0
130
0.0
111
1.0
121
0.0
131
0.0
112
0.0
122
1.0
132
0.0
 79
     0
146
0.0
  0
ENDTAB
  0
TABLE
  2
LTYPE
  5
5
330
0
100
AcDbSymbolTable
 70
     1
  0
LTYPE
  5
14
330
5
100
AcDbSymbolTableRecord
100
AcDbLinetypeTableRecord
  2
ByBlock
 70
     0
  3

 72
    65
 73
     0
 40
0.0
  0
LTYPE
  5
15
330
5
100
AcDbSymbolTableRecord
100
AcDbLinetypeTableRecord
  2
ByLayer
 70
     0
  3

 72
    65
 73
     0
 40
0.0
  0
LTYPE
  5
16
330
5
100
AcDbSymbolTableRecord
100
AcDbLinetypeTableRecord
  2
Continuous
 70
     0
  3
Solid line
 72
    65
 73
     0
 40
0.0
  0
ENDTAB
  0
TABLE
  2
LAYER
  5
2
330
0
100
AcDbSymbolTable
 70
     1
  0
LAYER
  5
10
330
2
100
AcDbSymbolTableRecord
100
AcDbLayerTableRecord
  2
0
 70
     0
 62
   106
  6
Continuous
370
     0
390
F
  0
ENDTAB
  0
TABLE
  2
STYLE
  5
3
330
0
100
AcDbSymbolTable
 70
     4
  0
STYLE
  5
11
330
3
100
AcDbSymbolTableRecord
100
AcDbTextStyleTableRecord
  2
Standard
 70
     0
 40
0.0
 41
1.0
 50
0.0
 71
     0
 42
2.5
  3
txt
  4

  0
STYLE
  5
6E
330
3
100
AcDbSymbolTableRecord
100
AcDbTextStyleTableRecord
  2
Default
 70
     0
 40
0.0
 41
1.0
 50
0.0
 71
     0
 42
2.5
  3

  4

1001
ACAD
1000
txt
1071
        0
  0
STYLE
  5
6F
330
3
100
AcDbSymbolTableRecord
100
AcDbTextStyleTableRecord
  2
ISO
 70
     0
 40
0.0
 41
1.0
 50
0.0
 71
     0
 42
2.5
  3

  4

1001
ACAD
1000
txt
1071
        0
  0
STYLE
  5
70
330
3
100
AcDbSymbolTableRecord
100
AcDbTextStyleTableRecord
  2
zucchetti
 70
     0
 40
0.0
 41
1.0
 50
0.0
 71
     0
 42
2.5
  3

  4

1001
ACAD
1000
Arial
1071
        0
  0
ENDTAB
  0
TABLE
  2
VIEW
  5
6
330
0
100
AcDbSymbolTable
 70
     0
  0
ENDTAB
  0
TABLE
  2
UCS
  5
7
330
0
100
AcDbSymbolTable
 70
     0
  0
ENDTAB
  0
TABLE
  2
APPID
  5
9
330
0
100
AcDbSymbolTable
 70
     2
  0
APPID
  5
12
330
9
100
AcDbSymbolTableRecord
100
AcDbRegAppTableRecord
  2
ACAD
 70
     0
  0
APPID
  5
1C5
330
9
100
AcDbSymbolTableRecord
100
AcDbRegAppTableRecord
  2
ACAD_MLEADERVER
 70
     0
  0
ENDTAB
  0
TABLE
  2
DIMSTYLE
  5
A
330
0
100
AcDbSymbolTable
 70
     4
100
AcDbDimStyleTable
  0
DIMSTYLE
105
27
330
A
100
AcDbSymbolTableRecord
100
AcDbDimStyleTableRecord
  2
ISO-25
 70
     0
 41
2.5
 42
0.625
 43
3.75
 44
1.25
 73
     0
 74
     0
 77
     1
 78
     8
140
2.5
141
2.5
143
0.03937
147
0.625
171
     3
172
     1
178
     0
271
     2
272
     2
274
     3
278
    44
283
     0
284
     8
340
11
  0
DIMSTYLE
105
71
330
A
100
AcDbSymbolTableRecord
100
AcDbDimStyleTableRecord
  2
Default
 70
     0
  3
<>
 41
4.375
 42
1.05
 44
2.1
 73
     0
 74
     0
 77
     1
 78
     8
140
3.5
146
0.4
147
1.75
172
     1
271
     2
178
     3
271
     2
272
     3
284
     8
340
6E
341
72
342
72
  0
DIMSTYLE
105
79
330
A
100
AcDbSymbolTableRecord
100
AcDbDimStyleTableRecord
  2
ISO
 70
     0
  3
<>
 41
4.375
 42
1.05
 44
2.1
 73
     0
 74
     0
 77
     1
 78
     8
140
3.5
146
0.4
147
1.75
172
     1
271
     2
178
     3
271
     2
272
     3
284
     8
340
6F
341
72
342
72
  0
DIMSTYLE
105
7A
330
A
100
AcDbSymbolTableRecord
100
AcDbDimStyleTableRecord
  2
zucchetti
 70
     0
  3
<>
 41
3.0
 42
0.9
 44
1.8
 73
     0
 74
     0
 77
     1
 78
     8
140
3.0
146
0.6
147
1.5
172
     1
176
     3
177
     3
271
     2
178
     3
271
     2
272
     2
284
     8
340
70
  0
ENDTAB
  0
TABLE
  2
BLOCK_RECORD
  5
1
330
0
100
AcDbSymbolTable
 70
     7
  0
BLOCK_RECORD
  5
1F
330
1
100
AcDbSymbolTableRecord
100
AcDbBlockTableRecord
  2
*Model_Space
340
22
  0
BLOCK_RECORD
  5
1B
330
1
100
AcDbSymbolTableRecord
100
AcDbBlockTableRecord
  2
*Paper_Space
340
1E
  0
BLOCK_RECORD
  5
23
330
1
100
AcDbSymbolTableRecord
100
AcDbBlockTableRecord
  2
*Paper_Space0
340
26
  0
BLOCK_RECORD
  5
72
330
1
100
AcDbSymbolTableRecord
100
AcDbBlockTableRecord
  2
_Closed
340
0
  0
BLOCK_RECORD
  5
7B
330
1
100
AcDbSymbolTableRecord
100
AcDbBlockTableRecord
  2
a
340
0
102
{BLKREFS
331
B0
102
}
  0
BLOCK_RECORD
  5
B1
330
1
100
AcDbSymbolTableRecord
100
AcDbBlockTableRecord
  2
b
340
0
102
{BLKREFS
331
D0
102
}
  0
BLOCK_RECORD
  5
D1
330
1
100
AcDbSymbolTableRecord
100
AcDbBlockTableRecord
  2
c
340
0
102
{BLKREFS
331
106
102
}
  0
BLOCK_RECORD
  5
107
330
1
100
AcDbSymbolTableRecord
100
AcDbBlockTableRecord
  2
d
340
0
102
{BLKREFS
331
145
102
}
  0
BLOCK_RECORD
  5
146
330
1
100
AcDbSymbolTableRecord
100
AcDbBlockTableRecord
  2
e
340
0
102
{BLKREFS
331
17F
102
}
  0
ENDTAB
  0
ENDSEC
  0
SECTION
  2
BLOCKS
  0
BLOCK
  5
20
330
1F
100
AcDbEntity
  8
0
100
AcDbBlockBegin
  2
*Model_Space
 70
     0
 10
0.0
 20
0.0
 30
0.0
  3
*Model_Space
  1

  0
ENDBLK
  5
21
330
1F
100
AcDbEntity
  8
0
100
AcDbBlockEnd
  0
BLOCK
  5
1C
330
1B
100
AcDbEntity
 67
     1
  8
0
100
AcDbBlockBegin
  2
*Paper_Space
 70
     0
 10
0.0
 20
0.0
 30
0.0
  3
*Paper_Space
  1

  0
ENDBLK
  5
1D
330
1B
100
AcDbEntity
 67
     1
  8
0
100
AcDbBlockEnd
  0
BLOCK
  5
24
330
23
100
AcDbEntity
  8
0
100
AcDbBlockBegin
  2
*Paper_Space0
 70
     0
 10
0.0
 20
0.0
 30
0.0
  3
*Paper_Space0
  1

  0
ENDBLK
  5
25
330
23
100
AcDbEntity
  8
0
100
AcDbBlockEnd
  0
BLOCK
  5
73
330
72
100
AcDbEntity
  8
0
100
AcDbBlockBegin
  2
_Closed
 70
     0
 10
0.0
 20
0.0
 30
0.0
  3
_Closed
  1

  0
LINE
  5
75
330
72
100
AcDbEntity
  8
0
  6
ByBlock
 62
     0
370
    -2
100
AcDbLine
 10
-1.0
 20
0.166667
 30
0.0
 11
0.0
 21
0.0
 31
0.0
  0
LINE
  5
76
330
72
100
AcDbEntity
  8
0
  6
ByBlock
 62
     0
370
    -2
100
AcDbLine
 10
0.0
 20
0.0
 30
0.0
 11
-1.0
 21
-0.166667
 31
0.0
  0
LINE
  5
77
330
72
100
AcDbEntity
  8
0
  6
ByBlock
 62
     0
370
    -2
100
AcDbLine
 10
-1.0
 20
0.166667
 30
0.0
 11
-1.0
 21
-0.166667
 31
0.0
  0
LINE
  5
78
330
72
100
AcDbEntity
  8
0
  6
ByBlock
 62
     0
370
    -2
100
AcDbLine
 10
0.0
 20
0.0
 30
0.0
 11
-1.0
 21
0.0
 31
0.0
  0
ENDBLK
  5
74
330
72
100
AcDbEntity
  8
0
100
AcDbBlockEnd
  0
BLOCK
  5
AE
330
7B
100
AcDbEntity
  8
0
100
AcDbBlockBegin
  2
a
 70
     0
 10
231.281036
 20
80.514496
 30
0.0
  3
a
  1

  0
ELLIPSE
  5
7C
330
7B
100
AcDbEntity
  8
0
  6
Continuous
 62
     0
370
    30
100
AcDbEllipse
 10
312.398003
 20
559.977872
 30
0.0
 11
-3.4
 21
8.758793425944730E-9
 31
0.0
210
0.0
220
0.0
230
-1.0
 40
0.965926
 41
0.0000000000000031
 42
0.1196981646602953
  0
ELLIPSE
  5
7D
330
7B
100
AcDbEntity
  8
0
  6
Continuous
 62
     0
370
    30
100
AcDbEllipse
 10
312.398003
 20
559.977872
 30
0.0
 11
-3.4
 21
8.758793425944730E-9
 31
0.0
210
0.0
220
0.0
230
-1.0
 40
0.965926
 41
3.022033101366723
 42
3.141592653589796
  0
ELLIPSE
  5
7E
330
7B
100
AcDbEntity
  8
0
  6
Continuous
 62
     0
370
    30
100
AcDbEllipse
 10
312.398003
 20
545.794589
 30
0.0
 11
-3.4
 21
8.758793425944730E-9
 31
0.0
210
0.0
220
0.0
230
-1.0
 40
0.965926
 41
0.0
 42
6.283185307179586
  0
ELLIPSE
  5
7F
330
7B
100
AcDbEntity
  8
0
  6
Continuous
 62
     0
370
    30
100
AcDbEllipse
 10
312.398003
 20
545.742825
 30
0.0
 11
-3.199999997019768
 21
8.243570275564676E-9
 31
0.0
210
0.0
220
0.0
230
-1.0
 40
0.965926
 41
0.0
 42
6.283185307179586
  0
ELLIPSE
  5
80
330
7B
100
AcDbEntity
  8
0
  6
Continuous
 62
     0
370
    30
100
AcDbEllipse
 10
312.398003
 20
545.794589
 30
0.0
 11
2.0
 21
-5.152231427026311E-9
 31
0.0
210
0.0
220
0.0
230
1.0
 40
0.965926
 41
0.0
 42
6.283185307179586
  0
ELLIPSE
  5
81
330
7B
100
AcDbEntity
  8
0
  6
Continuous
 62
     0
370
    30
100
AcDbEllipse
 10
312.398003
 20
545.742825
 30
0.0
 11
2.200000002980232
 21
-5.667454577406365E-9
 31
0.0
210
0.0
220
0.0
230
1.0
 40
0.965926
 41
0.0
 42
6.283185307179586
  0
LINE
  5
82
330
7B
100
AcDbEntity
  8
0
  6
Continuous
 62
     0
370
    30
100
AcDbLine
 10
315.798003
 20
545.794589
 30
0.0
 11
315.798003
 21
559.977872
 31
0.0
  0
LINE
  5
83
330
7B
100
AcDbEntity
  8
0
  6
Continuous
 62
     0
370
    30
100
AcDbLine
 10
308.998003
 20
545.794589
 30
0.0
 11
308.998003
 21
559.977872
 31
0.0
  0
LINE
  5
84
330
7B
100
AcDbEntity
  8
0
  6
Continuous
 62
     0
370
    30
100
AcDbLine
 10
323.298007
 20
539.692741
 30
0.0
 11
301.498007
 21
539.692741
 31
0.0
  0
ELLIPSE
  5
85
330
7B
100
AcDbEntity
  8
0
  6
Continuous
 62
     0
370
    30
100
AcDbEllipse
 10
312.398007
 20
559.977875
 30
0.0
 11
-3.5
 21
-1.312289809829126E-32
 31
0.0
210
0.0
220
0.0
230
-1.0
 40
0.965926
 41
3.220933783219381
 42
3.381216063758143
  0
ELLIPSE
  5
86
330
7B
100
AcDbEntity
  8
0
  6
Continuous
 62
     0
370
    30
100
AcDbEllipse
 10
312.398007
 20
559.977875
 30
0.0
 11
-3.5
 21
-1.312289809829126E-32
 31
0.0
210
0.0
220
0.0
230
-1.0
 40
0.965926
 41
6.04357158018561
 42
6.203842561710506
  0
SPLINE
  5
87
330
7B
100
AcDbEntity
  8
0
  6
Continuous
 62
     0
370
    30
100
AcDbSpline
210
0.0
220
0.0
230
1.0
 70
     8
 71
     3
 72
    22
 73
    18
 74
     0
 42
0.000000001
 43
0.0
 40
4.859651314379498
 40
4.859651314379498
 40
4.859651314379498
 40
4.859651314379498
 40
5.064221100363861
 40
5.88789176527562
 40
6.679604541016195
 40
7.383095746839746
 40
8.096312410521081
 40
8.816181754980851
 40
9.60307037206172
 40
11.04506745554094
 40
12.48753424951718
 40
13.96877809742239
 40
14.66583645924699
 40
15.36189776206074
 40
16.22384773859057
 40
17.0411631424694
 40
17.67193204240009
 40
17.67193204240009
 40
17.67193204240009
 40
17.67193204240009
 10
308.9980032556618
 20
558.5550254210264
 30
0.0
 10
308.9826865812167
 20
558.6212754735227
 30
0.0
 10
308.9142634028799
 20
558.9564482752046
 30
0.0
 10
308.871204589985
 20
559.5653641714006
 30
0.0
 10
308.9853154304486
 20
560.3341149491912
 30
0.0
 10
309.2448894232518
 20
561.0223339605577
 30
0.0
 10
309.6264231164374
 20
561.6184739123123
 30
0.0
 10
310.1432745439719
 20
562.1389974051809
 30
0.0
 10
310.966480184198
 20
562.6661439143174
 30
0.0
 10
312.1711203802948
 20
562.9810508629023
 30
0.0
 10
313.6425642168272
 20
562.7809388578786
 30
0.0
 10
314.6875136948336
 20
562.1529607312104
 30
0.0
 10
315.3066470752984
 20
561.4325373704305
 30
0.0
 10
315.6676831784218
 20
560.7774252520635
 30
0.0
 10
315.8841361593375
 20
560.0124279437757
 30
0.0
 10
315.9165169739635
 20
559.2378762580214
 30
0.0
 10
315.8452299918251
 20
558.7594038203945
 30
0.0
 10
315.7980032556619
 20
558.5550815632287
 30
0.0
  0
LINE
  5
88
330
7B
100
AcDbEntity
  8
0
  6
Continuous
 62
     0
370
    30
100
AcDbLine
 10
322.798007
 20
566.892741
 30
0.0
 11
301.998007
 21
566.892741
 31
0.0
  0
LINE
  5
89
330
7B
100
AcDbEntity
  8
0
  6
Continuous
 62
     0
370
     0
100
AcDbLine
 10
323.298007
 20
566.392741
 30
0.0
 11
301.498007
 21
566.392741
 31
0.0
  0
ARC
  5
8A
330
7B
100
AcDbEntity
  8
0
  6
Continuous
 62
     0
370
    30
100
AcDbCircle
 10
322.798007
 20
566.392741
 30
0.0
 40
0.5
100
AcDbArc
 50
0.0
 51
90.0
  0
ARC
  5
8B
330
7B
100
AcDbEntity
  8
0
  6
Continuous
 62
     0
370
    30
100
AcDbCircle
 10
301.998007
 20
566.392741
 30
0.0
 40
0.5
100
AcDbArc
 50
90.0
 51
180.0
  0
LINE
  5
8C
330
7B
100
AcDbEntity
  8
0
  6
Continuous
 62
     0
370
    30
100
AcDbLine
 10
323.298007
 20
566.392741
 30
0.0
 11
323.298007
 21
539.692741
 31
0.0
  0
LINE
  5
8D
330
7B
100
AcDbEntity
  8
0
  6
Continuous
 62
     0
370
    30
100
AcDbLine
 10
301.498007
 20
566.392741
 30
0.0
 11
301.498007
 21
539.692741
 31
0.0
  0
LINE
  5
8E
330
7B
100
AcDbEntity
  8
0
  6
Continuous
 62
     0
370
     0
100
AcDbLine
 10
303.498007
 20
529.092741
 30
0.0
 11
321.298007
 21
529.092741
 31
0.0
  0
LINE
  5
8F
330
7B
100
AcDbEntity
  8
0
  6
Continuous
 62
     0
370
     0
100
AcDbLine
 10
295.898007
 20
528.092741
 30
0.0
 11
328.898007
 21
528.092741
 31
0.0
  0
LINE
  5
90
330
7B
100
AcDbEntity
  8
0
  6
Continuous
 62
     0
370
    30
100
AcDbLine
 10
296.398007
 20
528.592741
 30
0.0
 11
328.398007
 21
528.592741
 31
0.0
  0
LINE
  5
91
330
7B
100
AcDbEntity
  8
0
  6
Continuous
 62
     0
370
    30
100
AcDbLine
 10
321.298007
 20
529.092741
 30
0.0
 11
321.298007
 21
539.692741
 31
0.0
  0
ARC
  5
92
330
7B
100
AcDbEntity
  8
0
  6
Continuous
 62
     0
370
    30
100
AcDbCircle
 10
321.798007
 20
529.092741
 30
0.0
 40
0.5
100
AcDbArc
 50
180.0
 51
270.0
  0
LINE
  5
93
330
7B
100
AcDbEntity
  8
0
  6
Continuous
 62
     0
370
    30
100
AcDbLine
 10
328.898007
 20
508.592741
 30
0.0
 11
328.898007
 21
528.092741
 31
0.0
  0
ARC
  5
94
330
7B
100
AcDbEntity
  8
0
  6
Continuous
 62
     0
370
    30
100
AcDbCircle
 10
328.398007
 20
528.092741
 30
0.0
 40
0.5
100
AcDbArc
 50
360.0
 51
90.0
  0
ARC
  5
95
330
7B
100
AcDbEntity
  8
0
  6
Continuous
 62
     0
370
    30
100
AcDbCircle
 10
296.398007
 20
528.092741
 30
0.0
 40
0.5
100
AcDbArc
 50
90.0
 51
180.0
  0
ARC
  5
96
330
7B
100
AcDbEntity
  8
0
  6
Continuous
 62
     0
370
    30
100
AcDbCircle
 10
302.998007
 20
529.092741
 30
0.0
 40
0.5
100
AcDbArc
 50
270.0
 51
360.0
  0
LINE
  5
97
330
7B
100
AcDbEntity
  8
0
  6
Continuous
 62
     0
370
    30
100
AcDbLine
 10
303.498007
 20
529.092741
 30
0.0
 11
303.498007
 21
539.692741
 31
0.0
  0
LINE
  5
98
330
7B
100
AcDbEntity
  8
0
  6
Continuous
 62
     0
370
    30
100
AcDbLine
 10
295.898007
 20
508.592741
 30
0.0
 11
295.898007
 21
528.092741
 31
0.0
  0
LINE
  5
99
330
7B
100
AcDbEntity
  8
0
  6
Continuous
 62
     0
370
    30
100
AcDbLine
 10
293.898006
 20
399.492742
 30
0.0
 11
330.898006
 21
399.49274
 31
0.0
  0
ARC
  5
9A
330
7B
100
AcDbEntity
  8
0
  6
Continuous
 62
     0
370
    30
100
AcDbCircle
 10
293.898006
 20
400.992742
 30
0.0
 40
1.5
100
AcDbArc
 50
195.466029
 51
269.999998
  0
ARC
  5
9B
330
7B
100
AcDbEntity
  8
0
  6
Continuous
 62
     0
370
    30
100
AcDbCircle
 10
330.898006
 20
400.99274
 30
0.0
 40
1.5
100
AcDbArc
 50
269.999998
 51
344.534009
  0
LINE
  5
9C
330
7B
100
AcDbEntity
  8
0
  6
Continuous
 62
     0
370
    30
100
AcDbLine
 10
276.898006
 20
400.592741
 30
0.0
 11
338.107185
 21
400.592741
 31
0.0
  0
LINE
  5
9D
330
7B
100
AcDbEntity
  8
0
  6
Continuous
 62
     0
370
    30
100
AcDbLine
 10
338.107185
 20
400.592741
 30
0.0
 11
347.898006
 21
400.592741
 31
0.0
  0
LINE
  5
9E
330
7B
100
AcDbEntity
  8
0
  6
Continuous
 62
     0
370
     0
100
AcDbLine
 10
274.898006
 20
402.592741
 30
0.0
 11
339.55559
 21
402.592741
 31
0.0
  0
LINE
  5
9F
330
7B
100
AcDbEntity
  8
0
  6
Continuous
 62
     0
370
     0
100
AcDbLine
 10
339.55559
 20
402.592741
 30
0.0
 11
349.898006
 21
402.592741
 31
0.0
  0
SPLINE
  5
A0
330
7B
100
AcDbEntity
  8
0
  6
Continuous
 62
     0
370
     0
100
AcDbSpline
210
0.0
220
0.0
230
1.0
 70
    28
 71
     2
 72
     8
 73
     5
 74
     0
 42
0.000000001
 43
0.0
 40
0.242612548493664
 40
0.242612548493664
 40
0.242612548493664
 40
0.5
 40
0.5
 40
1.0
 40
1.0
 40
1.0
 10
274.8980068841166
 20
506.5927412064017
 30
0.0
 41
0.8536812664598801
 10
274.8980068759808
 20
506.5927412064016
 30
0.0
 41
0.8492259216922357
 10
286.5384696746511
 20
506.5927411527899
 30
0.0
 41
1.0
 10
313.6960530596309
 20
506.5927410277119
 30
0.0
 41
0.7071067811865475
 10
339.5555902690907
 20
506.5927409086125
 30
0.0
 41
1.0
  0
LINE
  5
A1
330
7B
100
AcDbEntity
  8
0
  6
Continuous
 62
     0
370
     0
100
AcDbLine
 10
339.55559
 20
506.592741
 30
0.0
 11
349.898007
 21
506.592741
 31
0.0
  0
LINE
  5
A2
330
7B
100
AcDbEntity
  8
0
  6
Continuous
 62
     0
370
    30
100
AcDbLine
 10
276.898007
 20
508.592741
 30
0.0
 11
338.107186
 21
508.592741
 31
0.0
  0
LINE
  5
A3
330
7B
100
AcDbEntity
  8
0
  6
Continuous
 62
     0
370
    30
100
AcDbLine
 10
338.107186
 20
508.592741
 30
0.0
 11
347.898007
 21
508.592741
 31
0.0
  0
ARC
  5
A4
330
7B
100
AcDbEntity
  8
0
  6
Continuous
 62
     0
370
    30
100
AcDbCircle
 10
347.897917
 20
506.592651
 30
0.0
 40
2.000090101178137
100
AcDbArc
 50
0.002581
 51
89.997419
  0
ARC
  5
A5
330
7B
100
AcDbEntity
  8
0
  6
Continuous
 62
     0
370
    30
100
AcDbCircle
 10
276.898097
 20
506.592651
 30
0.0
 40
2.000090101178048
100
AcDbArc
 50
90.002581
 51
179.997419
  0
LINE
  5
A6
330
7B
100
AcDbEntity
  8
0
  6
Continuous
 62
     0
370
    30
100
AcDbLine
 10
349.898006
 20
402.592741
 30
0.0
 11
349.898007
 21
506.592741
 31
0.0
  0
LINE
  5
A7
330
7B
100
AcDbEntity
  8
0
  6
Continuous
 62
     0
370
    30
100
AcDbLine
 10
274.898006
 20
402.592741
 30
0.0
 11
274.898007
 21
506.592741
 31
0.0
  0
ARC
  5
A8
330
7B
100
AcDbEntity
  8
0
  6
Continuous
 62
     0
370
    30
100
AcDbCircle
 10
347.897916
 20
402.592831
 30
0.0
 40
2.00009045522497
100
AcDbArc
 50
270.010694
 51
359.997409
  0
ARC
  5
A9
330
7B
100
AcDbEntity
  8
0
  6
Continuous
 62
     0
370
    30
100
AcDbCircle
 10
276.898097
 20
402.592832
 30
0.0
 40
2.000090455224996
100
AcDbArc
 50
180.002591
 51
269.989306
  0
SPLINE
  5
AA
330
7B
100
AcDbEntity
  8
0
  6
Continuous
 62
     0
370
    30
100
AcDbSpline
210
0.0
220
0.0
230
1.0
 70
     8
 71
     3
 72
    41
 73
    37
 74
     0
 42
0.000000001
 43
0.0
 40
0.0
 40
0.0
 40
0.0
 40
0.0
 40
0.7517135547013469
 40
2.45750652525811
 40
4.674451454784331
 40
6.114398978006041
 40
8.774118469538989
 40
10.2011432190255
 40
11.9952430306532
 40
12.9139947483793
 40
13.8355440356664
 40
14.5747368735792
 40
15.1354019317575
 40
15.516591962071
 40
15.7073031282622
 40
16.0889383302541
 40
17.2354474984759
 40
18.0010137390522
 40
20.2894140128833
 40
21.43584847082
 40
23.4404493329203
 40
26.0133448229858
 40
28.5866485693393
 40
30.7287310931195
 40
32.0121931638116
 40
33.2939987136623
 40
34.5737526061442
 40
35.8510543160382
 40
37.1254983382297
 40
37.443607441946
 40
37.9202636926428
 40
38.5547695859632
 40
39.89487008374989
 40
40.3598578118026
 40
40.9400878287858
 40
41.23906546792669
 40
41.23906546792669
 40
41.23906546792669
 40
41.23906546792669
 10
312.3980066847514
 20
356.6779241013808
 30
0.0
 10
312.1474942667252
 20
356.6779240877984
 30
0.0
 10
311.3282000196288
 20
356.7087615518273
 30
0.0
 10
309.7846838480017
 20
356.961543475326
 30
0.0
 10
308.104602501174
 20
357.606774114562
 30
0.0
 10
306.3155546401112
 20
358.7289480199178
 30
0.0
 10
304.9902067498716
 20
360.0344178014494
 30
0.0
 10
303.9150119042647
 20
361.6800858714425
 30
0.0
 10
303.3592928355409
 20
362.9495274458674
 30
0.0
 10
303.0293839516391
 20
364.1165570130936
 30
0.0
 10
302.8720999561568
 20
364.962818514175
 30
0.0
 10
302.7969752998646
 20
365.6999455081852
 30
0.0
 10
302.7752131245419
 20
366.260119341975
 30
0.0
 10
302.7788355243867
 20
366.6376641089443
 30
0.0
 10
302.7808280992796
 20
366.9554984942199
 30
0.0
 10
302.7850124506058
 20
367.5284381189469
 30
0.0
 10
302.7910998685757
 20
368.2929822046828
 30
0.0
 10
302.8033772555511
 20
369.6930876634513
 30
0.0
 10
302.816619726859
 20
371.0931584380891
 30
0.0
 10
302.8324315894238
 20
372.9062349419393
 30
0.0
 10
302.846669619215
 20
374.8141593424317
 30
0.0
 10
302.8561613912073
 20
377.1977507151038
 30
0.0
 10
302.8498601357729
 20
379.6271812444925
 30
0.0
 10
302.8362937362497
 20
381.6267531892907
 30
0.0
 10
302.823084280518
 20
383.1958142667295
 30
0.0
 10
302.8114144211297
 20
384.4774357606666
 30
0.0
 10
302.7998542384329
 20
385.7570010640337
 30
0.0
 10
302.7884582157043
 20
387.0341274056516
 30
0.0
 10
302.7826514564661
 20
387.9907016415555
 30
0.0
 10
302.7765392219467
 20
388.6804504187477
 30
0.0
 10
302.7912003731246
 20
389.1567975614159
 30
0.0
 10
302.8602901710441
 20
389.9713487155068
 30
0.0
 10
303.0077257364101
 20
390.7729145960496
 30
0.0
 10
303.2215440440259
 20
391.5389628787249
 30
0.0
 10
303.3645927930278
 20
391.9637850037394
 30
0.0
 10
303.4704165889063
 20
392.237119841722
 30
0.0
 10
303.5078079609694
 20
392.329499283414
 30
0.0
  0
SPLINE
  5
AB
330
7B
100
AcDbEntity
  8
0
  6
Continuous
 62
     0
370
    30
100
AcDbSpline
210
0.0
220
0.0
230
1.0
 70
     8
 71
     3
 72
    41
 73
    37
 74
     0
 42
0.000000001
 43
0.0
 40
11.3769513229591
 40
11.3769513229591
 40
11.3769513229591
 40
11.3769513229591
 40
11.6759091176335
 40
12.2561346086104
 40
12.7211187028709
 40
14.0612213420757
 40
14.6957295156982
 40
15.1723874844394
 40
15.4904977392205
 40
16.7649463927869
 40
18.0422527601611
 40
19.3220113317474
 40
20.6038215778447
 40
21.8872883575695
 40
24.0293787694158
 40
26.6026920267828
 40
29.1755970023878
 40
31.1802052851939
 40
32.3266439961058
 40
34.6150527113963
 40
35.3806218184106
 40
36.52713526088591
 40
36.90877188031881
 40
37.0994837537839
 40
37.4806751884839
 40
38.0413406916683
 40
38.7805330221115
 40
39.7020816682886
 40
40.6208327458485
 40
42.4149317458436
 40
43.8419560359339
 40
46.5016756406082
 40
47.9416235966314
 40
50.1585524899159
 40
51.86431577661669
 40
52.6160161694094
 40
52.6160161694094
 40
52.6160161694094
 40
52.6160161694094
 10
321.288204794787
 20
392.3294992843662
 30
0.0
 10
321.325593685041
 20
392.2371259743157
 30
0.0
 10
321.4314148221328
 20
391.9637988239322
 30
0.0
 10
321.5744615400798
 20
391.5389858719013
 30
0.0
 10
321.7882813175468
 20
390.7729400874806
 30
0.0
 10
321.9357191078157
 20
389.9713743346482
 30
0.0
 10
322.0048109761204
 20
389.1568213053451
 30
0.0
 10
322.0194733868974
 20
388.6804724764343
 30
0.0
 10
322.0133617259966
 20
387.9907211910676
 30
0.0
 10
322.0075545580847
 20
387.0341434807497
 30
0.0
 10
321.9961586503738
 20
385.7570124812082
 30
0.0
 10
321.9845983873932
 20
384.4774425009555
 30
0.0
 10
321.9729284929262
 20
383.1958163122978
 30
0.0
 10
321.9597189847096
 20
381.6267494706669
 30
0.0
 10
321.9461525484244
 20
379.6271701565257
 30
0.0
 10
321.9398513561655
 20
377.1977306652667
 30
0.0
 10
321.9493432965351
 20
374.8141304873797
 30
0.0
 10
321.9635814516241
 20
372.9061990345886
 30
0.0
 10
321.9793934153202
 20
371.093115826314
 30
0.0
 10
321.9926359474784
 20
369.6930398650952
 30
0.0
 10
322.0049133164823
 20
368.2929292118324
 30
0.0
 10
322.0110007762039
 20
367.5283822739144
 30
0.0
 10
322.0151850106117
 20
366.9554405147762
 30
0.0
 10
322.0171777154757
 20
366.6376049549085
 30
0.0
 10
322.0207989179029
 20
366.2600593203725
 30
0.0
 10
321.9990330145985
 20
365.6998851627222
 30
0.0
 10
321.9239041646537
 20
364.9627588505226
 30
0.0
 10
321.7666151851006
 20
364.1164988713415
 30
0.0
 10
321.4366995607447
 20
362.9494719409944
 30
0.0
 10
320.8809731396083
 20
361.680034276534
 30
0.0
 10
319.8057685873896
 20
360.0343730081234
 30
0.0
 10
318.4804126855252
 20
358.7289113004341
 30
0.0
 10
316.6913622972569
 20
357.6067511676717
 30
0.0
 10
315.0112919023057
 20
356.9615349260576
 30
0.0
 10
313.4677946752623
 20
356.7087605418603
 30
0.0
 10
312.6485147185949
 20
356.6779241033922
 30
0.0
 10
312.3980066847514
 20
356.6779241013808
 30
0.0
  0
SPLINE
  5
AC
330
7B
100
AcDbEntity
  8
0
  6
Continuous
 62
     0
370
    30
100
AcDbSpline
210
0.0
220
0.0
230
1.0
 70
     8
 71
     3
 72
    28
 73
    24
 74
     0
 42
0.000000001
 43
0.0
 40
0.0
 40
0.0
 40
0.0
 40
0.0
 40
2.589004235568434
 40
5.184019533207085
 40
6.484053781650754
 40
7.785707716210307
 40
8.111391615033199
 40
8.762331543492317
 40
9.087203524861758
 40
9.412114950576393
 40
10.06193371504666
 40
10.71156750527624
 40
11.36099523999417
 40
12.33465863883924
 40
13.95563498437562
 40
15.57352170720164
 40
18.15343799178806
 40
19.43849816358593
 40
21.45223138573037
 40
23.39655480507178
 40
24.36257068175224
 40
25.61749940481985
 40
26.56568861307317
 40
26.56568861307317
 40
26.56568861307317
 40
26.56568861307317
 10
303.4812628843646
 20
399.4927236945253
 30
0.0
 10
303.4845021348858
 20
398.629729776937
 30
0.0
 10
303.4909531234957
 20
396.9017387418574
 30
0.0
 10
303.4989486735479
 20
394.7404041586555
 30
0.0
 10
303.5053195921449
 20
393.008188689786
 30
0.0
 10
303.5088984539742
 20
392.0323975516907
 30
0.0
 10
303.5116746943131
 20
391.2729917806551
 30
0.0
 10
303.5132814582813
 20
390.8391119849582
 30
0.0
 10
303.5147270123147
 20
390.4056999554913
 30
0.0
 10
303.5160349343686
 20
389.9732263035726
 30
0.0
 10
303.517458630885
 20
389.4339971246026
 30
0.0
 10
303.5188002893505
 20
388.7908591813664
 30
0.0
 10
303.5199412338928
 20
388.0470799538463
 30
0.0
 10
303.5208061939319
 20
386.9997818117398
 30
0.0
 10
303.5203365436948
 20
385.6796918930788
 30
0.0
 10
303.5169563518756
 20
383.9528081837009
 30
0.0
 10
303.5105037558433
 20
382.4763450448335
 30
0.0
 10
303.5006184758352
 20
381.0888047844691
 30
0.0
 10
303.4897135997851
 20
380.0154203839328
 30
0.0
 10
303.4775207629654
 20
379.2221995507342
 30
0.0
 10
303.4668355747142
 20
378.7188106118119
 30
0.0
 10
303.4591012687693
 20
378.4484406719908
 30
0.0
 10
303.4556711528301
 20
378.3688733302586
 30
0.0
 10
303.4556641793525
 20
378.3689689927483
 30
0.0
  0
SPLINE
  5
AD
330
7B
100
AcDbEntity
  8
0
  6
Continuous
 62
     0
370
    30
100
AcDbSpline
210
0.0
220
0.0
230
1.0
 70
     8
 71
     3
 72
    28
 73
    24
 74
     0
 42
0.000000001
 43
0.0
 40
0.0
 40
0.0
 40
0.0
 40
0.0
 40
2.58900377405597
 40
5.184018495198613
 40
6.484052448302855
 40
7.785706101397498
 40
8.111389912701801
 40
8.762330332847883
 40
9.087202432271093
 40
9.412113826421006
 40
10.06193259547288
 40
10.71156643740392
 40
11.36099424577017
 40
12.33465779451684
 40
13.95563449663045
 40
15.57352170758189
 40
18.15343901115203
 40
19.43849979799927
 40
21.4522342237079
 40
23.39655955698621
 40
24.36257653826424
 40
25.61752911242547
 40
26.56582573588744
 40
26.56582573588744
 40
26.56582573588744
 40
26.56582573588744
 10
321.314750699395
 20
399.4929430950621
 30
0.0
 10
321.3115114461763
 20
398.6299493313165
 30
0.0
 10
321.3050604531017
 20
396.9019586415217
 30
0.0
 10
321.2970648969451
 20
394.7406245054808
 30
0.0
 10
321.2906939778192
 20
393.008409415591
 30
0.0
 10
321.2871151086542
 20
392.0326185114126
 30
0.0
 10
321.2843388755147
 20
391.2732126803278
 30
0.0
 10
321.2827320945346
 20
390.8393327824364
 30
0.0
 10
321.2812864419059
 20
390.4059202885511
 30
0.0
 10
321.2799784409975
 20
389.9734461829774
 30
0.0
 10
321.2785546431429
 20
389.4342161702126
 30
0.0
 10
321.2772128608809
 20
388.7910766268515
 30
0.0
 10
321.2760717711663
 20
388.0472948849294
 30
0.0
 10
321.275206602651
 20
386.9999919973416
 30
0.0
 10
321.2756759822025
 20
385.6798936128598
 30
0.0
 10
321.2790558069893
 20
383.9529944011401
 30
0.0
 10
321.2855080741793
 20
382.4765124227832
 30
0.0
 10
321.2953930356677
 20
381.0889481668546
 30
0.0
 10
321.3062976621463
 20
380.0155401118991
 30
0.0
 10
321.3184903387656
 20
379.2222925699407
 30
0.0
 10
321.3291756051717
 20
378.7188741010598
 30
0.0
 10
321.3369104405677
 20
378.4484694465448
 30
0.0
 10
321.3403412766439
 20
378.3688798875691
 30
0.0
 10
321.340348572653
 20
378.3689691002487
 30
0.0
  0
ENDBLK
  5
AF
330
7B
100
AcDbEntity
  8
0
100
AcDbBlockEnd
  0
BLOCK
  5
CE
330
B1
100
AcDbEntity
  8
0
100
AcDbBlockBegin
  2
b
 70
     0
 10
220.550446
 20
129.103271
 30
0.0
  3
b
  1

  0
ELLIPSE
  5
B2
330
B1
100
AcDbEntity
  8
0
  6
Continuous
 62
     0
370
    30
100
AcDbEllipse
 10
312.398003
 20
129.715596
 30
0.0
 11
-3.4
 21
2.346911602910570E-9
 31
0.0
210
0.0
220
0.0
230
1.0
 40
0.258819
 41
0.0000000000000036
 42
2.428257293902841
  0
ELLIPSE
  5
B3
330
B1
100
AcDbEntity
  8
0
  6
Continuous
 62
     0
370
    30
100
AcDbEllipse
 10
312.398003
 20
129.715596
 30
0.0
 11
-3.4
 21
2.346911602910570E-9
 31
0.0
210
0.0
220
0.0
230
1.0
 40
0.258819
 41
2.428257293902841
 42
3.141592653589797
  0
ELLIPSE
  5
B4
330
B1
100
AcDbEntity
  8
0
  6
Continuous
 62
     0
370
    30
100
AcDbEllipse
 10
312.398003
 20
129.522411
 30
0.0
 11
-3.199999997019768
 21
2.208857977152789E-9
 31
0.0
210
0.0
220
0.0
230
1.0
 40
0.258819
 41
0.2712637478327773
 42
2.428257293902836
  0
ELLIPSE
  5
B5
330
B1
100
AcDbEntity
  8
0
  6
Continuous
 62
     0
370
    30
100
AcDbEllipse
 10
312.398003
 20
129.522411
 30
0.0
 11
-3.199999997019768
 21
2.208857977152789E-9
 31
0.0
210
0.0
220
0.0
230
1.0
 40
0.258819
 41
2.428257293902836
 42
2.870328905757079
  0
LINE
  5
B6
330
B1
100
AcDbEntity
  8
0
  6
Continuous
 62
     0
370
    30
100
AcDbLine
 10
309.122331
 20
129.479805
 30
0.0
 11
309.315017
 21
129.30049
 31
0.0
  0
LINE
  5
B7
330
B1
100
AcDbEntity
  8
0
  6
Continuous
 62
     0
370
    30
100
AcDbLine
 10
315.673676
 20
129.479805
 30
0.0
 11
315.480989
 21
129.30049
 31
0.0
  0
LINE
  5
B8
330
B1
100
AcDbEntity
  8
0
  6
Continuous
 62
     0
370
    30
100
AcDbLine
 10
315.798003
 20
129.715596
 30
0.0
 11
315.798003
 21
180.547637
 31
0.0
  0
LINE
  5
B9
330
B1
100
AcDbEntity
  8
0
  6
Continuous
 62
     0
370
    30
100
AcDbLine
 10
308.998003
 20
129.715596
 30
0.0
 11
308.998003
 21
180.547639
 31
0.0
  0
CIRCLE
  5
BA
330
B1
100
AcDbEntity
  8
0
  6
Continuous
 62
     0
370
     0
100
AcDbCircle
 10
312.398007
 20
190.903795
 30
0.0
 40
10.4
  0
CIRCLE
  5
BB
330
B1
100
AcDbEntity
  8
0
  6
Continuous
 62
     0
370
    30
100
AcDbCircle
 10
312.398007
 20
190.903795
 30
0.0
 40
10.9
  0
ARC
  5
BC
330
B1
100
AcDbEntity
  8
0
  6
Continuous
 62
     0
370
    30
100
AcDbCircle
 10
312.398007
 20
190.903797
 30
0.0
 40
16.5
100
AcDbArc
 50
281.891579
 51
360.0
  0
ARC
  5
BD
330
B1
100
AcDbEntity
  8
0
  6
Continuous
 62
     0
370
    30
100
AcDbCircle
 10
312.398007
 20
190.903797
 30
0.0
 40
16.5
100
AcDbArc
 50
0.0
 51
258.108393
  0
ARC
  5
BE
330
B1
100
AcDbEntity
  8
0
  6
Continuous
 62
     0
370
     0
100
AcDbCircle
 10
312.398007
 20
190.903797
 30
0.0
 40
16.0
100
AcDbArc
 50
282.268884
 51
360.0
  0
ARC
  5
BF
330
B1
100
AcDbEntity
  8
0
  6
Continuous
 62
     0
370
     0
100
AcDbCircle
 10
312.398007
 20
190.903797
 30
0.0
 40
16.0
100
AcDbArc
 50
0.0
 51
257.731086
  0
ARC
  5
C0
330
B1
100
AcDbEntity
  8
0
  6
Continuous
 62
     0
370
    30
100
AcDbCircle
 10
312.398007
 20
190.903799
 30
0.0
 40
37.49999999999393
100
AcDbArc
 50
275.201955
 51
316.402523
  0
ARC
  5
C1
330
B1
100
AcDbEntity
  8
0
  6
Continuous
 62
     0
370
    30
100
AcDbCircle
 10
312.398007
 20
190.903799
 30
0.0
 40
37.49999999999422
100
AcDbArc
 50
136.402523
 51
264.798033
  0
ARC
  5
C2
330
B1
100
AcDbEntity
  8
0
  6
Continuous
 62
     0
370
    30
100
AcDbCircle
 10
312.398007
 20
190.903799
 30
0.0
 40
37.49999999999419
100
AcDbArc
 50
316.402523
 51
136.402523
  0
ARC
  5
C3
330
B1
100
AcDbEntity
  8
0
  6
Continuous
 62
     0
370
     0
100
AcDbCircle
 10
312.398007
 20
190.903799
 30
0.0
 40
35.49999999999436
100
AcDbArc
 50
275.495901
 51
316.402523
  0
ARC
  5
C4
330
B1
100
AcDbEntity
  8
0
  6
Continuous
 62
     0
370
     0
100
AcDbCircle
 10
312.398007
 20
190.903799
 30
0.0
 40
35.49999999999412
100
AcDbArc
 50
136.402523
 51
264.504087
  0
ARC
  5
C5
330
B1
100
AcDbEntity
  8
0
  6
Continuous
 62
     0
370
     0
100
AcDbCircle
 10
312.398007
 20
190.903799
 30
0.0
 40
35.49999999999412
100
AcDbArc
 50
316.402523
 51
136.402523
  0
LINE
  5
C6
330
B1
100
AcDbEntity
  8
0
  6
Continuous
 62
     0
370
    30
100
AcDbLine
 10
302.778421
 20
254.896915
 30
0.0
 11
312.398006
 21
254.896915
 31
0.0
  0
LINE
  5
C7
330
B1
100
AcDbEntity
  8
0
  6
Continuous
 62
     0
370
    30
100
AcDbLine
 10
312.398006
 20
254.896915
 30
0.0
 11
322.017592
 21
254.896915
 31
0.0
  0
SPLINE
  5
C8
330
B1
100
AcDbEntity
  8
0
  6
Continuous
 62
     0
370
    30
100
AcDbSpline
210
0.0
220
0.0
230
1.0
 70
     8
 71
     3
 72
    13
 73
     9
 74
     0
 42
0.000000001
 43
0.0
 40
0.0
 40
0.0
 40
0.0
 40
0.0
 40
1.690000925994249
 40
3.374315798651555
 40
4.10143703607657
 40
4.905368580519989
 40
5.709300150855597
 40
6.220755859323437
 40
6.220755859323437
 40
6.220755859323437
 40
6.220755859323437
 10
302.7783806355286
 20
254.8969143328501
 30
0.0
 10
302.7927149740913
 20
254.3387177871286
 30
0.0
 10
302.8244454710176
 20
253.1956281597377
 30
0.0
 10
302.8628756161384
 20
251.9467891919608
 30
0.0
 10
302.904788228298
 20
250.6942375665278
 30
0.0
 10
302.896138439098
 20
250.9527344662614
 30
0.0
 10
302.8981364747026
 20
250.8930231154506
 30
0.0
 10
302.8982902520953
 20
250.8884272275582
 30
0.0
 10
302.8982738794874
 20
250.8889164119902
 30
0.0
  0
LINE
  5
C9
330
B1
100
AcDbEntity
  8
0
  6
Continuous
 62
     0
370
    30
100
AcDbLine
 10
302.898003
 20
250.897164
 30
0.0
 11
303.158371
 21
227.247706
 31
0.0
  0
SPLINE
  5
CA
330
B1
100
AcDbEntity
  8
0
  6
Continuous
 62
     0
370
    30
100
AcDbSpline
210
0.0
220
0.0
230
1.0
 70
     8
 71
     3
 72
     9
 73
     5
 74
     0
 42
0.000000001
 43
0.0
 40
4.975504703146868
 40
4.975504703146868
 40
4.975504703146868
 40
4.975504703146868
 40
5.720650464736135
 40
6.219423241707193
 40
6.219423241707193
 40
6.219423241707193
 40
6.219423241707193
 10
302.8977892288805
 20
250.9033890296456
 30
0.0
 10
302.8969925416519
 20
250.9271670671348
 30
0.0
 10
302.8981332827035
 20
250.8931201999397
 30
0.0
 10
302.898290534197
 20
250.8884267470972
 30
0.0
 10
302.8982781554542
 20
250.8887961687716
 30
0.0
  0
SPLINE
  5
CB
330
B1
100
AcDbEntity
  8
0
  6
Continuous
 62
     0
370
    30
100
AcDbSpline
210
0.0
220
0.0
230
1.0
 70
     8
 71
     3
 72
    13
 73
     9
 74
     0
 42
0.000000001
 43
0.0
 40
0.0
 40
0.0
 40
0.0
 40
0.0
 40
1.690000946401103
 40
3.374315839295523
 40
4.101437162856509
 40
4.905368695888392
 40
5.709300254907888
 40
6.220755903431148
 40
6.220755903431148
 40
6.220755903431148
 40
6.220755903431148
 10
322.01763212068
 20
254.8969143332229
 30
0.0
 10
322.0032977819174
 20
254.3387177807656
 30
0.0
 10
321.9715672842316
 20
253.1956281310561
 30
0.0
 10
321.9331371388542
 20
251.9467891557954
 30
0.0
 10
321.8912245229455
 20
250.6942374272448
 30
0.0
 10
321.8998743124916
 20
250.9527343356173
 30
0.0
 10
321.8978762772221
 20
250.8930229964968
 30
0.0
 10
321.8977224998281
 20
250.8884271089259
 30
0.0
 10
321.8977388724234
 20
250.8889162931095
 30
0.0
  0
LINE
  5
CC
330
B1
100
AcDbEntity
  8
0
  6
Continuous
 62
     0
370
    30
100
AcDbLine
 10
321.898009
 20
250.897164
 30
0.0
 11
321.637642
 21
227.247706
 31
0.0
  0
SPLINE
  5
CD
330
B1
100
AcDbEntity
  8
0
  6
Continuous
 62
     0
370
    30
100
AcDbSpline
210
0.0
220
0.0
230
1.0
 70
     8
 71
     3
 72
     9
 73
     5
 74
     0
 42
0.000000001
 43
0.0
 40
4.975504671741446
 40
4.975504671741446
 40
4.975504671741446
 40
4.975504671741446
 40
5.720650320442854
 40
6.219423202268826
 40
6.219423202268826
 40
6.219423202268826
 40
6.219423202268826
 10
321.8982235240733
 20
250.9033891684807
 30
0.0
 10
321.8990202106878
 20
250.9271671876039
 30
0.0
 10
321.8978794696265
 20
250.8931203192924
 30
0.0
 10
321.8977222181927
 20
250.888426867979
 30
0.0
 10
321.8977345969651
 20
250.8887962904418
 30
0.0
  0
ENDBLK
  5
CF
330
B1
100
AcDbEntity
  8
0
100
AcDbBlockEnd
  0
BLOCK
  5
104
330
D1
100
AcDbEntity
  8
0
100
AcDbBlockBegin
  2
c
 70
     0
 10
266.13858
 20
50.39682
 30
0.0
  3
c
  1

  0
LINE
  5
D2
330
D1
100
AcDbEntity
  8
0
  6
Continuous
 62
     0
370
    30
100
AcDbLine
 10
598.058168
 20
542.510441
 30
0.0
 11
599.818138
 21
549.078737
 31
0.0
  0
LINE
  5
D3
330
D1
100
AcDbEntity
  8
0
  6
Continuous
 62
     0
370
    30
100
AcDbLine
 10
598.303117
 20
542.651862
 30
0.0
 11
599.959559
 21
548.833788
 31
0.0
  0
LINE
  5
D4
330
D1
100
AcDbEntity
  8
0
  6
Continuous
 62
     0
370
    30
100
AcDbLine
 10
598.058168
 20
542.510441
 30
0.0
 11
598.303117
 21
542.651862
 31
0.0
  0
LINE
  5
D5
330
D1
100
AcDbEntity
  8
0
  6
Continuous
 62
     0
370
    30
100
AcDbLine
 10
599.818138
 20
549.078737
 30
0.0
 11
599.959559
 21
548.833788
 31
0.0
  0
LINE
  5
D6
330
D1
100
AcDbEntity
  8
0
  6
Continuous
 62
     0
370
    30
100
AcDbLine
 10
598.058168
 20
542.510441
 30
0.0
 11
548.618239
 21
555.75783
 31
0.0
  0
LINE
  5
D7
330
D1
100
AcDbEntity
  8
0
  6
Continuous
 62
     0
370
    30
100
AcDbLine
 10
599.818138
 20
549.078737
 30
0.0
 11
548.618019
 21
562.797767
 31
0.0
  0
LINE
  5
D8
330
D1
100
AcDbEntity
  8
0
  6
Continuous
 62
     0
370
    30
100
AcDbLine
 10
548.649953
 20
539.692741
 30
0.0
 11
526.849953
 21
539.692741
 31
0.0
  0
SPLINE
  5
D9
330
D1
100
AcDbEntity
  8
0
  6
Continuous
 62
     0
370
    30
100
AcDbSpline
210
0.0
220
0.0
230
1.0
 70
     8
 71
     3
 72
    21
 73
    17
 74
     0
 42
0.000000001
 43
0.0
 40
0.0
 40
0.0
 40
0.0
 40
0.0
 40
0.6075194871219893
 40
1.47030145277639
 40
2.424469508734763
 40
3.334971744267202
 40
4.131313639141621
 40
5.064221100363861
 40
5.88789176527562
 40
6.679604541016195
 40
7.383095746839746
 40
8.096312410521081
 40
8.816181754980851
 40
9.60307037206172
 40
11.04506745554094
 40
11.2658033122338
 40
11.2658033122338
 40
11.2658033122338
 40
11.2658033122338
 10
548.6499531996621
 20
555.6458077708198
 30
0.0
 10
548.6499532084993
 20
555.6458077708198
 30
0.0
 10
548.636150699838
 20
555.6937704436242
 30
0.0
 10
548.5621102221131
 20
555.9573527420255
 30
0.0
 10
548.4311148442116
 20
556.469324929569
 30
0.0
 10
548.2897799862366
 20
557.1310931958648
 30
0.0
 10
548.165820514485
 20
557.8961645598979
 30
0.0
 10
548.0843444145773
 20
558.7127626783664
 30
0.0
 10
548.063543935579
 20
559.5653641714006
 30
0.0
 10
548.1025487829365
 20
560.3341149491912
 30
0.0
 10
548.185626474109
 20
561.0223339605577
 30
0.0
 10
548.2950217512002
 20
561.6184739123123
 30
0.0
 10
548.4196167680371
 20
562.1389974051809
 30
0.0
 10
548.5715438288765
 20
562.6661439143174
 30
0.0
 10
548.6445867217129
 20
562.8762579937828
 30
0.0
 10
548.6499151855727
 20
562.892731491424
 30
0.0
 10
548.6498679944174
 20
562.8927100466242
 30
0.0
  0
LINE
  5
DA
330
D1
100
AcDbEntity
  8
0
  6
Continuous
 62
     0
370
    30
100
AcDbLine
 10
548.149953
 20
566.892741
 30
0.0
 11
527.349953
 21
566.892741
 31
0.0
  0
LINE
  5
DB
330
D1
100
AcDbEntity
  8
0
  6
Continuous
 62
     0
370
     0
100
AcDbLine
 10
548.649953
 20
566.392741
 30
0.0
 11
526.849953
 21
566.392741
 31
0.0
  0
LINE
  5
DC
330
D1
100
AcDbEntity
  8
0
  6
Continuous
 62
     0
370
    30
100
AcDbLine
 10
526.849953
 20
566.392741
 30
0.0
 11
526.849953
 21
539.692741
 31
0.0
  0
ARC
  5
DD
330
D1
100
AcDbEntity
  8
0
  6
Continuous
 62
     0
370
    30
100
AcDbCircle
 10
527.349953
 20
566.392741
 30
0.0
 40
0.5
100
AcDbArc
 50
90.0
 51
180.0
  0
ARC
  5
DE
330
D1
100
AcDbEntity
  8
0
  6
Continuous
 62
     0
370
    30
100
AcDbCircle
 10
548.149953
 20
566.392741
 30
0.0
 40
0.5
100
AcDbArc
 50
0.0
 51
90.0
  0
LINE
  5
DF
330
D1
100
AcDbEntity
  8
0
  6
Continuous
 62
     0
370
    30
100
AcDbLine
 10
548.649953
 20
566.392741
 30
0.0
 11
548.649953
 21
562.892685
 31
0.0
  0
LINE
  5
E0
330
D1
100
AcDbEntity
  8
0
  6
Continuous
 62
     0
370
    30
100
AcDbLine
 10
548.649953
 20
555.645808
 30
0.0
 11
548.649953
 21
539.692741
 31
0.0
  0
LINE
  5
E1
330
D1
100
AcDbEntity
  8
0
  6
Continuous
 62
     0
370
     0
100
AcDbLine
 10
528.849953
 20
529.092741
 30
0.0
 11
546.649953
 21
529.092741
 31
0.0
  0
LINE
  5
E2
330
D1
100
AcDbEntity
  8
0
  6
Continuous
 62
     0
370
     0
100
AcDbLine
 10
521.249953
 20
528.092741
 30
0.0
 11
554.249953
 21
528.092741
 31
0.0
  0
LINE
  5
E3
330
D1
100
AcDbEntity
  8
0
  6
Continuous
 62
     0
370
    30
100
AcDbLine
 10
521.749953
 20
528.592741
 30
0.0
 11
553.749953
 21
528.592741
 31
0.0
  0
ARC
  5
E4
330
D1
100
AcDbEntity
  8
0
  6
Continuous
 62
     0
370
    30
100
AcDbCircle
 10
521.749953
 20
528.092741
 30
0.0
 40
0.5
100
AcDbArc
 50
90.0
 51
180.0
  0
ARC
  5
E5
330
D1
100
AcDbEntity
  8
0
  6
Continuous
 62
     0
370
    30
100
AcDbCircle
 10
553.749953
 20
528.092741
 30
0.0
 40
0.5
100
AcDbArc
 50
0.0
 51
90.0
  0
ARC
  5
E6
330
D1
100
AcDbEntity
  8
0
  6
Continuous
 62
     0
370
    30
100
AcDbCircle
 10
528.349953
 20
529.092741
 30
0.0
 40
0.5
100
AcDbArc
 50
270.0
 51
360.0
  0
ARC
  5
E7
330
D1
100
AcDbEntity
  8
0
  6
Continuous
 62
     0
370
    30
100
AcDbCircle
 10
547.149953
 20
529.092741
 30
0.0
 40
0.5
100
AcDbArc
 50
180.0
 51
270.0
  0
LINE
  5
E8
330
D1
100
AcDbEntity
  8
0
  6
Continuous
 62
     0
370
    30
100
AcDbLine
 10
528.849953
 20
529.092741
 30
0.0
 11
528.849953
 21
539.692741
 31
0.0
  0
LINE
  5
E9
330
D1
100
AcDbEntity
  8
0
  6
Continuous
 62
     0
370
    30
100
AcDbLine
 10
546.649953
 20
529.092741
 30
0.0
 11
546.649953
 21
539.692741
 31
0.0
  0
LINE
  5
EA
330
D1
100
AcDbEntity
  8
0
  6
Continuous
 62
     0
370
    30
100
AcDbLine
 10
521.249953
 20
508.592741
 30
0.0
 11
521.249953
 21
528.092741
 31
0.0
  0
LINE
  5
EB
330
D1
100
AcDbEntity
  8
0
  6
Continuous
 62
     0
370
    30
100
AcDbLine
 10
554.249953
 20
508.592741
 30
0.0
 11
554.249953
 21
528.092741
 31
0.0
  0
LINE
  5
EC
330
D1
100
AcDbEntity
  8
0
  6
Continuous
 62
     0
370
    30
100
AcDbLine
 10
519.249952
 20
399.492741
 30
0.0
 11
520.785881
 21
399.492741
 31
0.0
  0
LINE
  5
ED
330
D1
100
AcDbEntity
  8
0
  6
Continuous
 62
     0
370
    30
100
AcDbLine
 10
520.785881
 20
399.492741
 30
0.0
 11
556.249952
 21
399.492741
 31
0.0
  0
ARC
  5
EE
330
D1
100
AcDbEntity
  8
0
  6
Continuous
 62
     0
370
    30
100
AcDbCircle
 10
556.249952
 20
400.992741
 30
0.0
 40
1.5
100
AcDbArc
 50
270.0
 51
344.533995
  0
ARC
  5
EF
330
D1
100
AcDbEntity
  8
0
  6
Continuous
 62
     0
370
    30
100
AcDbCircle
 10
519.249952
 20
400.992741
 30
0.0
 40
1.5
100
AcDbArc
 50
195.466005
 51
270.0
  0
LINE
  5
F0
330
D1
100
AcDbEntity
  8
0
  6
Continuous
 62
     0
370
    30
100
AcDbLine
 10
513.269591
 20
400.592741
 30
0.0
 11
573.249952
 21
400.592741
 31
0.0
  0
LINE
  5
F1
330
D1
100
AcDbEntity
  8
0
  6
Continuous
 62
     0
370
    30
100
AcDbLine
 10
502.249952
 20
400.592741
 30
0.0
 11
513.269591
 21
400.592741
 31
0.0
  0
LINE
  5
F2
330
D1
100
AcDbEntity
  8
0
  6
Continuous
 62
     0
370
     0
100
AcDbLine
 10
511.890416
 20
402.592741
 30
0.0
 11
575.249952
 21
402.592741
 31
0.0
  0
LINE
  5
F3
330
D1
100
AcDbEntity
  8
0
  6
Continuous
 62
     0
370
     0
100
AcDbLine
 10
500.249952
 20
402.592741
 30
0.0
 11
511.890416
 21
402.592741
 31
0.0
  0
LINE
  5
F4
330
D1
100
AcDbEntity
  8
0
  6
Continuous
 62
     0
370
     0
100
AcDbLine
 10
511.890416
 20
506.592741
 30
0.0
 11
575.249952
 21
506.592741
 31
0.0
  0
LINE
  5
F5
330
D1
100
AcDbEntity
  8
0
  6
Continuous
 62
     0
370
     0
100
AcDbLine
 10
500.249952
 20
506.592741
 30
0.0
 11
511.890416
 21
506.592741
 31
0.0
  0
LINE
  5
F6
330
D1
100
AcDbEntity
  8
0
  6
Continuous
 62
     0
370
    30
100
AcDbLine
 10
513.269591
 20
508.592741
 30
0.0
 11
573.249952
 21
508.592741
 31
0.0
  0
LINE
  5
F7
330
D1
100
AcDbEntity
  8
0
  6
Continuous
 62
     0
370
    30
100
AcDbLine
 10
502.249952
 20
508.592741
 30
0.0
 11
513.269591
 21
508.592741
 31
0.0
  0
ARC
  5
F8
330
D1
100
AcDbEntity
  8
0
  6
Continuous
 62
     0
370
    30
100
AcDbCircle
 10
502.250042
 20
506.592651
 30
0.0
 40
2.000090101176721
100
AcDbArc
 50
90.002581
 51
179.997419
  0
ARC
  5
F9
330
D1
100
AcDbEntity
  8
0
  6
Continuous
 62
     0
370
    30
100
AcDbCircle
 10
573.249862
 20
506.592651
 30
0.0
 40
2.000090101179131
100
AcDbArc
 50
0.002581
 51
89.997419
  0
LINE
  5
FA
330
D1
100
AcDbEntity
  8
0
  6
Continuous
 62
     0
370
    30
100
AcDbLine
 10
500.249952
 20
402.592741
 30
0.0
 11
500.249952
 21
506.592741
 31
0.0
  0
LINE
  5
FB
330
D1
100
AcDbEntity
  8
0
  6
Continuous
 62
     0
370
    30
100
AcDbLine
 10
575.249952
 20
402.592741
 30
0.0
 11
575.249952
 21
506.592741
 31
0.0
  0
SPLINE
  5
FC
330
D1
100
AcDbEntity
  8
0
  6
Continuous
 62
     0
370
    30
100
AcDbSpline
210
0.0
220
0.0
230
1.0
 70
     8
 71
     3
 72
    22
 73
    18
 74
     0
 42
0.000000001
 43
0.0
 40
0.0
 40
0.0
 40
0.0
 40
0.0
 40
0.0872646272571719
 40
0.1760347706884515
 40
0.2662600666552261
 40
0.3578825723895743
 40
0.4509491707398058
 40
0.5452770494045329
 40
0.640785059501816
 40
0.8349801002294985
 40
1.032742886020274
 40
1.233183515145582
 40
1.638177346731023
 40
1.840672233947962
 40
2.141521693722565
 40
2.532256131539757
 40
3.141011064032448
 40
3.141011064032448
 40
3.141011064032448
 40
3.141011064032448
 10
502.2496691030596
 20
400.5927410536864
 30
0.0
 10
502.2427553296518
 20
400.5927420314704
 30
0.0
 10
502.1514261783291
 20
400.5940354692483
 30
0.0
 10
502.0761832087726
 20
400.5998863799182
 30
0.0
 10
501.9828350890695
 20
400.609857759078
 30
0.0
 10
501.8932865017453
 20
400.6241172570281
 30
0.0
 10
501.8018702073169
 20
400.6428169775258
 30
0.0
 10
501.7105238224779
 20
400.6660846347777
 30
0.0
 10
501.5880342474174
 20
400.7035220680912
 30
0.0
 10
501.4363080562143
 20
400.7622200833274
 30
0.0
 10
501.2597598692648
 20
400.8512610656981
 30
0.0
 10
501.0335626054296
 20
400.9951740917725
 30
0.0
 10
500.8296881575938
 20
401.1732882966072
 30
0.0
 10
500.6341671986186
 20
401.4050200020242
 30
0.0
 10
500.4716073033309
 20
401.6558904852367
 30
0.0
 10
500.3010974583653
 20
402.056437215985
 30
0.0
 10
500.2499519352812
 20
402.3905889703537
 30
0.0
 10
500.2499519352812
 20
402.5927410336905
 30
0.0
  0
SPLINE
  5
FD
330
D1
100
AcDbEntity
  8
0
  6
Continuous
 62
     0
370
    30
100
AcDbSpline
210
0.0
220
0.0
230
1.0
 70
     8
 71
     3
 72
    22
 73
    18
 74
     0
 42
0.000000001
 43
0.0
 40
0.0
 40
0.0
 40
0.0
 40
0.0
 40
0.0872646274203331
 40
0.1760347710202956
 40
0.2662600671609784
 40
0.3578825730740726
 40
0.4509491714342035
 40
0.545277050108254
 40
0.6407850602142316
 40
0.8349801009571083
 40
1.032742886759823
 40
1.233183515893585
 40
1.638177347484275
 40
1.840672234697902
 40
2.141521694460339
 40
2.532256132249315
 40
3.141011064011851
 40
3.141011064011851
 40
3.141011064011851
 40
3.141011064011851
 10
573.2502347673925
 20
400.5927410536862
 30
0.0
 10
573.2571485432529
 20
400.5927420314702
 30
0.0
 10
573.3484776911907
 20
400.5940354692531
 30
0.0
 10
573.4237206623826
 20
400.5998863799458
 30
0.0
 10
573.5170687818897
 20
400.6098577591446
 30
0.0
 10
573.6066173694794
 20
400.6241172571424
 30
0.0
 10
573.6980336639242
 20
400.6428169776855
 30
0.0
 10
573.7893800487753
 20
400.6660846349727
 30
0.0
 10
573.9118696238289
 20
400.7035220683339
 30
0.0
 10
574.0635958150234
 20
400.7622200836307
 30
0.0
 10
574.2401440019494
 20
400.8512610660733
 30
0.0
 10
574.4663412657371
 20
400.9951740922388
 30
0.0
 10
574.6702157135068
 20
401.1732882971544
 30
0.0
 10
574.8657366723903
 20
401.4050200026443
 30
0.0
 10
575.0282965675742
 20
401.6558904859066
 30
0.0
 10
575.1988064122891
 20
402.0564372164812
 30
0.0
 10
575.2499519352721
 20
402.3905889705941
 30
0.0
 10
575.2499519352721
 20
402.5927410336903
 30
0.0
  0
SPLINE
  5
FE
330
D1
100
AcDbEntity
  8
0
  6
Continuous
 62
     0
370
    30
100
AcDbSpline
210
0.0
220
0.0
230
1.0
 70
     8
 71
     3
 72
    48
 73
    44
 74
     0
 42
0.000000001
 43
0.0
 40
0.0
 40
0.0
 40
0.0
 40
0.0
 40
0.7517135547013469
 40
2.45750652525811
 40
4.674451454784331
 40
6.114398978006041
 40
8.774118469538989
 40
10.2011432190255
 40
11.9952430306532
 40
12.9139947483793
 40
13.8355440356664
 40
14.5747368735792
 40
15.1354019317575
 40
15.516591962071
 40
15.7073031282622
 40
16.0889383302541
 40
17.2354474984759
 40
18.0010137390522
 40
20.2894140128833
 40
21.43584847082
 40
23.4404493329203
 40
26.0133448229858
 40
28.5866485693393
 40
30.7287310931195
 40
32.0121931638116
 40
33.2939987136623
 40
34.5737526061442
 40
35.8510543160382
 40
37.1254983382297
 40
37.443607441946
 40
37.9202636926428
 40
38.5547695859632
 40
39.89487008374989
 40
40.3598578118026
 40
40.9400878287858
 40
41.6349321207413
 40
42.6744781737835
 40
43.5961416019412
 40
45.3200524153183
 40
46.6976599726224
 40
48.654485341051
 40
51.0909494582789
 40
52.6160167477031
 40
52.6160167477031
 40
52.6160167477031
 40
52.6160167477031
 10
473.7568426585436
 20
356.6779241013808
 30
0.0
 10
473.7568426694938
 20
356.6779240877984
 30
0.0
 10
473.7568427042859
 20
356.7087615518273
 30
0.0
 10
473.7568427633908
 20
356.961543475326
 30
0.0
 10
473.7568428154791
 20
357.606774114562
 30
0.0
 10
473.7568428565487
 20
358.7289480199178
 30
0.0
 10
473.7568428712842
 20
360.0344178014494
 30
0.0
 10
473.7568428638282
 20
361.6800858714425
 30
0.0
 10
473.7568428461143
 20
362.9495274458674
 30
0.0
 10
473.7568428219187
 20
364.1165570130936
 30
0.0
 10
473.7568428007914
 20
364.962818514175
 30
0.0
 10
473.7568427796841
 20
365.6999455081852
 30
0.0
 10
473.7568427620996
 20
366.260119341975
 30
0.0
 10
473.7568427494484
 20
366.6376641089443
 30
0.0
 10
473.7568427388444
 20
366.9554984942199
 30
0.0
 10
473.7568427197032
 20
367.5284381189469
 30
0.0
 10
473.7568426941388
 20
368.2929822046828
 30
0.0
 10
473.7568426472734
 20
369.6930876634513
 30
0.0
 10
473.7568426003669
 20
371.0931584380891
 30
0.0
 10
473.7568425396821
 20
372.9062349419393
 30
0.0
 10
473.7568424759275
 20
374.8141593424317
 30
0.0
 10
473.7568423966408
 20
377.1977507151038
 30
0.0
 10
473.7568423165277
 20
379.6271812444925
 30
0.0
 10
473.756842250956
 20
381.6267531892907
 30
0.0
 10
473.756842199614
 20
383.1958142667295
 30
0.0
 10
473.7568421577159
 20
384.4774357606666
 30
0.0
 10
473.7568421158811
 20
385.7570010640337
 30
0.0
 10
473.7568420741198
 20
387.0341274056516
 30
0.0
 10
473.7568420427211
 20
387.9907016415555
 30
0.0
 10
473.7568420201649
 20
388.6804504187477
 30
0.0
 10
473.7568420037619
 20
389.1567975614159
 30
0.0
 10
473.7568419737888
 20
389.9713487155068
 30
0.0
 10
473.7568419408208
 20
390.7729145960496
 30
0.0
 10
473.7568419061264
 20
391.5389628787249
 30
0.0
 10
473.7568418798351
 20
392.0888954710499
 30
0.0
 10
473.7568418433892
 20
392.8031108570436
 30
0.0
 10
473.7568417995083
 20
393.5902855505962
 30
0.0
 10
473.7568417360191
 20
394.6192156725789
 30
0.0
 10
473.7568416637411
 20
395.6334998602071
 30
0.0
 10
473.7568415711342
 20
396.7084102865736
 30
0.0
 10
473.7568414660705
 20
397.6564176100941
 30
0.0
 10
473.7568413643488
 20
398.2065283926307
 30
0.0
 10
473.7568413032404
 20
398.3075537311674
 30
0.0
 10
473.7568412810415
 20
398.3075537310104
 30
0.0
  0
SPLINE
  5
FF
330
D1
100
AcDbEntity
  8
0
  6
Continuous
 62
     0
370
    30
100
AcDbSpline
210
0.0
220
0.0
230
1.0
 70
     8
 71
     3
 72
    41
 73
    37
 74
     0
 42
0.000000001
 43
0.0
 40
0.0
 40
0.0
 40
0.0
 40
0.0
 40
1.6755204748213
 40
2.492936689731112
 40
3.297670835546941
 40
4.091967945648911
 40
4.879141557525333
 40
5.271343858841387
 40
5.663407750228991
 40
6.055974035459416
 40
6.445846940079471
 40
6.832398397175637
 40
7.221426066867197
 40
8.00911634020798
 40
8.815234555244347
 40
9.645585169015355
 40
10.50589522410502
 40
11.40166585946778
 40
12.33802395742741
 40
13.31957423987028
 40
13.82921820574301
 40
14.35162646724013
 40
14.88716628537672
 40
15.16006150188238
 40
15.66862360421686
 40
16.50405035484175
 40
17.36930241429501
 40
19.18959210747047
 40
23.17766455093204
 40
27.57686507565836
 40
32.2905275119663
 40
37.19927304884512
 40
42.17898790336878
 40
47.11880099010816
 40
51.93906159054328
 40
61.16629030944007
 40
61.16629030944007
 40
61.16629030944007
 40
61.16629030944007
 10
528.8569182724113
 20
399.4927407395251
 30
0.0
 10
528.8569151768063
 20
398.9342339145932
 30
0.0
 10
528.8569153934841
 20
398.1032550020511
 30
0.0
 10
528.8569142137012
 20
397.0040314319111
 30
0.0
 10
528.8569177432115
 20
396.1985488201988
 30
0.0
 10
528.8569048857757
 20
395.4031476445601
 30
0.0
 10
528.8569445338117
 20
394.7452552620251
 30
0.0
 10
528.856864147022
 20
394.2214447833354
 30
0.0
 10
528.8571094114545
 20
393.8291587820475
 30
0.0
 10
528.8561896554345
 20
393.4376896650184
 30
0.0
 10
528.8595922534957
 20
393.0479080682797
 30
0.0
 10
528.8321680840913
 20
392.6599086187003
 30
0.0
 10
528.7554322086049
 20
392.1440939602326
 30
0.0
 10
528.5812024269107
 20
391.5034146542321
 30
0.0
 10
528.246513631341
 20
390.764165985162
 30
0.0
 10
527.782074248302
 20
390.0688970036359
 30
0.0
 10
527.1863238974975
 20
389.4398190645118
 30
0.0
 10
526.4608133544475
 20
388.9033115304177
 30
0.0
 10
525.6128342271286
 20
388.4901511825116
 30
0.0
 10
524.8255592280058
 20
388.2798611550552
 30
0.0
 10
524.157560340983
 20
388.2047378380233
 30
0.0
 10
523.6341633894004
 20
388.2006019489811
 30
0.0
 10
523.1914589892019
 20
388.2424317371317
 30
0.0
 10
522.7599112579198
 20
388.3235945626953
 30
0.0
 10
522.2323926568647
 20
388.4339629421866
 30
0.0
 10
521.5105109898975
 20
388.5796124812122
 30
0.0
 10
520.3605862603902
 20
388.8144094591809
 30
0.0
 10
518.1807361508023
 20
389.258075465839
 30
0.0
 10
514.8467334235372
 20
389.9374567284656
 30
0.0
 10
510.5676163192576
 20
390.8090442997464
 30
0.0
 10
505.9878063234228
 20
391.7419935070328
 30
0.0
 10
501.2183789131194
 20
392.7135361962037
 30
0.0
 10
496.3750868051722
 20
393.7001345415497
 30
0.0
 10
491.5606956240669
 20
394.6808431685196
 30
0.0
 10
485.3589581660749
 20
395.9441600107625
 30
0.0
 10
480.7706896720553
 20
396.8788070782595
 30
0.0
 10
477.7568413080032
 20
397.4927390485535
 30
0.0
  0
LINE
  5
100
330
D1
100
AcDbEntity
  8
0
  6
Continuous
 62
     0
370
    30
100
AcDbLine
 10
477.756841
 20
397.492739
 30
0.0
 11
473.756841
 21
398.307554
 31
0.0
  0
LINE
  5
101
330
D1
100
AcDbEntity
  8
0
  6
Continuous
 62
     0
370
    30
100
AcDbLine
 10
473.756843
 20
356.677924
 30
0.0
 11
477.756843
 21
357.492739
 31
0.0
  0
SPLINE
  5
102
330
D1
100
AcDbEntity
  8
0
  6
Continuous
 62
     0
370
    30
100
AcDbSpline
210
0.0
220
0.0
230
1.0
 70
     8
 71
     3
 72
    44
 73
    40
 74
     0
 42
0.000000001
 43
0.0
 40
0.0
 40
0.0
 40
0.0
 40
0.0
 40
9.348902111362818
 40
13.76472365393374
 40
18.23108374373973
 40
22.97765603177311
 40
28.2328800339484
 40
31.1117867028302
 40
34.18129602919697
 40
37.45061654885518
 40
40.92087997160745
 40
44.58388880314379
 40
46.48248647009495
 40
48.42200896034778
 40
50.39908117662958
 40
51.40055147246402
 40
52.40999798346482
 40
53.42691798031942
 40
54.04381373546491
 40
54.50863148552803
 40
55.44200873188987
 40
56.38024628863999
 40
57.32294758972809
 40
58.26971332037744
 40
60.17256327208787
 40
62.08687259008107
 40
64.00953013809486
 40
65.9375291314617
 40
67.8680126961383
 40
68.83401227470704
 40
69.79965126063112
 40
73.67374449065612
 40
74.65302470215867
 40
75.6303769413785
 40
77.57861412233056
 40
79.51738187153003
 40
81.44610867637324
 40
85.27396228236029
 40
89.0695281686776
 40
89.0695281686776
 40
89.0695281686776
 40
89.0695281686776
 10
483.4068425934911
 20
358.6436651614334
 30
0.0
 10
486.4604325512723
 20
359.2656928506603
 30
0.0
 10
490.9563424902979
 20
360.1815265116097
 30
0.0
 10
496.911079589455
 20
361.3945287187337
 30
0.0
 10
501.3625783444975
 20
362.3013156548848
 30
0.0
 10
506.0882473586706
 20
363.2639521012752
 30
0.0
 10
510.2954135858487
 20
364.1209675787373
 30
0.0
 10
513.9548082544048
 20
364.8663999752071
 30
0.0
 10
516.9655561978755
 20
365.4797005065004
 30
0.0
 10
520.1694562627908
 20
366.1323472541491
 30
0.0
 10
523.5672087449806
 20
366.8244807992056
 30
0.0
 10
526.5172470017761
 20
367.4254190691441
 30
0.0
 10
528.9673090336445
 20
367.924496360144
 30
0.0
 10
530.8666931196055
 20
368.3114382517662
 30
0.0
 10
532.4730782161121
 20
368.638567952887
 30
0.0
 10
533.7756165455714
 20
368.9041010073689
 30
0.0
 10
534.7647113237183
 20
369.1049595348094
 30
0.0
 10
535.6276536856237
 20
369.2827958923963
 30
0.0
 10
536.3140423486864
 20
369.4180551898764
 30
0.0
 10
536.9687655619589
 20
369.5686093194591
 30
0.0
 10
537.7175446965946
 20
369.7855454087076
 30
0.0
 10
538.5984589856648
 20
370.1103027162271
 30
0.0
 10
539.4576715594983
 20
370.4999811529068
 30
0.0
 10
540.5688108650078
 20
371.1046552711206
 30
0.0
 10
541.8772637878883
 20
372.0153539488301
 30
0.0
 10
543.2754892795928
 20
373.3312172304932
 30
0.0
 10
544.4703124134971
 20
374.8453673146925
 30
0.0
 10
545.4308458714187
 20
376.5238408176976
 30
0.0
 10
546.0169811670816
 20
378.0285376495041
 30
0.0
 10
546.3470160803731
 20
379.2735713180171
 30
0.0
 10
546.7095946788619
 20
381.1780067307715
 30
0.0
 10
546.6519704337124
 20
383.1333236220743
 30
0.0
 10
546.6573270875479
 20
385.0754443961754
 30
0.0
 10
546.6564467125322
 20
386.3773066339216
 30
0.0
 10
546.6568763266177
 20
387.9986423605922
 30
0.0
 10
546.6567397489074
 20
389.9372566716693
 30
0.0
 10
546.6567839837146
 20
392.5023606913587
 30
0.0
 10
546.6567619273442
 20
395.6864154171998
 30
0.0
 10
546.6567676499161
 20
398.2275536713481
 30
0.0
 10
546.6567676080517
 20
399.4927423001205
 30
0.0
  0
LINE
  5
103
330
D1
100
AcDbEntity
  8
0
  6
Continuous
 62
     0
370
    30
100
AcDbLine
 10
477.756843
 20
357.492739
 30
0.0
 11
483.406842
 21
358.643665
 31
0.0
  0
ENDBLK
  5
105
330
D1
100
AcDbEntity
  8
0
100
AcDbBlockEnd
  0
BLOCK
  5
143
330
107
100
AcDbEntity
  8
0
100
AcDbBlockBegin
  2
d
 70
     0
 10
36.726776
 20
646.916473
 30
0.0
  3
d
  1

  0
ELLIPSE
  5
108
330
107
100
AcDbEntity
  8
0
  6
Continuous
 62
     0
370
    30
100
AcDbEllipse
 10
265.42861
 20
846.82667
 30
0.0
 11
-1.243601393123541
 21
3.164404458191334
 31
0.0
210
0.0
220
0.0
230
-1.0
 40
0.670492
 41
5.140635881293402
 42
7.382822992450938
  0
ELLIPSE
  5
109
330
107
100
AcDbEntity
  8
0
  6
Continuous
 62
     0
370
    30
100
AcDbEllipse
 10
265.42861
 20
846.82667
 30
0.0
 11
-1.243601393123541
 21
3.164404458191334
 31
0.0
210
0.0
220
0.0
230
-1.0
 40
0.670492
 41
1.099637685271352
 42
4.284142074532265
  0
ELLIPSE
  5
10A
330
107
100
AcDbEntity
  8
0
  6
Continuous
 62
     0
370
    30
100
AcDbEllipse
 10
265.290509
 20
846.772397
 30
0.0
 11
-1.170448368908562
 21
2.978263016700473
 31
0.0
210
0.0
220
0.0
230
-1.0
 40
0.670492
 41
0.0
 42
6.283185307179586
  0
ELLIPSE
  5
10B
330
107
100
AcDbEntity
  8
0
  6
Continuous
 62
     0
370
    30
100
AcDbEllipse
 10
265.42861
 20
846.82667
 30
0.0
 11
0.7315302312491418
 21
-1.861414387171373
 31
0.0
210
0.0
220
0.0
230
1.0
 40
0.670492
 41
2.041954968318425
 42
7.388467636018277
  0
ELLIPSE
  5
10C
330
107
100
AcDbEntity
  8
0
  6
Continuous
 62
     0
370
    30
100
AcDbEllipse
 10
265.290509
 20
846.772397
 30
0.0
 11
0.8046832554641211
 21
-2.047555828662234
 31
0.0
210
0.0
220
0.0
230
1.0
 40
0.670492
 41
0.0
 42
6.283185307179586
  0
LINE
  5
10D
330
107
100
AcDbEntity
  8
0
  6
Continuous
 62
     0
370
    30
100
AcDbLine
 10
266.672212
 20
843.662266
 30
0.0
 11
302.652656
 21
857.802471
 31
0.0
  0
LINE
  5
10E
330
107
100
AcDbEntity
  8
0
  6
Continuous
 62
     0
370
    30
100
AcDbLine
 10
264.185009
 20
849.991075
 30
0.0
 11
301.300162
 21
864.577218
 31
0.0
  0
ELLIPSE
  5
10F
330
107
100
AcDbEntity
  8
0
  6
Continuous
 62
     0
370
    30
100
AcDbEllipse
 10
309.613619
 20
841.524108
 30
0.0
 11
10.89788000357528
 21
0.2149684341341773
 31
0.0
210
0.0
220
0.0
230
1.0
 40
0.001675
 41
5.667735363072305
 42
10.04022791761334
  0
ELLIPSE
  5
110
330
107
100
AcDbEntity
  8
0
  6
Continuous
 62
     0
370
    30
100
AcDbEllipse
 10
309.613619
 20
841.524108
 30
0.0
 11
9.448162021448294
 21
0.1863717158319244
 31
0.0
210
0.0
220
0.0
230
1.0
 40
0.001675
 41
5.940330976389034
 42
9.76763230430025
  0
SPLINE
  5
111
330
107
100
AcDbEntity
  8
0
  6
Continuous
 62
     0
370
    30
100
AcDbSpline
210
0.0
220
0.0
230
1.0
 70
     8
 71
     3
 72
    21
 73
    17
 74
     0
 42
0.000000001
 43
0.0
 40
9.579385986834115
 40
9.579385986834115
 40
9.579385986834115
 40
9.579385986834115
 40
9.60307037206172
 40
11.04506745554094
 40
12.48753424951718
 40
13.96877809742239
 40
14.66583645924699
 40
15.36189776206074
 40
16.22384773859057
 40
17.0411631424694
 40
17.92333883323709
 40
18.75203639734301
 40
19.92547142059472
 40
20.69443146677877
 40
21.72510818432
 40
22.52261762801442
 40
22.52261762801442
 40
22.52261762801442
 40
22.52261762801442
 10
300.2764959660109
 20
864.1749198602757
 30
0.0
 10
300.2805233308102
 20
864.1785128246479
 30
0.0
 10
300.5305542265635
 20
864.3994320751291
 30
0.0
 10
301.1249737939153
 20
864.6619017099124
 30
0.0
 10
302.2008272882143
 20
864.4846657784876
 30
0.0
 10
303.076709028218
 20
863.8748807978218
 30
0.0
 10
303.6352521576036
 20
863.1658976123363
 30
0.0
 10
303.9761177227529
 20
862.5176933145885
 30
0.0
 10
304.1931771871834
 20
861.7570074380872
 30
0.0
 10
304.2439599820515
 20
860.8990241143082
 30
0.0
 10
304.1175284930366
 20
860.0630304059457
 30
0.0
 10
303.7965584620565
 20
859.1700356839642
 30
0.0
 10
303.322677584873
 20
858.4210918624647
 30
0.0
 10
302.6931435818761
 20
857.7929792841085
 30
0.0
 10
302.078067463089
 20
857.4265951426329
 30
0.0
 10
301.6395798528986
 20
857.3367485243499
 30
0.0
 10
301.4555821075052
 20
857.3320250540281
 30
0.0
  0
ELLIPSE
  5
112
330
107
100
AcDbEntity
  8
0
  6
Continuous
 62
     0
370
     0
100
AcDbEllipse
 10
309.077185
 20
868.718779
 30
0.0
 11
10.3979772511177
 21
0.2051074967885729
 31
0.0
210
0.0
220
0.0
230
1.0
 40
0.001675
 41
0.0141497414257632
 42
2.972012128489823
  0
ELLIPSE
  5
113
330
107
100
AcDbEntity
  8
0
  6
Continuous
 62
     0
370
     0
100
AcDbEllipse
 10
309.087046
 20
868.218877
 30
0.0
 11
10.89788000357528
 21
0.2149684341341773
 31
0.0
210
0.0
220
0.0
230
1.0
 40
0.001675
 41
0.0000000063680385
 42
3.14159265995783
  0
SPLINE
  5
114
330
107
100
AcDbEntity
  8
0
  6
Continuous
 62
     0
370
    30
100
AcDbSpline
210
0.0
220
0.0
230
1.0
 70
     8
 71
     3
 72
    53
 73
    49
 74
     0
 42
0.000000001
 43
0.0
 40
0.0
 40
0.0
 40
0.0
 40
0.0
 40
0.0882575159070884
 40
0.2807403726674592
 40
0.4252693282312751
 40
0.5707342560701693
 40
0.6460611117610574
 40
0.7036174081810986
 40
0.7711617496726916
 40
0.879672301556313
 40
1.020431248959254
 40
1.150927985558081
 40
1.412355746957931
 40
1.804388627283538
 40
2.196307120576135
 40
2.787954760302382
 40
3.773899878770623
 40
5.550224132332401
 40
6.339660678345431
 40
7.322358295326833
 40
8.298923764692931
 40
10.05671283746251
 40
11.81246133764572
 40
14.54332322104195
 40
16.29869184277812
 40
18.83408460158988
 40
21.56450864750889
 40
23.31982656475563
 40
25.07520555430897
 40
26.05049273781409
 40
27.02588824894091
 40
27.80621801649775
 40
29.56268780605147
 40
30.73431400714495
 40
31.51549185565393
 40
31.90613678857634
 40
32.65198267821149
 40
32.88005965860294
 40
33.03753877692039
 40
33.11171558869253
 40
33.15573761716395
 40
33.22718210147406
 40
33.29827361759236
 40
33.37232800195834
 40
33.50533736754001
 40
33.64988483033579
 40
33.84237244686745
 40
33.93901720383965
 40
33.93901720383965
 40
33.93901720383965
 40
33.93901720383965
 10
319.9849260142628
 20
868.4338457883014
 30
0.0
 10
319.984346776611
 20
868.4632103895473
 30
0.0
 10
319.9742627012223
 20
868.5566573894831
 30
0.0
 10
319.9195578959188
 20
868.6901896779817
 30
0.0
 10
319.8118767339464
 20
868.8116417979267
 30
0.0
 10
319.70763681017
 20
868.8762876258116
 30
0.0
 10
319.6220629455757
 20
868.9062688134069
 30
0.0
 10
319.5645137929878
 20
868.9184258207733
 30
0.0
 10
319.523445091336
 20
868.922969612193
 30
0.0
 10
319.5035161893713
 20
868.9239019695574
 30
0.0
 10
319.4898533927043
 20
868.9243883649197
 30
0.0
 10
319.4752006693236
 20
868.9246207680587
 30
0.0
 10
319.454165800328
 20
868.9247624686395
 30
0.0
 10
319.4186121858309
 20
868.9246836293842
 30
0.0
 10
319.3564342322129
 20
868.9242439870351
 30
0.0
 10
319.2380629128024
 20
868.9230038516762
 30
0.0
 10
318.9549096462034
 20
868.9192403245429
 30
0.0
 10
318.5054810416159
 20
868.9122196875936
 30
0.0
 10
317.9265273254783
 20
868.9025303922713
 30
0.0
 10
317.4115394242582
 20
868.8936441175961
 30
0.0
 10
316.6217875513109
 20
868.8796685923998
 30
0.0
 10
315.5219570679365
 20
868.8596876679505
 30
0.0
 10
313.7752226645109
 20
868.8271511999961
 30
0.0
 10
311.8148691069864
 20
868.789735419674
 30
0.0
 10
309.4923047362153
 20
868.7445048534707
 30
0.0
 10
307.1387799176119
 20
868.6978537995849
 30
0.0
 10
304.8915570620749
 20
868.6523169098728
 30
0.0
 10
303.0865245192097
 20
868.61495424995
 30
0.0
 10
301.9340556421474
 20
868.5906108645883
 30
0.0
 10
301.0960572854035
 20
868.5725567305491
 30
0.0
 10
300.5439478373596
 20
868.5604509459192
 30
0.0
 10
299.9151696461709
 20
868.5463907055848
 30
0.0
 10
299.3815339436492
 20
868.5339878044148
 30
0.0
 10
299.0103255804545
 20
868.5246780300081
 30
0.0
 10
298.846417344966
 20
868.5201611119562
 30
0.0
 10
298.7463408396766
 20
868.5170942802274
 30
0.0
 10
298.6996802731779
 20
868.5154318598558
 30
0.0
 10
298.6702719295732
 20
868.5139392671679
 30
0.0
 10
298.6560292920005
 20
868.5130175874702
 30
0.0
 10
298.6408278026199
 20
868.5116884543351
 30
0.0
 10
298.6240253768172
 20
868.5097245160036
 30
0.0
 10
298.5948009756874
 20
868.505715182034
 30
0.0
 10
298.5327145427898
 20
868.490464504753
 30
0.0
 10
298.44864832064
 20
868.4562611450788
 30
0.0
 10
298.3508186511717
 20
868.3907252842976
 30
0.0
 10
298.2486057752852
 20
868.2700549173836
 30
0.0
 10
298.1959283148381
 20
868.1326640581377
 30
0.0
 10
298.1885318861358
 20
868.0360557846299
 30
0.0
 10
298.1891660074926
 20
868.0039089010477
 30
0.0
  0
LINE
  5
115
330
107
100
AcDbEntity
  8
0
  6
Continuous
 62
     0
370
    30
100
AcDbLine
 10
319.984926
 20
868.433846
 30
0.0
 11
320.511499
 21
841.739076
 31
0.0
  0
LINE
  5
116
330
107
100
AcDbEntity
  8
0
  6
Continuous
 62
     0
370
    30
100
AcDbLine
 10
298.423184
 20
856.140302
 30
0.0
 11
298.715739
 21
841.309139
 31
0.0
  0
LINE
  5
117
330
107
100
AcDbEntity
  8
0
  6
Continuous
 62
     0
370
    30
100
AcDbLine
 10
298.189166
 20
868.003909
 30
0.0
 11
298.280171
 21
863.39037
 31
0.0
  0
ELLIPSE
  5
118
330
107
100
AcDbEntity
  8
0
  6
Continuous
 62
     0
370
     0
100
AcDbEllipse
 10
309.822671
 20
830.926184
 30
0.0
 11
-8.898268993744953
 21
-0.1755246847517603
 31
0.0
210
0.0
220
0.0
230
-1.0
 40
0.001675
 41
6.28317917406648
 42
8.620590949774355
  0
ELLIPSE
  5
119
330
107
100
AcDbEntity
  8
0
  6
Continuous
 62
     0
370
     0
100
AcDbEllipse
 10
309.822671
 20
830.926184
 30
0.0
 11
-8.898268993744953
 21
-0.1755246847517603
 31
0.0
210
0.0
220
0.0
230
-1.0
 40
0.001675
 41
2.337405642594769
 42
3.141592647218677
  0
ELLIPSE
  5
11A
330
107
100
AcDbEntity
  8
0
  6
Continuous
 62
     0
370
     0
100
AcDbEllipse
 10
309.842393
 20
829.92638
 30
0.0
 11
-16.49679083110019
 21
-0.3254109324049488
 31
0.0
210
0.0
220
0.0
230
-1.0
 40
0.001675
 41
-0.0000000063692225
 42
2.337405642595282
  0
ELLIPSE
  5
11B
330
107
100
AcDbEntity
  8
0
  6
Continuous
 62
     0
370
     0
100
AcDbEllipse
 10
309.842393
 20
829.92638
 30
0.0
 11
-16.49679083110019
 21
-0.3254109324049488
 31
0.0
210
0.0
220
0.0
230
-1.0
 40
0.001675
 41
2.337405642595282
 42
3.141592647220571
  0
ELLIPSE
  5
11C
330
107
100
AcDbEntity
  8
0
  6
Continuous
 62
     0
370
     0
100
AcDbEllipse
 10
309.832532
 20
830.426282
 30
0.0
 11
-15.99688807864261
 21
-0.3155499950593443
 31
0.0
210
0.0
220
0.0
230
-1.0
 40
0.001675
 41
0.7039513730332011
 42
2.337405642594992
  0
ELLIPSE
  5
11D
330
107
100
AcDbEntity
  8
0
  6
Continuous
 62
     0
370
     0
100
AcDbEllipse
 10
309.832532
 20
830.426282
 30
0.0
 11
-15.99688807864261
 21
-0.3155499950593443
 31
0.0
210
0.0
220
0.0
230
-1.0
 40
0.001675
 41
2.337405642594993
 42
2.679903257948848
  0
SPLINE
  5
11E
330
107
100
AcDbEntity
  8
0
  6
Continuous
 62
     0
370
    30
100
AcDbSpline
210
0.0
220
0.0
230
1.0
 70
     8
 71
     3
 72
    40
 73
    36
 74
     0
 42
0.000000001
 43
0.0
 40
0.0
 40
0.0
 40
0.0
 40
0.0
 40
0.0883709864949086
 40
0.2810800986187109
 40
0.4259982695060749
 40
0.523442841629189
 40
0.5730825464478015
 40
0.64748320409065
 40
0.6999295386756308
 40
0.7343846573374735
 40
0.8076047739231773
 40
0.8719626220023904
 40
0.9858240234634876
 40
1.117328107289986
 40
1.38055942903721
 40
1.641870626849226
 40
2.563513887321953
 40
3.353266977705972
 40
4.546819055161127
 40
5.345489709243224
 40
6.543453149450835
 40
9.652283160979744
 40
10.85648653202692
 40
12.36000755966737
 40
14.16112369452307
 40
16.8626559909871
 40
18.06290680381455
 40
19.56321648715716
 40
21.66361887364443
 40
24.06389637390115
 40
26.76419270705073
 40
30.96458311112445
 40
34.86498332525488
 40
36.88063032905369
 40
37.99618485861733
 40
37.99618485861733
 40
37.99618485861733
 40
37.99618485861733
 10
293.345601920483
 20
829.600969309211
 30
0.0
 10
293.3450224177415
 20
829.6303473490683
 30
0.0
 10
293.3514198124836
 20
829.7241514641014
 30
0.0
 10
293.4008683834718
 20
829.859836875926
 30
0.0
 10
293.4934599042545
 20
829.9728240174287
 30
0.0
 10
293.5710251328479
 20
830.0309165538196
 30
0.0
 10
293.6340791056692
 20
830.0653371005137
 30
0.0
 10
293.6856580400759
 20
830.0857135779282
 30
0.0
 10
293.7260959447713
 20
830.0967395236103
 30
0.0
 10
293.7564161047507
 20
830.1032340037839
 30
0.0
 10
293.7766652983946
 20
830.1063443483065
 30
0.0
 10
293.7946539989683
 20
830.1085865283559
 30
0.0
 10
293.8078616870334
 20
830.109811412854
 30
0.0
 10
293.8228132770886
 20
830.1109595527273
 30
0.0
 10
293.8376407480681
 20
830.1118174910143
 30
0.0
 10
293.8725359638671
 20
830.1135240335099
 30
0.0
 10
293.9368352674423
 20
830.1158962566276
 30
0.0
 10
294.0816676558775
 20
830.1203942068573
 30
0.0
 10
294.2756133040696
 20
830.1257427519681
 30
0.0
 10
294.5619326880433
 20
830.1331126454344
 30
0.0
 10
295.121163488342
 20
830.1468420570382
 30
0.0
 10
295.9552636671769
 20
830.1660550205953
 30
0.0
 10
297.0566114951312
 20
830.1904566911385
 30
0.0
 10
298.0121832188924
 20
830.2112533558801
 30
0.0
 10
299.4384922484146
 20
830.2417497064968
 30
0.0
 10
300.9700126837816
 20
830.2738653589113
 30
0.0
 10
302.5365050546136
 20
830.3062569504445
 30
0.0
 10
303.9909324946472
 20
830.3360711778968
 30
0.0
 10
305.8936006687157
 20
830.3746585229197
 30
0.0
 10
308.2617244024769
 20
830.4220899942782
 30
0.0
 10
311.3719663986112
 20
830.4835450478439
 30
0.0
 10
314.9333721302086
 20
830.5526123876125
 30
0.0
 10
317.9933011786454
 20
830.6105001443154
 30
0.0
 10
319.8851536737277
 20
830.6454874682636
 30
0.0
 10
320.6621954422336
 20
830.6596457662586
 30
0.0
 10
320.929951416927
 20
830.6644953071559
 30
0.0
  0
SPLINE
  5
11F
330
107
100
AcDbEntity
  8
0
  6
Continuous
 62
     0
370
    30
100
AcDbSpline
210
0.0
220
0.0
230
1.0
 70
     8
 71
     3
 72
    33
 73
    29
 74
     0
 42
0.000000001
 43
0.0
 40
0.0
 40
0.0
 40
0.0
 40
0.0
 40
0.1365268057534709
 40
0.2810800986187708
 40
0.3776117063840052
 40
0.4259982695061165
 40
0.5234428416292278
 40
0.6247190587922773
 40
0.6720406869902582
 40
0.7343846573374503
 40
0.8076047739231055
 40
0.8719626220023294
 40
0.9858240234633642
 40
1.117328107289664
 40
1.380559429036952
 40
1.641870626849402
 40
2.168587826584042
 40
2.56351388732097
 40
3.353266977704405
 40
4.147471585495035
 40
4.546819055158926
 40
5.345489709240678
 40
6.144136520162735
 40
7.243829072091266
 40
8.147008584873728
 40
9.652283160976625
 40
11.97263126416912
 40
13.46362016426675
 40
13.46362016426675
 40
13.46362016426675
 40
13.46362016426675
 10
326.3391835826765
 20
830.2517911743729
 30
0.0
 10
326.3382898540164
 20
830.2970989776252
 30
0.0
 10
326.3236075139869
 20
830.390618323033
 30
0.0
 10
326.2698692615943
 20
830.5056046595815
 30
0.0
 10
326.2092872782539
 20
830.5809191528871
 30
0.0
 10
326.1503746992194
 20
830.635699532791
 30
0.0
 10
326.0830710708119
 20
830.6822342756668
 30
0.0
 10
326.0092788845878
 20
830.713876957281
 30
0.0
 10
325.9509051715622
 20
830.7300355544161
 30
0.0
 10
325.9120409835053
 20
830.737117669037
 30
0.0
 10
325.8885596480643
 20
830.7397668864222
 30
0.0
 10
325.8704461114338
 20
830.7413078759291
 30
0.0
 10
325.8572229623769
 20
830.742006521154
 30
0.0
 10
325.8422265768227
 20
830.7425661244465
 30
0.0
 10
325.8273918547015
 20
830.7428373355823
 30
0.0
 10
325.8019392729716
 20
830.7430788239063
 30
0.0
 10
325.7670782803373
 20
830.7430895049379
 30
0.0
 10
325.7016616548352
 20
830.7427867326385
 30
0.0
 10
325.6031715816605
 20
830.7419500817869
 30
0.0
 10
325.4727789215212
 20
830.7404718950461
 30
0.0
 10
325.3178900724902
 20
830.7385030033895
 30
0.0
 10
325.1386671142426
 20
830.7360447903077
 30
0.0
 10
324.8538465533152
 20
830.7318579522382
 30
0.0
 10
324.5060315559372
 20
830.7264514717691
 30
0.0
 10
324.0036129723723
 20
830.7183121321483
 30
0.0
 10
323.2208159724823
 20
830.7051674615748
 30
0.0
 10
322.1619134961072
 20
830.6866706110766
 30
0.0
 10
321.2877605194196
 20
830.6709758716997
 30
0.0
 10
320.9299514169288
 20
830.6644953071559
 30
0.0
  0
SPLINE
  5
120
330
107
100
AcDbEntity
  8
0
  6
Continuous
 62
     0
370
    30
100
AcDbSpline
210
0.0
220
0.0
230
1.0
 70
     8
 71
     3
 72
    13
 73
     9
 74
     0
 42
0.000000001
 43
0.0
 40
7.550739593792486
 40
7.550739593792486
 40
7.550739593792486
 40
7.550739593792486
 40
7.648662966828319
 40
7.745340529522005
 40
7.793531786380682
 40
7.889817135577644
 40
8.034151901422327
 40
8.19127162956546
 40
8.19127162956546
 40
8.19127162956546
 40
8.19127162956546
 10
319.0841909579813
 20
830.6306477558466
 30
0.0
 10
319.0547576067487
 20
830.6389879763777
 30
0.0
 10
318.9945413103953
 20
830.6621955510979
 30
0.0
 10
318.9261808002758
 20
830.7054108901026
 30
0.0
 10
318.8651442532168
 20
830.7576272487911
 30
0.0
 10
318.8015164296023
 20
830.8303582281577
 30
0.0
 10
318.73986567062
 20
830.9491470806072
 30
0.0
 10
318.7219683562097
 20
831.0495712504778
 30
0.0
 10
318.7209398988841
 20
831.1017089983479
 30
0.0
  0
SPLINE
  5
121
330
107
100
AcDbEntity
  8
0
  6
Continuous
 62
     0
370
    30
100
AcDbSpline
210
0.0
220
0.0
230
1.0
 70
     8
 71
     3
 72
    13
 73
     9
 74
     0
 42
0.000000001
 43
0.0
 40
0.0
 40
0.0
 40
0.0
 40
0.0
 40
0.0882282801950243
 40
0.2806549013245197
 40
0.4250952875082399
 40
0.5216552197996758
 40
0.5702360647447922
 40
0.6405067485969288
 40
0.6405067485969288
 40
0.6405067485969288
 40
0.6405067485969288
 10
300.924401910816
 20
830.750659659093
 30
0.0
 10
300.9249810208313
 20
830.7213015277869
 30
0.0
 10
300.9185899259904
 20
830.6275475488086
 30
0.0
 10
300.8692294599138
 20
830.4919950023854
 30
0.0
 10
300.7768088272308
 20
830.3791330265308
 30
0.0
 10
300.6994780878684
 20
830.3210772857327
 30
0.0
 10
300.6370028713034
 20
830.2869478829241
 30
0.0
 10
300.6009362890754
 20
830.2724616256262
 30
0.0
 10
300.5800190734776
 20
830.2656396801742
 30
0.0
  0
LINE
  5
122
330
107
100
AcDbEntity
  8
0
  6
Continuous
 62
     0
370
    30
100
AcDbLine
 10
318.72094
 20
831.101709
 30
0.0
 11
318.511783
 21
841.704953
 31
0.0
  0
LINE
  5
123
330
107
100
AcDbEntity
  8
0
  6
Continuous
 62
     0
370
    30
100
AcDbLine
 10
300.924402
 20
830.75066
 30
0.0
 11
300.715245
 21
841.353904
 31
0.0
  0
LINE
  5
124
330
107
100
AcDbEntity
  8
0
  6
Continuous
 62
     0
370
    30
100
AcDbLine
 10
326.722721
 20
810.808258
 30
0.0
 11
326.339184
 21
830.251791
 31
0.0
  0
LINE
  5
125
330
107
100
AcDbEntity
  8
0
  6
Continuous
 62
     0
370
    30
100
AcDbLine
 10
293.729139
 20
810.157436
 30
0.0
 11
293.345602
 21
829.600969
 31
0.0
  0
LINE
  5
126
330
107
100
AcDbEntity
  8
0
  6
Continuous
 62
     0
370
     0
100
AcDbLine
 10
293.882221
 20
700.986718
 30
0.0
 11
330.875024
 21
701.716427
 31
0.0
  0
SPLINE
  5
127
330
107
100
AcDbEntity
  8
0
  6
Continuous
 62
     0
370
    30
100
AcDbSpline
210
0.0
220
0.0
230
1.0
 70
     8
 71
     3
 72
    13
 73
     9
 74
     0
 42
0.000000001
 43
0.0
 40
20.59598179003507
 40
20.59598179003507
 40
20.59598179003507
 40
20.59598179003507
 40
21.28118785953576
 40
21.61934781258844
 40
21.78181368594455
 40
22.0420117143478
 40
22.46596274453142
 40
23.40399948501088
 40
23.40399948501088
 40
23.40399948501088
 40
23.40399948501088
 10
330.8755979616667
 20
701.7149967212983
 30
0.0
 10
330.8924984203156
 20
701.7159849985744
 30
0.0
 10
330.9125038373733
 20
701.7177567386696
 30
0.0
 10
331.0443209276307
 20
701.7245266500923
 30
0.0
 10
331.2799379448926
 20
701.774871065837
 30
0.0
 10
331.5411968928648
 20
701.872958587533
 30
0.0
 10
331.9988094147735
 20
702.1708120325159
 30
0.0
 10
332.2372613683569
 20
702.5912713075852
 30
0.0
 10
332.3074000161556
 20
702.894082488156
 30
0.0
  0
LINE
  5
128
330
107
100
AcDbEntity
  8
0
  6
Continuous
 62
     0
370
    30
100
AcDbLine
 10
321.310872
 20
701.500624
 30
0.0
 11
330.793955
 21
701.711715
 31
0.0
  0
LINE
  5
129
330
107
100
AcDbEntity
  8
0
  6
Continuous
 62
     0
370
    30
100
AcDbLine
 10
295.295088
 20
701.002692
 30
0.0
 11
303.452247
 21
701.148211
 31
0.0
  0
SPLINE
  5
12A
330
107
100
AcDbEntity
  8
0
  6
Continuous
 62
     0
370
     0
100
AcDbSpline
210
0.0
220
0.0
230
1.0
 70
    12
 71
     2
 72
     8
 73
     5
 74
     0
 42
0.000000001
 43
0.0
 40
0.1909448232137135
 40
0.1909448232137135
 40
0.1909448232137135
 40
0.5
 40
0.5
 40
1.0
 40
1.0
 40
1.0
 10
292.433818007478
 20
702.0091364548308
 30
0.0
 41
0.8617251439802189
 10
276.7572498153484
 20
701.7177241085705
 30
0.0
 41
0.8189596689602079
 10
276.8644009652328
 20
701.7515804041791
 30
0.0
 41
1.0
 10
277.0651753622722
 20
701.8150186159402
 30
0.0
 41
0.7071067811865476
 10
312.5577029418524
 20
702.5147954330596
 30
0.0
 41
1.0
  0
SPLINE
  5
12B
330
107
100
AcDbEntity
  8
0
  6
Continuous
 62
     0
370
     0
100
AcDbSpline
210
0.0
220
0.0
230
1.0
 70
    12
 71
     2
 72
     8
 73
     5
 74
     0
 42
0.000000001
 43
0.0
 40
0.0
 40
0.0
 40
0.0
 40
0.5
 40
0.5
 40
0.8056002496690402
 40
0.8056002496690402
 40
0.8056002496690402
 10
312.5577029418524
 20
702.5147954330596
 30
0.0
 41
1.0
 10
348.0502305214325
 20
703.2145722501791
 30
0.0
 41
0.7071067811865472
 10
347.8494561243931
 20
703.151134038418
 30
0.0
 41
1.0
 10
347.7437640080138
 20
703.1177387501779
 30
0.0
 41
0.82098351840848
 10
332.2810005580444
 20
702.7951492307941
 30
0.0
 41
0.8607969626939267
  0
SPLINE
  5
12C
330
107
100
AcDbEntity
  8
0
  6
Continuous
 62
     0
370
     0
100
AcDbSpline
210
0.0
220
0.0
230
1.0
 70
    12
 71
     2
 72
     8
 73
     5
 74
     0
 42
0.000000001
 43
0.0
 40
0.4979926729790773
 40
0.4979926729790773
 40
0.4979926729790773
 40
0.5
 40
0.5
 40
1.0
 40
1.0
 40
1.0
 10
274.8247784141915
 20
703.7113955927715
 30
0.0
 41
0.997657711492429
 10
274.8247754838536
 20
703.7115741051344
 30
0.0
 41
0.9988241350552615
 10
274.8253782590118
 20
703.7117645625767
 30
0.0
 41
1.0
 10
275.0374638896872
 20
703.7787767580991
 30
0.0
 41
0.7071067811865475
 10
312.5295704878355
 20
704.5179776212535
 30
0.0
 41
1.0
  0
SPLINE
  5
12D
330
107
100
AcDbEntity
  8
0
  6
Continuous
 62
     0
370
     0
100
AcDbSpline
210
0.0
220
0.0
230
1.0
 70
    12
 71
     2
 72
     6
 73
     3
 74
     0
 42
0.000000001
 43
0.0
 40
0.0
 40
0.0
 40
0.0
 40
0.4983177734552179
 40
0.4983177734552179
 40
0.4983177734552179
 10
312.5295704878355
 20
704.5179776212535
 30
0.0
 41
1.0
 10
349.8435358316554
 20
705.2536662206032
 30
0.0
 41
0.7080922066814965
 10
349.810176331289
 20
705.1904770654259
 30
0.0
 41
0.9980357798458034
  0
SPLINE
  5
12E
330
107
100
AcDbEntity
  8
0
  6
Continuous
 62
     0
370
     0
100
AcDbSpline
210
0.0
220
0.0
230
1.0
 70
    12
 71
     2
 72
     8
 73
     5
 74
     0
 42
0.000000001
 43
0.0
 40
0.4979926725249329
 40
0.4979926725249329
 40
0.4979926725249329
 40
0.5
 40
0.5
 40
1.0
 40
1.0
 40
1.0
 10
272.7737066562437
 20
807.6910222231879
 30
0.0
 41
0.9976577109646378
 10
272.773703725768
 20
807.6912007355886
 30
0.0
 41
0.9988241347892298
 10
272.7743065010628
 20
807.691391193074
 30
0.0
 41
1.0
 10
272.9863921317382
 20
807.7584033885963
 30
0.0
 41
0.7071067811865475
 10
310.4784987298852
 20
808.4976042517507
 30
0.0
 41
1.0
  0
SPLINE
  5
12F
330
107
100
AcDbEntity
  8
0
  6
Continuous
 62
     0
370
     0
100
AcDbSpline
210
0.0
220
0.0
230
1.0
 70
    12
 71
     2
 72
     6
 73
     3
 74
     0
 42
0.000000001
 43
0.0
 40
0.0
 40
0.0
 40
0.0
 40
0.4979907146576735
 40
0.4979907146576735
 40
0.4979907146576735
 10
310.4784987298852
 20
808.4976042517507
 30
0.0
 41
1.0
 10
347.7578873724491
 20
809.2326111308737
 30
0.0
 41
0.7082837932894048
 10
347.7591195358751
 20
809.1701622378924
 30
0.0
 41
0.9976554356069494
  0
ARC
  5
130
330
107
100
AcDbEntity
  8
0
  6
Continuous
 62
     0
370
     0
100
AcDbCircle
 10
576.004711
 20
-12792.55952
 30
0.0
 40
13605.64538508811
100
AcDbArc
 50
91.118463
 51
91.24376
  0
SPLINE
  5
131
330
107
100
AcDbEntity
  8
0
  6
Continuous
 62
     0
370
     0
100
AcDbSpline
210
0.0
220
0.0
230
1.0
 70
    12
 71
     2
 72
     6
 73
     3
 74
     0
 42
0.000000001
 43
0.0
 40
0.0
 40
0.0
 40
0.0
 40
0.3774588608770602
 40
0.3774588608770602
 40
0.3774588608770602
 10
310.4277438085963
 20
810.4936384724222
 30
0.0
 41
1.0
 10
334.7523366820187
 20
810.9732263558301
 30
0.0
 41
0.7788897185361171
 10
343.4009327846671
 20
811.1057256423398
 30
0.0
 41
0.8916195769504878
  0
SPLINE
  5
132
330
107
100
AcDbEntity
  8
0
  6
Continuous
 62
     0
370
    30
100
AcDbSpline
210
0.0
220
0.0
230
1.0
 70
     8
 71
     3
 72
    45
 73
    41
 74
     0
 42
0.000000001
 43
0.0
 40
0.0
 40
0.0
 40
0.0
 40
0.0
 40
0.3584877455003675
 40
0.8358820389596605
 40
1.436839996815908
 40
1.640049364379297
 40
1.843105746420336
 40
2.045168342912863
 40
2.1456396300559
 40
2.445175915004362
 40
2.596224836315322
 40
2.756024894526442
 40
2.922104552053014
 40
3.127318495997657
 40
3.428663240206584
 40
3.603399683004366
 40
3.865275319686414
 40
4.289516861772737
 40
5.123396113929293
 40
5.768866375422956
 40
6.418392632075242
 40
7.071978923594604
 40
7.729582740144213
 40
8.710599534245116
 40
10.36431609619719
 40
13.39433261651446
 40
14.75511334504217
 40
16.47233491586488
 40
18.20598647958655
 40
21.36200484176862
 40
24.19763253451381
 40
28.88549154787408
 40
31.90797361181695
 40
36.58651918395293
 40
39.5595895086509
 40
43.79428310907106
 40
47.7121013320315
 40
51.27031597338063
 40
55.64498828245769
 40
58.14315711776838
 40
58.14315711776838
 40
58.14315711776838
 40
58.14315711776838
 10
347.7591195358775
 20
809.1701622377626
 30
0.0
 10
347.7567668441575
 20
809.2894325671381
 30
0.0
 10
347.726262350356
 20
809.5676682800818
 30
0.0
 10
347.5754837929749
 20
810.025518213528
 30
0.0
 10
347.3361070530593
 20
810.3848500238666
 30
0.0
 10
347.0979979609092
 20
810.6214573403147
 30
0.0
 10
346.9406301543568
 20
810.7489872405248
 30
0.0
 10
346.800024415142
 20
810.8410967358923
 30
0.0
 10
346.6255390996296
 20
810.9375458398837
 30
0.0
 10
346.458004114173
 20
811.0093154203234
 30
0.0
 10
346.270949225093
 20
811.0662464780008
 30
0.0
 10
346.1304651046078
 20
811.0978519179093
 30
0.0
 10
346.0008229266285
 20
811.1175155736555
 30
0.0
 10
345.9014162044205
 20
811.1267333216988
 30
0.0
 10
345.8519652291924
 20
811.1293971543065
 30
0.0
 10
345.8138843020204
 20
811.1310165413511
 30
0.0
 10
345.7811289593217
 20
811.1319749726622
 30
0.0
 10
345.734342611943
 20
811.1328473147157
 30
0.0
 10
345.6818887625058
 20
811.1332076066504
 30
0.0
 10
345.6144956508833
 20
811.1332711908815
 30
0.0
 10
345.5441843965996
 20
811.1330628529787
 30
0.0
 10
345.4631741816521
 20
811.1326138204361
 30
0.0
 10
345.3557754920024
 20
811.1318093415616
 30
0.0
 10
345.1781199760151
 20
811.1301596850303
 30
0.0
 10
344.8055750513972
 20
811.1259508644557
 30
0.0
 10
344.2807550859361
 20
811.1188749092764
 30
0.0
 10
343.6309991529771
 20
811.1093009389676
 30
0.0
 10
343.0540125466775
 20
811.1004325620338
 30
0.0
 10
342.1631546537864
 20
811.0862401969739
 30
0.0
 10
340.9614217552917
 20
811.0663591054898
 30
0.0
 10
339.0411953406471
 20
811.0335117579203
 30
0.0
 10
336.8394692779329
 20
810.9946903133878
 30
0.0
 10
333.9220621207592
 20
810.9420488069892
 30
0.0
 10
331.1468779390593
 20
810.8910573752885
 30
0.0
 10
327.8107685940984
 20
810.8288413509645
 30
0.0
 10
324.4981169201576
 20
810.7663132165139
 30
0.0
 10
320.8325257863069
 20
810.696281598706
 30
0.0
 10
317.0003170636719
 20
810.6223241547275
 30
0.0
 10
313.5504760650947
 20
810.5550745503128
 30
0.0
 10
311.2601413706273
 20
810.5100529735233
 30
0.0
 10
310.4277627631789
 20
810.4936416528211
 30
0.0
  0
SPLINE
  5
133
330
107
100
AcDbEntity
  8
0
  6
Continuous
 62
     0
370
    30
100
AcDbSpline
210
0.0
220
0.0
230
1.0
 70
     8
 71
     3
 72
    45
 73
    41
 74
     0
 42
0.000000001
 43
0.0
 40
0.0
 40
0.0
 40
0.0
 40
0.0
 40
0.3584877457121982
 40
0.8358820445420163
 40
1.436839998012629
 40
1.640049366999454
 40
1.84310574923916
 40
2.045168361517679
 40
2.14563955708368
 40
2.445176253499726
 40
2.596225373097406
 40
2.756026110825286
 40
2.922120943327548
 40
3.127363440303731
 40
3.428761465410187
 40
3.603523998549237
 40
3.865500651250686
 40
4.28981873220867
 40
5.123983663639688
 40
5.769640137930331
 40
6.419431389422854
 40
7.073362832998997
 40
7.731393285886275
 40
8.712844860150149
 40
10.3676865093633
 40
13.40067895873222
 40
14.76204790936568
 40
16.48045836772175
 40
18.21581317457244
 40
21.37621625962771
 40
24.21717323186937
 40
28.90669928677382
 40
31.93203489274806
 40
36.61500193644159
 40
39.58946809034658
 40
43.82841108496627
 40
48.07654333376981
 40
51.30935967222957
 40
55.68936147288796
 40
58.54716682071538
 40
58.54716682071538
 40
58.54716682071538
 40
58.54716682071538
 10
272.7737066625421
 20
807.6910218746941
 30
0.0
 10
272.7713539708237
 20
807.8102922039839
 30
0.0
 10
272.7908622126648
 20
808.0895144571433
 30
0.0
 10
272.9234676698621
 20
808.5529543296651
 30
0.0
 10
273.1484875762497
 20
808.9214467071082
 30
0.0
 10
273.3770805619492
 20
809.1672600409449
 30
0.0
 10
273.5292967122108
 20
809.3008967270782
 30
0.0
 10
273.666160507349
 20
809.3984794305771
 30
0.0
 10
273.8367068795911
 20
809.5017347317043
 30
0.0
 10
274.0012808225142
 20
809.5800552048339
 30
0.0
 10
274.1859455059506
 20
809.6443188210613
 30
0.0
 10
274.3250775931052
 20
809.6814408029036
 30
0.0
 10
274.4538538088236
 20
809.7062031905042
 30
0.0
 10
274.5528239708697
 20
809.71933352736
 30
0.0
 10
274.6021281666083
 20
809.7239447656327
 30
0.0
 10
274.6401215222564
 20
809.727064862579
 30
0.0
 10
274.6728082275856
 20
809.7293136667253
 30
0.0
 10
274.7195422727235
 20
809.7320312713089
 30
0.0
 10
274.7719535046802
 20
809.7344600479568
 30
0.0
 10
274.8393248874628
 20
809.7371823476776
 30
0.0
 10
274.9096314487316
 20
809.7397481839506
 30
0.0
 10
274.9906587852105
 20
809.7424960092244
 30
0.0
 10
275.0980935985986
 20
809.7459299093113
 30
0.0
 10
275.2758422681926
 20
809.7512919125288
 30
0.0
 10
275.6487043114531
 20
809.7617891909158
 30
0.0
 10
276.1740668689932
 20
809.7754312332522
 30
0.0
 10
276.8245596616552
 20
809.7915078949818
 30
0.0
 10
277.4021810024598
 20
809.8054165829847
 30
0.0
 10
278.2943954352403
 20
809.8263999215799
 30
0.0
 10
279.4985280808715
 20
809.8539812041508
 30
0.0
 10
281.4220339655198
 20
809.8969580366129
 30
0.0
 10
283.6272157827729
 20
809.9450681594152
 30
0.0
 10
286.5484060752185
 20
810.0075975494264
 30
0.0
 10
289.3273639940734
 20
810.0661651210289
 30
0.0
 10
292.6679214733596
 20
810.1356495168592
 30
0.0
 10
296.0820589358829
 20
810.2058919773937
 30
0.0
 10
299.7589757539297
 20
810.2806643500494
 30
0.0
 10
303.5990911984137
 20
810.3580134275155
 30
0.0
 10
307.0625123460272
 20
810.427129059867
 30
0.0
 10
309.4756146245563
 20
810.4748689353323
 30
0.0
 10
310.4277628120609
 20
810.4936416538034
 30
0.0
  0
LINE
  5
134
330
107
100
AcDbEntity
  8
0
  6
Continuous
 62
     0
370
    30
100
AcDbLine
 10
349.810191
 20
705.190536
 30
0.0
 11
347.75912
 21
809.170162
 31
0.0
  0
LINE
  5
135
330
107
100
AcDbEntity
  8
0
  6
Continuous
 62
     0
370
    30
100
AcDbLine
 10
274.824778
 20
703.711395
 30
0.0
 11
272.773707
 21
807.691022
 31
0.0
  0
LINE
  5
136
330
107
100
AcDbEntity
  8
0
  6
Continuous
 62
     0
370
    30
100
AcDbLine
 10
347.718669
 20
703.154003
 30
0.0
 11
347.739662
 21
703.153363
 31
0.0
  0
LINE
  5
137
330
107
100
AcDbEntity
  8
0
  6
Continuous
 62
     0
370
    30
100
AcDbLine
 10
276.994987
 20
701.758928
 30
0.0
 11
276.974036
 21
701.75746
 31
0.0
  0
SPLINE
  5
138
330
107
100
AcDbEntity
  8
0
  6
Continuous
 62
     0
370
    30
100
AcDbSpline
210
0.0
220
0.0
230
1.0
 70
     8
 71
     3
 72
     9
 73
     5
 74
     0
 42
0.000000001
 43
0.0
 40
50.72032215267048
 40
50.72032215267048
 40
50.72032215267048
 40
50.72032215267048
 40
51.0909494582789
 40
52.6160167477031
 40
52.6160167477031
 40
52.6160167477031
 40
52.6160167477031
 10
357.1834796494855
 20
700.791671076247
 30
0.0
 10
357.267116114155
 20
700.817207871715
 30
0.0
 10
357.6967751986475
 20
700.9359839406311
 30
0.0
 10
358.1344026140466
 20
700.9937321551181
 30
0.0
 10
358.4866187826215
 20
701.0012927370328
 30
0.0
  0
SPLINE
  5
139
330
107
100
AcDbEntity
  8
0
  6
Continuous
 62
     0
370
    30
100
AcDbSpline
210
0.0
220
0.0
230
1.0
 70
     8
 71
     3
 72
     9
 73
     5
 74
     0
 42
0.000000001
 43
0.0
 40
0.0
 40
0.0
 40
0.0
 40
0.0
 40
0.7517135547013469
 40
1.941955625478663
 40
1.941955625478663
 40
1.941955625478663
 40
1.941955625478663
 10
359.3076311944282
 20
659.3798182491228
 30
0.0
 10
359.1338912338344
 20
659.3760887780381
 30
0.0
 10
358.6844017088441
 20
659.3908138837919
 30
0.0
 10
358.2370415756666
 20
659.4693280525923
 30
0.0
 10
357.965718681524
 20
659.5414450767266
 30
0.0
  0
SPLINE
  5
13A
330
107
100
AcDbEntity
  8
0
  6
Continuous
 62
     0
370
    30
100
AcDbSpline
210
0.0
220
0.0
230
1.0
 70
     8
 71
     3
 72
    48
 73
    44
 74
     0
 42
0.000000001
 43
0.0
 40
0.0
 40
0.0
 40
0.0
 40
0.0
 40
1.52508287853493
 40
3.96155888848479
 40
5.91838153034265
 40
7.29597843854682
 40
9.019875944992789
 40
9.941532244425039
 40
10.9810702329302
 40
11.6759091176335
 40
12.2561346086104
 40
12.7211187028709
 40
14.0612213420757
 40
14.6957295156982
 40
15.1723874844394
 40
15.4904977392205
 40
16.7649463927869
 40
18.0422527601611
 40
19.3220113317474
 40
20.6038215778447
 40
21.8872883575695
 40
24.0293787694158
 40
26.6026920267828
 40
29.1755970023878
 40
31.1802052851939
 40
32.3266439961058
 40
34.6150527113963
 40
35.3806218184106
 40
36.52713526088591
 40
36.90877188031881
 40
37.0994837537839
 40
37.4806751884839
 40
38.0413406916683
 40
38.7805330221115
 40
39.7020816682886
 40
40.6208327458485
 40
42.4149317458436
 40
43.8419560359339
 40
46.5016756406082
 40
47.9416235966314
 40
50.1585524899159
 40
51.86431577661669
 40
52.6160161694094
 40
52.6160161694094
 40
52.6160161694094
 40
52.6160161694094
 10
358.4866187826215
 20
701.0012927370328
 30
0.0
 10
358.8388385366745
 20
701.0088534001598
 30
0.0
 10
359.7573624552547
 20
700.9275201476387
 30
0.0
 10
361.0933511392971
 20
700.4059556065176
 30
0.0
 10
362.2813077526133
 20
699.4832286231338
 30
0.0
 10
363.2074941922037
 20
698.4279580293012
 30
0.0
 10
363.8417694328451
 20
697.4270655526095
 30
0.0
 10
364.3292016194487
 20
696.4083726751361
 30
0.0
 10
364.6276798039582
 20
695.6274325598844
 30
0.0
 10
364.8450579722121
 20
694.9177269863621
 30
0.0
 10
364.9843305571076
 20
694.3706636098655
 30
0.0
 10
365.147730585295
 20
693.6079510944116
 30
0.0
 10
365.2657926803186
 20
692.8087373192025
 30
0.0
 10
365.3297750092258
 20
691.9953724512067
 30
0.0
 10
365.3493384203048
 20
691.5193352217439
 30
0.0
 10
365.3587029021837
 20
690.8296280706484
 30
0.0
 10
365.3735408651935
 20
689.8731512982934
 30
0.0
 10
365.3908247183006
 20
688.5961008309424
 30
0.0
 10
365.4080426858767
 20
687.3166094138614
 30
0.0
 10
365.425225171995
 20
686.0350605590629
 30
0.0
 10
365.4470087307199
 20
684.4661044394574
 30
0.0
 10
365.4770352370173
 20
682.4667148699235
 30
0.0
 10
365.5205780948415
 20
680.0376574917548
 30
0.0
 10
365.5741700604602
 20
677.6546655645093
 30
0.0
 10
365.6216726533552
 20
675.7473198384812
 30
0.0
 10
365.6683961625149
 20
673.9348272062292
 30
0.0
 10
365.7051924165462
 20
672.5352226620396
 30
0.0
 10
365.7413199771379
 20
671.1355690639132
 30
0.0
 10
365.7606201232409
 20
670.3712625247042
 30
0.0
 10
365.7748215062039
 20
669.7984952953982
 30
0.0
 10
365.7824718200977
 20
669.4807516647237
 30
0.0
 10
365.7924291509867
 20
669.1033339003882
 30
0.0
 10
365.7883813187279
 20
668.5429454435321
 30
0.0
 10
365.750814057355
 20
667.8048450655532
 30
0.0
 10
365.6584179128286
 20
666.9564092557926
 30
0.0
 10
365.4526246846403
 20
665.7846993848896
 30
0.0
 10
365.092242742815
 20
664.5072371252061
 30
0.0
 10
364.3790026274804
 20
662.8458913277636
 30
0.0
 10
363.485563610455
 20
661.5209543646602
 30
0.0
 10
362.2669196583347
 20
660.3723799018761
 30
0.0
 10
361.1144513043057
 20
659.7022783177499
 30
0.0
 10
360.0489620064118
 20
659.4265749205874
 30
0.0
 10
359.4813681146513
 20
659.38354764337
 30
0.0
 10
359.3076311944282
 20
659.3798182491228
 30
0.0
  0
SPLINE
  5
13B
330
107
100
AcDbEntity
  8
0
  6
Continuous
 62
     0
370
     0
100
AcDbSpline
210
0.0
220
0.0
230
1.0
 70
     8
 71
     3
 72
    21
 73
    17
 74
     0
 42
0.000000001
 43
0.0
 40
14.44803964625596
 40
14.44803964625596
 40
14.44803964625596
 40
14.44803964625596
 40
14.88716628537672
 40
15.16006150188238
 40
15.66862360421686
 40
16.50405035484175
 40
17.36930241429501
 40
19.18959210747047
 40
23.17766455093204
 40
27.57686507565836
 40
32.2905275119663
 40
37.19927304884512
 40
42.17898790336878
 40
47.11880099010816
 40
51.93906159054328
 40
61.16629030944007
 40
61.16629030944007
 40
61.16629030944007
 40
61.16629030944007
 10
322.8325362622306
 20
690.2607862997319
 30
0.0
 10
322.9376542368106
 20
690.2716866493431
 30
0.0
 10
323.1074282911176
 20
690.2997092791666
 30
0.0
 10
323.3939726360328
 20
690.3801323971211
 30
0.0
 10
323.7716883528786
 20
690.4973596880827
 30
0.0
 10
324.2886787721748
 20
690.6523963440744
 30
0.0
 10
325.1121661409413
 20
690.9021460279364
 30
0.0
 10
326.673234724855
 20
691.3741573496916
 30
0.0
 10
329.0608172800188
 20
692.096891598626
 30
0.0
 10
332.1252330479172
 20
693.024121822449
 30
0.0
 10
335.4049825597914
 20
694.016623660206
 30
0.0
 10
338.8205238693839
 20
695.0501846379702
 30
0.0
 10
342.2889618967752
 20
696.0997617548148
 30
0.0
 10
345.7367030853297
 20
697.1430733464017
 30
0.0
 10
350.177967783422
 20
698.4870332305709
 30
0.0
 10
353.4637751961118
 20
699.4813429218531
 30
0.0
 10
355.6220894501474
 20
700.1344648613683
 30
0.0
  0
LINE
  5
13C
330
107
100
AcDbEntity
  8
0
  6
Continuous
 62
     0
370
     0
100
AcDbLine
 10
355.622089
 20
700.134465
 30
0.0
 11
358.486619
 21
701.001293
 31
0.0
  0
LINE
  5
13D
330
107
100
AcDbEntity
  8
0
  6
Continuous
 62
     0
370
     0
100
AcDbLine
 10
359.307631
 20
659.379818
 30
0.0
 11
356.410963
 21
660.142301
 31
0.0
  0
SPLINE
  5
13E
330
107
100
AcDbEntity
  8
0
  6
Continuous
 62
     0
370
     0
100
AcDbSpline
210
0.0
220
0.0
230
1.0
 70
     8
 71
     3
 72
    44
 73
    40
 74
     0
 42
0.000000001
 43
0.0
 40
0.0
 40
0.0
 40
0.0
 40
0.0
 40
9.348902111362818
 40
13.76472365393374
 40
18.23108374373973
 40
22.97765603177311
 40
28.2328800339484
 40
31.1117867028302
 40
34.18129602919697
 40
37.45061654885518
 40
40.92087997160745
 40
44.58388880314379
 40
46.48248647009495
 40
48.42200896034778
 40
50.39908117662958
 40
51.40055147246402
 40
52.40999798346482
 40
53.42691798031942
 40
54.04381373546491
 40
54.50863148552803
 40
55.44200873188987
 40
56.38024628863999
 40
57.32294758972809
 40
58.26971332037744
 40
60.17256327208787
 40
62.08687259008107
 40
64.00953013809486
 40
65.9375291314617
 40
67.8680126961383
 40
68.83401227470704
 40
69.79965126063112
 40
73.67374449065612
 40
74.65302470215867
 40
75.6303769413785
 40
77.57861412233056
 40
79.51738187153003
 40
81.44610867637324
 40
85.27396228236029
 40
89.0695281686776
 40
89.0695281686776
 40
89.0695281686776
 40
89.0695281686776
 10
352.3194177641197
 20
661.2193073041848
 30
0.0
 10
350.1081082124336
 20
661.801384544834
 30
0.0
 10
346.8523179036044
 20
662.6583977284727
 30
0.0
 10
342.5400928808554
 20
663.7934934643407
 30
0.0
 10
339.316463692785
 20
664.6420409595174
 30
0.0
 10
335.8942894081558
 20
665.542850965699
 30
0.0
 10
332.8475978118022
 20
666.3448236311484
 30
0.0
 10
330.1975843858883
 20
667.0423797703058
 30
0.0
 10
328.0172996153792
 20
667.6162903597566
 30
0.0
 10
325.6971404146072
 20
668.2270201353308
 30
0.0
 10
323.2365996931944
 20
668.8747005164405
 30
0.0
 10
321.1002787944385
 20
669.437043115064
 30
0.0
 10
319.3260245311392
 20
669.904065980655
 30
0.0
 10
317.9505523650673
 20
670.266158018367
 30
0.0
 10
316.7872629521956
 20
670.5722712280507
 30
0.0
 10
315.8440035095029
 20
670.8207629929082
 30
0.0
 10
315.1277458602147
 20
671.0086812082964
 30
0.0
 10
314.502790880413
 20
671.1752271954376
 30
0.0
 10
314.0058206995656
 20
671.301507289023
 30
0.0
 10
313.5313527407833
 20
671.4434922373637
 30
0.0
 10
312.9878412602426
 20
671.6506193507911
 30
0.0
 10
312.3470462489796
 20
671.9638230948603
 30
0.0
 10
311.7205993581268
 20
672.3422183100727
 30
0.0
 10
310.9084873852567
 20
672.9322811580523
 30
0.0
 10
309.9482446934182
 20
673.825735014365
 30
0.0
 10
308.9153617167219
 20
675.1231031819229
 30
0.0
 10
308.0250483146075
 20
676.6213723263961
 30
0.0
 10
307.3002178018256
 20
678.2869885869769
 30
0.0
 10
306.8484372254611
 20
679.7837455701898
 30
0.0
 10
306.5862083096155
 20
681.0242306269097
 30
0.0
 10
306.2875384499075
 20
682.9235637786454
 30
0.0
 10
306.2904740834918
 20
684.8792492325074
 30
0.0
 10
306.2483142906115
 20
686.8209196815837
 30
0.0
 10
306.2232731704596
 20
688.1225383703506
 30
0.0
 10
306.1909880561661
 20
689.7435508774485
 30
0.0
 10
306.1528533664824
 20
691.6817871997453
 30
0.0
 10
306.1022329333575
 20
694.2463881443525
 30
0.0
 10
306.0394533914731
 20
697.4298194087069
 30
0.0
 10
305.9893333419777
 20
699.9704597849355
 30
0.0
 10
305.964381521273
 20
701.235400566642
 30
0.0
  0
LINE
  5
13F
330
107
100
AcDbEntity
  8
0
  6
Continuous
 62
     0
370
     0
100
AcDbLine
 10
356.410962
 20
660.142301
 30
0.0
 11
352.319419
 21
661.219307
 31
0.0
  0
SPLINE
  5
140
330
107
100
AcDbEntity
  8
0
  6
Continuous
 62
     0
370
    30
100
AcDbSpline
210
0.0
220
0.0
230
1.0
 70
     8
 71
     3
 72
    75
 73
    71
 74
     0
 42
0.000000001
 43
0.0
 40
0.0
 40
0.0
 40
0.0
 40
0.0
 40
3.554258079306433
 40
7.139733015574972
 40
8.946255117173784
 40
10.76196659423741
 40
11.67306950603707
 40
12.58877323630144
 40
12.82205014723937
 40
13.53530445988605
 40
14.01553265284387
 40
14.50069529647985
 40
14.93776979709453
 40
15.37908904461194
 40
15.63080565136478
 40
15.88027430286981
 40
16.13064624903289
 40
16.72723259310321
 40
17.07440774810525
 40
17.77480858626188
 40
19.19869425000697
 40
19.92144631636091
 40
20.65012412794325
 40
21.28827373821761
 40
22.89175917374228
 40
23.86183546293103
 40
25.78679569827718
 40
27.04630111969912
 40
29.20292948916769
 40
30.58175768205827
 40
31.46098728270175
 40
32.091218389184
 40
32.4975530313688
 40
32.89306708139536
 40
33.08684254778981
 40
33.3486113302311
 40
33.60940276171149
 40
33.7395217104221
 40
33.8126310739326
 40
33.89563423048784
 40
33.97116242469659
 40
34.06059928021038
 40
34.13509877097192
 40
34.16115800963268
 40
34.18193472856115
 40
34.20278153617134
 40
34.47997075348843
 40
34.75660750539462
 40
35.55163487037773
 40
36.34174242323644
 40
37.33290393785995
 40
38.31548079902066
 40
39.28913564784831
 40
40.25356745681132
 40
41.73490451209269
 40
43.19229409851019
 40
44.62477571134557
 40
45.33137214005725
 40
46.03130539708442
 40
48.23463160249293
 40
50.36387578414774
 40
52.41702921707896
 40
54.39365839726302
 40
60.098285814063
 40
65.1643986264715
 40
69.76463112808595
 40
74.10088439178328
 40
78.382417274361
 40
87.40371017169632
 40
97.8938934826564
 40
97.8938934826564
 40
97.8938934826564
 40
97.8938934826564
 10
303.451689826459
 20
701.1754519511853
 30
0.0
 10
303.4759137019805
 20
699.9909613808452
 30
0.0
 10
303.5262374075381
 20
697.6116169685873
 30
0.0
 10
303.5921468126829
 20
694.6302976641664
 30
0.0
 10
303.6462985145585
 20
692.2283950947244
 30
0.0
 10
303.6804795324757
 20
690.7176459485335
 30
0.0
 10
303.7083388683541
 20
689.5039087254406
 30
0.0
 10
303.7234264096498
 20
688.817163500757
 30
0.0
 10
303.7387191987136
 20
688.1971331708842
 30
0.0
 10
303.7530377667363
 20
687.7231782966461
 30
0.0
 10
303.7741348464866
 20
687.1655261053044
 30
0.0
 10
303.794058398977
 20
686.6996763920185
 30
0.0
 10
303.81576212741
 20
686.2486564292407
 30
0.0
 10
303.8352371344515
 20
685.8695805558508
 30
0.0
 10
303.8528206867789
 20
685.5675356254942
 30
0.0
 10
303.8700108667734
 20
685.3243083842964
 30
0.0
 10
303.8988505213265
 20
684.9696626428191
 30
0.0
 10
303.9376679652197
 20
684.5822907047268
 30
0.0
 10
304.0026186163237
 20
684.0481903816865
 30
0.0
 10
304.1197410556173
 20
683.244413741432
 30
0.0
 10
304.3012711323496
 20
682.3191565048793
 30
0.0
 10
304.5341100587095
 20
681.3918170509278
 30
0.0
 10
304.7280224496266
 20
680.7231909543078
 30
0.0
 10
305.0371265532703
 20
679.7823708052949
 30
0.0
 10
305.4313934011582
 20
678.7860047816525
 30
0.0
 10
306.0805715897492
 20
677.4416381153799
 30
0.0
 10
306.7801059434649
 20
676.2636537181069
 30
0.0
 10
307.8192392957768
 20
674.8709021276935
 30
0.0
 10
308.8841069609465
 20
673.7578559986067
 30
0.0
 10
309.9835183229162
 20
672.8968002169463
 30
0.0
 10
310.7497854551787
 20
672.4105672261671
 30
0.0
 10
311.2778878962937
 20
672.1246588893234
 30
0.0
 10
311.6823578637689
 20
671.9305955775072
 30
0.0
 10
311.9687246884456
 20
671.8064994356956
 30
0.0
 10
312.2163127250626
 20
671.7074880286809
 30
0.0
 10
312.4275864993704
 20
671.6284632940198
 30
0.0
 10
312.6188178789625
 20
671.5623274539793
 30
0.0
 10
312.7607682599845
 20
671.5163647376811
 30
0.0
 10
312.8463606104241
 20
671.4896859948377
 30
0.0
 10
312.9137384337199
 20
671.4691828202383
 30
0.0
 10
312.987357108025
 20
671.4473067707188
 30
0.0
 10
313.0618867754227
 20
671.4258354178883
 30
0.0
 10
313.121831699824
 20
671.4092436467517
 30
0.0
 10
313.1578500451117
 20
671.3994690204047
 30
0.0
 10
313.173628687167
 20
671.3952029075039
 30
0.0
 10
313.244968549564
 20
671.3759049001861
 30
0.0
 10
313.375159166475
 20
671.3406994650601
 30
0.0
 10
313.6793042781319
 20
671.2584810710282
 30
0.0
 10
314.1006347302438
 20
671.1446836330006
 30
0.0
 10
314.6855039015359
 20
670.9869690986934
 30
0.0
 10
315.3160530100893
 20
670.8173101089944
 30
0.0
 10
315.9926578584974
 20
670.6357944966712
 30
0.0
 10
316.6676427633855
 20
670.4553210865932
 30
0.0
 10
317.4634961967424
 20
670.2433101401822
 30
0.0
 10
318.3802205000811
 20
670.0003036488657
 30
0.0
 10
319.4178551123878
 20
669.7269219958589
 30
0.0
 10
320.2796270599342
 20
669.5011992725929
 30
0.0
 10
320.964023322158
 20
669.3225835931862
 30
0.0
 10
321.8370914231966
 20
669.095429809728
 30
0.0
 10
323.0380170830708
 20
668.7818976644332
 30
0.0
 10
324.565012292599
 20
668.3824479345885
 30
0.0
 10
326.0326299695248
 20
667.9980781320756
 30
0.0
 10
328.3477850418525
 20
667.3909559151891
 30
0.0
 10
331.3664913333662
 20
666.5974707091941
 30
0.0
 10
334.9841551039385
 20
665.6432823307488
 30
0.0
 10
338.2611196807981
 20
664.7762290519117
 30
0.0
 10
341.3413502564623
 20
663.9591570717207
 30
0.0
 10
345.4425930777692
 20
662.869528951092
 30
0.0
 10
350.9742675354133
 20
661.3989098804349
 30
0.0
 10
355.5235467093214
 20
660.1907327954548
 30
0.0
 10
357.9657197335339
 20
659.5414490346593
 30
0.0
  0
SPLINE
  5
141
330
107
100
AcDbEntity
  8
0
  6
Continuous
 62
     0
370
    30
100
AcDbSpline
210
0.0
220
0.0
230
1.0
 70
     8
 71
     3
 72
    22
 73
    18
 74
     0
 42
0.000000001
 43
0.0
 40
2.310144573784941
 40
2.310144573784941
 40
2.310144573784941
 40
2.310144573784941
 40
2.616543063590047
 40
3.307934865158669
 40
4.294586562425265
 40
5.318311969246186
 40
6.805905068464097
 40
8.362773345051718
 40
10.6012058140672
 40
12.95168304315899
 40
16.30237269211037
 40
19.78987775344492
 40
24.75550524426069
 40
29.76826181976071
 40
32.45110702938258
 40
40.2808543348216
 40
51.75964858928713
 40
51.75964858928713
 40
51.75964858928713
 40
51.75964858928713
 10
322.7737135093515
 20
690.3347830548666
 30
0.0
 10
322.8498381691392
 20
690.3578105007659
 30
0.0
 10
323.1130347327069
 20
690.4374179390086
 30
0.0
 10
323.5536967811229
 20
690.5707823426268
 30
0.0
 10
324.1953955724352
 20
690.7649913862524
 30
0.0
 10
325.0089041336067
 20
691.0112699791898
 30
0.0
 10
325.9597697114474
 20
691.2991999013443
 30
0.0
 10
327.1915712232602
 20
691.6723065933679
 30
0.0
 10
328.624239616423
 20
692.1063945929767
 30
0.0
 10
330.4733652695784
 20
692.6668716834267
 30
0.0
 10
332.6115918769477
 20
693.3152615613365
 30
0.0
 10
335.3555340809404
 20
694.1477641409386
 30
0.0
 10
338.4818748585531
 20
695.0969198133693
 30
0.0
 10
341.4166907014092
 20
695.9886909641477
 30
0.0
 10
345.0105234844102
 20
697.0815179137428
 30
0.0
 10
350.0915106072468
 20
698.6281713403584
 30
0.0
 10
354.5363855109506
 20
699.9842731666026
 30
0.0
 10
357.1834631837708
 20
700.7917250041525
 30
0.0
  0
SPLINE
  5
142
330
107
100
AcDbEntity
  8
0
  6
Continuous
 62
     0
370
    30
100
AcDbSpline
210
0.0
220
0.0
230
1.0
 70
     8
 71
     3
 72
    61
 73
    57
 74
     0
 42
0.000000001
 43
0.0
 40
0.0
 40
0.0
 40
0.0
 40
0.0
 40
1.682541356508351
 40
3.343449903348135
 40
3.755136729127482
 40
4.165452205288518
 40
4.370101601398908
 40
4.676305973450053
 40
4.775542515144383
 40
4.872590479789708
 40
5.157452096007913
 40
5.347486925348585
 40
5.537127427926902
 40
5.726509936553872
 40
5.821387186731231
 40
5.916393568465656
 40
6.014834522399171
 40
6.113313546703609
 40
6.310370980562021
 40
6.507647070526505
 40
6.903075176499634
 40
7.69928066141509
 40
8.101023910820208
 40
8.30300910529065
 40
8.505809383663298
 40
8.607533417102742
 40
8.63299762556505
 40
8.658325215044288
 40
8.681612131016996
 40
8.704170614505715
 40
8.794458436952207
 40
8.884606200239876
 40
9.064386065244019
 40
9.243542489314642
 40
9.600275794529507
 40
10.31018276440169
 40
10.84405271310631
 40
11.42768690819255
 40
11.84115806598802
 40
12.02358238848692
 40
12.19984618773178
 40
12.28601724201508
 40
12.37036394673174
 40
12.41222674541912
 40
12.45529021738384
 40
12.49348106111153
 40
12.53051651877141
 40
12.67079881850053
 40
12.81049295149124
 40
12.9497264729987
 40
13.36573601833511
 40
13.64253640787419
 40
13.98053468178072
 40
14.31955897049598
 40
14.66010180496555
 40
15.2906906210409
 40
15.2906906210409
 40
15.2906906210409
 40
15.2906906210409
 10
321.3104284486196
 20
701.5276672592493
 30
0.0
 10
321.319630979733
 20
700.9668958599016
 30
0.0
 10
321.3364777412031
 20
699.8525402386747
 30
0.0
 10
321.3531263850834
 20
698.6009325706217
 30
0.0
 10
321.3636503194526
 20
697.7733725495403
 30
0.0
 10
321.3679157119943
 20
697.431165460079
 30
0.0
 10
321.3717747233056
 20
697.1241722015957
 30
0.0
 10
321.3741321103955
 20
696.9206855509185
 30
0.0
 10
321.3762892693458
 20
696.7534843118724
 30
0.0
 10
321.3788322434963
 20
696.5946639399335
 30
0.0
 10
321.3838386207347
 20
696.4132642147672
 30
0.0
 10
321.3938432135059
 20
696.1974748769259
 30
0.0
 10
321.4045883633019
 20
696.0137847316813
 30
0.0
 10
321.415551272069
 20
695.8610469952458
 30
0.0
 10
321.4255577273331
 20
695.7380499095908
 30
0.0
 10
321.4337710338409
 20
695.6452109626775
 30
0.0
 10
321.4427525850544
 20
695.5480997581049
 30
0.0
 10
321.4551853198107
 20
695.418174910477
 30
0.0
 10
321.4715976833786
 20
695.2553165927202
 30
0.0
 10
321.499627399687
 20
694.9946353637793
 30
0.0
 10
321.5535693105517
 20
694.5364138140005
 30
0.0
 10
321.626193431807
 20
694.0117864145266
 30
0.0
 10
321.6996932907617
 20
693.5522050620575
 30
0.0
 10
321.7449003982219
 20
693.2878718292679
 30
0.0
 10
321.7744937452221
 20
693.1221356348955
 30
0.0
 10
321.7943934902694
 20
693.0141581239183
 30
0.0
 10
321.8036861316282
 20
692.9643919445355
 30
0.0
 10
321.8082598849809
 20
692.9400142854728
 30
0.0
 10
321.8125215770197
 20
692.9174515630529
 30
0.0
 10
321.8204492934823
 20
692.8759657694967
 30
0.0
 10
321.8327232681415
 20
692.8135032968017
 30
0.0
 10
321.8551658005115
 20
692.7040843869627
 30
0.0
 10
321.8845957030028
 20
692.5691615200366
 30
0.0
 10
321.9343200317091
 20
692.3581946867491
 30
0.0
 10
322.0278445629974
 20
692.0021054123986
 30
0.0
 10
322.1632651598918
 20
691.5788042058432
 30
0.0
 10
322.3283361192325
 20
691.1562254212362
 30
0.0
 10
322.4668646245625
 20
690.8563111288728
 30
0.0
 10
322.567177294105
 20
690.6670139571437
 30
0.0
 10
322.6285771182688
 20
690.5597839074035
 30
0.0
 10
322.6621901592837
 20
690.5038164584194
 30
0.0
 10
322.6873834399926
 20
690.4632835113789
 30
0.0
 10
322.7022521731542
 20
690.4398864362005
 30
0.0
 10
322.713198241074
 20
690.4229365277652
 30
0.0
 10
322.723192811389
 20
690.4076417593199
 30
0.0
 10
322.72864449811
 20
690.3993922634774
 30
0.0
 10
322.7381928205079
 20
690.3850814989848
 30
0.0
 10
322.751801747817
 20
690.3652121971943
 30
0.0
 10
322.7686406658725
 20
690.3415788098547
 30
0.0
 10
322.7947624832836
 20
690.3063251528602
 30
0.0
 10
322.821755333488
 20
690.2728589292559
 30
0.0
 10
322.848924661419
 20
690.2421218031204
 30
0.0
 10
322.8691453735757
 20
690.221185174721
 30
0.0
 10
322.8853074304755
 20
690.2059890480035
 30
0.0
 10
322.8994623413747
 20
690.1939891501867
 30
0.0
 10
322.903472029448
 20
690.1912094694417
 30
0.0
 10
322.9034676159275
 20
690.1912030710234
 30
0.0
  0
ENDBLK
  5
144
330
107
100
AcDbEntity
  8
0
100
AcDbBlockEnd
  0
BLOCK
  5
17D
330
146
100
AcDbEntity
  8
0
100
AcDbBlockBegin
  2
e
 70
     0
 10
165.015259
 20
0.0
 30
0.0
  3
e
  1

  0
LINE
  5
147
330
146
100
AcDbEntity
  8
0
  6
Continuous
 62
     0
370
    30
100
AcDbLine
 10
5.500181
 20
549.078737
 30
0.0
 11
5.80434
 21
547.943602
 31
0.0
  0
LINE
  5
148
330
146
100
AcDbEntity
  8
0
  6
Continuous
 62
     0
370
    30
100
AcDbLine
 10
5.80434
 20
547.943602
 30
0.0
 11
7.260151
 21
542.510441
 31
0.0
  0
LINE
  5
149
330
146
100
AcDbEntity
  8
0
  6
Continuous
 62
     0
370
    30
100
AcDbLine
 10
5.35876
 20
548.833788
 30
0.0
 11
5.645027
 21
547.765426
 31
0.0
  0
LINE
  5
14A
330
146
100
AcDbEntity
  8
0
  6
Continuous
 62
     0
370
    30
100
AcDbLine
 10
5.645027
 20
547.765426
 30
0.0
 11
7.015202
 21
542.651862
 31
0.0
  0
LINE
  5
14B
330
146
100
AcDbEntity
  8
0
  6
Continuous
 62
     0
370
    30
100
AcDbLine
 10
7.260151
 20
542.510441
 30
0.0
 11
7.015202
 21
542.651862
 31
0.0
  0
LINE
  5
14C
330
146
100
AcDbEntity
  8
0
  6
Continuous
 62
     0
370
    30
100
AcDbLine
 10
5.500181
 20
549.078737
 30
0.0
 11
5.35876
 21
548.833788
 31
0.0
  0
LINE
  5
14D
330
146
100
AcDbEntity
  8
0
  6
Continuous
 62
     0
370
    30
100
AcDbLine
 10
7.260151
 20
542.510441
 30
0.0
 11
56.700064
 21
555.757825
 31
0.0
  0
LINE
  5
14E
330
146
100
AcDbEntity
  8
0
  6
Continuous
 62
     0
370
    30
100
AcDbLine
 10
5.500181
 20
549.078737
 30
0.0
 11
56.700243
 21
562.797751
 31
0.0
  0
LINE
  5
14F
330
146
100
AcDbEntity
  8
0
  6
Continuous
 62
     0
370
    30
100
AcDbLine
 10
78.468366
 20
539.692741
 30
0.0
 11
56.668366
 21
539.692741
 31
0.0
  0
SPLINE
  5
150
330
146
100
AcDbEntity
  8
0
  6
Continuous
 62
     0
370
    30
100
AcDbSpline
210
0.0
220
0.0
230
1.0
 70
     8
 71
     3
 72
    19
 73
    15
 74
     0
 42
0.000000001
 43
0.0
 40
11.2658033122338
 40
11.2658033122338
 40
11.2658033122338
 40
11.2658033122338
 40
12.48753424951718
 40
13.96877809742239
 40
14.66583645924699
 40
15.36189776206074
 40
16.22384773859057
 40
17.0411631424694
 40
17.92333883323709
 40
18.75203639734301
 40
19.92547142059472
 40
20.69443146677877
 40
21.72510818432
 40
22.5316066244676
 40
22.5316066244676
 40
22.5316066244676
 40
22.5316066244676
 10
56.66845123930591
 20
562.8927100466242
 30
0.0
 10
56.66871239776826
 20
562.8925913537408
 30
0.0
 10
56.72043147495155
 20
562.7426549216118
 30
0.0
 10
56.90139869366342
 20
562.1529607312104
 30
0.0
 10
57.06100759300223
 20
561.4325373704305
 30
0.0
 10
57.16869792018632
 20
560.7774252520635
 30
0.0
 10
57.24070219726082
 20
560.0124279437757
 30
0.0
 10
57.25312086423317
 20
559.1535798667036
 30
0.0
 10
57.20133420148646
 20
558.3203645332658
 30
0.0
 10
57.08608751748351
 20
557.4341828697551
 30
0.0
 10
56.93914766538747
 20
556.6952244164164
 30
0.0
 10
56.78952529385927
 20
556.0804037024544
 30
0.0
 10
56.69151314748676
 20
555.7258441404006
 30
0.0
 10
56.66836602233872
 20
555.6458077708198
 30
0.0
 10
56.66836603405565
 20
555.6458077708198
 30
0.0
  0
LINE
  5
151
330
146
100
AcDbEntity
  8
0
  6
Continuous
 62
     0
370
    30
100
AcDbLine
 10
77.968366
 20
566.892741
 30
0.0
 11
57.168366
 21
566.892741
 31
0.0
  0
LINE
  5
152
330
146
100
AcDbEntity
  8
0
  6
Continuous
 62
     0
370
     0
100
AcDbLine
 10
78.468366
 20
566.392741
 30
0.0
 11
56.668366
 21
566.392741
 31
0.0
  0
LINE
  5
153
330
146
100
AcDbEntity
  8
0
  6
Continuous
 62
     0
370
    30
100
AcDbLine
 10
78.468366
 20
566.392741
 30
0.0
 11
78.468366
 21
539.692741
 31
0.0
  0
ARC
  5
154
330
146
100
AcDbEntity
  8
0
  6
Continuous
 62
     0
370
    30
100
AcDbCircle
 10
77.968366
 20
566.392741
 30
0.0
 40
0.5
100
AcDbArc
 50
0.0
 51
90.0
  0
ARC
  5
155
330
146
100
AcDbEntity
  8
0
  6
Continuous
 62
     0
370
    30
100
AcDbCircle
 10
57.168366
 20
566.392741
 30
0.0
 40
0.5
100
AcDbArc
 50
90.0
 51
180.0
  0
LINE
  5
156
330
146
100
AcDbEntity
  8
0
  6
Continuous
 62
     0
370
    30
100
AcDbLine
 10
56.668366
 20
566.392741
 30
0.0
 11
56.668366
 21
562.892685
 31
0.0
  0
LINE
  5
157
330
146
100
AcDbEntity
  8
0
  6
Continuous
 62
     0
370
    30
100
AcDbLine
 10
56.668366
 20
555.645808
 30
0.0
 11
56.668366
 21
539.692741
 31
0.0
  0
LINE
  5
158
330
146
100
AcDbEntity
  8
0
  6
Continuous
 62
     0
370
     0
100
AcDbLine
 10
58.668366
 20
529.092741
 30
0.0
 11
67.568366
 21
529.092741
 31
0.0
  0
LINE
  5
159
330
146
100
AcDbEntity
  8
0
  6
Continuous
 62
     0
370
     0
100
AcDbLine
 10
67.568366
 20
529.092741
 30
0.0
 11
76.468366
 21
529.092741
 31
0.0
  0
LINE
  5
15A
330
146
100
AcDbEntity
  8
0
  6
Continuous
 62
     0
370
     0
100
AcDbLine
 10
51.068366
 20
528.092741
 30
0.0
 11
67.568365
 21
528.092741
 31
0.0
  0
LINE
  5
15B
330
146
100
AcDbEntity
  8
0
  6
Continuous
 62
     0
370
     0
100
AcDbLine
 10
67.568365
 20
528.092741
 30
0.0
 11
84.068366
 21
528.092741
 31
0.0
  0
LINE
  5
15C
330
146
100
AcDbEntity
  8
0
  6
Continuous
 62
     0
370
    30
100
AcDbLine
 10
51.568366
 20
528.592741
 30
0.0
 11
67.568365
 21
528.592741
 31
0.0
  0
LINE
  5
15D
330
146
100
AcDbEntity
  8
0
  6
Continuous
 62
     0
370
    30
100
AcDbLine
 10
67.568365
 20
528.592741
 30
0.0
 11
83.568366
 21
528.592741
 31
0.0
  0
ARC
  5
15E
330
146
100
AcDbEntity
  8
0
  6
Continuous
 62
     0
370
    30
100
AcDbCircle
 10
83.568366
 20
528.092741
 30
0.0
 40
0.5
100
AcDbArc
 50
360.0
 51
90.0
  0
ARC
  5
15F
330
146
100
AcDbEntity
  8
0
  6
Continuous
 62
     0
370
    30
100
AcDbCircle
 10
51.568366
 20
528.092741
 30
0.0
 40
0.5
100
AcDbArc
 50
90.0
 51
180.0
  0
ARC
  5
160
330
146
100
AcDbEntity
  8
0
  6
Continuous
 62
     0
370
    30
100
AcDbCircle
 10
76.968366
 20
529.092741
 30
0.0
 40
0.5
100
AcDbArc
 50
180.0
 51
270.0
  0
ARC
  5
161
330
146
100
AcDbEntity
  8
0
  6
Continuous
 62
     0
370
    30
100
AcDbCircle
 10
58.168366
 20
529.092741
 30
0.0
 40
0.5
100
AcDbArc
 50
270.0
 51
360.0
  0
LINE
  5
162
330
146
100
AcDbEntity
  8
0
  6
Continuous
 62
     0
370
    30
100
AcDbLine
 10
76.468366
 20
529.092741
 30
0.0
 11
76.468366
 21
539.692741
 31
0.0
  0
LINE
  5
163
330
146
100
AcDbEntity
  8
0
  6
Continuous
 62
     0
370
    30
100
AcDbLine
 10
58.668366
 20
529.092741
 30
0.0
 11
58.668366
 21
539.692741
 31
0.0
  0
LINE
  5
164
330
146
100
AcDbEntity
  8
0
  6
Continuous
 62
     0
370
    30
100
AcDbLine
 10
84.068366
 20
508.592741
 30
0.0
 11
84.068366
 21
528.092741
 31
0.0
  0
LINE
  5
165
330
146
100
AcDbEntity
  8
0
  6
Continuous
 62
     0
370
    30
100
AcDbLine
 10
51.068366
 20
508.592741
 30
0.0
 11
51.068366
 21
528.092741
 31
0.0
  0
LINE
  5
166
330
146
100
AcDbEntity
  8
0
  6
Continuous
 62
     0
370
    30
100
AcDbLine
 10
49.068367
 20
399.492741
 30
0.0
 11
86.068367
 21
399.492741
 31
0.0
  0
ARC
  5
167
330
146
100
AcDbEntity
  8
0
  6
Continuous
 62
     0
370
    30
100
AcDbCircle
 10
49.068367
 20
400.992741
 30
0.0
 40
1.5
100
AcDbArc
 50
195.466015
 51
270.0
  0
ARC
  5
168
330
146
100
AcDbEntity
  8
0
  6
Continuous
 62
     0
370
    30
100
AcDbCircle
 10
86.068367
 20
400.992741
 30
0.0
 40
1.5
100
AcDbArc
 50
270.0
 51
344.533985
  0
SPLINE
  5
169
330
146
100
AcDbEntity
  8
0
  6
Continuous
 62
     0
370
    30
100
AcDbSpline
210
0.0
220
0.0
230
1.0
 70
    12
 71
     2
 72
     6
 73
     3
 74
     0
 42
0.000000001
 43
0.0
 40
0.7426125484936623
 40
0.7426125484936623
 40
0.7426125484936623
 40
1.0
 40
1.0
 40
1.0
 10
32.06836729844584
 20
400.5927410336904
 30
0.0
 41
0.8536812664598802
 10
32.06836662562069
 20
400.59274096361
 30
0.0
 41
0.8492259216922347
 10
43.08800428303488
 20
400.5927409152833
 30
0.0
 41
1.0
  0
LINE
  5
16A
330
146
100
AcDbEntity
  8
0
  6
Continuous
 62
     0
370
    30
100
AcDbLine
 10
43.088004
 20
400.592741
 30
0.0
 11
103.068367
 21
400.592741
 31
0.0
  0
SPLINE
  5
16B
330
146
100
AcDbEntity
  8
0
  6
Continuous
 62
     0
370
     0
100
AcDbSpline
210
0.0
220
0.0
230
1.0
 70
    12
 71
     2
 72
     6
 73
     3
 74
     0
 42
0.000000001
 43
0.0
 40
0.7426125484560584
 40
0.7426125484560584
 40
0.7426125484560584
 40
1.0
 40
1.0
 40
1.0
 10
30.06836729844584
 20
402.5927410336903
 30
0.0
 41
0.853681266461182
 10
30.06836658571245
 20
402.5927409596617
 30
0.0
 41
0.8492259216702067
 10
41.70882890188503
 20
402.5927409086125
 30
0.0
 41
1.0
  0
LINE
  5
16C
330
146
100
AcDbEntity
  8
0
  6
Continuous
 62
     0
370
     0
100
AcDbLine
 10
41.708829
 20
402.592741
 30
0.0
 11
105.068367
 21
402.592741
 31
0.0
  0
SPLINE
  5
16D
330
146
100
AcDbEntity
  8
0
  6
Continuous
 62
     0
370
     0
100
AcDbSpline
210
0.0
220
0.0
230
1.0
 70
    12
 71
     2
 72
     6
 73
     3
 74
     0
 42
0.000000001
 43
0.0
 40
0.7426125484560572
 40
0.7426125484560572
 40
0.7426125484560572
 40
1.0
 40
1.0
 40
1.0
 10
30.06836729844678
 20
506.5927410336904
 30
0.0
 41
0.853681266461182
 10
30.06836658571335
 20
506.5927409596617
 30
0.0
 41
0.849225921670206
 10
41.70882890188562
 20
506.5927409086125
 30
0.0
 41
1.0
  0
LINE
  5
16E
330
146
100
AcDbEntity
  8
0
  6
Continuous
 62
     0
370
     0
100
AcDbLine
 10
41.708829
 20
506.592741
 30
0.0
 11
105.068367
 21
506.592741
 31
0.0
  0
SPLINE
  5
16F
330
146
100
AcDbEntity
  8
0
  6
Continuous
 62
     0
370
    30
100
AcDbSpline
210
0.0
220
0.0
230
1.0
 70
    12
 71
     2
 72
     6
 73
     3
 74
     0
 42
0.000000001
 43
0.0
 40
0.7426125484184528
 40
0.7426125484184528
 40
0.7426125484184528
 40
1.0
 40
1.0
 40
1.0
 10
32.06836729844677
 20
508.5927410336903
 30
0.0
 41
0.853681266462484
 10
32.06836662182999
 20
508.5927409636099
 30
0.0
 41
0.849225921648178
 10
43.08800428303545
 20
508.5927409152833
 30
0.0
 41
1.0
  0
LINE
  5
170
330
146
100
AcDbEntity
  8
0
  6
Continuous
 62
     0
370
    30
100
AcDbLine
 10
43.088004
 20
508.592741
 30
0.0
 11
103.068367
 21
508.592741
 31
0.0
  0
ARC
  5
171
330
146
100
AcDbEntity
  8
0
  6
Continuous
 62
     0
370
    30
100
AcDbCircle
 10
103.068277
 20
506.592651
 30
0.0
 40
2.000090101176852
100
AcDbArc
 50
0.002581
 51
89.997419
  0
ARC
  5
172
330
146
100
AcDbEntity
  8
0
  6
Continuous
 62
     0
370
    30
100
AcDbCircle
 10
32.068457
 20
506.592651
 30
0.0
 40
2.000090101179842
100
AcDbArc
 50
90.002581
 51
179.997419
  0
LINE
  5
173
330
146
100
AcDbEntity
  8
0
  6
Continuous
 62
     0
370
    30
100
AcDbLine
 10
105.068367
 20
402.592741
 30
0.0
 11
105.068367
 21
506.592741
 31
0.0
  0
LINE
  5
174
330
146
100
AcDbEntity
  8
0
  6
Continuous
 62
     0
370
    30
100
AcDbLine
 10
30.068367
 20
402.592741
 30
0.0
 11
30.068367
 21
506.592741
 31
0.0
  0
SPLINE
  5
175
330
146
100
AcDbEntity
  8
0
  6
Continuous
 62
     0
370
    30
100
AcDbSpline
210
0.0
220
0.0
230
1.0
 70
     8
 71
     3
 72
    22
 73
    18
 74
     0
 42
0.000000001
 43
0.0
 40
0.0
 40
0.0
 40
0.0
 40
0.0
 40
0.0872646272571719
 40
0.1760347706884515
 40
0.2662600666552261
 40
0.3578825723895743
 40
0.4509491707398058
 40
0.5452770494045329
 40
0.640785059501816
 40
0.8349801002294985
 40
1.032742886020274
 40
1.233183515145582
 40
1.638177346731023
 40
1.840672233947962
 40
2.141521693722565
 40
2.532256131539757
 40
3.141011064032448
 40
3.141011064032448
 40
3.141011064032448
 40
3.141011064032448
 10
103.0686501305571
 20
400.5927410536864
 30
0.0
 10
103.075563906435
 20
400.5927420314704
 30
0.0
 10
103.1668930541505
 20
400.5940354692483
 30
0.0
 10
103.2421360252143
 20
400.5998863799182
 30
0.0
 10
103.3354841445336
 20
400.609857759078
 30
0.0
 10
103.4250327320039
 20
400.6241172570281
 30
0.0
 10
103.5164490263923
 20
400.6428169775258
 30
0.0
 10
103.6077954112422
 20
400.6660846347777
 30
0.0
 10
103.7302849862991
 20
400.7035220680912
 30
0.0
 10
103.882011177504
 20
400.7622200833274
 30
0.0
 10
104.0585593644529
 20
400.8512610656981
 30
0.0
 10
104.2847566282883
 20
400.9951740917725
 30
0.0
 10
104.4886310761241
 20
401.1732882966072
 30
0.0
 10
104.6841520350993
 20
401.4050200020242
 30
0.0
 10
104.846711930387
 20
401.6558904852367
 30
0.0
 10
105.0172217753525
 20
402.056437215985
 30
0.0
 10
105.0683672984367
 20
402.3905889703537
 30
0.0
 10
105.0683672984367
 20
402.5927410336905
 30
0.0
  0
SPLINE
  5
176
330
146
100
AcDbEntity
  8
0
  6
Continuous
 62
     0
370
    30
100
AcDbSpline
210
0.0
220
0.0
230
1.0
 70
     8
 71
     3
 72
    22
 73
    18
 74
     0
 42
0.000000001
 43
0.0
 40
0.0
 40
0.0
 40
0.0
 40
0.0
 40
0.0872646274203331
 40
0.1760347710202956
 40
0.2662600671609784
 40
0.3578825730740726
 40
0.4509491714342035
 40
0.545277050108254
 40
0.6407850602142316
 40
0.8349801009571083
 40
1.032742886759823
 40
1.233183515893585
 40
1.638177347484275
 40
1.840672234697902
 40
2.141521694460339
 40
2.532256132249315
 40
3.141011064011851
 40
3.141011064011851
 40
3.141011064011851
 40
3.141011064011851
 10
32.06808446622424
 20
400.5927410536862
 30
0.0
 10
32.06117069283397
 20
400.5927420314702
 30
0.0
 10
31.96984154128884
 20
400.5940354692531
 30
0.0
 10
31.89459857160429
 20
400.5998863799458
 30
0.0
 10
31.80125045171323
 20
400.6098577591446
 30
0.0
 10
31.71170186426974
 20
400.6241172571424
 30
0.0
 10
31.62028556978495
 20
400.6428169776855
 30
0.0
 10
31.52893918494476
 20
400.6660846349727
 30
0.0
 10
31.40644960988752
 20
400.7035220683339
 30
0.0
 10
31.25472341869488
 20
400.7622200836307
 30
0.0
 10
31.07817523176834
 20
400.8512610660733
 30
0.0
 10
30.85197796798082
 20
400.9951740922388
 30
0.0
 10
30.64810352021107
 20
401.1732882971544
 30
0.0
 10
30.45258256132757
 20
401.4050200026443
 30
0.0
 10
30.29002266614367
 20
401.6558904859066
 30
0.0
 10
30.11951282142874
 20
402.0564372164812
 30
0.0
 10
30.06836729844576
 20
402.3905889705941
 30
0.0
 10
30.06836729844576
 20
402.5927410336903
 30
0.0
  0
SPLINE
  5
177
330
146
100
AcDbEntity
  8
0
  6
Continuous
 62
     0
370
    30
100
AcDbSpline
210
0.0
220
0.0
230
1.0
 70
     8
 71
     3
 72
    48
 73
    44
 74
     0
 42
0.000000001
 43
0.0
 40
0.0
 40
0.0
 40
0.0
 40
0.0
 40
1.52508287853493
 40
3.96155888848479
 40
5.91838153034265
 40
7.29597843854682
 40
9.019875944992789
 40
9.941532244425039
 40
10.9810702329302
 40
11.6759091176335
 40
12.2561346086104
 40
12.7211187028709
 40
14.0612213420757
 40
14.6957295156982
 40
15.1723874844394
 40
15.4904977392205
 40
16.7649463927869
 40
18.0422527601611
 40
19.3220113317474
 40
20.6038215778447
 40
21.8872883575695
 40
24.0293787694158
 40
26.6026920267828
 40
29.1755970023878
 40
31.1802052851939
 40
32.3266439961058
 40
34.6150527113963
 40
35.3806218184106
 40
36.52713526088591
 40
36.90877188031881
 40
37.0994837537839
 40
37.4806751884839
 40
38.0413406916683
 40
38.7805330221115
 40
39.7020816682886
 40
40.6208327458485
 40
42.4149317458436
 40
43.8419560359339
 40
46.5016756406082
 40
47.9416235966314
 40
50.1585524899159
 40
51.86431577661669
 40
52.6160161694094
 40
52.6160161694094
 40
52.6160161694094
 40
52.6160161694094
 10
131.5614779526764
 20
398.3075537310104
 30
0.0
 10
131.5614779304771
 20
398.3075537350998
 30
0.0
 10
131.5614778693683
 20
398.2065266615998
 30
0.0
 10
131.5614777676461
 20
397.6564092516414
 30
0.0
 10
131.5614776625824
 20
396.7083975174854
 30
0.0
 10
131.561477569976
 20
395.6334901263236
 30
0.0
 10
131.5614774976986
 20
394.6192131531831
 30
0.0
 10
131.5614774342099
 20
393.5902912055957
 30
0.0
 10
131.5614773903293
 20
392.8031230724649
 30
0.0
 10
131.5614773538836
 20
392.0889137590375
 30
0.0
 10
131.5614773275925
 20
391.5389858719013
 30
0.0
 10
131.5614772928981
 20
390.7729400874806
 30
0.0
 10
131.56147725993
 20
389.9713743346482
 30
0.0
 10
131.5614772299568
 20
389.1568213053451
 30
0.0
 10
131.5614772135537
 20
388.6804724764343
 30
0.0
 10
131.5614771909974
 20
387.9907211910676
 30
0.0
 10
131.5614771595986
 20
387.0341434807497
 30
0.0
 10
131.5614771178371
 20
385.7570124812082
 30
0.0
 10
131.5614770760021
 20
384.4774425009555
 30
0.0
 10
131.5614770341039
 20
383.1958163122978
 30
0.0
 10
131.5614769827617
 20
381.6267494706669
 30
0.0
 10
131.5614769171898
 20
379.6271701565257
 30
0.0
 10
131.5614768370763
 20
377.1977306652667
 30
0.0
 10
131.5614767577894
 20
374.8141304873797
 30
0.0
 10
131.5614766940346
 20
372.9061990345886
 30
0.0
 10
131.5614766333495
 20
371.093115826314
 30
0.0
 10
131.5614765864429
 20
369.6930398650952
 30
0.0
 10
131.5614765395773
 20
368.2929292118324
 30
0.0
 10
131.5614765140128
 20
367.5283822739144
 30
0.0
 10
131.5614764948715
 20
366.9554405147762
 30
0.0
 10
131.5614764842674
 20
366.6376049549085
 30
0.0
 10
131.5614764716163
 20
366.2600593203725
 30
0.0
 10
131.5614764540319
 20
365.6998851627222
 30
0.0
 10
131.5614764329248
 20
364.9627588505226
 30
0.0
 10
131.5614764117978
 20
364.1164988713415
 30
0.0
 10
131.5614763876026
 20
362.9494719409944
 30
0.0
 10
131.5614763698891
 20
361.680034276534
 30
0.0
 10
131.5614763624338
 20
360.0343730081234
 30
0.0
 10
131.5614763771699
 20
358.7289113004341
 30
0.0
 10
131.5614764182401
 20
357.6067511676717
 30
0.0
 10
131.5614764703284
 20
356.9615349260576
 30
0.0
 10
131.5614765294327
 20
356.7087605418603
 30
0.0
 10
131.5614765642242
 20
356.6779241033922
 30
0.0
 10
131.5614765751742
 20
356.6779241013808
 30
0.0
  0
SPLINE
  5
178
330
146
100
AcDbEntity
  8
0
  6
Continuous
 62
     0
370
    30
100
AcDbSpline
210
0.0
220
0.0
230
1.0
 70
     8
 71
     3
 72
    41
 73
    37
 74
     0
 42
0.000000001
 43
0.0
 40
0.0
 40
0.0
 40
0.0
 40
0.0
 40
1.6755204748213
 40
2.492936689731112
 40
3.297670835546941
 40
4.091967945648911
 40
4.879141557525333
 40
5.271343858841387
 40
5.663407750228991
 40
6.055974035459416
 40
6.445846940079471
 40
6.832398397175637
 40
7.221426066867197
 40
8.00911634020798
 40
8.815234555244347
 40
9.645585169015355
 40
10.50589522410502
 40
11.40166585946778
 40
12.33802395742741
 40
13.31957423987028
 40
13.82921820574301
 40
14.35162646724013
 40
14.88716628537672
 40
15.16006150188238
 40
15.66862360421686
 40
16.50405035484175
 40
17.36930241429501
 40
19.18959210747047
 40
23.17766455093204
 40
27.57686507565836
 40
32.2905275119663
 40
37.19927304884512
 40
42.17898790336878
 40
47.11880099010816
 40
51.93906159054328
 40
61.16629030944007
 40
61.16629030944007
 40
61.16629030944007
 40
61.16629030944007
 10
76.46140096130641
 20
399.4927407395251
 30
0.0
 10
76.46140405691159
 20
398.9342339145932
 30
0.0
 10
76.46140384023369
 20
398.1032550020511
 30
0.0
 10
76.46140502001666
 20
397.0040314319111
 30
0.0
 10
76.46140149050632
 20
396.1985488201988
 30
0.0
 10
76.46141434794211
 20
395.4031476445601
 30
0.0
 10
76.46137469990622
 20
394.7452552620251
 30
0.0
 10
76.46145508669579
 20
394.2214447833354
 30
0.0
 10
76.46120982226336
 20
393.8291587820475
 30
0.0
 10
76.46212957828331
 20
393.4376896650184
 30
0.0
 10
76.458726980222
 20
393.0479080682797
 30
0.0
 10
76.48615114962652
 20
392.6599086187003
 30
0.0
 10
76.5628870251129
 20
392.1440939602326
 30
0.0
 10
76.73711680680712
 20
391.5034146542321
 30
0.0
 10
77.07180560237681
 20
390.764165985162
 30
0.0
 10
77.53624498541583
 20
390.0688970036359
 30
0.0
 10
78.13199533622033
 20
389.4398190645118
 30
0.0
 10
78.85750587927035
 20
388.9033115304177
 30
0.0
 10
79.7054850065893
 20
388.4901511825116
 30
0.0
 10
80.49276000571204
 20
388.2798611550552
 30
0.0
 10
81.16075889273486
 20
388.2047378380233
 30
0.0
 10
81.68415584431742
 20
388.2006019489811
 30
0.0
 10
82.12686024451588
 20
388.2424317371317
 30
0.0
 10
82.55840797579803
 20
388.3235945626953
 30
0.0
 10
83.08592657685318
 20
388.4339629421866
 30
0.0
 10
83.80780824382029
 20
388.5796124812122
 30
0.0
 10
84.95773297332761
 20
388.8144094591809
 30
0.0
 10
87.13758308291548
 20
389.258075465839
 30
0.0
 10
90.47158581018058
 20
389.9374567284656
 30
0.0
 10
94.7507029144602
 20
390.8090442997464
 30
0.0
 10
99.330512910295
 20
391.7419935070328
 30
0.0
 10
104.0999403205985
 20
392.7135361962037
 30
0.0
 10
108.9432324285456
 20
393.7001345415497
 30
0.0
 10
113.7576236096509
 20
394.6808431685196
 30
0.0
 10
119.9593610676429
 20
395.9441600107625
 30
0.0
 10
124.5476295616625
 20
396.8788070782595
 30
0.0
 10
127.5614779257146
 20
397.4927390485535
 30
0.0
  0
LINE
  5
179
330
146
100
AcDbEntity
  8
0
  6
Continuous
 62
     0
370
    30
100
AcDbLine
 10
127.561478
 20
397.492739
 30
0.0
 11
131.561478
 21
398.307554
 31
0.0
  0
LINE
  5
17A
330
146
100
AcDbEntity
  8
0
  6
Continuous
 62
     0
370
    30
100
AcDbLine
 10
131.561477
 20
356.677924
 30
0.0
 11
127.561477
 21
357.492739
 31
0.0
  0
SPLINE
  5
17B
330
146
100
AcDbEntity
  8
0
  6
Continuous
 62
     0
370
    30
100
AcDbSpline
210
0.0
220
0.0
230
1.0
 70
     8
 71
     3
 72
    44
 73
    40
 74
     0
 42
0.000000001
 43
0.0
 40
0.0
 40
0.0
 40
0.0
 40
0.0
 40
9.348902111362818
 40
13.76472365393374
 40
18.23108374373973
 40
22.97765603177311
 40
28.2328800339484
 40
31.1117867028302
 40
34.18129602919697
 40
37.45061654885518
 40
40.92087997160745
 40
44.58388880314379
 40
46.48248647009495
 40
48.42200896034778
 40
50.39908117662958
 40
51.40055147246402
 40
52.40999798346482
 40
53.42691798031942
 40
54.04381373546491
 40
54.50863148552803
 40
55.44200873188987
 40
56.38024628863999
 40
57.32294758972809
 40
58.26971332037744
 40
60.17256327208787
 40
62.08687259008107
 40
64.00953013809486
 40
65.9375291314617
 40
67.8680126961383
 40
68.83401227470704
 40
69.79965126063112
 40
73.67374449065612
 40
74.65302470215867
 40
75.6303769413785
 40
77.57861412233056
 40
79.51738187153003
 40
81.44610867637324
 40
85.27396228236029
 40
89.0695281686776
 40
89.0695281686776
 40
89.0695281686776
 40
89.0695281686776
 10
121.9114766402267
 20
358.6436651614334
 30
0.0
 10
118.8578866824455
 20
359.2656928506603
 30
0.0
 10
114.3619767434199
 20
360.1815265116097
 30
0.0
 10
108.4072396442629
 20
361.3945287187337
 30
0.0
 10
103.9557408892204
 20
362.3013156548848
 30
0.0
 10
99.23007187504723
 20
363.2639521012752
 30
0.0
 10
95.02290564786914
 20
364.1209675787373
 30
0.0
 10
91.36351097931298
 20
364.8663999752071
 30
0.0
 10
88.35276303584244
 20
365.4797005065004
 30
0.0
 10
85.14886297092701
 20
366.1323472541491
 30
0.0
 10
81.75111048873725
 20
366.8244807992056
 30
0.0
 10
78.80107223194173
 20
367.4254190691441
 30
0.0
 10
76.35101020007335
 20
367.924496360144
 30
0.0
 10
74.4516261141123
 20
368.3114382517662
 30
0.0
 10
72.84524101760576
 20
368.638567952887
 30
0.0
 10
71.54270268814648
 20
368.9041010073689
 30
0.0
 10
70.55360790999953
 20
369.1049595348094
 30
0.0
 10
69.69066554809407
 20
369.2827958923963
 30
0.0
 10
69.0042768850314
 20
369.4180551898764
 30
0.0
 10
68.3495536717589
 20
369.5686093194591
 30
0.0
 10
67.60077453712327
 20
369.7855454087076
 30
0.0
 10
66.7198602480531
 20
370.1103027162271
 30
0.0
 10
65.86064767421959
 20
370.4999811529068
 30
0.0
 10
64.74950836871004
 20
371.1046552711206
 30
0.0
 10
63.44105544582952
 20
372.0153539488301
 30
0.0
 10
62.04282995412507
 20
373.3312172304932
 30
0.0
 10
60.84800682022068
 20
374.8453673146925
 30
0.0
 10
59.88747336229916
 20
376.5238408176976
 30
0.0
 10
59.3013380666363
 20
378.0285376495041
 30
0.0
 10
58.97130315334469
 20
379.2735713180171
 30
0.0
 10
58.60872455485593
 20
381.1780067307715
 30
0.0
 10
58.66634880000538
 20
383.1333236220743
 30
0.0
 10
58.66099214617005
 20
385.0754443961754
 30
0.0
 10
58.66187252118556
 20
386.3773066339216
 30
0.0
 10
58.66144290710015
 20
387.9986423605922
 30
0.0
 10
58.66157948481045
 20
389.9372566716693
 30
0.0
 10
58.66153525000317
 20
392.5023606913587
 30
0.0
 10
58.66155730637368
 20
395.6864154171998
 30
0.0
 10
58.66155158380174
 20
398.2275536713481
 30
0.0
 10
58.66155162566614
 20
399.4927423001205
 30
0.0
  0
LINE
  5
17C
330
146
100
AcDbEntity
  8
0
  6
Continuous
 62
     0
370
    30
100
AcDbLine
 10
127.561477
 20
357.492739
 30
0.0
 11
121.911477
 21
358.643665
 31
0.0
  0
ENDBLK
  5
17E
330
146
100
AcDbEntity
  8
0
100
AcDbBlockEnd
  0
ENDSEC
  0
SECTION
  2
ENTITIES
  0
INSERT
  5
B0
330
1F
100
AcDbEntity
  8
0
  6
Continuous
 62
     7
370
     0
100
AcDbBlockReference
  2
a
 10
231.281036
 20
80.514496
 30
0.0
  0
INSERT
  5
D0
330
1F
100
AcDbEntity
  8
0
  6
Continuous
 62
     7
370
     0
100
AcDbBlockReference
  2
b
 10
220.550446
 20
129.103271
 30
0.0
  0
INSERT
  5
106
330
1F
100
AcDbEntity
  8
0
  6
Continuous
 62
     7
370
     0
100
AcDbBlockReference
  2
c
 10
266.13858
 20
50.39682
 30
0.0
  0
INSERT
  5
145
330
1F
100
AcDbEntity
  8
0
  6
Continuous
 62
     7
370
     0
100
AcDbBlockReference
  2
d
 10
36.726776
 20
646.916473
 30
0.0
  0
INSERT
  5
17F
330
1F
100
AcDbEntity
  8
0
  6
Continuous
 62
     7
370
     0
100
AcDbBlockReference
  2
e
 10
165.015259
 20
0.0
 30
0.0
  0
ENDSEC
  0
SECTION
  2
OBJECTS
  0
DICTIONARY
  5
C
330
0
100
AcDbDictionary
281
     1
  3
ACAD_GROUP
350
D
  3
ACAD_LAYOUT
350
1A
  3
ACAD_MATERIAL
350
43
  3
ACAD_MLEADERSTYLE
350
6B
  3
ACAD_MLINESTYLE
350
17
  3
ACAD_PLOTSETTINGS
350
19
  3
ACAD_PLOTSTYLENAME
350
E
  3
ACAD_SCALELIST
350
47
  3
ACAD_TABLESTYLE
350
69
  3
ACAD_VISUALSTYLE
350
2A
  3
AcDbVariableDictionary
350
180
  0
DICTIONARY
  5
18B
330
8
100
AcDbDictionary
280
     1
281
     1
  3
ACAD_XREC_ROUNDTRIP
360
18C
  0
DICTIONARY
  5
D
102
{ACAD_REACTORS
330
C
102
}
330
C
100
AcDbDictionary
281
     1
  0
DICTIONARY
  5
1A
102
{ACAD_REACTORS
330
C
102
}
330
C
100
AcDbDictionary
281
     1
  3
Layout1
350
1E
  3
Layout2
350
26
  3
Model
350
22
  0
DICTIONARY
  5
43
102
{ACAD_REACTORS
330
C
102
}
330
C
100
AcDbDictionary
281
     1
  3
ByBlock
350
45
  3
ByLayer
350
44
  3
Global
350
46
  0
DICTIONARY
  5
6B
102
{ACAD_REACTORS
330
C
102
}
330
C
100
AcDbDictionary
281
     1
  3
Standard
350
6C
  0
DICTIONARY
  5
17
102
{ACAD_REACTORS
330
C
102
}
330
C
100
AcDbDictionary
281
     1
  3
Standard
350
18
  0
DICTIONARY
  5
19
102
{ACAD_REACTORS
330
C
102
}
330
C
100
AcDbDictionary
281
     1
  0
ACDBDICTIONARYWDFLT
  5
E
102
{ACAD_REACTORS
330
C
102
}
330
C
100
AcDbDictionary
281
     1
  3
Normal
350
F
100
AcDbDictionaryWithDefault
340
F
  0
DICTIONARY
  5
47
102
{ACAD_REACTORS
330
C
102
}
330
C
100
AcDbDictionary
281
     1
  3
A0
350
48
  3
A1
350
49
  3
A2
350
4A
  3
A3
350
4B
  3
A4
350
4C
  3
A5
350
4D
  3
A6
350
4E
  3
A7
350
4F
  3
A8
350
50
  3
A9
350
51
  3
B0
350
52
  3
B1
350
53
  3
B2
350
54
  3
B3
350
55
  3
B4
350
56
  3
B5
350
57
  3
B6
350
58
  3
B7
350
59
  3
B8
350
5A
  3
B9
350
5B
  3
C0
350
5C
  3
C1
350
5D
  3
C2
350
5E
  3
C3
350
5F
  3
C4
350
60
  3
C5
350
61
  3
C6
350
62
  3
C7
350
63
  3
C8
350
64
  3
C9
350
65
  3
D0
350
66
  3
D1
350
67
  3
D2
350
68
  0
DICTIONARY
  5
69
102
{ACAD_REACTORS
330
C
102
}
330
C
100
AcDbDictionary
281
     1
  3
Standard
350
6A
  0
DICTIONARY
  5
2A
102
{ACAD_REACTORS
330
C
102
}
330
C
100
AcDbDictionary
281
     1
  3
2dWireframe
350
2F
  3
Basic
350
32
  3
Brighten
350
36
  3
ColorChange
350
3A
  3
Conceptual
350
34
  3
Dim
350
35
  3
EdgeColorOff
350
3D
  3
Facepattern
350
39
  3
Flat
350
2B
  3
FlatWithEdges
350
2C
  3
Gouraud
350
2D
  3
GouraudWithEdges
350
2E
  3
Hidden
350
31
  3
JitterOff
350
3B
  3
Linepattern
350
38
  3
OverhangOff
350
3C
  3
Realistic
350
33
  3
Shaded
350
42
  3
Shaded with edges
350
41
  3
Shades of Gray
350
3E
  3
Sketchy
350
3F
  3
Thicken
350
37
  3
Wireframe
350
30
  3
X-Ray
350
40
  0
DICTIONARY
  5
180
102
{ACAD_REACTORS
330
C
102
}
330
C
100
AcDbDictionary
281
     1
  3
CANNOSCALE
350
18D
  3
CENTEREXE
350
187
  3
CENTERLTYPEFILE
350
188
  3
CMLEADERSTYLE
350
182
  3
CTABLESTYLE
350
181
  3
DIMASSOC
350
189
  3
HIDETEXT
350
18A
  3
MSLTSCALE
350
18E
  3
PSOLHEIGHT
350
184
  3
PSOLWIDTH
350
183
  0
XRECORD
  5
18C
102
{ACAD_REACTORS
330
18B
102
}
330
18B
100
AcDbXrecord
280
     1
102
VTR_0.000_0.000_1.000_1.000_VISUALSTYLE
340
2F
102
VTR_0.000_0.000_1.000_1.000_GRIDDISPLAY
 70
     3
102
VTR_0.000_0.000_1.000_1.000_GRIDMAJOR
 70
     5
102
VTR_0.000_0.000_1.000_1.000_DEFAULTLIGHTING
280
     1
102
VTR_0.000_0.000_1.000_1.000_DEFAULTLIGHTINGTYPE
 70
     1
102
VTR_0.000_0.000_1.000_1.000_BRIGHTNESS
141
0.0
102
VTR_0.000_0.000_1.000_1.000_CONTRAST
142
0.0
  0
LAYOUT
  5
1E
102
{ACAD_REACTORS
330
1A
102
}
330
1A
100
AcDbPlotSettings
  1

  2
none_device
  4

  6

 40
0.0
 41
0.0
 42
0.0
 43
0.0
 44
0.0
 45
0.0
 46
0.0
 47
0.0
 48
0.0
 49
0.0
140
0.0
141
0.0
142
1.0
143
1.0
 70
   688
 72
     1
 73
     0
 74
     5
  7

 75
    16
147
1.0
148
0.0
149
0.0
100
AcDbLayout
  1
Layout1
 70
     1
 71
     1
 10
0.0
 20
0.0
 11
420.0
 21
297.0
 12
0.0
 22
0.0
 32
0.0
 14
1.000000E+20
 24
1.000000E+20
 34
1.000000E+20
 15
-1.000000E+20
 25
-1.000000E+20
 35
-1.000000E+20
146
0.0
 13
0.0
 23
0.0
 33
0.0
 16
1.0
 26
0.0
 36
0.0
 17
0.0
 27
1.0
 37
0.0
 76
     0
330
1B
  0
LAYOUT
  5
26
102
{ACAD_REACTORS
330
1A
102
}
330
1A
100
AcDbPlotSettings
  1

  2
none_device
  4

  6

 40
0.0
 41
0.0
 42
0.0
 43
0.0
 44
0.0
 45
0.0
 46
0.0
 47
0.0
 48
0.0
 49
0.0
140
0.0
141
0.0
142
1.0
143
1.0
 70
   688
 72
     1
 73
     0
 74
     5
  7

 75
    16
147
1.0
148
0.0
149
0.0
100
AcDbLayout
  1
Layout2
 70
     1
 71
     2
 10
0.0
 20
0.0
 11
0.0
 21
0.0
 12
0.0
 22
0.0
 32
0.0
 14
0.0
 24
0.0
 34
0.0
 15
0.0
 25
0.0
 35
0.0
146
0.0
 13
0.0
 23
0.0
 33
0.0
 16
1.0
 26
0.0
 36
0.0
 17
0.0
 27
1.0
 37
0.0
 76
     0
330
23
  0
LAYOUT
  5
22
102
{ACAD_REACTORS
330
1A
102
}
330
1A
100
AcDbPlotSettings
  1

  2
none_device
  4
Letter_(8.50_x_11.00_Inches)
  6

 40
6.35
 41
6.35
 42
6.350005
 43
6.350005
 44
215.9
 45
279.4
 46
0.0
 47
0.0
 48
0.0
 49
0.0
140
0.0
141
0.0
142
1.0
143
1.0
 70
  1712
 72
     1
 73
     0
 74
     0
  7

 75
     0
147
1.0
148
0.0
149
0.0
100
AcDbLayout
  1
Model
 70
     1
 71
     0
 10
-12.641235
 20
118.817711
 11
599.959534
 21
868.924744
 12
0.0
 22
0.0
 32
0.0
 14
-12.641235
 24
118.817711
 34
0.0
 15
599.959534
 25
868.924744
 35
0.0
146
0.0
 13
0.0
 23
0.0
 33
0.0
 16
1.0
 26
0.0
 36
0.0
 17
0.0
 27
1.0
 37
0.0
 76
     0
330
1F
331
29
  0
MATERIAL
  5
45
102
{ACAD_REACTORS
330
43
102
}
102
{ACAD_XDICTIONARY
360
1C1
102
}
330
43
100
AcDbMaterial
  1
ByBlock
  0
MATERIAL
  5
44
102
{ACAD_REACTORS
330
43
102
}
102
{ACAD_XDICTIONARY
360
1BF
102
}
330
43
100
AcDbMaterial
  1
ByLayer
  0
MATERIAL
  5
46
102
{ACAD_REACTORS
330
43
102
}
102
{ACAD_XDICTIONARY
360
1C3
102
}
330
43
100
AcDbMaterial
  1
Global
  0
MLEADERSTYLE
  5
6C
102
{ACAD_REACTORS
330
6B
102
}
102
{ACAD_XDICTIONARY
360
1C6
102
}
330
6B
100
AcDbMLeaderStyle
170
     2
171
     1
172
     0
 90
        2
 40
0.0
 41
0.0
173
     1
 91
-1056964608
340
14
 92
       -2
290
     1
 42
2.0
291
     1
 43
8.0
  3
Standard
341
0
 44
4.0
300

342
11
174
     1
178
     6
175
     1
176
     0
 93
-1056964608
 45
4.0
292
     0
297
     0
 46
4.0
343
0
 94
-1056964608
 47
1.0
 49
1.0
140
1.0
293
     1
141
0.0
294
     1
177
     0
142
1.0
295
     0
296
     0
143
3.75
1001
ACAD_MLEADERVER
1070
     2
  0
MLINESTYLE
  5
18
102
{ACAD_REACTORS
330
17
102
}
330
17
100
AcDbMlineStyle
  2
Standard
 70
     0
  3

 62
   256
 51
90.0
 52
90.0
 71
     2
 49
0.5
 62
   256
  6
BYLAYER
 49
-0.5
 62
   256
  6
BYLAYER
  0
ACDBPLACEHOLDER
  5
F
102
{ACAD_REACTORS
330
E
102
}
330
E
  0
SCALE
  5
48
102
{ACAD_REACTORS
330
47
102
}
330
47
100
AcDbScale
 70
     0
300
1:1
140
1.0
141
1.0
290
     1
  0
SCALE
  5
49
102
{ACAD_REACTORS
330
47
102
}
330
47
100
AcDbScale
 70
     0
300
1:2
140
1.0
141
2.0
290
     0
  0
SCALE
  5
4A
102
{ACAD_REACTORS
330
47
102
}
330
47
100
AcDbScale
 70
     0
300
1:4
140
1.0
141
4.0
290
     0
  0
SCALE
  5
4B
102
{ACAD_REACTORS
330
47
102
}
330
47
100
AcDbScale
 70
     0
300
1:5
140
1.0
141
5.0
290
     0
  0
SCALE
  5
4C
102
{ACAD_REACTORS
330
47
102
}
330
47
100
AcDbScale
 70
     0
300
1:8
140
1.0
141
8.0
290
     0
  0
SCALE
  5
4D
102
{ACAD_REACTORS
330
47
102
}
330
47
100
AcDbScale
 70
     0
300
1:10
140
1.0
141
10.0
290
     0
  0
SCALE
  5
4E
102
{ACAD_REACTORS
330
47
102
}
330
47
100
AcDbScale
 70
     0
300
1:16
140
1.0
141
16.0
290
     0
  0
SCALE
  5
4F
102
{ACAD_REACTORS
330
47
102
}
330
47
100
AcDbScale
 70
     0
300
1:20
140
1.0
141
20.0
290
     0
  0
SCALE
  5
50
102
{ACAD_REACTORS
330
47
102
}
330
47
100
AcDbScale
 70
     0
300
1:30
140
1.0
141
30.0
290
     0
  0
SCALE
  5
51
102
{ACAD_REACTORS
330
47
102
}
330
47
100
AcDbScale
 70
     0
300
1:40
140
1.0
141
40.0
290
     0
  0
SCALE
  5
52
102
{ACAD_REACTORS
330
47
102
}
330
47
100
AcDbScale
 70
     0
300
1:50
140
1.0
141
50.0
290
     0
  0
SCALE
  5
53
102
{ACAD_REACTORS
330
47
102
}
330
47
100
AcDbScale
 70
     0
300
1:100
140
1.0
141
100.0
290
     0
  0
SCALE
  5
54
102
{ACAD_REACTORS
330
47
102
}
330
47
100
AcDbScale
 70
     0
300
2:1
140
2.0
141
1.0
290
     0
  0
SCALE
  5
55
102
{ACAD_REACTORS
330
47
102
}
330
47
100
AcDbScale
 70
     0
300
4:1
140
4.0
141
1.0
290
     0
  0
SCALE
  5
56
102
{ACAD_REACTORS
330
47
102
}
330
47
100
AcDbScale
 70
     0
300
8:1
140
8.0
141
1.0
290
     0
  0
SCALE
  5
57
102
{ACAD_REACTORS
330
47
102
}
330
47
100
AcDbScale
 70
     0
300
10:1
140
10.0
141
1.0
290
     0
  0
SCALE
  5
58
102
{ACAD_REACTORS
330
47
102
}
330
47
100
AcDbScale
 70
     0
300
100:1
140
100.0
141
1.0
290
     0
  0
SCALE
  5
59
102
{ACAD_REACTORS
330
47
102
}
330
47
100
AcDbScale
 70
     0
300
1/128" = 1'-0"
140
0.007812
141
12.0
290
     0
  0
SCALE
  5
5A
102
{ACAD_REACTORS
330
47
102
}
330
47
100
AcDbScale
 70
     0
300
1/64" = 1'-0"
140
0.015625
141
12.0
290
     0
  0
SCALE
  5
5B
102
{ACAD_REACTORS
330
47
102
}
330
47
100
AcDbScale
 70
     0
300
1/32" = 1'-0"
140
0.03125
141
12.0
290
     0
  0
SCALE
  5
5C
102
{ACAD_REACTORS
330
47
102
}
330
47
100
AcDbScale
 70
     0
300
1/16" = 1'-0"
140
0.0625
141
12.0
290
     0
  0
SCALE
  5
5D
102
{ACAD_REACTORS
330
47
102
}
330
47
100
AcDbScale
 70
     0
300
3/32" = 1'-0"
140
0.09375
141
12.0
290
     0
  0
SCALE
  5
5E
102
{ACAD_REACTORS
330
47
102
}
330
47
100
AcDbScale
 70
     0
300
1/8" = 1'-0"
140
0.125
141
12.0
290
     0
  0
SCALE
  5
5F
102
{ACAD_REACTORS
330
47
102
}
330
47
100
AcDbScale
 70
     0
300
3/16" = 1'-0"
140
0.1875
141
12.0
290
     0
  0
SCALE
  5
60
102
{ACAD_REACTORS
330
47
102
}
330
47
100
AcDbScale
 70
     0
300
1/4" = 1'-0"
140
0.25
141
12.0
290
     0
  0
SCALE
  5
61
102
{ACAD_REACTORS
330
47
102
}
330
47
100
AcDbScale
 70
     0
300
3/8" = 1'-0"
140
0.375
141
12.0
290
     0
  0
SCALE
  5
62
102
{ACAD_REACTORS
330
47
102
}
330
47
100
AcDbScale
 70
     0
300
1/2" = 1'-0"
140
0.5
141
12.0
290
     0
  0
SCALE
  5
63
102
{ACAD_REACTORS
330
47
102
}
330
47
100
AcDbScale
 70
     0
300
3/4" = 1'-0"
140
0.75
141
12.0
290
     0
  0
SCALE
  5
64
102
{ACAD_REACTORS
330
47
102
}
330
47
100
AcDbScale
 70
     0
300
1" = 1'-0"
140
1.0
141
12.0
290
     0
  0
SCALE
  5
65
102
{ACAD_REACTORS
330
47
102
}
330
47
100
AcDbScale
 70
     0
300
1-1/2" = 1'-0"
140
1.5
141
12.0
290
     0
  0
SCALE
  5
66
102
{ACAD_REACTORS
330
47
102
}
330
47
100
AcDbScale
 70
     0
300
3" = 1'-0"
140
3.0
141
12.0
290
     0
  0
SCALE
  5
67
102
{ACAD_REACTORS
330
47
102
}
330
47
100
AcDbScale
 70
     0
300
6" = 1'-0"
140
6.0
141
12.0
290
     0
  0
SCALE
  5
68
102
{ACAD_REACTORS
330
47
102
}
330
47
100
AcDbScale
 70
     0
300
1'-0" = 1'-0"
140
12.0
141
12.0
290
     0
  0
TABLESTYLE
  5
6A
102
{ACAD_REACTORS
330
69
102
}
330
69
100
AcDbTableStyle
  3
Standard
 70
     0
 71
     0
 40
1.5
 41
1.5
280
     0
281
     0
  7
Standard
140
4.5
170
     2
 62
     0
 63
   257
283
     0
274
    -2
284
     1
 64
     0
275
    -2
285
     1
 65
     0
276
    -2
286
     1
 66
     0
277
    -2
287
     1
 67
     0
278
    -2
288
     1
 68
     0
279
    -2
289
     1
 69
     0
  7
Standard
140
6.0
170
     5
 62
     0
 63
   257
283
     0
274
    -2
284
     1
 64
     0
275
    -2
285
     1
 65
     0
276
    -2
286
     1
 66
     0
277
    -2
287
     1
 67
     0
278
    -2
288
     1
 68
     0
279
    -2
289
     1
 69
     0
  7
Standard
140
4.5
170
     5
 62
     0
 63
   257
283
     0
274
    -2
284
     1
 64
     0
275
    -2
285
     1
 65
     0
276
    -2
286
     1
 66
     0
277
    -2
287
     1
 67
     0
278
    -2
288
     1
 68
     0
279
    -2
289
     1
 69
     0
  0
VISUALSTYLE
  5
2F
102
{ACAD_REACTORS
330
2A
102
}
102
{ACAD_XDICTIONARY
360
197
102
}
330
2A
100
AcDbVisualStyle
  2
2dWireframe
 70
     4
 71
     0
 72
     2
 73
     0
 90
        0
 40
0.6
 41
30.0
 62
     5
 63
     7
 74
     1
 91
        4
 64
     7
 65
   257
 75
     1
175
     1
 42
1.0
 92
        0
 66
   257
 43
1.0
 76
     1
 77
     6
 78
     2
 67
     7
 79
     5
170
     0
171
     0
290
     0
174
     0
 93
        1
 44
0.0
173
     0
291
     0
 45
0.0
1001
ACAD
1000
AcDbSavedByObjectVersion
1070
     0
  0
VISUALSTYLE
  5
32
102
{ACAD_REACTORS
330
2A
102
}
102
{ACAD_XDICTIONARY
360
19D
102
}
330
2A
100
AcDbVisualStyle
  2
Basic
 70
     7
 71
     1
 72
     0
 73
     1
 90
        0
 40
0.6
 41
30.0
 62
     5
 63
     7
 74
     0
 91
        4
 64
     7
 65
   257
 75
     1
175
     1
 42
1.0
 92
        8
 66
     7
 43
1.0
 76
     1
 77
     6
 78
     2
 67
     7
 79
     5
170
     0
171
     0
290
     0
174
     0
 93
        1
 44
0.0
173
     0
291
     1
 45
0.0
1001
ACAD
1000
AcDbSavedByObjectVersion
1070
     0
  0
VISUALSTYLE
  5
36
102
{ACAD_REACTORS
330
2A
102
}
102
{ACAD_XDICTIONARY
360
1A5
102
}
330
2A
100
AcDbVisualStyle
  2
Brighten
 70
    12
 71
     2
 72
     2
 73
     0
 90
        0
 40
0.6
 41
30.0
 62
     5
 63
     7
 74
     1
 91
        4
 64
     7
 65
   257
 75
     1
175
     1
 42
1.0
 92
        8
 66
     7
 43
1.0
 76
     1
 77
     6
 78
     2
 67
     7
 79
     5
170
     0
171
     0
290
     0
174
     0
 93
        1
 44
50.0
173
     0
291
     1
 45
0.0
1001
ACAD
1000
AcDbSavedByObjectVersion
1070
     0
  0
VISUALSTYLE
  5
3A
102
{ACAD_REACTORS
330
2A
102
}
102
{ACAD_XDICTIONARY
360
1AD
102
}
330
2A
100
AcDbVisualStyle
  2
ColorChange
 70
    16
 71
     2
 72
     2
 73
     3
 90
        0
 40
0.6
 41
30.0
 62
     5
 63
     8
 74
     1
 91
        4
 64
     7
 65
   257
 75
     1
175
     1
 42
1.0
 92
        8
 66
     8
 43
1.0
 76
     1
 77
     6
 78
     2
 67
     7
 79
     5
170
     0
171
     0
290
     0
174
     0
 93
        1
 44
0.0
173
     0
291
     1
 45
0.0
1001
ACAD
1000
AcDbSavedByObjectVersion
1070
     0
  0
VISUALSTYLE
  5
34
102
{ACAD_REACTORS
330
2A
102
}
102
{ACAD_XDICTIONARY
360
1A1
102
}
330
2A
100
AcDbVisualStyle
  2
Conceptual
 70
     9
 71
     3
 72
     2
 73
     0
 90
        0
 40
0.6
 41
30.0
 62
     5
 63
     7
 74
     2
 91
        2
 64
     7
 65
   257
 75
     1
175
     1
 42
179.0
 92
        8
 66
     7
 43
1.0
 76
     1
 77
     6
 78
     2
 67
     7
 79
     3
170
     0
171
     0
290
     0
174
     0
 93
        1
 44
0.0
173
     0
291
     0
 45
0.0
1001
ACAD
1000
AcDbSavedByObjectVersion
1070
     0
  0
VISUALSTYLE
  5
35
102
{ACAD_REACTORS
330
2A
102
}
102
{ACAD_XDICTIONARY
360
1A3
102
}
330
2A
100
AcDbVisualStyle
  2
Dim
 70
    11
 71
     2
 72
     2
 73
     0
 90
        0
 40
0.6
 41
30.0
 62
     5
 63
     7
 74
     1
 91
        4
 64
     7
 65
   257
 75
     1
175
     1
 42
1.0
 92
        8
 66
     7
 43
1.0
 76
     1
 77
     6
 78
     2
 67
     7
 79
     5
170
     0
171
     0
290
     0
174
     0
 93
        1
 44
-50.0
173
     0
291
     1
 45
0.0
1001
ACAD
1000
AcDbSavedByObjectVersion
1070
     0
  0
VISUALSTYLE
  5
3D
102
{ACAD_REACTORS
330
2A
102
}
102
{ACAD_XDICTIONARY
360
1B3
102
}
330
2A
100
AcDbVisualStyle
  2
EdgeColorOff
 70
    22
 71
     2
 72
     2
 73
     0
 90
        0
 40
0.6
 41
30.0
 62
     5
 63
     7
 74
     1
 91
        4
 64
     7
 65
   257
 75
     1
175
     1
 42
1.0
 92
        8
 66
     7
 43
1.0
 76
     1
 77
     6
 78
     2
 67
     7
 79
     5
170
     0
171
     0
290
     0
174
     0
 93
        1
 44
0.0
173
     0
291
     1
 45
0.0
1001
ACAD
1000
AcDbSavedByObjectVersion
1070
     0
  0
VISUALSTYLE
  5
39
102
{ACAD_REACTORS
330
2A
102
}
102
{ACAD_XDICTIONARY
360
1AB
102
}
330
2A
100
AcDbVisualStyle
  2
Facepattern
 70
    15
 71
     2
 72
     2
 73
     0
 90
        0
 40
0.6
 41
30.0
 62
     5
 63
     7
 74
     1
 91
        4
 64
     7
 65
   257
 75
     1
175
     1
 42
1.0
 92
        8
 66
     7
 43
1.0
 76
     1
 77
     6
 78
     2
 67
     7
 79
     5
170
     0
171
     0
290
     0
174
     0
 93
        1
 44
0.0
173
     0
291
     1
 45
0.0
1001
ACAD
1000
AcDbSavedByObjectVersion
1070
     0
  0
VISUALSTYLE
  5
2B
102
{ACAD_REACTORS
330
2A
102
}
102
{ACAD_XDICTIONARY
360
18F
102
}
330
2A
100
AcDbVisualStyle
  2
Flat
 70
     0
 71
     2
 72
     1
 73
     1
 90
        2
 40
0.6
 41
30.0
 62
     5
 63
     7
 74
     0
 91
        0
 64
     7
 65
   257
 75
     1
175
     1
 42
1.0
 92
        8
 66
     7
 43
1.0
 76
     1
 77
     6
 78
     2
 67
     7
 79
     5
170
     0
171
     0
290
     0
174
     0
 93
       13
 44
0.0
173
     0
291
     1
 45
0.0
1001
ACAD
1000
AcDbSavedByObjectVersion
1070
     0
  0
VISUALSTYLE
  5
2C
102
{ACAD_REACTORS
330
2A
102
}
102
{ACAD_XDICTIONARY
360
191
102
}
330
2A
100
AcDbVisualStyle
  2
FlatWithEdges
 70
     1
 71
     2
 72
     1
 73
     1
 90
        2
 40
0.6
 41
30.0
 62
     5
 63
     7
 74
     1
 91
        0
 64
     7
 65
   257
 75
     1
175
     1
 42
1.0
 92
        0
 66
   257
 43
1.0
 76
     1
 77
     6
 78
     2
 67
     7
 79
     5
170
     0
171
     0
290
     0
174
     0
 93
       13
 44
0.0
173
     0
291
     1
 45
0.0
1001
ACAD
1000
AcDbSavedByObjectVersion
1070
     0
  0
VISUALSTYLE
  5
2D
102
{ACAD_REACTORS
330
2A
102
}
102
{ACAD_XDICTIONARY
360
193
102
}
330
2A
100
AcDbVisualStyle
  2
Gouraud
 70
     2
 71
     2
 72
     2
 73
     1
 90
        2
 40
0.6
 41
30.0
 62
     5
 63
     7
 74
     0
 91
        0
 64
     7
 65
   257
 75
     1
175
     1
 42
1.0
 92
        0
 66
     7
 43
1.0
 76
     1
 77
     6
 78
     2
 67
     7
 79
     5
170
     0
171
     0
290
     0
174
     0
 93
       13
 44
0.0
173
     0
291
     1
 45
0.0
1001
ACAD
1000
AcDbSavedByObjectVersion
1070
     0
  0
VISUALSTYLE
  5
2E
102
{ACAD_REACTORS
330
2A
102
}
102
{ACAD_XDICTIONARY
360
195
102
}
330
2A
100
AcDbVisualStyle
  2
GouraudWithEdges
 70
     3
 71
     2
 72
     2
 73
     1
 90
        2
 40
0.6
 41
30.0
 62
     5
 63
     7
 74
     1
 91
        0
 64
     7
 65
   257
 75
     1
175
     1
 42
1.0
 92
        0
 66
   257
 43
1.0
 76
     1
 77
     6
 78
     2
 67
     7
 79
     5
170
     0
171
     0
290
     0
174
     0
 93
       13
 44
0.0
173
     0
291
     1
 45
0.0
1001
ACAD
1000
AcDbSavedByObjectVersion
1070
     0
  0
VISUALSTYLE
  5
31
102
{ACAD_REACTORS
330
2A
102
}
102
{ACAD_XDICTIONARY
360
19B
102
}
330
2A
100
AcDbVisualStyle
  2
Hidden
 70
     6
 71
     1
 72
     2
 73
     2
 90
        0
 40
0.6
 41
30.0
 62
     5
 63
     7
 74
     2
 91
        2
 64
     7
 65
   257
 75
     2
175
     1
 42
40.0
 92
        0
 66
   257
 43
1.0
 76
     1
 77
     6
 78
     2
 67
     7
 79
     3
170
     0
171
     0
290
     0
174
     0
 93
        1
 44
0.0
173
     0
291
     0
 45
0.0
1001
ACAD
1000
AcDbSavedByObjectVersion
1070
     0
  0
VISUALSTYLE
  5
3B
102
{ACAD_REACTORS
330
2A
102
}
102
{ACAD_XDICTIONARY
360
1AF
102
}
330
2A
100
AcDbVisualStyle
  2
JitterOff
 70
    20
 71
     2
 72
     2
 73
     0
 90
        0
 40
0.6
 41
30.0
 62
     5
 63
     7
 74
     1
 91
        4
 64
     7
 65
   257
 75
     1
175
     1
 42
1.0
 92
       10
 66
     7
 43
1.0
 76
     1
 77
     6
 78
     2
 67
     7
 79
     5
170
     0
171
     0
290
     0
174
     0
 93
        1
 44
0.0
173
     0
291
     1
 45
0.0
1001
ACAD
1000
AcDbSavedByObjectVersion
1070
     0
  0
VISUALSTYLE
  5
38
102
{ACAD_REACTORS
330
2A
102
}
102
{ACAD_XDICTIONARY
360
1A9
102
}
330
2A
100
AcDbVisualStyle
  2
Linepattern
 70
    14
 71
     2
 72
     2
 73
     0
 90
        0
 40
0.6
 41
30.0
 62
     5
 63
     7
 74
     1
 91
        4
 64
     7
 65
   257
 75
     7
175
     7
 42
1.0
 92
        8
 66
     7
 43
1.0
 76
     1
 77
     6
 78
     2
 67
     7
 79
     5
170
     0
171
     0
290
     0
174
     0
 93
        1
 44
0.0
173
     0
291
     1
 45
0.0
1001
ACAD
1000
AcDbSavedByObjectVersion
1070
     0
  0
VISUALSTYLE
  5
3C
102
{ACAD_REACTORS
330
2A
102
}
102
{ACAD_XDICTIONARY
360
1B1
102
}
330
2A
100
AcDbVisualStyle
  2
OverhangOff
 70
    21
 71
     2
 72
     2
 73
     0
 90
        0
 40
0.6
 41
30.0
 62
     5
 63
     7
 74
     1
 91
        4
 64
     7
 65
   257
 75
     1
175
     1
 42
1.0
 92
        9
 66
     7
 43
1.0
 76
     1
 77
     6
 78
     2
 67
     7
 79
     5
170
     0
171
     0
290
     0
174
     0
 93
        1
 44
0.0
173
     0
291
     1
 45
0.0
1001
ACAD
1000
AcDbSavedByObjectVersion
1070
     0
  0
VISUALSTYLE
  5
33
102
{ACAD_REACTORS
330
2A
102
}
102
{ACAD_XDICTIONARY
360
19F
102
}
330
2A
100
AcDbVisualStyle
  2
Realistic
 70
     8
 71
     2
 72
     3
 73
     0
 90
        2
 40
0.6
 41
30.0
 62
     5
 63
     7
 74
     0
 91
        0
 64
     7
 65
   257
 75
     1
175
     1
 42
1.0
 92
        8
 66
   257
 43
1.0
 76
     1
 77
     6
 78
     2
 67
     7
 79
     3
170
     0
171
     0
290
     0
174
     0
 93
       13
 44
0.0
173
     0
291
     0
 45
0.0
1001
ACAD
1000
AcDbSavedByObjectVersion
1070
     0
  0
VISUALSTYLE
  5
42
102
{ACAD_REACTORS
330
2A
102
}
102
{ACAD_XDICTIONARY
360
1BD
102
}
330
2A
100
AcDbVisualStyle
  2
Shaded
 70
    27
 71
     2
 72
     2
 73
     1
 90
        2
 40
0.6
 41
30.0
 62
     5
 63
     7
 74
     0
 91
        4
 64
     7
 65
   257
 75
     1
175
     1
 42
1.0
 92
        8
 66
   257
 43
1.0
 76
     1
 77
     6
 78
     2
 67
     8
 79
     3
170
     0
171
     0
290
     0
174
     0
 93
        5
 44
0.0
173
     0
291
     0
 45
0.0
1001
ACAD
1000
AcDbSavedByObjectVersion
1070
     0
  0
VISUALSTYLE
  5
41
102
{ACAD_REACTORS
330
2A
102
}
102
{ACAD_XDICTIONARY
360
1BB
102
}
330
2A
100
AcDbVisualStyle
  2
Shaded with edges
 70
    26
 71
     2
 72
     2
 73
     1
 90
        2
 40
0.6
 41
30.0
 62
     5
 63
     7
 74
     1
 91
       10
 64
     7
 65
   257
 75
     2
175
     1
 42
1.0
 92
        8
 66
   257
 43
1.0
 76
     1
 77
     6
 78
     2
 67
     7
 79
     3
170
     0
171
     0
290
     0
174
     0
 93
        5
 44
0.0
173
     0
291
     0
 45
0.0
1001
ACAD
1000
AcDbSavedByObjectVersion
1070
     0
  0
VISUALSTYLE
  5
3E
102
{ACAD_REACTORS
330
2A
102
}
102
{ACAD_XDICTIONARY
360
1B5
102
}
330
2A
100
AcDbVisualStyle
  2
Shades of Gray
 70
    23
 71
     2
 72
     2
 73
     3
 90
        0
 40
0.6
 41
30.0
 62
     5
 63
     7
 74
     2
 91
        2
 64
     7
 65
     7
 75
     1
175
     1
 42
40.0
 92
        8
 66
     7
 43
1.0
 76
     1
 77
     6
 78
     2
 67
     7
 79
     3
170
     0
171
     0
290
     0
174
     0
 93
        1
 44
0.0
173
     0
291
     0
 45
0.0
1001
ACAD
1000
AcDbSavedByObjectVersion
1070
     0
  0
VISUALSTYLE
  5
3F
102
{ACAD_REACTORS
330
2A
102
}
102
{ACAD_XDICTIONARY
360
1B7
102
}
330
2A
100
AcDbVisualStyle
  2
Sketchy
 70
    24
 71
     1
 72
     2
 73
     2
 90
        0
 40
0.6
 41
30.0
 62
     5
 63
     7
 74
     2
 91
        2
 64
     7
 65
     7
 75
     1
175
     1
 42
40.0
 92
       11
 66
     7
 43
1.0
 76
     1
 77
     6
 78
     2
 67
     7
 79
     6
170
     0
171
     0
290
     0
174
     0
 93
        1
 44
0.0
173
     0
291
     0
 45
0.0
1001
ACAD
1000
AcDbSavedByObjectVersion
1070
     0
  0
VISUALSTYLE
  5
37
102
{ACAD_REACTORS
330
2A
102
}
102
{ACAD_XDICTIONARY
360
1A7
102
}
330
2A
100
AcDbVisualStyle
  2
Thicken
 70
    13
 71
     2
 72
     2
 73
     0
 90
        0
 40
0.6
 41
30.0
 62
     5
 63
     7
 74
     1
 91
        4
 64
     7
 65
   257
 75
     1
175
     1
 42
1.0
 92
       12
 66
     7
 43
1.0
 76
     1
 77
     6
 78
     2
 67
     7
 79
     5
170
     0
171
     0
290
     0
174
     0
 93
        1
 44
0.0
173
     0
291
     1
 45
0.0
1001
ACAD
1000
AcDbSavedByObjectVersion
1070
     0
  0
VISUALSTYLE
  5
30
102
{ACAD_REACTORS
330
2A
102
}
102
{ACAD_XDICTIONARY
360
199
102
}
330
2A
100
AcDbVisualStyle
  2
Wireframe
 70
     5
 71
     0
 72
     2
 73
     0
 90
        0
 40
0.6
 41
30.0
 62
     5
 63
     7
 74
     1
 91
        4
 64
     7
 65
   257
 75
     1
175
     1
 42
1.0
 92
        0
 66
   257
 43
1.0
 76
     1
 77
     6
 78
     2
 67
     7
 79
     3
170
     0
171
     0
290
     0
174
     0
 93
        1
 44
0.0
173
     0
291
     0
 45
0.0
1001
ACAD
1000
AcDbSavedByObjectVersion
1070
     0
  0
VISUALSTYLE
  5
40
102
{ACAD_REACTORS
330
2A
102
}
102
{ACAD_XDICTIONARY
360
1B9
102
}
330
2A
100
AcDbVisualStyle
  2
X-Ray
 70
    25
 71
     2
 72
     2
 73
     1
 90
        1
 40
0.5
 41
30.0
 62
     5
 63
     7
 74
     1
 91
        0
 64
     7
 65
   257
 75
     1
175
     1
 42
1.0
 92
        8
 66
     7
 43
1.0
 76
     1
 77
     6
 78
     2
 67
     7
 79
     3
170
     0
171
     0
290
     0
174
     0
 93
       13
 44
0.0
173
     0
291
     0
 45
0.0
1001
ACAD
1000
AcDbSavedByObjectVersion
1070
     0
  0
DICTIONARYVAR
  5
18D
102
{ACAD_REACTORS
330
180
102
}
330
180
100
DictionaryVariables
280
     0
  1
1:1
  0
DICTIONARYVAR
  5
187
102
{ACAD_REACTORS
330
180
102
}
330
180
100
DictionaryVariables
280
     0
  1
3.500000
  0
DICTIONARYVAR
  5
188
102
{ACAD_REACTORS
330
180
102
}
330
180
100
DictionaryVariables
280
     0
  1
acadiso.lin
  0
DICTIONARYVAR
  5
182
102
{ACAD_REACTORS
330
180
102
}
330
180
100
DictionaryVariables
280
     0
  1
Standard
  0
DICTIONARYVAR
  5
181
102
{ACAD_REACTORS
330
180
102
}
330
180
100
DictionaryVariables
280
     0
  1
Standard
  0
DICTIONARYVAR
  5
189
102
{ACAD_REACTORS
330
180
102
}
330
180
100
DictionaryVariables
280
     0
  1
2
  0
DICTIONARYVAR
  5
18A
102
{ACAD_REACTORS
330
180
102
}
330
180
100
DictionaryVariables
280
     0
  1
1
  0
DICTIONARYVAR
  5
18E
102
{ACAD_REACTORS
330
180
102
}
330
180
100
DictionaryVariables
280
     0
  1
1
  0
DICTIONARYVAR
  5
184
102
{ACAD_REACTORS
330
180
102
}
330
180
100
DictionaryVariables
280
     0
  1
80.000000
  0
DICTIONARYVAR
  5
183
102
{ACAD_REACTORS
330
180
102
}
330
180
100
DictionaryVariables
280
     0
  1
5.000000
  0
DICTIONARY
  5
1C1
330
45
100
AcDbDictionary
280
     1
281
     1
  3
ACAD_XREC_ROUNDTRIP
360
1C2
  0
DICTIONARY
  5
1BF
330
44
100
AcDbDictionary
280
     1
281
     1
  3
ACAD_XREC_ROUNDTRIP
360
1C0
  0
DICTIONARY
  5
1C3
330
46
100
AcDbDictionary
280
     1
281
     1
  3
ACAD_XREC_ROUNDTRIP
360
1C4
  0
DICTIONARY
  5
1C6
330
6C
100
AcDbDictionary
280
     1
281
     1
  3
ACAD_XREC_ROUNDTRIP
360
1C7
  0
DICTIONARY
  5
197
330
2F
100
AcDbDictionary
280
     1
281
     1
  3
ACAD_XREC_ROUNDTRIP
360
198
  0
DICTIONARY
  5
19D
330
32
100
AcDbDictionary
280
     1
281
     1
  3
ACAD_XREC_ROUNDTRIP
360
19E
  0
DICTIONARY
  5
1A5
330
36
100
AcDbDictionary
280
     1
281
     1
  3
ACAD_XREC_ROUNDTRIP
360
1A6
  0
DICTIONARY
  5
1AD
330
3A
100
AcDbDictionary
280
     1
281
     1
  3
ACAD_XREC_ROUNDTRIP
360
1AE
  0
DICTIONARY
  5
1A1
330
34
100
AcDbDictionary
280
     1
281
     1
  3
ACAD_XREC_ROUNDTRIP
360
1A2
  0
DICTIONARY
  5
1A3
330
35
100
AcDbDictionary
280
     1
281
     1
  3
ACAD_XREC_ROUNDTRIP
360
1A4
  0
DICTIONARY
  5
1B3
330
3D
100
AcDbDictionary
280
     1
281
     1
  3
ACAD_XREC_ROUNDTRIP
360
1B4
  0
DICTIONARY
  5
1AB
330
39
100
AcDbDictionary
280
     1
281
     1
  3
ACAD_XREC_ROUNDTRIP
360
1AC
  0
DICTIONARY
  5
18F
330
2B
100
AcDbDictionary
280
     1
281
     1
  3
ACAD_XREC_ROUNDTRIP
360
190
  0
DICTIONARY
  5
191
330
2C
100
AcDbDictionary
280
     1
281
     1
  3
ACAD_XREC_ROUNDTRIP
360
192
  0
DICTIONARY
  5
193
330
2D
100
AcDbDictionary
280
     1
281
     1
  3
ACAD_XREC_ROUNDTRIP
360
194
  0
DICTIONARY
  5
195
330
2E
100
AcDbDictionary
280
     1
281
     1
  3
ACAD_XREC_ROUNDTRIP
360
196
  0
DICTIONARY
  5
19B
330
31
100
AcDbDictionary
280
     1
281
     1
  3
ACAD_XREC_ROUNDTRIP
360
19C
  0
DICTIONARY
  5
1AF
330
3B
100
AcDbDictionary
280
     1
281
     1
  3
ACAD_XREC_ROUNDTRIP
360
1B0
  0
DICTIONARY
  5
1A9
330
38
100
AcDbDictionary
280
     1
281
     1
  3
ACAD_XREC_ROUNDTRIP
360
1AA
  0
DICTIONARY
  5
1B1
330
3C
100
AcDbDictionary
280
     1
281
     1
  3
ACAD_XREC_ROUNDTRIP
360
1B2
  0
DICTIONARY
  5
19F
330
33
100
AcDbDictionary
280
     1
281
     1
  3
ACAD_XREC_ROUNDTRIP
360
1A0
  0
DICTIONARY
  5
1BD
330
42
100
AcDbDictionary
280
     1
281
     1
  3
ACAD_XREC_ROUNDTRIP
360
1BE
  0
DICTIONARY
  5
1BB
330
41
100
AcDbDictionary
280
     1
281
     1
  3
ACAD_XREC_ROUNDTRIP
360
1BC
  0
DICTIONARY
  5
1B5
330
3E
100
AcDbDictionary
280
     1
281
     1
  3
ACAD_XREC_ROUNDTRIP
360
1B6
  0
DICTIONARY
  5
1B7
330
3F
100
AcDbDictionary
280
     1
281
     1
  3
ACAD_XREC_ROUNDTRIP
360
1B8
  0
DICTIONARY
  5
1A7
330
37
100
AcDbDictionary
280
     1
281
     1
  3
ACAD_XREC_ROUNDTRIP
360
1A8
  0
DICTIONARY
  5
199
330
30
100
AcDbDictionary
280
     1
281
     1
  3
ACAD_XREC_ROUNDTRIP
360
19A
  0
DICTIONARY
  5
1B9
330
40
100
AcDbDictionary
280
     1
281
     1
  3
ACAD_XREC_ROUNDTRIP
360
1BA
  0
XRECORD
  5
1C2
102
{ACAD_REACTORS
330
1C1
102
}
330
1C1
100
AcDbXrecord
280
     1
102
MATERIAL
148
0.0
149
0.0
149
0.0
 93
        0
 94
      127
282
     0
 72
     1
 77
     1
171
     1
175
     1
179
     1
273
     0
  0
XRECORD
  5
1C0
102
{ACAD_REACTORS
330
1BF
102
}
330
1BF
100
AcDbXrecord
280
     1
102
MATERIAL
148
0.0
149
0.0
149
0.0
 93
        0
 94
      127
282
     0
 72
     1
 77
     1
171
     1
175
     1
179
     1
273
     0
  0
XRECORD
  5
1C4
102
{ACAD_REACTORS
330
1C3
102
}
330
1C3
100
AcDbXrecord
280
     1
102
MATERIAL
148
0.0
149
0.0
149
0.0
 93
        0
 94
      127
282
     0
 72
     1
 77
     1
171
     1
175
     1
179
     1
273
     0
  0
XRECORD
  5
1C7
102
{ACAD_REACTORS
330
1C6
102
}
330
1C6
100
AcDbXrecord
280
     1
102
ACAD_ROUNDTRIP_2010_MLEADER_STYLE
  0
XRECORD
  5
198
102
{ACAD_REACTORS
330
197
102
}
330
197
100
AcDbXrecord
280
     1
102
RTVSPropertyOp0
 70
     1
102
RTVSPropertyOp1
 70
     1
102
RTVSPropertyOp2
 70
     1
102
RTVSPropertyOp3
 70
     1
102
RTVSPropertyOp4
 70
     1
102
RTVSPropertyOp5
 70
     1
102
RTVSPropertyOp6
 70
     1
102
RTVSPropertyOp7
 70
     1
102
RTVSPropertyOp8
 70
     1
102
RTVSPropertyOp9
 70
     1
102
RTVSPropertyOp10
 70
     1
102
RTVSPropertyOp11
 70
     1
102
RTVSPropertyOp12
 70
     1
102
RTVSPropertyOp13
 70
     1
102
RTVSPropertyOp14
 70
     1
102
RTVSPropertyOp15
 70
     1
102
RTVSPropertyOp16
 70
     1
102
RTVSPropertyOp17
 70
     1
102
RTVSPropertyOp18
 70
     1
102
RTVSPropertyOp19
 70
     1
102
RTVSPropertyOp20
 70
     1
102
RTVSPropertyOp21
 70
     1
102
RTVSPropertyOp22
 70
     1
102
RTVSPropertyOp23
 70
     1
102
RTVSPropertyOp24
 70
     1
102
RTVSPropertyOp25
 70
     1
102
RTVSPropertyOp26
 70
     1
102
RTVSPropertyOp27
 70
     1
102
RTVSPropertyOp28
 70
     1
102
RTVSPropertyOp29
 70
     1
102
RTVSPropertyOp30
 70
     1
102
RTVSPropertyOp31
 70
     1
102
RTVSPropertyOp32
 70
     1
102
RTVSPropertyOp33
 70
     1
102
RTVSPropertyOp34
 70
     1
102
RTVSPropertyOp35
 70
     1
102
RTVSPropertyOp36
 70
     1
102
RTVSPropertyOp37
 70
     1
102
RTVSPropertyOp38
 70
     1
102
RTVSPropertyOp39
 70
     1
102
RTVSPropertyOp40
 70
     1
102
RTVSPropertyOp41
 70
     1
102
RTVSPropertyOp42
 70
     1
102
RTVSPropertyOp43
 70
     1
102
RTVSPropertyOp44
 70
     1
102
RTVSPropertyOp45
 70
     1
102
RTVSPropertyOp46
 70
     1
102
RTVSPropertyOp47
 70
     1
102
RTVSPropertyOp48
 70
     1
102
RTVSPropertyOp49
 70
     1
102
RTVSPropertyOp50
 70
     1
102
RTVSPropertyOp51
 70
     0
102
RTVSPropertyOp52
 70
     0
102
RTVSPropertyOp53
 70
     1
102
RTVSPropertyOp54
 70
     1
102
RTVSPropertyOp55
 70
     1
102
RTVSPropertyOp56
 70
     1
102
RTVSPropertyOp57
 70
     1
102
RTVSPost2010Prop28
280
     1
102
RTVSPost2010PropOp28
 70
     1
102
RTVSPost2010Prop29
280
     1
102
RTVSPost2010PropOp29
 70
     1
102
RTVSPost2010Prop30
280
     0
102
RTVSPost2010PropOp30
 70
     1
102
RTVSPost2010Prop31
280
     0
102
RTVSPost2010PropOp31
 70
     1
102
RTVSPost2010Prop32
280
     0
102
RTVSPost2010PropOp32
 70
     1
102
RTVSPost2010Prop33
280
     0
102
RTVSPost2010PropOp33
 70
     1
102
RTVSPost2010Prop34
280
     0
102
RTVSPost2010PropOp34
 70
     1
102
RTVSPost2010Prop35
280
     0
102
RTVSPost2010PropOp35
 70
     1
102
RTVSPost2010Prop36
280
     0
102
RTVSPost2010PropOp36
 70
     1
102
RTVSPost2010Prop37
 90
       50
102
RTVSPost2010PropOp37
 70
     1
102
RTVSPost2010Prop38
140
0.0
102
RTVSPost2010PropOp38
 70
     1
102
RTVSPost2010Prop39
140
1.0
102
RTVSPost2010PropOp39
 70
     1
102
RTVSPost2010Prop40
 90
        0
102
RTVSPost2010PropOp40
 70
     1
102
RTVSPost2010Prop41ColorIndex
 90
       18
102
RTVSPost2010Prop41ColorRGB
 90
        0
102
RTVSPost2010PropOp41
 70
     1
102
RTVSPost2010Prop42
 90
       50
102
RTVSPost2010PropOp42
 70
     1
102
RTVSPost2010Prop43
 90
        3
102
RTVSPost2010PropOp43
 70
     1
102
RTVSPost2010Prop44ColorIndex
 90
        5
102
RTVSPost2010Prop44ColorRGB
 90
      255
102
RTVSPost2010PropOp44
 70
     1
102
RTVSPost2010Prop45
280
     0
102
RTVSPost2010PropOp45
 70
     1
102
RTVSPost2010Prop46
 90
       50
102
RTVSPost2010PropOp46
 70
     1
102
RTVSPost2010Prop47
 90
       50
102
RTVSPost2010PropOp47
 70
     1
102
RTVSPost2010Prop48
 90
       50
102
RTVSPost2010PropOp48
 70
     1
102
RTVSPost2010Prop49
280
     0
102
RTVSPost2010PropOp49
 70
     1
102
RTVSPost2010Prop50
 90
       50
102
RTVSPost2010PropOp50
 70
     1
102
RTVSPost2010Prop51ColorIndex
 90
      256
102
RTVSPost2010Prop51ColorRGB
 90
-16777216
102
RTVSPost2010PropOp51
 70
     0
102
RTVSPost2010Prop52
140
1.0
102
RTVSPost2010PropOp52
 70
     0
102
RTVSPost2010Prop53
 90
        2
102
RTVSPost2010PropOp53
 70
     1
102
RTVSPost2010Prop54
  1
strokes_ogs.tif
102
RTVSPost2010PropOp54
 70
     1
102
RTVSPost2010Prop55
280
     0
102
RTVSPost2010PropOp55
 70
     1
102
RTVSPost2010Prop56
140
1.0
102
RTVSPost2010PropOp56
 70
     1
102
RTVSPost2010Prop57
140
1.0
102
RTVSPost2010PropOp57
 70
     1
  0
XRECORD
  5
19E
102
{ACAD_REACTORS
330
19D
102
}
330
19D
100
AcDbXrecord
280
     1
102
RTVSPropertyOp0
 70
     1
102
RTVSPropertyOp1
 70
     1
102
RTVSPropertyOp2
 70
     1
102
RTVSPropertyOp3
 70
     1
102
RTVSPropertyOp4
 70
     1
102
RTVSPropertyOp5
 70
     1
102
RTVSPropertyOp6
 70
     1
102
RTVSPropertyOp7
 70
     1
102
RTVSPropertyOp8
 70
     1
102
RTVSPropertyOp9
 70
     1
102
RTVSPropertyOp10
 70
     1
102
RTVSPropertyOp11
 70
     1
102
RTVSPropertyOp12
 70
     1
102
RTVSPropertyOp13
 70
     1
102
RTVSPropertyOp14
 70
     1
102
RTVSPropertyOp15
 70
     1
102
RTVSPropertyOp16
 70
     1
102
RTVSPropertyOp17
 70
     1
102
RTVSPropertyOp18
 70
     1
102
RTVSPropertyOp19
 70
     1
102
RTVSPropertyOp20
 70
     1
102
RTVSPropertyOp21
 70
     1
102
RTVSPropertyOp22
 70
     1
102
RTVSPropertyOp23
 70
     1
102
RTVSPropertyOp24
 70
     1
102
RTVSPropertyOp25
 70
     1
102
RTVSPropertyOp26
 70
     1
102
RTVSPropertyOp27
 70
     1
102
RTVSPropertyOp28
 70
     1
102
RTVSPropertyOp29
 70
     1
102
RTVSPropertyOp30
 70
     1
102
RTVSPropertyOp31
 70
     1
102
RTVSPropertyOp32
 70
     1
102
RTVSPropertyOp33
 70
     1
102
RTVSPropertyOp34
 70
     1
102
RTVSPropertyOp35
 70
     1
102
RTVSPropertyOp36
 70
     1
102
RTVSPropertyOp37
 70
     1
102
RTVSPropertyOp38
 70
     1
102
RTVSPropertyOp39
 70
     1
102
RTVSPropertyOp40
 70
     1
102
RTVSPropertyOp41
 70
     1
102
RTVSPropertyOp42
 70
     1
102
RTVSPropertyOp43
 70
     1
102
RTVSPropertyOp44
 70
     1
102
RTVSPropertyOp45
 70
     1
102
RTVSPropertyOp46
 70
     1
102
RTVSPropertyOp47
 70
     1
102
RTVSPropertyOp48
 70
     1
102
RTVSPropertyOp49
 70
     1
102
RTVSPropertyOp50
 70
     1
102
RTVSPropertyOp51
 70
     0
102
RTVSPropertyOp52
 70
     0
102
RTVSPropertyOp53
 70
     1
102
RTVSPropertyOp54
 70
     1
102
RTVSPropertyOp55
 70
     1
102
RTVSPropertyOp56
 70
     1
102
RTVSPropertyOp57
 70
     1
102
RTVSPost2010Prop28
280
     0
102
RTVSPost2010PropOp28
 70
     1
102
RTVSPost2010Prop29
280
     1
102
RTVSPost2010PropOp29
 70
     1
102
RTVSPost2010Prop30
280
     1
102
RTVSPost2010PropOp30
 70
     1
102
RTVSPost2010Prop31
280
     0
102
RTVSPost2010PropOp31
 70
     1
102
RTVSPost2010Prop32
280
     0
102
RTVSPost2010PropOp32
 70
     1
102
RTVSPost2010Prop33
280
     0
102
RTVSPost2010PropOp33
 70
     1
102
RTVSPost2010Prop34
280
     0
102
RTVSPost2010PropOp34
 70
     1
102
RTVSPost2010Prop35
280
     0
102
RTVSPost2010PropOp35
 70
     1
102
RTVSPost2010Prop36
280
     0
102
RTVSPost2010PropOp36
 70
     1
102
RTVSPost2010Prop37
 90
       50
102
RTVSPost2010PropOp37
 70
     1
102
RTVSPost2010Prop38
140
0.0
102
RTVSPost2010PropOp38
 70
     1
102
RTVSPost2010Prop39
140
1.0
102
RTVSPost2010PropOp39
 70
     1
102
RTVSPost2010Prop40
 90
        0
102
RTVSPost2010PropOp40
 70
     1
102
RTVSPost2010Prop41ColorIndex
 90
       18
102
RTVSPost2010Prop41ColorRGB
 90
        0
102
RTVSPost2010PropOp41
 70
     1
102
RTVSPost2010Prop42
 90
       50
102
RTVSPost2010PropOp42
 70
     1
102
RTVSPost2010Prop43
 90
        3
102
RTVSPost2010PropOp43
 70
     1
102
RTVSPost2010Prop44ColorIndex
 90
        5
102
RTVSPost2010Prop44ColorRGB
 90
      255
102
RTVSPost2010PropOp44
 70
     1
102
RTVSPost2010Prop45
280
     0
102
RTVSPost2010PropOp45
 70
     1
102
RTVSPost2010Prop46
 90
       50
102
RTVSPost2010PropOp46
 70
     1
102
RTVSPost2010Prop47
 90
       50
102
RTVSPost2010PropOp47
 70
     1
102
RTVSPost2010Prop48
 90
       50
102
RTVSPost2010PropOp48
 70
     1
102
RTVSPost2010Prop49
280
     0
102
RTVSPost2010PropOp49
 70
     1
102
RTVSPost2010Prop50
 90
       50
102
RTVSPost2010PropOp50
 70
     1
102
RTVSPost2010Prop51ColorIndex
 90
      256
102
RTVSPost2010Prop51ColorRGB
 90
-16777216
102
RTVSPost2010PropOp51
 70
     0
102
RTVSPost2010Prop52
140
1.0
102
RTVSPost2010PropOp52
 70
     0
102
RTVSPost2010Prop53
 90
        2
102
RTVSPost2010PropOp53
 70
     1
102
RTVSPost2010Prop54
  1
strokes_ogs.tif
102
RTVSPost2010PropOp54
 70
     1
102
RTVSPost2010Prop55
280
     0
102
RTVSPost2010PropOp55
 70
     1
102
RTVSPost2010Prop56
140
1.0
102
RTVSPost2010PropOp56
 70
     1
102
RTVSPost2010Prop57
140
1.0
102
RTVSPost2010PropOp57
 70
     1
  0
XRECORD
  5
1A6
102
{ACAD_REACTORS
330
1A5
102
}
330
1A5
100
AcDbXrecord
280
     1
102
RTVSPropertyOp0
 70
     1
102
RTVSPropertyOp1
 70
     1
102
RTVSPropertyOp2
 70
     1
102
RTVSPropertyOp3
 70
     1
102
RTVSPropertyOp4
 70
     1
102
RTVSPropertyOp5
 70
     1
102
RTVSPropertyOp6
 70
     1
102
RTVSPropertyOp7
 70
     1
102
RTVSPropertyOp8
 70
     1
102
RTVSPropertyOp9
 70
     1
102
RTVSPropertyOp10
 70
     1
102
RTVSPropertyOp11
 70
     1
102
RTVSPropertyOp12
 70
     1
102
RTVSPropertyOp13
 70
     1
102
RTVSPropertyOp14
 70
     1
102
RTVSPropertyOp15
 70
     1
102
RTVSPropertyOp16
 70
     1
102
RTVSPropertyOp17
 70
     1
102
RTVSPropertyOp18
 70
     1
102
RTVSPropertyOp19
 70
     1
102
RTVSPropertyOp20
 70
     1
102
RTVSPropertyOp21
 70
     1
102
RTVSPropertyOp22
 70
     1
102
RTVSPropertyOp23
 70
     1
102
RTVSPropertyOp24
 70
     1
102
RTVSPropertyOp25
 70
     1
102
RTVSPropertyOp26
 70
     1
102
RTVSPropertyOp27
 70
     1
102
RTVSPropertyOp28
 70
     1
102
RTVSPropertyOp29
 70
     1
102
RTVSPropertyOp30
 70
     1
102
RTVSPropertyOp31
 70
     1
102
RTVSPropertyOp32
 70
     1
102
RTVSPropertyOp33
 70
     1
102
RTVSPropertyOp34
 70
     1
102
RTVSPropertyOp35
 70
     1
102
RTVSPropertyOp36
 70
     1
102
RTVSPropertyOp37
 70
     1
102
RTVSPropertyOp38
 70
     1
102
RTVSPropertyOp39
 70
     1
102
RTVSPropertyOp40
 70
     1
102
RTVSPropertyOp41
 70
     1
102
RTVSPropertyOp42
 70
     1
102
RTVSPropertyOp43
 70
     1
102
RTVSPropertyOp44
 70
     1
102
RTVSPropertyOp45
 70
     1
102
RTVSPropertyOp46
 70
     1
102
RTVSPropertyOp47
 70
     1
102
RTVSPropertyOp48
 70
     1
102
RTVSPropertyOp49
 70
     1
102
RTVSPropertyOp50
 70
     1
102
RTVSPropertyOp51
 70
     0
102
RTVSPropertyOp52
 70
     0
102
RTVSPropertyOp53
 70
     1
102
RTVSPropertyOp54
 70
     1
102
RTVSPropertyOp55
 70
     1
102
RTVSPropertyOp56
 70
     1
102
RTVSPropertyOp57
 70
     1
102
RTVSPost2010Prop28
280
     0
102
RTVSPost2010PropOp28
 70
     1
102
RTVSPost2010Prop29
280
     1
102
RTVSPost2010PropOp29
 70
     1
102
RTVSPost2010Prop30
280
     1
102
RTVSPost2010PropOp30
 70
     1
102
RTVSPost2010Prop31
280
     0
102
RTVSPost2010PropOp31
 70
     1
102
RTVSPost2010Prop32
280
     0
102
RTVSPost2010PropOp32
 70
     1
102
RTVSPost2010Prop33
280
     0
102
RTVSPost2010PropOp33
 70
     1
102
RTVSPost2010Prop34
280
     0
102
RTVSPost2010PropOp34
 70
     1
102
RTVSPost2010Prop35
280
     0
102
RTVSPost2010PropOp35
 70
     1
102
RTVSPost2010Prop36
280
     0
102
RTVSPost2010PropOp36
 70
     1
102
RTVSPost2010Prop37
 90
       50
102
RTVSPost2010PropOp37
 70
     1
102
RTVSPost2010Prop38
140
0.0
102
RTVSPost2010PropOp38
 70
     1
102
RTVSPost2010Prop39
140
1.0
102
RTVSPost2010PropOp39
 70
     1
102
RTVSPost2010Prop40
 90
        0
102
RTVSPost2010PropOp40
 70
     1
102
RTVSPost2010Prop41ColorIndex
 90
       18
102
RTVSPost2010Prop41ColorRGB
 90
        0
102
RTVSPost2010PropOp41
 70
     1
102
RTVSPost2010Prop42
 90
       50
102
RTVSPost2010PropOp42
 70
     1
102
RTVSPost2010Prop43
 90
        3
102
RTVSPost2010PropOp43
 70
     1
102
RTVSPost2010Prop44ColorIndex
 90
        5
102
RTVSPost2010Prop44ColorRGB
 90
      255
102
RTVSPost2010PropOp44
 70
     1
102
RTVSPost2010Prop45
280
     0
102
RTVSPost2010PropOp45
 70
     1
102
RTVSPost2010Prop46
 90
       50
102
RTVSPost2010PropOp46
 70
     1
102
RTVSPost2010Prop47
 90
       50
102
RTVSPost2010PropOp47
 70
     1
102
RTVSPost2010Prop48
 90
       50
102
RTVSPost2010PropOp48
 70
     1
102
RTVSPost2010Prop49
280
     0
102
RTVSPost2010PropOp49
 70
     1
102
RTVSPost2010Prop50
 90
       50
102
RTVSPost2010PropOp50
 70
     1
102
RTVSPost2010Prop51ColorIndex
 90
      256
102
RTVSPost2010Prop51ColorRGB
 90
-16777216
102
RTVSPost2010PropOp51
 70
     0
102
RTVSPost2010Prop52
140
1.0
102
RTVSPost2010PropOp52
 70
     0
102
RTVSPost2010Prop53
 90
        2
102
RTVSPost2010PropOp53
 70
     1
102
RTVSPost2010Prop54
  1
strokes_ogs.tif
102
RTVSPost2010PropOp54
 70
     1
102
RTVSPost2010Prop55
280
     0
102
RTVSPost2010PropOp55
 70
     1
102
RTVSPost2010Prop56
140
1.0
102
RTVSPost2010PropOp56
 70
     1
102
RTVSPost2010Prop57
140
1.0
102
RTVSPost2010PropOp57
 70
     1
  0
XRECORD
  5
1AE
102
{ACAD_REACTORS
330
1AD
102
}
330
1AD
100
AcDbXrecord
280
     1
102
RTVSPropertyOp0
 70
     1
102
RTVSPropertyOp1
 70
     1
102
RTVSPropertyOp2
 70
     1
102
RTVSPropertyOp3
 70
     1
102
RTVSPropertyOp4
 70
     1
102
RTVSPropertyOp5
 70
     1
102
RTVSPropertyOp6
 70
     1
102
RTVSPropertyOp7
 70
     1
102
RTVSPropertyOp8
 70
     1
102
RTVSPropertyOp9
 70
     1
102
RTVSPropertyOp10
 70
     1
102
RTVSPropertyOp11
 70
     1
102
RTVSPropertyOp12
 70
     1
102
RTVSPropertyOp13
 70
     1
102
RTVSPropertyOp14
 70
     1
102
RTVSPropertyOp15
 70
     1
102
RTVSPropertyOp16
 70
     1
102
RTVSPropertyOp17
 70
     1
102
RTVSPropertyOp18
 70
     1
102
RTVSPropertyOp19
 70
     1
102
RTVSPropertyOp20
 70
     1
102
RTVSPropertyOp21
 70
     1
102
RTVSPropertyOp22
 70
     1
102
RTVSPropertyOp23
 70
     1
102
RTVSPropertyOp24
 70
     1
102
RTVSPropertyOp25
 70
     1
102
RTVSPropertyOp26
 70
     1
102
RTVSPropertyOp27
 70
     1
102
RTVSPropertyOp28
 70
     1
102
RTVSPropertyOp29
 70
     1
102
RTVSPropertyOp30
 70
     1
102
RTVSPropertyOp31
 70
     1
102
RTVSPropertyOp32
 70
     1
102
RTVSPropertyOp33
 70
     1
102
RTVSPropertyOp34
 70
     1
102
RTVSPropertyOp35
 70
     1
102
RTVSPropertyOp36
 70
     1
102
RTVSPropertyOp37
 70
     1
102
RTVSPropertyOp38
 70
     1
102
RTVSPropertyOp39
 70
     1
102
RTVSPropertyOp40
 70
     1
102
RTVSPropertyOp41
 70
     1
102
RTVSPropertyOp42
 70
     1
102
RTVSPropertyOp43
 70
     1
102
RTVSPropertyOp44
 70
     1
102
RTVSPropertyOp45
 70
     1
102
RTVSPropertyOp46
 70
     1
102
RTVSPropertyOp47
 70
     1
102
RTVSPropertyOp48
 70
     1
102
RTVSPropertyOp49
 70
     1
102
RTVSPropertyOp50
 70
     1
102
RTVSPropertyOp51
 70
     0
102
RTVSPropertyOp52
 70
     0
102
RTVSPropertyOp53
 70
     1
102
RTVSPropertyOp54
 70
     1
102
RTVSPropertyOp55
 70
     1
102
RTVSPropertyOp56
 70
     1
102
RTVSPropertyOp57
 70
     1
102
RTVSPost2010Prop28
280
     0
102
RTVSPost2010PropOp28
 70
     1
102
RTVSPost2010Prop29
280
     1
102
RTVSPost2010PropOp29
 70
     1
102
RTVSPost2010Prop30
280
     1
102
RTVSPost2010PropOp30
 70
     1
102
RTVSPost2010Prop31
280
     0
102
RTVSPost2010PropOp31
 70
     1
102
RTVSPost2010Prop32
280
     0
102
RTVSPost2010PropOp32
 70
     1
102
RTVSPost2010Prop33
280
     0
102
RTVSPost2010PropOp33
 70
     1
102
RTVSPost2010Prop34
280
     0
102
RTVSPost2010PropOp34
 70
     1
102
RTVSPost2010Prop35
280
     0
102
RTVSPost2010PropOp35
 70
     1
102
RTVSPost2010Prop36
280
     0
102
RTVSPost2010PropOp36
 70
     1
102
RTVSPost2010Prop37
 90
       50
102
RTVSPost2010PropOp37
 70
     1
102
RTVSPost2010Prop38
140
0.0
102
RTVSPost2010PropOp38
 70
     1
102
RTVSPost2010Prop39
140
1.0
102
RTVSPost2010PropOp39
 70
     1
102
RTVSPost2010Prop40
 90
        0
102
RTVSPost2010PropOp40
 70
     1
102
RTVSPost2010Prop41ColorIndex
 90
       18
102
RTVSPost2010Prop41ColorRGB
 90
        0
102
RTVSPost2010PropOp41
 70
     1
102
RTVSPost2010Prop42
 90
       50
102
RTVSPost2010PropOp42
 70
     1
102
RTVSPost2010Prop43
 90
        3
102
RTVSPost2010PropOp43
 70
     1
102
RTVSPost2010Prop44ColorIndex
 90
        5
102
RTVSPost2010Prop44ColorRGB
 90
      255
102
RTVSPost2010PropOp44
 70
     1
102
RTVSPost2010Prop45
280
     0
102
RTVSPost2010PropOp45
 70
     1
102
RTVSPost2010Prop46
 90
       50
102
RTVSPost2010PropOp46
 70
     1
102
RTVSPost2010Prop47
 90
       50
102
RTVSPost2010PropOp47
 70
     1
102
RTVSPost2010Prop48
 90
       50
102
RTVSPost2010PropOp48
 70
     1
102
RTVSPost2010Prop49
280
     0
102
RTVSPost2010PropOp49
 70
     1
102
RTVSPost2010Prop50
 90
       50
102
RTVSPost2010PropOp50
 70
     1
102
RTVSPost2010Prop51ColorIndex
 90
      256
102
RTVSPost2010Prop51ColorRGB
 90
-16777216
102
RTVSPost2010PropOp51
 70
     0
102
RTVSPost2010Prop52
140
1.0
102
RTVSPost2010PropOp52
 70
     0
102
RTVSPost2010Prop53
 90
        2
102
RTVSPost2010PropOp53
 70
     1
102
RTVSPost2010Prop54
  1
strokes_ogs.tif
102
RTVSPost2010PropOp54
 70
     1
102
RTVSPost2010Prop55
280
     0
102
RTVSPost2010PropOp55
 70
     1
102
RTVSPost2010Prop56
140
1.0
102
RTVSPost2010PropOp56
 70
     1
102
RTVSPost2010Prop57
140
1.0
102
RTVSPost2010PropOp57
 70
     1
  0
XRECORD
  5
1A2
102
{ACAD_REACTORS
330
1A1
102
}
330
1A1
100
AcDbXrecord
280
     1
102
RTVSPropertyOp0
 70
     1
102
RTVSPropertyOp1
 70
     1
102
RTVSPropertyOp2
 70
     1
102
RTVSPropertyOp3
 70
     1
102
RTVSPropertyOp4
 70
     1
102
RTVSPropertyOp5
 70
     1
102
RTVSPropertyOp6
 70
     1
102
RTVSPropertyOp7
 70
     1
102
RTVSPropertyOp8
 70
     1
102
RTVSPropertyOp9
 70
     1
102
RTVSPropertyOp10
 70
     1
102
RTVSPropertyOp11
 70
     1
102
RTVSPropertyOp12
 70
     1
102
RTVSPropertyOp13
 70
     1
102
RTVSPropertyOp14
 70
     1
102
RTVSPropertyOp15
 70
     1
102
RTVSPropertyOp16
 70
     1
102
RTVSPropertyOp17
 70
     1
102
RTVSPropertyOp18
 70
     1
102
RTVSPropertyOp19
 70
     1
102
RTVSPropertyOp20
 70
     1
102
RTVSPropertyOp21
 70
     1
102
RTVSPropertyOp22
 70
     1
102
RTVSPropertyOp23
 70
     1
102
RTVSPropertyOp24
 70
     1
102
RTVSPropertyOp25
 70
     1
102
RTVSPropertyOp26
 70
     1
102
RTVSPropertyOp27
 70
     1
102
RTVSPropertyOp28
 70
     1
102
RTVSPropertyOp29
 70
     1
102
RTVSPropertyOp30
 70
     1
102
RTVSPropertyOp31
 70
     1
102
RTVSPropertyOp32
 70
     1
102
RTVSPropertyOp33
 70
     1
102
RTVSPropertyOp34
 70
     1
102
RTVSPropertyOp35
 70
     1
102
RTVSPropertyOp36
 70
     1
102
RTVSPropertyOp37
 70
     1
102
RTVSPropertyOp38
 70
     1
102
RTVSPropertyOp39
 70
     1
102
RTVSPropertyOp40
 70
     1
102
RTVSPropertyOp41
 70
     1
102
RTVSPropertyOp42
 70
     1
102
RTVSPropertyOp43
 70
     1
102
RTVSPropertyOp44
 70
     1
102
RTVSPropertyOp45
 70
     1
102
RTVSPropertyOp46
 70
     1
102
RTVSPropertyOp47
 70
     1
102
RTVSPropertyOp48
 70
     1
102
RTVSPropertyOp49
 70
     1
102
RTVSPropertyOp50
 70
     1
102
RTVSPropertyOp51
 70
     0
102
RTVSPropertyOp52
 70
     0
102
RTVSPropertyOp53
 70
     1
102
RTVSPropertyOp54
 70
     1
102
RTVSPropertyOp55
 70
     1
102
RTVSPropertyOp56
 70
     1
102
RTVSPropertyOp57
 70
     1
102
RTVSPost2010Prop28
280
     0
102
RTVSPost2010PropOp28
 70
     1
102
RTVSPost2010Prop29
280
     1
102
RTVSPost2010PropOp29
 70
     1
102
RTVSPost2010Prop30
280
     1
102
RTVSPost2010PropOp30
 70
     1
102
RTVSPost2010Prop31
280
     0
102
RTVSPost2010PropOp31
 70
     1
102
RTVSPost2010Prop32
280
     0
102
RTVSPost2010PropOp32
 70
     1
102
RTVSPost2010Prop33
280
     0
102
RTVSPost2010PropOp33
 70
     1
102
RTVSPost2010Prop34
280
     0
102
RTVSPost2010PropOp34
 70
     1
102
RTVSPost2010Prop35
280
     0
102
RTVSPost2010PropOp35
 70
     1
102
RTVSPost2010Prop36
280
     0
102
RTVSPost2010PropOp36
 70
     1
102
RTVSPost2010Prop37
 90
       50
102
RTVSPost2010PropOp37
 70
     1
102
RTVSPost2010Prop38
140
0.0
102
RTVSPost2010PropOp38
 70
     1
102
RTVSPost2010Prop39
140
1.0
102
RTVSPost2010PropOp39
 70
     1
102
RTVSPost2010Prop40
 90
        0
102
RTVSPost2010PropOp40
 70
     1
102
RTVSPost2010Prop41ColorIndex
 90
       18
102
RTVSPost2010Prop41ColorRGB
 90
        0
102
RTVSPost2010PropOp41
 70
     1
102
RTVSPost2010Prop42
 90
       50
102
RTVSPost2010PropOp42
 70
     1
102
RTVSPost2010Prop43
 90
        3
102
RTVSPost2010PropOp43
 70
     1
102
RTVSPost2010Prop44ColorIndex
 90
        5
102
RTVSPost2010Prop44ColorRGB
 90
      255
102
RTVSPost2010PropOp44
 70
     1
102
RTVSPost2010Prop45
280
     0
102
RTVSPost2010PropOp45
 70
     1
102
RTVSPost2010Prop46
 90
       50
102
RTVSPost2010PropOp46
 70
     1
102
RTVSPost2010Prop47
 90
       50
102
RTVSPost2010PropOp47
 70
     1
102
RTVSPost2010Prop48
 90
       50
102
RTVSPost2010PropOp48
 70
     1
102
RTVSPost2010Prop49
280
     0
102
RTVSPost2010PropOp49
 70
     1
102
RTVSPost2010Prop50
 90
       50
102
RTVSPost2010PropOp50
 70
     1
102
RTVSPost2010Prop51ColorIndex
 90
      256
102
RTVSPost2010Prop51ColorRGB
 90
-16777216
102
RTVSPost2010PropOp51
 70
     0
102
RTVSPost2010Prop52
140
1.0
102
RTVSPost2010PropOp52
 70
     0
102
RTVSPost2010Prop53
 90
        2
102
RTVSPost2010PropOp53
 70
     1
102
RTVSPost2010Prop54
  1
strokes_ogs.tif
102
RTVSPost2010PropOp54
 70
     1
102
RTVSPost2010Prop55
280
     0
102
RTVSPost2010PropOp55
 70
     1
102
RTVSPost2010Prop56
140
1.0
102
RTVSPost2010PropOp56
 70
     1
102
RTVSPost2010Prop57
140
1.0
102
RTVSPost2010PropOp57
 70
     1
  0
XRECORD
  5
1A4
102
{ACAD_REACTORS
330
1A3
102
}
330
1A3
100
AcDbXrecord
280
     1
102
RTVSPropertyOp0
 70
     1
102
RTVSPropertyOp1
 70
     1
102
RTVSPropertyOp2
 70
     1
102
RTVSPropertyOp3
 70
     1
102
RTVSPropertyOp4
 70
     1
102
RTVSPropertyOp5
 70
     1
102
RTVSPropertyOp6
 70
     1
102
RTVSPropertyOp7
 70
     1
102
RTVSPropertyOp8
 70
     1
102
RTVSPropertyOp9
 70
     1
102
RTVSPropertyOp10
 70
     1
102
RTVSPropertyOp11
 70
     1
102
RTVSPropertyOp12
 70
     1
102
RTVSPropertyOp13
 70
     1
102
RTVSPropertyOp14
 70
     1
102
RTVSPropertyOp15
 70
     1
102
RTVSPropertyOp16
 70
     1
102
RTVSPropertyOp17
 70
     1
102
RTVSPropertyOp18
 70
     1
102
RTVSPropertyOp19
 70
     1
102
RTVSPropertyOp20
 70
     1
102
RTVSPropertyOp21
 70
     1
102
RTVSPropertyOp22
 70
     1
102
RTVSPropertyOp23
 70
     1
102
RTVSPropertyOp24
 70
     1
102
RTVSPropertyOp25
 70
     1
102
RTVSPropertyOp26
 70
     1
102
RTVSPropertyOp27
 70
     1
102
RTVSPropertyOp28
 70
     1
102
RTVSPropertyOp29
 70
     1
102
RTVSPropertyOp30
 70
     1
102
RTVSPropertyOp31
 70
     1
102
RTVSPropertyOp32
 70
     1
102
RTVSPropertyOp33
 70
     1
102
RTVSPropertyOp34
 70
     1
102
RTVSPropertyOp35
 70
     1
102
RTVSPropertyOp36
 70
     1
102
RTVSPropertyOp37
 70
     1
102
RTVSPropertyOp38
 70
     1
102
RTVSPropertyOp39
 70
     1
102
RTVSPropertyOp40
 70
     1
102
RTVSPropertyOp41
 70
     1
102
RTVSPropertyOp42
 70
     1
102
RTVSPropertyOp43
 70
     1
102
RTVSPropertyOp44
 70
     1
102
RTVSPropertyOp45
 70
     1
102
RTVSPropertyOp46
 70
     1
102
RTVSPropertyOp47
 70
     1
102
RTVSPropertyOp48
 70
     1
102
RTVSPropertyOp49
 70
     1
102
RTVSPropertyOp50
 70
     1
102
RTVSPropertyOp51
 70
     0
102
RTVSPropertyOp52
 70
     0
102
RTVSPropertyOp53
 70
     1
102
RTVSPropertyOp54
 70
     1
102
RTVSPropertyOp55
 70
     1
102
RTVSPropertyOp56
 70
     1
102
RTVSPropertyOp57
 70
     1
102
RTVSPost2010Prop28
280
     0
102
RTVSPost2010PropOp28
 70
     1
102
RTVSPost2010Prop29
280
     1
102
RTVSPost2010PropOp29
 70
     1
102
RTVSPost2010Prop30
280
     1
102
RTVSPost2010PropOp30
 70
     1
102
RTVSPost2010Prop31
280
     0
102
RTVSPost2010PropOp31
 70
     1
102
RTVSPost2010Prop32
280
     0
102
RTVSPost2010PropOp32
 70
     1
102
RTVSPost2010Prop33
280
     0
102
RTVSPost2010PropOp33
 70
     1
102
RTVSPost2010Prop34
280
     0
102
RTVSPost2010PropOp34
 70
     1
102
RTVSPost2010Prop35
280
     0
102
RTVSPost2010PropOp35
 70
     1
102
RTVSPost2010Prop36
280
     0
102
RTVSPost2010PropOp36
 70
     1
102
RTVSPost2010Prop37
 90
       50
102
RTVSPost2010PropOp37
 70
     1
102
RTVSPost2010Prop38
140
0.0
102
RTVSPost2010PropOp38
 70
     1
102
RTVSPost2010Prop39
140
1.0
102
RTVSPost2010PropOp39
 70
     1
102
RTVSPost2010Prop40
 90
        0
102
RTVSPost2010PropOp40
 70
     1
102
RTVSPost2010Prop41ColorIndex
 90
       18
102
RTVSPost2010Prop41ColorRGB
 90
        0
102
RTVSPost2010PropOp41
 70
     1
102
RTVSPost2010Prop42
 90
       50
102
RTVSPost2010PropOp42
 70
     1
102
RTVSPost2010Prop43
 90
        3
102
RTVSPost2010PropOp43
 70
     1
102
RTVSPost2010Prop44ColorIndex
 90
        5
102
RTVSPost2010Prop44ColorRGB
 90
      255
102
RTVSPost2010PropOp44
 70
     1
102
RTVSPost2010Prop45
280
     0
102
RTVSPost2010PropOp45
 70
     1
102
RTVSPost2010Prop46
 90
       50
102
RTVSPost2010PropOp46
 70
     1
102
RTVSPost2010Prop47
 90
       50
102
RTVSPost2010PropOp47
 70
     1
102
RTVSPost2010Prop48
 90
       50
102
RTVSPost2010PropOp48
 70
     1
102
RTVSPost2010Prop49
280
     0
102
RTVSPost2010PropOp49
 70
     1
102
RTVSPost2010Prop50
 90
       50
102
RTVSPost2010PropOp50
 70
     1
102
RTVSPost2010Prop51ColorIndex
 90
      256
102
RTVSPost2010Prop51ColorRGB
 90
-16777216
102
RTVSPost2010PropOp51
 70
     0
102
RTVSPost2010Prop52
140
1.0
102
RTVSPost2010PropOp52
 70
     0
102
RTVSPost2010Prop53
 90
        2
102
RTVSPost2010PropOp53
 70
     1
102
RTVSPost2010Prop54
  1
strokes_ogs.tif
102
RTVSPost2010PropOp54
 70
     1
102
RTVSPost2010Prop55
280
     0
102
RTVSPost2010PropOp55
 70
     1
102
RTVSPost2010Prop56
140
1.0
102
RTVSPost2010PropOp56
 70
     1
102
RTVSPost2010Prop57
140
1.0
102
RTVSPost2010PropOp57
 70
     1
  0
XRECORD
  5
1B4
102
{ACAD_REACTORS
330
1B3
102
}
330
1B3
100
AcDbXrecord
280
     1
102
RTVSPropertyOp0
 70
     0
102
RTVSPropertyOp1
 70
     0
102
RTVSPropertyOp2
 70
     0
102
RTVSPropertyOp3
 70
     0
102
RTVSPropertyOp4
 70
     0
102
RTVSPropertyOp5
 70
     0
102
RTVSPropertyOp6
 70
     0
102
RTVSPropertyOp7
 70
     0
102
RTVSPropertyOp8
 70
     0
102
RTVSPropertyOp9
 70
     0
102
RTVSPropertyOp10
 70
     0
102
RTVSPropertyOp11
 70
     0
102
RTVSPropertyOp12
 70
     0
102
RTVSPropertyOp13
 70
     0
102
RTVSPropertyOp14
 70
     2
102
RTVSPropertyOp15
 70
     0
102
RTVSPropertyOp16
 70
     0
102
RTVSPropertyOp17
 70
     0
102
RTVSPropertyOp18
 70
     0
102
RTVSPropertyOp19
 70
     0
102
RTVSPropertyOp20
 70
     0
102
RTVSPropertyOp21
 70
     0
102
RTVSPropertyOp22
 70
     0
102
RTVSPropertyOp23
 70
     0
102
RTVSPropertyOp24
 70
     0
102
RTVSPropertyOp25
 70
     0
102
RTVSPropertyOp26
 70
     0
102
RTVSPropertyOp27
 70
     0
102
RTVSPropertyOp28
 70
     0
102
RTVSPropertyOp29
 70
     0
102
RTVSPropertyOp30
 70
     0
102
RTVSPropertyOp31
 70
     0
102
RTVSPropertyOp32
 70
     0
102
RTVSPropertyOp33
 70
     0
102
RTVSPropertyOp34
 70
     0
102
RTVSPropertyOp35
 70
     0
102
RTVSPropertyOp36
 70
     0
102
RTVSPropertyOp37
 70
     0
102
RTVSPropertyOp38
 70
     0
102
RTVSPropertyOp39
 70
     0
102
RTVSPropertyOp40
 70
     0
102
RTVSPropertyOp41
 70
     0
102
RTVSPropertyOp42
 70
     0
102
RTVSPropertyOp43
 70
     0
102
RTVSPropertyOp44
 70
     0
102
RTVSPropertyOp45
 70
     0
102
RTVSPropertyOp46
 70
     0
102
RTVSPropertyOp47
 70
     0
102
RTVSPropertyOp48
 70
     0
102
RTVSPropertyOp49
 70
     0
102
RTVSPropertyOp50
 70
     0
102
RTVSPropertyOp51
 70
     0
102
RTVSPropertyOp52
 70
     0
102
RTVSPropertyOp53
 70
     0
102
RTVSPropertyOp54
 70
     0
102
RTVSPropertyOp55
 70
     0
102
RTVSPropertyOp56
 70
     0
102
RTVSPropertyOp57
 70
     0
102
RTVSPost2010Prop28
280
     0
102
RTVSPost2010PropOp28
 70
     0
102
RTVSPost2010Prop29
280
     1
102
RTVSPost2010PropOp29
 70
     0
102
RTVSPost2010Prop30
280
     1
102
RTVSPost2010PropOp30
 70
     0
102
RTVSPost2010Prop31
280
     0
102
RTVSPost2010PropOp31
 70
     0
102
RTVSPost2010Prop32
280
     0
102
RTVSPost2010PropOp32
 70
     0
102
RTVSPost2010Prop33
280
     0
102
RTVSPost2010PropOp33
 70
     0
102
RTVSPost2010Prop34
280
     0
102
RTVSPost2010PropOp34
 70
     0
102
RTVSPost2010Prop35
280
     0
102
RTVSPost2010PropOp35
 70
     0
102
RTVSPost2010Prop36
280
     0
102
RTVSPost2010PropOp36
 70
     0
102
RTVSPost2010Prop37
 90
       50
102
RTVSPost2010PropOp37
 70
     0
102
RTVSPost2010Prop38
140
0.0
102
RTVSPost2010PropOp38
 70
     0
102
RTVSPost2010Prop39
140
1.0
102
RTVSPost2010PropOp39
 70
     0
102
RTVSPost2010Prop40
 90
        0
102
RTVSPost2010PropOp40
 70
     0
102
RTVSPost2010Prop41ColorIndex
 90
       18
102
RTVSPost2010Prop41ColorRGB
 90
        0
102
RTVSPost2010PropOp41
 70
     0
102
RTVSPost2010Prop42
 90
       50
102
RTVSPost2010PropOp42
 70
     0
102
RTVSPost2010Prop43
 90
        3
102
RTVSPost2010PropOp43
 70
     0
102
RTVSPost2010Prop44ColorIndex
 90
        5
102
RTVSPost2010Prop44ColorRGB
 90
      255
102
RTVSPost2010PropOp44
 70
     0
102
RTVSPost2010Prop45
280
     0
102
RTVSPost2010PropOp45
 70
     0
102
RTVSPost2010Prop46
 90
       50
102
RTVSPost2010PropOp46
 70
     0
102
RTVSPost2010Prop47
 90
       50
102
RTVSPost2010PropOp47
 70
     0
102
RTVSPost2010Prop48
 90
       50
102
RTVSPost2010PropOp48
 70
     0
102
RTVSPost2010Prop49
280
     0
102
RTVSPost2010PropOp49
 70
     0
102
RTVSPost2010Prop50
 90
       50
102
RTVSPost2010PropOp50
 70
     0
102
RTVSPost2010Prop51ColorIndex
 90
      256
102
RTVSPost2010Prop51ColorRGB
 90
-16777216
102
RTVSPost2010PropOp51
 70
     0
102
RTVSPost2010Prop52
140
1.0
102
RTVSPost2010PropOp52
 70
     0
102
RTVSPost2010Prop53
 90
        2
102
RTVSPost2010PropOp53
 70
     0
102
RTVSPost2010Prop54
  1
strokes_ogs.tif
102
RTVSPost2010PropOp54
 70
     0
102
RTVSPost2010Prop55
280
     0
102
RTVSPost2010PropOp55
 70
     0
102
RTVSPost2010Prop56
140
1.0
102
RTVSPost2010PropOp56
 70
     0
102
RTVSPost2010Prop57
140
1.0
102
RTVSPost2010PropOp57
 70
     0
  0
XRECORD
  5
1AC
102
{ACAD_REACTORS
330
1AB
102
}
330
1AB
100
AcDbXrecord
280
     1
102
RTVSPropertyOp0
 70
     1
102
RTVSPropertyOp1
 70
     1
102
RTVSPropertyOp2
 70
     1
102
RTVSPropertyOp3
 70
     1
102
RTVSPropertyOp4
 70
     1
102
RTVSPropertyOp5
 70
     1
102
RTVSPropertyOp6
 70
     1
102
RTVSPropertyOp7
 70
     1
102
RTVSPropertyOp8
 70
     1
102
RTVSPropertyOp9
 70
     1
102
RTVSPropertyOp10
 70
     1
102
RTVSPropertyOp11
 70
     1
102
RTVSPropertyOp12
 70
     1
102
RTVSPropertyOp13
 70
     1
102
RTVSPropertyOp14
 70
     1
102
RTVSPropertyOp15
 70
     1
102
RTVSPropertyOp16
 70
     1
102
RTVSPropertyOp17
 70
     1
102
RTVSPropertyOp18
 70
     1
102
RTVSPropertyOp19
 70
     1
102
RTVSPropertyOp20
 70
     1
102
RTVSPropertyOp21
 70
     1
102
RTVSPropertyOp22
 70
     1
102
RTVSPropertyOp23
 70
     1
102
RTVSPropertyOp24
 70
     1
102
RTVSPropertyOp25
 70
     1
102
RTVSPropertyOp26
 70
     1
102
RTVSPropertyOp27
 70
     1
102
RTVSPropertyOp28
 70
     1
102
RTVSPropertyOp29
 70
     1
102
RTVSPropertyOp30
 70
     1
102
RTVSPropertyOp31
 70
     1
102
RTVSPropertyOp32
 70
     1
102
RTVSPropertyOp33
 70
     1
102
RTVSPropertyOp34
 70
     1
102
RTVSPropertyOp35
 70
     1
102
RTVSPropertyOp36
 70
     1
102
RTVSPropertyOp37
 70
     1
102
RTVSPropertyOp38
 70
     1
102
RTVSPropertyOp39
 70
     1
102
RTVSPropertyOp40
 70
     1
102
RTVSPropertyOp41
 70
     1
102
RTVSPropertyOp42
 70
     1
102
RTVSPropertyOp43
 70
     1
102
RTVSPropertyOp44
 70
     1
102
RTVSPropertyOp45
 70
     1
102
RTVSPropertyOp46
 70
     1
102
RTVSPropertyOp47
 70
     1
102
RTVSPropertyOp48
 70
     1
102
RTVSPropertyOp49
 70
     1
102
RTVSPropertyOp50
 70
     1
102
RTVSPropertyOp51
 70
     0
102
RTVSPropertyOp52
 70
     0
102
RTVSPropertyOp53
 70
     1
102
RTVSPropertyOp54
 70
     1
102
RTVSPropertyOp55
 70
     1
102
RTVSPropertyOp56
 70
     1
102
RTVSPropertyOp57
 70
     1
102
RTVSPost2010Prop28
280
     0
102
RTVSPost2010PropOp28
 70
     1
102
RTVSPost2010Prop29
280
     1
102
RTVSPost2010PropOp29
 70
     1
102
RTVSPost2010Prop30
280
     1
102
RTVSPost2010PropOp30
 70
     1
102
RTVSPost2010Prop31
280
     0
102
RTVSPost2010PropOp31
 70
     1
102
RTVSPost2010Prop32
280
     0
102
RTVSPost2010PropOp32
 70
     1
102
RTVSPost2010Prop33
280
     0
102
RTVSPost2010PropOp33
 70
     1
102
RTVSPost2010Prop34
280
     0
102
RTVSPost2010PropOp34
 70
     1
102
RTVSPost2010Prop35
280
     0
102
RTVSPost2010PropOp35
 70
     1
102
RTVSPost2010Prop36
280
     0
102
RTVSPost2010PropOp36
 70
     1
102
RTVSPost2010Prop37
 90
       50
102
RTVSPost2010PropOp37
 70
     1
102
RTVSPost2010Prop38
140
0.0
102
RTVSPost2010PropOp38
 70
     1
102
RTVSPost2010Prop39
140
1.0
102
RTVSPost2010PropOp39
 70
     1
102
RTVSPost2010Prop40
 90
        0
102
RTVSPost2010PropOp40
 70
     1
102
RTVSPost2010Prop41ColorIndex
 90
       18
102
RTVSPost2010Prop41ColorRGB
 90
        0
102
RTVSPost2010PropOp41
 70
     1
102
RTVSPost2010Prop42
 90
       50
102
RTVSPost2010PropOp42
 70
     1
102
RTVSPost2010Prop43
 90
        3
102
RTVSPost2010PropOp43
 70
     1
102
RTVSPost2010Prop44ColorIndex
 90
        5
102
RTVSPost2010Prop44ColorRGB
 90
      255
102
RTVSPost2010PropOp44
 70
     1
102
RTVSPost2010Prop45
280
     0
102
RTVSPost2010PropOp45
 70
     1
102
RTVSPost2010Prop46
 90
       50
102
RTVSPost2010PropOp46
 70
     1
102
RTVSPost2010Prop47
 90
       50
102
RTVSPost2010PropOp47
 70
     1
102
RTVSPost2010Prop48
 90
       50
102
RTVSPost2010PropOp48
 70
     1
102
RTVSPost2010Prop49
280
     0
102
RTVSPost2010PropOp49
 70
     1
102
RTVSPost2010Prop50
 90
       50
102
RTVSPost2010PropOp50
 70
     1
102
RTVSPost2010Prop51ColorIndex
 90
      256
102
RTVSPost2010Prop51ColorRGB
 90
-16777216
102
RTVSPost2010PropOp51
 70
     0
102
RTVSPost2010Prop52
140
1.0
102
RTVSPost2010PropOp52
 70
     0
102
RTVSPost2010Prop53
 90
        2
102
RTVSPost2010PropOp53
 70
     1
102
RTVSPost2010Prop54
  1
strokes_ogs.tif
102
RTVSPost2010PropOp54
 70
     1
102
RTVSPost2010Prop55
280
     0
102
RTVSPost2010PropOp55
 70
     1
102
RTVSPost2010Prop56
140
1.0
102
RTVSPost2010PropOp56
 70
     1
102
RTVSPost2010Prop57
140
1.0
102
RTVSPost2010PropOp57
 70
     1
  0
XRECORD
  5
190
102
{ACAD_REACTORS
330
18F
102
}
330
18F
100
AcDbXrecord
280
     1
102
RTVSPropertyOp0
 70
     1
102
RTVSPropertyOp1
 70
     1
102
RTVSPropertyOp2
 70
     1
102
RTVSPropertyOp3
 70
     1
102
RTVSPropertyOp4
 70
     1
102
RTVSPropertyOp5
 70
     1
102
RTVSPropertyOp6
 70
     1
102
RTVSPropertyOp7
 70
     1
102
RTVSPropertyOp8
 70
     1
102
RTVSPropertyOp9
 70
     1
102
RTVSPropertyOp10
 70
     1
102
RTVSPropertyOp11
 70
     1
102
RTVSPropertyOp12
 70
     1
102
RTVSPropertyOp13
 70
     1
102
RTVSPropertyOp14
 70
     1
102
RTVSPropertyOp15
 70
     1
102
RTVSPropertyOp16
 70
     1
102
RTVSPropertyOp17
 70
     1
102
RTVSPropertyOp18
 70
     1
102
RTVSPropertyOp19
 70
     1
102
RTVSPropertyOp20
 70
     1
102
RTVSPropertyOp21
 70
     1
102
RTVSPropertyOp22
 70
     1
102
RTVSPropertyOp23
 70
     1
102
RTVSPropertyOp24
 70
     1
102
RTVSPropertyOp25
 70
     1
102
RTVSPropertyOp26
 70
     1
102
RTVSPropertyOp27
 70
     1
102
RTVSPropertyOp28
 70
     1
102
RTVSPropertyOp29
 70
     1
102
RTVSPropertyOp30
 70
     1
102
RTVSPropertyOp31
 70
     1
102
RTVSPropertyOp32
 70
     1
102
RTVSPropertyOp33
 70
     1
102
RTVSPropertyOp34
 70
     1
102
RTVSPropertyOp35
 70
     1
102
RTVSPropertyOp36
 70
     1
102
RTVSPropertyOp37
 70
     1
102
RTVSPropertyOp38
 70
     1
102
RTVSPropertyOp39
 70
     1
102
RTVSPropertyOp40
 70
     1
102
RTVSPropertyOp41
 70
     1
102
RTVSPropertyOp42
 70
     1
102
RTVSPropertyOp43
 70
     1
102
RTVSPropertyOp44
 70
     1
102
RTVSPropertyOp45
 70
     1
102
RTVSPropertyOp46
 70
     1
102
RTVSPropertyOp47
 70
     1
102
RTVSPropertyOp48
 70
     1
102
RTVSPropertyOp49
 70
     1
102
RTVSPropertyOp50
 70
     1
102
RTVSPropertyOp51
 70
     0
102
RTVSPropertyOp52
 70
     0
102
RTVSPropertyOp53
 70
     1
102
RTVSPropertyOp54
 70
     1
102
RTVSPropertyOp55
 70
     1
102
RTVSPropertyOp56
 70
     1
102
RTVSPropertyOp57
 70
     1
102
RTVSPost2010Prop28
280
     0
102
RTVSPost2010PropOp28
 70
     1
102
RTVSPost2010Prop29
280
     1
102
RTVSPost2010PropOp29
 70
     1
102
RTVSPost2010Prop30
280
     1
102
RTVSPost2010PropOp30
 70
     1
102
RTVSPost2010Prop31
280
     0
102
RTVSPost2010PropOp31
 70
     1
102
RTVSPost2010Prop32
280
     0
102
RTVSPost2010PropOp32
 70
     1
102
RTVSPost2010Prop33
280
     0
102
RTVSPost2010PropOp33
 70
     1
102
RTVSPost2010Prop34
280
     0
102
RTVSPost2010PropOp34
 70
     1
102
RTVSPost2010Prop35
280
     0
102
RTVSPost2010PropOp35
 70
     1
102
RTVSPost2010Prop36
280
     0
102
RTVSPost2010PropOp36
 70
     1
102
RTVSPost2010Prop37
 90
       50
102
RTVSPost2010PropOp37
 70
     1
102
RTVSPost2010Prop38
140
0.0
102
RTVSPost2010PropOp38
 70
     1
102
RTVSPost2010Prop39
140
1.0
102
RTVSPost2010PropOp39
 70
     1
102
RTVSPost2010Prop40
 90
        0
102
RTVSPost2010PropOp40
 70
     1
102
RTVSPost2010Prop41ColorIndex
 90
       18
102
RTVSPost2010Prop41ColorRGB
 90
        0
102
RTVSPost2010PropOp41
 70
     1
102
RTVSPost2010Prop42
 90
       50
102
RTVSPost2010PropOp42
 70
     1
102
RTVSPost2010Prop43
 90
        3
102
RTVSPost2010PropOp43
 70
     1
102
RTVSPost2010Prop44ColorIndex
 90
        5
102
RTVSPost2010Prop44ColorRGB
 90
      255
102
RTVSPost2010PropOp44
 70
     1
102
RTVSPost2010Prop45
280
     0
102
RTVSPost2010PropOp45
 70
     1
102
RTVSPost2010Prop46
 90
       50
102
RTVSPost2010PropOp46
 70
     1
102
RTVSPost2010Prop47
 90
       50
102
RTVSPost2010PropOp47
 70
     1
102
RTVSPost2010Prop48
 90
       50
102
RTVSPost2010PropOp48
 70
     1
102
RTVSPost2010Prop49
280
     0
102
RTVSPost2010PropOp49
 70
     1
102
RTVSPost2010Prop50
 90
       50
102
RTVSPost2010PropOp50
 70
     1
102
RTVSPost2010Prop51ColorIndex
 90
      256
102
RTVSPost2010Prop51ColorRGB
 90
-16777216
102
RTVSPost2010PropOp51
 70
     0
102
RTVSPost2010Prop52
140
1.0
102
RTVSPost2010PropOp52
 70
     0
102
RTVSPost2010Prop53
 90
        2
102
RTVSPost2010PropOp53
 70
     1
102
RTVSPost2010Prop54
  1
strokes_ogs.tif
102
RTVSPost2010PropOp54
 70
     1
102
RTVSPost2010Prop55
280
     0
102
RTVSPost2010PropOp55
 70
     1
102
RTVSPost2010Prop56
140
1.0
102
RTVSPost2010PropOp56
 70
     1
102
RTVSPost2010Prop57
140
1.0
102
RTVSPost2010PropOp57
 70
     1
  0
XRECORD
  5
192
102
{ACAD_REACTORS
330
191
102
}
330
191
100
AcDbXrecord
280
     1
102
RTVSPropertyOp0
 70
     1
102
RTVSPropertyOp1
 70
     1
102
RTVSPropertyOp2
 70
     1
102
RTVSPropertyOp3
 70
     1
102
RTVSPropertyOp4
 70
     1
102
RTVSPropertyOp5
 70
     1
102
RTVSPropertyOp6
 70
     1
102
RTVSPropertyOp7
 70
     1
102
RTVSPropertyOp8
 70
     1
102
RTVSPropertyOp9
 70
     1
102
RTVSPropertyOp10
 70
     1
102
RTVSPropertyOp11
 70
     1
102
RTVSPropertyOp12
 70
     1
102
RTVSPropertyOp13
 70
     1
102
RTVSPropertyOp14
 70
     1
102
RTVSPropertyOp15
 70
     1
102
RTVSPropertyOp16
 70
     1
102
RTVSPropertyOp17
 70
     1
102
RTVSPropertyOp18
 70
     1
102
RTVSPropertyOp19
 70
     1
102
RTVSPropertyOp20
 70
     1
102
RTVSPropertyOp21
 70
     1
102
RTVSPropertyOp22
 70
     1
102
RTVSPropertyOp23
 70
     1
102
RTVSPropertyOp24
 70
     1
102
RTVSPropertyOp25
 70
     1
102
RTVSPropertyOp26
 70
     1
102
RTVSPropertyOp27
 70
     1
102
RTVSPropertyOp28
 70
     1
102
RTVSPropertyOp29
 70
     1
102
RTVSPropertyOp30
 70
     1
102
RTVSPropertyOp31
 70
     1
102
RTVSPropertyOp32
 70
     1
102
RTVSPropertyOp33
 70
     1
102
RTVSPropertyOp34
 70
     1
102
RTVSPropertyOp35
 70
     1
102
RTVSPropertyOp36
 70
     1
102
RTVSPropertyOp37
 70
     1
102
RTVSPropertyOp38
 70
     1
102
RTVSPropertyOp39
 70
     1
102
RTVSPropertyOp40
 70
     1
102
RTVSPropertyOp41
 70
     1
102
RTVSPropertyOp42
 70
     1
102
RTVSPropertyOp43
 70
     1
102
RTVSPropertyOp44
 70
     1
102
RTVSPropertyOp45
 70
     1
102
RTVSPropertyOp46
 70
     1
102
RTVSPropertyOp47
 70
     1
102
RTVSPropertyOp48
 70
     1
102
RTVSPropertyOp49
 70
     1
102
RTVSPropertyOp50
 70
     1
102
RTVSPropertyOp51
 70
     0
102
RTVSPropertyOp52
 70
     0
102
RTVSPropertyOp53
 70
     1
102
RTVSPropertyOp54
 70
     1
102
RTVSPropertyOp55
 70
     1
102
RTVSPropertyOp56
 70
     1
102
RTVSPropertyOp57
 70
     1
102
RTVSPost2010Prop28
280
     0
102
RTVSPost2010PropOp28
 70
     1
102
RTVSPost2010Prop29
280
     1
102
RTVSPost2010PropOp29
 70
     1
102
RTVSPost2010Prop30
280
     1
102
RTVSPost2010PropOp30
 70
     1
102
RTVSPost2010Prop31
280
     0
102
RTVSPost2010PropOp31
 70
     1
102
RTVSPost2010Prop32
280
     0
102
RTVSPost2010PropOp32
 70
     1
102
RTVSPost2010Prop33
280
     0
102
RTVSPost2010PropOp33
 70
     1
102
RTVSPost2010Prop34
280
     0
102
RTVSPost2010PropOp34
 70
     1
102
RTVSPost2010Prop35
280
     0
102
RTVSPost2010PropOp35
 70
     1
102
RTVSPost2010Prop36
280
     0
102
RTVSPost2010PropOp36
 70
     1
102
RTVSPost2010Prop37
 90
       50
102
RTVSPost2010PropOp37
 70
     1
102
RTVSPost2010Prop38
140
0.0
102
RTVSPost2010PropOp38
 70
     1
102
RTVSPost2010Prop39
140
1.0
102
RTVSPost2010PropOp39
 70
     1
102
RTVSPost2010Prop40
 90
        0
102
RTVSPost2010PropOp40
 70
     1
102
RTVSPost2010Prop41ColorIndex
 90
       18
102
RTVSPost2010Prop41ColorRGB
 90
        0
102
RTVSPost2010PropOp41
 70
     1
102
RTVSPost2010Prop42
 90
       50
102
RTVSPost2010PropOp42
 70
     1
102
RTVSPost2010Prop43
 90
        3
102
RTVSPost2010PropOp43
 70
     1
102
RTVSPost2010Prop44ColorIndex
 90
        5
102
RTVSPost2010Prop44ColorRGB
 90
      255
102
RTVSPost2010PropOp44
 70
     1
102
RTVSPost2010Prop45
280
     0
102
RTVSPost2010PropOp45
 70
     1
102
RTVSPost2010Prop46
 90
       50
102
RTVSPost2010PropOp46
 70
     1
102
RTVSPost2010Prop47
 90
       50
102
RTVSPost2010PropOp47
 70
     1
102
RTVSPost2010Prop48
 90
       50
102
RTVSPost2010PropOp48
 70
     1
102
RTVSPost2010Prop49
280
     0
102
RTVSPost2010PropOp49
 70
     1
102
RTVSPost2010Prop50
 90
       50
102
RTVSPost2010PropOp50
 70
     1
102
RTVSPost2010Prop51ColorIndex
 90
      256
102
RTVSPost2010Prop51ColorRGB
 90
-16777216
102
RTVSPost2010PropOp51
 70
     0
102
RTVSPost2010Prop52
140
1.0
102
RTVSPost2010PropOp52
 70
     0
102
RTVSPost2010Prop53
 90
        2
102
RTVSPost2010PropOp53
 70
     1
102
RTVSPost2010Prop54
  1
strokes_ogs.tif
102
RTVSPost2010PropOp54
 70
     1
102
RTVSPost2010Prop55
280
     0
102
RTVSPost2010PropOp55
 70
     1
102
RTVSPost2010Prop56
140
1.0
102
RTVSPost2010PropOp56
 70
     1
102
RTVSPost2010Prop57
140
1.0
102
RTVSPost2010PropOp57
 70
     1
  0
XRECORD
  5
194
102
{ACAD_REACTORS
330
193
102
}
330
193
100
AcDbXrecord
280
     1
102
RTVSPropertyOp0
 70
     1
102
RTVSPropertyOp1
 70
     1
102
RTVSPropertyOp2
 70
     1
102
RTVSPropertyOp3
 70
     1
102
RTVSPropertyOp4
 70
     1
102
RTVSPropertyOp5
 70
     1
102
RTVSPropertyOp6
 70
     1
102
RTVSPropertyOp7
 70
     1
102
RTVSPropertyOp8
 70
     1
102
RTVSPropertyOp9
 70
     1
102
RTVSPropertyOp10
 70
     1
102
RTVSPropertyOp11
 70
     1
102
RTVSPropertyOp12
 70
     1
102
RTVSPropertyOp13
 70
     1
102
RTVSPropertyOp14
 70
     1
102
RTVSPropertyOp15
 70
     1
102
RTVSPropertyOp16
 70
     1
102
RTVSPropertyOp17
 70
     1
102
RTVSPropertyOp18
 70
     1
102
RTVSPropertyOp19
 70
     1
102
RTVSPropertyOp20
 70
     1
102
RTVSPropertyOp21
 70
     1
102
RTVSPropertyOp22
 70
     1
102
RTVSPropertyOp23
 70
     1
102
RTVSPropertyOp24
 70
     1
102
RTVSPropertyOp25
 70
     1
102
RTVSPropertyOp26
 70
     1
102
RTVSPropertyOp27
 70
     1
102
RTVSPropertyOp28
 70
     1
102
RTVSPropertyOp29
 70
     1
102
RTVSPropertyOp30
 70
     1
102
RTVSPropertyOp31
 70
     1
102
RTVSPropertyOp32
 70
     1
102
RTVSPropertyOp33
 70
     1
102
RTVSPropertyOp34
 70
     1
102
RTVSPropertyOp35
 70
     1
102
RTVSPropertyOp36
 70
     1
102
RTVSPropertyOp37
 70
     1
102
RTVSPropertyOp38
 70
     1
102
RTVSPropertyOp39
 70
     1
102
RTVSPropertyOp40
 70
     1
102
RTVSPropertyOp41
 70
     1
102
RTVSPropertyOp42
 70
     1
102
RTVSPropertyOp43
 70
     1
102
RTVSPropertyOp44
 70
     1
102
RTVSPropertyOp45
 70
     1
102
RTVSPropertyOp46
 70
     1
102
RTVSPropertyOp47
 70
     1
102
RTVSPropertyOp48
 70
     1
102
RTVSPropertyOp49
 70
     1
102
RTVSPropertyOp50
 70
     1
102
RTVSPropertyOp51
 70
     0
102
RTVSPropertyOp52
 70
     0
102
RTVSPropertyOp53
 70
     1
102
RTVSPropertyOp54
 70
     1
102
RTVSPropertyOp55
 70
     1
102
RTVSPropertyOp56
 70
     1
102
RTVSPropertyOp57
 70
     1
102
RTVSPost2010Prop28
280
     0
102
RTVSPost2010PropOp28
 70
     1
102
RTVSPost2010Prop29
280
     1
102
RTVSPost2010PropOp29
 70
     1
102
RTVSPost2010Prop30
280
     1
102
RTVSPost2010PropOp30
 70
     1
102
RTVSPost2010Prop31
280
     0
102
RTVSPost2010PropOp31
 70
     1
102
RTVSPost2010Prop32
280
     0
102
RTVSPost2010PropOp32
 70
     1
102
RTVSPost2010Prop33
280
     0
102
RTVSPost2010PropOp33
 70
     1
102
RTVSPost2010Prop34
280
     0
102
RTVSPost2010PropOp34
 70
     1
102
RTVSPost2010Prop35
280
     0
102
RTVSPost2010PropOp35
 70
     1
102
RTVSPost2010Prop36
280
     0
102
RTVSPost2010PropOp36
 70
     1
102
RTVSPost2010Prop37
 90
       50
102
RTVSPost2010PropOp37
 70
     1
102
RTVSPost2010Prop38
140
0.0
102
RTVSPost2010PropOp38
 70
     1
102
RTVSPost2010Prop39
140
1.0
102
RTVSPost2010PropOp39
 70
     1
102
RTVSPost2010Prop40
 90
        0
102
RTVSPost2010PropOp40
 70
     1
102
RTVSPost2010Prop41ColorIndex
 90
       18
102
RTVSPost2010Prop41ColorRGB
 90
        0
102
RTVSPost2010PropOp41
 70
     1
102
RTVSPost2010Prop42
 90
       50
102
RTVSPost2010PropOp42
 70
     1
102
RTVSPost2010Prop43
 90
        3
102
RTVSPost2010PropOp43
 70
     1
102
RTVSPost2010Prop44ColorIndex
 90
        5
102
RTVSPost2010Prop44ColorRGB
 90
      255
102
RTVSPost2010PropOp44
 70
     1
102
RTVSPost2010Prop45
280
     0
102
RTVSPost2010PropOp45
 70
     1
102
RTVSPost2010Prop46
 90
       50
102
RTVSPost2010PropOp46
 70
     1
102
RTVSPost2010Prop47
 90
       50
102
RTVSPost2010PropOp47
 70
     1
102
RTVSPost2010Prop48
 90
       50
102
RTVSPost2010PropOp48
 70
     1
102
RTVSPost2010Prop49
280
     0
102
RTVSPost2010PropOp49
 70
     1
102
RTVSPost2010Prop50
 90
       50
102
RTVSPost2010PropOp50
 70
     1
102
RTVSPost2010Prop51ColorIndex
 90
      256
102
RTVSPost2010Prop51ColorRGB
 90
-16777216
102
RTVSPost2010PropOp51
 70
     0
102
RTVSPost2010Prop52
140
1.0
102
RTVSPost2010PropOp52
 70
     0
102
RTVSPost2010Prop53
 90
        2
102
RTVSPost2010PropOp53
 70
     1
102
RTVSPost2010Prop54
  1
strokes_ogs.tif
102
RTVSPost2010PropOp54
 70
     1
102
RTVSPost2010Prop55
280
     0
102
RTVSPost2010PropOp55
 70
     1
102
RTVSPost2010Prop56
140
1.0
102
RTVSPost2010PropOp56
 70
     1
102
RTVSPost2010Prop57
140
1.0
102
RTVSPost2010PropOp57
 70
     1
  0
XRECORD
  5
196
102
{ACAD_REACTORS
330
195
102
}
330
195
100
AcDbXrecord
280
     1
102
RTVSPropertyOp0
 70
     1
102
RTVSPropertyOp1
 70
     1
102
RTVSPropertyOp2
 70
     1
102
RTVSPropertyOp3
 70
     1
102
RTVSPropertyOp4
 70
     1
102
RTVSPropertyOp5
 70
     1
102
RTVSPropertyOp6
 70
     1
102
RTVSPropertyOp7
 70
     1
102
RTVSPropertyOp8
 70
     1
102
RTVSPropertyOp9
 70
     1
102
RTVSPropertyOp10
 70
     1
102
RTVSPropertyOp11
 70
     1
102
RTVSPropertyOp12
 70
     1
102
RTVSPropertyOp13
 70
     1
102
RTVSPropertyOp14
 70
     1
102
RTVSPropertyOp15
 70
     1
102
RTVSPropertyOp16
 70
     1
102
RTVSPropertyOp17
 70
     1
102
RTVSPropertyOp18
 70
     1
102
RTVSPropertyOp19
 70
     1
102
RTVSPropertyOp20
 70
     1
102
RTVSPropertyOp21
 70
     1
102
RTVSPropertyOp22
 70
     1
102
RTVSPropertyOp23
 70
     1
102
RTVSPropertyOp24
 70
     1
102
RTVSPropertyOp25
 70
     1
102
RTVSPropertyOp26
 70
     1
102
RTVSPropertyOp27
 70
     1
102
RTVSPropertyOp28
 70
     1
102
RTVSPropertyOp29
 70
     1
102
RTVSPropertyOp30
 70
     1
102
RTVSPropertyOp31
 70
     1
102
RTVSPropertyOp32
 70
     1
102
RTVSPropertyOp33
 70
     1
102
RTVSPropertyOp34
 70
     1
102
RTVSPropertyOp35
 70
     1
102
RTVSPropertyOp36
 70
     1
102
RTVSPropertyOp37
 70
     1
102
RTVSPropertyOp38
 70
     1
102
RTVSPropertyOp39
 70
     1
102
RTVSPropertyOp40
 70
     1
102
RTVSPropertyOp41
 70
     1
102
RTVSPropertyOp42
 70
     1
102
RTVSPropertyOp43
 70
     1
102
RTVSPropertyOp44
 70
     1
102
RTVSPropertyOp45
 70
     1
102
RTVSPropertyOp46
 70
     1
102
RTVSPropertyOp47
 70
     1
102
RTVSPropertyOp48
 70
     1
102
RTVSPropertyOp49
 70
     1
102
RTVSPropertyOp50
 70
     1
102
RTVSPropertyOp51
 70
     0
102
RTVSPropertyOp52
 70
     0
102
RTVSPropertyOp53
 70
     1
102
RTVSPropertyOp54
 70
     1
102
RTVSPropertyOp55
 70
     1
102
RTVSPropertyOp56
 70
     1
102
RTVSPropertyOp57
 70
     1
102
RTVSPost2010Prop28
280
     0
102
RTVSPost2010PropOp28
 70
     1
102
RTVSPost2010Prop29
280
     1
102
RTVSPost2010PropOp29
 70
     1
102
RTVSPost2010Prop30
280
     1
102
RTVSPost2010PropOp30
 70
     1
102
RTVSPost2010Prop31
280
     0
102
RTVSPost2010PropOp31
 70
     1
102
RTVSPost2010Prop32
280
     0
102
RTVSPost2010PropOp32
 70
     1
102
RTVSPost2010Prop33
280
     0
102
RTVSPost2010PropOp33
 70
     1
102
RTVSPost2010Prop34
280
     0
102
RTVSPost2010PropOp34
 70
     1
102
RTVSPost2010Prop35
280
     0
102
RTVSPost2010PropOp35
 70
     1
102
RTVSPost2010Prop36
280
     0
102
RTVSPost2010PropOp36
 70
     1
102
RTVSPost2010Prop37
 90
       50
102
RTVSPost2010PropOp37
 70
     1
102
RTVSPost2010Prop38
140
0.0
102
RTVSPost2010PropOp38
 70
     1
102
RTVSPost2010Prop39
140
1.0
102
RTVSPost2010PropOp39
 70
     1
102
RTVSPost2010Prop40
 90
        0
102
RTVSPost2010PropOp40
 70
     1
102
RTVSPost2010Prop41ColorIndex
 90
       18
102
RTVSPost2010Prop41ColorRGB
 90
        0
102
RTVSPost2010PropOp41
 70
     1
102
RTVSPost2010Prop42
 90
       50
102
RTVSPost2010PropOp42
 70
     1
102
RTVSPost2010Prop43
 90
        3
102
RTVSPost2010PropOp43
 70
     1
102
RTVSPost2010Prop44ColorIndex
 90
        5
102
RTVSPost2010Prop44ColorRGB
 90
      255
102
RTVSPost2010PropOp44
 70
     1
102
RTVSPost2010Prop45
280
     0
102
RTVSPost2010PropOp45
 70
     1
102
RTVSPost2010Prop46
 90
       50
102
RTVSPost2010PropOp46
 70
     1
102
RTVSPost2010Prop47
 90
       50
102
RTVSPost2010PropOp47
 70
     1
102
RTVSPost2010Prop48
 90
       50
102
RTVSPost2010PropOp48
 70
     1
102
RTVSPost2010Prop49
280
     0
102
RTVSPost2010PropOp49
 70
     1
102
RTVSPost2010Prop50
 90
       50
102
RTVSPost2010PropOp50
 70
     1
102
RTVSPost2010Prop51ColorIndex
 90
      256
102
RTVSPost2010Prop51ColorRGB
 90
-16777216
102
RTVSPost2010PropOp51
 70
     0
102
RTVSPost2010Prop52
140
1.0
102
RTVSPost2010PropOp52
 70
     0
102
RTVSPost2010Prop53
 90
        2
102
RTVSPost2010PropOp53
 70
     1
102
RTVSPost2010Prop54
  1
strokes_ogs.tif
102
RTVSPost2010PropOp54
 70
     1
102
RTVSPost2010Prop55
280
     0
102
RTVSPost2010PropOp55
 70
     1
102
RTVSPost2010Prop56
140
1.0
102
RTVSPost2010PropOp56
 70
     1
102
RTVSPost2010Prop57
140
1.0
102
RTVSPost2010PropOp57
 70
     1
  0
XRECORD
  5
19C
102
{ACAD_REACTORS
330
19B
102
}
330
19B
100
AcDbXrecord
280
     1
102
RTVSPropertyOp0
 70
     1
102
RTVSPropertyOp1
 70
     1
102
RTVSPropertyOp2
 70
     1
102
RTVSPropertyOp3
 70
     1
102
RTVSPropertyOp4
 70
     1
102
RTVSPropertyOp5
 70
     1
102
RTVSPropertyOp6
 70
     1
102
RTVSPropertyOp7
 70
     1
102
RTVSPropertyOp8
 70
     1
102
RTVSPropertyOp9
 70
     1
102
RTVSPropertyOp10
 70
     1
102
RTVSPropertyOp11
 70
     1
102
RTVSPropertyOp12
 70
     1
102
RTVSPropertyOp13
 70
     1
102
RTVSPropertyOp14
 70
     1
102
RTVSPropertyOp15
 70
     1
102
RTVSPropertyOp16
 70
     1
102
RTVSPropertyOp17
 70
     1
102
RTVSPropertyOp18
 70
     1
102
RTVSPropertyOp19
 70
     1
102
RTVSPropertyOp20
 70
     1
102
RTVSPropertyOp21
 70
     1
102
RTVSPropertyOp22
 70
     1
102
RTVSPropertyOp23
 70
     1
102
RTVSPropertyOp24
 70
     1
102
RTVSPropertyOp25
 70
     1
102
RTVSPropertyOp26
 70
     1
102
RTVSPropertyOp27
 70
     1
102
RTVSPropertyOp28
 70
     1
102
RTVSPropertyOp29
 70
     1
102
RTVSPropertyOp30
 70
     1
102
RTVSPropertyOp31
 70
     1
102
RTVSPropertyOp32
 70
     1
102
RTVSPropertyOp33
 70
     1
102
RTVSPropertyOp34
 70
     1
102
RTVSPropertyOp35
 70
     1
102
RTVSPropertyOp36
 70
     1
102
RTVSPropertyOp37
 70
     1
102
RTVSPropertyOp38
 70
     1
102
RTVSPropertyOp39
 70
     1
102
RTVSPropertyOp40
 70
     1
102
RTVSPropertyOp41
 70
     1
102
RTVSPropertyOp42
 70
     1
102
RTVSPropertyOp43
 70
     1
102
RTVSPropertyOp44
 70
     1
102
RTVSPropertyOp45
 70
     1
102
RTVSPropertyOp46
 70
     1
102
RTVSPropertyOp47
 70
     1
102
RTVSPropertyOp48
 70
     1
102
RTVSPropertyOp49
 70
     1
102
RTVSPropertyOp50
 70
     1
102
RTVSPropertyOp51
 70
     0
102
RTVSPropertyOp52
 70
     0
102
RTVSPropertyOp53
 70
     1
102
RTVSPropertyOp54
 70
     1
102
RTVSPropertyOp55
 70
     1
102
RTVSPropertyOp56
 70
     1
102
RTVSPropertyOp57
 70
     1
102
RTVSPost2010Prop28
280
     0
102
RTVSPost2010PropOp28
 70
     1
102
RTVSPost2010Prop29
280
     1
102
RTVSPost2010PropOp29
 70
     1
102
RTVSPost2010Prop30
280
     1
102
RTVSPost2010PropOp30
 70
     1
102
RTVSPost2010Prop31
280
     0
102
RTVSPost2010PropOp31
 70
     1
102
RTVSPost2010Prop32
280
     0
102
RTVSPost2010PropOp32
 70
     1
102
RTVSPost2010Prop33
280
     0
102
RTVSPost2010PropOp33
 70
     1
102
RTVSPost2010Prop34
280
     0
102
RTVSPost2010PropOp34
 70
     1
102
RTVSPost2010Prop35
280
     0
102
RTVSPost2010PropOp35
 70
     1
102
RTVSPost2010Prop36
280
     0
102
RTVSPost2010PropOp36
 70
     1
102
RTVSPost2010Prop37
 90
       50
102
RTVSPost2010PropOp37
 70
     1
102
RTVSPost2010Prop38
140
0.0
102
RTVSPost2010PropOp38
 70
     1
102
RTVSPost2010Prop39
140
1.0
102
RTVSPost2010PropOp39
 70
     1
102
RTVSPost2010Prop40
 90
        0
102
RTVSPost2010PropOp40
 70
     1
102
RTVSPost2010Prop41ColorIndex
 90
       18
102
RTVSPost2010Prop41ColorRGB
 90
        0
102
RTVSPost2010PropOp41
 70
     1
102
RTVSPost2010Prop42
 90
       50
102
RTVSPost2010PropOp42
 70
     1
102
RTVSPost2010Prop43
 90
        3
102
RTVSPost2010PropOp43
 70
     1
102
RTVSPost2010Prop44ColorIndex
 90
        5
102
RTVSPost2010Prop44ColorRGB
 90
      255
102
RTVSPost2010PropOp44
 70
     1
102
RTVSPost2010Prop45
280
     0
102
RTVSPost2010PropOp45
 70
     1
102
RTVSPost2010Prop46
 90
       50
102
RTVSPost2010PropOp46
 70
     1
102
RTVSPost2010Prop47
 90
       50
102
RTVSPost2010PropOp47
 70
     1
102
RTVSPost2010Prop48
 90
       50
102
RTVSPost2010PropOp48
 70
     1
102
RTVSPost2010Prop49
280
     0
102
RTVSPost2010PropOp49
 70
     1
102
RTVSPost2010Prop50
 90
       50
102
RTVSPost2010PropOp50
 70
     1
102
RTVSPost2010Prop51ColorIndex
 90
      256
102
RTVSPost2010Prop51ColorRGB
 90
-16777216
102
RTVSPost2010PropOp51
 70
     0
102
RTVSPost2010Prop52
140
1.0
102
RTVSPost2010PropOp52
 70
     0
102
RTVSPost2010Prop53
 90
        2
102
RTVSPost2010PropOp53
 70
     1
102
RTVSPost2010Prop54
  1
strokes_ogs.tif
102
RTVSPost2010PropOp54
 70
     1
102
RTVSPost2010Prop55
280
     0
102
RTVSPost2010PropOp55
 70
     1
102
RTVSPost2010Prop56
140
1.0
102
RTVSPost2010PropOp56
 70
     1
102
RTVSPost2010Prop57
140
1.0
102
RTVSPost2010PropOp57
 70
     1
  0
XRECORD
  5
1B0
102
{ACAD_REACTORS
330
1AF
102
}
330
1AF
100
AcDbXrecord
280
     1
102
RTVSPropertyOp0
 70
     0
102
RTVSPropertyOp1
 70
     0
102
RTVSPropertyOp2
 70
     0
102
RTVSPropertyOp3
 70
     0
102
RTVSPropertyOp4
 70
     0
102
RTVSPropertyOp5
 70
     0
102
RTVSPropertyOp6
 70
     0
102
RTVSPropertyOp7
 70
     0
102
RTVSPropertyOp8
 70
     0
102
RTVSPropertyOp9
 70
     0
102
RTVSPropertyOp10
 70
     0
102
RTVSPropertyOp11
 70
     0
102
RTVSPropertyOp12
 70
     0
102
RTVSPropertyOp13
 70
     0
102
RTVSPropertyOp14
 70
     2
102
RTVSPropertyOp15
 70
     0
102
RTVSPropertyOp16
 70
     0
102
RTVSPropertyOp17
 70
     0
102
RTVSPropertyOp18
 70
     0
102
RTVSPropertyOp19
 70
     0
102
RTVSPropertyOp20
 70
     0
102
RTVSPropertyOp21
 70
     0
102
RTVSPropertyOp22
 70
     0
102
RTVSPropertyOp23
 70
     0
102
RTVSPropertyOp24
 70
     0
102
RTVSPropertyOp25
 70
     0
102
RTVSPropertyOp26
 70
     0
102
RTVSPropertyOp27
 70
     0
102
RTVSPropertyOp28
 70
     0
102
RTVSPropertyOp29
 70
     0
102
RTVSPropertyOp30
 70
     0
102
RTVSPropertyOp31
 70
     0
102
RTVSPropertyOp32
 70
     0
102
RTVSPropertyOp33
 70
     0
102
RTVSPropertyOp34
 70
     0
102
RTVSPropertyOp35
 70
     0
102
RTVSPropertyOp36
 70
     0
102
RTVSPropertyOp37
 70
     0
102
RTVSPropertyOp38
 70
     0
102
RTVSPropertyOp39
 70
     0
102
RTVSPropertyOp40
 70
     0
102
RTVSPropertyOp41
 70
     0
102
RTVSPropertyOp42
 70
     0
102
RTVSPropertyOp43
 70
     0
102
RTVSPropertyOp44
 70
     0
102
RTVSPropertyOp45
 70
     0
102
RTVSPropertyOp46
 70
     0
102
RTVSPropertyOp47
 70
     0
102
RTVSPropertyOp48
 70
     0
102
RTVSPropertyOp49
 70
     0
102
RTVSPropertyOp50
 70
     0
102
RTVSPropertyOp51
 70
     0
102
RTVSPropertyOp52
 70
     0
102
RTVSPropertyOp53
 70
     0
102
RTVSPropertyOp54
 70
     0
102
RTVSPropertyOp55
 70
     0
102
RTVSPropertyOp56
 70
     0
102
RTVSPropertyOp57
 70
     0
102
RTVSPost2010Prop28
280
     0
102
RTVSPost2010PropOp28
 70
     0
102
RTVSPost2010Prop29
280
     1
102
RTVSPost2010PropOp29
 70
     0
102
RTVSPost2010Prop30
280
     1
102
RTVSPost2010PropOp30
 70
     0
102
RTVSPost2010Prop31
280
     0
102
RTVSPost2010PropOp31
 70
     0
102
RTVSPost2010Prop32
280
     0
102
RTVSPost2010PropOp32
 70
     0
102
RTVSPost2010Prop33
280
     0
102
RTVSPost2010PropOp33
 70
     0
102
RTVSPost2010Prop34
280
     0
102
RTVSPost2010PropOp34
 70
     0
102
RTVSPost2010Prop35
280
     0
102
RTVSPost2010PropOp35
 70
     0
102
RTVSPost2010Prop36
280
     0
102
RTVSPost2010PropOp36
 70
     0
102
RTVSPost2010Prop37
 90
       50
102
RTVSPost2010PropOp37
 70
     0
102
RTVSPost2010Prop38
140
0.0
102
RTVSPost2010PropOp38
 70
     0
102
RTVSPost2010Prop39
140
1.0
102
RTVSPost2010PropOp39
 70
     0
102
RTVSPost2010Prop40
 90
        0
102
RTVSPost2010PropOp40
 70
     0
102
RTVSPost2010Prop41ColorIndex
 90
       18
102
RTVSPost2010Prop41ColorRGB
 90
        0
102
RTVSPost2010PropOp41
 70
     0
102
RTVSPost2010Prop42
 90
       50
102
RTVSPost2010PropOp42
 70
     0
102
RTVSPost2010Prop43
 90
        3
102
RTVSPost2010PropOp43
 70
     0
102
RTVSPost2010Prop44ColorIndex
 90
        5
102
RTVSPost2010Prop44ColorRGB
 90
      255
102
RTVSPost2010PropOp44
 70
     0
102
RTVSPost2010Prop45
280
     0
102
RTVSPost2010PropOp45
 70
     0
102
RTVSPost2010Prop46
 90
       50
102
RTVSPost2010PropOp46
 70
     0
102
RTVSPost2010Prop47
 90
       50
102
RTVSPost2010PropOp47
 70
     0
102
RTVSPost2010Prop48
 90
       50
102
RTVSPost2010PropOp48
 70
     0
102
RTVSPost2010Prop49
280
     0
102
RTVSPost2010PropOp49
 70
     0
102
RTVSPost2010Prop50
 90
       50
102
RTVSPost2010PropOp50
 70
     0
102
RTVSPost2010Prop51ColorIndex
 90
      256
102
RTVSPost2010Prop51ColorRGB
 90
-16777216
102
RTVSPost2010PropOp51
 70
     0
102
RTVSPost2010Prop52
140
1.0
102
RTVSPost2010PropOp52
 70
     0
102
RTVSPost2010Prop53
 90
        2
102
RTVSPost2010PropOp53
 70
     0
102
RTVSPost2010Prop54
  1
strokes_ogs.tif
102
RTVSPost2010PropOp54
 70
     0
102
RTVSPost2010Prop55
280
     0
102
RTVSPost2010PropOp55
 70
     0
102
RTVSPost2010Prop56
140
1.0
102
RTVSPost2010PropOp56
 70
     0
102
RTVSPost2010Prop57
140
1.0
102
RTVSPost2010PropOp57
 70
     0
  0
XRECORD
  5
1AA
102
{ACAD_REACTORS
330
1A9
102
}
330
1A9
100
AcDbXrecord
280
     1
102
RTVSPropertyOp0
 70
     1
102
RTVSPropertyOp1
 70
     1
102
RTVSPropertyOp2
 70
     1
102
RTVSPropertyOp3
 70
     1
102
RTVSPropertyOp4
 70
     1
102
RTVSPropertyOp5
 70
     1
102
RTVSPropertyOp6
 70
     1
102
RTVSPropertyOp7
 70
     1
102
RTVSPropertyOp8
 70
     1
102
RTVSPropertyOp9
 70
     1
102
RTVSPropertyOp10
 70
     1
102
RTVSPropertyOp11
 70
     1
102
RTVSPropertyOp12
 70
     1
102
RTVSPropertyOp13
 70
     1
102
RTVSPropertyOp14
 70
     1
102
RTVSPropertyOp15
 70
     1
102
RTVSPropertyOp16
 70
     1
102
RTVSPropertyOp17
 70
     1
102
RTVSPropertyOp18
 70
     1
102
RTVSPropertyOp19
 70
     1
102
RTVSPropertyOp20
 70
     1
102
RTVSPropertyOp21
 70
     1
102
RTVSPropertyOp22
 70
     1
102
RTVSPropertyOp23
 70
     1
102
RTVSPropertyOp24
 70
     1
102
RTVSPropertyOp25
 70
     1
102
RTVSPropertyOp26
 70
     1
102
RTVSPropertyOp27
 70
     1
102
RTVSPropertyOp28
 70
     1
102
RTVSPropertyOp29
 70
     1
102
RTVSPropertyOp30
 70
     1
102
RTVSPropertyOp31
 70
     1
102
RTVSPropertyOp32
 70
     1
102
RTVSPropertyOp33
 70
     1
102
RTVSPropertyOp34
 70
     1
102
RTVSPropertyOp35
 70
     1
102
RTVSPropertyOp36
 70
     1
102
RTVSPropertyOp37
 70
     1
102
RTVSPropertyOp38
 70
     1
102
RTVSPropertyOp39
 70
     1
102
RTVSPropertyOp40
 70
     1
102
RTVSPropertyOp41
 70
     1
102
RTVSPropertyOp42
 70
     1
102
RTVSPropertyOp43
 70
     1
102
RTVSPropertyOp44
 70
     1
102
RTVSPropertyOp45
 70
     1
102
RTVSPropertyOp46
 70
     1
102
RTVSPropertyOp47
 70
     1
102
RTVSPropertyOp48
 70
     1
102
RTVSPropertyOp49
 70
     1
102
RTVSPropertyOp50
 70
     1
102
RTVSPropertyOp51
 70
     0
102
RTVSPropertyOp52
 70
     0
102
RTVSPropertyOp53
 70
     1
102
RTVSPropertyOp54
 70
     1
102
RTVSPropertyOp55
 70
     1
102
RTVSPropertyOp56
 70
     1
102
RTVSPropertyOp57
 70
     1
102
RTVSPost2010Prop28
280
     0
102
RTVSPost2010PropOp28
 70
     1
102
RTVSPost2010Prop29
280
     1
102
RTVSPost2010PropOp29
 70
     1
102
RTVSPost2010Prop30
280
     1
102
RTVSPost2010PropOp30
 70
     1
102
RTVSPost2010Prop31
280
     0
102
RTVSPost2010PropOp31
 70
     1
102
RTVSPost2010Prop32
280
     0
102
RTVSPost2010PropOp32
 70
     1
102
RTVSPost2010Prop33
280
     0
102
RTVSPost2010PropOp33
 70
     1
102
RTVSPost2010Prop34
280
     0
102
RTVSPost2010PropOp34
 70
     1
102
RTVSPost2010Prop35
280
     0
102
RTVSPost2010PropOp35
 70
     1
102
RTVSPost2010Prop36
280
     0
102
RTVSPost2010PropOp36
 70
     1
102
RTVSPost2010Prop37
 90
       50
102
RTVSPost2010PropOp37
 70
     1
102
RTVSPost2010Prop38
140
0.0
102
RTVSPost2010PropOp38
 70
     1
102
RTVSPost2010Prop39
140
1.0
102
RTVSPost2010PropOp39
 70
     1
102
RTVSPost2010Prop40
 90
        0
102
RTVSPost2010PropOp40
 70
     1
102
RTVSPost2010Prop41ColorIndex
 90
       18
102
RTVSPost2010Prop41ColorRGB
 90
        0
102
RTVSPost2010PropOp41
 70
     1
102
RTVSPost2010Prop42
 90
       50
102
RTVSPost2010PropOp42
 70
     1
102
RTVSPost2010Prop43
 90
        3
102
RTVSPost2010PropOp43
 70
     1
102
RTVSPost2010Prop44ColorIndex
 90
        5
102
RTVSPost2010Prop44ColorRGB
 90
      255
102
RTVSPost2010PropOp44
 70
     1
102
RTVSPost2010Prop45
280
     0
102
RTVSPost2010PropOp45
 70
     1
102
RTVSPost2010Prop46
 90
       50
102
RTVSPost2010PropOp46
 70
     1
102
RTVSPost2010Prop47
 90
       50
102
RTVSPost2010PropOp47
 70
     1
102
RTVSPost2010Prop48
 90
       50
102
RTVSPost2010PropOp48
 70
     1
102
RTVSPost2010Prop49
280
     0
102
RTVSPost2010PropOp49
 70
     1
102
RTVSPost2010Prop50
 90
       50
102
RTVSPost2010PropOp50
 70
     1
102
RTVSPost2010Prop51ColorIndex
 90
      256
102
RTVSPost2010Prop51ColorRGB
 90
-16777216
102
RTVSPost2010PropOp51
 70
     0
102
RTVSPost2010Prop52
140
1.0
102
RTVSPost2010PropOp52
 70
     0
102
RTVSPost2010Prop53
 90
        2
102
RTVSPost2010PropOp53
 70
     1
102
RTVSPost2010Prop54
  1
strokes_ogs.tif
102
RTVSPost2010PropOp54
 70
     1
102
RTVSPost2010Prop55
280
     0
102
RTVSPost2010PropOp55
 70
     1
102
RTVSPost2010Prop56
140
1.0
102
RTVSPost2010PropOp56
 70
     1
102
RTVSPost2010Prop57
140
1.0
102
RTVSPost2010PropOp57
 70
     1
  0
XRECORD
  5
1B2
102
{ACAD_REACTORS
330
1B1
102
}
330
1B1
100
AcDbXrecord
280
     1
102
RTVSPropertyOp0
 70
     0
102
RTVSPropertyOp1
 70
     0
102
RTVSPropertyOp2
 70
     0
102
RTVSPropertyOp3
 70
     0
102
RTVSPropertyOp4
 70
     0
102
RTVSPropertyOp5
 70
     0
102
RTVSPropertyOp6
 70
     0
102
RTVSPropertyOp7
 70
     0
102
RTVSPropertyOp8
 70
     0
102
RTVSPropertyOp9
 70
     0
102
RTVSPropertyOp10
 70
     0
102
RTVSPropertyOp11
 70
     0
102
RTVSPropertyOp12
 70
     0
102
RTVSPropertyOp13
 70
     0
102
RTVSPropertyOp14
 70
     2
102
RTVSPropertyOp15
 70
     0
102
RTVSPropertyOp16
 70
     0
102
RTVSPropertyOp17
 70
     0
102
RTVSPropertyOp18
 70
     0
102
RTVSPropertyOp19
 70
     0
102
RTVSPropertyOp20
 70
     0
102
RTVSPropertyOp21
 70
     0
102
RTVSPropertyOp22
 70
     0
102
RTVSPropertyOp23
 70
     0
102
RTVSPropertyOp24
 70
     0
102
RTVSPropertyOp25
 70
     0
102
RTVSPropertyOp26
 70
     0
102
RTVSPropertyOp27
 70
     0
102
RTVSPropertyOp28
 70
     0
102
RTVSPropertyOp29
 70
     0
102
RTVSPropertyOp30
 70
     0
102
RTVSPropertyOp31
 70
     0
102
RTVSPropertyOp32
 70
     0
102
RTVSPropertyOp33
 70
     0
102
RTVSPropertyOp34
 70
     0
102
RTVSPropertyOp35
 70
     0
102
RTVSPropertyOp36
 70
     0
102
RTVSPropertyOp37
 70
     0
102
RTVSPropertyOp38
 70
     0
102
RTVSPropertyOp39
 70
     0
102
RTVSPropertyOp40
 70
     0
102
RTVSPropertyOp41
 70
     0
102
RTVSPropertyOp42
 70
     0
102
RTVSPropertyOp43
 70
     0
102
RTVSPropertyOp44
 70
     0
102
RTVSPropertyOp45
 70
     0
102
RTVSPropertyOp46
 70
     0
102
RTVSPropertyOp47
 70
     0
102
RTVSPropertyOp48
 70
     0
102
RTVSPropertyOp49
 70
     0
102
RTVSPropertyOp50
 70
     0
102
RTVSPropertyOp51
 70
     0
102
RTVSPropertyOp52
 70
     0
102
RTVSPropertyOp53
 70
     0
102
RTVSPropertyOp54
 70
     0
102
RTVSPropertyOp55
 70
     0
102
RTVSPropertyOp56
 70
     0
102
RTVSPropertyOp57
 70
     0
102
RTVSPost2010Prop28
280
     0
102
RTVSPost2010PropOp28
 70
     0
102
RTVSPost2010Prop29
280
     1
102
RTVSPost2010PropOp29
 70
     0
102
RTVSPost2010Prop30
280
     1
102
RTVSPost2010PropOp30
 70
     0
102
RTVSPost2010Prop31
280
     0
102
RTVSPost2010PropOp31
 70
     0
102
RTVSPost2010Prop32
280
     0
102
RTVSPost2010PropOp32
 70
     0
102
RTVSPost2010Prop33
280
     0
102
RTVSPost2010PropOp33
 70
     0
102
RTVSPost2010Prop34
280
     0
102
RTVSPost2010PropOp34
 70
     0
102
RTVSPost2010Prop35
280
     0
102
RTVSPost2010PropOp35
 70
     0
102
RTVSPost2010Prop36
280
     0
102
RTVSPost2010PropOp36
 70
     0
102
RTVSPost2010Prop37
 90
       50
102
RTVSPost2010PropOp37
 70
     0
102
RTVSPost2010Prop38
140
0.0
102
RTVSPost2010PropOp38
 70
     0
102
RTVSPost2010Prop39
140
1.0
102
RTVSPost2010PropOp39
 70
     0
102
RTVSPost2010Prop40
 90
        0
102
RTVSPost2010PropOp40
 70
     0
102
RTVSPost2010Prop41ColorIndex
 90
       18
102
RTVSPost2010Prop41ColorRGB
 90
        0
102
RTVSPost2010PropOp41
 70
     0
102
RTVSPost2010Prop42
 90
       50
102
RTVSPost2010PropOp42
 70
     0
102
RTVSPost2010Prop43
 90
        3
102
RTVSPost2010PropOp43
 70
     0
102
RTVSPost2010Prop44ColorIndex
 90
        5
102
RTVSPost2010Prop44ColorRGB
 90
      255
102
RTVSPost2010PropOp44
 70
     0
102
RTVSPost2010Prop45
280
     0
102
RTVSPost2010PropOp45
 70
     0
102
RTVSPost2010Prop46
 90
       50
102
RTVSPost2010PropOp46
 70
     0
102
RTVSPost2010Prop47
 90
       50
102
RTVSPost2010PropOp47
 70
     0
102
RTVSPost2010Prop48
 90
       50
102
RTVSPost2010PropOp48
 70
     0
102
RTVSPost2010Prop49
280
     0
102
RTVSPost2010PropOp49
 70
     0
102
RTVSPost2010Prop50
 90
       50
102
RTVSPost2010PropOp50
 70
     0
102
RTVSPost2010Prop51ColorIndex
 90
      256
102
RTVSPost2010Prop51ColorRGB
 90
-16777216
102
RTVSPost2010PropOp51
 70
     0
102
RTVSPost2010Prop52
140
1.0
102
RTVSPost2010PropOp52
 70
     0
102
RTVSPost2010Prop53
 90
        2
102
RTVSPost2010PropOp53
 70
     0
102
RTVSPost2010Prop54
  1
strokes_ogs.tif
102
RTVSPost2010PropOp54
 70
     0
102
RTVSPost2010Prop55
280
     0
102
RTVSPost2010PropOp55
 70
     0
102
RTVSPost2010Prop56
140
1.0
102
RTVSPost2010PropOp56
 70
     0
102
RTVSPost2010Prop57
140
1.0
102
RTVSPost2010PropOp57
 70
     0
  0
XRECORD
  5
1A0
102
{ACAD_REACTORS
330
19F
102
}
330
19F
100
AcDbXrecord
280
     1
102
RTVSPropertyOp0
 70
     1
102
RTVSPropertyOp1
 70
     1
102
RTVSPropertyOp2
 70
     1
102
RTVSPropertyOp3
 70
     1
102
RTVSPropertyOp4
 70
     1
102
RTVSPropertyOp5
 70
     1
102
RTVSPropertyOp6
 70
     1
102
RTVSPropertyOp7
 70
     1
102
RTVSPropertyOp8
 70
     1
102
RTVSPropertyOp9
 70
     1
102
RTVSPropertyOp10
 70
     1
102
RTVSPropertyOp11
 70
     1
102
RTVSPropertyOp12
 70
     1
102
RTVSPropertyOp13
 70
     1
102
RTVSPropertyOp14
 70
     1
102
RTVSPropertyOp15
 70
     1
102
RTVSPropertyOp16
 70
     1
102
RTVSPropertyOp17
 70
     1
102
RTVSPropertyOp18
 70
     1
102
RTVSPropertyOp19
 70
     1
102
RTVSPropertyOp20
 70
     1
102
RTVSPropertyOp21
 70
     1
102
RTVSPropertyOp22
 70
     1
102
RTVSPropertyOp23
 70
     1
102
RTVSPropertyOp24
 70
     1
102
RTVSPropertyOp25
 70
     1
102
RTVSPropertyOp26
 70
     1
102
RTVSPropertyOp27
 70
     1
102
RTVSPropertyOp28
 70
     1
102
RTVSPropertyOp29
 70
     1
102
RTVSPropertyOp30
 70
     1
102
RTVSPropertyOp31
 70
     1
102
RTVSPropertyOp32
 70
     1
102
RTVSPropertyOp33
 70
     1
102
RTVSPropertyOp34
 70
     1
102
RTVSPropertyOp35
 70
     1
102
RTVSPropertyOp36
 70
     1
102
RTVSPropertyOp37
 70
     1
102
RTVSPropertyOp38
 70
     1
102
RTVSPropertyOp39
 70
     1
102
RTVSPropertyOp40
 70
     1
102
RTVSPropertyOp41
 70
     1
102
RTVSPropertyOp42
 70
     1
102
RTVSPropertyOp43
 70
     1
102
RTVSPropertyOp44
 70
     1
102
RTVSPropertyOp45
 70
     1
102
RTVSPropertyOp46
 70
     1
102
RTVSPropertyOp47
 70
     1
102
RTVSPropertyOp48
 70
     1
102
RTVSPropertyOp49
 70
     1
102
RTVSPropertyOp50
 70
     1
102
RTVSPropertyOp51
 70
     0
102
RTVSPropertyOp52
 70
     0
102
RTVSPropertyOp53
 70
     1
102
RTVSPropertyOp54
 70
     1
102
RTVSPropertyOp55
 70
     1
102
RTVSPropertyOp56
 70
     1
102
RTVSPropertyOp57
 70
     1
102
RTVSPost2010Prop28
280
     0
102
RTVSPost2010PropOp28
 70
     1
102
RTVSPost2010Prop29
280
     1
102
RTVSPost2010PropOp29
 70
     1
102
RTVSPost2010Prop30
280
     1
102
RTVSPost2010PropOp30
 70
     1
102
RTVSPost2010Prop31
280
     0
102
RTVSPost2010PropOp31
 70
     1
102
RTVSPost2010Prop32
280
     0
102
RTVSPost2010PropOp32
 70
     1
102
RTVSPost2010Prop33
280
     0
102
RTVSPost2010PropOp33
 70
     1
102
RTVSPost2010Prop34
280
     0
102
RTVSPost2010PropOp34
 70
     1
102
RTVSPost2010Prop35
280
     0
102
RTVSPost2010PropOp35
 70
     1
102
RTVSPost2010Prop36
280
     0
102
RTVSPost2010PropOp36
 70
     1
102
RTVSPost2010Prop37
 90
       50
102
RTVSPost2010PropOp37
 70
     1
102
RTVSPost2010Prop38
140
0.0
102
RTVSPost2010PropOp38
 70
     1
102
RTVSPost2010Prop39
140
1.0
102
RTVSPost2010PropOp39
 70
     1
102
RTVSPost2010Prop40
 90
        0
102
RTVSPost2010PropOp40
 70
     1
102
RTVSPost2010Prop41ColorIndex
 90
       18
102
RTVSPost2010Prop41ColorRGB
 90
        0
102
RTVSPost2010PropOp41
 70
     1
102
RTVSPost2010Prop42
 90
       50
102
RTVSPost2010PropOp42
 70
     1
102
RTVSPost2010Prop43
 90
        3
102
RTVSPost2010PropOp43
 70
     1
102
RTVSPost2010Prop44ColorIndex
 90
        5
102
RTVSPost2010Prop44ColorRGB
 90
      255
102
RTVSPost2010PropOp44
 70
     1
102
RTVSPost2010Prop45
280
     0
102
RTVSPost2010PropOp45
 70
     1
102
RTVSPost2010Prop46
 90
       50
102
RTVSPost2010PropOp46
 70
     1
102
RTVSPost2010Prop47
 90
       50
102
RTVSPost2010PropOp47
 70
     1
102
RTVSPost2010Prop48
 90
       50
102
RTVSPost2010PropOp48
 70
     1
102
RTVSPost2010Prop49
280
     0
102
RTVSPost2010PropOp49
 70
     1
102
RTVSPost2010Prop50
 90
       50
102
RTVSPost2010PropOp50
 70
     1
102
RTVSPost2010Prop51ColorIndex
 90
      256
102
RTVSPost2010Prop51ColorRGB
 90
-16777216
102
RTVSPost2010PropOp51
 70
     0
102
RTVSPost2010Prop52
140
1.0
102
RTVSPost2010PropOp52
 70
     0
102
RTVSPost2010Prop53
 90
        2
102
RTVSPost2010PropOp53
 70
     1
102
RTVSPost2010Prop54
  1
strokes_ogs.tif
102
RTVSPost2010PropOp54
 70
     1
102
RTVSPost2010Prop55
280
     0
102
RTVSPost2010PropOp55
 70
     1
102
RTVSPost2010Prop56
140
1.0
102
RTVSPost2010PropOp56
 70
     1
102
RTVSPost2010Prop57
140
1.0
102
RTVSPost2010PropOp57
 70
     1
  0
XRECORD
  5
1BE
102
{ACAD_REACTORS
330
1BD
102
}
330
1BD
100
AcDbXrecord
280
     1
102
RTVSPropertyOp0
 70
     1
102
RTVSPropertyOp1
 70
     1
102
RTVSPropertyOp2
 70
     1
102
RTVSPropertyOp3
 70
     1
102
RTVSPropertyOp4
 70
     1
102
RTVSPropertyOp5
 70
     1
102
RTVSPropertyOp6
 70
     1
102
RTVSPropertyOp7
 70
     1
102
RTVSPropertyOp8
 70
     1
102
RTVSPropertyOp9
 70
     1
102
RTVSPropertyOp10
 70
     1
102
RTVSPropertyOp11
 70
     1
102
RTVSPropertyOp12
 70
     1
102
RTVSPropertyOp13
 70
     1
102
RTVSPropertyOp14
 70
     1
102
RTVSPropertyOp15
 70
     1
102
RTVSPropertyOp16
 70
     1
102
RTVSPropertyOp17
 70
     1
102
RTVSPropertyOp18
 70
     1
102
RTVSPropertyOp19
 70
     1
102
RTVSPropertyOp20
 70
     1
102
RTVSPropertyOp21
 70
     1
102
RTVSPropertyOp22
 70
     1
102
RTVSPropertyOp23
 70
     1
102
RTVSPropertyOp24
 70
     1
102
RTVSPropertyOp25
 70
     1
102
RTVSPropertyOp26
 70
     1
102
RTVSPropertyOp27
 70
     1
102
RTVSPropertyOp28
 70
     1
102
RTVSPropertyOp29
 70
     1
102
RTVSPropertyOp30
 70
     1
102
RTVSPropertyOp31
 70
     1
102
RTVSPropertyOp32
 70
     1
102
RTVSPropertyOp33
 70
     1
102
RTVSPropertyOp34
 70
     1
102
RTVSPropertyOp35
 70
     1
102
RTVSPropertyOp36
 70
     1
102
RTVSPropertyOp37
 70
     1
102
RTVSPropertyOp38
 70
     1
102
RTVSPropertyOp39
 70
     1
102
RTVSPropertyOp40
 70
     1
102
RTVSPropertyOp41
 70
     1
102
RTVSPropertyOp42
 70
     1
102
RTVSPropertyOp43
 70
     1
102
RTVSPropertyOp44
 70
     1
102
RTVSPropertyOp45
 70
     1
102
RTVSPropertyOp46
 70
     1
102
RTVSPropertyOp47
 70
     1
102
RTVSPropertyOp48
 70
     1
102
RTVSPropertyOp49
 70
     1
102
RTVSPropertyOp50
 70
     1
102
RTVSPropertyOp51
 70
     0
102
RTVSPropertyOp52
 70
     0
102
RTVSPropertyOp53
 70
     1
102
RTVSPropertyOp54
 70
     1
102
RTVSPropertyOp55
 70
     1
102
RTVSPropertyOp56
 70
     1
102
RTVSPropertyOp57
 70
     1
102
RTVSPost2010Prop28
280
     0
102
RTVSPost2010PropOp28
 70
     1
102
RTVSPost2010Prop29
280
     1
102
RTVSPost2010PropOp29
 70
     1
102
RTVSPost2010Prop30
280
     1
102
RTVSPost2010PropOp30
 70
     1
102
RTVSPost2010Prop31
280
     0
102
RTVSPost2010PropOp31
 70
     1
102
RTVSPost2010Prop32
280
     0
102
RTVSPost2010PropOp32
 70
     1
102
RTVSPost2010Prop33
280
     0
102
RTVSPost2010PropOp33
 70
     1
102
RTVSPost2010Prop34
280
     0
102
RTVSPost2010PropOp34
 70
     1
102
RTVSPost2010Prop35
280
     0
102
RTVSPost2010PropOp35
 70
     1
102
RTVSPost2010Prop36
280
     0
102
RTVSPost2010PropOp36
 70
     1
102
RTVSPost2010Prop37
 90
       50
102
RTVSPost2010PropOp37
 70
     1
102
RTVSPost2010Prop38
140
0.0
102
RTVSPost2010PropOp38
 70
     1
102
RTVSPost2010Prop39
140
1.0
102
RTVSPost2010PropOp39
 70
     1
102
RTVSPost2010Prop40
 90
        0
102
RTVSPost2010PropOp40
 70
     1
102
RTVSPost2010Prop41ColorIndex
 90
       18
102
RTVSPost2010Prop41ColorRGB
 90
        0
102
RTVSPost2010PropOp41
 70
     1
102
RTVSPost2010Prop42
 90
       50
102
RTVSPost2010PropOp42
 70
     1
102
RTVSPost2010Prop43
 90
        3
102
RTVSPost2010PropOp43
 70
     1
102
RTVSPost2010Prop44ColorIndex
 90
        5
102
RTVSPost2010Prop44ColorRGB
 90
      255
102
RTVSPost2010PropOp44
 70
     1
102
RTVSPost2010Prop45
280
     0
102
RTVSPost2010PropOp45
 70
     1
102
RTVSPost2010Prop46
 90
       50
102
RTVSPost2010PropOp46
 70
     1
102
RTVSPost2010Prop47
 90
       50
102
RTVSPost2010PropOp47
 70
     1
102
RTVSPost2010Prop48
 90
       50
102
RTVSPost2010PropOp48
 70
     1
102
RTVSPost2010Prop49
280
     0
102
RTVSPost2010PropOp49
 70
     1
102
RTVSPost2010Prop50
 90
       50
102
RTVSPost2010PropOp50
 70
     1
102
RTVSPost2010Prop51ColorIndex
 90
      256
102
RTVSPost2010Prop51ColorRGB
 90
-16777216
102
RTVSPost2010PropOp51
 70
     0
102
RTVSPost2010Prop52
140
1.0
102
RTVSPost2010PropOp52
 70
     0
102
RTVSPost2010Prop53
 90
        2
102
RTVSPost2010PropOp53
 70
     1
102
RTVSPost2010Prop54
  1
strokes_ogs.tif
102
RTVSPost2010PropOp54
 70
     1
102
RTVSPost2010Prop55
280
     0
102
RTVSPost2010PropOp55
 70
     1
102
RTVSPost2010Prop56
140
1.0
102
RTVSPost2010PropOp56
 70
     1
102
RTVSPost2010Prop57
140
1.0
102
RTVSPost2010PropOp57
 70
     1
  0
XRECORD
  5
1BC
102
{ACAD_REACTORS
330
1BB
102
}
330
1BB
100
AcDbXrecord
280
     1
102
RTVSPropertyOp0
 70
     1
102
RTVSPropertyOp1
 70
     1
102
RTVSPropertyOp2
 70
     1
102
RTVSPropertyOp3
 70
     1
102
RTVSPropertyOp4
 70
     1
102
RTVSPropertyOp5
 70
     1
102
RTVSPropertyOp6
 70
     1
102
RTVSPropertyOp7
 70
     1
102
RTVSPropertyOp8
 70
     1
102
RTVSPropertyOp9
 70
     1
102
RTVSPropertyOp10
 70
     1
102
RTVSPropertyOp11
 70
     1
102
RTVSPropertyOp12
 70
     1
102
RTVSPropertyOp13
 70
     1
102
RTVSPropertyOp14
 70
     1
102
RTVSPropertyOp15
 70
     1
102
RTVSPropertyOp16
 70
     1
102
RTVSPropertyOp17
 70
     1
102
RTVSPropertyOp18
 70
     1
102
RTVSPropertyOp19
 70
     1
102
RTVSPropertyOp20
 70
     1
102
RTVSPropertyOp21
 70
     1
102
RTVSPropertyOp22
 70
     1
102
RTVSPropertyOp23
 70
     1
102
RTVSPropertyOp24
 70
     1
102
RTVSPropertyOp25
 70
     1
102
RTVSPropertyOp26
 70
     1
102
RTVSPropertyOp27
 70
     1
102
RTVSPropertyOp28
 70
     1
102
RTVSPropertyOp29
 70
     1
102
RTVSPropertyOp30
 70
     1
102
RTVSPropertyOp31
 70
     1
102
RTVSPropertyOp32
 70
     1
102
RTVSPropertyOp33
 70
     1
102
RTVSPropertyOp34
 70
     1
102
RTVSPropertyOp35
 70
     1
102
RTVSPropertyOp36
 70
     1
102
RTVSPropertyOp37
 70
     1
102
RTVSPropertyOp38
 70
     1
102
RTVSPropertyOp39
 70
     1
102
RTVSPropertyOp40
 70
     1
102
RTVSPropertyOp41
 70
     1
102
RTVSPropertyOp42
 70
     1
102
RTVSPropertyOp43
 70
     1
102
RTVSPropertyOp44
 70
     1
102
RTVSPropertyOp45
 70
     1
102
RTVSPropertyOp46
 70
     1
102
RTVSPropertyOp47
 70
     1
102
RTVSPropertyOp48
 70
     1
102
RTVSPropertyOp49
 70
     1
102
RTVSPropertyOp50
 70
     1
102
RTVSPropertyOp51
 70
     0
102
RTVSPropertyOp52
 70
     0
102
RTVSPropertyOp53
 70
     1
102
RTVSPropertyOp54
 70
     1
102
RTVSPropertyOp55
 70
     1
102
RTVSPropertyOp56
 70
     1
102
RTVSPropertyOp57
 70
     1
102
RTVSPost2010Prop28
280
     0
102
RTVSPost2010PropOp28
 70
     1
102
RTVSPost2010Prop29
280
     1
102
RTVSPost2010PropOp29
 70
     1
102
RTVSPost2010Prop30
280
     1
102
RTVSPost2010PropOp30
 70
     1
102
RTVSPost2010Prop31
280
     0
102
RTVSPost2010PropOp31
 70
     1
102
RTVSPost2010Prop32
280
     0
102
RTVSPost2010PropOp32
 70
     1
102
RTVSPost2010Prop33
280
     0
102
RTVSPost2010PropOp33
 70
     1
102
RTVSPost2010Prop34
280
     0
102
RTVSPost2010PropOp34
 70
     1
102
RTVSPost2010Prop35
280
     0
102
RTVSPost2010PropOp35
 70
     1
102
RTVSPost2010Prop36
280
     0
102
RTVSPost2010PropOp36
 70
     1
102
RTVSPost2010Prop37
 90
       50
102
RTVSPost2010PropOp37
 70
     1
102
RTVSPost2010Prop38
140
0.0
102
RTVSPost2010PropOp38
 70
     1
102
RTVSPost2010Prop39
140
1.0
102
RTVSPost2010PropOp39
 70
     1
102
RTVSPost2010Prop40
 90
        0
102
RTVSPost2010PropOp40
 70
     1
102
RTVSPost2010Prop41ColorIndex
 90
       18
102
RTVSPost2010Prop41ColorRGB
 90
        0
102
RTVSPost2010PropOp41
 70
     1
102
RTVSPost2010Prop42
 90
       50
102
RTVSPost2010PropOp42
 70
     1
102
RTVSPost2010Prop43
 90
        3
102
RTVSPost2010PropOp43
 70
     1
102
RTVSPost2010Prop44ColorIndex
 90
        5
102
RTVSPost2010Prop44ColorRGB
 90
      255
102
RTVSPost2010PropOp44
 70
     1
102
RTVSPost2010Prop45
280
     0
102
RTVSPost2010PropOp45
 70
     1
102
RTVSPost2010Prop46
 90
       50
102
RTVSPost2010PropOp46
 70
     1
102
RTVSPost2010Prop47
 90
       50
102
RTVSPost2010PropOp47
 70
     1
102
RTVSPost2010Prop48
 90
       50
102
RTVSPost2010PropOp48
 70
     1
102
RTVSPost2010Prop49
280
     0
102
RTVSPost2010PropOp49
 70
     1
102
RTVSPost2010Prop50
 90
       50
102
RTVSPost2010PropOp50
 70
     1
102
RTVSPost2010Prop51ColorIndex
 90
      256
102
RTVSPost2010Prop51ColorRGB
 90
-16777216
102
RTVSPost2010PropOp51
 70
     0
102
RTVSPost2010Prop52
140
1.0
102
RTVSPost2010PropOp52
 70
     0
102
RTVSPost2010Prop53
 90
        2
102
RTVSPost2010PropOp53
 70
     1
102
RTVSPost2010Prop54
  1
strokes_ogs.tif
102
RTVSPost2010PropOp54
 70
     1
102
RTVSPost2010Prop55
280
     0
102
RTVSPost2010PropOp55
 70
     1
102
RTVSPost2010Prop56
140
1.0
102
RTVSPost2010PropOp56
 70
     1
102
RTVSPost2010Prop57
140
1.0
102
RTVSPost2010PropOp57
 70
     1
  0
XRECORD
  5
1B6
102
{ACAD_REACTORS
330
1B5
102
}
330
1B5
100
AcDbXrecord
280
     1
102
RTVSPropertyOp0
 70
     1
102
RTVSPropertyOp1
 70
     1
102
RTVSPropertyOp2
 70
     1
102
RTVSPropertyOp3
 70
     1
102
RTVSPropertyOp4
 70
     1
102
RTVSPropertyOp5
 70
     1
102
RTVSPropertyOp6
 70
     1
102
RTVSPropertyOp7
 70
     1
102
RTVSPropertyOp8
 70
     1
102
RTVSPropertyOp9
 70
     1
102
RTVSPropertyOp10
 70
     1
102
RTVSPropertyOp11
 70
     1
102
RTVSPropertyOp12
 70
     1
102
RTVSPropertyOp13
 70
     1
102
RTVSPropertyOp14
 70
     1
102
RTVSPropertyOp15
 70
     1
102
RTVSPropertyOp16
 70
     1
102
RTVSPropertyOp17
 70
     1
102
RTVSPropertyOp18
 70
     1
102
RTVSPropertyOp19
 70
     1
102
RTVSPropertyOp20
 70
     1
102
RTVSPropertyOp21
 70
     1
102
RTVSPropertyOp22
 70
     1
102
RTVSPropertyOp23
 70
     1
102
RTVSPropertyOp24
 70
     1
102
RTVSPropertyOp25
 70
     1
102
RTVSPropertyOp26
 70
     1
102
RTVSPropertyOp27
 70
     1
102
RTVSPropertyOp28
 70
     1
102
RTVSPropertyOp29
 70
     1
102
RTVSPropertyOp30
 70
     1
102
RTVSPropertyOp31
 70
     1
102
RTVSPropertyOp32
 70
     1
102
RTVSPropertyOp33
 70
     1
102
RTVSPropertyOp34
 70
     1
102
RTVSPropertyOp35
 70
     1
102
RTVSPropertyOp36
 70
     1
102
RTVSPropertyOp37
 70
     1
102
RTVSPropertyOp38
 70
     1
102
RTVSPropertyOp39
 70
     1
102
RTVSPropertyOp40
 70
     1
102
RTVSPropertyOp41
 70
     1
102
RTVSPropertyOp42
 70
     1
102
RTVSPropertyOp43
 70
     1
102
RTVSPropertyOp44
 70
     1
102
RTVSPropertyOp45
 70
     1
102
RTVSPropertyOp46
 70
     1
102
RTVSPropertyOp47
 70
     1
102
RTVSPropertyOp48
 70
     1
102
RTVSPropertyOp49
 70
     1
102
RTVSPropertyOp50
 70
     1
102
RTVSPropertyOp51
 70
     0
102
RTVSPropertyOp52
 70
     0
102
RTVSPropertyOp53
 70
     1
102
RTVSPropertyOp54
 70
     1
102
RTVSPropertyOp55
 70
     1
102
RTVSPropertyOp56
 70
     1
102
RTVSPropertyOp57
 70
     1
102
RTVSPost2010Prop28
280
     0
102
RTVSPost2010PropOp28
 70
     1
102
RTVSPost2010Prop29
280
     1
102
RTVSPost2010PropOp29
 70
     1
102
RTVSPost2010Prop30
280
     1
102
RTVSPost2010PropOp30
 70
     1
102
RTVSPost2010Prop31
280
     0
102
RTVSPost2010PropOp31
 70
     1
102
RTVSPost2010Prop32
280
     0
102
RTVSPost2010PropOp32
 70
     1
102
RTVSPost2010Prop33
280
     0
102
RTVSPost2010PropOp33
 70
     1
102
RTVSPost2010Prop34
280
     0
102
RTVSPost2010PropOp34
 70
     1
102
RTVSPost2010Prop35
280
     0
102
RTVSPost2010PropOp35
 70
     1
102
RTVSPost2010Prop36
280
     0
102
RTVSPost2010PropOp36
 70
     1
102
RTVSPost2010Prop37
 90
       50
102
RTVSPost2010PropOp37
 70
     1
102
RTVSPost2010Prop38
140
0.0
102
RTVSPost2010PropOp38
 70
     1
102
RTVSPost2010Prop39
140
1.0
102
RTVSPost2010PropOp39
 70
     1
102
RTVSPost2010Prop40
 90
        0
102
RTVSPost2010PropOp40
 70
     1
102
RTVSPost2010Prop41ColorIndex
 90
       18
102
RTVSPost2010Prop41ColorRGB
 90
        0
102
RTVSPost2010PropOp41
 70
     1
102
RTVSPost2010Prop42
 90
       50
102
RTVSPost2010PropOp42
 70
     1
102
RTVSPost2010Prop43
 90
        3
102
RTVSPost2010PropOp43
 70
     1
102
RTVSPost2010Prop44ColorIndex
 90
        5
102
RTVSPost2010Prop44ColorRGB
 90
      255
102
RTVSPost2010PropOp44
 70
     1
102
RTVSPost2010Prop45
280
     0
102
RTVSPost2010PropOp45
 70
     1
102
RTVSPost2010Prop46
 90
       50
102
RTVSPost2010PropOp46
 70
     1
102
RTVSPost2010Prop47
 90
       50
102
RTVSPost2010PropOp47
 70
     1
102
RTVSPost2010Prop48
 90
       50
102
RTVSPost2010PropOp48
 70
     1
102
RTVSPost2010Prop49
280
     0
102
RTVSPost2010PropOp49
 70
     1
102
RTVSPost2010Prop50
 90
       50
102
RTVSPost2010PropOp50
 70
     1
102
RTVSPost2010Prop51ColorIndex
 90
      256
102
RTVSPost2010Prop51ColorRGB
 90
-16777216
102
RTVSPost2010PropOp51
 70
     0
102
RTVSPost2010Prop52
140
1.0
102
RTVSPost2010PropOp52
 70
     0
102
RTVSPost2010Prop53
 90
        2
102
RTVSPost2010PropOp53
 70
     1
102
RTVSPost2010Prop54
  1
strokes_ogs.tif
102
RTVSPost2010PropOp54
 70
     1
102
RTVSPost2010Prop55
280
     0
102
RTVSPost2010PropOp55
 70
     1
102
RTVSPost2010Prop56
140
1.0
102
RTVSPost2010PropOp56
 70
     1
102
RTVSPost2010Prop57
140
1.0
102
RTVSPost2010PropOp57
 70
     1
  0
XRECORD
  5
1B8
102
{ACAD_REACTORS
330
1B7
102
}
330
1B7
100
AcDbXrecord
280
     1
102
RTVSPropertyOp0
 70
     1
102
RTVSPropertyOp1
 70
     1
102
RTVSPropertyOp2
 70
     1
102
RTVSPropertyOp3
 70
     1
102
RTVSPropertyOp4
 70
     1
102
RTVSPropertyOp5
 70
     1
102
RTVSPropertyOp6
 70
     1
102
RTVSPropertyOp7
 70
     1
102
RTVSPropertyOp8
 70
     1
102
RTVSPropertyOp9
 70
     1
102
RTVSPropertyOp10
 70
     1
102
RTVSPropertyOp11
 70
     1
102
RTVSPropertyOp12
 70
     1
102
RTVSPropertyOp13
 70
     1
102
RTVSPropertyOp14
 70
     1
102
RTVSPropertyOp15
 70
     1
102
RTVSPropertyOp16
 70
     1
102
RTVSPropertyOp17
 70
     1
102
RTVSPropertyOp18
 70
     1
102
RTVSPropertyOp19
 70
     1
102
RTVSPropertyOp20
 70
     1
102
RTVSPropertyOp21
 70
     1
102
RTVSPropertyOp22
 70
     1
102
RTVSPropertyOp23
 70
     1
102
RTVSPropertyOp24
 70
     1
102
RTVSPropertyOp25
 70
     1
102
RTVSPropertyOp26
 70
     1
102
RTVSPropertyOp27
 70
     1
102
RTVSPropertyOp28
 70
     1
102
RTVSPropertyOp29
 70
     1
102
RTVSPropertyOp30
 70
     1
102
RTVSPropertyOp31
 70
     1
102
RTVSPropertyOp32
 70
     1
102
RTVSPropertyOp33
 70
     1
102
RTVSPropertyOp34
 70
     1
102
RTVSPropertyOp35
 70
     1
102
RTVSPropertyOp36
 70
     1
102
RTVSPropertyOp37
 70
     1
102
RTVSPropertyOp38
 70
     1
102
RTVSPropertyOp39
 70
     1
102
RTVSPropertyOp40
 70
     1
102
RTVSPropertyOp41
 70
     1
102
RTVSPropertyOp42
 70
     1
102
RTVSPropertyOp43
 70
     1
102
RTVSPropertyOp44
 70
     1
102
RTVSPropertyOp45
 70
     1
102
RTVSPropertyOp46
 70
     1
102
RTVSPropertyOp47
 70
     1
102
RTVSPropertyOp48
 70
     1
102
RTVSPropertyOp49
 70
     1
102
RTVSPropertyOp50
 70
     1
102
RTVSPropertyOp51
 70
     0
102
RTVSPropertyOp52
 70
     0
102
RTVSPropertyOp53
 70
     1
102
RTVSPropertyOp54
 70
     1
102
RTVSPropertyOp55
 70
     1
102
RTVSPropertyOp56
 70
     1
102
RTVSPropertyOp57
 70
     1
102
RTVSPost2010Prop28
280
     0
102
RTVSPost2010PropOp28
 70
     1
102
RTVSPost2010Prop29
280
     1
102
RTVSPost2010PropOp29
 70
     1
102
RTVSPost2010Prop30
280
     1
102
RTVSPost2010PropOp30
 70
     1
102
RTVSPost2010Prop31
280
     0
102
RTVSPost2010PropOp31
 70
     1
102
RTVSPost2010Prop32
280
     0
102
RTVSPost2010PropOp32
 70
     1
102
RTVSPost2010Prop33
280
     0
102
RTVSPost2010PropOp33
 70
     1
102
RTVSPost2010Prop34
280
     0
102
RTVSPost2010PropOp34
 70
     1
102
RTVSPost2010Prop35
280
     0
102
RTVSPost2010PropOp35
 70
     1
102
RTVSPost2010Prop36
280
     0
102
RTVSPost2010PropOp36
 70
     1
102
RTVSPost2010Prop37
 90
       50
102
RTVSPost2010PropOp37
 70
     1
102
RTVSPost2010Prop38
140
0.0
102
RTVSPost2010PropOp38
 70
     1
102
RTVSPost2010Prop39
140
1.0
102
RTVSPost2010PropOp39
 70
     1
102
RTVSPost2010Prop40
 90
        0
102
RTVSPost2010PropOp40
 70
     1
102
RTVSPost2010Prop41ColorIndex
 90
       18
102
RTVSPost2010Prop41ColorRGB
 90
        0
102
RTVSPost2010PropOp41
 70
     1
102
RTVSPost2010Prop42
 90
       50
102
RTVSPost2010PropOp42
 70
     1
102
RTVSPost2010Prop43
 90
        3
102
RTVSPost2010PropOp43
 70
     1
102
RTVSPost2010Prop44ColorIndex
 90
        5
102
RTVSPost2010Prop44ColorRGB
 90
      255
102
RTVSPost2010PropOp44
 70
     1
102
RTVSPost2010Prop45
280
     0
102
RTVSPost2010PropOp45
 70
     1
102
RTVSPost2010Prop46
 90
       50
102
RTVSPost2010PropOp46
 70
     1
102
RTVSPost2010Prop47
 90
       50
102
RTVSPost2010PropOp47
 70
     1
102
RTVSPost2010Prop48
 90
       50
102
RTVSPost2010PropOp48
 70
     1
102
RTVSPost2010Prop49
280
     0
102
RTVSPost2010PropOp49
 70
     1
102
RTVSPost2010Prop50
 90
       50
102
RTVSPost2010PropOp50
 70
     1
102
RTVSPost2010Prop51ColorIndex
 90
      256
102
RTVSPost2010Prop51ColorRGB
 90
-16777216
102
RTVSPost2010PropOp51
 70
     0
102
RTVSPost2010Prop52
140
1.0
102
RTVSPost2010PropOp52
 70
     0
102
RTVSPost2010Prop53
 90
        2
102
RTVSPost2010PropOp53
 70
     1
102
RTVSPost2010Prop54
  1
strokes_ogs.tif
102
RTVSPost2010PropOp54
 70
     1
102
RTVSPost2010Prop55
280
     0
102
RTVSPost2010PropOp55
 70
     1
102
RTVSPost2010Prop56
140
1.0
102
RTVSPost2010PropOp56
 70
     1
102
RTVSPost2010Prop57
140
1.0
102
RTVSPost2010PropOp57
 70
     1
  0
XRECORD
  5
1A8
102
{ACAD_REACTORS
330
1A7
102
}
330
1A7
100
AcDbXrecord
280
     1
102
RTVSPropertyOp0
 70
     1
102
RTVSPropertyOp1
 70
     1
102
RTVSPropertyOp2
 70
     1
102
RTVSPropertyOp3
 70
     1
102
RTVSPropertyOp4
 70
     1
102
RTVSPropertyOp5
 70
     1
102
RTVSPropertyOp6
 70
     1
102
RTVSPropertyOp7
 70
     1
102
RTVSPropertyOp8
 70
     1
102
RTVSPropertyOp9
 70
     1
102
RTVSPropertyOp10
 70
     1
102
RTVSPropertyOp11
 70
     1
102
RTVSPropertyOp12
 70
     1
102
RTVSPropertyOp13
 70
     1
102
RTVSPropertyOp14
 70
     1
102
RTVSPropertyOp15
 70
     1
102
RTVSPropertyOp16
 70
     1
102
RTVSPropertyOp17
 70
     1
102
RTVSPropertyOp18
 70
     1
102
RTVSPropertyOp19
 70
     1
102
RTVSPropertyOp20
 70
     1
102
RTVSPropertyOp21
 70
     1
102
RTVSPropertyOp22
 70
     1
102
RTVSPropertyOp23
 70
     1
102
RTVSPropertyOp24
 70
     1
102
RTVSPropertyOp25
 70
     1
102
RTVSPropertyOp26
 70
     1
102
RTVSPropertyOp27
 70
     1
102
RTVSPropertyOp28
 70
     1
102
RTVSPropertyOp29
 70
     1
102
RTVSPropertyOp30
 70
     1
102
RTVSPropertyOp31
 70
     1
102
RTVSPropertyOp32
 70
     1
102
RTVSPropertyOp33
 70
     1
102
RTVSPropertyOp34
 70
     1
102
RTVSPropertyOp35
 70
     1
102
RTVSPropertyOp36
 70
     1
102
RTVSPropertyOp37
 70
     1
102
RTVSPropertyOp38
 70
     1
102
RTVSPropertyOp39
 70
     1
102
RTVSPropertyOp40
 70
     1
102
RTVSPropertyOp41
 70
     1
102
RTVSPropertyOp42
 70
     1
102
RTVSPropertyOp43
 70
     1
102
RTVSPropertyOp44
 70
     1
102
RTVSPropertyOp45
 70
     1
102
RTVSPropertyOp46
 70
     1
102
RTVSPropertyOp47
 70
     1
102
RTVSPropertyOp48
 70
     1
102
RTVSPropertyOp49
 70
     1
102
RTVSPropertyOp50
 70
     1
102
RTVSPropertyOp51
 70
     0
102
RTVSPropertyOp52
 70
     0
102
RTVSPropertyOp53
 70
     1
102
RTVSPropertyOp54
 70
     1
102
RTVSPropertyOp55
 70
     1
102
RTVSPropertyOp56
 70
     1
102
RTVSPropertyOp57
 70
     1
102
RTVSPost2010Prop28
280
     0
102
RTVSPost2010PropOp28
 70
     1
102
RTVSPost2010Prop29
280
     1
102
RTVSPost2010PropOp29
 70
     1
102
RTVSPost2010Prop30
280
     1
102
RTVSPost2010PropOp30
 70
     1
102
RTVSPost2010Prop31
280
     0
102
RTVSPost2010PropOp31
 70
     1
102
RTVSPost2010Prop32
280
     0
102
RTVSPost2010PropOp32
 70
     1
102
RTVSPost2010Prop33
280
     0
102
RTVSPost2010PropOp33
 70
     1
102
RTVSPost2010Prop34
280
     0
102
RTVSPost2010PropOp34
 70
     1
102
RTVSPost2010Prop35
280
     0
102
RTVSPost2010PropOp35
 70
     1
102
RTVSPost2010Prop36
280
     0
102
RTVSPost2010PropOp36
 70
     1
102
RTVSPost2010Prop37
 90
       50
102
RTVSPost2010PropOp37
 70
     1
102
RTVSPost2010Prop38
140
0.0
102
RTVSPost2010PropOp38
 70
     1
102
RTVSPost2010Prop39
140
1.0
102
RTVSPost2010PropOp39
 70
     1
102
RTVSPost2010Prop40
 90
        0
102
RTVSPost2010PropOp40
 70
     1
102
RTVSPost2010Prop41ColorIndex
 90
       18
102
RTVSPost2010Prop41ColorRGB
 90
        0
102
RTVSPost2010PropOp41
 70
     1
102
RTVSPost2010Prop42
 90
       50
102
RTVSPost2010PropOp42
 70
     1
102
RTVSPost2010Prop43
 90
        3
102
RTVSPost2010PropOp43
 70
     1
102
RTVSPost2010Prop44ColorIndex
 90
        5
102
RTVSPost2010Prop44ColorRGB
 90
      255
102
RTVSPost2010PropOp44
 70
     1
102
RTVSPost2010Prop45
280
     0
102
RTVSPost2010PropOp45
 70
     1
102
RTVSPost2010Prop46
 90
       50
102
RTVSPost2010PropOp46
 70
     1
102
RTVSPost2010Prop47
 90
       50
102
RTVSPost2010PropOp47
 70
     1
102
RTVSPost2010Prop48
 90
       50
102
RTVSPost2010PropOp48
 70
     1
102
RTVSPost2010Prop49
280
     0
102
RTVSPost2010PropOp49
 70
     1
102
RTVSPost2010Prop50
 90
       50
102
RTVSPost2010PropOp50
 70
     1
102
RTVSPost2010Prop51ColorIndex
 90
      256
102
RTVSPost2010Prop51ColorRGB
 90
-16777216
102
RTVSPost2010PropOp51
 70
     0
102
RTVSPost2010Prop52
140
1.0
102
RTVSPost2010PropOp52
 70
     0
102
RTVSPost2010Prop53
 90
        2
102
RTVSPost2010PropOp53
 70
     1
102
RTVSPost2010Prop54
  1
strokes_ogs.tif
102
RTVSPost2010PropOp54
 70
     1
102
RTVSPost2010Prop55
280
     0
102
RTVSPost2010PropOp55
 70
     1
102
RTVSPost2010Prop56
140
1.0
102
RTVSPost2010PropOp56
 70
     1
102
RTVSPost2010Prop57
140
1.0
102
RTVSPost2010PropOp57
 70
     1
  0
XRECORD
  5
19A
102
{ACAD_REACTORS
330
199
102
}
330
199
100
AcDbXrecord
280
     1
102
RTVSPropertyOp0
 70
     1
102
RTVSPropertyOp1
 70
     1
102
RTVSPropertyOp2
 70
     1
102
RTVSPropertyOp3
 70
     1
102
RTVSPropertyOp4
 70
     1
102
RTVSPropertyOp5
 70
     1
102
RTVSPropertyOp6
 70
     1
102
RTVSPropertyOp7
 70
     1
102
RTVSPropertyOp8
 70
     1
102
RTVSPropertyOp9
 70
     1
102
RTVSPropertyOp10
 70
     1
102
RTVSPropertyOp11
 70
     1
102
RTVSPropertyOp12
 70
     1
102
RTVSPropertyOp13
 70
     1
102
RTVSPropertyOp14
 70
     1
102
RTVSPropertyOp15
 70
     1
102
RTVSPropertyOp16
 70
     1
102
RTVSPropertyOp17
 70
     1
102
RTVSPropertyOp18
 70
     1
102
RTVSPropertyOp19
 70
     1
102
RTVSPropertyOp20
 70
     1
102
RTVSPropertyOp21
 70
     1
102
RTVSPropertyOp22
 70
     1
102
RTVSPropertyOp23
 70
     1
102
RTVSPropertyOp24
 70
     1
102
RTVSPropertyOp25
 70
     1
102
RTVSPropertyOp26
 70
     1
102
RTVSPropertyOp27
 70
     1
102
RTVSPropertyOp28
 70
     1
102
RTVSPropertyOp29
 70
     1
102
RTVSPropertyOp30
 70
     1
102
RTVSPropertyOp31
 70
     1
102
RTVSPropertyOp32
 70
     1
102
RTVSPropertyOp33
 70
     1
102
RTVSPropertyOp34
 70
     1
102
RTVSPropertyOp35
 70
     1
102
RTVSPropertyOp36
 70
     1
102
RTVSPropertyOp37
 70
     1
102
RTVSPropertyOp38
 70
     1
102
RTVSPropertyOp39
 70
     1
102
RTVSPropertyOp40
 70
     1
102
RTVSPropertyOp41
 70
     1
102
RTVSPropertyOp42
 70
     1
102
RTVSPropertyOp43
 70
     1
102
RTVSPropertyOp44
 70
     1
102
RTVSPropertyOp45
 70
     1
102
RTVSPropertyOp46
 70
     1
102
RTVSPropertyOp47
 70
     1
102
RTVSPropertyOp48
 70
     1
102
RTVSPropertyOp49
 70
     1
102
RTVSPropertyOp50
 70
     1
102
RTVSPropertyOp51
 70
     0
102
RTVSPropertyOp52
 70
     0
102
RTVSPropertyOp53
 70
     1
102
RTVSPropertyOp54
 70
     1
102
RTVSPropertyOp55
 70
     1
102
RTVSPropertyOp56
 70
     1
102
RTVSPropertyOp57
 70
     1
102
RTVSPost2010Prop28
280
     0
102
RTVSPost2010PropOp28
 70
     1
102
RTVSPost2010Prop29
280
     1
102
RTVSPost2010PropOp29
 70
     1
102
RTVSPost2010Prop30
280
     1
102
RTVSPost2010PropOp30
 70
     1
102
RTVSPost2010Prop31
280
     0
102
RTVSPost2010PropOp31
 70
     1
102
RTVSPost2010Prop32
280
     0
102
RTVSPost2010PropOp32
 70
     1
102
RTVSPost2010Prop33
280
     0
102
RTVSPost2010PropOp33
 70
     1
102
RTVSPost2010Prop34
280
     0
102
RTVSPost2010PropOp34
 70
     1
102
RTVSPost2010Prop35
280
     0
102
RTVSPost2010PropOp35
 70
     1
102
RTVSPost2010Prop36
280
     0
102
RTVSPost2010PropOp36
 70
     1
102
RTVSPost2010Prop37
 90
       50
102
RTVSPost2010PropOp37
 70
     1
102
RTVSPost2010Prop38
140
0.0
102
RTVSPost2010PropOp38
 70
     1
102
RTVSPost2010Prop39
140
1.0
102
RTVSPost2010PropOp39
 70
     1
102
RTVSPost2010Prop40
 90
        0
102
RTVSPost2010PropOp40
 70
     1
102
RTVSPost2010Prop41ColorIndex
 90
       18
102
RTVSPost2010Prop41ColorRGB
 90
        0
102
RTVSPost2010PropOp41
 70
     1
102
RTVSPost2010Prop42
 90
       50
102
RTVSPost2010PropOp42
 70
     1
102
RTVSPost2010Prop43
 90
        3
102
RTVSPost2010PropOp43
 70
     1
102
RTVSPost2010Prop44ColorIndex
 90
        5
102
RTVSPost2010Prop44ColorRGB
 90
      255
102
RTVSPost2010PropOp44
 70
     1
102
RTVSPost2010Prop45
280
     0
102
RTVSPost2010PropOp45
 70
     1
102
RTVSPost2010Prop46
 90
       50
102
RTVSPost2010PropOp46
 70
     1
102
RTVSPost2010Prop47
 90
       50
102
RTVSPost2010PropOp47
 70
     1
102
RTVSPost2010Prop48
 90
       50
102
RTVSPost2010PropOp48
 70
     1
102
RTVSPost2010Prop49
280
     0
102
RTVSPost2010PropOp49
 70
     1
102
RTVSPost2010Prop50
 90
       50
102
RTVSPost2010PropOp50
 70
     1
102
RTVSPost2010Prop51ColorIndex
 90
      256
102
RTVSPost2010Prop51ColorRGB
 90
-16777216
102
RTVSPost2010PropOp51
 70
     0
102
RTVSPost2010Prop52
140
1.0
102
RTVSPost2010PropOp52
 70
     0
102
RTVSPost2010Prop53
 90
        2
102
RTVSPost2010PropOp53
 70
     1
102
RTVSPost2010Prop54
  1
strokes_ogs.tif
102
RTVSPost2010PropOp54
 70
     1
102
RTVSPost2010Prop55
280
     0
102
RTVSPost2010PropOp55
 70
     1
102
RTVSPost2010Prop56
140
1.0
102
RTVSPost2010PropOp56
 70
     1
102
RTVSPost2010Prop57
140
1.0
102
RTVSPost2010PropOp57
 70
     1
  0
XRECORD
  5
1BA
102
{ACAD_REACTORS
330
1B9
102
}
330
1B9
100
AcDbXrecord
280
     1
102
RTVSPropertyOp0
 70
     1
102
RTVSPropertyOp1
 70
     1
102
RTVSPropertyOp2
 70
     1
102
RTVSPropertyOp3
 70
     1
102
RTVSPropertyOp4
 70
     1
102
RTVSPropertyOp5
 70
     1
102
RTVSPropertyOp6
 70
     1
102
RTVSPropertyOp7
 70
     1
102
RTVSPropertyOp8
 70
     1
102
RTVSPropertyOp9
 70
     1
102
RTVSPropertyOp10
 70
     1
102
RTVSPropertyOp11
 70
     1
102
RTVSPropertyOp12
 70
     1
102
RTVSPropertyOp13
 70
     1
102
RTVSPropertyOp14
 70
     1
102
RTVSPropertyOp15
 70
     1
102
RTVSPropertyOp16
 70
     1
102
RTVSPropertyOp17
 70
     1
102
RTVSPropertyOp18
 70
     1
102
RTVSPropertyOp19
 70
     1
102
RTVSPropertyOp20
 70
     1
102
RTVSPropertyOp21
 70
     1
102
RTVSPropertyOp22
 70
     1
102
RTVSPropertyOp23
 70
     1
102
RTVSPropertyOp24
 70
     1
102
RTVSPropertyOp25
 70
     1
102
RTVSPropertyOp26
 70
     1
102
RTVSPropertyOp27
 70
     1
102
RTVSPropertyOp28
 70
     1
102
RTVSPropertyOp29
 70
     1
102
RTVSPropertyOp30
 70
     1
102
RTVSPropertyOp31
 70
     1
102
RTVSPropertyOp32
 70
     1
102
RTVSPropertyOp33
 70
     1
102
RTVSPropertyOp34
 70
     1
102
RTVSPropertyOp35
 70
     1
102
RTVSPropertyOp36
 70
     1
102
RTVSPropertyOp37
 70
     1
102
RTVSPropertyOp38
 70
     1
102
RTVSPropertyOp39
 70
     1
102
RTVSPropertyOp40
 70
     1
102
RTVSPropertyOp41
 70
     1
102
RTVSPropertyOp42
 70
     1
102
RTVSPropertyOp43
 70
     1
102
RTVSPropertyOp44
 70
     1
102
RTVSPropertyOp45
 70
     1
102
RTVSPropertyOp46
 70
     1
102
RTVSPropertyOp47
 70
     1
102
RTVSPropertyOp48
 70
     1
102
RTVSPropertyOp49
 70
     1
102
RTVSPropertyOp50
 70
     1
102
RTVSPropertyOp51
 70
     0
102
RTVSPropertyOp52
 70
     0
102
RTVSPropertyOp53
 70
     1
102
RTVSPropertyOp54
 70
     1
102
RTVSPropertyOp55
 70
     1
102
RTVSPropertyOp56
 70
     1
102
RTVSPropertyOp57
 70
     1
102
RTVSPost2010Prop28
280
     0
102
RTVSPost2010PropOp28
 70
     1
102
RTVSPost2010Prop29
280
     1
102
RTVSPost2010PropOp29
 70
     1
102
RTVSPost2010Prop30
280
     1
102
RTVSPost2010PropOp30
 70
     1
102
RTVSPost2010Prop31
280
     0
102
RTVSPost2010PropOp31
 70
     1
102
RTVSPost2010Prop32
280
     0
102
RTVSPost2010PropOp32
 70
     1
102
RTVSPost2010Prop33
280
     0
102
RTVSPost2010PropOp33
 70
     1
102
RTVSPost2010Prop34
280
     0
102
RTVSPost2010PropOp34
 70
     1
102
RTVSPost2010Prop35
280
     0
102
RTVSPost2010PropOp35
 70
     1
102
RTVSPost2010Prop36
280
     0
102
RTVSPost2010PropOp36
 70
     1
102
RTVSPost2010Prop37
 90
       50
102
RTVSPost2010PropOp37
 70
     1
102
RTVSPost2010Prop38
140
0.0
102
RTVSPost2010PropOp38
 70
     1
102
RTVSPost2010Prop39
140
1.0
102
RTVSPost2010PropOp39
 70
     1
102
RTVSPost2010Prop40
 90
        0
102
RTVSPost2010PropOp40
 70
     1
102
RTVSPost2010Prop41ColorIndex
 90
       18
102
RTVSPost2010Prop41ColorRGB
 90
        0
102
RTVSPost2010PropOp41
 70
     1
102
RTVSPost2010Prop42
 90
       50
102
RTVSPost2010PropOp42
 70
     1
102
RTVSPost2010Prop43
 90
        3
102
RTVSPost2010PropOp43
 70
     1
102
RTVSPost2010Prop44ColorIndex
 90
        5
102
RTVSPost2010Prop44ColorRGB
 90
      255
102
RTVSPost2010PropOp44
 70
     1
102
RTVSPost2010Prop45
280
     0
102
RTVSPost2010PropOp45
 70
     1
102
RTVSPost2010Prop46
 90
       50
102
RTVSPost2010PropOp46
 70
     1
102
RTVSPost2010Prop47
 90
       50
102
RTVSPost2010PropOp47
 70
     1
102
RTVSPost2010Prop48
 90
       50
102
RTVSPost2010PropOp48
 70
     1
102
RTVSPost2010Prop49
280
     0
102
RTVSPost2010PropOp49
 70
     1
102
RTVSPost2010Prop50
 90
       50
102
RTVSPost2010PropOp50
 70
     1
102
RTVSPost2010Prop51ColorIndex
 90
      256
102
RTVSPost2010Prop51ColorRGB
 90
-16777216
102
RTVSPost2010PropOp51
 70
     0
102
RTVSPost2010Prop52
140
1.0
102
RTVSPost2010PropOp52
 70
     0
102
RTVSPost2010Prop53
 90
        2
102
RTVSPost2010PropOp53
 70
     1
102
RTVSPost2010Prop54
  1
strokes_ogs.tif
102
RTVSPost2010PropOp54
 70
     1
102
RTVSPost2010Prop55
280
     0
102
RTVSPost2010PropOp55
 70
     1
102
RTVSPost2010Prop56
140
1.0
102
RTVSPost2010PropOp56
 70
     1
102
RTVSPost2010Prop57
140
1.0
102
RTVSPost2010PropOp57
 70
     1
  0
ENDSEC
  0
EOF
