  0
SECTION
  2
HEADER
  9
$ACADVER
  1
AC1024
  9
$ACADMAINTVER
 70
     6
  9
$DWGCODEPAGE
  3
ANSI_1252
  9
$INSBASE
 10
0.0
 20
0.0
 30
0.0
  9
$EXTMIN
 10
1.000000E+20
 20
1.000000E+20
 30
1.000000E+20
  9
$EXTMAX
 10
-1.000000E+20
 20
-1.000000E+20
 30
-1.000000E+20
  9
$LIMMIN
 10
0.0
 20
0.0
  9
$LIMMAX
 10
420.0
 20
297.0
  9
$ORTHOMODE
 70
     0
  9
$REGENMODE
 70
     1
  9
$FILLMODE
 70
     1
  9
$QTEXTMODE
 70
     0
  9
$MIRRTEXT
 70
     1
  9
$LTSCALE
 40
1.0
  9
$ATTMODE
 70
     1
  9
$TEXTSIZE
 40
2.5
  9
$TRACEWID
 40
1.0
  9
$TEXTSTYLE
  7
Standard
  9
$CLAYER
  8
0
  9
$CELTYPE
  6
ByLayer
  9
$CECOLOR
 62
   256
  9
$CELTSCALE
 40
1.0
  9
$DISPSILH
 70
     0
  9
$DIMSCALE
 40
1.0
  9
$DIMASZ
 40
2.5
  9
$DIMEXO
 40
0.625
  9
$DIMDLI
 40
3.75
  9
$DIMRND
 40
0.0
  9
$DIMDLE
 40
0.0
  9
$DIMEXE
 40
1.25
  9
$DIMTP
 40
0.0
  9
$DIMTM
 40
0.0
  9
$DIMTXT
 40
2.5
  9
$DIMCEN
 40
2.5
  9
$DIMTSZ
 40
0.0
  9
$DIMTOL
 70
     0
  9
$DIMLIM
 70
     0
  9
$DIMTIH
 70
     0
  9
$DIMTOH
 70
     0
  9
$DIMSE1
 70
     0
  9
$DIMSE2
 70
     0
  9
$DIMTAD
 70
     1
  9
$DIMZIN
 70
     8
  9
$DIMBLK
  1

  9
$DIMASO
 70
     1
  9
$DIMSHO
 70
     1
  9
$DIMPOST
  1

  9
$DIMAPOST
  1

  9
$DIMALT
 70
     0
  9
$DIMALTD
 70
     3
  9
$DIMALTF
 40
0.03937
  9
$DIMLFAC
 40
1.0
  9
$DIMTOFL
 70
     1
  9
$DIMTVP
 40
0.0
  9
$DIMTIX
 70
     0
  9
$DIMSOXD
 70
     0
  9
$DIMSAH
 70
     0
  9
$DIMBLK1
  1

  9
$DIMBLK2
  1

  9
$DIMSTYLE
  2
ISO-25
  9
$DIMCLRD
 70
     0
  9
$DIMCLRE
 70
     0
  9
$DIMCLRT
 70
     0
  9
$DIMTFAC
 40
1.0
  9
$DIMGAP
 40
0.625
  9
$DIMJUST
 70
     0
  9
$DIMSD1
 70
     0
  9
$DIMSD2
 70
     0
  9
$DIMTOLJ
 70
     0
  9
$DIMTZIN
 70
     8
  9
$DIMALTZ
 70
     0
  9
$DIMALTTZ
 70
     0
  9
$DIMUPT
 70
     0
  9
$DIMDEC
 70
     2
  9
$DIMTDEC
 70
     2
  9
$DIMALTU
 70
     2
  9
$DIMALTTD
 70
     3
  9
$DIMTXSTY
  7
Standard
  9
$DIMAUNIT
 70
     0
  9
$DIMADEC
 70
     0
  9
$DIMALTRND
 40
0.0
  9
$DIMAZIN
 70
     0
  9
$DIMDSEP
 70
    44
  9
$DIMATFIT
 70
     3
  9
$DIMFRAC
 70
     0
  9
$DIMLDRBLK
  1

  9
$DIMLUNIT
 70
     2
  9
$DIMLWD
 70
    -2
  9
$DIMLWE
 70
    -2
  9
$DIMTMOVE
 70
     0
  9
$DIMFXL
 40
1.0
  9
$DIMFXLON
 70
     0
  9
$DIMJOGANG
 40
0.785398
  9
$DIMTFILL
 70
     0
  9
$DIMTFILLCLR
 70
     0
  9
$DIMARCSYM
 70
     0
  9
$DIMLTYPE
  6

  9
$DIMLTEX1
  6

  9
$DIMLTEX2
  6

  9
$DIMTXTDIRECTION
 70
     0
  9
$LUNITS
 70
     2
  9
$LUPREC
 70
     4
  9
$SKETCHINC
 40
1.0
  9
$FILLETRAD
 40
10.0
  9
$AUNITS
 70
     0
  9
$AUPREC
 70
     0
  9
$MENU
  1
.
  9
$ELEVATION
 40
0.0
  9
$PELEVATION
 40
0.0
  9
$THICKNESS
 40
0.0
  9
$LIMCHECK
 70
     0
  9
$CHAMFERA
 40
0.0
  9
$CHAMFERB
 40
0.0
  9
$CHAMFERC
 40
0.0
  9
$CHAMFERD
 40
0.0
  9
$SKPOLY
 70
     0
  9
$TDCREATE
 40
2458620.704168078
  9
$TDUCREATE
 40
2458620.620834745
  9
$TDUPDATE
 40
2458620.70416875
  9
$TDUUPDATE
 40
2458620.620835416
  9
$TDINDWG
 40
0.0000000116
  9
$TDUSRTIMER
 40
0.0000000116
  9
$USRTIMER
 70
     1
  9
$ANGBASE
 50
0.0
  9
$ANGDIR
 70
     0
  9
$PDMODE
 70
     0
  9
$PDSIZE
 40
0.0
  9
$PLINEWID
 40
0.0
  9
$SPLFRAME
 70
     0
  9
$SPLINETYPE
 70
     6
  9
$SPLINESEGS
 70
     8
  9
$HANDSEED
  5
28C
  9
$SURFTAB1
 70
     6
  9
$SURFTAB2
 70
     6
  9
$SURFTYPE
 70
     6
  9
$SURFU
 70
     6
  9
$SURFV
 70
     6
  9
$UCSBASE
  2

  9
$UCSNAME
  2

  9
$UCSORG
 10
0.0
 20
0.0
 30
0.0
  9
$UCSXDIR
 10
1.0
 20
0.0
 30
0.0
  9
$UCSYDIR
 10
0.0
 20
1.0
 30
0.0
  9
$UCSORTHOREF
  2

  9
$UCSORTHOVIEW
 70
     0
  9
$UCSORGTOP
 10
0.0
 20
0.0
 30
0.0
  9
$UCSORGBOTTOM
 10
0.0
 20
0.0
 30
0.0
  9
$UCSORGLEFT
 10
0.0
 20
0.0
 30
0.0
  9
$UCSORGRIGHT
 10
0.0
 20
0.0
 30
0.0
  9
$UCSORGFRONT
 10
0.0
 20
0.0
 30
0.0
  9
$UCSORGBACK
 10
0.0
 20
0.0
 30
0.0
  9
$PUCSBASE
  2

  9
$PUCSNAME
  2

  9
$PUCSORG
 10
0.0
 20
0.0
 30
0.0
  9
$PUCSXDIR
 10
1.0
 20
0.0
 30
0.0
  9
$PUCSYDIR
 10
0.0
 20
1.0
 30
0.0
  9
$PUCSORTHOREF
  2

  9
$PUCSORTHOVIEW
 70
     0
  9
$PUCSORGTOP
 10
0.0
 20
0.0
 30
0.0
  9
$PUCSORGBOTTOM
 10
0.0
 20
0.0
 30
0.0
  9
$PUCSORGLEFT
 10
0.0
 20
0.0
 30
0.0
  9
$PUCSORGRIGHT
 10
0.0
 20
0.0
 30
0.0
  9
$PUCSORGFRONT
 10
0.0
 20
0.0
 30
0.0
  9
$PUCSORGBACK
 10
0.0
 20
0.0
 30
0.0
  9
$USERI1
 70
     0
  9
$USERI2
 70
     0
  9
$USERI3
 70
     0
  9
$USERI4
 70
     0
  9
$USERI5
 70
     0
  9
$USERR1
 40
0.0
  9
$USERR2
 40
0.0
  9
$USERR3
 40
0.0
  9
$USERR4
 40
0.0
  9
$USERR5
 40
0.0
  9
$WORLDVIEW
 70
     1
  9
$SHADEDGE
 70
     3
  9
$SHADEDIF
 70
    70
  9
$TILEMODE
 70
     1
  9
$MAXACTVP
 70
    64
  9
$PINSBASE
 10
0.0
 20
0.0
 30
0.0
  9
$PLIMCHECK
 70
     0
  9
$PEXTMIN
 10
1.000000E+20
 20
1.000000E+20
 30
1.000000E+20
  9
$PEXTMAX
 10
-1.000000E+20
 20
-1.000000E+20
 30
-1.000000E+20
  9
$PLIMMIN
 10
0.0
 20
0.0
  9
$PLIMMAX
 10
420.0
 20
297.0
  9
$UNITMODE
 70
     0
  9
$VISRETAIN
 70
     1
  9
$PLINEGEN
 70
     0
  9
$PSLTSCALE
 70
     1
  9
$TREEDEPTH
 70
  3020
  9
$CMLSTYLE
  2
Standard
  9
$CMLJUST
 70
     0
  9
$CMLSCALE
 40
20.0
  9
$PROXYGRAPHICS
 70
     1
  9
$MEASUREMENT
 70
     1
  9
$CELWEIGHT
370
    -1
  9
$ENDCAPS
280
     0
  9
$JOINSTYLE
280
     0
  9
$LWDISPLAY
290
     0
  9
$INSUNITS
 70
     4
  9
$HYPERLINKBASE
  1

  9
$STYLESHEET
  1

  9
$XEDIT
290
     1
  9
$CEPSNTYPE
380
     0
  9
$PSTYLEMODE
290
     1
  9
$FINGERPRINTGUID
  2
{C3D53A90-9C06-4247-A536-BD2E1E6D0F61}
  9
$VERSIONGUID
  2
{FAEB1C32-E019-11D5-929B-00C0DF256EC4}
  9
$EXTNAMES
290
     1
  9
$PSVPSCALE
 40
0.0
  9
$OLESTARTUP
290
     0
  9
$SORTENTS
280
   127
  9
$INDEXCTL
280
     0
  9
$HIDETEXT
280
     1
  9
$XCLIPFRAME
280
     2
  9
$HALOGAP
280
     0
  9
$OBSCOLOR
 70
   257
  9
$OBSLTYPE
280
     0
  9
$INTERSECTIONDISPLAY
280
     0
  9
$INTERSECTIONCOLOR
 70
   257
  9
$DIMASSOC
280
     2
  9
$PROJECTNAME
  1

  9
$CAMERADISPLAY
290
     0
  9
$LENSLENGTH
 40
50.0
  9
$CAMERAHEIGHT
 40
0.0
  9
$STEPSPERSEC
 40
2.0
  9
$STEPSIZE
 40
6.0
  9
$3DDWFPREC
 40
2.0
  9
$PSOLWIDTH
 40
5.0
  9
$PSOLHEIGHT
 40
80.0
  9
$LOFTANG1
 40
1.570796
  9
$LOFTANG2
 40
1.570796
  9
$LOFTMAG1
 40
0.0
  9
$LOFTMAG2
 40
0.0
  9
$LOFTPARAM
 70
     7
  9
$LOFTNORMALS
280
     1
  9
$LATITUDE
 40
37.795
  9
$LONGITUDE
 40
-122.394
  9
$NORTHDIRECTION
 40
0.0
  9
$TIMEZONE
 70
 -8000
  9
$LIGHTGLYPHDISPLAY
280
     1
  9
$TILEMODELIGHTSYNCH
280
     1
  9
$CMATERIAL
347
44
  9
$SOLIDHIST
280
     0
  9
$SHOWHIST
280
     1
  9
$DWFFRAME
280
     2
  9
$DGNFRAME
280
     2
  9
$REALWORLDSCALE
290
     1
  9
$INTERFERECOLOR
 62
   256
  9
$CSHADOW
280
     0
  9
$SHADOWPLANELOCATION
 40
0.0
  0
ENDSEC
  0
SECTION
  2
CLASSES
  0
CLASS
  1
ACDBDICTIONARYWDFLT
  2
AcDbDictionaryWithDefault
  3
ObjectDBX Classes
 90
        0
 91
        4
280
     0
281
     0
  0
CLASS
  1
VISUALSTYLE
  2
AcDbVisualStyle
  3
ObjectDBX Classes
 90
     4095
 91
        4
280
     0
281
     0
  0
CLASS
  1
MATERIAL
  2
AcDbMaterial
  3
ObjectDBX Classes
 90
     1153
 91
        4
280
     0
281
     0
  0
CLASS
  1
SCALE
  2
AcDbScale
  3
ObjectDBX Classes
 90
     1153
 91
        4
280
     0
281
     0
  0
CLASS
  1
TABLESTYLE
  2
AcDbTableStyle
  3
ObjectDBX Classes
 90
     4095
 91
        4
280
     0
281
     0
  0
CLASS
  1
MLEADERSTYLE
  2
AcDbMLeaderStyle
  3
ACDB_MLEADERSTYLE_CLASS
 90
     4095
 91
        4
280
     0
281
     0
  0
CLASS
  1
SUN
  2
AcDbSun
  3
SCENEOE
 90
     1153
 91
        4
280
     0
281
     0
  0
CLASS
  1
DICTIONARYVAR
  2
AcDbDictionaryVar
  3
ObjectDBX Classes
 90
        0
 91
        4
280
     0
281
     0
  0
CLASS
  1
CELLSTYLEMAP
  2
AcDbCellStyleMap
  3
ObjectDBX Classes
 90
     1152
 91
        4
280
     0
281
     0
  0
ENDSEC
  0
SECTION
  2
TABLES
  0
TABLE
  2
VPORT
  5
8
330
0
100
AcDbSymbolTable
 70
     1
  0
VPORT
  5
29
330
8
100
AcDbSymbolTableRecord
100
AcDbViewportTableRecord
  2
*Active
 70
     0
 10
0.0
 20
0.0
 11
1.0
 21
1.0
 12
344.186916
 22
148.5
 13
0.0
 23
0.0
 14
10.0
 24
10.0
 15
10.0
 25
10.0
 16
0.0
 26
0.0
 36
1.0
 17
0.0
 27
0.0
 37
0.0
 40
297.0
 41
1.972973
 42
50.0
 43
0.0
 44
0.0
 50
0.0
 51
0.0
 71
     0
 72
   100
 73
     1
 74
     3
 75
     0
 76
     0
 77
     0
 78
     0
281
     0
 65
     1
110
0.0
120
0.0
130
0.0
111
1.0
121
0.0
131
0.0
112
0.0
122
1.0
132
0.0
 79
     0
146
0.0
348
2F
 60
     3
 61
     5
292
     1
282
     1
141
0.0
142
0.0
 63
   250
361
6D
  0
ENDTAB
  0
TABLE
  2
LTYPE
  5
5
330
0
100
AcDbSymbolTable
 70
     1
  0
LTYPE
  5
14
330
5
100
AcDbSymbolTableRecord
100
AcDbLinetypeTableRecord
  2
ByBlock
 70
     0
  3

 72
    65
 73
     0
 40
0.0
  0
LTYPE
  5
15
330
5
100
AcDbSymbolTableRecord
100
AcDbLinetypeTableRecord
  2
ByLayer
 70
     0
  3

 72
    65
 73
     0
 40
0.0
  0
LTYPE
  5
16
330
5
100
AcDbSymbolTableRecord
100
AcDbLinetypeTableRecord
  2
Continuous
 70
     0
  3
Solid line
 72
    65
 73
     0
 40
0.0
  0
ENDTAB
  0
TABLE
  2
LAYER
  5
2
330
0
100
AcDbSymbolTable
 70
     1
  0
LAYER
  5
10
330
2
100
AcDbSymbolTableRecord
100
AcDbLayerTableRecord
  2
0
 70
     0
 62
   106
  6
Continuous
370
     0
390
F
347
46
  0
ENDTAB
  0
TABLE
  2
STYLE
  5
3
330
0
100
AcDbSymbolTable
 70
     4
  0
STYLE
  5
11
330
3
100
AcDbSymbolTableRecord
100
AcDbTextStyleTableRecord
  2
Standard
 70
     0
 40
0.0
 41
1.0
 50
0.0
 71
     0
 42
2.5
  3
txt
  4

  0
STYLE
  5
6E
330
3
100
AcDbSymbolTableRecord
100
AcDbTextStyleTableRecord
  2
Default
 70
     0
 40
0.0
 41
1.0
 50
0.0
 71
     0
 42
2.5
  3

  4

1001
ACAD
1000
txt
1071
        0
  0
STYLE
  5
6F
330
3
100
AcDbSymbolTableRecord
100
AcDbTextStyleTableRecord
  2
ISO
 70
     0
 40
0.0
 41
1.0
 50
0.0
 71
     0
 42
2.5
  3

  4

1001
ACAD
1000
txt
1071
        0
  0
STYLE
  5
70
330
3
100
AcDbSymbolTableRecord
100
AcDbTextStyleTableRecord
  2
zucchetti
 70
     0
 40
0.0
 41
1.0
 50
0.0
 71
     0
 42
2.5
  3

  4

1001
ACAD
1000
Arial
1071
        0
  0
ENDTAB
  0
TABLE
  2
VIEW
  5
6
330
0
100
AcDbSymbolTable
 70
     0
  0
ENDTAB
  0
TABLE
  2
UCS
  5
7
330
0
100
AcDbSymbolTable
 70
     0
  0
ENDTAB
  0
TABLE
  2
APPID
  5
9
330
0
100
AcDbSymbolTable
 70
     1
  0
APPID
  5
12
330
9
100
AcDbSymbolTableRecord
100
AcDbRegAppTableRecord
  2
ACAD
 70
     0
  0
ENDTAB
  0
TABLE
  2
DIMSTYLE
  5
A
330
0
100
AcDbSymbolTable
 70
     4
100
AcDbDimStyleTable
  0
DIMSTYLE
105
27
330
A
100
AcDbSymbolTableRecord
100
AcDbDimStyleTableRecord
  2
ISO-25
 70
     0
 41
2.5
 42
0.625
 43
3.75
 44
1.25
 73
     0
 74
     0
 77
     1
 78
     8
140
2.5
141
2.5
143
0.03937
147
0.625
171
     3
172
     1
178
     0
271
     2
272
     2
274
     3
278
    44
283
     0
284
     8
340
11
  0
DIMSTYLE
105
71
330
A
100
AcDbSymbolTableRecord
100
AcDbDimStyleTableRecord
  2
Default
 70
     0
  3
<>
 41
4.375
 42
1.05
 44
2.1
 49
10.01
 73
     0
 74
     0
 77
     1
 78
     8
140
3.5
146
0.4
147
1.75
172
     1
271
     2
178
     3
271
     2
272
     3
284
     8
340
6E
341
72
342
72
  0
DIMSTYLE
105
79
330
A
100
AcDbSymbolTableRecord
100
AcDbDimStyleTableRecord
  2
ISO
 70
     0
  3
<>
 41
4.375
 42
1.05
 44
2.1
 49
10.01
 73
     0
 74
     0
 77
     1
 78
     8
140
3.5
146
0.4
147
1.75
172
     1
271
     2
178
     3
271
     2
272
     3
284
     8
340
6F
341
72
342
72
  0
DIMSTYLE
105
7A
330
A
100
AcDbSymbolTableRecord
100
AcDbDimStyleTableRecord
  2
zucchetti
 70
     0
  3
<>
 41
3.0
 42
0.9
 44
1.8
 49
8.58
 73
     0
 74
     0
 77
     1
 78
     8
140
3.0
146
0.6
147
1.5
172
     1
176
     3
177
     3
271
     2
178
     3
271
     2
272
     2
284
     8
340
70
  0
ENDTAB
  0
TABLE
  2
BLOCK_RECORD
  5
1
330
0
100
AcDbSymbolTable
 70
     6
  0
BLOCK_RECORD
  5
1F
330
1
100
AcDbSymbolTableRecord
100
AcDbBlockTableRecord
  2
*Model_Space
340
22
 70
     0
280
     1
281
     0
  0
BLOCK_RECORD
  5
1B
330
1
100
AcDbSymbolTableRecord
100
AcDbBlockTableRecord
  2
*Paper_Space
340
1E
 70
     0
280
     1
281
     0
  0
BLOCK_RECORD
  5
23
330
1
100
AcDbSymbolTableRecord
100
AcDbBlockTableRecord
  2
*Paper_Space0
340
26
 70
     0
280
     1
281
     0
  0
BLOCK_RECORD
  5
72
330
1
100
AcDbSymbolTableRecord
100
AcDbBlockTableRecord
  2
_CLOSED
340
0
 70
     0
280
     1
281
     0
  0
BLOCK_RECORD
  5
7B
330
1
100
AcDbSymbolTableRecord
100
AcDbBlockTableRecord
  2
a
340
0
102
{BLKREFS
331
10F
102
}
 70
     0
280
     1
281
     0
  0
BLOCK_RECORD
  5
110
330
1
100
AcDbSymbolTableRecord
100
AcDbBlockTableRecord
  2
b
340
0
102
{BLKREFS
331
162
102
}
 70
     0
280
     1
281
     0
  0
BLOCK_RECORD
  5
163
330
1
100
AcDbSymbolTableRecord
100
AcDbBlockTableRecord
  2
c
340
0
102
{BLKREFS
331
1C8
102
}
 70
     0
280
     1
281
     0
  0
BLOCK_RECORD
  5
1C9
330
1
100
AcDbSymbolTableRecord
100
AcDbBlockTableRecord
  2
d
340
0
102
{BLKREFS
331
252
102
}
 70
     0
280
     1
281
     0
  0
ENDTAB
  0
ENDSEC
  0
SECTION
  2
BLOCKS
  0
BLOCK
  5
20
330
1F
100
AcDbEntity
  8
0
100
AcDbBlockBegin
  2
*Model_Space
 70
     0
 10
0.0
 20
0.0
 30
0.0
  3
*Model_Space
  1

  0
ENDBLK
  5
21
330
1F
100
AcDbEntity
  8
0
100
AcDbBlockEnd
  0
BLOCK
  5
1C
330
1B
100
AcDbEntity
 67
     1
  8
0
100
AcDbBlockBegin
  2
*Paper_Space
 70
     0
 10
0.0
 20
0.0
 30
0.0
  3
*Paper_Space
  1

  0
ENDBLK
  5
1D
330
1B
100
AcDbEntity
 67
     1
  8
0
100
AcDbBlockEnd
  0
BLOCK
  5
24
330
23
100
AcDbEntity
  8
0
100
AcDbBlockBegin
  2
*Paper_Space0
 70
     0
 10
0.0
 20
0.0
 30
0.0
  3
*Paper_Space0
  1

  0
ENDBLK
  5
25
330
23
100
AcDbEntity
  8
0
100
AcDbBlockEnd
  0
BLOCK
  5
73
330
72
100
AcDbEntity
  8
0
100
AcDbBlockBegin
  2
_CLOSED
 70
     0
 10
0.0
 20
0.0
 30
0.0
  3
_CLOSED
  1

  0
LINE
  5
75
330
72
100
AcDbEntity
  8
0
  6
ByBlock
 62
     0
370
    -2
100
AcDbLine
 10
-1.0
 20
0.166667
 30
0.0
 11
0.0
 21
0.0
 31
0.0
  0
LINE
  5
76
330
72
100
AcDbEntity
  8
0
  6
ByBlock
 62
     0
370
    -2
100
AcDbLine
 10
0.0
 20
0.0
 30
0.0
 11
-1.0
 21
-0.166667
 31
0.0
  0
LINE
  5
77
330
72
100
AcDbEntity
  8
0
  6
ByBlock
 62
     0
370
    -2
100
AcDbLine
 10
-1.0
 20
0.166667
 30
0.0
 11
-1.0
 21
-0.166667
 31
0.0
  0
LINE
  5
78
330
72
100
AcDbEntity
  8
0
  6
ByBlock
 62
     0
370
    -2
100
AcDbLine
 10
0.0
 20
0.0
 30
0.0
 11
-1.0
 21
0.0
 31
0.0
  0
ENDBLK
  5
74
330
72
100
AcDbEntity
  8
0
100
AcDbBlockEnd
  0
BLOCK
  5
10D
330
7B
100
AcDbEntity
  8
0
100
AcDbBlockBegin
  2
a
 70
     0
 10
140.56308
 20
141.616913
 30
0.0
  3
a
  1

  0
LINE
  5
7C
330
7B
100
AcDbEntity
  8
0
  6
Continuous
 62
     0
370
    30
100
AcDbLine
 10
179.943291
 20
484.534679
 30
0.0
 11
220.311251
 21
484.534679
 31
0.0
  0
LWPOLYLINE
  5
7D
330
7B
100
AcDbEntity
  8
0
  6
Continuous
 62
     0
370
     0
100
AcDbPolyline
 90
       36
 70
     0
 43
0.0
 10
220.311249
 20
484.534668
 10
220.814453
 20
484.564972
 10
221.329681
 20
484.659424
 10
221.851593
 20
484.822693
 10
222.374054
 20
485.058136
 10
222.890305
 20
485.367706
 10
223.393173
 20
485.751434
 10
223.875381
 20
486.207428
 10
224.329849
 20
486.73175
 10
224.75
 20
487.318542
 10
225.130081
 20
487.960175
 10
225.465469
 20
488.647583
 10
225.752777
 20
489.370667
 10
225.989975
 20
490.118866
 10
226.176468
 20
490.881561
 10
226.312912
 20
491.648407
 10
226.401123
 20
492.409973
 10
226.443848
 20
493.157806
 10
226.444443
 20
493.89032
 10
226.402969
 20
494.637634
 10
226.316116
 20
495.398895
 10
226.181091
 20
496.165741
 10
225.996048
 20
496.92868
 10
225.7603
 20
497.67746
 10
225.474426
 20
498.401428
 10
225.140381
 20
499.089996
 10
224.76152
 20
499.733063
 10
224.342453
 20
500.321564
 10
223.888885
 20
500.847778
 10
223.407364
 20
501.305817
 10
222.904984
 20
501.69165
 10
222.389023
 20
502.003357
 10
221.866638
 20
502.240936
 10
221.34462
 20
502.406219
 10
220.829132
 20
502.502594
 10
220.311249
 20
502.534668
  0
ARC
  5
7E
330
7B
100
AcDbEntity
  8
0
  6
Continuous
 62
     0
370
    30
100
AcDbCircle
 10
179.943291
 20
493.534679
 30
0.0
 40
9.0
100
AcDbArc
 50
90.0
 51
270.0
  0
LINE
  5
7F
330
7B
100
AcDbEntity
  8
0
  6
Continuous
 62
     0
370
     0
100
AcDbLine
 10
384.943291
 20
458.534679
 30
0.0
 11
384.714841
 21
458.534679
 31
0.0
  0
LINE
  5
80
330
7B
100
AcDbEntity
  8
0
  6
Continuous
 62
     0
370
     0
100
AcDbLine
 10
368.714841
 20
442.534679
 30
0.0
 11
368.714841
 21
445.534679
 31
0.0
  0
LINE
  5
81
330
7B
100
AcDbEntity
  8
0
  6
Continuous
 62
     0
370
     0
100
AcDbLine
 10
368.714841
 20
445.534679
 30
0.0
 11
368.714841
 21
448.534679
 31
0.0
  0
LINE
  5
82
330
7B
100
AcDbEntity
  8
0
  6
Continuous
 62
     0
370
     0
100
AcDbLine
 10
384.714841
 20
458.534679
 30
0.0
 11
381.714841
 21
458.534679
 31
0.0
  0
LINE
  5
83
330
7B
100
AcDbEntity
  8
0
  6
Continuous
 62
     0
370
     0
100
AcDbLine
 10
381.714841
 20
458.534679
 30
0.0
 11
378.714841
 21
458.534679
 31
0.0
  0
LINE
  5
84
330
7B
100
AcDbEntity
  8
0
  6
Continuous
 62
     0
370
     0
100
AcDbLine
 10
352.999262
 20
442.534679
 30
0.0
 11
352.999262
 21
445.534679
 31
0.0
  0
LINE
  5
85
330
7B
100
AcDbEntity
  8
0
  6
Continuous
 62
     0
370
     0
100
AcDbLine
 10
352.999262
 20
445.534679
 30
0.0
 11
352.999262
 21
448.534679
 31
0.0
  0
LINE
  5
86
330
7B
100
AcDbEntity
  8
0
  6
Continuous
 62
     0
370
     0
100
AcDbLine
 10
368.999262
 20
458.534679
 30
0.0
 11
365.999262
 21
458.534679
 31
0.0
  0
LINE
  5
87
330
7B
100
AcDbEntity
  8
0
  6
Continuous
 62
     0
370
     0
100
AcDbLine
 10
365.999262
 20
458.534679
 30
0.0
 11
362.999262
 21
458.534679
 31
0.0
  0
LINE
  5
88
330
7B
100
AcDbEntity
  8
0
  6
Continuous
 62
     0
370
     0
100
AcDbLine
 10
329.40715
 20
442.534679
 30
0.0
 11
329.40715
 21
445.534679
 31
0.0
  0
LINE
  5
89
330
7B
100
AcDbEntity
  8
0
  6
Continuous
 62
     0
370
     0
100
AcDbLine
 10
329.40715
 20
445.534679
 30
0.0
 11
329.40715
 21
448.534679
 31
0.0
  0
LINE
  5
8A
330
7B
100
AcDbEntity
  8
0
  6
Continuous
 62
     0
370
     0
100
AcDbLine
 10
345.40715
 20
458.534679
 30
0.0
 11
342.40715
 21
458.534679
 31
0.0
  0
LINE
  5
8B
330
7B
100
AcDbEntity
  8
0
  6
Continuous
 62
     0
370
     0
100
AcDbLine
 10
342.40715
 20
458.534679
 30
0.0
 11
339.40715
 21
458.534679
 31
0.0
  0
LINE
  5
8C
330
7B
100
AcDbEntity
  8
0
  6
Continuous
 62
     0
370
     0
100
AcDbLine
 10
305.815039
 20
442.534679
 30
0.0
 11
305.815039
 21
445.534679
 31
0.0
  0
LINE
  5
8D
330
7B
100
AcDbEntity
  8
0
  6
Continuous
 62
     0
370
     0
100
AcDbLine
 10
305.815039
 20
445.534679
 30
0.0
 11
305.815039
 21
448.534679
 31
0.0
  0
LINE
  5
8E
330
7B
100
AcDbEntity
  8
0
  6
Continuous
 62
     0
370
     0
100
AcDbLine
 10
321.815039
 20
458.534679
 30
0.0
 11
318.815039
 21
458.534679
 31
0.0
  0
LINE
  5
8F
330
7B
100
AcDbEntity
  8
0
  6
Continuous
 62
     0
370
     0
100
AcDbLine
 10
318.815039
 20
458.534679
 30
0.0
 11
315.815039
 21
458.534679
 31
0.0
  0
LINE
  5
90
330
7B
100
AcDbEntity
  8
0
  6
Continuous
 62
     0
370
     0
100
AcDbLine
 10
282.222927
 20
442.534679
 30
0.0
 11
282.222927
 21
445.534679
 31
0.0
  0
LINE
  5
91
330
7B
100
AcDbEntity
  8
0
  6
Continuous
 62
     0
370
     0
100
AcDbLine
 10
282.222927
 20
445.534679
 30
0.0
 11
282.222927
 21
448.534679
 31
0.0
  0
LINE
  5
92
330
7B
100
AcDbEntity
  8
0
  6
Continuous
 62
     0
370
     0
100
AcDbLine
 10
298.222927
 20
458.534679
 30
0.0
 11
295.222927
 21
458.534679
 31
0.0
  0
LINE
  5
93
330
7B
100
AcDbEntity
  8
0
  6
Continuous
 62
     0
370
     0
100
AcDbLine
 10
295.222927
 20
458.534679
 30
0.0
 11
292.222927
 21
458.534679
 31
0.0
  0
LINE
  5
94
330
7B
100
AcDbEntity
  8
0
  6
Continuous
 62
     0
370
     0
100
AcDbLine
 10
258.630815
 20
442.534679
 30
0.0
 11
258.630815
 21
445.534679
 31
0.0
  0
LINE
  5
95
330
7B
100
AcDbEntity
  8
0
  6
Continuous
 62
     0
370
     0
100
AcDbLine
 10
258.630815
 20
445.534679
 30
0.0
 11
258.630815
 21
448.534679
 31
0.0
  0
LINE
  5
96
330
7B
100
AcDbEntity
  8
0
  6
Continuous
 62
     0
370
     0
100
AcDbLine
 10
274.630815
 20
458.534679
 30
0.0
 11
271.630815
 21
458.534679
 31
0.0
  0
LINE
  5
97
330
7B
100
AcDbEntity
  8
0
  6
Continuous
 62
     0
370
     0
100
AcDbLine
 10
271.630815
 20
458.534679
 30
0.0
 11
268.630815
 21
458.534679
 31
0.0
  0
LINE
  5
98
330
7B
100
AcDbEntity
  8
0
  6
Continuous
 62
     0
370
     0
100
AcDbLine
 10
192.943291
 20
442.534679
 30
0.0
 11
192.943291
 21
445.534679
 31
0.0
  0
LINE
  5
99
330
7B
100
AcDbEntity
  8
0
  6
Continuous
 62
     0
370
     0
100
AcDbLine
 10
192.943291
 20
445.534679
 30
0.0
 11
192.943291
 21
448.534679
 31
0.0
  0
LINE
  5
9A
330
7B
100
AcDbEntity
  8
0
  6
Continuous
 62
     0
370
     0
100
AcDbLine
 10
182.943291
 20
458.534679
 30
0.0
 11
179.943291
 21
458.534679
 31
0.0
  0
LINE
  5
9B
330
7B
100
AcDbEntity
  8
0
  6
Continuous
 62
     0
370
     0
100
AcDbLine
 10
179.943291
 20
458.534679
 30
0.0
 11
176.943291
 21
458.534679
 31
0.0
  0
LINE
  5
9C
330
7B
100
AcDbEntity
  8
0
  6
Continuous
 62
     0
370
     0
100
AcDbLine
 10
235.038704
 20
442.534679
 30
0.0
 11
235.038704
 21
445.534679
 31
0.0
  0
LINE
  5
9D
330
7B
100
AcDbEntity
  8
0
  6
Continuous
 62
     0
370
     0
100
AcDbLine
 10
235.038704
 20
445.534679
 30
0.0
 11
235.038704
 21
448.534679
 31
0.0
  0
LINE
  5
9E
330
7B
100
AcDbEntity
  8
0
  6
Continuous
 62
     0
370
     0
100
AcDbLine
 10
251.038704
 20
458.534679
 30
0.0
 11
248.038704
 21
458.534679
 31
0.0
  0
LINE
  5
9F
330
7B
100
AcDbEntity
  8
0
  6
Continuous
 62
     0
370
     0
100
AcDbLine
 10
248.038704
 20
458.534679
 30
0.0
 11
245.038704
 21
458.534679
 31
0.0
  0
LWPOLYLINE
  5
A0
330
7B
100
AcDbEntity
  8
0
  6
Continuous
 62
     0
370
     0
100
AcDbPolyline
 90
       13
 70
     0
 43
0.0
 10
384.714844
 20
484.691254
 10
384.68158
 20
484.702667
 10
384.58313
 20
484.687866
 10
384.42215
 20
484.647461
 10
384.202423
 20
484.585205
 10
383.929565
 20
484.506531
 10
383.610626
 20
484.417786
 10
383.252411
 20
484.325348
 10
382.86087
 20
484.23584
 10
382.441437
 20
484.156067
 10
382.001099
 20
484.092529
 10
381.553253
 20
484.050476
 10
381.086334
 20
484.034668
  0
LWPOLYLINE
  5
A1
330
7B
100
AcDbEntity
  8
0
  6
Continuous
 62
     0
370
     0
100
AcDbPolyline
 90
        7
 70
     0
 43
0.0
 10
381.086334
 20
484.034668
 10
380.595184
 20
484.053894
 10
380.135345
 20
484.109619
 10
379.726105
 20
484.196381
 10
379.378571
 20
484.304565
 10
379.097809
 20
484.421753
 10
378.889038
 20
484.534668
  0
LWPOLYLINE
  5
A2
330
7B
100
AcDbEntity
  8
0
  6
Continuous
 62
     0
370
     0
100
AcDbPolyline
 90
       16
 70
     0
 43
0.0
 10
251.038193
 20
484.339172
 10
251.001434
 20
484.444183
 10
250.890762
 20
484.54248
 10
250.707855
 20
484.623322
 10
250.455688
 20
484.678864
 10
250.139877
 20
484.702789
 10
249.769455
 20
484.690094
 10
249.356186
 20
484.643829
 10
248.912613
 20
484.57016
 10
248.450684
 20
484.476135
 10
247.980469
 20
484.373077
 10
247.511566
 20
484.270386
 10
247.05394
 20
484.176361
 10
246.617813
 20
484.10141
 10
246.214172
 20
484.05249
 10
245.84465
 20
484.034668
  0
LWPOLYLINE
  5
A3
330
7B
100
AcDbEntity
  8
0
  6
Continuous
 62
     0
370
     0
100
AcDbPolyline
 90
        6
 70
     0
 43
0.0
 10
245.84465
 20
484.034668
 10
245.56427
 20
484.049255
 10
245.338547
 20
484.091156
 10
245.174286
 20
484.156677
 10
245.074402
 20
484.240051
 10
245.038773
 20
484.342285
  0
LINE
  5
A4
330
7B
100
AcDbEntity
  8
0
  6
Continuous
 62
     0
370
    30
100
AcDbLine
 10
220.311251
 20
484.534679
 30
0.0
 11
245.478966
 21
484.534679
 31
0.0
  0
LWPOLYLINE
  5
A5
330
7B
100
AcDbEntity
  8
0
  6
Continuous
 62
     0
370
     0
100
AcDbPolyline
 90
       21
 70
     0
 43
0.0
 10
245.478973
 20
484.534668
 10
245.83963
 20
484.548035
 10
246.250168
 20
484.586945
 10
246.693146
 20
484.647217
 10
247.157639
 20
484.723663
 10
247.636353
 20
484.809967
 10
248.118591
 20
484.899231
 10
248.59584
 20
484.984558
 10
249.061035
 20
485.059357
 10
249.50676
 20
485.117828
 10
249.924057
 20
485.155182
 10
250.304169
 20
485.167633
 10
250.639694
 20
485.154572
 10
250.923828
 20
485.116699
 10
251.15126
 20
485.057831
 10
251.31723
 20
484.982666
 10
251.4189
 20
484.897186
 10
251.453995
 20
484.807922
 10
251.420441
 20
484.721771
 10
251.316864
 20
484.64563
 10
251.133575
 20
484.58374
  0
LINE
  5
A6
330
7B
100
AcDbEntity
  8
0
  6
Continuous
 62
     0
370
    30
100
AcDbLine
 10
251.094263
 20
484.534679
 30
0.0
 11
269.071077
 21
484.534679
 31
0.0
  0
LWPOLYLINE
  5
A7
330
7B
100
AcDbEntity
  8
0
  6
Continuous
 62
     0
370
     0
100
AcDbPolyline
 90
       21
 70
     0
 43
0.0
 10
269.071075
 20
484.534668
 10
269.431763
 20
484.548035
 10
269.842285
 20
484.586945
 10
270.285248
 20
484.647217
 10
270.749756
 20
484.723663
 10
271.228485
 20
484.809967
 10
271.710693
 20
484.899231
 10
272.187958
 20
484.984558
 10
272.653137
 20
485.059357
 10
273.098877
 20
485.117828
 10
273.516174
 20
485.155182
 10
273.896271
 20
485.167633
 10
274.231812
 20
485.154572
 10
274.515961
 20
485.116699
 10
274.743378
 20
485.057831
 10
274.909332
 20
484.982666
 10
275.011017
 20
484.897186
 10
275.046112
 20
484.807922
 10
275.012543
 20
484.721771
 10
274.908966
 20
484.64563
 10
274.725677
 20
484.58374
  0
LINE
  5
A8
330
7B
100
AcDbEntity
  8
0
  6
Continuous
 62
     0
370
    30
100
AcDbLine
 10
274.686375
 20
484.534679
 30
0.0
 11
292.663189
 21
484.534679
 31
0.0
  0
LWPOLYLINE
  5
A9
330
7B
100
AcDbEntity
  8
0
  6
Continuous
 62
     0
370
     0
100
AcDbPolyline
 90
       21
 70
     0
 43
0.0
 10
292.663177
 20
484.534668
 10
293.023865
 20
484.548035
 10
293.434387
 20
484.586945
 10
293.87735
 20
484.647217
 10
294.341858
 20
484.723663
 10
294.820587
 20
484.809967
 10
295.302826
 20
484.899231
 10
295.78006
 20
484.984558
 10
296.24527
 20
485.059357
 10
296.690979
 20
485.117828
 10
297.108276
 20
485.155182
 10
297.488403
 20
485.167633
 10
297.823914
 20
485.154572
 10
298.108063
 20
485.116699
 10
298.33548
 20
485.057831
 10
298.501465
 20
484.982666
 10
298.603119
 20
484.897186
 10
298.638214
 20
484.807922
 10
298.604645
 20
484.721771
 10
298.501099
 20
484.64563
 10
298.31778
 20
484.58374
  0
LINE
  5
AA
330
7B
100
AcDbEntity
  8
0
  6
Continuous
 62
     0
370
    30
100
AcDbLine
 10
298.278486
 20
484.534679
 30
0.0
 11
316.255301
 21
484.534679
 31
0.0
  0
LWPOLYLINE
  5
AB
330
7B
100
AcDbEntity
  8
0
  6
Continuous
 62
     0
370
     0
100
AcDbPolyline
 90
       21
 70
     0
 43
0.0
 10
316.25531
 20
484.534668
 10
316.615967
 20
484.548035
 10
317.026489
 20
484.586945
 10
317.469482
 20
484.647217
 10
317.93396
 20
484.723663
 10
318.412689
 20
484.809967
 10
318.894928
 20
484.899231
 10
319.372162
 20
484.984558
 10
319.837372
 20
485.059357
 10
320.283112
 20
485.117828
 10
320.700409
 20
485.155182
 10
321.080505
 20
485.167633
 10
321.416016
 20
485.154572
 10
321.700165
 20
485.116699
 10
321.927582
 20
485.057831
 10
322.093567
 20
484.982666
 10
322.195251
 20
484.897186
 10
322.230347
 20
484.807922
 10
322.196777
 20
484.721771
 10
322.093201
 20
484.64563
 10
321.909912
 20
484.58374
  0
LINE
  5
AC
330
7B
100
AcDbEntity
  8
0
  6
Continuous
 62
     0
370
    30
100
AcDbLine
 10
321.870598
 20
484.534679
 30
0.0
 11
339.847412
 21
484.534679
 31
0.0
  0
LWPOLYLINE
  5
AD
330
7B
100
AcDbEntity
  8
0
  6
Continuous
 62
     0
370
     0
100
AcDbPolyline
 90
       21
 70
     0
 43
0.0
 10
339.847412
 20
484.534668
 10
340.208069
 20
484.548035
 10
340.618622
 20
484.586945
 10
341.061584
 20
484.647217
 10
341.526093
 20
484.723663
 10
342.004822
 20
484.809967
 10
342.48703
 20
484.899231
 10
342.964294
 20
484.984558
 10
343.429474
 20
485.059357
 10
343.875214
 20
485.117828
 10
344.292511
 20
485.155182
 10
344.672607
 20
485.167633
 10
345.008148
 20
485.154572
 10
345.292267
 20
485.116699
 10
345.519714
 20
485.057831
 10
345.685669
 20
484.982666
 10
345.787354
 20
484.897186
 10
345.822449
 20
484.807922
 10
345.788879
 20
484.721771
 10
345.685303
 20
484.64563
 10
345.502014
 20
484.58374
  0
LINE
  5
AE
330
7B
100
AcDbEntity
  8
0
  6
Continuous
 62
     0
370
    30
100
AcDbLine
 10
345.46271
 20
484.534679
 30
0.0
 11
363.439524
 21
484.534679
 31
0.0
  0
LWPOLYLINE
  5
AF
330
7B
100
AcDbEntity
  8
0
  6
Continuous
 62
     0
370
     0
100
AcDbPolyline
 90
       21
 70
     0
 43
0.0
 10
363.439514
 20
484.534668
 10
363.800201
 20
484.548035
 10
364.210724
 20
484.586945
 10
364.653687
 20
484.647217
 10
365.118195
 20
484.723663
 10
365.596924
 20
484.809967
 10
366.079163
 20
484.899231
 10
366.556396
 20
484.984558
 10
367.021606
 20
485.059357
 10
367.467316
 20
485.117828
 10
367.884613
 20
485.155182
 10
368.26474
 20
485.167633
 10
368.60025
 20
485.154572
 10
368.884399
 20
485.116699
 10
369.111816
 20
485.057831
 10
369.277802
 20
484.982666
 10
369.379456
 20
484.897186
 10
369.414551
 20
484.807922
 10
369.380981
 20
484.721771
 10
369.277435
 20
484.64563
 10
369.094116
 20
484.58374
  0
LINE
  5
B0
330
7B
100
AcDbEntity
  8
0
  6
Continuous
 62
     0
370
    30
100
AcDbLine
 10
369.054821
 20
484.534679
 30
0.0
 11
374.311251
 21
484.534679
 31
0.0
  0
ELLIPSE
  5
B1
330
7B
100
AcDbEntity
  8
0
  6
Continuous
 62
     0
370
     0
100
AcDbEllipse
 10
374.311251
 20
493.534679
 30
0.0
 11
0.0
 21
-9.0
 31
0.0
210
0.0
220
0.0
230
1.0
 40
0.681998
 41
0.0000000000000036
 42
3.141592653589785
  0
LWPOLYLINE
  5
B2
330
7B
100
AcDbEntity
  8
0
  6
Continuous
 62
     0
370
     0
100
AcDbPolyline
 90
       16
 70
     0
 43
0.0
 10
274.63031
 20
484.339172
 10
274.593536
 20
484.444183
 10
274.48288
 20
484.54248
 10
274.299957
 20
484.623322
 10
274.047791
 20
484.678864
 10
273.731995
 20
484.702789
 10
273.361572
 20
484.690094
 10
272.948303
 20
484.643829
 10
272.50473
 20
484.57016
 10
272.042816
 20
484.476135
 10
271.572571
 20
484.373077
 10
271.103668
 20
484.270386
 10
270.646057
 20
484.176361
 10
270.20993
 20
484.10141
 10
269.806274
 20
484.05249
 10
269.436768
 20
484.034668
  0
LWPOLYLINE
  5
B3
330
7B
100
AcDbEntity
  8
0
  6
Continuous
 62
     0
370
     0
100
AcDbPolyline
 90
        6
 70
     0
 43
0.0
 10
269.436768
 20
484.034668
 10
269.156372
 20
484.049255
 10
268.930664
 20
484.091156
 10
268.766388
 20
484.156677
 10
268.666504
 20
484.240051
 10
268.63089
 20
484.342285
  0
LWPOLYLINE
  5
B4
330
7B
100
AcDbEntity
  8
0
  6
Continuous
 62
     0
370
     0
100
AcDbPolyline
 90
       16
 70
     0
 43
0.0
 10
298.222412
 20
484.339172
 10
298.185669
 20
484.444183
 10
298.074982
 20
484.54248
 10
297.89209
 20
484.623322
 10
297.639923
 20
484.678864
 10
297.324097
 20
484.702789
 10
296.953674
 20
484.690094
 10
296.540405
 20
484.643829
 10
296.096832
 20
484.57016
 10
295.634918
 20
484.476135
 10
295.164673
 20
484.373077
 10
294.695801
 20
484.270386
 10
294.238159
 20
484.176361
 10
293.802032
 20
484.10141
 10
293.398376
 20
484.05249
 10
293.02887
 20
484.034668
  0
LWPOLYLINE
  5
B5
330
7B
100
AcDbEntity
  8
0
  6
Continuous
 62
     0
370
     0
100
AcDbPolyline
 90
        6
 70
     0
 43
0.0
 10
293.02887
 20
484.034668
 10
292.748505
 20
484.049255
 10
292.522766
 20
484.091156
 10
292.358521
 20
484.156677
 10
292.258636
 20
484.240051
 10
292.222992
 20
484.342285
  0
LWPOLYLINE
  5
B6
330
7B
100
AcDbEntity
  8
0
  6
Continuous
 62
     0
370
     0
100
AcDbPolyline
 90
       16
 70
     0
 43
0.0
 10
321.814514
 20
484.339172
 10
321.777771
 20
484.444183
 10
321.667114
 20
484.54248
 10
321.484192
 20
484.623322
 10
321.232025
 20
484.678864
 10
320.916199
 20
484.702789
 10
320.545807
 20
484.690094
 10
320.132507
 20
484.643829
 10
319.688934
 20
484.57016
 10
319.22702
 20
484.476135
 10
318.756805
 20
484.373077
 10
318.287903
 20
484.270386
 10
317.830261
 20
484.176361
 10
317.394135
 20
484.10141
 10
316.990509
 20
484.05249
 10
316.620972
 20
484.034668
  0
LWPOLYLINE
  5
B7
330
7B
100
AcDbEntity
  8
0
  6
Continuous
 62
     0
370
     0
100
AcDbPolyline
 90
        6
 70
     0
 43
0.0
 10
316.620972
 20
484.034668
 10
316.340607
 20
484.049255
 10
316.114868
 20
484.091156
 10
315.950623
 20
484.156677
 10
315.850739
 20
484.240051
 10
315.815125
 20
484.342285
  0
LWPOLYLINE
  5
B8
330
7B
100
AcDbEntity
  8
0
  6
Continuous
 62
     0
370
     0
100
AcDbPolyline
 90
       16
 70
     0
 43
0.0
 10
345.406647
 20
484.339172
 10
345.369873
 20
484.444183
 10
345.259216
 20
484.54248
 10
345.076294
 20
484.623322
 10
344.824127
 20
484.678864
 10
344.508331
 20
484.702789
 10
344.137909
 20
484.690094
 10
343.72464
 20
484.643829
 10
343.281067
 20
484.57016
 10
342.819122
 20
484.476135
 10
342.348907
 20
484.373077
 10
341.880005
 20
484.270386
 10
341.422394
 20
484.176361
 10
340.986267
 20
484.10141
 10
340.582611
 20
484.05249
 10
340.213104
 20
484.034668
  0
LWPOLYLINE
  5
B9
330
7B
100
AcDbEntity
  8
0
  6
Continuous
 62
     0
370
     0
100
AcDbPolyline
 90
        6
 70
     0
 43
0.0
 10
340.213104
 20
484.034668
 10
339.932709
 20
484.049255
 10
339.707001
 20
484.091156
 10
339.542725
 20
484.156677
 10
339.442841
 20
484.240051
 10
339.407227
 20
484.342285
  0
LWPOLYLINE
  5
BA
330
7B
100
AcDbEntity
  8
0
  6
Continuous
 62
     0
370
     0
100
AcDbPolyline
 90
       16
 70
     0
 43
0.0
 10
368.998749
 20
484.339172
 10
368.962006
 20
484.444183
 10
368.851318
 20
484.54248
 10
368.668427
 20
484.623322
 10
368.41626
 20
484.678864
 10
368.100433
 20
484.702789
 10
367.730011
 20
484.690094
 10
367.316742
 20
484.643829
 10
366.873169
 20
484.57016
 10
366.411255
 20
484.476135
 10
365.94101
 20
484.373077
 10
365.472137
 20
484.270386
 10
365.014496
 20
484.176361
 10
364.578369
 20
484.10141
 10
364.174713
 20
484.05249
 10
363.805206
 20
484.034668
  0
LWPOLYLINE
  5
BB
330
7B
100
AcDbEntity
  8
0
  6
Continuous
 62
     0
370
     0
100
AcDbPolyline
 90
        6
 70
     0
 43
0.0
 10
363.805206
 20
484.034668
 10
363.524841
 20
484.049255
 10
363.299103
 20
484.091156
 10
363.134857
 20
484.156677
 10
363.034943
 20
484.240051
 10
362.999329
 20
484.342285
  0
LINE
  5
BC
330
7B
100
AcDbEntity
  8
0
  6
Continuous
 62
     0
370
    30
100
AcDbLine
 10
374.311251
 20
484.534679
 30
0.0
 11
380.981577
 21
484.534679
 31
0.0
  0
LWPOLYLINE
  5
BD
330
7B
100
AcDbEntity
  8
0
  6
Continuous
 62
     0
370
    30
100
AcDbPolyline
 90
       15
 70
     0
 43
0.0
 10
380.981567
 20
484.534668
 10
381.487274
 20
484.548767
 10
381.995361
 20
484.58905
 10
382.491577
 20
484.650604
 10
382.965851
 20
484.727875
 10
383.407959
 20
484.813965
 10
383.810059
 20
484.902283
 10
384.165344
 20
484.98642
 10
384.466797
 20
485.059875
 10
384.708496
 20
485.117218
 10
384.885864
 20
485.153931
 10
384.995331
 20
485.167419
 10
385.033569
 20
485.156525
 10
384.998749
 20
485.121338
 10
384.891449
 20
485.064667
  0
ARC
  5
BE
330
7B
100
AcDbEntity
  8
0
  6
Continuous
 62
     0
370
    30
100
AcDbCircle
 10
381.943291
 20
493.534679
 30
0.0
 40
9.0
100
AcDbArc
 50
288.741663
 51
90.000143
  0
LINE
  5
BF
330
7B
100
AcDbEntity
  8
0
  6
Continuous
 62
     0
370
    30
100
AcDbLine
 10
380.8303
 20
484.536019
 30
0.0
 11
380.981577
 21
484.534679
 31
0.0
  0
LWPOLYLINE
  5
C0
330
7B
100
AcDbEntity
  8
0
  6
Continuous
 62
     0
370
     0
100
AcDbPolyline
 90
        4
 70
     0
 43
0.0
 10
384.943298
 20
484.703247
 10
384.921417
 20
484.69278
 10
384.857391
 20
484.663452
 10
384.714844
 20
484.601868
  0
LWPOLYLINE
  5
C1
330
7B
100
AcDbEntity
  8
0
  6
Continuous
 62
     0
370
     0
100
AcDbPolyline
 90
        7
 70
     0
 43
0.0
 10
182.550095
 20
484.534668
 10
182.254196
 20
484.424896
 10
181.889511
 20
484.310547
 10
181.465256
 20
484.202301
 10
180.991745
 20
484.113739
 10
180.481186
 20
484.055511
 10
179.943298
 20
484.034668
  0
LWPOLYLINE
  5
C2
330
7B
100
AcDbEntity
  8
0
  6
Continuous
 62
     0
370
     0
100
AcDbPolyline
 90
       12
 70
     0
 43
0.0
 10
179.943298
 20
484.034668
 10
179.515106
 20
484.047882
 10
179.096237
 20
484.086365
 10
178.697708
 20
484.146423
 10
178.32579
 20
484.223907
 10
177.986679
 20
484.312836
 10
177.686798
 20
484.406433
 10
177.432373
 20
484.497711
 10
177.227188
 20
484.579071
 10
177.074478
 20
484.643555
 10
176.978851
 20
484.686401
 10
176.943298
 20
484.703247
  0
LINE
  5
C3
330
7B
100
AcDbEntity
  8
0
  6
Continuous
 62
     0
370
     0
100
AcDbLine
 10
179.943291
 20
484.534679
 30
0.0
 11
179.943291
 21
484.034679
 31
0.0
  0
LWPOLYLINE
  5
C4
330
7B
100
AcDbEntity
  8
0
  6
Continuous
 62
     0
370
     0
100
AcDbPolyline
 90
        5
 70
     0
 43
0.0
 10
380.981567
 20
484.534668
 10
381.021454
 20
484.49704
 10
381.055328
 20
484.389771
 10
381.078094
 20
484.229065
 10
381.086334
 20
484.034668
  0
LWPOLYLINE
  5
C5
330
7B
100
AcDbEntity
  8
0
  6
Continuous
 62
     0
370
     0
100
AcDbPolyline
 90
        5
 70
     0
 43
0.0
 10
363.805206
 20
484.034668
 10
363.777679
 20
484.224976
 10
363.699249
 20
484.386658
 10
363.581726
 20
484.495331
 10
363.439514
 20
484.534668
  0
LWPOLYLINE
  5
C6
330
7B
100
AcDbEntity
  8
0
  6
Continuous
 62
     0
370
     0
100
AcDbPolyline
 90
        5
 70
     0
 43
0.0
 10
340.213104
 20
484.034668
 10
340.185577
 20
484.224976
 10
340.107147
 20
484.386658
 10
339.989624
 20
484.495331
 10
339.847412
 20
484.534668
  0
LWPOLYLINE
  5
C7
330
7B
100
AcDbEntity
  8
0
  6
Continuous
 62
     0
370
     0
100
AcDbPolyline
 90
        5
 70
     0
 43
0.0
 10
316.620972
 20
484.034668
 10
316.593445
 20
484.224976
 10
316.515015
 20
484.386658
 10
316.397522
 20
484.495331
 10
316.25531
 20
484.534668
  0
LWPOLYLINE
  5
C8
330
7B
100
AcDbEntity
  8
0
  6
Continuous
 62
     0
370
     0
100
AcDbPolyline
 90
        5
 70
     0
 43
0.0
 10
293.02887
 20
484.034668
 10
293.001343
 20
484.224976
 10
292.922913
 20
484.386658
 10
292.805389
 20
484.495331
 10
292.663177
 20
484.534668
  0
LWPOLYLINE
  5
C9
330
7B
100
AcDbEntity
  8
0
  6
Continuous
 62
     0
370
     0
100
AcDbPolyline
 90
        5
 70
     0
 43
0.0
 10
269.436768
 20
484.034668
 10
269.409241
 20
484.224976
 10
269.330811
 20
484.386658
 10
269.213287
 20
484.495331
 10
269.071075
 20
484.534668
  0
LWPOLYLINE
  5
CA
330
7B
100
AcDbEntity
  8
0
  6
Continuous
 62
     0
370
     0
100
AcDbPolyline
 90
        5
 70
     0
 43
0.0
 10
245.84465
 20
484.034668
 10
245.817123
 20
484.224976
 10
245.738693
 20
484.386658
 10
245.62117
 20
484.495331
 10
245.478973
 20
484.534668
  0
LWPOLYLINE
  5
CB
330
7B
100
AcDbEntity
  8
0
  6
Continuous
 62
     0
370
    30
100
AcDbPolyline
 90
        3
 70
     0
 43
0.0
 10
245.038788
 20
484.339355
 10
245.034149
 20
484.397583
 10
244.982452
 20
484.534668
  0
LWPOLYLINE
  5
CC
330
7B
100
AcDbEntity
  8
0
  6
Continuous
 62
     0
370
    30
100
AcDbPolyline
 90
        5
 70
     0
 43
0.0
 10
251.161346
 20
484.606445
 10
251.148148
 20
484.596863
 10
251.112595
 20
484.560333
 10
251.069534
 20
484.488831
 10
251.038391
 20
484.340149
  0
LWPOLYLINE
  5
CD
330
7B
100
AcDbEntity
  8
0
  6
Continuous
 62
     0
370
    30
100
AcDbPolyline
 90
        3
 70
     0
 43
0.0
 10
268.63089
 20
484.339355
 10
268.626251
 20
484.397583
 10
268.574554
 20
484.534668
  0
LWPOLYLINE
  5
CE
330
7B
100
AcDbEntity
  8
0
  6
Continuous
 62
     0
370
    30
100
AcDbPolyline
 90
        5
 70
     0
 43
0.0
 10
274.753448
 20
484.606445
 10
274.740265
 20
484.596863
 10
274.704712
 20
484.560333
 10
274.661652
 20
484.488831
 10
274.630493
 20
484.340149
  0
LWPOLYLINE
  5
CF
330
7B
100
AcDbEntity
  8
0
  6
Continuous
 62
     0
370
    30
100
AcDbPolyline
 90
        3
 70
     0
 43
0.0
 10
292.223022
 20
484.339355
 10
292.218384
 20
484.397583
 10
292.166687
 20
484.534668
  0
LWPOLYLINE
  5
D0
330
7B
100
AcDbEntity
  8
0
  6
Continuous
 62
     0
370
    30
100
AcDbPolyline
 90
        5
 70
     0
 43
0.0
 10
298.345581
 20
484.606445
 10
298.332367
 20
484.596863
 10
298.296814
 20
484.560333
 10
298.253754
 20
484.488831
 10
298.222626
 20
484.340149
  0
LWPOLYLINE
  5
D1
330
7B
100
AcDbEntity
  8
0
  6
Continuous
 62
     0
370
    30
100
AcDbPolyline
 90
        3
 70
     0
 43
0.0
 10
315.815125
 20
484.339355
 10
315.810486
 20
484.397583
 10
315.758789
 20
484.534668
  0
LWPOLYLINE
  5
D2
330
7B
100
AcDbEntity
  8
0
  6
Continuous
 62
     0
370
    30
100
AcDbPolyline
 90
        5
 70
     0
 43
0.0
 10
321.937683
 20
484.606445
 10
321.924469
 20
484.596863
 10
321.888947
 20
484.560333
 10
321.845886
 20
484.488831
 10
321.814728
 20
484.340149
  0
LWPOLYLINE
  5
D3
330
7B
100
AcDbEntity
  8
0
  6
Continuous
 62
     0
370
    30
100
AcDbPolyline
 90
        3
 70
     0
 43
0.0
 10
339.407227
 20
484.339355
 10
339.402588
 20
484.397583
 10
339.350891
 20
484.534668
  0
LWPOLYLINE
  5
D4
330
7B
100
AcDbEntity
  8
0
  6
Continuous
 62
     0
370
    30
100
AcDbPolyline
 90
        5
 70
     0
 43
0.0
 10
345.529785
 20
484.606445
 10
345.516602
 20
484.596863
 10
345.481049
 20
484.560333
 10
345.437988
 20
484.488831
 10
345.40683
 20
484.340149
  0
LWPOLYLINE
  5
D5
330
7B
100
AcDbEntity
  8
0
  6
Continuous
 62
     0
370
    30
100
AcDbPolyline
 90
        3
 70
     0
 43
0.0
 10
362.999359
 20
484.339355
 10
362.99472
 20
484.397583
 10
362.942993
 20
484.534668
  0
LWPOLYLINE
  5
D6
330
7B
100
AcDbEntity
  8
0
  6
Continuous
 62
     0
370
    30
100
AcDbPolyline
 90
        5
 70
     0
 43
0.0
 10
369.121918
 20
484.606445
 10
369.108704
 20
484.596863
 10
369.073151
 20
484.560333
 10
369.03009
 20
484.488831
 10
368.998962
 20
484.340149
  0
LWPOLYLINE
  5
D7
330
7B
100
AcDbEntity
  8
0
  6
Continuous
 62
     0
370
    30
100
AcDbPolyline
 90
        6
 70
     0
 43
0.0
 10
384.71463
 20
484.693085
 10
384.735901
 20
484.834045
 10
384.791168
 20
484.953613
 10
384.85434
 20
485.032227
 10
384.894653
 20
485.067078
 10
384.908997
 20
485.076935
  0
ARC
  5
D8
330
7B
100
AcDbEntity
  8
0
  6
Continuous
 62
     0
370
    30
100
AcDbCircle
 10
385.443266
 20
484.702896
 30
0.0
 40
0.4999957638044463
100
AcDbArc
 50
111.618034
 51
179.963584
  0
ARC
  5
D9
330
7B
100
AcDbEntity
  8
0
  6
Continuous
 62
     0
370
    30
100
AcDbCircle
 10
176.443316
 20
484.702895
 30
0.0
 40
0.499995715016723
100
AcDbArc
 50
0.036434
 51
68.381954
  0
LINE
  5
DA
330
7B
100
AcDbEntity
  8
0
  6
Continuous
 62
     0
370
    30
100
AcDbLine
 10
176.943291
 20
458.534679
 30
0.0
 11
176.943291
 21
484.703236
 31
0.0
  0
LINE
  5
DB
330
7B
100
AcDbEntity
  8
0
  6
Continuous
 62
     0
370
    30
100
AcDbLine
 10
182.943291
 20
458.534679
 30
0.0
 11
182.943291
 21
484.534679
 31
0.0
  0
LINE
  5
DC
330
7B
100
AcDbEntity
  8
0
  6
Continuous
 62
     0
370
    30
100
AcDbLine
 10
384.943291
 20
484.703239
 30
0.0
 11
384.943291
 21
458.534679
 31
0.0
  0
LINE
  5
DD
330
7B
100
AcDbEntity
  8
0
  6
Continuous
 62
     0
370
    30
100
AcDbLine
 10
374.311251
 20
502.534679
 30
0.0
 11
381.943291
 21
502.534679
 31
0.0
  0
LINE
  5
DE
330
7B
100
AcDbEntity
  8
0
  6
Continuous
 62
     0
370
    30
100
AcDbLine
 10
368.999262
 20
484.33918
 30
0.0
 11
368.999262
 21
458.534679
 31
0.0
  0
LINE
  5
DF
330
7B
100
AcDbEntity
  8
0
  6
Continuous
 62
     0
370
    30
100
AcDbLine
 10
362.999262
 20
484.339571
 30
0.0
 11
362.999262
 21
458.534679
 31
0.0
  0
LINE
  5
E0
330
7B
100
AcDbEntity
  8
0
  6
Continuous
 62
     0
370
    30
100
AcDbLine
 10
345.40715
 20
484.33918
 30
0.0
 11
345.40715
 21
458.534679
 31
0.0
  0
LINE
  5
E1
330
7B
100
AcDbEntity
  8
0
  6
Continuous
 62
     0
370
    30
100
AcDbLine
 10
339.40715
 20
484.339571
 30
0.0
 11
339.40715
 21
458.534679
 31
0.0
  0
LINE
  5
E2
330
7B
100
AcDbEntity
  8
0
  6
Continuous
 62
     0
370
    30
100
AcDbLine
 10
321.815039
 20
484.33918
 30
0.0
 11
321.815039
 21
458.534679
 31
0.0
  0
LINE
  5
E3
330
7B
100
AcDbEntity
  8
0
  6
Continuous
 62
     0
370
    30
100
AcDbLine
 10
315.815039
 20
484.339571
 30
0.0
 11
315.815039
 21
458.534679
 31
0.0
  0
LINE
  5
E4
330
7B
100
AcDbEntity
  8
0
  6
Continuous
 62
     0
370
    30
100
AcDbLine
 10
298.222927
 20
484.33918
 30
0.0
 11
298.222927
 21
458.534679
 31
0.0
  0
LINE
  5
E5
330
7B
100
AcDbEntity
  8
0
  6
Continuous
 62
     0
370
    30
100
AcDbLine
 10
292.222927
 20
484.339571
 30
0.0
 11
292.222927
 21
458.534679
 31
0.0
  0
LINE
  5
E6
330
7B
100
AcDbEntity
  8
0
  6
Continuous
 62
     0
370
    30
100
AcDbLine
 10
274.630815
 20
484.33918
 30
0.0
 11
274.630815
 21
458.534679
 31
0.0
  0
LINE
  5
E7
330
7B
100
AcDbEntity
  8
0
  6
Continuous
 62
     0
370
    30
100
AcDbLine
 10
268.630815
 20
484.339571
 30
0.0
 11
268.630815
 21
458.534679
 31
0.0
  0
LINE
  5
E8
330
7B
100
AcDbEntity
  8
0
  6
Continuous
 62
     0
370
    30
100
AcDbLine
 10
374.311251
 20
502.534679
 30
0.0
 11
220.311251
 21
502.534679
 31
0.0
  0
LINE
  5
E9
330
7B
100
AcDbEntity
  8
0
  6
Continuous
 62
     0
370
    30
100
AcDbLine
 10
251.038704
 20
484.33918
 30
0.0
 11
251.038704
 21
458.534679
 31
0.0
  0
LINE
  5
EA
330
7B
100
AcDbEntity
  8
0
  6
Continuous
 62
     0
370
    30
100
AcDbLine
 10
245.038704
 20
484.339571
 30
0.0
 11
245.038704
 21
458.534679
 31
0.0
  0
LINE
  5
EB
330
7B
100
AcDbEntity
  8
0
  6
Continuous
 62
     0
370
    30
100
AcDbLine
 10
384.714841
 20
484.69127
 30
0.0
 11
384.714841
 21
458.534679
 31
0.0
  0
LINE
  5
EC
330
7B
100
AcDbEntity
  8
0
  6
Continuous
 62
     0
370
    30
100
AcDbLine
 10
378.714841
 20
484.534679
 30
0.0
 11
378.714841
 21
458.534679
 31
0.0
  0
ARC
  5
ED
330
7B
100
AcDbEntity
  8
0
  6
Continuous
 62
     0
370
    30
100
AcDbCircle
 10
235.038691
 20
458.534693
 30
0.0
 40
10.00001317532276
100
AcDbArc
 50
270.000075
 51
359.999925
  0
ARC
  5
EE
330
7B
100
AcDbEntity
  8
0
  6
Continuous
 62
     0
370
    30
100
AcDbCircle
 10
235.0387
 20
458.534683
 30
0.0
 40
16.00000347626587
100
AcDbArc
 50
270.000012
 51
359.999988
  0
LINE
  5
EF
330
7B
100
AcDbEntity
  8
0
  6
Continuous
 62
     0
370
    30
100
AcDbLine
 10
235.038704
 20
442.534679
 30
0.0
 11
192.943291
 21
442.534679
 31
0.0
  0
LINE
  5
F0
330
7B
100
AcDbEntity
  8
0
  6
Continuous
 62
     0
370
    30
100
AcDbLine
 10
235.038704
 20
448.534679
 30
0.0
 11
192.943291
 21
448.534679
 31
0.0
  0
ARC
  5
F1
330
7B
100
AcDbEntity
  8
0
  6
Continuous
 62
     0
370
    30
100
AcDbCircle
 10
192.943294
 20
458.534683
 30
0.0
 40
16.00000347626553
100
AcDbArc
 50
180.000012
 51
269.999988
  0
ARC
  5
F2
330
7B
100
AcDbEntity
  8
0
  6
Continuous
 62
     0
370
    30
100
AcDbCircle
 10
192.943304
 20
458.534693
 30
0.0
 40
10.00001317532277
100
AcDbArc
 50
180.000075
 51
269.999925
  0
ARC
  5
F3
330
7B
100
AcDbEntity
  8
0
  6
Continuous
 62
     0
370
    30
100
AcDbCircle
 10
258.630812
 20
458.534683
 30
0.0
 40
16.00000347626612
100
AcDbArc
 50
270.000012
 51
359.999988
  0
ARC
  5
F4
330
7B
100
AcDbEntity
  8
0
  6
Continuous
 62
     0
370
    30
100
AcDbCircle
 10
258.630802
 20
458.534693
 30
0.0
 40
10.00001317532353
100
AcDbArc
 50
270.000075
 51
359.999925
  0
LINE
  5
F5
330
7B
100
AcDbEntity
  8
0
  6
Continuous
 62
     0
370
    30
100
AcDbLine
 10
258.630815
 20
442.534679
 30
0.0
 11
235.038704
 21
442.534679
 31
0.0
  0
LINE
  5
F6
330
7B
100
AcDbEntity
  8
0
  6
Continuous
 62
     0
370
    30
100
AcDbLine
 10
258.630815
 20
448.534679
 30
0.0
 11
247.528645
 21
448.534679
 31
0.0
  0
ARC
  5
F7
330
7B
100
AcDbEntity
  8
0
  6
Continuous
 62
     0
370
    30
100
AcDbCircle
 10
282.222924
 20
458.534683
 30
0.0
 40
16.00000347626645
100
AcDbArc
 50
270.000012
 51
359.999988
  0
ARC
  5
F8
330
7B
100
AcDbEntity
  8
0
  6
Continuous
 62
     0
370
    30
100
AcDbCircle
 10
282.222914
 20
458.534693
 30
0.0
 40
10.00001317532299
100
AcDbArc
 50
270.000075
 51
359.999925
  0
LINE
  5
F9
330
7B
100
AcDbEntity
  8
0
  6
Continuous
 62
     0
370
    30
100
AcDbLine
 10
282.222927
 20
442.534679
 30
0.0
 11
258.630815
 21
442.534679
 31
0.0
  0
LINE
  5
FA
330
7B
100
AcDbEntity
  8
0
  6
Continuous
 62
     0
370
    30
100
AcDbLine
 10
282.222927
 20
448.534679
 30
0.0
 11
271.120757
 21
448.534679
 31
0.0
  0
ARC
  5
FB
330
7B
100
AcDbEntity
  8
0
  6
Continuous
 62
     0
370
    30
100
AcDbCircle
 10
305.815035
 20
458.534683
 30
0.0
 40
16.00000347626628
100
AcDbArc
 50
270.000012
 51
359.999988
  0
ARC
  5
FC
330
7B
100
AcDbEntity
  8
0
  6
Continuous
 62
     0
370
    30
100
AcDbCircle
 10
305.815025
 20
458.534693
 30
0.0
 40
10.00001317532301
100
AcDbArc
 50
270.000075
 51
359.999925
  0
LINE
  5
FD
330
7B
100
AcDbEntity
  8
0
  6
Continuous
 62
     0
370
    30
100
AcDbLine
 10
305.815039
 20
442.534679
 30
0.0
 11
282.222927
 21
442.534679
 31
0.0
  0
LINE
  5
FE
330
7B
100
AcDbEntity
  8
0
  6
Continuous
 62
     0
370
    30
100
AcDbLine
 10
305.815039
 20
448.534679
 30
0.0
 11
294.712868
 21
448.534679
 31
0.0
  0
ARC
  5
FF
330
7B
100
AcDbEntity
  8
0
  6
Continuous
 62
     0
370
    30
100
AcDbCircle
 10
329.407147
 20
458.534683
 30
0.0
 40
16.00000347626635
100
AcDbArc
 50
270.000012
 51
359.999988
  0
ARC
  5
100
330
7B
100
AcDbEntity
  8
0
  6
Continuous
 62
     0
370
    30
100
AcDbCircle
 10
329.407137
 20
458.534693
 30
0.0
 40
10.00001317532308
100
AcDbArc
 50
270.000075
 51
359.999925
  0
LINE
  5
101
330
7B
100
AcDbEntity
  8
0
  6
Continuous
 62
     0
370
    30
100
AcDbLine
 10
329.40715
 20
442.534679
 30
0.0
 11
305.815039
 21
442.534679
 31
0.0
  0
LINE
  5
102
330
7B
100
AcDbEntity
  8
0
  6
Continuous
 62
     0
370
    30
100
AcDbLine
 10
329.40715
 20
448.534679
 30
0.0
 11
318.30498
 21
448.534679
 31
0.0
  0
ARC
  5
103
330
7B
100
AcDbEntity
  8
0
  6
Continuous
 62
     0
370
    30
100
AcDbCircle
 10
352.999258
 20
458.534683
 30
0.0
 40
16.00000347626623
100
AcDbArc
 50
270.000012
 51
359.999988
  0
ARC
  5
104
330
7B
100
AcDbEntity
  8
0
  6
Continuous
 62
     0
370
    30
100
AcDbCircle
 10
352.999249
 20
458.534693
 30
0.0
 40
10.00001317532324
100
AcDbArc
 50
270.000075
 51
359.999925
  0
LINE
  5
105
330
7B
100
AcDbEntity
  8
0
  6
Continuous
 62
     0
370
    30
100
AcDbLine
 10
352.999262
 20
442.534679
 30
0.0
 11
329.40715
 21
442.534679
 31
0.0
  0
LINE
  5
106
330
7B
100
AcDbEntity
  8
0
  6
Continuous
 62
     0
370
    30
100
AcDbLine
 10
352.999262
 20
448.534679
 30
0.0
 11
341.897092
 21
448.534679
 31
0.0
  0
ARC
  5
107
330
7B
100
AcDbEntity
  8
0
  6
Continuous
 62
     0
370
    30
100
AcDbCircle
 10
368.714837
 20
458.534683
 30
0.0
 40
16.0000034762663
100
AcDbArc
 50
270.000012
 51
359.999988
  0
ARC
  5
108
330
7B
100
AcDbEntity
  8
0
  6
Continuous
 62
     0
370
    30
100
AcDbCircle
 10
368.714828
 20
458.534693
 30
0.0
 40
10.00001317532309
100
AcDbArc
 50
270.000075
 51
359.999925
  0
LINE
  5
109
330
7B
100
AcDbEntity
  8
0
  6
Continuous
 62
     0
370
    30
100
AcDbLine
 10
368.714841
 20
442.534679
 30
0.0
 11
352.999262
 21
442.534679
 31
0.0
  0
LINE
  5
10A
330
7B
100
AcDbEntity
  8
0
  6
Continuous
 62
     0
370
    30
100
AcDbLine
 10
368.714841
 20
448.534679
 30
0.0
 11
365.489203
 21
448.534679
 31
0.0
  0
ARC
  5
10B
330
7B
100
AcDbEntity
  8
0
  6
Continuous
 62
     0
370
    30
100
AcDbCircle
 10
368.943287
 20
458.534683
 30
0.0
 40
16.00000347626624
100
AcDbArc
 50
270.000012
 51
359.999988
  0
LINE
  5
10C
330
7B
100
AcDbEntity
  8
0
  6
Continuous
 62
     0
370
    30
100
AcDbLine
 10
220.311251
 20
502.534679
 30
0.0
 11
179.943291
 21
502.534679
 31
0.0
  0
ENDBLK
  5
10E
330
7B
100
AcDbEntity
  8
0
100
AcDbBlockEnd
  0
BLOCK
  5
160
330
110
100
AcDbEntity
  8
0
100
AcDbBlockBegin
  2
b
 70
     0
 10
140.56308
 20
141.616913
 30
0.0
  3
b
  1

  0
LWPOLYLINE
  5
111
330
110
100
AcDbEntity
  8
0
  6
Continuous
 62
     0
370
     0
100
AcDbPolyline
 90
       18
 70
     0
 43
0.0
 10
226.449219
 20
153.321732
 10
226.427292
 20
153.345245
 10
226.358841
 20
153.418655
 10
226.240448
 20
153.545609
 10
226.069656
 20
153.72876
 10
225.8452
 20
153.969467
 10
225.567215
 20
154.267563
 10
225.23735
 20
154.621292
 10
224.858841
 20
155.027191
 10
224.436371
 20
155.48024
 10
223.975922
 20
155.97403
 10
223.484467
 20
156.501038
 10
222.969696
 20
157.05307
 10
222.439529
 20
157.621597
 10
221.901825
 20
158.198212
 10
221.364044
 20
158.774918
 10
220.832932
 20
159.344452
 10
220.311234
 20
159.903915
  0
LINE
  5
112
330
110
100
AcDbEntity
  8
0
  6
Continuous
 62
     0
370
     0
100
AcDbLine
 10
220.311236
 20
159.903911
 30
0.0
 11
214.173251
 21
166.486095
 31
0.0
  0
LINE
  5
113
330
110
100
AcDbEntity
  8
0
  6
Continuous
 62
     0
370
     0
100
AcDbLine
 10
188.943275
 20
177.456401
 30
0.0
 11
179.943275
 21
177.4564
 31
0.0
  0
LINE
  5
114
330
110
100
AcDbEntity
  8
0
  6
Continuous
 62
     0
370
     0
100
AcDbLine
 10
179.943275
 20
177.4564
 30
0.0
 11
170.943275
 21
177.456401
 31
0.0
  0
LINE
  5
115
330
110
100
AcDbEntity
  8
0
  6
Continuous
 62
     0
370
    30
100
AcDbLine
 10
188.943275
 20
342.760182
 30
0.0
 11
192.943275
 21
342.760182
 31
0.0
  0
LWPOLYLINE
  5
116
330
110
100
AcDbEntity
  8
0
  6
Continuous
 62
     0
370
     0
100
AcDbPolyline
 90
       21
 70
     0
 43
0.0
 10
192.943268
 20
336.760193
 10
192.943268
 20
336.791779
 10
192.943268
 20
336.892242
 10
192.943268
 20
337.06723
 10
192.943268
 20
337.3172
 10
192.943268
 20
337.636566
 10
192.943268
 20
338.013702
 10
192.943268
 20
338.432404
 10
192.943268
 20
338.874084
 10
192.943268
 20
339.320221
 10
192.943283
 20
339.754639
 10
192.943268
 20
340.188568
 10
192.943268
 20
340.634613
 10
192.943268
 20
341.07663
 10
192.943268
 20
341.496155
 10
192.943268
 20
341.874603
 10
192.943268
 20
342.195648
 10
192.943268
 20
342.44754
 10
192.943268
 20
342.624512
 10
192.943283
 20
342.726868
 10
192.943268
 20
342.760193
  0
LINE
  5
117
330
110
100
AcDbEntity
  8
0
  6
Continuous
 62
     0
370
    30
100
AcDbLine
 10
192.943275
 20
342.760182
 30
0.0
 11
368.943275
 21
342.760182
 31
0.0
  0
LINE
  5
118
330
110
100
AcDbEntity
  8
0
  6
Continuous
 62
     0
370
     0
100
AcDbLine
 10
368.943275
 20
336.760182
 30
0.0
 11
368.943275
 21
342.760182
 31
0.0
  0
LINE
  5
119
330
110
100
AcDbEntity
  8
0
  6
Continuous
 62
     0
370
    30
100
AcDbLine
 10
368.943275
 20
342.760182
 30
0.0
 11
372.943275
 21
342.760182
 31
0.0
  0
LINE
  5
11A
330
110
100
AcDbEntity
  8
0
  6
Continuous
 62
     0
370
    30
100
AcDbLine
 10
188.943275
 20
320.760182
 30
0.0
 11
192.943275
 21
320.760182
 31
0.0
  0
LWPOLYLINE
  5
11B
330
110
100
AcDbEntity
  8
0
  6
Continuous
 62
     0
370
     0
100
AcDbPolyline
 90
       21
 70
     0
 43
0.0
 10
192.943268
 20
314.760193
 10
192.943268
 20
314.791779
 10
192.943268
 20
314.892242
 10
192.943268
 20
315.06723
 10
192.943268
 20
315.3172
 10
192.943268
 20
315.636566
 10
192.943268
 20
316.013702
 10
192.943268
 20
316.432404
 10
192.943268
 20
316.874084
 10
192.943268
 20
317.320221
 10
192.943283
 20
317.754639
 10
192.943268
 20
318.188568
 10
192.943268
 20
318.634613
 10
192.943268
 20
319.07663
 10
192.943268
 20
319.496155
 10
192.943268
 20
319.874603
 10
192.943268
 20
320.195648
 10
192.943268
 20
320.44754
 10
192.943268
 20
320.624512
 10
192.943283
 20
320.726868
 10
192.943268
 20
320.760193
  0
LINE
  5
11C
330
110
100
AcDbEntity
  8
0
  6
Continuous
 62
     0
370
    30
100
AcDbLine
 10
192.943275
 20
320.760182
 30
0.0
 11
368.714826
 21
320.760182
 31
0.0
  0
LINE
  5
11D
330
110
100
AcDbEntity
  8
0
  6
Continuous
 62
     0
370
     0
100
AcDbLine
 10
368.714826
 20
314.760182
 30
0.0
 11
368.714826
 21
320.760182
 31
0.0
  0
LINE
  5
11E
330
110
100
AcDbEntity
  8
0
  6
Continuous
 62
     0
370
    30
100
AcDbLine
 10
368.714826
 20
320.760182
 30
0.0
 11
372.940194
 21
320.760182
 31
0.0
  0
LINE
  5
11F
330
110
100
AcDbEntity
  8
0
  6
Continuous
 62
     0
370
    30
100
AcDbLine
 10
188.943275
 20
298.760182
 30
0.0
 11
192.943275
 21
298.760182
 31
0.0
  0
LWPOLYLINE
  5
120
330
110
100
AcDbEntity
  8
0
  6
Continuous
 62
     0
370
     0
100
AcDbPolyline
 90
       21
 70
     0
 43
0.0
 10
192.943268
 20
292.760193
 10
192.943268
 20
292.791779
 10
192.943268
 20
292.892242
 10
192.943268
 20
293.06723
 10
192.943268
 20
293.3172
 10
192.943268
 20
293.636566
 10
192.943268
 20
294.013702
 10
192.943268
 20
294.432404
 10
192.943268
 20
294.874084
 10
192.943268
 20
295.320221
 10
192.943283
 20
295.754639
 10
192.943268
 20
296.188568
 10
192.943268
 20
296.634613
 10
192.943268
 20
297.07663
 10
192.943268
 20
297.496155
 10
192.943268
 20
297.874603
 10
192.943268
 20
298.195648
 10
192.943268
 20
298.44754
 10
192.943268
 20
298.624512
 10
192.943268
 20
298.726868
 10
192.943268
 20
298.760193
  0
LINE
  5
121
330
110
100
AcDbEntity
  8
0
  6
Continuous
 62
     0
370
    30
100
AcDbLine
 10
192.943275
 20
298.760182
 30
0.0
 11
352.999247
 21
298.760182
 31
0.0
  0
LINE
  5
122
330
110
100
AcDbEntity
  8
0
  6
Continuous
 62
     0
370
     0
100
AcDbLine
 10
352.999247
 20
295.943433
 30
0.0
 11
352.999247
 21
298.760182
 31
0.0
  0
LINE
  5
123
330
110
100
AcDbEntity
  8
0
  6
Continuous
 62
     0
370
    30
100
AcDbLine
 10
352.999247
 20
298.760182
 30
0.0
 11
356.01984
 21
298.760182
 31
0.0
  0
LINE
  5
124
330
110
100
AcDbEntity
  8
0
  6
Continuous
 62
     0
370
    30
100
AcDbLine
 10
188.943275
 20
276.760182
 30
0.0
 11
192.943275
 21
276.760182
 31
0.0
  0
LWPOLYLINE
  5
125
330
110
100
AcDbEntity
  8
0
  6
Continuous
 62
     0
370
     0
100
AcDbPolyline
 90
       21
 70
     0
 43
0.0
 10
192.943268
 20
270.760193
 10
192.943268
 20
270.791779
 10
192.943268
 20
270.892242
 10
192.943268
 20
271.06723
 10
192.943268
 20
271.3172
 10
192.943268
 20
271.636566
 10
192.943268
 20
272.013702
 10
192.943268
 20
272.432404
 10
192.943268
 20
272.874084
 10
192.943268
 20
273.320221
 10
192.943268
 20
273.754639
 10
192.943268
 20
274.188568
 10
192.943268
 20
274.634613
 10
192.943268
 20
275.07663
 10
192.943268
 20
275.496155
 10
192.943268
 20
275.874603
 10
192.943268
 20
276.195648
 10
192.943268
 20
276.44754
 10
192.943268
 20
276.624512
 10
192.943268
 20
276.726868
 10
192.943268
 20
276.760193
  0
LINE
  5
126
330
110
100
AcDbEntity
  8
0
  6
Continuous
 62
     0
370
    30
100
AcDbLine
 10
192.943275
 20
276.760182
 30
0.0
 11
329.407135
 21
276.760182
 31
0.0
  0
LINE
  5
127
330
110
100
AcDbEntity
  8
0
  6
Continuous
 62
     0
370
     0
100
AcDbLine
 10
329.407135
 20
273.943433
 30
0.0
 11
329.407135
 21
276.760182
 31
0.0
  0
LINE
  5
128
330
110
100
AcDbEntity
  8
0
  6
Continuous
 62
     0
370
    30
100
AcDbLine
 10
329.407135
 20
276.760182
 30
0.0
 11
332.427728
 21
276.760182
 31
0.0
  0
LINE
  5
129
330
110
100
AcDbEntity
  8
0
  6
Continuous
 62
     0
370
    30
100
AcDbLine
 10
188.943275
 20
254.760182
 30
0.0
 11
192.943275
 21
254.760182
 31
0.0
  0
LWPOLYLINE
  5
12A
330
110
100
AcDbEntity
  8
0
  6
Continuous
 62
     0
370
     0
100
AcDbPolyline
 90
       21
 70
     0
 43
0.0
 10
192.943268
 20
248.760178
 10
192.943268
 20
248.791763
 10
192.943268
 20
248.892227
 10
192.943268
 20
249.067215
 10
192.943268
 20
249.3172
 10
192.943268
 20
249.636566
 10
192.943268
 20
250.013718
 10
192.943268
 20
250.432419
 10
192.943268
 20
250.874069
 10
192.943268
 20
251.320221
 10
192.943268
 20
251.754639
 10
192.943268
 20
252.188583
 10
192.943268
 20
252.634613
 10
192.943268
 20
253.076614
 10
192.943268
 20
253.496155
 10
192.943268
 20
253.874619
 10
192.943268
 20
254.195648
 10
192.943268
 20
254.447556
 10
192.943268
 20
254.624527
 10
192.943268
 20
254.726883
 10
192.943268
 20
254.760178
  0
LINE
  5
12B
330
110
100
AcDbEntity
  8
0
  6
Continuous
 62
     0
370
    30
100
AcDbLine
 10
192.943275
 20
254.760182
 30
0.0
 11
305.815023
 21
254.760182
 31
0.0
  0
LINE
  5
12C
330
110
100
AcDbEntity
  8
0
  6
Continuous
 62
     0
370
     0
100
AcDbLine
 10
305.815023
 20
251.943433
 30
0.0
 11
305.815023
 21
254.760182
 31
0.0
  0
LINE
  5
12D
330
110
100
AcDbEntity
  8
0
  6
Continuous
 62
     0
370
    30
100
AcDbLine
 10
305.815023
 20
254.760182
 30
0.0
 11
308.835617
 21
254.760182
 31
0.0
  0
LINE
  5
12E
330
110
100
AcDbEntity
  8
0
  6
Continuous
 62
     0
370
    30
100
AcDbLine
 10
188.943275
 20
232.760182
 30
0.0
 11
192.943275
 21
232.760182
 31
0.0
  0
LWPOLYLINE
  5
12F
330
110
100
AcDbEntity
  8
0
  6
Continuous
 62
     0
370
     0
100
AcDbPolyline
 90
       21
 70
     0
 43
0.0
 10
192.943268
 20
226.760178
 10
192.943283
 20
226.791763
 10
192.943268
 20
226.892227
 10
192.943268
 20
227.067215
 10
192.943268
 20
227.3172
 10
192.943268
 20
227.636566
 10
192.943268
 20
228.013718
 10
192.943268
 20
228.432419
 10
192.943268
 20
228.874069
 10
192.943268
 20
229.320221
 10
192.943283
 20
229.754639
 10
192.943268
 20
230.188583
 10
192.943268
 20
230.634613
 10
192.943268
 20
231.076614
 10
192.943268
 20
231.496155
 10
192.943268
 20
231.874619
 10
192.943268
 20
232.195648
 10
192.943268
 20
232.447556
 10
192.943268
 20
232.624527
 10
192.943268
 20
232.726883
 10
192.943268
 20
232.760178
  0
LINE
  5
130
330
110
100
AcDbEntity
  8
0
  6
Continuous
 62
     0
370
    30
100
AcDbLine
 10
192.943275
 20
232.760182
 30
0.0
 11
282.222912
 21
232.760182
 31
0.0
  0
LINE
  5
131
330
110
100
AcDbEntity
  8
0
  6
Continuous
 62
     0
370
     0
100
AcDbLine
 10
282.222912
 20
229.943433
 30
0.0
 11
282.222912
 21
232.760182
 31
0.0
  0
LINE
  5
132
330
110
100
AcDbEntity
  8
0
  6
Continuous
 62
     0
370
    30
100
AcDbLine
 10
282.222912
 20
232.760182
 30
0.0
 11
285.243505
 21
232.760182
 31
0.0
  0
LINE
  5
133
330
110
100
AcDbEntity
  8
0
  6
Continuous
 62
     0
370
    30
100
AcDbLine
 10
188.943275
 20
210.760182
 30
0.0
 11
192.943275
 21
210.760182
 31
0.0
  0
LWPOLYLINE
  5
134
330
110
100
AcDbEntity
  8
0
  6
Continuous
 62
     0
370
     0
100
AcDbPolyline
 90
       21
 70
     0
 43
0.0
 10
192.943268
 20
204.760178
 10
192.943268
 20
204.791763
 10
192.943268
 20
204.892227
 10
192.943268
 20
205.067215
 10
192.943268
 20
205.3172
 10
192.943268
 20
205.636566
 10
192.943268
 20
206.013718
 10
192.943268
 20
206.432419
 10
192.943268
 20
206.874069
 10
192.943268
 20
207.320221
 10
192.943283
 20
207.754639
 10
192.943268
 20
208.188583
 10
192.943268
 20
208.634613
 10
192.943268
 20
209.076614
 10
192.943268
 20
209.496155
 10
192.943268
 20
209.874619
 10
192.943268
 20
210.195648
 10
192.943268
 20
210.447556
 10
192.943268
 20
210.624527
 10
192.943268
 20
210.726883
 10
192.943268
 20
210.760178
  0
LINE
  5
135
330
110
100
AcDbEntity
  8
0
  6
Continuous
 62
     0
370
    30
100
AcDbLine
 10
192.943275
 20
210.760182
 30
0.0
 11
258.6308
 21
210.760182
 31
0.0
  0
LINE
  5
136
330
110
100
AcDbEntity
  8
0
  6
Continuous
 62
     0
370
     0
100
AcDbLine
 10
258.6308
 20
207.943433
 30
0.0
 11
258.6308
 21
210.760182
 31
0.0
  0
LINE
  5
137
330
110
100
AcDbEntity
  8
0
  6
Continuous
 62
     0
370
    30
100
AcDbLine
 10
258.6308
 20
210.760182
 30
0.0
 11
261.651394
 21
210.760182
 31
0.0
  0
LINE
  5
138
330
110
100
AcDbEntity
  8
0
  6
Continuous
 62
     0
370
    30
100
AcDbLine
 10
188.943275
 20
188.760182
 30
0.0
 11
192.943275
 21
188.760182
 31
0.0
  0
LWPOLYLINE
  5
139
330
110
100
AcDbEntity
  8
0
  6
Continuous
 62
     0
370
     0
100
AcDbPolyline
 90
       21
 70
     0
 43
0.0
 10
192.943268
 20
182.760178
 10
192.943268
 20
182.791763
 10
192.943268
 20
182.892227
 10
192.943268
 20
183.067215
 10
192.943268
 20
183.3172
 10
192.943268
 20
183.636566
 10
192.943268
 20
184.013718
 10
192.943268
 20
184.432419
 10
192.943268
 20
184.874069
 10
192.943268
 20
185.320221
 10
192.943283
 20
185.754639
 10
192.943268
 20
186.188583
 10
192.943268
 20
186.634613
 10
192.943268
 20
187.076614
 10
192.943268
 20
187.496155
 10
192.943268
 20
187.874619
 10
192.943268
 20
188.195648
 10
192.943268
 20
188.447556
 10
192.943268
 20
188.624527
 10
192.943268
 20
188.726883
 10
192.943268
 20
188.760178
  0
LINE
  5
13A
330
110
100
AcDbEntity
  8
0
  6
Continuous
 62
     0
370
    30
100
AcDbLine
 10
192.943275
 20
188.760182
 30
0.0
 11
235.038689
 21
188.760182
 31
0.0
  0
LINE
  5
13B
330
110
100
AcDbEntity
  8
0
  6
Continuous
 62
     0
370
     0
100
AcDbLine
 10
235.038689
 20
185.943433
 30
0.0
 11
235.038689
 21
188.760182
 31
0.0
  0
LINE
  5
13C
330
110
100
AcDbEntity
  8
0
  6
Continuous
 62
     0
370
    30
100
AcDbLine
 10
235.038689
 20
188.760182
 30
0.0
 11
238.059282
 21
188.760182
 31
0.0
  0
LINE
  5
13D
330
110
100
AcDbEntity
  8
0
  6
Continuous
 62
     0
370
     0
100
AcDbLine
 10
380.449221
 20
296.929052
 30
0.0
 11
374.311236
 21
303.511235
 31
0.0
  0
LINE
  5
13E
330
110
100
AcDbEntity
  8
0
  6
Continuous
 62
     0
370
     0
100
AcDbLine
 10
374.311236
 20
303.511235
 30
0.0
 11
368.173251
 21
310.093418
 31
0.0
  0
LINE
  5
13F
330
110
100
AcDbEntity
  8
0
  6
Continuous
 62
     0
370
     0
100
AcDbLine
 10
372.943275
 20
321.063724
 30
0.0
 11
390.943275
 21
321.063724
 31
0.0
  0
LINE
  5
140
330
110
100
AcDbEntity
  8
0
  6
Continuous
 62
     0
370
    30
100
AcDbLine
 10
188.943275
 20
367.26018
 30
0.0
 11
179.943275
 21
367.26018
 31
0.0
  0
LINE
  5
141
330
110
100
AcDbEntity
  8
0
  6
Continuous
 62
     0
370
    30
100
AcDbLine
 10
179.943275
 20
367.26018
 30
0.0
 11
170.943275
 21
367.26018
 31
0.0
  0
LINE
  5
142
330
110
100
AcDbEntity
  8
0
  6
Continuous
 62
     0
370
    30
100
AcDbLine
 10
390.943275
 20
367.26018
 30
0.0
 11
381.943275
 21
367.26018
 31
0.0
  0
LINE
  5
143
330
110
100
AcDbEntity
  8
0
  6
Continuous
 62
     0
370
    30
100
AcDbLine
 10
381.943275
 20
367.26018
 30
0.0
 11
372.943275
 21
367.26018
 31
0.0
  0
LINE
  5
144
330
110
100
AcDbEntity
  8
0
  6
Continuous
 62
     0
370
    30
100
AcDbLine
 10
372.943275
 20
321.063724
 30
0.0
 11
372.943275
 21
367.26018
 31
0.0
  0
LINE
  5
145
330
110
100
AcDbEntity
  8
0
  6
Continuous
 62
     0
370
    30
100
AcDbLine
 10
390.943275
 20
321.063724
 30
0.0
 11
390.943275
 21
367.26018
 31
0.0
  0
LINE
  5
146
330
110
100
AcDbEntity
  8
0
  6
Continuous
 62
     0
370
    30
100
AcDbLine
 10
170.943275
 20
177.456401
 30
0.0
 11
170.943275
 21
367.26018
 31
0.0
  0
LINE
  5
147
330
110
100
AcDbEntity
  8
0
  6
Continuous
 62
     0
370
    30
100
AcDbLine
 10
188.943275
 20
177.456401
 30
0.0
 11
188.943275
 21
367.26018
 31
0.0
  0
ARC
  5
148
330
110
100
AcDbEntity
  8
0
  6
Continuous
 62
     0
370
    30
100
AcDbCircle
 10
357.942941
 20
321.063869
 30
0.0
 40
15.00033402189703
100
AcDbArc
 50
313.000555
 51
359.999445
  0
ARC
  5
149
330
110
100
AcDbEntity
  8
0
  6
Continuous
 62
     0
370
    30
100
AcDbCircle
 10
357.94327
 20
321.063726
 30
0.0
 40
33.00000500390938
100
AcDbArc
 50
313.000004
 51
359.999996
  0
LINE
  5
14A
330
110
100
AcDbEntity
  8
0
  6
Continuous
 62
     0
370
    30
100
AcDbLine
 10
380.449221
 20
296.929052
 30
0.0
 11
226.449221
 21
153.321728
 31
0.0
  0
LINE
  5
14B
330
110
100
AcDbEntity
  8
0
  6
Continuous
 62
     0
370
    30
100
AcDbLine
 10
368.173251
 20
310.093418
 30
0.0
 11
214.173251
 21
166.486095
 31
0.0
  0
LINE
  5
14C
330
110
100
AcDbEntity
  8
0
  6
Continuous
 62
     0
370
    30
100
AcDbLine
 10
231.62507
 20
182.760182
 30
0.0
 11
192.943275
 21
182.760182
 31
0.0
  0
LINE
  5
14D
330
110
100
AcDbEntity
  8
0
  6
Continuous
 62
     0
370
    30
100
AcDbLine
 10
192.943275
 20
182.760182
 30
0.0
 11
188.943275
 21
182.760182
 31
0.0
  0
LINE
  5
14E
330
110
100
AcDbEntity
  8
0
  6
Continuous
 62
     0
370
    30
100
AcDbLine
 10
255.217181
 20
204.760182
 30
0.0
 11
192.943275
 21
204.760182
 31
0.0
  0
LINE
  5
14F
330
110
100
AcDbEntity
  8
0
  6
Continuous
 62
     0
370
    30
100
AcDbLine
 10
192.943275
 20
204.760182
 30
0.0
 11
188.943275
 21
204.760182
 31
0.0
  0
LINE
  5
150
330
110
100
AcDbEntity
  8
0
  6
Continuous
 62
     0
370
    30
100
AcDbLine
 10
278.809293
 20
226.760182
 30
0.0
 11
192.943275
 21
226.760182
 31
0.0
  0
LINE
  5
151
330
110
100
AcDbEntity
  8
0
  6
Continuous
 62
     0
370
    30
100
AcDbLine
 10
192.943275
 20
226.760182
 30
0.0
 11
188.943275
 21
226.760182
 31
0.0
  0
LINE
  5
152
330
110
100
AcDbEntity
  8
0
  6
Continuous
 62
     0
370
    30
100
AcDbLine
 10
302.401405
 20
248.760182
 30
0.0
 11
192.943275
 21
248.760182
 31
0.0
  0
LINE
  5
153
330
110
100
AcDbEntity
  8
0
  6
Continuous
 62
     0
370
    30
100
AcDbLine
 10
192.943275
 20
248.760182
 30
0.0
 11
188.943275
 21
248.760182
 31
0.0
  0
LINE
  5
154
330
110
100
AcDbEntity
  8
0
  6
Continuous
 62
     0
370
    30
100
AcDbLine
 10
325.993516
 20
270.760182
 30
0.0
 11
192.943275
 21
270.760182
 31
0.0
  0
LINE
  5
155
330
110
100
AcDbEntity
  8
0
  6
Continuous
 62
     0
370
    30
100
AcDbLine
 10
192.943275
 20
270.760182
 30
0.0
 11
188.943275
 21
270.760182
 31
0.0
  0
LINE
  5
156
330
110
100
AcDbEntity
  8
0
  6
Continuous
 62
     0
370
    30
100
AcDbLine
 10
349.585628
 20
292.760182
 30
0.0
 11
192.943275
 21
292.760182
 31
0.0
  0
LINE
  5
157
330
110
100
AcDbEntity
  8
0
  6
Continuous
 62
     0
370
    30
100
AcDbLine
 10
192.943275
 20
292.760182
 30
0.0
 11
188.943275
 21
292.760182
 31
0.0
  0
LINE
  5
158
330
110
100
AcDbEntity
  8
0
  6
Continuous
 62
     0
370
    30
100
AcDbLine
 10
371.554395
 20
314.760182
 30
0.0
 11
368.714826
 21
314.760182
 31
0.0
  0
LINE
  5
159
330
110
100
AcDbEntity
  8
0
  6
Continuous
 62
     0
370
    30
100
AcDbLine
 10
368.714826
 20
314.760182
 30
0.0
 11
192.943275
 21
314.760182
 31
0.0
  0
LINE
  5
15A
330
110
100
AcDbEntity
  8
0
  6
Continuous
 62
     0
370
    30
100
AcDbLine
 10
192.943275
 20
314.760182
 30
0.0
 11
188.943275
 21
314.760182
 31
0.0
  0
LINE
  5
15B
330
110
100
AcDbEntity
  8
0
  6
Continuous
 62
     0
370
    30
100
AcDbLine
 10
372.943275
 20
336.760182
 30
0.0
 11
368.943275
 21
336.760182
 31
0.0
  0
LINE
  5
15C
330
110
100
AcDbEntity
  8
0
  6
Continuous
 62
     0
370
    30
100
AcDbLine
 10
368.943275
 20
336.760182
 30
0.0
 11
192.943275
 21
336.760182
 31
0.0
  0
LINE
  5
15D
330
110
100
AcDbEntity
  8
0
  6
Continuous
 62
     0
370
    30
100
AcDbLine
 10
192.943275
 20
336.760182
 30
0.0
 11
188.943275
 21
336.760182
 31
0.0
  0
ARC
  5
15E
330
110
100
AcDbEntity
  8
0
  6
Continuous
 62
     0
370
    30
100
AcDbCircle
 10
203.943276
 20
177.456403
 30
0.0
 40
33.00000082750387
100
AcDbArc
 50
180.000003
 51
312.999997
  0
ARC
  5
15F
330
110
100
AcDbEntity
  8
0
  6
Continuous
 62
     0
370
    30
100
AcDbCircle
 10
203.943275
 20
177.4564
 30
0.0
 40
14.99999984350742
100
AcDbArc
 50
179.999999
 51
313.000001
  0
ENDBLK
  5
161
330
110
100
AcDbEntity
  8
0
100
AcDbBlockEnd
  0
BLOCK
  5
1C6
330
163
100
AcDbEntity
  8
0
100
AcDbBlockBegin
  2
c
 70
     0
 10
140.56308
 20
141.616913
 30
0.0
  3
c
  1

  0
LINE
  5
164
330
163
100
AcDbEntity
  8
0
  6
Continuous
 62
     0
370
    30
100
AcDbLine
 10
636.056757
 20
484.534679
 30
0.0
 11
660.056756
 21
484.534679
 31
0.0
  0
LINE
  5
165
330
163
100
AcDbEntity
  8
0
  6
Continuous
 62
     0
370
     0
100
AcDbLine
 10
636.056757
 20
502.534679
 30
0.0
 11
636.056757
 21
484.534679
 31
0.0
  0
LINE
  5
166
330
163
100
AcDbEntity
  8
0
  6
Continuous
 62
     0
370
    30
100
AcDbLine
 10
470.752978
 20
458.534679
 30
0.0
 11
470.752978
 21
445.534679
 31
0.0
  0
ARC
  5
167
330
163
100
AcDbEntity
  8
0
  6
Continuous
 62
     0
370
    30
100
AcDbCircle
 10
473.752978
 20
445.534679
 30
0.0
 40
3.0
100
AcDbArc
 50
180.0
 51
360.0
  0
LWPOLYLINE
  5
168
330
163
100
AcDbEntity
  8
0
  6
Continuous
 62
     0
370
     0
100
AcDbPolyline
 90
       21
 70
     0
 43
0.0
 10
476.752991
 20
458.534668
 10
476.721405
 20
458.534668
 10
476.620941
 20
458.534668
 10
476.445953
 20
458.534668
 10
476.195953
 20
458.534668
 10
475.876587
 20
458.534668
 10
475.499451
 20
458.534668
 10
475.08075
 20
458.534668
 10
474.639099
 20
458.534668
 10
474.192932
 20
458.534668
 10
473.758514
 20
458.534668
 10
473.324585
 20
458.534668
 10
472.87854
 20
458.534668
 10
472.436554
 20
458.534668
 10
472.016998
 20
458.534668
 10
471.63855
 20
458.534668
 10
471.317505
 20
458.534668
 10
471.065613
 20
458.534668
 10
470.888641
 20
458.534668
 10
470.786285
 20
458.534668
 10
470.752991
 20
458.534668
  0
LINE
  5
169
330
163
100
AcDbEntity
  8
0
  6
Continuous
 62
     0
370
    30
100
AcDbLine
 10
492.752978
 20
458.534679
 30
0.0
 11
492.752978
 21
445.534679
 31
0.0
  0
ARC
  5
16A
330
163
100
AcDbEntity
  8
0
  6
Continuous
 62
     0
370
    30
100
AcDbCircle
 10
495.752978
 20
445.534679
 30
0.0
 40
3.0
100
AcDbArc
 50
180.0
 51
360.0
  0
LWPOLYLINE
  5
16B
330
163
100
AcDbEntity
  8
0
  6
Continuous
 62
     0
370
     0
100
AcDbPolyline
 90
       21
 70
     0
 43
0.0
 10
498.752991
 20
458.534668
 10
498.721405
 20
458.534668
 10
498.620941
 20
458.534668
 10
498.445953
 20
458.534668
 10
498.195953
 20
458.534668
 10
497.876587
 20
458.534668
 10
497.499451
 20
458.534668
 10
497.08075
 20
458.534668
 10
496.639099
 20
458.534668
 10
496.192932
 20
458.534668
 10
495.758514
 20
458.534668
 10
495.324585
 20
458.534668
 10
494.87854
 20
458.534668
 10
494.436554
 20
458.534668
 10
494.016998
 20
458.534668
 10
493.63855
 20
458.534668
 10
493.317505
 20
458.534668
 10
493.065613
 20
458.534668
 10
492.888641
 20
458.534668
 10
492.786285
 20
458.534668
 10
492.752991
 20
458.534668
  0
LINE
  5
16C
330
163
100
AcDbEntity
  8
0
  6
Continuous
 62
     0
370
    30
100
AcDbLine
 10
514.752978
 20
458.534679
 30
0.0
 11
514.752978
 21
445.534679
 31
0.0
  0
ARC
  5
16D
330
163
100
AcDbEntity
  8
0
  6
Continuous
 62
     0
370
    30
100
AcDbCircle
 10
517.752978
 20
445.534679
 30
0.0
 40
2.999999999999997
100
AcDbArc
 50
180.0
 51
360.0
  0
LWPOLYLINE
  5
16E
330
163
100
AcDbEntity
  8
0
  6
Continuous
 62
     0
370
     0
100
AcDbPolyline
 90
       21
 70
     0
 43
0.0
 10
520.752991
 20
458.534668
 10
520.721375
 20
458.534668
 10
520.620911
 20
458.534668
 10
520.445923
 20
458.534668
 10
520.195923
 20
458.534668
 10
519.876587
 20
458.534668
 10
519.499451
 20
458.534668
 10
519.08075
 20
458.534668
 10
518.639099
 20
458.534668
 10
518.192932
 20
458.534668
 10
517.758545
 20
458.534668
 10
517.324585
 20
458.534668
 10
516.87854
 20
458.534668
 10
516.436523
 20
458.534668
 10
516.017029
 20
458.534668
 10
515.63855
 20
458.534668
 10
515.317505
 20
458.534668
 10
515.065613
 20
458.534668
 10
514.888611
 20
458.534668
 10
514.786255
 20
458.534668
 10
514.752991
 20
458.534668
  0
LINE
  5
16F
330
163
100
AcDbEntity
  8
0
  6
Continuous
 62
     0
370
    30
100
AcDbLine
 10
536.752978
 20
458.534679
 30
0.0
 11
536.752978
 21
445.534679
 31
0.0
  0
ARC
  5
170
330
163
100
AcDbEntity
  8
0
  6
Continuous
 62
     0
370
    30
100
AcDbCircle
 10
539.752978
 20
445.534679
 30
0.0
 40
2.999999999999999
100
AcDbArc
 50
180.0
 51
360.0
  0
LWPOLYLINE
  5
171
330
163
100
AcDbEntity
  8
0
  6
Continuous
 62
     0
370
     0
100
AcDbPolyline
 90
       21
 70
     0
 43
0.0
 10
542.752991
 20
458.534668
 10
542.721375
 20
458.534668
 10
542.620911
 20
458.534668
 10
542.445923
 20
458.534668
 10
542.195923
 20
458.534668
 10
541.876587
 20
458.534668
 10
541.499451
 20
458.534668
 10
541.08075
 20
458.534668
 10
540.639099
 20
458.534668
 10
540.192932
 20
458.534668
 10
539.758545
 20
458.534668
 10
539.324585
 20
458.534668
 10
538.87854
 20
458.534668
 10
538.436523
 20
458.534668
 10
538.017029
 20
458.534668
 10
537.63855
 20
458.534668
 10
537.317505
 20
458.534668
 10
537.065613
 20
458.534668
 10
536.888611
 20
458.534668
 10
536.786255
 20
458.534668
 10
536.752991
 20
458.534668
  0
LINE
  5
172
330
163
100
AcDbEntity
  8
0
  6
Continuous
 62
     0
370
    30
100
AcDbLine
 10
558.752978
 20
458.534679
 30
0.0
 11
558.752978
 21
445.534679
 31
0.0
  0
ARC
  5
173
330
163
100
AcDbEntity
  8
0
  6
Continuous
 62
     0
370
    30
100
AcDbCircle
 10
561.752978
 20
445.534679
 30
0.0
 40
2.999999999999995
100
AcDbArc
 50
180.0
 51
360.0
  0
LWPOLYLINE
  5
174
330
163
100
AcDbEntity
  8
0
  6
Continuous
 62
     0
370
     0
100
AcDbPolyline
 90
       21
 70
     0
 43
0.0
 10
564.752991
 20
458.534668
 10
564.721375
 20
458.534668
 10
564.620911
 20
458.534668
 10
564.445923
 20
458.534668
 10
564.195923
 20
458.534668
 10
563.876587
 20
458.534668
 10
563.499451
 20
458.534668
 10
563.08075
 20
458.534668
 10
562.639099
 20
458.534668
 10
562.192932
 20
458.534668
 10
561.758545
 20
458.534668
 10
561.324585
 20
458.534668
 10
560.87854
 20
458.534668
 10
560.436523
 20
458.534668
 10
560.017029
 20
458.534668
 10
559.63855
 20
458.534668
 10
559.317505
 20
458.534668
 10
559.065613
 20
458.534668
 10
558.888611
 20
458.534668
 10
558.786255
 20
458.534668
 10
558.752991
 20
458.534668
  0
LINE
  5
175
330
163
100
AcDbEntity
  8
0
  6
Continuous
 62
     0
370
    30
100
AcDbLine
 10
580.752978
 20
458.534679
 30
0.0
 11
580.752978
 21
445.534679
 31
0.0
  0
ARC
  5
176
330
163
100
AcDbEntity
  8
0
  6
Continuous
 62
     0
370
    30
100
AcDbCircle
 10
583.752978
 20
445.534679
 30
0.0
 40
2.999999999999989
100
AcDbArc
 50
180.0
 51
360.0
  0
LWPOLYLINE
  5
177
330
163
100
AcDbEntity
  8
0
  6
Continuous
 62
     0
370
     0
100
AcDbPolyline
 90
       21
 70
     0
 43
0.0
 10
586.752991
 20
458.534668
 10
586.721375
 20
458.534668
 10
586.620911
 20
458.534668
 10
586.445923
 20
458.534668
 10
586.195923
 20
458.534668
 10
585.876587
 20
458.534668
 10
585.499451
 20
458.534668
 10
585.08075
 20
458.534668
 10
584.639099
 20
458.534668
 10
584.192932
 20
458.534668
 10
583.758545
 20
458.534668
 10
583.324585
 20
458.534668
 10
582.87854
 20
458.534668
 10
582.436523
 20
458.534668
 10
582.017029
 20
458.534668
 10
581.63855
 20
458.534668
 10
581.317505
 20
458.534668
 10
581.065613
 20
458.534668
 10
580.888611
 20
458.534668
 10
580.786255
 20
458.534668
 10
580.752991
 20
458.534668
  0
LINE
  5
178
330
163
100
AcDbEntity
  8
0
  6
Continuous
 62
     0
370
    30
100
AcDbLine
 10
602.752978
 20
458.534679
 30
0.0
 11
602.752978
 21
445.534679
 31
0.0
  0
ARC
  5
179
330
163
100
AcDbEntity
  8
0
  6
Continuous
 62
     0
370
    30
100
AcDbCircle
 10
605.752978
 20
445.534679
 30
0.0
 40
2.999999999999993
100
AcDbArc
 50
180.0
 51
360.0
  0
LWPOLYLINE
  5
17A
330
163
100
AcDbEntity
  8
0
  6
Continuous
 62
     0
370
     0
100
AcDbPolyline
 90
       21
 70
     0
 43
0.0
 10
608.752991
 20
458.534668
 10
608.721375
 20
458.534668
 10
608.620911
 20
458.534668
 10
608.445923
 20
458.534668
 10
608.195923
 20
458.534668
 10
607.876587
 20
458.534668
 10
607.499451
 20
458.534668
 10
607.08075
 20
458.534668
 10
606.639099
 20
458.534668
 10
606.192932
 20
458.534668
 10
605.758545
 20
458.534668
 10
605.324585
 20
458.534668
 10
604.87854
 20
458.534668
 10
604.436523
 20
458.534668
 10
604.017029
 20
458.534668
 10
603.63855
 20
458.534668
 10
603.317505
 20
458.534668
 10
603.065613
 20
458.534668
 10
602.888611
 20
458.534668
 10
602.786255
 20
458.534668
 10
602.752991
 20
458.534668
  0
LINE
  5
17B
330
163
100
AcDbEntity
  8
0
  6
Continuous
 62
     0
370
    30
100
AcDbLine
 10
624.752978
 20
458.534679
 30
0.0
 11
624.752978
 21
445.534679
 31
0.0
  0
ARC
  5
17C
330
163
100
AcDbEntity
  8
0
  6
Continuous
 62
     0
370
    30
100
AcDbCircle
 10
627.752978
 20
445.534679
 30
0.0
 40
3.0
100
AcDbArc
 50
180.0
 51
360.0
  0
LWPOLYLINE
  5
17D
330
163
100
AcDbEntity
  8
0
  6
Continuous
 62
     0
370
     0
100
AcDbPolyline
 90
       21
 70
     0
 43
0.0
 10
630.752991
 20
458.534668
 10
630.721375
 20
458.534668
 10
630.620911
 20
458.534668
 10
630.445923
 20
458.534668
 10
630.195923
 20
458.534668
 10
629.876587
 20
458.534668
 10
629.499451
 20
458.534668
 10
629.08075
 20
458.534668
 10
628.639099
 20
458.534668
 10
628.192932
 20
458.534668
 10
627.758545
 20
458.534668
 10
627.324585
 20
458.534668
 10
626.87854
 20
458.534668
 10
626.436523
 20
458.534668
 10
626.017029
 20
458.534668
 10
625.63855
 20
458.534668
 10
625.317505
 20
458.534668
 10
625.065613
 20
458.534668
 10
624.888611
 20
458.534668
 10
624.786255
 20
458.534668
 10
624.752991
 20
458.534668
  0
LINE
  5
17E
330
163
100
AcDbEntity
  8
0
  6
Continuous
 62
     0
370
    30
100
AcDbLine
 10
624.752978
 20
458.534679
 30
0.0
 11
624.752978
 21
484.034679
 31
0.0
  0
LWPOLYLINE
  5
17F
330
163
100
AcDbEntity
  8
0
  6
Continuous
 62
     0
370
     0
100
AcDbPolyline
 90
       22
 70
     0
 43
0.0
 10
630.752991
 20
484.034668
 10
630.718811
 20
484.049347
 10
630.617737
 20
484.091827
 10
630.453186
 20
484.157837
 10
630.228943
 20
484.242218
 10
629.950928
 20
484.337738
 10
629.625977
 20
484.436371
 10
629.260559
 20
484.529816
 10
628.859863
 20
484.60907
 10
628.431274
 20
484.667206
 10
627.984619
 20
484.698914
 10
627.531799
 20
484.69928
 10
627.0849
 20
484.668182
 10
626.655823
 20
484.610535
 10
626.254211
 20
484.531525
 10
625.888
 20
484.438446
 10
625.563049
 20
484.341064
 10
625.285278
 20
484.246002
 10
625.060303
 20
484.160828
 10
624.893433
 20
484.093872
 10
624.789734
 20
484.050446
 10
624.752991
 20
484.034668
  0
LINE
  5
180
330
163
100
AcDbEntity
  8
0
  6
Continuous
 62
     0
370
    30
100
AcDbLine
 10
602.752978
 20
458.534679
 30
0.0
 11
602.752978
 21
484.034679
 31
0.0
  0
LWPOLYLINE
  5
181
330
163
100
AcDbEntity
  8
0
  6
Continuous
 62
     0
370
     0
100
AcDbPolyline
 90
       22
 70
     0
 43
0.0
 10
608.752991
 20
484.034668
 10
608.718811
 20
484.049347
 10
608.617737
 20
484.091827
 10
608.453186
 20
484.157837
 10
608.228943
 20
484.242218
 10
607.950928
 20
484.337738
 10
607.625977
 20
484.436371
 10
607.260559
 20
484.529816
 10
606.859863
 20
484.60907
 10
606.431274
 20
484.667206
 10
605.984619
 20
484.698914
 10
605.531799
 20
484.69928
 10
605.0849
 20
484.668182
 10
604.655823
 20
484.610535
 10
604.254211
 20
484.531525
 10
603.888
 20
484.438446
 10
603.563049
 20
484.341064
 10
603.285278
 20
484.246002
 10
603.060303
 20
484.160828
 10
602.893433
 20
484.093872
 10
602.789734
 20
484.050446
 10
602.752991
 20
484.034668
  0
LINE
  5
182
330
163
100
AcDbEntity
  8
0
  6
Continuous
 62
     0
370
    30
100
AcDbLine
 10
580.752978
 20
458.534679
 30
0.0
 11
580.752978
 21
484.034679
 31
0.0
  0
LWPOLYLINE
  5
183
330
163
100
AcDbEntity
  8
0
  6
Continuous
 62
     0
370
     0
100
AcDbPolyline
 90
       22
 70
     0
 43
0.0
 10
586.752991
 20
484.034668
 10
586.718811
 20
484.049347
 10
586.617737
 20
484.091827
 10
586.453186
 20
484.157837
 10
586.228943
 20
484.242218
 10
585.950928
 20
484.337738
 10
585.625977
 20
484.436371
 10
585.260559
 20
484.529816
 10
584.859863
 20
484.60907
 10
584.431274
 20
484.667206
 10
583.984619
 20
484.698914
 10
583.531799
 20
484.69928
 10
583.0849
 20
484.668182
 10
582.655823
 20
484.610535
 10
582.254211
 20
484.531525
 10
581.888
 20
484.438446
 10
581.563049
 20
484.341064
 10
581.285278
 20
484.246002
 10
581.060303
 20
484.160828
 10
580.893433
 20
484.093872
 10
580.789734
 20
484.050446
 10
580.752991
 20
484.034668
  0
LINE
  5
184
330
163
100
AcDbEntity
  8
0
  6
Continuous
 62
     0
370
    30
100
AcDbLine
 10
558.752978
 20
458.534679
 30
0.0
 11
558.752978
 21
484.034679
 31
0.0
  0
LWPOLYLINE
  5
185
330
163
100
AcDbEntity
  8
0
  6
Continuous
 62
     0
370
     0
100
AcDbPolyline
 90
       22
 70
     0
 43
0.0
 10
564.752991
 20
484.034668
 10
564.718811
 20
484.049347
 10
564.617737
 20
484.091827
 10
564.453186
 20
484.157837
 10
564.228943
 20
484.242218
 10
563.950928
 20
484.337738
 10
563.625977
 20
484.436371
 10
563.260559
 20
484.529816
 10
562.859863
 20
484.60907
 10
562.431274
 20
484.667206
 10
561.984619
 20
484.698914
 10
561.531799
 20
484.69928
 10
561.0849
 20
484.668182
 10
560.655823
 20
484.610535
 10
560.254211
 20
484.531525
 10
559.888
 20
484.438446
 10
559.563049
 20
484.341064
 10
559.285278
 20
484.246002
 10
559.060303
 20
484.160828
 10
558.893433
 20
484.093872
 10
558.789734
 20
484.050446
 10
558.752991
 20
484.034668
  0
LINE
  5
186
330
163
100
AcDbEntity
  8
0
  6
Continuous
 62
     0
370
    30
100
AcDbLine
 10
536.752978
 20
458.534679
 30
0.0
 11
536.752978
 21
484.034679
 31
0.0
  0
LWPOLYLINE
  5
187
330
163
100
AcDbEntity
  8
0
  6
Continuous
 62
     0
370
     0
100
AcDbPolyline
 90
       22
 70
     0
 43
0.0
 10
542.752991
 20
484.034668
 10
542.718811
 20
484.049347
 10
542.617737
 20
484.091827
 10
542.453186
 20
484.157837
 10
542.228943
 20
484.242218
 10
541.950928
 20
484.337738
 10
541.625977
 20
484.436371
 10
541.260559
 20
484.529816
 10
540.859863
 20
484.60907
 10
540.431274
 20
484.667206
 10
539.984619
 20
484.698914
 10
539.531799
 20
484.69928
 10
539.0849
 20
484.668182
 10
538.655823
 20
484.610535
 10
538.254211
 20
484.531525
 10
537.888
 20
484.438446
 10
537.563049
 20
484.341064
 10
537.285278
 20
484.246002
 10
537.060303
 20
484.160828
 10
536.893433
 20
484.093872
 10
536.789734
 20
484.050446
 10
536.752991
 20
484.034668
  0
LINE
  5
188
330
163
100
AcDbEntity
  8
0
  6
Continuous
 62
     0
370
    30
100
AcDbLine
 10
514.752978
 20
458.534679
 30
0.0
 11
514.752978
 21
484.034679
 31
0.0
  0
LWPOLYLINE
  5
189
330
163
100
AcDbEntity
  8
0
  6
Continuous
 62
     0
370
     0
100
AcDbPolyline
 90
       22
 70
     0
 43
0.0
 10
520.752991
 20
484.034668
 10
520.718811
 20
484.049347
 10
520.617737
 20
484.091827
 10
520.453186
 20
484.157837
 10
520.228943
 20
484.242218
 10
519.950928
 20
484.337738
 10
519.625977
 20
484.436371
 10
519.260559
 20
484.529816
 10
518.859863
 20
484.60907
 10
518.431274
 20
484.667206
 10
517.984619
 20
484.698914
 10
517.531799
 20
484.69928
 10
517.0849
 20
484.668182
 10
516.655823
 20
484.610535
 10
516.254211
 20
484.531525
 10
515.888
 20
484.438446
 10
515.563049
 20
484.341064
 10
515.285278
 20
484.246002
 10
515.060303
 20
484.160828
 10
514.893433
 20
484.093872
 10
514.789734
 20
484.050446
 10
514.752991
 20
484.034668
  0
LINE
  5
18A
330
163
100
AcDbEntity
  8
0
  6
Continuous
 62
     0
370
    30
100
AcDbLine
 10
492.752978
 20
458.534679
 30
0.0
 11
492.752978
 21
484.034679
 31
0.0
  0
LWPOLYLINE
  5
18B
330
163
100
AcDbEntity
  8
0
  6
Continuous
 62
     0
370
     0
100
AcDbPolyline
 90
       22
 70
     0
 43
0.0
 10
498.752991
 20
484.034668
 10
498.718811
 20
484.049347
 10
498.617737
 20
484.091827
 10
498.453217
 20
484.157837
 10
498.228943
 20
484.242218
 10
497.950928
 20
484.337738
 10
497.625977
 20
484.436371
 10
497.26059
 20
484.529816
 10
496.859863
 20
484.60907
 10
496.431244
 20
484.667206
 10
495.98465
 20
484.698914
 10
495.531799
 20
484.69928
 10
495.0849
 20
484.668182
 10
494.655792
 20
484.610535
 10
494.254242
 20
484.531525
 10
493.88797
 20
484.438446
 10
493.563019
 20
484.341064
 10
493.285248
 20
484.246002
 10
493.060303
 20
484.160828
 10
492.893463
 20
484.093872
 10
492.789764
 20
484.050446
 10
492.752991
 20
484.034668
  0
LINE
  5
18C
330
163
100
AcDbEntity
  8
0
  6
Continuous
 62
     0
370
    30
100
AcDbLine
 10
470.752978
 20
458.534679
 30
0.0
 11
470.752978
 21
484.034679
 31
0.0
  0
LWPOLYLINE
  5
18D
330
163
100
AcDbEntity
  8
0
  6
Continuous
 62
     0
370
     0
100
AcDbPolyline
 90
       22
 70
     0
 43
0.0
 10
476.752991
 20
484.034668
 10
476.718811
 20
484.049347
 10
476.617737
 20
484.091827
 10
476.453217
 20
484.157837
 10
476.228943
 20
484.242218
 10
475.950928
 20
484.337738
 10
475.625977
 20
484.436371
 10
475.26059
 20
484.529816
 10
474.859863
 20
484.60907
 10
474.431244
 20
484.667206
 10
473.98465
 20
484.698914
 10
473.531799
 20
484.69928
 10
473.0849
 20
484.668182
 10
472.655792
 20
484.610535
 10
472.254242
 20
484.531525
 10
471.88797
 20
484.438446
 10
471.563019
 20
484.341064
 10
471.285248
 20
484.246002
 10
471.060303
 20
484.160828
 10
470.893463
 20
484.093872
 10
470.789764
 20
484.050446
 10
470.752991
 20
484.034668
  0
LWPOLYLINE
  5
18E
330
163
100
AcDbEntity
  8
0
  6
Continuous
 62
     0
370
     0
100
AcDbPolyline
 90
       24
 70
     0
 43
0.0
 10
470.252991
 20
484.534668
 10
470.287079
 20
484.546875
 10
470.391693
 20
484.582489
 10
470.560944
 20
484.63797
 10
470.78833
 20
484.708893
 10
471.069336
 20
484.789948
 10
471.397003
 20
484.875092
 10
471.76474
 20
484.958374
 10
472.166809
 20
485.033905
 10
472.597595
 20
485.096313
 10
473.0495
 20
485.141174
 10
473.51416
 20
485.164612
 10
473.983124
 20
485.164825
 10
474.447968
 20
485.141815
 10
474.900177
 20
485.097321
 10
475.331421
 20
485.035187
 10
475.73407
 20
484.959839
 10
476.102478
 20
484.876678
 10
476.430969
 20
484.791504
 10
476.713013
 20
484.710327
 10
476.941376
 20
484.63916
 10
477.111664
 20
484.583344
 10
477.21756
 20
484.547333
 10
477.252991
 20
484.534668
  0
ARC
  5
18F
330
163
100
AcDbEntity
  8
0
  6
Continuous
 62
     0
370
    30
100
AcDbCircle
 10
470.252978
 20
484.034679
 30
0.0
 40
0.5000000000026281
100
AcDbArc
 50
0.0
 51
90.0
  0
ARC
  5
190
330
163
100
AcDbEntity
  8
0
  6
Continuous
 62
     0
370
    30
100
AcDbCircle
 10
477.252978
 20
484.034679
 30
0.0
 40
0.5000000000027036
100
AcDbArc
 50
90.0
 51
180.0
  0
LWPOLYLINE
  5
191
330
163
100
AcDbEntity
  8
0
  6
Continuous
 62
     0
370
     0
100
AcDbPolyline
 90
       24
 70
     0
 43
0.0
 10
492.252991
 20
484.534668
 10
492.287079
 20
484.546875
 10
492.391693
 20
484.582489
 10
492.560944
 20
484.63797
 10
492.78833
 20
484.708893
 10
493.069336
 20
484.789948
 10
493.397003
 20
484.875092
 10
493.76474
 20
484.958374
 10
494.166809
 20
485.033905
 10
494.597595
 20
485.096313
 10
495.0495
 20
485.141174
 10
495.51416
 20
485.164612
 10
495.983124
 20
485.164825
 10
496.447968
 20
485.141815
 10
496.900177
 20
485.097321
 10
497.331421
 20
485.035187
 10
497.73407
 20
484.959839
 10
498.102478
 20
484.876678
 10
498.430969
 20
484.791504
 10
498.713013
 20
484.710327
 10
498.941376
 20
484.63916
 10
499.111664
 20
484.583344
 10
499.21756
 20
484.547333
 10
499.252991
 20
484.534668
  0
ARC
  5
192
330
163
100
AcDbEntity
  8
0
  6
Continuous
 62
     0
370
    30
100
AcDbCircle
 10
492.252978
 20
484.034679
 30
0.0
 40
0.5000000000025189
100
AcDbArc
 50
0.0
 51
90.0
  0
ARC
  5
193
330
163
100
AcDbEntity
  8
0
  6
Continuous
 62
     0
370
    30
100
AcDbCircle
 10
499.252978
 20
484.034679
 30
0.0
 40
0.5000000000027818
100
AcDbArc
 50
90.0
 51
180.0
  0
LWPOLYLINE
  5
194
330
163
100
AcDbEntity
  8
0
  6
Continuous
 62
     0
370
     0
100
AcDbPolyline
 90
       24
 70
     0
 43
0.0
 10
514.252991
 20
484.534668
 10
514.287048
 20
484.546875
 10
514.391663
 20
484.582489
 10
514.560913
 20
484.63797
 10
514.78833
 20
484.708893
 10
515.069336
 20
484.789948
 10
515.396973
 20
484.875092
 10
515.764709
 20
484.958374
 10
516.166809
 20
485.033905
 10
516.597595
 20
485.096313
 10
517.0495
 20
485.141174
 10
517.51416
 20
485.164612
 10
517.983154
 20
485.164825
 10
518.447937
 20
485.141815
 10
518.900208
 20
485.097321
 10
519.331421
 20
485.035187
 10
519.73407
 20
484.959839
 10
520.102478
 20
484.876678
 10
520.430969
 20
484.791504
 10
520.713013
 20
484.710327
 10
520.941406
 20
484.63916
 10
521.111694
 20
484.583344
 10
521.21759
 20
484.547333
 10
521.252991
 20
484.534668
  0
ARC
  5
195
330
163
100
AcDbEntity
  8
0
  6
Continuous
 62
     0
370
    30
100
AcDbCircle
 10
514.252978
 20
484.034679
 30
0.0
 40
0.500000000002788
100
AcDbArc
 50
0.0
 51
90.0
  0
ARC
  5
196
330
163
100
AcDbEntity
  8
0
  6
Continuous
 62
     0
370
    30
100
AcDbCircle
 10
521.252978
 20
484.034679
 30
0.0
 40
0.5000000000027929
100
AcDbArc
 50
90.0
 51
180.0
  0
LWPOLYLINE
  5
197
330
163
100
AcDbEntity
  8
0
  6
Continuous
 62
     0
370
     0
100
AcDbPolyline
 90
       24
 70
     0
 43
0.0
 10
536.252991
 20
484.534668
 10
536.287048
 20
484.546875
 10
536.391663
 20
484.582489
 10
536.560913
 20
484.63797
 10
536.78833
 20
484.708893
 10
537.069336
 20
484.789948
 10
537.396973
 20
484.875092
 10
537.764709
 20
484.958374
 10
538.166809
 20
485.033905
 10
538.597595
 20
485.096313
 10
539.0495
 20
485.141174
 10
539.51416
 20
485.164612
 10
539.983154
 20
485.164825
 10
540.447937
 20
485.141815
 10
540.900208
 20
485.097321
 10
541.331421
 20
485.035187
 10
541.73407
 20
484.959839
 10
542.102478
 20
484.876678
 10
542.430969
 20
484.791504
 10
542.713013
 20
484.710327
 10
542.941406
 20
484.63916
 10
543.111694
 20
484.583344
 10
543.21759
 20
484.547333
 10
543.252991
 20
484.534668
  0
ARC
  5
198
330
163
100
AcDbEntity
  8
0
  6
Continuous
 62
     0
370
    30
100
AcDbCircle
 10
536.252978
 20
484.034679
 30
0.0
 40
0.500000000002716
100
AcDbArc
 50
0.0
 51
90.0
  0
ARC
  5
199
330
163
100
AcDbEntity
  8
0
  6
Continuous
 62
     0
370
    30
100
AcDbCircle
 10
543.252978
 20
484.034679
 30
0.0
 40
0.5000000000028546
100
AcDbArc
 50
90.0
 51
180.0
  0
LWPOLYLINE
  5
19A
330
163
100
AcDbEntity
  8
0
  6
Continuous
 62
     0
370
     0
100
AcDbPolyline
 90
       24
 70
     0
 43
0.0
 10
558.252991
 20
484.534668
 10
558.287048
 20
484.546875
 10
558.391663
 20
484.582489
 10
558.560913
 20
484.63797
 10
558.78833
 20
484.708893
 10
559.069336
 20
484.789948
 10
559.396973
 20
484.875092
 10
559.764709
 20
484.958374
 10
560.166809
 20
485.033905
 10
560.597595
 20
485.096313
 10
561.0495
 20
485.141174
 10
561.51416
 20
485.164612
 10
561.983154
 20
485.164825
 10
562.447937
 20
485.141815
 10
562.900208
 20
485.097321
 10
563.331421
 20
485.035187
 10
563.73407
 20
484.959839
 10
564.102478
 20
484.876678
 10
564.430969
 20
484.791504
 10
564.713013
 20
484.710327
 10
564.941406
 20
484.63916
 10
565.111694
 20
484.583344
 10
565.21759
 20
484.547333
 10
565.252991
 20
484.534668
  0
ARC
  5
19B
330
163
100
AcDbEntity
  8
0
  6
Continuous
 62
     0
370
    30
100
AcDbCircle
 10
558.252978
 20
484.034679
 30
0.0
 40
0.5000000000033671
100
AcDbArc
 50
0.0
 51
90.0
  0
ARC
  5
19C
330
163
100
AcDbEntity
  8
0
  6
Continuous
 62
     0
370
    30
100
AcDbCircle
 10
565.252978
 20
484.034679
 30
0.0
 40
0.5000000000025153
100
AcDbArc
 50
90.0
 51
180.0
  0
LWPOLYLINE
  5
19D
330
163
100
AcDbEntity
  8
0
  6
Continuous
 62
     0
370
     0
100
AcDbPolyline
 90
       24
 70
     0
 43
0.0
 10
580.252991
 20
484.534668
 10
580.287048
 20
484.546875
 10
580.391663
 20
484.582489
 10
580.560913
 20
484.63797
 10
580.78833
 20
484.708893
 10
581.069336
 20
484.789948
 10
581.396973
 20
484.875092
 10
581.764709
 20
484.958374
 10
582.166809
 20
485.033905
 10
582.597595
 20
485.096313
 10
583.0495
 20
485.141174
 10
583.51416
 20
485.164612
 10
583.983154
 20
485.164825
 10
584.447937
 20
485.141815
 10
584.900208
 20
485.097321
 10
585.331421
 20
485.035187
 10
585.73407
 20
484.959839
 10
586.102478
 20
484.876678
 10
586.430969
 20
484.791504
 10
586.713013
 20
484.710327
 10
586.941406
 20
484.63916
 10
587.111694
 20
484.583344
 10
587.21759
 20
484.547333
 10
587.252991
 20
484.534668
  0
ARC
  5
19E
330
163
100
AcDbEntity
  8
0
  6
Continuous
 62
     0
370
    30
100
AcDbCircle
 10
580.252978
 20
484.034679
 30
0.0
 40
0.5000000000021441
100
AcDbArc
 50
0.0
 51
90.0
  0
ARC
  5
19F
330
163
100
AcDbEntity
  8
0
  6
Continuous
 62
     0
370
    30
100
AcDbCircle
 10
587.252978
 20
484.034679
 30
0.0
 40
0.5000000000030767
100
AcDbArc
 50
90.0
 51
180.0
  0
LWPOLYLINE
  5
1A0
330
163
100
AcDbEntity
  8
0
  6
Continuous
 62
     0
370
     0
100
AcDbPolyline
 90
       24
 70
     0
 43
0.0
 10
602.252991
 20
484.534668
 10
602.287048
 20
484.546875
 10
602.391663
 20
484.582489
 10
602.560913
 20
484.63797
 10
602.78833
 20
484.708893
 10
603.069336
 20
484.789948
 10
603.396973
 20
484.875092
 10
603.764709
 20
484.958374
 10
604.166809
 20
485.033905
 10
604.597595
 20
485.096313
 10
605.0495
 20
485.141174
 10
605.51416
 20
485.164612
 10
605.983154
 20
485.164825
 10
606.447937
 20
485.141815
 10
606.900208
 20
485.097321
 10
607.331421
 20
485.035187
 10
607.73407
 20
484.959839
 10
608.102478
 20
484.876678
 10
608.430969
 20
484.791504
 10
608.713013
 20
484.710327
 10
608.941406
 20
484.63916
 10
609.111694
 20
484.583344
 10
609.21759
 20
484.547333
 10
609.252991
 20
484.534668
  0
ARC
  5
1A1
330
163
100
AcDbEntity
  8
0
  6
Continuous
 62
     0
370
    30
100
AcDbCircle
 10
602.252978
 20
484.034679
 30
0.0
 40
0.5000000000032241
100
AcDbArc
 50
0.0
 51
90.0
  0
ARC
  5
1A2
330
163
100
AcDbEntity
  8
0
  6
Continuous
 62
     0
370
    30
100
AcDbCircle
 10
609.252978
 20
484.034679
 30
0.0
 40
0.500000000001906
100
AcDbArc
 50
90.0
 51
180.0
  0
LWPOLYLINE
  5
1A3
330
163
100
AcDbEntity
  8
0
  6
Continuous
 62
     0
370
     0
100
AcDbPolyline
 90
       24
 70
     0
 43
0.0
 10
624.252991
 20
484.534668
 10
624.287048
 20
484.546875
 10
624.391663
 20
484.582489
 10
624.560913
 20
484.63797
 10
624.78833
 20
484.708893
 10
625.069336
 20
484.789948
 10
625.396973
 20
484.875092
 10
625.764709
 20
484.958374
 10
626.166809
 20
485.033905
 10
626.597595
 20
485.096313
 10
627.0495
 20
485.141174
 10
627.51416
 20
485.164612
 10
627.983154
 20
485.164825
 10
628.447937
 20
485.141815
 10
628.900208
 20
485.097321
 10
629.331421
 20
485.035187
 10
629.73407
 20
484.959839
 10
630.102478
 20
484.876678
 10
630.430969
 20
484.791504
 10
630.713013
 20
484.710327
 10
630.941406
 20
484.63916
 10
631.111694
 20
484.583344
 10
631.21759
 20
484.547333
 10
631.252991
 20
484.534668
  0
ARC
  5
1A4
330
163
100
AcDbEntity
  8
0
  6
Continuous
 62
     0
370
    30
100
AcDbCircle
 10
624.252978
 20
484.034679
 30
0.0
 40
0.5000000000048166
100
AcDbArc
 50
0.0
 51
90.0
  0
ARC
  5
1A5
330
163
100
AcDbEntity
  8
0
  6
Continuous
 62
     0
370
    30
100
AcDbCircle
 10
631.252978
 20
484.034679
 30
0.0
 40
0.5000000000004965
100
AcDbArc
 50
90.0
 51
180.0
  0
LWPOLYLINE
  5
1A6
330
163
100
AcDbEntity
  8
0
  6
Continuous
 62
     0
370
     0
100
AcDbPolyline
 90
       18
 70
     0
 43
0.0
 10
457.652985
 20
484.534668
 10
457.688263
 20
484.54303
 10
457.795319
 20
484.566803
 10
457.967163
 20
484.602783
 10
458.199097
 20
484.64624
 10
458.4841
 20
484.691559
 10
458.812347
 20
484.732697
 10
459.173004
 20
484.763855
 10
459.553986
 20
484.780823
 10
459.942169
 20
484.781036
 10
460.323486
 20
484.764496
 10
460.684814
 20
484.733643
 10
461.014038
 20
484.692688
 10
461.300232
 20
484.6474
 10
461.53363
 20
484.60379
 10
461.707092
 20
484.567596
 10
461.815857
 20
484.543427
 10
461.852966
 20
484.534668
  0
LINE
  5
1A7
330
163
100
AcDbEntity
  8
0
  6
Continuous
 62
     0
370
    30
100
AcDbLine
 10
446.252978
 20
502.534679
 30
0.0
 11
446.252978
 21
484.534679
 31
0.0
  0
LINE
  5
1A8
330
163
100
AcDbEntity
  8
0
  6
Continuous
 62
     0
370
    30
100
AcDbLine
 10
457.652978
 20
484.534679
 30
0.0
 11
446.252978
 21
484.534679
 31
0.0
  0
LINE
  5
1A9
330
163
100
AcDbEntity
  8
0
  6
Continuous
 62
     0
370
    30
100
AcDbLine
 10
470.252978
 20
484.534679
 30
0.0
 11
461.852978
 21
484.534679
 31
0.0
  0
LINE
  5
1AA
330
163
100
AcDbEntity
  8
0
  6
Continuous
 62
     0
370
    30
100
AcDbLine
 10
492.252978
 20
484.534679
 30
0.0
 11
477.252978
 21
484.534679
 31
0.0
  0
LINE
  5
1AB
330
163
100
AcDbEntity
  8
0
  6
Continuous
 62
     0
370
    30
100
AcDbLine
 10
514.252978
 20
484.534679
 30
0.0
 11
499.252978
 21
484.534679
 31
0.0
  0
LINE
  5
1AC
330
163
100
AcDbEntity
  8
0
  6
Continuous
 62
     0
370
    30
100
AcDbLine
 10
536.252978
 20
484.534679
 30
0.0
 11
521.252978
 21
484.534679
 31
0.0
  0
LINE
  5
1AD
330
163
100
AcDbEntity
  8
0
  6
Continuous
 62
     0
370
    30
100
AcDbLine
 10
558.252978
 20
484.534679
 30
0.0
 11
543.252978
 21
484.534679
 31
0.0
  0
LINE
  5
1AE
330
163
100
AcDbEntity
  8
0
  6
Continuous
 62
     0
370
    30
100
AcDbLine
 10
580.252978
 20
484.534679
 30
0.0
 11
565.252978
 21
484.534679
 31
0.0
  0
LINE
  5
1AF
330
163
100
AcDbEntity
  8
0
  6
Continuous
 62
     0
370
    30
100
AcDbLine
 10
602.252978
 20
484.534679
 30
0.0
 11
587.252978
 21
484.534679
 31
0.0
  0
LINE
  5
1B0
330
163
100
AcDbEntity
  8
0
  6
Continuous
 62
     0
370
    30
100
AcDbLine
 10
624.252978
 20
484.534679
 30
0.0
 11
609.252978
 21
484.534679
 31
0.0
  0
LINE
  5
1B1
330
163
100
AcDbEntity
  8
0
  6
Continuous
 62
     0
370
    30
100
AcDbLine
 10
636.056757
 20
484.534679
 30
0.0
 11
631.252978
 21
484.534679
 31
0.0
  0
LINE
  5
1B2
330
163
100
AcDbEntity
  8
0
  6
Continuous
 62
     0
370
    30
100
AcDbLine
 10
636.056757
 20
502.534679
 30
0.0
 11
446.252978
 21
502.534679
 31
0.0
  0
LINE
  5
1B3
330
163
100
AcDbEntity
  8
0
  6
Continuous
 62
     0
370
    30
100
AcDbLine
 10
461.852978
 20
484.534679
 30
0.0
 11
457.652978
 21
484.534679
 31
0.0
  0
LINE
  5
1B4
330
163
100
AcDbEntity
  8
0
  6
Continuous
 62
     0
370
    30
100
AcDbLine
 10
476.752978
 20
458.534679
 30
0.0
 11
476.752978
 21
484.034679
 31
0.0
  0
LINE
  5
1B5
330
163
100
AcDbEntity
  8
0
  6
Continuous
 62
     0
370
    30
100
AcDbLine
 10
498.752978
 20
458.534679
 30
0.0
 11
498.752978
 21
484.034679
 31
0.0
  0
LINE
  5
1B6
330
163
100
AcDbEntity
  8
0
  6
Continuous
 62
     0
370
    30
100
AcDbLine
 10
520.752978
 20
458.534679
 30
0.0
 11
520.752978
 21
484.034679
 31
0.0
  0
LINE
  5
1B7
330
163
100
AcDbEntity
  8
0
  6
Continuous
 62
     0
370
    30
100
AcDbLine
 10
542.752978
 20
458.534679
 30
0.0
 11
542.752978
 21
484.034679
 31
0.0
  0
LINE
  5
1B8
330
163
100
AcDbEntity
  8
0
  6
Continuous
 62
     0
370
    30
100
AcDbLine
 10
564.752978
 20
458.534679
 30
0.0
 11
564.752978
 21
484.034679
 31
0.0
  0
LINE
  5
1B9
330
163
100
AcDbEntity
  8
0
  6
Continuous
 62
     0
370
    30
100
AcDbLine
 10
586.752978
 20
458.534679
 30
0.0
 11
586.752978
 21
484.034679
 31
0.0
  0
LINE
  5
1BA
330
163
100
AcDbEntity
  8
0
  6
Continuous
 62
     0
370
    30
100
AcDbLine
 10
608.752978
 20
458.534679
 30
0.0
 11
608.752978
 21
484.034679
 31
0.0
  0
LINE
  5
1BB
330
163
100
AcDbEntity
  8
0
  6
Continuous
 62
     0
370
    30
100
AcDbLine
 10
630.752978
 20
458.534679
 30
0.0
 11
630.752978
 21
484.034679
 31
0.0
  0
LINE
  5
1BC
330
163
100
AcDbEntity
  8
0
  6
Continuous
 62
     0
370
    30
100
AcDbLine
 10
630.752978
 20
445.53468
 30
0.0
 11
630.752978
 21
458.534679
 31
0.0
  0
LINE
  5
1BD
330
163
100
AcDbEntity
  8
0
  6
Continuous
 62
     0
370
    30
100
AcDbLine
 10
608.752978
 20
445.53468
 30
0.0
 11
608.752978
 21
458.534679
 31
0.0
  0
LINE
  5
1BE
330
163
100
AcDbEntity
  8
0
  6
Continuous
 62
     0
370
    30
100
AcDbLine
 10
586.752978
 20
445.53468
 30
0.0
 11
586.752978
 21
458.534679
 31
0.0
  0
LINE
  5
1BF
330
163
100
AcDbEntity
  8
0
  6
Continuous
 62
     0
370
    30
100
AcDbLine
 10
564.752978
 20
445.53468
 30
0.0
 11
564.752978
 21
458.534679
 31
0.0
  0
LINE
  5
1C0
330
163
100
AcDbEntity
  8
0
  6
Continuous
 62
     0
370
    30
100
AcDbLine
 10
542.752978
 20
445.53468
 30
0.0
 11
542.752978
 21
458.534679
 31
0.0
  0
LINE
  5
1C1
330
163
100
AcDbEntity
  8
0
  6
Continuous
 62
     0
370
    30
100
AcDbLine
 10
520.752978
 20
445.53468
 30
0.0
 11
520.752978
 21
458.534679
 31
0.0
  0
LINE
  5
1C2
330
163
100
AcDbEntity
  8
0
  6
Continuous
 62
     0
370
    30
100
AcDbLine
 10
498.752978
 20
445.53468
 30
0.0
 11
498.752978
 21
458.534679
 31
0.0
  0
LINE
  5
1C3
330
163
100
AcDbEntity
  8
0
  6
Continuous
 62
     0
370
    30
100
AcDbLine
 10
476.752978
 20
445.53468
 30
0.0
 11
476.752978
 21
458.534679
 31
0.0
  0
ARC
  5
1C4
330
163
100
AcDbEntity
  8
0
  6
Continuous
 62
     0
370
    30
100
AcDbCircle
 10
660.05676
 20
493.534675
 30
0.0
 40
8.999995808908945
100
AcDbArc
 50
270.032393
 51
90.001927
  0
LWPOLYLINE
  5
1C5
330
163
100
AcDbEntity
  8
0
  6
Continuous
 62
     0
370
    30
100
AcDbPolyline
 90
       29
 70
     0
 43
0.0
 10
660.056458
 20
502.534668
 10
660.01886
 20
502.534668
 10
659.906311
 20
502.534668
 10
659.718994
 20
502.534668
 10
659.457275
 20
502.534668
 10
659.121887
 20
502.534668
 10
658.714111
 20
502.534668
 10
658.235291
 20
502.534668
 10
657.686829
 20
502.534668
 10
657.070251
 20
502.534668
 10
656.387878
 20
502.534668
 10
655.641724
 20
502.534668
 10
654.833984
 20
502.534668
 10
653.967163
 20
502.534668
 10
653.044189
 20
502.534668
 10
652.068054
 20
502.534668
 10
651.041626
 20
502.534668
 10
649.968018
 20
502.534668
 10
648.850647
 20
502.534668
 10
647.693237
 20
502.534668
 10
646.499329
 20
502.534668
 10
645.272583
 20
502.534668
 10
644.016907
 20
502.534668
 10
642.736206
 20
502.534668
 10
641.43457
 20
502.534668
 10
640.116028
 20
502.534668
 10
638.784729
 20
502.534668
 10
637.444885
 20
502.534668
 10
636.056763
 20
502.534668
  0
ENDBLK
  5
1C7
330
163
100
AcDbEntity
  8
0
100
AcDbBlockEnd
  0
BLOCK
  5
250
330
1C9
100
AcDbEntity
  8
0
100
AcDbBlockBegin
  2
d
 70
     0
 10
158.244644
 20
0.0
 30
0.0
  3
d
  1

  0
LWPOLYLINE
  5
1CA
330
1C9
100
AcDbEntity
  8
0
  6
Continuous
 62
     0
370
    30
100
AcDbPolyline
 90
       15
 70
     0
 43
0.0
 10
-90.999161
 20
484.534668
 10
-90.963753
 20
484.534668
 10
-90.857185
 20
484.534668
 10
-90.67942
 20
484.534668
 10
-90.431053
 20
484.534668
 10
-90.113312
 20
484.534668
 10
-89.728027
 20
484.534668
 10
-89.277626
 20
484.534668
 10
-88.765045
 20
484.534668
 10
-88.193703
 20
484.534668
 10
-87.567444
 20
484.534668
 10
-86.890434
 20
484.534668
 10
-86.167114
 20
484.534668
 10
-85.40213
 20
484.534668
 10
-84.551651
 20
484.534668
  0
LWPOLYLINE
  5
1CB
330
1C9
100
AcDbEntity
  8
0
  6
Continuous
 62
     0
370
     0
100
AcDbPolyline
 90
       36
 70
     0
 43
0.0
 10
-84.551651
 20
484.534668
 10
-85.091293
 20
484.564972
 10
-85.643837
 20
484.659454
 10
-86.203552
 20
484.822723
 10
-86.763855
 20
485.058197
 10
-87.31749
 20
485.367798
 10
-87.856781
 20
485.751556
 10
-88.373909
 20
486.207611
 10
-88.861275
 20
486.731995
 10
-89.311836
 20
487.318878
 10
-89.719429
 20
487.960541
 10
-90.079079
 20
488.64801
 10
-90.387154
 20
489.371155
 10
-90.641502
 20
490.119415
 10
-90.841461
 20
490.882141
 10
-90.987747
 20
491.649078
 10
-91.082298
 20
492.410675
 10
-91.128082
 20
493.158508
 10
-91.12867
 20
493.891083
 10
-91.084145
 20
494.638428
 10
-90.990944
 20
495.39978
 10
-90.846077
 20
496.166656
 10
-90.647575
 20
496.929626
 10
-90.394676
 20
497.678406
 10
-90.08802
 20
498.402374
 10
-89.729721
 20
499.090942
 10
-89.323349
 20
499.733978
 10
-88.873871
 20
500.322418
 10
-88.387398
 20
500.848572
 10
-87.870972
 20
501.306488
 10
-87.332169
 20
501.69223
 10
-86.778816
 20
502.003815
 10
-86.218597
 20
502.241272
 10
-85.658775
 20
502.406464
 10
-85.105957
 20
502.502716
 10
-84.551651
 20
502.534668
  0
ARC
  5
1CC
330
1C9
100
AcDbEntity
  8
0
  6
Continuous
 62
     0
370
    30
100
AcDbCircle
 10
95.304613
 20
445.534679
 30
0.0
 40
3.0
100
AcDbArc
 50
180.0
 51
0.0
  0
LINE
  5
1CD
330
1C9
100
AcDbEntity
  8
0
  6
Continuous
 62
     0
370
    30
100
AcDbLine
 10
98.304613
 20
445.534679
 30
0.0
 11
98.304613
 21
458.534679
 31
0.0
  0
LINE
  5
1CE
330
1C9
100
AcDbEntity
  8
0
  6
Continuous
 62
     0
370
     0
100
AcDbLine
 10
98.304613
 20
458.534679
 30
0.0
 11
92.304613
 21
458.534679
 31
0.0
  0
ARC
  5
1CF
330
1C9
100
AcDbEntity
  8
0
  6
Continuous
 62
     0
370
    30
100
AcDbCircle
 10
73.304613
 20
445.534679
 30
0.0
 40
3.0
100
AcDbArc
 50
180.0
 51
0.0
  0
LINE
  5
1D0
330
1C9
100
AcDbEntity
  8
0
  6
Continuous
 62
     0
370
    30
100
AcDbLine
 10
76.304613
 20
445.534679
 30
0.0
 11
76.304613
 21
458.534679
 31
0.0
  0
LINE
  5
1D1
330
1C9
100
AcDbEntity
  8
0
  6
Continuous
 62
     0
370
     0
100
AcDbLine
 10
76.304613
 20
458.534679
 30
0.0
 11
70.304613
 21
458.534679
 31
0.0
  0
ARC
  5
1D2
330
1C9
100
AcDbEntity
  8
0
  6
Continuous
 62
     0
370
    30
100
AcDbCircle
 10
51.304614
 20
445.534679
 30
0.0
 40
3.0
100
AcDbArc
 50
180.0
 51
0.0
  0
LINE
  5
1D3
330
1C9
100
AcDbEntity
  8
0
  6
Continuous
 62
     0
370
    30
100
AcDbLine
 10
54.304614
 20
445.534679
 30
0.0
 11
54.304614
 21
458.534679
 31
0.0
  0
LINE
  5
1D4
330
1C9
100
AcDbEntity
  8
0
  6
Continuous
 62
     0
370
     0
100
AcDbLine
 10
54.304614
 20
458.534679
 30
0.0
 11
48.304614
 21
458.534679
 31
0.0
  0
ARC
  5
1D5
330
1C9
100
AcDbEntity
  8
0
  6
Continuous
 62
     0
370
    30
100
AcDbCircle
 10
29.304615
 20
445.534679
 30
0.0
 40
3.0
100
AcDbArc
 50
180.0
 51
0.0
  0
LINE
  5
1D6
330
1C9
100
AcDbEntity
  8
0
  6
Continuous
 62
     0
370
    30
100
AcDbLine
 10
32.304615
 20
445.534679
 30
0.0
 11
32.304615
 21
458.534679
 31
0.0
  0
LINE
  5
1D7
330
1C9
100
AcDbEntity
  8
0
  6
Continuous
 62
     0
370
     0
100
AcDbLine
 10
32.304615
 20
458.534679
 30
0.0
 11
26.304615
 21
458.534679
 31
0.0
  0
ARC
  5
1D8
330
1C9
100
AcDbEntity
  8
0
  6
Continuous
 62
     0
370
    30
100
AcDbCircle
 10
7.304616
 20
445.534679
 30
0.0
 40
3.0
100
AcDbArc
 50
180.0
 51
0.0
  0
LINE
  5
1D9
330
1C9
100
AcDbEntity
  8
0
  6
Continuous
 62
     0
370
    30
100
AcDbLine
 10
10.304616
 20
445.534679
 30
0.0
 11
10.304616
 21
458.534679
 31
0.0
  0
LINE
  5
1DA
330
1C9
100
AcDbEntity
  8
0
  6
Continuous
 62
     0
370
     0
100
AcDbLine
 10
10.304616
 20
458.534679
 30
0.0
 11
4.304616
 21
458.534679
 31
0.0
  0
ARC
  5
1DB
330
1C9
100
AcDbEntity
  8
0
  6
Continuous
 62
     0
370
    30
100
AcDbCircle
 10
-14.695383
 20
445.534679
 30
0.0
 40
3.0
100
AcDbArc
 50
180.0
 51
0.0
  0
LINE
  5
1DC
330
1C9
100
AcDbEntity
  8
0
  6
Continuous
 62
     0
370
    30
100
AcDbLine
 10
-11.695383
 20
445.534679
 30
0.0
 11
-11.695383
 21
458.534679
 31
0.0
  0
LINE
  5
1DD
330
1C9
100
AcDbEntity
  8
0
  6
Continuous
 62
     0
370
     0
100
AcDbLine
 10
-11.695383
 20
458.534679
 30
0.0
 11
-17.695383
 21
458.534679
 31
0.0
  0
ARC
  5
1DE
330
1C9
100
AcDbEntity
  8
0
  6
Continuous
 62
     0
370
    30
100
AcDbCircle
 10
-36.695382
 20
445.534679
 30
0.0
 40
3.0
100
AcDbArc
 50
180.0
 51
0.0
  0
LINE
  5
1DF
330
1C9
100
AcDbEntity
  8
0
  6
Continuous
 62
     0
370
    30
100
AcDbLine
 10
-33.695382
 20
445.534679
 30
0.0
 11
-33.695382
 21
458.534679
 31
0.0
  0
LINE
  5
1E0
330
1C9
100
AcDbEntity
  8
0
  6
Continuous
 62
     0
370
     0
100
AcDbLine
 10
-33.695382
 20
458.534679
 30
0.0
 11
-39.695382
 21
458.534679
 31
0.0
  0
ARC
  5
1E1
330
1C9
100
AcDbEntity
  8
0
  6
Continuous
 62
     0
370
    30
100
AcDbCircle
 10
-58.695381
 20
445.534679
 30
0.0
 40
3.0
100
AcDbArc
 50
180.0
 51
0.0
  0
LINE
  5
1E2
330
1C9
100
AcDbEntity
  8
0
  6
Continuous
 62
     0
370
    30
100
AcDbLine
 10
-55.695381
 20
445.534679
 30
0.0
 11
-55.695381
 21
458.534679
 31
0.0
  0
LINE
  5
1E3
330
1C9
100
AcDbEntity
  8
0
  6
Continuous
 62
     0
370
     0
100
AcDbLine
 10
-55.695381
 20
458.534679
 30
0.0
 11
-61.695381
 21
458.534679
 31
0.0
  0
LINE
  5
1E4
330
1C9
100
AcDbEntity
  8
0
  6
Continuous
 62
     0
370
    30
100
AcDbLine
 10
76.304613
 20
458.534679
 30
0.0
 11
76.304613
 21
484.037427
 31
0.0
  0
LWPOLYLINE
  5
1E5
330
1C9
100
AcDbEntity
  8
0
  6
Continuous
 62
     0
370
     0
100
AcDbPolyline
 90
        3
 70
     0
 43
0.0
 10
76.298218
 20
484.034668
 10
76.255722
 20
484.043152
 10
76.136223
 20
484.080078
  0
LWPOLYLINE
  5
1E6
330
1C9
100
AcDbEntity
  8
0
  6
Continuous
 62
     0
370
     0
100
AcDbPolyline
 90
       19
 70
     0
 43
0.0
 10
76.136223
 20
484.080078
 10
75.948334
 20
484.142487
 10
75.696136
 20
484.22464
 10
75.387245
 20
484.318542
 10
75.0299
 20
484.415955
 10
74.63208
 20
484.50943
 10
74.201775
 20
484.591583
 10
73.747513
 20
484.654694
 10
73.279518
 20
484.692535
 10
72.810616
 20
484.702332
 10
72.354347
 20
484.6828
 10
71.923187
 20
484.635254
 10
71.52729
 20
484.564545
 10
71.17514
 20
484.477509
 10
70.874626
 20
484.381592
 10
70.632767
 20
484.284424
 10
70.454407
 20
484.193939
 10
70.34404
 20
484.118073
 10
70.305122
 20
484.062836
  0
LINE
  5
1E7
330
1C9
100
AcDbEntity
  8
0
  6
Continuous
 62
     0
370
    30
100
AcDbLine
 10
-55.695381
 20
458.534679
 30
0.0
 11
-55.695381
 21
484.386032
 31
0.0
  0
LWPOLYLINE
  5
1E8
330
1C9
100
AcDbEntity
  8
0
  6
Continuous
 62
     0
370
     0
100
AcDbPolyline
 90
        7
 70
     0
 43
0.0
 10
-55.695381
 20
484.386047
 10
-55.720558
 20
484.300171
 10
-55.796009
 20
484.218811
 10
-55.921104
 20
484.147491
 10
-56.094982
 20
484.090729
 10
-56.315903
 20
484.052521
 10
-56.649387
 20
484.034668
  0
LWPOLYLINE
  5
1E9
330
1C9
100
AcDbEntity
  8
0
  6
Continuous
 62
     0
370
     0
100
AcDbPolyline
 90
       16
 70
     0
 43
0.0
 10
-56.649387
 20
484.034668
 10
-57.014526
 20
484.050293
 10
-57.419167
 20
484.095398
 10
-57.851105
 20
484.165253
 10
-58.301723
 20
484.254028
 10
-58.760445
 20
484.353546
 10
-59.216087
 20
484.455017
 10
-59.659073
 20
484.549133
 10
-60.082596
 20
484.626221
 10
-60.476505
 20
484.679291
 10
-60.829468
 20
484.702637
 10
-61.130928
 20
484.69165
 10
-61.372604
 20
484.648895
 10
-61.548717
 20
484.579895
 10
-61.656597
 20
484.490875
 10
-61.695374
 20
484.385925
  0
LINE
  5
1EA
330
1C9
100
AcDbEntity
  8
0
  6
Continuous
 62
     0
370
    30
100
AcDbLine
 10
-84.551648
 20
484.534679
 30
0.0
 11
-61.726501
 21
484.534679
 31
0.0
  0
LWPOLYLINE
  5
1EB
330
1C9
100
AcDbEntity
  8
0
  6
Continuous
 62
     0
370
     0
100
AcDbPolyline
 90
       20
 70
     0
 43
0.0
 10
-61.771954
 20
484.607544
 10
-61.954002
 20
484.676849
 10
-62.062496
 20
484.760742
 10
-62.097919
 20
484.851898
 10
-62.061172
 20
484.942719
 10
-61.954193
 20
485.025848
 10
-61.779121
 20
485.09436
 10
-61.539761
 20
485.14267
 10
-61.240898
 20
485.165894
 10
-60.888798
 20
485.162079
 10
-60.490814
 20
485.131378
 10
-60.05563
 20
485.076843
 10
-59.592789
 20
485.00354
 10
-59.110664
 20
484.91748
 10
-58.616734
 20
484.825806
 10
-58.119629
 20
484.735962
 10
-57.630856
 20
484.655487
 10
-57.159065
 20
484.591431
 10
-56.714962
 20
484.549622
 10
-56.308388
 20
484.534668
  0
LINE
  5
1EC
330
1C9
100
AcDbEntity
  8
0
  6
Continuous
 62
     0
370
    30
100
AcDbLine
 10
-56.308387
 20
484.534679
 30
0.0
 11
-39.726502
 21
484.534679
 31
0.0
  0
LWPOLYLINE
  5
1ED
330
1C9
100
AcDbEntity
  8
0
  6
Continuous
 62
     0
370
     0
100
AcDbPolyline
 90
       20
 70
     0
 43
0.0
 10
-39.771954
 20
484.607544
 10
-39.954002
 20
484.676849
 10
-40.0625
 20
484.760742
 10
-40.097923
 20
484.851898
 10
-40.061172
 20
484.942719
 10
-39.954197
 20
485.025848
 10
-39.779121
 20
485.09436
 10
-39.539761
 20
485.14267
 10
-39.240898
 20
485.165894
 10
-38.888798
 20
485.162079
 10
-38.490814
 20
485.131378
 10
-38.05563
 20
485.076843
 10
-37.592793
 20
485.00354
 10
-37.110664
 20
484.91748
 10
-36.616737
 20
484.825806
 10
-36.119633
 20
484.735962
 10
-35.630856
 20
484.655487
 10
-35.159065
 20
484.591431
 10
-34.714962
 20
484.549622
 10
-34.308388
 20
484.534668
  0
LINE
  5
1EE
330
1C9
100
AcDbEntity
  8
0
  6
Continuous
 62
     0
370
    30
100
AcDbLine
 10
-34.308388
 20
484.534679
 30
0.0
 11
-17.726503
 21
484.534679
 31
0.0
  0
LWPOLYLINE
  5
1EF
330
1C9
100
AcDbEntity
  8
0
  6
Continuous
 62
     0
370
     0
100
AcDbPolyline
 90
       20
 70
     0
 43
0.0
 10
-17.771954
 20
484.607544
 10
-17.954004
 20
484.676849
 10
-18.0625
 20
484.760742
 10
-18.097923
 20
484.851898
 10
-18.061174
 20
484.942719
 10
-17.954197
 20
485.025848
 10
-17.779123
 20
485.09436
 10
-17.539762
 20
485.14267
 10
-17.240898
 20
485.165894
 10
-16.8888
 20
485.162079
 10
-16.490816
 20
485.131378
 10
-16.05563
 20
485.076843
 10
-15.592792
 20
485.00354
 10
-15.110665
 20
484.91748
 10
-14.616737
 20
484.825806
 10
-14.119633
 20
484.735962
 10
-13.630857
 20
484.655487
 10
-13.159067
 20
484.591431
 10
-12.714964
 20
484.549622
 10
-12.308389
 20
484.534668
  0
LINE
  5
1F0
330
1C9
100
AcDbEntity
  8
0
  6
Continuous
 62
     0
370
    30
100
AcDbLine
 10
-12.308389
 20
484.534679
 30
0.0
 11
4.273496
 21
484.534679
 31
0.0
  0
LWPOLYLINE
  5
1F1
330
1C9
100
AcDbEntity
  8
0
  6
Continuous
 62
     0
370
     0
100
AcDbPolyline
 90
       20
 70
     0
 43
0.0
 10
4.228045
 20
484.607544
 10
4.045994
 20
484.676849
 10
3.937499
 20
484.760742
 10
3.902076
 20
484.851898
 10
3.938825
 20
484.942719
 10
4.045802
 20
485.025848
 10
4.220875
 20
485.09436
 10
4.460237
 20
485.14267
 10
4.7591
 20
485.165894
 10
5.1112
 20
485.162079
 10
5.509183
 20
485.131378
 10
5.944368
 20
485.076843
 10
6.407207
 20
485.00354
 10
6.889334
 20
484.91748
 10
7.383262
 20
484.825806
 10
7.880366
 20
484.735962
 10
8.369143
 20
484.655487
 10
8.840931
 20
484.591431
 10
9.285035
 20
484.549622
 10
9.691609
 20
484.534668
  0
LINE
  5
1F2
330
1C9
100
AcDbEntity
  8
0
  6
Continuous
 62
     0
370
    30
100
AcDbLine
 10
9.69161
 20
484.534679
 30
0.0
 11
26.273495
 21
484.534679
 31
0.0
  0
LWPOLYLINE
  5
1F3
330
1C9
100
AcDbEntity
  8
0
  6
Continuous
 62
     0
370
     0
100
AcDbPolyline
 90
       20
 70
     0
 43
0.0
 10
26.228045
 20
484.607544
 10
26.045994
 20
484.676849
 10
25.937498
 20
484.760742
 10
25.902075
 20
484.851898
 10
25.938824
 20
484.942719
 10
26.045801
 20
485.025848
 10
26.220875
 20
485.09436
 10
26.460236
 20
485.14267
 10
26.759098
 20
485.165894
 10
27.111198
 20
485.162079
 10
27.509182
 20
485.131378
 10
27.944366
 20
485.076843
 10
28.407206
 20
485.00354
 10
28.889332
 20
484.91748
 10
29.383261
 20
484.825806
 10
29.880365
 20
484.735962
 10
30.369143
 20
484.655487
 10
30.840931
 20
484.591431
 10
31.285034
 20
484.549622
 10
31.691608
 20
484.534668
  0
LINE
  5
1F4
330
1C9
100
AcDbEntity
  8
0
  6
Continuous
 62
     0
370
    30
100
AcDbLine
 10
31.691609
 20
484.534679
 30
0.0
 11
48.273494
 21
484.534679
 31
0.0
  0
LWPOLYLINE
  5
1F5
330
1C9
100
AcDbEntity
  8
0
  6
Continuous
 62
     0
370
     0
100
AcDbPolyline
 90
       20
 70
     0
 43
0.0
 10
48.228043
 20
484.607544
 10
48.045994
 20
484.676849
 10
47.937496
 20
484.760742
 10
47.902073
 20
484.851898
 10
47.938824
 20
484.942719
 10
48.045799
 20
485.025848
 10
48.220875
 20
485.09436
 10
48.460236
 20
485.14267
 10
48.759098
 20
485.165894
 10
49.111198
 20
485.162079
 10
49.509182
 20
485.131378
 10
49.944366
 20
485.076843
 10
50.407204
 20
485.00354
 10
50.889332
 20
484.91748
 10
51.383259
 20
484.825806
 10
51.880363
 20
484.735962
 10
52.369141
 20
484.655487
 10
52.840931
 20
484.591431
 10
53.285034
 20
484.549622
 10
53.691608
 20
484.534668
  0
LINE
  5
1F6
330
1C9
100
AcDbEntity
  8
0
  6
Continuous
 62
     0
370
    30
100
AcDbLine
 10
53.691608
 20
484.534679
 30
0.0
 11
59.055669
 21
484.534679
 31
0.0
  0
ELLIPSE
  5
1F7
330
1C9
100
AcDbEntity
  8
0
  6
Continuous
 62
     0
370
     0
100
AcDbEllipse
 10
59.055669
 20
493.534679
 30
0.0
 11
0.0
 21
-9.0
 31
0.0
210
0.0
220
0.0
230
-1.0
 40
0.731354
 41
0.0000000000000032
 42
3.141592653589786
  0
LINE
  5
1F8
330
1C9
100
AcDbEntity
  8
0
  6
Continuous
 62
     0
370
    30
100
AcDbLine
 10
-33.695382
 20
458.534679
 30
0.0
 11
-33.695382
 21
484.386032
 31
0.0
  0
LWPOLYLINE
  5
1F9
330
1C9
100
AcDbEntity
  8
0
  6
Continuous
 62
     0
370
     0
100
AcDbPolyline
 90
        7
 70
     0
 43
0.0
 10
-33.695381
 20
484.386047
 10
-33.720558
 20
484.300171
 10
-33.796009
 20
484.218811
 10
-33.921104
 20
484.147491
 10
-34.094986
 20
484.090729
 10
-34.315903
 20
484.052521
 10
-34.649387
 20
484.034668
  0
LWPOLYLINE
  5
1FA
330
1C9
100
AcDbEntity
  8
0
  6
Continuous
 62
     0
370
     0
100
AcDbPolyline
 90
       16
 70
     0
 43
0.0
 10
-34.649387
 20
484.034668
 10
-35.014526
 20
484.050293
 10
-35.419167
 20
484.095398
 10
-35.851105
 20
484.165253
 10
-36.301723
 20
484.254028
 10
-36.760448
 20
484.353546
 10
-37.216087
 20
484.455017
 10
-37.659073
 20
484.549133
 10
-38.0826
 20
484.626221
 10
-38.476505
 20
484.679291
 10
-38.829472
 20
484.702637
 10
-39.130928
 20
484.69165
 10
-39.372604
 20
484.648895
 10
-39.548721
 20
484.579895
 10
-39.656597
 20
484.490875
 10
-39.695374
 20
484.385925
  0
LINE
  5
1FB
330
1C9
100
AcDbEntity
  8
0
  6
Continuous
 62
     0
370
    30
100
AcDbLine
 10
-11.695383
 20
458.534679
 30
0.0
 11
-11.695383
 21
484.386032
 31
0.0
  0
LWPOLYLINE
  5
1FC
330
1C9
100
AcDbEntity
  8
0
  6
Continuous
 62
     0
370
     0
100
AcDbPolyline
 90
        7
 70
     0
 43
0.0
 10
-11.695383
 20
484.386047
 10
-11.720559
 20
484.300171
 10
-11.796012
 20
484.218811
 10
-11.921106
 20
484.147491
 10
-12.094985
 20
484.090729
 10
-12.315904
 20
484.052521
 10
-12.649388
 20
484.034668
  0
LWPOLYLINE
  5
1FD
330
1C9
100
AcDbEntity
  8
0
  6
Continuous
 62
     0
370
     0
100
AcDbPolyline
 90
       16
 70
     0
 43
0.0
 10
-12.649388
 20
484.034668
 10
-13.014529
 20
484.050293
 10
-13.419167
 20
484.095398
 10
-13.851106
 20
484.165253
 10
-14.301724
 20
484.254028
 10
-14.760448
 20
484.353546
 10
-15.21609
 20
484.455017
 10
-15.659075
 20
484.549133
 10
-16.0826
 20
484.626221
 10
-16.476507
 20
484.679291
 10
-16.829472
 20
484.702637
 10
-17.13093
 20
484.69165
 10
-17.372606
 20
484.648895
 10
-17.548721
 20
484.579895
 10
-17.656599
 20
484.490875
 10
-17.695374
 20
484.385925
  0
LINE
  5
1FE
330
1C9
100
AcDbEntity
  8
0
  6
Continuous
 62
     0
370
    30
100
AcDbLine
 10
10.304616
 20
458.534679
 30
0.0
 11
10.304616
 21
484.386032
 31
0.0
  0
LWPOLYLINE
  5
1FF
330
1C9
100
AcDbEntity
  8
0
  6
Continuous
 62
     0
370
     0
100
AcDbPolyline
 90
        7
 70
     0
 43
0.0
 10
10.304616
 20
484.386047
 10
10.27944
 20
484.300171
 10
10.203987
 20
484.218811
 10
10.078893
 20
484.147491
 10
9.905014
 20
484.090729
 10
9.684095
 20
484.052521
 10
9.350611
 20
484.034668
  0
LWPOLYLINE
  5
200
330
1C9
100
AcDbEntity
  8
0
  6
Continuous
 62
     0
370
     0
100
AcDbPolyline
 90
       16
 70
     0
 43
0.0
 10
9.350611
 20
484.034668
 10
8.98547
 20
484.050293
 10
8.580832
 20
484.095398
 10
8.148893
 20
484.165253
 10
7.698275
 20
484.254028
 10
7.239551
 20
484.353546
 10
6.783909
 20
484.455017
 10
6.340924
 20
484.549133
 10
5.917399
 20
484.626221
 10
5.523492
 20
484.679291
 10
5.170527
 20
484.702637
 10
4.86907
 20
484.69165
 10
4.627392
 20
484.648895
 10
4.451278
 20
484.579895
 10
4.343401
 20
484.490875
 10
4.304625
 20
484.385925
  0
LINE
  5
201
330
1C9
100
AcDbEntity
  8
0
  6
Continuous
 62
     0
370
    30
100
AcDbLine
 10
32.304615
 20
458.534679
 30
0.0
 11
32.304615
 21
484.386032
 31
0.0
  0
LWPOLYLINE
  5
202
330
1C9
100
AcDbEntity
  8
0
  6
Continuous
 62
     0
370
     0
100
AcDbPolyline
 90
        7
 70
     0
 43
0.0
 10
32.304615
 20
484.386047
 10
32.279438
 20
484.300171
 10
32.203987
 20
484.218811
 10
32.078892
 20
484.147491
 10
31.905012
 20
484.090729
 10
31.684093
 20
484.052521
 10
31.350609
 20
484.034668
  0
LWPOLYLINE
  5
203
330
1C9
100
AcDbEntity
  8
0
  6
Continuous
 62
     0
370
     0
100
AcDbPolyline
 90
       16
 70
     0
 43
0.0
 10
31.350609
 20
484.034668
 10
30.98547
 20
484.050293
 10
30.580832
 20
484.095398
 10
30.148891
 20
484.165253
 10
29.698275
 20
484.254028
 10
29.23955
 20
484.353546
 10
28.783907
 20
484.455017
 10
28.340923
 20
484.549133
 10
27.917398
 20
484.626221
 10
27.523491
 20
484.679291
 10
27.170527
 20
484.702637
 10
26.869068
 20
484.69165
 10
26.627392
 20
484.648895
 10
26.451277
 20
484.579895
 10
26.343399
 20
484.490875
 10
26.304623
 20
484.385925
  0
LINE
  5
204
330
1C9
100
AcDbEntity
  8
0
  6
Continuous
 62
     0
370
    30
100
AcDbLine
 10
54.304614
 20
458.534679
 30
0.0
 11
54.304614
 21
484.386032
 31
0.0
  0
LWPOLYLINE
  5
205
330
1C9
100
AcDbEntity
  8
0
  6
Continuous
 62
     0
370
     0
100
AcDbPolyline
 90
        7
 70
     0
 43
0.0
 10
54.304615
 20
484.386047
 10
54.279438
 20
484.300171
 10
54.203987
 20
484.218811
 10
54.078892
 20
484.147491
 10
53.90501
 20
484.090729
 10
53.684093
 20
484.052521
 10
53.350609
 20
484.034668
  0
LWPOLYLINE
  5
206
330
1C9
100
AcDbEntity
  8
0
  6
Continuous
 62
     0
370
     0
100
AcDbPolyline
 90
       16
 70
     0
 43
0.0
 10
53.350609
 20
484.034668
 10
52.985466
 20
484.050293
 10
52.58083
 20
484.095398
 10
52.148891
 20
484.165253
 10
51.698273
 20
484.254028
 10
51.239548
 20
484.353546
 10
50.783905
 20
484.455017
 10
50.340923
 20
484.549133
 10
49.917397
 20
484.626221
 10
49.523491
 20
484.679291
 10
49.170525
 20
484.702637
 10
48.869068
 20
484.69165
 10
48.627392
 20
484.648895
 10
48.451275
 20
484.579895
 10
48.343399
 20
484.490875
 10
48.304623
 20
484.385925
  0
LINE
  5
207
330
1C9
100
AcDbEntity
  8
0
  6
Continuous
 62
     0
370
    30
100
AcDbLine
 10
59.055669
 20
484.534679
 30
0.0
 11
69.882286
 21
484.534679
 31
0.0
  0
LWPOLYLINE
  5
208
330
1C9
100
AcDbEntity
  8
0
  6
Continuous
 62
     0
370
     0
100
AcDbPolyline
 90
       23
 70
     0
 43
0.0
 10
69.882286
 20
484.534668
 10
69.82177
 20
484.5466
 10
69.82634
 20
484.580994
 10
69.901154
 20
484.634094
 10
70.039429
 20
484.70166
 10
70.236015
 20
484.778687
 10
70.489243
 20
484.859741
 10
70.791077
 20
484.939911
 10
71.136841
 20
485.014099
 10
71.521599
 20
485.077515
 10
71.938492
 20
485.126129
 10
72.38131
 20
485.156677
 10
72.842072
 20
485.16748
 10
73.311531
 20
485.157562
 10
73.780586
 20
485.127014
 10
74.240692
 20
485.078491
 10
74.683449
 20
485.015198
 10
75.10183
 20
484.94101
 10
75.490242
 20
484.860565
 10
75.842949
 20
484.778503
 10
76.151581
 20
484.700348
 10
76.405861
 20
484.632233
 10
76.608154
 20
484.577698
  0
LINE
  5
209
330
1C9
100
AcDbEntity
  8
0
  6
Continuous
 62
     0
370
     0
100
AcDbLine
 10
76.608157
 20
502.534679
 30
0.0
 11
76.608157
 21
484.577691
 31
0.0
  0
LINE
  5
20A
330
1C9
100
AcDbEntity
  8
0
  6
Continuous
 62
     0
370
    30
100
AcDbLine
 10
98.304613
 20
458.534679
 30
0.0
 11
98.304613
 21
484.034679
 31
0.0
  0
LWPOLYLINE
  5
20B
330
1C9
100
AcDbEntity
  8
0
  6
Continuous
 62
     0
370
     0
100
AcDbPolyline
 90
       22
 70
     0
 43
0.0
 10
98.304611
 20
484.034668
 10
98.270439
 20
484.049347
 10
98.16938
 20
484.091827
 10
98.004852
 20
484.157837
 10
97.780579
 20
484.242218
 10
97.502556
 20
484.337738
 10
97.17762
 20
484.436371
 10
96.812218
 20
484.529816
 10
96.411507
 20
484.60907
 10
95.982887
 20
484.667206
 10
95.53627
 20
484.698914
 10
95.08342
 20
484.69928
 10
94.63652
 20
484.668182
 10
94.207428
 20
484.610535
 10
93.80587
 20
484.531525
 10
93.439613
 20
484.438446
 10
93.114662
 20
484.341064
 10
92.836891
 20
484.246002
 10
92.611931
 20
484.160828
 10
92.445091
 20
484.093872
 10
92.3414
 20
484.050446
 10
92.304611
 20
484.034668
  0
ARC
  5
20C
330
1C9
100
AcDbEntity
  8
0
  6
Continuous
 62
     0
370
    30
100
AcDbCircle
 10
76.804607
 20
484.034707
 30
0.0
 40
0.4999698135322251
100
AcDbArc
 50
91.230153
 51
176.880378
  0
ARC
  5
20D
330
1C9
100
AcDbEntity
  8
0
  6
Continuous
 62
     0
370
    30
100
AcDbCircle
 10
69.804629
 20
484.034703
 30
0.0
 40
0.4999764566668948
100
AcDbArc
 50
3.218678
 51
90.000826
  0
ARC
  5
20E
330
1C9
100
AcDbEntity
  8
0
  6
Continuous
 62
     0
370
    30
100
AcDbCircle
 10
54.804622
 20
484.034679
 30
0.0
 40
0.500000000002804
100
AcDbArc
 50
90.0
 51
180.0
  0
ARC
  5
20F
330
1C9
100
AcDbEntity
  8
0
  6
Continuous
 62
     0
370
    30
100
AcDbCircle
 10
47.804622
 20
484.034679
 30
0.0
 40
0.5000000000028284
100
AcDbArc
 50
0.0
 51
90.0
  0
ARC
  5
210
330
1C9
100
AcDbEntity
  8
0
  6
Continuous
 62
     0
370
    30
100
AcDbCircle
 10
32.804622
 20
484.034679
 30
0.0
 40
0.500000000002732
100
AcDbArc
 50
90.0
 51
180.0
  0
ARC
  5
211
330
1C9
100
AcDbEntity
  8
0
  6
Continuous
 62
     0
370
    30
100
AcDbCircle
 10
25.804622
 20
484.034679
 30
0.0
 40
0.500000000002812
100
AcDbArc
 50
0.0
 51
90.0
  0
ARC
  5
212
330
1C9
100
AcDbEntity
  8
0
  6
Continuous
 62
     0
370
    30
100
AcDbCircle
 10
10.804622
 20
484.034679
 30
0.0
 40
0.5000000000032321
100
AcDbArc
 50
90.0
 51
180.0
  0
ARC
  5
213
330
1C9
100
AcDbEntity
  8
0
  6
Continuous
 62
     0
370
    30
100
AcDbCircle
 10
3.804622
 20
484.034679
 30
0.0
 40
0.5000000000028484
100
AcDbArc
 50
0.0
 51
90.0
  0
ARC
  5
214
330
1C9
100
AcDbEntity
  8
0
  6
Continuous
 62
     0
370
    30
100
AcDbCircle
 10
-11.195378
 20
484.034679
 30
0.0
 40
0.5000000000030891
100
AcDbArc
 50
90.0
 51
180.0
  0
ARC
  5
215
330
1C9
100
AcDbEntity
  8
0
  6
Continuous
 62
     0
370
    30
100
AcDbCircle
 10
-18.195378
 20
484.034679
 30
0.0
 40
0.5000000000030838
100
AcDbArc
 50
0.0
 51
90.0
  0
ARC
  5
216
330
1C9
100
AcDbEntity
  8
0
  6
Continuous
 62
     0
370
    30
100
AcDbCircle
 10
-33.195378
 20
484.034679
 30
0.0
 40
0.5000000000032543
100
AcDbArc
 50
90.0
 51
180.0
  0
ARC
  5
217
330
1C9
100
AcDbEntity
  8
0
  6
Continuous
 62
     0
370
    30
100
AcDbCircle
 10
-40.195378
 20
484.034679
 30
0.0
 40
0.5000000000022169
100
AcDbArc
 50
0.0
 51
90.0
  0
ARC
  5
218
330
1C9
100
AcDbEntity
  8
0
  6
Continuous
 62
     0
370
    30
100
AcDbCircle
 10
-55.195378
 20
484.034679
 30
0.0
 40
0.5000000000019282
100
AcDbArc
 50
90.0
 51
180.0
  0
ARC
  5
219
330
1C9
100
AcDbEntity
  8
0
  6
Continuous
 62
     0
370
    30
100
AcDbCircle
 10
-62.195378
 20
484.034679
 30
0.0
 40
0.5000000000012017
100
AcDbArc
 50
0.0
 51
90.0
  0
LWPOLYLINE
  5
21A
330
1C9
100
AcDbEntity
  8
0
  6
Continuous
 62
     0
370
     0
100
AcDbPolyline
 90
       24
 70
     0
 43
0.0
 10
91.804611
 20
484.534668
 10
91.838715
 20
484.546875
 10
91.943314
 20
484.582489
 10
92.112572
 20
484.63797
 10
92.339951
 20
484.708893
 10
92.620979
 20
484.789948
 10
92.948631
 20
484.875092
 10
93.31636
 20
484.958374
 10
93.718437
 20
485.033905
 10
94.149231
 20
485.096313
 10
94.601135
 20
485.141174
 10
95.065796
 20
485.164612
 10
95.534767
 20
485.164825
 10
95.999588
 20
485.141815
 10
96.45182
 20
485.097321
 10
96.883064
 20
485.035187
 10
97.285698
 20
484.959839
 10
97.654114
 20
484.876678
 10
97.982613
 20
484.791504
 10
98.264641
 20
484.710327
 10
98.493011
 20
484.63916
 10
98.6633
 20
484.583344
 10
98.769196
 20
484.547333
 10
98.804611
 20
484.534668
  0
ARC
  5
21B
330
1C9
100
AcDbEntity
  8
0
  6
Continuous
 62
     0
370
    30
100
AcDbCircle
 10
91.804613
 20
484.034679
 30
0.0
 40
0.5000000000025189
100
AcDbArc
 50
0.0
 51
90.0
  0
ARC
  5
21C
330
1C9
100
AcDbEntity
  8
0
  6
Continuous
 62
     0
370
    30
100
AcDbCircle
 10
98.804613
 20
484.034679
 30
0.0
 40
0.5000000000028386
100
AcDbArc
 50
90.0
 51
180.0
  0
LWPOLYLINE
  5
21D
330
1C9
100
AcDbEntity
  8
0
  6
Continuous
 62
     0
370
     0
100
AcDbPolyline
 90
        5
 70
     0
 43
0.0
 10
76.136223
 20
484.080078
 10
76.175415
 20
484.264435
 10
76.276146
 20
484.422607
 10
76.424095
 20
484.532074
 10
76.608154
 20
484.577698
  0
ARC
  5
21E
330
1C9
100
AcDbEntity
  8
0
  6
Continuous
 62
     0
370
     0
100
AcDbCircle
 10
76.797683
 20
484.035212
 30
0.0
 40
0.4994677399761265
100
AcDbArc
 50
90.061221
 51
180.06109
  0
ARC
  5
21F
330
1C9
100
AcDbEntity
  8
0
  6
Continuous
 62
     0
370
     0
100
AcDbCircle
 10
76.804511
 20
484.037349
 30
0.0
 40
0.4998977729294425
100
AcDbArc
 50
110.672227
 51
179.991131
  0
LWPOLYLINE
  5
220
330
1C9
100
AcDbEntity
  8
0
  6
Continuous
 62
     0
370
     0
100
AcDbPolyline
 90
        5
 70
     0
 43
0.0
 10
53.691608
 20
484.534668
 10
53.561821
 20
484.49704
 10
53.451569
 20
484.389801
 10
53.377449
 20
484.229126
 10
53.350609
 20
484.034668
  0
LWPOLYLINE
  5
221
330
1C9
100
AcDbEntity
  8
0
  6
Continuous
 62
     0
370
     0
100
AcDbPolyline
 90
        5
 70
     0
 43
0.0
 10
31.691608
 20
484.534668
 10
31.561823
 20
484.49704
 10
31.451571
 20
484.389801
 10
31.377453
 20
484.229126
 10
31.350609
 20
484.034668
  0
LWPOLYLINE
  5
222
330
1C9
100
AcDbEntity
  8
0
  6
Continuous
 62
     0
370
     0
100
AcDbPolyline
 90
        5
 70
     0
 43
0.0
 10
9.691609
 20
484.534668
 10
9.561824
 20
484.49704
 10
9.451571
 20
484.389801
 10
9.377453
 20
484.229126
 10
9.350611
 20
484.034668
  0
LWPOLYLINE
  5
223
330
1C9
100
AcDbEntity
  8
0
  6
Continuous
 62
     0
370
     0
100
AcDbPolyline
 90
        5
 70
     0
 43
0.0
 10
-12.308389
 20
484.534668
 10
-12.438175
 20
484.49704
 10
-12.548429
 20
484.389801
 10
-12.622546
 20
484.229126
 10
-12.649388
 20
484.034668
  0
LWPOLYLINE
  5
224
330
1C9
100
AcDbEntity
  8
0
  6
Continuous
 62
     0
370
     0
100
AcDbPolyline
 90
        5
 70
     0
 43
0.0
 10
-34.308388
 20
484.534668
 10
-34.438175
 20
484.49704
 10
-34.548428
 20
484.389801
 10
-34.622543
 20
484.229126
 10
-34.649387
 20
484.034668
  0
LWPOLYLINE
  5
225
330
1C9
100
AcDbEntity
  8
0
  6
Continuous
 62
     0
370
     0
100
AcDbPolyline
 90
        5
 70
     0
 43
0.0
 10
-56.308388
 20
484.534668
 10
-56.438171
 20
484.49704
 10
-56.548428
 20
484.389801
 10
-56.622543
 20
484.229126
 10
-56.649387
 20
484.034668
  0
ARC
  5
226
330
1C9
100
AcDbEntity
  8
0
  6
Continuous
 62
     0
370
     0
100
AcDbCircle
 10
76.992492
 20
485.829736
 30
0.0
 40
1.309706190193298
100
AcDbArc
 50
252.935316
 51
261.422327
  0
LWPOLYLINE
  5
227
330
1C9
100
AcDbEntity
  8
0
  6
Continuous
 62
     0
370
     0
100
AcDbPolyline
 90
       18
 70
     0
 43
0.0
 10
107.204613
 20
484.534668
 10
107.239906
 20
484.54303
 10
107.346939
 20
484.566803
 10
107.518791
 20
484.602783
 10
107.75074
 20
484.64624
 10
108.035728
 20
484.691559
 10
108.363968
 20
484.732697
 10
108.72464
 20
484.763855
 10
109.105614
 20
484.780823
 10
109.49379
 20
484.781036
 10
109.875114
 20
484.764496
 10
110.236458
 20
484.733643
 10
110.565659
 20
484.692688
 10
110.851868
 20
484.6474
 10
111.085258
 20
484.60379
 10
111.258728
 20
484.567596
 10
111.367485
 20
484.543427
 10
111.40461
 20
484.534668
  0
LINE
  5
228
330
1C9
100
AcDbEntity
  8
0
  6
Continuous
 62
     0
370
    30
100
AcDbLine
 10
122.804613
 20
484.534679
 30
0.0
 11
122.804613
 21
502.534679
 31
0.0
  0
LINE
  5
229
330
1C9
100
AcDbEntity
  8
0
  6
Continuous
 62
     0
370
    30
100
AcDbLine
 10
111.404613
 20
484.534679
 30
0.0
 11
122.804613
 21
484.534679
 31
0.0
  0
LINE
  5
22A
330
1C9
100
AcDbEntity
  8
0
  6
Continuous
 62
     0
370
    30
100
AcDbLine
 10
98.804613
 20
484.534679
 30
0.0
 11
107.204613
 21
484.534679
 31
0.0
  0
LINE
  5
22B
330
1C9
100
AcDbEntity
  8
0
  6
Continuous
 62
     0
370
    30
100
AcDbLine
 10
76.797149
 20
484.534679
 30
0.0
 11
91.804613
 21
484.534679
 31
0.0
  0
LINE
  5
22C
330
1C9
100
AcDbEntity
  8
0
  6
Continuous
 62
     0
370
    30
100
AcDbLine
 10
76.608157
 20
502.534679
 30
0.0
 11
122.804613
 21
502.534679
 31
0.0
  0
LINE
  5
22D
330
1C9
100
AcDbEntity
  8
0
  6
Continuous
 62
     0
370
    30
100
AcDbLine
 10
107.204613
 20
484.534679
 30
0.0
 11
111.404613
 21
484.534679
 31
0.0
  0
LWPOLYLINE
  5
22E
330
1C9
100
AcDbEntity
  8
0
  6
Continuous
 62
     0
370
    30
100
AcDbPolyline
 90
        2
 70
     0
 43
0.0
 10
-55.695381
 20
484.38623
 10
-55.66394
 20
484.534668
  0
LWPOLYLINE
  5
22F
330
1C9
100
AcDbEntity
  8
0
  6
Continuous
 62
     0
370
    30
100
AcDbPolyline
 90
        4
 70
     0
 43
0.0
 10
-61.69537
 20
484.386597
 10
-61.723999
 20
484.528931
 10
-61.77689
 20
484.613159
 10
-61.801949
 20
484.636169
  0
LWPOLYLINE
  5
230
330
1C9
100
AcDbEntity
  8
0
  6
Continuous
 62
     0
370
    30
100
AcDbPolyline
 90
        2
 70
     0
 43
0.0
 10
-33.695381
 20
484.38623
 10
-33.663944
 20
484.534668
  0
LWPOLYLINE
  5
231
330
1C9
100
AcDbEntity
  8
0
  6
Continuous
 62
     0
370
    30
100
AcDbPolyline
 90
        4
 70
     0
 43
0.0
 10
-39.69537
 20
484.386597
 10
-39.724003
 20
484.528931
 10
-39.77689
 20
484.613159
 10
-39.801952
 20
484.636169
  0
LWPOLYLINE
  5
232
330
1C9
100
AcDbEntity
  8
0
  6
Continuous
 62
     0
370
    30
100
AcDbPolyline
 90
        2
 70
     0
 43
0.0
 10
-11.695383
 20
484.38623
 10
-11.663944
 20
484.534668
  0
LWPOLYLINE
  5
233
330
1C9
100
AcDbEntity
  8
0
  6
Continuous
 62
     0
370
    30
100
AcDbPolyline
 90
        4
 70
     0
 43
0.0
 10
-17.69537
 20
484.386597
 10
-17.724003
 20
484.528931
 10
-17.77689
 20
484.613159
 10
-17.801952
 20
484.636169
  0
LWPOLYLINE
  5
234
330
1C9
100
AcDbEntity
  8
0
  6
Continuous
 62
     0
370
    30
100
AcDbPolyline
 90
        2
 70
     0
 43
0.0
 10
10.304616
 20
484.38623
 10
10.336055
 20
484.534668
  0
LWPOLYLINE
  5
235
330
1C9
100
AcDbEntity
  8
0
  6
Continuous
 62
     0
370
    30
100
AcDbPolyline
 90
        4
 70
     0
 43
0.0
 10
4.304629
 20
484.386597
 10
4.275997
 20
484.528931
 10
4.223108
 20
484.613159
 10
4.198047
 20
484.636169
  0
LWPOLYLINE
  5
236
330
1C9
100
AcDbEntity
  8
0
  6
Continuous
 62
     0
370
    30
100
AcDbPolyline
 90
        2
 70
     0
 43
0.0
 10
32.304615
 20
484.38623
 10
32.336052
 20
484.534668
  0
LWPOLYLINE
  5
237
330
1C9
100
AcDbEntity
  8
0
  6
Continuous
 62
     0
370
    30
100
AcDbPolyline
 90
        4
 70
     0
 43
0.0
 10
26.304628
 20
484.386597
 10
26.275995
 20
484.528931
 10
26.223106
 20
484.613159
 10
26.198046
 20
484.636169
  0
LWPOLYLINE
  5
238
330
1C9
100
AcDbEntity
  8
0
  6
Continuous
 62
     0
370
    30
100
AcDbPolyline
 90
        2
 70
     0
 43
0.0
 10
54.304615
 20
484.38623
 10
54.336052
 20
484.534668
  0
LWPOLYLINE
  5
239
330
1C9
100
AcDbEntity
  8
0
  6
Continuous
 62
     0
370
    30
100
AcDbPolyline
 90
        4
 70
     0
 43
0.0
 10
48.304626
 20
484.386597
 10
48.275993
 20
484.528931
 10
48.223106
 20
484.613159
 10
48.198044
 20
484.636169
  0
LWPOLYLINE
  5
23A
330
1C9
100
AcDbEntity
  8
0
  6
Continuous
 62
     0
370
    30
100
AcDbPolyline
 90
        7
 70
     0
 43
0.0
 10
76.793861
 20
484.534668
 10
76.69873
 20
484.524292
 10
76.58564
 20
484.485718
 10
76.480873
 20
484.417633
 10
76.395493
 20
484.32428
 10
76.33625
 20
484.212097
 10
76.305229
 20
484.06192
  0
LWPOLYLINE
  5
23B
330
1C9
100
AcDbEntity
  8
0
  6
Continuous
 62
     0
370
    30
100
AcDbPolyline
 90
        7
 70
     0
 43
0.0
 10
69.884148
 20
484.534668
 10
69.906677
 20
484.533081
 10
69.973587
 20
484.518829
 10
70.078545
 20
484.471039
 10
70.187767
 20
484.377319
 10
70.268562
 20
484.245789
 10
70.304726
 20
484.062836
  0
LINE
  5
23C
330
1C9
100
AcDbEntity
  8
0
  6
Continuous
 62
     0
370
    30
100
AcDbLine
 10
92.304613
 20
484.034679
 30
0.0
 11
92.304613
 21
458.534679
 31
0.0
  0
LINE
  5
23D
330
1C9
100
AcDbEntity
  8
0
  6
Continuous
 62
     0
370
    30
100
AcDbLine
 10
59.055669
 20
502.534679
 30
0.0
 11
76.608157
 21
502.534679
 31
0.0
  0
LINE
  5
23E
330
1C9
100
AcDbEntity
  8
0
  6
Continuous
 62
     0
370
    30
100
AcDbLine
 10
48.304614
 20
484.385912
 30
0.0
 11
48.304614
 21
458.534679
 31
0.0
  0
LINE
  5
23F
330
1C9
100
AcDbEntity
  8
0
  6
Continuous
 62
     0
370
    30
100
AcDbLine
 10
26.304615
 20
484.385912
 30
0.0
 11
26.304615
 21
458.534679
 31
0.0
  0
LINE
  5
240
330
1C9
100
AcDbEntity
  8
0
  6
Continuous
 62
     0
370
    30
100
AcDbLine
 10
4.304616
 20
484.385912
 30
0.0
 11
4.304616
 21
458.534679
 31
0.0
  0
LINE
  5
241
330
1C9
100
AcDbEntity
  8
0
  6
Continuous
 62
     0
370
    30
100
AcDbLine
 10
-17.695383
 20
484.385912
 30
0.0
 11
-17.695383
 21
458.534679
 31
0.0
  0
LINE
  5
242
330
1C9
100
AcDbEntity
  8
0
  6
Continuous
 62
     0
370
    30
100
AcDbLine
 10
-39.695382
 20
484.385912
 30
0.0
 11
-39.695382
 21
458.534679
 31
0.0
  0
LINE
  5
243
330
1C9
100
AcDbEntity
  8
0
  6
Continuous
 62
     0
370
    30
100
AcDbLine
 10
59.055669
 20
502.534679
 30
0.0
 11
-84.551648
 21
502.534679
 31
0.0
  0
LINE
  5
244
330
1C9
100
AcDbEntity
  8
0
  6
Continuous
 62
     0
370
    30
100
AcDbLine
 10
-61.695381
 20
484.385912
 30
0.0
 11
-61.695381
 21
458.534679
 31
0.0
  0
LINE
  5
245
330
1C9
100
AcDbEntity
  8
0
  6
Continuous
 62
     0
370
    30
100
AcDbLine
 10
70.304613
 20
484.06284
 30
0.0
 11
70.304613
 21
458.534679
 31
0.0
  0
LINE
  5
246
330
1C9
100
AcDbEntity
  8
0
  6
Continuous
 62
     0
370
    30
100
AcDbLine
 10
-61.695381
 20
445.53468
 30
0.0
 11
-61.695381
 21
458.534679
 31
0.0
  0
LINE
  5
247
330
1C9
100
AcDbEntity
  8
0
  6
Continuous
 62
     0
370
    30
100
AcDbLine
 10
-39.695382
 20
445.534737
 30
0.0
 11
-39.695382
 21
458.534679
 31
0.0
  0
LINE
  5
248
330
1C9
100
AcDbEntity
  8
0
  6
Continuous
 62
     0
370
    30
100
AcDbLine
 10
-17.695383
 20
445.534737
 30
0.0
 11
-17.695383
 21
458.534679
 31
0.0
  0
LINE
  5
249
330
1C9
100
AcDbEntity
  8
0
  6
Continuous
 62
     0
370
    30
100
AcDbLine
 10
4.304616
 20
445.53468
 30
0.0
 11
4.304616
 21
458.534679
 31
0.0
  0
LINE
  5
24A
330
1C9
100
AcDbEntity
  8
0
  6
Continuous
 62
     0
370
    30
100
AcDbLine
 10
26.304615
 20
445.53468
 30
0.0
 11
26.304615
 21
458.534679
 31
0.0
  0
LINE
  5
24B
330
1C9
100
AcDbEntity
  8
0
  6
Continuous
 62
     0
370
    30
100
AcDbLine
 10
48.304614
 20
445.534695
 30
0.0
 11
48.304614
 21
458.534679
 31
0.0
  0
LINE
  5
24C
330
1C9
100
AcDbEntity
  8
0
  6
Continuous
 62
     0
370
    30
100
AcDbLine
 10
70.304613
 20
458.534679
 30
0.0
 11
70.304613
 21
445.534679
 31
0.0
  0
LINE
  5
24D
330
1C9
100
AcDbEntity
  8
0
  6
Continuous
 62
     0
370
    30
100
AcDbLine
 10
92.304613
 20
458.534679
 30
0.0
 11
92.304613
 21
445.534679
 31
0.0
  0
ARC
  5
24E
330
1C9
100
AcDbEntity
  8
0
  6
Continuous
 62
     0
370
    30
100
AcDbCircle
 10
-90.999162
 20
493.534675
 30
0.0
 40
8.999995808908945
100
AcDbArc
 50
89.998073
 51
269.967607
  0
LINE
  5
24F
330
1C9
100
AcDbEntity
  8
0
  6
Continuous
 62
     0
370
    30
100
AcDbLine
 10
-84.551648
 20
502.534679
 30
0.0
 11
-90.998859
 21
502.534679
 31
0.0
  0
ENDBLK
  5
251
330
1C9
100
AcDbEntity
  8
0
100
AcDbBlockEnd
  0
ENDSEC
  0
SECTION
  2
ENTITIES
  0
INSERT
  5
10F
330
1F
100
AcDbEntity
  8
0
  6
Continuous
 62
     7
420
 16250871
370
     0
100
AcDbBlockReference
  2
a
 10
140.56308
 20
141.616913
 30
0.0
  0
INSERT
  5
162
330
1F
100
AcDbEntity
  8
0
  6
Continuous
 62
     7
420
 16250871
370
     0
100
AcDbBlockReference
  2
b
 10
140.56308
 20
141.616913
 30
0.0
  0
INSERT
  5
1C8
330
1F
100
AcDbEntity
  8
0
  6
Continuous
 62
     7
420
 16250871
370
     0
100
AcDbBlockReference
  2
c
 10
140.56308
 20
141.616913
 30
0.0
  0
INSERT
  5
252
330
1F
100
AcDbEntity
  8
0
  6
Continuous
 62
     7
420
 16250871
370
     0
100
AcDbBlockReference
  2
d
 10
158.244644
 20
0.0
 30
0.0
  0
ENDSEC
  0
SECTION
  2
OBJECTS
  0
DICTIONARY
  5
C
330
0
100
AcDbDictionary
281
     1
  3
ACAD_DETAILVIEWSTYLE
350
28A
  3
ACAD_GROUP
350
D
  3
ACAD_LAYOUT
350
1A
  3
ACAD_MATERIAL
350
43
  3
ACAD_MLEADERSTYLE
350
6B
  3
ACAD_MLINESTYLE
350
17
  3
ACAD_PLOTSETTINGS
350
19
  3
ACAD_PLOTSTYLENAME
350
E
  3
ACAD_SCALELIST
350
47
  3
ACAD_SECTIONVIEWSTYLE
350
28B
  3
ACAD_TABLESTYLE
350
69
  3
ACAD_VISUALSTYLE
350
2A
  3
ACDB_RECOMPOSE_DATA
350
287
  3
AcDbVariableDictionary
350
253
  0
SUN
  5
6D
330
29
100
AcDbSun
 90
        1
290
     0
 63
     7
421
 16777215
 40
1.0
291
     1
 91
  2455826
 92
 54000000
292
     0
 70
     2
 71
   256
280
     1
  0
DICTIONARY
  5
28A
102
{ACAD_REACTORS
330
C
102
}
330
C
100
AcDbDictionary
281
     1
  0
DICTIONARY
  5
D
102
{ACAD_REACTORS
330
C
102
}
330
C
100
AcDbDictionary
281
     1
  0
DICTIONARY
  5
1A
102
{ACAD_REACTORS
330
C
102
}
330
C
100
AcDbDictionary
281
     1
  3
Layout1
350
1E
  3
Layout2
350
26
  3
Model
350
22
  0
DICTIONARY
  5
43
102
{ACAD_REACTORS
330
C
102
}
330
C
100
AcDbDictionary
281
     1
  3
ByBlock
350
45
  3
ByLayer
350
44
  3
Global
350
46
  0
DICTIONARY
  5
6B
102
{ACAD_REACTORS
330
C
102
}
330
C
100
AcDbDictionary
281
     1
  3
Standard
350
6C
  0
DICTIONARY
  5
17
102
{ACAD_REACTORS
330
C
102
}
330
C
100
AcDbDictionary
281
     1
  3
Standard
350
18
  0
DICTIONARY
  5
19
102
{ACAD_REACTORS
330
C
102
}
330
C
100
AcDbDictionary
281
     1
  0
ACDBDICTIONARYWDFLT
  5
E
102
{ACAD_REACTORS
330
C
102
}
330
C
100
AcDbDictionary
281
     1
  3
Normal
350
F
100
AcDbDictionaryWithDefault
340
F
  0
DICTIONARY
  5
47
102
{ACAD_REACTORS
330
C
102
}
330
C
100
AcDbDictionary
281
     1
  3
A0
350
48
  3
A1
350
49
  3
A2
350
4A
  3
A3
350
4B
  3
A4
350
4C
  3
A5
350
4D
  3
A6
350
4E
  3
A7
350
4F
  3
A8
350
50
  3
A9
350
51
  3
B0
350
52
  3
B1
350
53
  3
B2
350
54
  3
B3
350
55
  3
B4
350
56
  3
B5
350
57
  3
B6
350
58
  3
B7
350
59
  3
B8
350
5A
  3
B9
350
5B
  3
C0
350
5C
  3
C1
350
5D
  3
C2
350
5E
  3
C3
350
5F
  3
C4
350
60
  3
C5
350
61
  3
C6
350
62
  3
C7
350
63
  3
C8
350
64
  3
C9
350
65
  3
D0
350
66
  3
D1
350
67
  3
D2
350
68
  0
DICTIONARY
  5
28B
102
{ACAD_REACTORS
330
C
102
}
330
C
100
AcDbDictionary
281
     1
  0
DICTIONARY
  5
69
102
{ACAD_REACTORS
330
C
102
}
330
C
100
AcDbDictionary
281
     1
  3
Standard
350
6A
  0
DICTIONARY
  5
2A
102
{ACAD_REACTORS
330
C
102
}
330
C
100
AcDbDictionary
281
     1
  3
2dWireframe
350
2F
  3
Basic
350
32
  3
Brighten
350
36
  3
ColorChange
350
3A
  3
Conceptual
350
34
  3
Dim
350
35
  3
EdgeColorOff
350
3D
  3
Facepattern
350
39
  3
Flat
350
2B
  3
FlatWithEdges
350
2C
  3
Gouraud
350
2D
  3
GouraudWithEdges
350
2E
  3
Hidden
350
31
  3
JitterOff
350
3B
  3
Linepattern
350
38
  3
OverhangOff
350
3C
  3
Realistic
350
33
  3
Shaded
350
42
  3
Shaded with edges
350
41
  3
Shades of Gray
350
3E
  3
Sketchy
350
3F
  3
Thicken
350
37
  3
Wireframe
350
30
  3
X-Ray
350
40
  0
XRECORD
  5
287
102
{ACAD_REACTORS
330
C
102
}
330
C
100
AcDbXrecord
280
     1
 90
        1
330
6A
  0
DICTIONARY
  5
253
102
{ACAD_REACTORS
330
C
102
}
330
C
100
AcDbDictionary
281
     1
  3
CANNOSCALE
350
254
  3
CMLEADERSTYLE
350
289
  3
CTABLESTYLE
350
288
  0
LAYOUT
  5
1E
102
{ACAD_REACTORS
330
1A
102
}
330
1A
100
AcDbPlotSettings
  1

  2
none_device
  4

  6

 40
0.0
 41
0.0
 42
0.0
 43
0.0
 44
0.0
 45
0.0
 46
0.0
 47
0.0
 48
0.0
 49
0.0
140
0.0
141
0.0
142
1.0
143
1.0
 70
   688
 72
     1
 73
     0
 74
     5
  7

 75
    16
 76
     0
 77
     2
 78
   300
147
1.0
148
0.0
149
0.0
100
AcDbLayout
  1
Layout1
 70
     1
 71
     1
 10
0.0
 20
0.0
 11
420.0
 21
297.0
 12
0.0
 22
0.0
 32
0.0
 14
1.000000E+20
 24
1.000000E+20
 34
1.000000E+20
 15
-1.000000E+20
 25
-1.000000E+20
 35
-1.000000E+20
146
0.0
 13
0.0
 23
0.0
 33
0.0
 16
1.0
 26
0.0
 36
0.0
 17
0.0
 27
1.0
 37
0.0
 76
     0
330
1B
  0
LAYOUT
  5
26
102
{ACAD_REACTORS
330
1A
102
}
330
1A
100
AcDbPlotSettings
  1

  2
none_device
  4

  6

 40
0.0
 41
0.0
 42
0.0
 43
0.0
 44
0.0
 45
0.0
 46
0.0
 47
0.0
 48
0.0
 49
0.0
140
0.0
141
0.0
142
1.0
143
1.0
 70
   688
 72
     1
 73
     0
 74
     5
  7

 75
    16
 76
     0
 77
     2
 78
   300
147
1.0
148
0.0
149
0.0
100
AcDbLayout
  1
Layout2
 70
     1
 71
     2
 10
0.0
 20
0.0
 11
0.0
 21
0.0
 12
0.0
 22
0.0
 32
0.0
 14
0.0
 24
0.0
 34
0.0
 15
0.0
 25
0.0
 35
0.0
146
0.0
 13
0.0
 23
0.0
 33
0.0
 16
1.0
 26
0.0
 36
0.0
 17
0.0
 27
1.0
 37
0.0
 76
     0
330
23
  0
LAYOUT
  5
22
102
{ACAD_REACTORS
330
1A
102
}
330
1A
100
AcDbPlotSettings
  1

  2
none_device
  4
Letter_(8.50_x_11.00_Inches)
  6

 40
6.35
 41
6.35
 42
6.350005
 43
6.350005
 44
215.9
 45
279.4
 46
0.0
 47
0.0
 48
0.0
 49
0.0
140
0.0
141
0.0
142
1.0
143
1.0
 70
  1712
 72
     1
 73
     0
 74
     0
  7

 75
     0
 76
     0
 77
     2
 78
   300
147
1.0
148
0.0
149
0.0
100
AcDbLayout
  1
Model
 70
     1
 71
     0
 10
0.0
 20
0.0
 11
420.0
 21
297.0
 12
0.0
 22
0.0
 32
0.0
 14
1.000000E+20
 24
1.000000E+20
 34
1.000000E+20
 15
-1.000000E+20
 25
-1.000000E+20
 35
-1.000000E+20
146
0.0
 13
0.0
 23
0.0
 33
0.0
 16
1.0
 26
0.0
 36
0.0
 17
0.0
 27
1.0
 37
0.0
 76
     0
330
1F
331
29
  0
MATERIAL
  5
45
102
{ACAD_REACTORS
330
43
102
}
330
43
100
AcDbMaterial
  1
ByBlock
 72
     1
 94
      127
  0
MATERIAL
  5
44
102
{ACAD_REACTORS
330
43
102
}
330
43
100
AcDbMaterial
  1
ByLayer
 72
     1
 94
      127
  0
MATERIAL
  5
46
102
{ACAD_REACTORS
330
43
102
}
330
43
100
AcDbMaterial
  1
Global
 72
     1
 94
      127
  0
MLEADERSTYLE
  5
6C
102
{ACAD_REACTORS
330
6B
102
}
330
6B
100
AcDbMLeaderStyle
179
     2
170
     2
171
     1
172
     0
 90
        2
 40
0.0
 41
0.0
173
     1
 91
-1056964608
340
14
 92
       -2
290
     1
 42
2.0
291
     1
 43
8.0
  3
Standard
341
0
 44
4.0
300

342
11
174
     1
178
     6
175
     1
176
     0
 93
-1056964608
 45
4.0
292
     0
297
     0
 46
4.0
343
0
 94
-1056964608
 47
1.0
 49
1.0
140
1.0
293
     1
141
0.0
294
     1
177
     0
142
1.0
295
     0
296
     0
143
3.75
271
     0
272
     9
273
     9
  0
MLINESTYLE
  5
18
102
{ACAD_REACTORS
330
17
102
}
330
17
100
AcDbMlineStyle
  2
Standard
 70
     0
  3

 62
   256
 51
90.0
 52
90.0
 71
     2
 49
0.5
 62
   256
  6
BYLAYER
 49
-0.5
 62
   256
  6
BYLAYER
  0
ACDBPLACEHOLDER
  5
F
102
{ACAD_REACTORS
330
E
102
}
330
E
  0
SCALE
  5
48
102
{ACAD_REACTORS
330
47
102
}
330
47
100
AcDbScale
 70
     0
300
1:1
140
1.0
141
1.0
290
     1
  0
SCALE
  5
49
102
{ACAD_REACTORS
330
47
102
}
330
47
100
AcDbScale
 70
     0
300
1:2
140
1.0
141
2.0
290
     0
  0
SCALE
  5
4A
102
{ACAD_REACTORS
330
47
102
}
330
47
100
AcDbScale
 70
     0
300
1:4
140
1.0
141
4.0
290
     0
  0
SCALE
  5
4B
102
{ACAD_REACTORS
330
47
102
}
330
47
100
AcDbScale
 70
     0
300
1:5
140
1.0
141
5.0
290
     0
  0
SCALE
  5
4C
102
{ACAD_REACTORS
330
47
102
}
330
47
100
AcDbScale
 70
     0
300
1:8
140
1.0
141
8.0
290
     0
  0
SCALE
  5
4D
102
{ACAD_REACTORS
330
47
102
}
330
47
100
AcDbScale
 70
     0
300
1:10
140
1.0
141
10.0
290
     0
  0
SCALE
  5
4E
102
{ACAD_REACTORS
330
47
102
}
330
47
100
AcDbScale
 70
     0
300
1:16
140
1.0
141
16.0
290
     0
  0
SCALE
  5
4F
102
{ACAD_REACTORS
330
47
102
}
330
47
100
AcDbScale
 70
     0
300
1:20
140
1.0
141
20.0
290
     0
  0
SCALE
  5
50
102
{ACAD_REACTORS
330
47
102
}
330
47
100
AcDbScale
 70
     0
300
1:30
140
1.0
141
30.0
290
     0
  0
SCALE
  5
51
102
{ACAD_REACTORS
330
47
102
}
330
47
100
AcDbScale
 70
     0
300
1:40
140
1.0
141
40.0
290
     0
  0
SCALE
  5
52
102
{ACAD_REACTORS
330
47
102
}
330
47
100
AcDbScale
 70
     0
300
1:50
140
1.0
141
50.0
290
     0
  0
SCALE
  5
53
102
{ACAD_REACTORS
330
47
102
}
330
47
100
AcDbScale
 70
     0
300
1:100
140
1.0
141
100.0
290
     0
  0
SCALE
  5
54
102
{ACAD_REACTORS
330
47
102
}
330
47
100
AcDbScale
 70
     0
300
2:1
140
2.0
141
1.0
290
     0
  0
SCALE
  5
55
102
{ACAD_REACTORS
330
47
102
}
330
47
100
AcDbScale
 70
     0
300
4:1
140
4.0
141
1.0
290
     0
  0
SCALE
  5
56
102
{ACAD_REACTORS
330
47
102
}
330
47
100
AcDbScale
 70
     0
300
8:1
140
8.0
141
1.0
290
     0
  0
SCALE
  5
57
102
{ACAD_REACTORS
330
47
102
}
330
47
100
AcDbScale
 70
     0
300
10:1
140
10.0
141
1.0
290
     0
  0
SCALE
  5
58
102
{ACAD_REACTORS
330
47
102
}
330
47
100
AcDbScale
 70
     0
300
100:1
140
100.0
141
1.0
290
     0
  0
SCALE
  5
59
102
{ACAD_REACTORS
330
47
102
}
330
47
100
AcDbScale
 70
     0
300
1/128" = 1'-0"
140
0.007812
141
12.0
290
     0
  0
SCALE
  5
5A
102
{ACAD_REACTORS
330
47
102
}
330
47
100
AcDbScale
 70
     0
300
1/64" = 1'-0"
140
0.015625
141
12.0
290
     0
  0
SCALE
  5
5B
102
{ACAD_REACTORS
330
47
102
}
330
47
100
AcDbScale
 70
     0
300
1/32" = 1'-0"
140
0.03125
141
12.0
290
     0
  0
SCALE
  5
5C
102
{ACAD_REACTORS
330
47
102
}
330
47
100
AcDbScale
 70
     0
300
1/16" = 1'-0"
140
0.0625
141
12.0
290
     0
  0
SCALE
  5
5D
102
{ACAD_REACTORS
330
47
102
}
330
47
100
AcDbScale
 70
     0
300
3/32" = 1'-0"
140
0.09375
141
12.0
290
     0
  0
SCALE
  5
5E
102
{ACAD_REACTORS
330
47
102
}
330
47
100
AcDbScale
 70
     0
300
1/8" = 1'-0"
140
0.125
141
12.0
290
     0
  0
SCALE
  5
5F
102
{ACAD_REACTORS
330
47
102
}
330
47
100
AcDbScale
 70
     0
300
3/16" = 1'-0"
140
0.1875
141
12.0
290
     0
  0
SCALE
  5
60
102
{ACAD_REACTORS
330
47
102
}
330
47
100
AcDbScale
 70
     0
300
1/4" = 1'-0"
140
0.25
141
12.0
290
     0
  0
SCALE
  5
61
102
{ACAD_REACTORS
330
47
102
}
330
47
100
AcDbScale
 70
     0
300
3/8" = 1'-0"
140
0.375
141
12.0
290
     0
  0
SCALE
  5
62
102
{ACAD_REACTORS
330
47
102
}
330
47
100
AcDbScale
 70
     0
300
1/2" = 1'-0"
140
0.5
141
12.0
290
     0
  0
SCALE
  5
63
102
{ACAD_REACTORS
330
47
102
}
330
47
100
AcDbScale
 70
     0
300
3/4" = 1'-0"
140
0.75
141
12.0
290
     0
  0
SCALE
  5
64
102
{ACAD_REACTORS
330
47
102
}
330
47
100
AcDbScale
 70
     0
300
1" = 1'-0"
140
1.0
141
12.0
290
     0
  0
SCALE
  5
65
102
{ACAD_REACTORS
330
47
102
}
330
47
100
AcDbScale
 70
     0
300
1-1/2" = 1'-0"
140
1.5
141
12.0
290
     0
  0
SCALE
  5
66
102
{ACAD_REACTORS
330
47
102
}
330
47
100
AcDbScale
 70
     0
300
3" = 1'-0"
140
3.0
141
12.0
290
     0
  0
SCALE
  5
67
102
{ACAD_REACTORS
330
47
102
}
330
47
100
AcDbScale
 70
     0
300
6" = 1'-0"
140
6.0
141
12.0
290
     0
  0
SCALE
  5
68
102
{ACAD_REACTORS
330
47
102
}
330
47
100
AcDbScale
 70
     0
300
1'-0" = 1'-0"
140
12.0
141
12.0
290
     0
  0
TABLESTYLE
  5
6A
102
{ACAD_REACTORS
330
69
102
}
102
{ACAD_XDICTIONARY
360
285
102
}
330
69
100
AcDbTableStyle
  3
Standard
 70
     0
 71
     0
 40
0.06
 41
0.06
280
     0
281
     0
  7
Standard
140
4.5
170
     2
 62
     0
 63
   257
283
     0
 90
        4
 91
        0
  1

274
    -2
284
     1
 64
     0
275
    -2
285
     1
 65
     0
276
    -2
286
     1
 66
     0
277
    -2
287
     1
 67
     0
278
    -2
288
     1
 68
     0
279
    -2
289
     1
 69
     0
  7
Standard
140
6.0
170
     5
 62
     0
 63
   257
283
     0
 90
        4
 91
        0
  1

274
    -2
284
     1
 64
     0
275
    -2
285
     1
 65
     0
276
    -2
286
     1
 66
     0
277
    -2
287
     1
 67
     0
278
    -2
288
     1
 68
     0
279
    -2
289
     1
 69
     0
  7
Standard
140
4.5
170
     5
 62
     0
 63
   257
283
     0
 90
        4
 91
        0
  1

274
    -2
284
     1
 64
     0
275
    -2
285
     1
 65
     0
276
    -2
286
     1
 66
     0
277
    -2
287
     1
 67
     0
278
    -2
288
     1
 68
     0
279
    -2
289
     1
 69
     0
  0
VISUALSTYLE
  5
2F
102
{ACAD_REACTORS
330
2A
102
}
102
{ACAD_XDICTIONARY
360
25D
102
}
330
2A
100
AcDbVisualStyle
  2
2dWireframe
 70
     4
177
     2
291
     0
 71
     0
176
     1
 72
     2
176
     1
 73
     0
176
     1
 90
        0
176
     1
 40
0.6
176
     1
 41
30.0
176
     1
 62
     5
 63
     7
421
 16777215
176
     1
 74
     1
176
     1
 91
        4
176
     1
 64
     7
176
     1
 65
   257
176
     1
 75
     1
176
     1
175
     1
176
     1
 42
1.0
176
     1
 92
        0
176
     1
 66
   257
176
     1
 43
1.0
176
     1
 76
     1
176
     1
 77
     6
176
     1
 78
     2
176
     1
 67
     7
176
     1
 79
     5
176
     1
170
     0
176
     1
171
     0
176
     1
290
     0
176
     1
 93
        1
176
     1
 44
0.0
176
     1
173
     0
176
     1
  0
VISUALSTYLE
  5
32
102
{ACAD_REACTORS
330
2A
102
}
102
{ACAD_XDICTIONARY
360
263
102
}
330
2A
100
AcDbVisualStyle
  2
Basic
 70
     7
177
     2
291
     1
 71
     1
176
     1
 72
     0
176
     1
 73
     1
176
     1
 90
        0
176
     1
 40
0.6
176
     1
 41
30.0
176
     1
 62
     5
 63
     7
421
 16777215
176
     1
 74
     0
176
     1
 91
        4
176
     1
 64
     7
176
     1
 65
   257
176
     1
 75
     1
176
     1
175
     1
176
     1
 42
1.0
176
     1
 92
        8
176
     1
 66
     7
176
     1
 43
1.0
176
     1
 76
     1
176
     1
 77
     6
176
     1
 78
     2
176
     1
 67
     7
176
     1
 79
     5
176
     1
170
     0
176
     1
171
     0
176
     1
290
     0
176
     1
 93
        1
176
     1
 44
0.0
176
     1
173
     0
176
     1
  0
VISUALSTYLE
  5
36
102
{ACAD_REACTORS
330
2A
102
}
102
{ACAD_XDICTIONARY
360
26B
102
}
330
2A
100
AcDbVisualStyle
  2
Brighten
 70
    12
177
     2
291
     1
 71
     2
176
     1
 72
     2
176
     1
 73
     0
176
     1
 90
        0
176
     1
 40
0.6
176
     1
 41
30.0
176
     1
 62
     5
 63
     7
421
 16777215
176
     1
 74
     1
176
     1
 91
        4
176
     1
 64
     7
176
     1
 65
   257
176
     1
 75
     1
176
     1
175
     1
176
     1
 42
1.0
176
     1
 92
        8
176
     1
 66
     7
176
     1
 43
1.0
176
     1
 76
     1
176
     1
 77
     6
176
     1
 78
     2
176
     1
 67
     7
176
     1
 79
     5
176
     1
170
     0
176
     1
171
     0
176
     1
290
     0
176
     1
 93
        1
176
     1
 44
50.0
176
     1
173
     0
176
     1
  0
VISUALSTYLE
  5
3A
102
{ACAD_REACTORS
330
2A
102
}
102
{ACAD_XDICTIONARY
360
273
102
}
330
2A
100
AcDbVisualStyle
  2
ColorChange
 70
    16
177
     2
291
     1
 71
     2
176
     1
 72
     2
176
     1
 73
     3
176
     1
 90
        0
176
     1
 40
0.6
176
     1
 41
30.0
176
     1
 62
     5
 63
     8
421
  8421504
176
     1
 74
     1
176
     1
 91
        4
176
     1
 64
     7
176
     1
 65
   257
176
     1
 75
     1
176
     1
175
     1
176
     1
 42
1.0
176
     1
 92
        8
176
     1
 66
     8
424
  8421504
176
     1
 43
1.0
176
     1
 76
     1
176
     1
 77
     6
176
     1
 78
     2
176
     1
 67
     7
176
     1
 79
     5
176
     1
170
     0
176
     1
171
     0
176
     1
290
     0
176
     1
 93
        1
176
     1
 44
0.0
176
     1
173
     0
176
     1
  0
VISUALSTYLE
  5
34
102
{ACAD_REACTORS
330
2A
102
}
102
{ACAD_XDICTIONARY
360
267
102
}
330
2A
100
AcDbVisualStyle
  2
Conceptual
 70
     9
177
     2
291
     0
 71
     3
176
     1
 72
     2
176
     1
 73
     0
176
     1
 90
        0
176
     1
 40
0.6
176
     1
 41
30.0
176
     1
 62
     5
 63
     7
421
 16777215
176
     1
 74
     2
176
     1
 91
        2
176
     1
 64
     7
176
     1
 65
   257
176
     1
 75
     1
176
     1
175
     1
176
     1
 42
179.0
176
     1
 92
        8
176
     1
 66
     7
176
     1
 43
1.0
176
     1
 76
     1
176
     1
 77
     6
176
     1
 78
     2
176
     1
 67
     7
176
     1
 79
     3
176
     1
170
     0
176
     1
171
     0
176
     1
290
     0
176
     1
 93
        1
176
     1
 44
0.0
176
     1
173
     0
176
     1
  0
VISUALSTYLE
  5
35
102
{ACAD_REACTORS
330
2A
102
}
102
{ACAD_XDICTIONARY
360
269
102
}
330
2A
100
AcDbVisualStyle
  2
Dim
 70
    11
177
     2
291
     1
 71
     2
176
     1
 72
     2
176
     1
 73
     0
176
     1
 90
        0
176
     1
 40
0.6
176
     1
 41
30.0
176
     1
 62
     5
 63
     7
421
 16777215
176
     1
 74
     1
176
     1
 91
        4
176
     1
 64
     7
176
     1
 65
   257
176
     1
 75
     1
176
     1
175
     1
176
     1
 42
1.0
176
     1
 92
        8
176
     1
 66
     7
176
     1
 43
1.0
176
     1
 76
     1
176
     1
 77
     6
176
     1
 78
     2
176
     1
 67
     7
176
     1
 79
     5
176
     1
170
     0
176
     1
171
     0
176
     1
290
     0
176
     1
 93
        1
176
     1
 44
-50.0
176
     1
173
     0
176
     1
  0
VISUALSTYLE
  5
3D
102
{ACAD_REACTORS
330
2A
102
}
102
{ACAD_XDICTIONARY
360
279
102
}
330
2A
100
AcDbVisualStyle
  2
EdgeColorOff
 70
    22
177
     2
291
     1
 71
     2
176
     0
 72
     2
176
     0
 73
     0
176
     0
 90
        0
176
     0
 40
0.6
176
     0
 41
30.0
176
     0
 62
     5
 63
     7
421
 16777215
176
     0
 74
     1
176
     0
 91
        4
176
     0
 64
     7
176
     0
 65
   257
176
     0
 75
     1
176
     0
175
     1
176
     0
 42
1.0
176
     0
 92
        8
176
     2
 66
     7
176
     0
 43
1.0
176
     0
 76
     1
176
     0
 77
     6
176
     0
 78
     2
176
     0
 67
     7
176
     0
 79
     5
176
     0
170
     0
176
     0
171
     0
176
     0
290
     0
176
     0
 93
        1
176
     0
 44
0.0
176
     0
173
     0
176
     0
  0
VISUALSTYLE
  5
39
102
{ACAD_REACTORS
330
2A
102
}
102
{ACAD_XDICTIONARY
360
271
102
}
330
2A
100
AcDbVisualStyle
  2
Facepattern
 70
    15
177
     2
291
     1
 71
     2
176
     1
 72
     2
176
     1
 73
     0
176
     1
 90
        0
176
     1
 40
0.6
176
     1
 41
30.0
176
     1
 62
     5
 63
     7
421
 16777215
176
     1
 74
     1
176
     1
 91
        4
176
     1
 64
     7
176
     1
 65
   257
176
     1
 75
     1
176
     1
175
     1
176
     1
 42
1.0
176
     1
 92
        8
176
     1
 66
     7
176
     1
 43
1.0
176
     1
 76
     1
176
     1
 77
     6
176
     1
 78
     2
176
     1
 67
     7
176
     1
 79
     5
176
     1
170
     0
176
     1
171
     0
176
     1
290
     0
176
     1
 93
        1
176
     1
 44
0.0
176
     1
173
     0
176
     1
  0
VISUALSTYLE
  5
2B
102
{ACAD_REACTORS
330
2A
102
}
102
{ACAD_XDICTIONARY
360
255
102
}
330
2A
100
AcDbVisualStyle
  2
Flat
 70
     0
177
     2
291
     1
 71
     2
176
     1
 72
     1
176
     1
 73
     1
176
     1
 90
        2
176
     1
 40
0.6
176
     1
 41
30.0
176
     1
 62
     5
 63
     7
421
 16777215
176
     1
 74
     0
176
     1
 91
        0
176
     1
 64
     7
176
     1
 65
   257
176
     1
 75
     1
176
     1
175
     1
176
     1
 42
1.0
176
     1
 92
        8
176
     1
 66
     7
176
     1
 43
1.0
176
     1
 76
     1
176
     1
 77
     6
176
     1
 78
     2
176
     1
 67
     7
176
     1
 79
     5
176
     1
170
     0
176
     1
171
     0
176
     1
290
     0
176
     1
 93
       13
176
     1
 44
0.0
176
     1
173
     0
176
     1
  0
VISUALSTYLE
  5
2C
102
{ACAD_REACTORS
330
2A
102
}
102
{ACAD_XDICTIONARY
360
257
102
}
330
2A
100
AcDbVisualStyle
  2
FlatWithEdges
 70
     1
177
     2
291
     1
 71
     2
176
     1
 72
     1
176
     1
 73
     1
176
     1
 90
        2
176
     1
 40
0.6
176
     1
 41
30.0
176
     1
 62
     5
 63
     7
421
 16777215
176
     1
 74
     1
176
     1
 91
        0
176
     1
 64
     7
176
     1
 65
   257
176
     1
 75
     1
176
     1
175
     1
176
     1
 42
1.0
176
     1
 92
        0
176
     1
 66
   257
176
     1
 43
1.0
176
     1
 76
     1
176
     1
 77
     6
176
     1
 78
     2
176
     1
 67
     7
176
     1
 79
     5
176
     1
170
     0
176
     1
171
     0
176
     1
290
     0
176
     1
 93
       13
176
     1
 44
0.0
176
     1
173
     0
176
     1
  0
VISUALSTYLE
  5
2D
102
{ACAD_REACTORS
330
2A
102
}
102
{ACAD_XDICTIONARY
360
259
102
}
330
2A
100
AcDbVisualStyle
  2
Gouraud
 70
     2
177
     2
291
     1
 71
     2
176
     1
 72
     2
176
     1
 73
     1
176
     1
 90
        2
176
     1
 40
0.6
176
     1
 41
30.0
176
     1
 62
     5
 63
     7
421
 16777215
176
     1
 74
     0
176
     1
 91
        0
176
     1
 64
     7
176
     1
 65
   257
176
     1
 75
     1
176
     1
175
     1
176
     1
 42
1.0
176
     1
 92
        0
176
     1
 66
     7
176
     1
 43
1.0
176
     1
 76
     1
176
     1
 77
     6
176
     1
 78
     2
176
     1
 67
     7
176
     1
 79
     5
176
     1
170
     0
176
     1
171
     0
176
     1
290
     0
176
     1
 93
       13
176
     1
 44
0.0
176
     1
173
     0
176
     1
  0
VISUALSTYLE
  5
2E
102
{ACAD_REACTORS
330
2A
102
}
102
{ACAD_XDICTIONARY
360
25B
102
}
330
2A
100
AcDbVisualStyle
  2
GouraudWithEdges
 70
     3
177
     2
291
     1
 71
     2
176
     1
 72
     2
176
     1
 73
     1
176
     1
 90
        2
176
     1
 40
0.6
176
     1
 41
30.0
176
     1
 62
     5
 63
     7
421
 16777215
176
     1
 74
     1
176
     1
 91
        0
176
     1
 64
     7
176
     1
 65
   257
176
     1
 75
     1
176
     1
175
     1
176
     1
 42
1.0
176
     1
 92
        0
176
     1
 66
   257
176
     1
 43
1.0
176
     1
 76
     1
176
     1
 77
     6
176
     1
 78
     2
176
     1
 67
     7
176
     1
 79
     5
176
     1
170
     0
176
     1
171
     0
176
     1
290
     0
176
     1
 93
       13
176
     1
 44
0.0
176
     1
173
     0
176
     1
  0
VISUALSTYLE
  5
31
102
{ACAD_REACTORS
330
2A
102
}
102
{ACAD_XDICTIONARY
360
261
102
}
330
2A
100
AcDbVisualStyle
  2
Hidden
 70
     6
177
     2
291
     0
 71
     1
176
     1
 72
     2
176
     1
 73
     2
176
     1
 90
        0
176
     1
 40
0.6
176
     1
 41
30.0
176
     1
 62
     5
 63
     7
421
 16777215
176
     1
 74
     2
176
     1
 91
        2
176
     1
 64
     7
176
     1
 65
   257
176
     1
 75
     2
176
     1
175
     1
176
     1
 42
40.0
176
     1
 92
        0
176
     1
 66
   257
176
     1
 43
1.0
176
     1
 76
     1
176
     1
 77
     6
176
     1
 78
     2
176
     1
 67
     7
176
     1
 79
     3
176
     1
170
     0
176
     1
171
     0
176
     1
290
     0
176
     1
 93
        1
176
     1
 44
0.0
176
     1
173
     0
176
     1
  0
VISUALSTYLE
  5
3B
102
{ACAD_REACTORS
330
2A
102
}
102
{ACAD_XDICTIONARY
360
275
102
}
330
2A
100
AcDbVisualStyle
  2
JitterOff
 70
    20
177
     2
291
     1
 71
     2
176
     0
 72
     2
176
     0
 73
     0
176
     0
 90
        0
176
     0
 40
0.6
176
     0
 41
30.0
176
     0
 62
     5
 63
     7
421
 16777215
176
     0
 74
     1
176
     0
 91
        4
176
     0
 64
     7
176
     0
 65
   257
176
     0
 75
     1
176
     0
175
     1
176
     0
 42
1.0
176
     0
 92
       10
176
     2
 66
     7
176
     0
 43
1.0
176
     0
 76
     1
176
     0
 77
     6
176
     0
 78
     2
176
     0
 67
     7
176
     0
 79
     5
176
     0
170
     0
176
     0
171
     0
176
     0
290
     0
176
     0
 93
        1
176
     0
 44
0.0
176
     0
173
     0
176
     0
  0
VISUALSTYLE
  5
38
102
{ACAD_REACTORS
330
2A
102
}
102
{ACAD_XDICTIONARY
360
26F
102
}
330
2A
100
AcDbVisualStyle
  2
Linepattern
 70
    14
177
     2
291
     1
 71
     2
176
     1
 72
     2
176
     1
 73
     0
176
     1
 90
        0
176
     1
 40
0.6
176
     1
 41
30.0
176
     1
 62
     5
 63
     7
421
 16777215
176
     1
 74
     1
176
     1
 91
        4
176
     1
 64
     7
176
     1
 65
   257
176
     1
 75
     7
176
     1
175
     7
176
     1
 42
1.0
176
     1
 92
        8
176
     1
 66
     7
176
     1
 43
1.0
176
     1
 76
     1
176
     1
 77
     6
176
     1
 78
     2
176
     1
 67
     7
176
     1
 79
     5
176
     1
170
     0
176
     1
171
     0
176
     1
290
     0
176
     1
 93
        1
176
     1
 44
0.0
176
     1
173
     0
176
     1
  0
VISUALSTYLE
  5
3C
102
{ACAD_REACTORS
330
2A
102
}
102
{ACAD_XDICTIONARY
360
277
102
}
330
2A
100
AcDbVisualStyle
  2
OverhangOff
 70
    21
177
     2
291
     1
 71
     2
176
     0
 72
     2
176
     0
 73
     0
176
     0
 90
        0
176
     0
 40
0.6
176
     0
 41
30.0
176
     0
 62
     5
 63
     7
421
 16777215
176
     0
 74
     1
176
     0
 91
        4
176
     0
 64
     7
176
     0
 65
   257
176
     0
 75
     1
176
     0
175
     1
176
     0
 42
1.0
176
     0
 92
        9
176
     2
 66
     7
176
     0
 43
1.0
176
     0
 76
     1
176
     0
 77
     6
176
     0
 78
     2
176
     0
 67
     7
176
     0
 79
     5
176
     0
170
     0
176
     0
171
     0
176
     0
290
     0
176
     0
 93
        1
176
     0
 44
0.0
176
     0
173
     0
176
     0
  0
VISUALSTYLE
  5
33
102
{ACAD_REACTORS
330
2A
102
}
102
{ACAD_XDICTIONARY
360
265
102
}
330
2A
100
AcDbVisualStyle
  2
Realistic
 70
     8
177
     2
291
     0
 71
     2
176
     1
 72
     3
176
     1
 73
     0
176
     1
 90
        2
176
     1
 40
0.6
176
     1
 41
30.0
176
     1
 62
     5
 63
     7
421
 16777215
176
     1
 74
     0
176
     1
 91
        0
176
     1
 64
     7
176
     1
 65
   257
176
     1
 75
     1
176
     1
175
     1
176
     1
 42
1.0
176
     1
 92
        8
176
     1
 66
   257
176
     1
 43
1.0
176
     1
 76
     1
176
     1
 77
     6
176
     1
 78
     2
176
     1
 67
     7
176
     1
 79
     3
176
     1
170
     0
176
     1
171
     0
176
     1
290
     0
176
     1
 93
       13
176
     1
 44
0.0
176
     1
173
     0
176
     1
  0
VISUALSTYLE
  5
42
102
{ACAD_REACTORS
330
2A
102
}
102
{ACAD_XDICTIONARY
360
283
102
}
330
2A
100
AcDbVisualStyle
  2
Shaded
 70
    27
177
     2
291
     0
 71
     2
176
     1
 72
     2
176
     1
 73
     1
176
     1
 90
        2
176
     1
 40
0.6
176
     1
 41
30.0
176
     1
 62
     5
 63
     7
421
 16777215
176
     1
 74
     0
176
     1
 91
        4
176
     1
 64
     7
176
     1
 65
   257
176
     1
 75
     1
176
     1
175
     1
176
     1
 42
1.0
176
     1
 92
        8
176
     1
 66
   257
176
     1
 43
1.0
176
     1
 76
     1
176
     1
 77
     6
176
     1
 78
     2
176
     1
 67
     8
425
  7895160
176
     1
 79
     3
176
     1
170
     0
176
     1
171
     0
176
     1
290
     0
176
     1
 93
        5
176
     1
 44
0.0
176
     1
173
     0
176
     1
  0
VISUALSTYLE
  5
41
102
{ACAD_REACTORS
330
2A
102
}
102
{ACAD_XDICTIONARY
360
281
102
}
330
2A
100
AcDbVisualStyle
  2
Shaded with edges
 70
    26
177
     2
291
     0
 71
     2
176
     1
 72
     2
176
     1
 73
     1
176
     1
 90
        2
176
     1
 40
0.6
176
     1
 41
30.0
176
     1
 62
     5
 63
     7
421
 16777215
176
     1
 74
     1
176
     1
 91
       10
176
     1
 64
     7
176
     1
 65
   257
176
     1
 75
     2
176
     1
175
     1
176
     1
 42
1.0
176
     1
 92
        8
176
     1
 66
   257
176
     1
 43
1.0
176
     1
 76
     1
176
     1
 77
     6
176
     1
 78
     2
176
     1
 67
     7
176
     1
 79
     3
176
     1
170
     0
176
     1
171
     0
176
     1
290
     0
176
     1
 93
        5
176
     1
 44
0.0
176
     1
173
     0
176
     1
  0
VISUALSTYLE
  5
3E
102
{ACAD_REACTORS
330
2A
102
}
102
{ACAD_XDICTIONARY
360
27B
102
}
330
2A
100
AcDbVisualStyle
  2
Shades of Gray
 70
    23
177
     2
291
     0
 71
     2
176
     1
 72
     2
176
     1
 73
     3
176
     1
 90
        0
176
     1
 40
0.6
176
     1
 41
30.0
176
     1
 62
     5
 63
     7
421
 16777215
176
     1
 74
     2
176
     1
 91
        2
176
     1
 64
     7
176
     1
 65
     7
176
     1
 75
     1
176
     1
175
     1
176
     1
 42
40.0
176
     1
 92
        8
176
     1
 66
     7
176
     1
 43
1.0
176
     1
 76
     1
176
     1
 77
     6
176
     1
 78
     2
176
     1
 67
     7
176
     1
 79
     3
176
     1
170
     0
176
     1
171
     0
176
     1
290
     0
176
     1
 93
        1
176
     1
 44
0.0
176
     1
173
     0
176
     1
  0
VISUALSTYLE
  5
3F
102
{ACAD_REACTORS
330
2A
102
}
102
{ACAD_XDICTIONARY
360
27D
102
}
330
2A
100
AcDbVisualStyle
  2
Sketchy
 70
    24
177
     2
291
     0
 71
     1
176
     1
 72
     2
176
     1
 73
     2
176
     1
 90
        0
176
     1
 40
0.6
176
     1
 41
30.0
176
     1
 62
     5
 63
     7
421
 16777215
176
     1
 74
     2
176
     1
 91
        2
176
     1
 64
     7
176
     1
 65
     7
176
     1
 75
     1
176
     1
175
     1
176
     1
 42
40.0
176
     1
 92
       11
176
     1
 66
     7
176
     1
 43
1.0
176
     1
 76
     1
176
     1
 77
     6
176
     1
 78
     2
176
     1
 67
     7
176
     1
 79
     6
176
     1
170
     0
176
     1
171
     0
176
     1
290
     0
176
     1
 93
        1
176
     1
 44
0.0
176
     1
173
     0
176
     1
  0
VISUALSTYLE
  5
37
102
{ACAD_REACTORS
330
2A
102
}
102
{ACAD_XDICTIONARY
360
26D
102
}
330
2A
100
AcDbVisualStyle
  2
Thicken
 70
    13
177
     2
291
     1
 71
     2
176
     1
 72
     2
176
     1
 73
     0
176
     1
 90
        0
176
     1
 40
0.6
176
     1
 41
30.0
176
     1
 62
     5
 63
     7
421
 16777215
176
     1
 74
     1
176
     1
 91
        4
176
     1
 64
     7
176
     1
 65
   257
176
     1
 75
     1
176
     1
175
     1
176
     1
 42
1.0
176
     1
 92
       12
176
     1
 66
     7
176
     1
 43
1.0
176
     1
 76
     1
176
     1
 77
     6
176
     1
 78
     2
176
     1
 67
     7
176
     1
 79
     5
176
     1
170
     0
176
     1
171
     0
176
     1
290
     0
176
     1
 93
        1
176
     1
 44
0.0
176
     1
173
     0
176
     1
  0
VISUALSTYLE
  5
30
102
{ACAD_REACTORS
330
2A
102
}
102
{ACAD_XDICTIONARY
360
25F
102
}
330
2A
100
AcDbVisualStyle
  2
Wireframe
 70
     5
177
     2
291
     0
 71
     0
176
     1
 72
     2
176
     1
 73
     0
176
     1
 90
        0
176
     1
 40
0.6
176
     1
 41
30.0
176
     1
 62
     5
 63
     7
421
 16777215
176
     1
 74
     1
176
     1
 91
        4
176
     1
 64
     7
176
     1
 65
   257
176
     1
 75
     1
176
     1
175
     1
176
     1
 42
1.0
176
     1
 92
        0
176
     1
 66
   257
176
     1
 43
1.0
176
     1
 76
     1
176
     1
 77
     6
176
     1
 78
     2
176
     1
 67
     7
176
     1
 79
     3
176
     1
170
     0
176
     1
171
     0
176
     1
290
     0
176
     1
 93
        1
176
     1
 44
0.0
176
     1
173
     0
176
     1
  0
VISUALSTYLE
  5
40
102
{ACAD_REACTORS
330
2A
102
}
102
{ACAD_XDICTIONARY
360
27F
102
}
330
2A
100
AcDbVisualStyle
  2
X-Ray
 70
    25
177
     2
291
     0
 71
     2
176
     1
 72
     2
176
     1
 73
     1
176
     1
 90
        1
176
     1
 40
0.5
176
     1
 41
30.0
176
     1
 62
     5
 63
     7
421
 16777215
176
     1
 74
     1
176
     1
 91
        0
176
     1
 64
     7
176
     1
 65
   257
176
     1
 75
     1
176
     1
175
     1
176
     1
 42
1.0
176
     1
 92
        8
176
     1
 66
     7
176
     1
 43
1.0
176
     1
 76
     1
176
     1
 77
     6
176
     1
 78
     2
176
     1
 67
     7
176
     1
 79
     3
176
     1
170
     0
176
     1
171
     0
176
     1
290
     0
176
     1
 93
       13
176
     1
 44
0.0
176
     1
173
     0
176
     1
  0
DICTIONARYVAR
  5
254
102
{ACAD_REACTORS
330
253
102
}
330
253
100
DictionaryVariables
280
     0
  1
1:1
  0
DICTIONARYVAR
  5
289
102
{ACAD_REACTORS
330
253
102
}
330
253
100
DictionaryVariables
280
     0
  1
Standard
  0
DICTIONARYVAR
  5
288
102
{ACAD_REACTORS
330
253
102
}
330
253
100
DictionaryVariables
280
     0
  1
Standard
  0
DICTIONARY
  5
285
330
6A
100
AcDbDictionary
280
     1
281
     1
  3
ACAD_ROUNDTRIP_2008_TABLESTYLE_CELLSTYLEMAP
360
286
  0
DICTIONARY
  5
25D
330
2F
100
AcDbDictionary
280
     1
281
     1
  3
ACAD_XREC_ROUNDTRIP
360
25E
  0
DICTIONARY
  5
263
330
32
100
AcDbDictionary
280
     1
281
     1
  3
ACAD_XREC_ROUNDTRIP
360
264
  0
DICTIONARY
  5
26B
330
36
100
AcDbDictionary
280
     1
281
     1
  3
ACAD_XREC_ROUNDTRIP
360
26C
  0
DICTIONARY
  5
273
330
3A
100
AcDbDictionary
280
     1
281
     1
  3
ACAD_XREC_ROUNDTRIP
360
274
  0
DICTIONARY
  5
267
330
34
100
AcDbDictionary
280
     1
281
     1
  3
ACAD_XREC_ROUNDTRIP
360
268
  0
DICTIONARY
  5
269
330
35
100
AcDbDictionary
280
     1
281
     1
  3
ACAD_XREC_ROUNDTRIP
360
26A
  0
DICTIONARY
  5
279
330
3D
100
AcDbDictionary
280
     1
281
     1
  3
ACAD_XREC_ROUNDTRIP
360
27A
  0
DICTIONARY
  5
271
330
39
100
AcDbDictionary
280
     1
281
     1
  3
ACAD_XREC_ROUNDTRIP
360
272
  0
DICTIONARY
  5
255
330
2B
100
AcDbDictionary
280
     1
281
     1
  3
ACAD_XREC_ROUNDTRIP
360
256
  0
DICTIONARY
  5
257
330
2C
100
AcDbDictionary
280
     1
281
     1
  3
ACAD_XREC_ROUNDTRIP
360
258
  0
DICTIONARY
  5
259
330
2D
100
AcDbDictionary
280
     1
281
     1
  3
ACAD_XREC_ROUNDTRIP
360
25A
  0
DICTIONARY
  5
25B
330
2E
100
AcDbDictionary
280
     1
281
     1
  3
ACAD_XREC_ROUNDTRIP
360
25C
  0
DICTIONARY
  5
261
330
31
100
AcDbDictionary
280
     1
281
     1
  3
ACAD_XREC_ROUNDTRIP
360
262
  0
DICTIONARY
  5
275
330
3B
100
AcDbDictionary
280
     1
281
     1
  3
ACAD_XREC_ROUNDTRIP
360
276
  0
DICTIONARY
  5
26F
330
38
100
AcDbDictionary
280
     1
281
     1
  3
ACAD_XREC_ROUNDTRIP
360
270
  0
DICTIONARY
  5
277
330
3C
100
AcDbDictionary
280
     1
281
     1
  3
ACAD_XREC_ROUNDTRIP
360
278
  0
DICTIONARY
  5
265
330
33
100
AcDbDictionary
280
     1
281
     1
  3
ACAD_XREC_ROUNDTRIP
360
266
  0
DICTIONARY
  5
283
330
42
100
AcDbDictionary
280
     1
281
     1
  3
ACAD_XREC_ROUNDTRIP
360
284
  0
DICTIONARY
  5
281
330
41
100
AcDbDictionary
280
     1
281
     1
  3
ACAD_XREC_ROUNDTRIP
360
282
  0
DICTIONARY
  5
27B
330
3E
100
AcDbDictionary
280
     1
281
     1
  3
ACAD_XREC_ROUNDTRIP
360
27C
  0
DICTIONARY
  5
27D
330
3F
100
AcDbDictionary
280
     1
281
     1
  3
ACAD_XREC_ROUNDTRIP
360
27E
  0
DICTIONARY
  5
26D
330
37
100
AcDbDictionary
280
     1
281
     1
  3
ACAD_XREC_ROUNDTRIP
360
26E
  0
DICTIONARY
  5
25F
330
30
100
AcDbDictionary
280
     1
281
     1
  3
ACAD_XREC_ROUNDTRIP
360
260
  0
DICTIONARY
  5
27F
330
40
100
AcDbDictionary
280
     1
281
     1
  3
ACAD_XREC_ROUNDTRIP
360
280
  0
CELLSTYLEMAP
  5
286
102
{ACAD_REACTORS
330
285
102
}
330
285
100
AcDbCellStyleMap
 90
        3
300
CELLSTYLE
  1
TABLEFORMAT_BEGIN
 90
        5
170
     1
 91
        0
 92
    32768
 62
   257
 93
        1
300
CONTENTFORMAT
  1
CONTENTFORMAT_BEGIN
 90
        0
 91
        0
 92
        4
 93
        0
300

 40
0.0
140
1.0
 94
        5
 62
     0
340
11
144
6.0
309
CONTENTFORMAT_END
171
     1
301
MARGIN
  1
CELLMARGIN_BEGIN
 40
1.5
 40
1.5
 40
1.5
 40
1.5
 40
1.5
 40
1.5
309
CELLMARGIN_END
 94
        6
 95
        1
302
GRIDFORMAT
  1
GRIDFORMAT_BEGIN
 90
        0
 91
        1
 62
     0
 92
       -2
340
14
 93
        0
 40
0.045
309
GRIDFORMAT_END
 95
        2
302
GRIDFORMAT
  1
GRIDFORMAT_BEGIN
 90
        0
 91
        1
 62
     0
 92
       -2
340
14
 93
        0
 40
0.045
309
GRIDFORMAT_END
 95
        4
302
GRIDFORMAT
  1
GRIDFORMAT_BEGIN
 90
        0
 91
        1
 62
     0
 92
       -2
340
14
 93
        0
 40
0.045
309
GRIDFORMAT_END
 95
        8
302
GRIDFORMAT
  1
GRIDFORMAT_BEGIN
 90
        0
 91
        1
 62
     0
 92
       -2
340
14
 93
        0
 40
0.045
309
GRIDFORMAT_END
 95
       16
302
GRIDFORMAT
  1
GRIDFORMAT_BEGIN
 90
        0
 91
        1
 62
     0
 92
       -2
340
14
 93
        0
 40
0.045
309
GRIDFORMAT_END
 95
       32
302
GRIDFORMAT
  1
GRIDFORMAT_BEGIN
 90
        0
 91
        1
 62
     0
 92
       -2
340
14
 93
        0
 40
0.045
309
GRIDFORMAT_END
309
TABLEFORMAT_END
  1
CELLSTYLE_BEGIN
 90
        1
 91
        1
300
_TITLE
309
CELLSTYLE_END
300
CELLSTYLE
  1
TABLEFORMAT_BEGIN
 90
        5
170
     1
 91
        0
 92
        0
 62
   257
 93
        1
300
CONTENTFORMAT
  1
CONTENTFORMAT_BEGIN
 90
        0
 91
        0
 92
        4
 93
        0
300

 40
0.0
140
1.0
 94
        5
 62
     0
340
11
144
4.5
309
CONTENTFORMAT_END
171
     1
301
MARGIN
  1
CELLMARGIN_BEGIN
 40
1.5
 40
1.5
 40
1.5
 40
1.5
 40
1.5
 40
1.5
309
CELLMARGIN_END
 94
        6
 95
        1
302
GRIDFORMAT
  1
GRIDFORMAT_BEGIN
 90
        0
 91
        1
 62
     0
 92
       -2
340
14
 93
        0
 40
0.045
309
GRIDFORMAT_END
 95
        2
302
GRIDFORMAT
  1
GRIDFORMAT_BEGIN
 90
        0
 91
        1
 62
     0
 92
       -2
340
14
 93
        0
 40
0.045
309
GRIDFORMAT_END
 95
        4
302
GRIDFORMAT
  1
GRIDFORMAT_BEGIN
 90
        0
 91
        1
 62
     0
 92
       -2
340
14
 93
        0
 40
0.045
309
GRIDFORMAT_END
 95
        8
302
GRIDFORMAT
  1
GRIDFORMAT_BEGIN
 90
        0
 91
        1
 62
     0
 92
       -2
340
14
 93
        0
 40
0.045
309
GRIDFORMAT_END
 95
       16
302
GRIDFORMAT
  1
GRIDFORMAT_BEGIN
 90
        0
 91
        1
 62
     0
 92
       -2
340
14
 93
        0
 40
0.045
309
GRIDFORMAT_END
 95
       32
302
GRIDFORMAT
  1
GRIDFORMAT_BEGIN
 90
        0
 91
        1
 62
     0
 92
       -2
340
14
 93
        0
 40
0.045
309
GRIDFORMAT_END
309
TABLEFORMAT_END
  1
CELLSTYLE_BEGIN
 90
        2
 91
        1
300
_HEADER
309
CELLSTYLE_END
300
CELLSTYLE
  1
TABLEFORMAT_BEGIN
 90
        5
170
     1
 91
        0
 92
        0
 62
   257
 93
        1
300
CONTENTFORMAT
  1
CONTENTFORMAT_BEGIN
 90
        0
 91
        0
 92
        4
 93
        0
300

 40
0.0
140
1.0
 94
        2
 62
     0
340
11
144
4.5
309
CONTENTFORMAT_END
171
     1
301
MARGIN
  1
CELLMARGIN_BEGIN
 40
1.5
 40
1.5
 40
1.5
 40
1.5
 40
1.5
 40
1.5
309
CELLMARGIN_END
 94
        6
 95
        1
302
GRIDFORMAT
  1
GRIDFORMAT_BEGIN
 90
        0
 91
        1
 62
     0
 92
       -2
340
14
 93
        0
 40
0.045
309
GRIDFORMAT_END
 95
        2
302
GRIDFORMAT
  1
GRIDFORMAT_BEGIN
 90
        0
 91
        1
 62
     0
 92
       -2
340
14
 93
        0
 40
0.045
309
GRIDFORMAT_END
 95
        4
302
GRIDFORMAT
  1
GRIDFORMAT_BEGIN
 90
        0
 91
        1
 62
     0
 92
       -2
340
14
 93
        0
 40
0.045
309
GRIDFORMAT_END
 95
        8
302
GRIDFORMAT
  1
GRIDFORMAT_BEGIN
 90
        0
 91
        1
 62
     0
 92
       -2
340
14
 93
        0
 40
0.045
309
GRIDFORMAT_END
 95
       16
302
GRIDFORMAT
  1
GRIDFORMAT_BEGIN
 90
        0
 91
        1
 62
     0
 92
       -2
340
14
 93
        0
 40
0.045
309
GRIDFORMAT_END
 95
       32
302
GRIDFORMAT
  1
GRIDFORMAT_BEGIN
 90
        0
 91
        1
 62
     0
 92
       -2
340
14
 93
        0
 40
0.045
309
GRIDFORMAT_END
309
TABLEFORMAT_END
  1
CELLSTYLE_BEGIN
 90
        3
 91
        2
300
_DATA
309
CELLSTYLE_END
  0
XRECORD
  5
25E
102
{ACAD_REACTORS
330
25D
102
}
330
25D
100
AcDbXrecord
280
     1
102
RTVSPost2010Prop28
280
     1
102
RTVSPost2010PropOp28
 70
     1
102
RTVSPost2010Prop29
280
     1
102
RTVSPost2010PropOp29
 70
     1
102
RTVSPost2010Prop30
280
     0
102
RTVSPost2010PropOp30
 70
     1
102
RTVSPost2010Prop31
280
     0
102
RTVSPost2010PropOp31
 70
     1
102
RTVSPost2010Prop32
280
     0
102
RTVSPost2010PropOp32
 70
     1
102
RTVSPost2010Prop33
280
     0
102
RTVSPost2010PropOp33
 70
     1
102
RTVSPost2010Prop34
280
     0
102
RTVSPost2010PropOp34
 70
     1
102
RTVSPost2010Prop35
280
     0
102
RTVSPost2010PropOp35
 70
     1
102
RTVSPost2010Prop36
280
     0
102
RTVSPost2010PropOp36
 70
     1
102
RTVSPost2010Prop37
 90
       50
102
RTVSPost2010PropOp37
 70
     1
102
RTVSPost2010Prop38
140
0.0
102
RTVSPost2010PropOp38
 70
     1
102
RTVSPost2010Prop39
140
1.0
102
RTVSPost2010PropOp39
 70
     1
102
RTVSPost2010Prop40
 90
        0
102
RTVSPost2010PropOp40
 70
     1
102
RTVSPost2010Prop41ColorIndex
 90
       18
102
RTVSPost2010Prop41ColorRGB
 90
        0
102
RTVSPost2010PropOp41
 70
     1
102
RTVSPost2010Prop42
 90
       50
102
RTVSPost2010PropOp42
 70
     1
102
RTVSPost2010Prop43
 90
        3
102
RTVSPost2010PropOp43
 70
     1
102
RTVSPost2010Prop44ColorIndex
 90
        5
102
RTVSPost2010Prop44ColorRGB
 90
      255
102
RTVSPost2010PropOp44
 70
     1
102
RTVSPost2010Prop45
280
     0
102
RTVSPost2010PropOp45
 70
     1
102
RTVSPost2010Prop46
 90
       50
102
RTVSPost2010PropOp46
 70
     1
102
RTVSPost2010Prop47
 90
       50
102
RTVSPost2010PropOp47
 70
     1
102
RTVSPost2010Prop48
 90
       50
102
RTVSPost2010PropOp48
 70
     1
102
RTVSPost2010Prop49
280
     0
102
RTVSPost2010PropOp49
 70
     1
102
RTVSPost2010Prop50
 90
       50
102
RTVSPost2010PropOp50
 70
     1
102
RTVSPost2010Prop51ColorIndex
 90
      256
102
RTVSPost2010Prop51ColorRGB
 90
-16777216
102
RTVSPost2010PropOp51
 70
     0
102
RTVSPost2010Prop52
140
1.0
102
RTVSPost2010PropOp52
 70
     0
102
RTVSPost2010Prop53
 90
        2
102
RTVSPost2010PropOp53
 70
     1
102
RTVSPost2010Prop54
  1
strokes_ogs.tif
102
RTVSPost2010PropOp54
 70
     1
102
RTVSPost2010Prop55
280
     0
102
RTVSPost2010PropOp55
 70
     1
102
RTVSPost2010Prop56
140
1.0
102
RTVSPost2010PropOp56
 70
     1
102
RTVSPost2010Prop57
140
1.0
102
RTVSPost2010PropOp57
 70
     1
  0
XRECORD
  5
264
102
{ACAD_REACTORS
330
263
102
}
330
263
100
AcDbXrecord
280
     1
102
RTVSPost2010Prop28
280
     0
102
RTVSPost2010PropOp28
 70
     1
102
RTVSPost2010Prop29
280
     1
102
RTVSPost2010PropOp29
 70
     1
102
RTVSPost2010Prop30
280
     1
102
RTVSPost2010PropOp30
 70
     1
102
RTVSPost2010Prop31
280
     0
102
RTVSPost2010PropOp31
 70
     1
102
RTVSPost2010Prop32
280
     0
102
RTVSPost2010PropOp32
 70
     1
102
RTVSPost2010Prop33
280
     0
102
RTVSPost2010PropOp33
 70
     1
102
RTVSPost2010Prop34
280
     0
102
RTVSPost2010PropOp34
 70
     1
102
RTVSPost2010Prop35
280
     0
102
RTVSPost2010PropOp35
 70
     1
102
RTVSPost2010Prop36
280
     0
102
RTVSPost2010PropOp36
 70
     1
102
RTVSPost2010Prop37
 90
       50
102
RTVSPost2010PropOp37
 70
     1
102
RTVSPost2010Prop38
140
0.0
102
RTVSPost2010PropOp38
 70
     1
102
RTVSPost2010Prop39
140
1.0
102
RTVSPost2010PropOp39
 70
     1
102
RTVSPost2010Prop40
 90
        0
102
RTVSPost2010PropOp40
 70
     1
102
RTVSPost2010Prop41ColorIndex
 90
       18
102
RTVSPost2010Prop41ColorRGB
 90
        0
102
RTVSPost2010PropOp41
 70
     1
102
RTVSPost2010Prop42
 90
       50
102
RTVSPost2010PropOp42
 70
     1
102
RTVSPost2010Prop43
 90
        3
102
RTVSPost2010PropOp43
 70
     1
102
RTVSPost2010Prop44ColorIndex
 90
        5
102
RTVSPost2010Prop44ColorRGB
 90
      255
102
RTVSPost2010PropOp44
 70
     1
102
RTVSPost2010Prop45
280
     0
102
RTVSPost2010PropOp45
 70
     1
102
RTVSPost2010Prop46
 90
       50
102
RTVSPost2010PropOp46
 70
     1
102
RTVSPost2010Prop47
 90
       50
102
RTVSPost2010PropOp47
 70
     1
102
RTVSPost2010Prop48
 90
       50
102
RTVSPost2010PropOp48
 70
     1
102
RTVSPost2010Prop49
280
     0
102
RTVSPost2010PropOp49
 70
     1
102
RTVSPost2010Prop50
 90
       50
102
RTVSPost2010PropOp50
 70
     1
102
RTVSPost2010Prop51ColorIndex
 90
      256
102
RTVSPost2010Prop51ColorRGB
 90
-16777216
102
RTVSPost2010PropOp51
 70
     0
102
RTVSPost2010Prop52
140
1.0
102
RTVSPost2010PropOp52
 70
     0
102
RTVSPost2010Prop53
 90
        2
102
RTVSPost2010PropOp53
 70
     1
102
RTVSPost2010Prop54
  1
strokes_ogs.tif
102
RTVSPost2010PropOp54
 70
     1
102
RTVSPost2010Prop55
280
     0
102
RTVSPost2010PropOp55
 70
     1
102
RTVSPost2010Prop56
140
1.0
102
RTVSPost2010PropOp56
 70
     1
102
RTVSPost2010Prop57
140
1.0
102
RTVSPost2010PropOp57
 70
     1
  0
XRECORD
  5
26C
102
{ACAD_REACTORS
330
26B
102
}
330
26B
100
AcDbXrecord
280
     1
102
RTVSPost2010Prop28
280
     0
102
RTVSPost2010PropOp28
 70
     1
102
RTVSPost2010Prop29
280
     1
102
RTVSPost2010PropOp29
 70
     1
102
RTVSPost2010Prop30
280
     1
102
RTVSPost2010PropOp30
 70
     1
102
RTVSPost2010Prop31
280
     0
102
RTVSPost2010PropOp31
 70
     1
102
RTVSPost2010Prop32
280
     0
102
RTVSPost2010PropOp32
 70
     1
102
RTVSPost2010Prop33
280
     0
102
RTVSPost2010PropOp33
 70
     1
102
RTVSPost2010Prop34
280
     0
102
RTVSPost2010PropOp34
 70
     1
102
RTVSPost2010Prop35
280
     0
102
RTVSPost2010PropOp35
 70
     1
102
RTVSPost2010Prop36
280
     0
102
RTVSPost2010PropOp36
 70
     1
102
RTVSPost2010Prop37
 90
       50
102
RTVSPost2010PropOp37
 70
     1
102
RTVSPost2010Prop38
140
0.0
102
RTVSPost2010PropOp38
 70
     1
102
RTVSPost2010Prop39
140
1.0
102
RTVSPost2010PropOp39
 70
     1
102
RTVSPost2010Prop40
 90
        0
102
RTVSPost2010PropOp40
 70
     1
102
RTVSPost2010Prop41ColorIndex
 90
       18
102
RTVSPost2010Prop41ColorRGB
 90
        0
102
RTVSPost2010PropOp41
 70
     1
102
RTVSPost2010Prop42
 90
       50
102
RTVSPost2010PropOp42
 70
     1
102
RTVSPost2010Prop43
 90
        3
102
RTVSPost2010PropOp43
 70
     1
102
RTVSPost2010Prop44ColorIndex
 90
        5
102
RTVSPost2010Prop44ColorRGB
 90
      255
102
RTVSPost2010PropOp44
 70
     1
102
RTVSPost2010Prop45
280
     0
102
RTVSPost2010PropOp45
 70
     1
102
RTVSPost2010Prop46
 90
       50
102
RTVSPost2010PropOp46
 70
     1
102
RTVSPost2010Prop47
 90
       50
102
RTVSPost2010PropOp47
 70
     1
102
RTVSPost2010Prop48
 90
       50
102
RTVSPost2010PropOp48
 70
     1
102
RTVSPost2010Prop49
280
     0
102
RTVSPost2010PropOp49
 70
     1
102
RTVSPost2010Prop50
 90
       50
102
RTVSPost2010PropOp50
 70
     1
102
RTVSPost2010Prop51ColorIndex
 90
      256
102
RTVSPost2010Prop51ColorRGB
 90
-16777216
102
RTVSPost2010PropOp51
 70
     0
102
RTVSPost2010Prop52
140
1.0
102
RTVSPost2010PropOp52
 70
     0
102
RTVSPost2010Prop53
 90
        2
102
RTVSPost2010PropOp53
 70
     1
102
RTVSPost2010Prop54
  1
strokes_ogs.tif
102
RTVSPost2010PropOp54
 70
     1
102
RTVSPost2010Prop55
280
     0
102
RTVSPost2010PropOp55
 70
     1
102
RTVSPost2010Prop56
140
1.0
102
RTVSPost2010PropOp56
 70
     1
102
RTVSPost2010Prop57
140
1.0
102
RTVSPost2010PropOp57
 70
     1
  0
XRECORD
  5
274
102
{ACAD_REACTORS
330
273
102
}
330
273
100
AcDbXrecord
280
     1
102
RTVSPost2010Prop28
280
     0
102
RTVSPost2010PropOp28
 70
     1
102
RTVSPost2010Prop29
280
     1
102
RTVSPost2010PropOp29
 70
     1
102
RTVSPost2010Prop30
280
     1
102
RTVSPost2010PropOp30
 70
     1
102
RTVSPost2010Prop31
280
     0
102
RTVSPost2010PropOp31
 70
     1
102
RTVSPost2010Prop32
280
     0
102
RTVSPost2010PropOp32
 70
     1
102
RTVSPost2010Prop33
280
     0
102
RTVSPost2010PropOp33
 70
     1
102
RTVSPost2010Prop34
280
     0
102
RTVSPost2010PropOp34
 70
     1
102
RTVSPost2010Prop35
280
     0
102
RTVSPost2010PropOp35
 70
     1
102
RTVSPost2010Prop36
280
     0
102
RTVSPost2010PropOp36
 70
     1
102
RTVSPost2010Prop37
 90
       50
102
RTVSPost2010PropOp37
 70
     1
102
RTVSPost2010Prop38
140
0.0
102
RTVSPost2010PropOp38
 70
     1
102
RTVSPost2010Prop39
140
1.0
102
RTVSPost2010PropOp39
 70
     1
102
RTVSPost2010Prop40
 90
        0
102
RTVSPost2010PropOp40
 70
     1
102
RTVSPost2010Prop41ColorIndex
 90
       18
102
RTVSPost2010Prop41ColorRGB
 90
        0
102
RTVSPost2010PropOp41
 70
     1
102
RTVSPost2010Prop42
 90
       50
102
RTVSPost2010PropOp42
 70
     1
102
RTVSPost2010Prop43
 90
        3
102
RTVSPost2010PropOp43
 70
     1
102
RTVSPost2010Prop44ColorIndex
 90
        5
102
RTVSPost2010Prop44ColorRGB
 90
      255
102
RTVSPost2010PropOp44
 70
     1
102
RTVSPost2010Prop45
280
     0
102
RTVSPost2010PropOp45
 70
     1
102
RTVSPost2010Prop46
 90
       50
102
RTVSPost2010PropOp46
 70
     1
102
RTVSPost2010Prop47
 90
       50
102
RTVSPost2010PropOp47
 70
     1
102
RTVSPost2010Prop48
 90
       50
102
RTVSPost2010PropOp48
 70
     1
102
RTVSPost2010Prop49
280
     0
102
RTVSPost2010PropOp49
 70
     1
102
RTVSPost2010Prop50
 90
       50
102
RTVSPost2010PropOp50
 70
     1
102
RTVSPost2010Prop51ColorIndex
 90
      256
102
RTVSPost2010Prop51ColorRGB
 90
-16777216
102
RTVSPost2010PropOp51
 70
     0
102
RTVSPost2010Prop52
140
1.0
102
RTVSPost2010PropOp52
 70
     0
102
RTVSPost2010Prop53
 90
        2
102
RTVSPost2010PropOp53
 70
     1
102
RTVSPost2010Prop54
  1
strokes_ogs.tif
102
RTVSPost2010PropOp54
 70
     1
102
RTVSPost2010Prop55
280
     0
102
RTVSPost2010PropOp55
 70
     1
102
RTVSPost2010Prop56
140
1.0
102
RTVSPost2010PropOp56
 70
     1
102
RTVSPost2010Prop57
140
1.0
102
RTVSPost2010PropOp57
 70
     1
  0
XRECORD
  5
268
102
{ACAD_REACTORS
330
267
102
}
330
267
100
AcDbXrecord
280
     1
102
RTVSPost2010Prop28
280
     0
102
RTVSPost2010PropOp28
 70
     1
102
RTVSPost2010Prop29
280
     1
102
RTVSPost2010PropOp29
 70
     1
102
RTVSPost2010Prop30
280
     1
102
RTVSPost2010PropOp30
 70
     1
102
RTVSPost2010Prop31
280
     0
102
RTVSPost2010PropOp31
 70
     1
102
RTVSPost2010Prop32
280
     0
102
RTVSPost2010PropOp32
 70
     1
102
RTVSPost2010Prop33
280
     0
102
RTVSPost2010PropOp33
 70
     1
102
RTVSPost2010Prop34
280
     0
102
RTVSPost2010PropOp34
 70
     1
102
RTVSPost2010Prop35
280
     0
102
RTVSPost2010PropOp35
 70
     1
102
RTVSPost2010Prop36
280
     0
102
RTVSPost2010PropOp36
 70
     1
102
RTVSPost2010Prop37
 90
       50
102
RTVSPost2010PropOp37
 70
     1
102
RTVSPost2010Prop38
140
0.0
102
RTVSPost2010PropOp38
 70
     1
102
RTVSPost2010Prop39
140
1.0
102
RTVSPost2010PropOp39
 70
     1
102
RTVSPost2010Prop40
 90
        0
102
RTVSPost2010PropOp40
 70
     1
102
RTVSPost2010Prop41ColorIndex
 90
       18
102
RTVSPost2010Prop41ColorRGB
 90
        0
102
RTVSPost2010PropOp41
 70
     1
102
RTVSPost2010Prop42
 90
       50
102
RTVSPost2010PropOp42
 70
     1
102
RTVSPost2010Prop43
 90
        3
102
RTVSPost2010PropOp43
 70
     1
102
RTVSPost2010Prop44ColorIndex
 90
        5
102
RTVSPost2010Prop44ColorRGB
 90
      255
102
RTVSPost2010PropOp44
 70
     1
102
RTVSPost2010Prop45
280
     0
102
RTVSPost2010PropOp45
 70
     1
102
RTVSPost2010Prop46
 90
       50
102
RTVSPost2010PropOp46
 70
     1
102
RTVSPost2010Prop47
 90
       50
102
RTVSPost2010PropOp47
 70
     1
102
RTVSPost2010Prop48
 90
       50
102
RTVSPost2010PropOp48
 70
     1
102
RTVSPost2010Prop49
280
     0
102
RTVSPost2010PropOp49
 70
     1
102
RTVSPost2010Prop50
 90
       50
102
RTVSPost2010PropOp50
 70
     1
102
RTVSPost2010Prop51ColorIndex
 90
      256
102
RTVSPost2010Prop51ColorRGB
 90
-16777216
102
RTVSPost2010PropOp51
 70
     0
102
RTVSPost2010Prop52
140
1.0
102
RTVSPost2010PropOp52
 70
     0
102
RTVSPost2010Prop53
 90
        2
102
RTVSPost2010PropOp53
 70
     1
102
RTVSPost2010Prop54
  1
strokes_ogs.tif
102
RTVSPost2010PropOp54
 70
     1
102
RTVSPost2010Prop55
280
     0
102
RTVSPost2010PropOp55
 70
     1
102
RTVSPost2010Prop56
140
1.0
102
RTVSPost2010PropOp56
 70
     1
102
RTVSPost2010Prop57
140
1.0
102
RTVSPost2010PropOp57
 70
     1
  0
XRECORD
  5
26A
102
{ACAD_REACTORS
330
269
102
}
330
269
100
AcDbXrecord
280
     1
102
RTVSPost2010Prop28
280
     0
102
RTVSPost2010PropOp28
 70
     1
102
RTVSPost2010Prop29
280
     1
102
RTVSPost2010PropOp29
 70
     1
102
RTVSPost2010Prop30
280
     1
102
RTVSPost2010PropOp30
 70
     1
102
RTVSPost2010Prop31
280
     0
102
RTVSPost2010PropOp31
 70
     1
102
RTVSPost2010Prop32
280
     0
102
RTVSPost2010PropOp32
 70
     1
102
RTVSPost2010Prop33
280
     0
102
RTVSPost2010PropOp33
 70
     1
102
RTVSPost2010Prop34
280
     0
102
RTVSPost2010PropOp34
 70
     1
102
RTVSPost2010Prop35
280
     0
102
RTVSPost2010PropOp35
 70
     1
102
RTVSPost2010Prop36
280
     0
102
RTVSPost2010PropOp36
 70
     1
102
RTVSPost2010Prop37
 90
       50
102
RTVSPost2010PropOp37
 70
     1
102
RTVSPost2010Prop38
140
0.0
102
RTVSPost2010PropOp38
 70
     1
102
RTVSPost2010Prop39
140
1.0
102
RTVSPost2010PropOp39
 70
     1
102
RTVSPost2010Prop40
 90
        0
102
RTVSPost2010PropOp40
 70
     1
102
RTVSPost2010Prop41ColorIndex
 90
       18
102
RTVSPost2010Prop41ColorRGB
 90
        0
102
RTVSPost2010PropOp41
 70
     1
102
RTVSPost2010Prop42
 90
       50
102
RTVSPost2010PropOp42
 70
     1
102
RTVSPost2010Prop43
 90
        3
102
RTVSPost2010PropOp43
 70
     1
102
RTVSPost2010Prop44ColorIndex
 90
        5
102
RTVSPost2010Prop44ColorRGB
 90
      255
102
RTVSPost2010PropOp44
 70
     1
102
RTVSPost2010Prop45
280
     0
102
RTVSPost2010PropOp45
 70
     1
102
RTVSPost2010Prop46
 90
       50
102
RTVSPost2010PropOp46
 70
     1
102
RTVSPost2010Prop47
 90
       50
102
RTVSPost2010PropOp47
 70
     1
102
RTVSPost2010Prop48
 90
       50
102
RTVSPost2010PropOp48
 70
     1
102
RTVSPost2010Prop49
280
     0
102
RTVSPost2010PropOp49
 70
     1
102
RTVSPost2010Prop50
 90
       50
102
RTVSPost2010PropOp50
 70
     1
102
RTVSPost2010Prop51ColorIndex
 90
      256
102
RTVSPost2010Prop51ColorRGB
 90
-16777216
102
RTVSPost2010PropOp51
 70
     0
102
RTVSPost2010Prop52
140
1.0
102
RTVSPost2010PropOp52
 70
     0
102
RTVSPost2010Prop53
 90
        2
102
RTVSPost2010PropOp53
 70
     1
102
RTVSPost2010Prop54
  1
strokes_ogs.tif
102
RTVSPost2010PropOp54
 70
     1
102
RTVSPost2010Prop55
280
     0
102
RTVSPost2010PropOp55
 70
     1
102
RTVSPost2010Prop56
140
1.0
102
RTVSPost2010PropOp56
 70
     1
102
RTVSPost2010Prop57
140
1.0
102
RTVSPost2010PropOp57
 70
     1
  0
XRECORD
  5
27A
102
{ACAD_REACTORS
330
279
102
}
330
279
100
AcDbXrecord
280
     1
102
RTVSPost2010Prop28
280
     0
102
RTVSPost2010PropOp28
 70
     0
102
RTVSPost2010Prop29
280
     1
102
RTVSPost2010PropOp29
 70
     0
102
RTVSPost2010Prop30
280
     1
102
RTVSPost2010PropOp30
 70
     0
102
RTVSPost2010Prop31
280
     0
102
RTVSPost2010PropOp31
 70
     0
102
RTVSPost2010Prop32
280
     0
102
RTVSPost2010PropOp32
 70
     0
102
RTVSPost2010Prop33
280
     0
102
RTVSPost2010PropOp33
 70
     0
102
RTVSPost2010Prop34
280
     0
102
RTVSPost2010PropOp34
 70
     0
102
RTVSPost2010Prop35
280
     0
102
RTVSPost2010PropOp35
 70
     0
102
RTVSPost2010Prop36
280
     0
102
RTVSPost2010PropOp36
 70
     0
102
RTVSPost2010Prop37
 90
       50
102
RTVSPost2010PropOp37
 70
     0
102
RTVSPost2010Prop38
140
0.0
102
RTVSPost2010PropOp38
 70
     0
102
RTVSPost2010Prop39
140
1.0
102
RTVSPost2010PropOp39
 70
     0
102
RTVSPost2010Prop40
 90
        0
102
RTVSPost2010PropOp40
 70
     0
102
RTVSPost2010Prop41ColorIndex
 90
       18
102
RTVSPost2010Prop41ColorRGB
 90
        0
102
RTVSPost2010PropOp41
 70
     0
102
RTVSPost2010Prop42
 90
       50
102
RTVSPost2010PropOp42
 70
     0
102
RTVSPost2010Prop43
 90
        3
102
RTVSPost2010PropOp43
 70
     0
102
RTVSPost2010Prop44ColorIndex
 90
        5
102
RTVSPost2010Prop44ColorRGB
 90
      255
102
RTVSPost2010PropOp44
 70
     0
102
RTVSPost2010Prop45
280
     0
102
RTVSPost2010PropOp45
 70
     0
102
RTVSPost2010Prop46
 90
       50
102
RTVSPost2010PropOp46
 70
     0
102
RTVSPost2010Prop47
 90
       50
102
RTVSPost2010PropOp47
 70
     0
102
RTVSPost2010Prop48
 90
       50
102
RTVSPost2010PropOp48
 70
     0
102
RTVSPost2010Prop49
280
     0
102
RTVSPost2010PropOp49
 70
     0
102
RTVSPost2010Prop50
 90
       50
102
RTVSPost2010PropOp50
 70
     0
102
RTVSPost2010Prop51ColorIndex
 90
      256
102
RTVSPost2010Prop51ColorRGB
 90
-16777216
102
RTVSPost2010PropOp51
 70
     0
102
RTVSPost2010Prop52
140
1.0
102
RTVSPost2010PropOp52
 70
     0
102
RTVSPost2010Prop53
 90
        2
102
RTVSPost2010PropOp53
 70
     0
102
RTVSPost2010Prop54
  1
strokes_ogs.tif
102
RTVSPost2010PropOp54
 70
     0
102
RTVSPost2010Prop55
280
     0
102
RTVSPost2010PropOp55
 70
     0
102
RTVSPost2010Prop56
140
1.0
102
RTVSPost2010PropOp56
 70
     0
102
RTVSPost2010Prop57
140
1.0
102
RTVSPost2010PropOp57
 70
     0
  0
XRECORD
  5
272
102
{ACAD_REACTORS
330
271
102
}
330
271
100
AcDbXrecord
280
     1
102
RTVSPost2010Prop28
280
     0
102
RTVSPost2010PropOp28
 70
     1
102
RTVSPost2010Prop29
280
     1
102
RTVSPost2010PropOp29
 70
     1
102
RTVSPost2010Prop30
280
     1
102
RTVSPost2010PropOp30
 70
     1
102
RTVSPost2010Prop31
280
     0
102
RTVSPost2010PropOp31
 70
     1
102
RTVSPost2010Prop32
280
     0
102
RTVSPost2010PropOp32
 70
     1
102
RTVSPost2010Prop33
280
     0
102
RTVSPost2010PropOp33
 70
     1
102
RTVSPost2010Prop34
280
     0
102
RTVSPost2010PropOp34
 70
     1
102
RTVSPost2010Prop35
280
     0
102
RTVSPost2010PropOp35
 70
     1
102
RTVSPost2010Prop36
280
     0
102
RTVSPost2010PropOp36
 70
     1
102
RTVSPost2010Prop37
 90
       50
102
RTVSPost2010PropOp37
 70
     1
102
RTVSPost2010Prop38
140
0.0
102
RTVSPost2010PropOp38
 70
     1
102
RTVSPost2010Prop39
140
1.0
102
RTVSPost2010PropOp39
 70
     1
102
RTVSPost2010Prop40
 90
        0
102
RTVSPost2010PropOp40
 70
     1
102
RTVSPost2010Prop41ColorIndex
 90
       18
102
RTVSPost2010Prop41ColorRGB
 90
        0
102
RTVSPost2010PropOp41
 70
     1
102
RTVSPost2010Prop42
 90
       50
102
RTVSPost2010PropOp42
 70
     1
102
RTVSPost2010Prop43
 90
        3
102
RTVSPost2010PropOp43
 70
     1
102
RTVSPost2010Prop44ColorIndex
 90
        5
102
RTVSPost2010Prop44ColorRGB
 90
      255
102
RTVSPost2010PropOp44
 70
     1
102
RTVSPost2010Prop45
280
     0
102
RTVSPost2010PropOp45
 70
     1
102
RTVSPost2010Prop46
 90
       50
102
RTVSPost2010PropOp46
 70
     1
102
RTVSPost2010Prop47
 90
       50
102
RTVSPost2010PropOp47
 70
     1
102
RTVSPost2010Prop48
 90
       50
102
RTVSPost2010PropOp48
 70
     1
102
RTVSPost2010Prop49
280
     0
102
RTVSPost2010PropOp49
 70
     1
102
RTVSPost2010Prop50
 90
       50
102
RTVSPost2010PropOp50
 70
     1
102
RTVSPost2010Prop51ColorIndex
 90
      256
102
RTVSPost2010Prop51ColorRGB
 90
-16777216
102
RTVSPost2010PropOp51
 70
     0
102
RTVSPost2010Prop52
140
1.0
102
RTVSPost2010PropOp52
 70
     0
102
RTVSPost2010Prop53
 90
        2
102
RTVSPost2010PropOp53
 70
     1
102
RTVSPost2010Prop54
  1
strokes_ogs.tif
102
RTVSPost2010PropOp54
 70
     1
102
RTVSPost2010Prop55
280
     0
102
RTVSPost2010PropOp55
 70
     1
102
RTVSPost2010Prop56
140
1.0
102
RTVSPost2010PropOp56
 70
     1
102
RTVSPost2010Prop57
140
1.0
102
RTVSPost2010PropOp57
 70
     1
  0
XRECORD
  5
256
102
{ACAD_REACTORS
330
255
102
}
330
255
100
AcDbXrecord
280
     1
102
RTVSPost2010Prop28
280
     0
102
RTVSPost2010PropOp28
 70
     1
102
RTVSPost2010Prop29
280
     1
102
RTVSPost2010PropOp29
 70
     1
102
RTVSPost2010Prop30
280
     1
102
RTVSPost2010PropOp30
 70
     1
102
RTVSPost2010Prop31
280
     0
102
RTVSPost2010PropOp31
 70
     1
102
RTVSPost2010Prop32
280
     0
102
RTVSPost2010PropOp32
 70
     1
102
RTVSPost2010Prop33
280
     0
102
RTVSPost2010PropOp33
 70
     1
102
RTVSPost2010Prop34
280
     0
102
RTVSPost2010PropOp34
 70
     1
102
RTVSPost2010Prop35
280
     0
102
RTVSPost2010PropOp35
 70
     1
102
RTVSPost2010Prop36
280
     0
102
RTVSPost2010PropOp36
 70
     1
102
RTVSPost2010Prop37
 90
       50
102
RTVSPost2010PropOp37
 70
     1
102
RTVSPost2010Prop38
140
0.0
102
RTVSPost2010PropOp38
 70
     1
102
RTVSPost2010Prop39
140
1.0
102
RTVSPost2010PropOp39
 70
     1
102
RTVSPost2010Prop40
 90
        0
102
RTVSPost2010PropOp40
 70
     1
102
RTVSPost2010Prop41ColorIndex
 90
       18
102
RTVSPost2010Prop41ColorRGB
 90
        0
102
RTVSPost2010PropOp41
 70
     1
102
RTVSPost2010Prop42
 90
       50
102
RTVSPost2010PropOp42
 70
     1
102
RTVSPost2010Prop43
 90
        3
102
RTVSPost2010PropOp43
 70
     1
102
RTVSPost2010Prop44ColorIndex
 90
        5
102
RTVSPost2010Prop44ColorRGB
 90
      255
102
RTVSPost2010PropOp44
 70
     1
102
RTVSPost2010Prop45
280
     0
102
RTVSPost2010PropOp45
 70
     1
102
RTVSPost2010Prop46
 90
       50
102
RTVSPost2010PropOp46
 70
     1
102
RTVSPost2010Prop47
 90
       50
102
RTVSPost2010PropOp47
 70
     1
102
RTVSPost2010Prop48
 90
       50
102
RTVSPost2010PropOp48
 70
     1
102
RTVSPost2010Prop49
280
     0
102
RTVSPost2010PropOp49
 70
     1
102
RTVSPost2010Prop50
 90
       50
102
RTVSPost2010PropOp50
 70
     1
102
RTVSPost2010Prop51ColorIndex
 90
      256
102
RTVSPost2010Prop51ColorRGB
 90
-16777216
102
RTVSPost2010PropOp51
 70
     0
102
RTVSPost2010Prop52
140
1.0
102
RTVSPost2010PropOp52
 70
     0
102
RTVSPost2010Prop53
 90
        2
102
RTVSPost2010PropOp53
 70
     1
102
RTVSPost2010Prop54
  1
strokes_ogs.tif
102
RTVSPost2010PropOp54
 70
     1
102
RTVSPost2010Prop55
280
     0
102
RTVSPost2010PropOp55
 70
     1
102
RTVSPost2010Prop56
140
1.0
102
RTVSPost2010PropOp56
 70
     1
102
RTVSPost2010Prop57
140
1.0
102
RTVSPost2010PropOp57
 70
     1
  0
XRECORD
  5
258
102
{ACAD_REACTORS
330
257
102
}
330
257
100
AcDbXrecord
280
     1
102
RTVSPost2010Prop28
280
     0
102
RTVSPost2010PropOp28
 70
     1
102
RTVSPost2010Prop29
280
     1
102
RTVSPost2010PropOp29
 70
     1
102
RTVSPost2010Prop30
280
     1
102
RTVSPost2010PropOp30
 70
     1
102
RTVSPost2010Prop31
280
     0
102
RTVSPost2010PropOp31
 70
     1
102
RTVSPost2010Prop32
280
     0
102
RTVSPost2010PropOp32
 70
     1
102
RTVSPost2010Prop33
280
     0
102
RTVSPost2010PropOp33
 70
     1
102
RTVSPost2010Prop34
280
     0
102
RTVSPost2010PropOp34
 70
     1
102
RTVSPost2010Prop35
280
     0
102
RTVSPost2010PropOp35
 70
     1
102
RTVSPost2010Prop36
280
     0
102
RTVSPost2010PropOp36
 70
     1
102
RTVSPost2010Prop37
 90
       50
102
RTVSPost2010PropOp37
 70
     1
102
RTVSPost2010Prop38
140
0.0
102
RTVSPost2010PropOp38
 70
     1
102
RTVSPost2010Prop39
140
1.0
102
RTVSPost2010PropOp39
 70
     1
102
RTVSPost2010Prop40
 90
        0
102
RTVSPost2010PropOp40
 70
     1
102
RTVSPost2010Prop41ColorIndex
 90
       18
102
RTVSPost2010Prop41ColorRGB
 90
        0
102
RTVSPost2010PropOp41
 70
     1
102
RTVSPost2010Prop42
 90
       50
102
RTVSPost2010PropOp42
 70
     1
102
RTVSPost2010Prop43
 90
        3
102
RTVSPost2010PropOp43
 70
     1
102
RTVSPost2010Prop44ColorIndex
 90
        5
102
RTVSPost2010Prop44ColorRGB
 90
      255
102
RTVSPost2010PropOp44
 70
     1
102
RTVSPost2010Prop45
280
     0
102
RTVSPost2010PropOp45
 70
     1
102
RTVSPost2010Prop46
 90
       50
102
RTVSPost2010PropOp46
 70
     1
102
RTVSPost2010Prop47
 90
       50
102
RTVSPost2010PropOp47
 70
     1
102
RTVSPost2010Prop48
 90
       50
102
RTVSPost2010PropOp48
 70
     1
102
RTVSPost2010Prop49
280
     0
102
RTVSPost2010PropOp49
 70
     1
102
RTVSPost2010Prop50
 90
       50
102
RTVSPost2010PropOp50
 70
     1
102
RTVSPost2010Prop51ColorIndex
 90
      256
102
RTVSPost2010Prop51ColorRGB
 90
-16777216
102
RTVSPost2010PropOp51
 70
     0
102
RTVSPost2010Prop52
140
1.0
102
RTVSPost2010PropOp52
 70
     0
102
RTVSPost2010Prop53
 90
        2
102
RTVSPost2010PropOp53
 70
     1
102
RTVSPost2010Prop54
  1
strokes_ogs.tif
102
RTVSPost2010PropOp54
 70
     1
102
RTVSPost2010Prop55
280
     0
102
RTVSPost2010PropOp55
 70
     1
102
RTVSPost2010Prop56
140
1.0
102
RTVSPost2010PropOp56
 70
     1
102
RTVSPost2010Prop57
140
1.0
102
RTVSPost2010PropOp57
 70
     1
  0
XRECORD
  5
25A
102
{ACAD_REACTORS
330
259
102
}
330
259
100
AcDbXrecord
280
     1
102
RTVSPost2010Prop28
280
     0
102
RTVSPost2010PropOp28
 70
     1
102
RTVSPost2010Prop29
280
     1
102
RTVSPost2010PropOp29
 70
     1
102
RTVSPost2010Prop30
280
     1
102
RTVSPost2010PropOp30
 70
     1
102
RTVSPost2010Prop31
280
     0
102
RTVSPost2010PropOp31
 70
     1
102
RTVSPost2010Prop32
280
     0
102
RTVSPost2010PropOp32
 70
     1
102
RTVSPost2010Prop33
280
     0
102
RTVSPost2010PropOp33
 70
     1
102
RTVSPost2010Prop34
280
     0
102
RTVSPost2010PropOp34
 70
     1
102
RTVSPost2010Prop35
280
     0
102
RTVSPost2010PropOp35
 70
     1
102
RTVSPost2010Prop36
280
     0
102
RTVSPost2010PropOp36
 70
     1
102
RTVSPost2010Prop37
 90
       50
102
RTVSPost2010PropOp37
 70
     1
102
RTVSPost2010Prop38
140
0.0
102
RTVSPost2010PropOp38
 70
     1
102
RTVSPost2010Prop39
140
1.0
102
RTVSPost2010PropOp39
 70
     1
102
RTVSPost2010Prop40
 90
        0
102
RTVSPost2010PropOp40
 70
     1
102
RTVSPost2010Prop41ColorIndex
 90
       18
102
RTVSPost2010Prop41ColorRGB
 90
        0
102
RTVSPost2010PropOp41
 70
     1
102
RTVSPost2010Prop42
 90
       50
102
RTVSPost2010PropOp42
 70
     1
102
RTVSPost2010Prop43
 90
        3
102
RTVSPost2010PropOp43
 70
     1
102
RTVSPost2010Prop44ColorIndex
 90
        5
102
RTVSPost2010Prop44ColorRGB
 90
      255
102
RTVSPost2010PropOp44
 70
     1
102
RTVSPost2010Prop45
280
     0
102
RTVSPost2010PropOp45
 70
     1
102
RTVSPost2010Prop46
 90
       50
102
RTVSPost2010PropOp46
 70
     1
102
RTVSPost2010Prop47
 90
       50
102
RTVSPost2010PropOp47
 70
     1
102
RTVSPost2010Prop48
 90
       50
102
RTVSPost2010PropOp48
 70
     1
102
RTVSPost2010Prop49
280
     0
102
RTVSPost2010PropOp49
 70
     1
102
RTVSPost2010Prop50
 90
       50
102
RTVSPost2010PropOp50
 70
     1
102
RTVSPost2010Prop51ColorIndex
 90
      256
102
RTVSPost2010Prop51ColorRGB
 90
-16777216
102
RTVSPost2010PropOp51
 70
     0
102
RTVSPost2010Prop52
140
1.0
102
RTVSPost2010PropOp52
 70
     0
102
RTVSPost2010Prop53
 90
        2
102
RTVSPost2010PropOp53
 70
     1
102
RTVSPost2010Prop54
  1
strokes_ogs.tif
102
RTVSPost2010PropOp54
 70
     1
102
RTVSPost2010Prop55
280
     0
102
RTVSPost2010PropOp55
 70
     1
102
RTVSPost2010Prop56
140
1.0
102
RTVSPost2010PropOp56
 70
     1
102
RTVSPost2010Prop57
140
1.0
102
RTVSPost2010PropOp57
 70
     1
  0
XRECORD
  5
25C
102
{ACAD_REACTORS
330
25B
102
}
330
25B
100
AcDbXrecord
280
     1
102
RTVSPost2010Prop28
280
     0
102
RTVSPost2010PropOp28
 70
     1
102
RTVSPost2010Prop29
280
     1
102
RTVSPost2010PropOp29
 70
     1
102
RTVSPost2010Prop30
280
     1
102
RTVSPost2010PropOp30
 70
     1
102
RTVSPost2010Prop31
280
     0
102
RTVSPost2010PropOp31
 70
     1
102
RTVSPost2010Prop32
280
     0
102
RTVSPost2010PropOp32
 70
     1
102
RTVSPost2010Prop33
280
     0
102
RTVSPost2010PropOp33
 70
     1
102
RTVSPost2010Prop34
280
     0
102
RTVSPost2010PropOp34
 70
     1
102
RTVSPost2010Prop35
280
     0
102
RTVSPost2010PropOp35
 70
     1
102
RTVSPost2010Prop36
280
     0
102
RTVSPost2010PropOp36
 70
     1
102
RTVSPost2010Prop37
 90
       50
102
RTVSPost2010PropOp37
 70
     1
102
RTVSPost2010Prop38
140
0.0
102
RTVSPost2010PropOp38
 70
     1
102
RTVSPost2010Prop39
140
1.0
102
RTVSPost2010PropOp39
 70
     1
102
RTVSPost2010Prop40
 90
        0
102
RTVSPost2010PropOp40
 70
     1
102
RTVSPost2010Prop41ColorIndex
 90
       18
102
RTVSPost2010Prop41ColorRGB
 90
        0
102
RTVSPost2010PropOp41
 70
     1
102
RTVSPost2010Prop42
 90
       50
102
RTVSPost2010PropOp42
 70
     1
102
RTVSPost2010Prop43
 90
        3
102
RTVSPost2010PropOp43
 70
     1
102
RTVSPost2010Prop44ColorIndex
 90
        5
102
RTVSPost2010Prop44ColorRGB
 90
      255
102
RTVSPost2010PropOp44
 70
     1
102
RTVSPost2010Prop45
280
     0
102
RTVSPost2010PropOp45
 70
     1
102
RTVSPost2010Prop46
 90
       50
102
RTVSPost2010PropOp46
 70
     1
102
RTVSPost2010Prop47
 90
       50
102
RTVSPost2010PropOp47
 70
     1
102
RTVSPost2010Prop48
 90
       50
102
RTVSPost2010PropOp48
 70
     1
102
RTVSPost2010Prop49
280
     0
102
RTVSPost2010PropOp49
 70
     1
102
RTVSPost2010Prop50
 90
       50
102
RTVSPost2010PropOp50
 70
     1
102
RTVSPost2010Prop51ColorIndex
 90
      256
102
RTVSPost2010Prop51ColorRGB
 90
-16777216
102
RTVSPost2010PropOp51
 70
     0
102
RTVSPost2010Prop52
140
1.0
102
RTVSPost2010PropOp52
 70
     0
102
RTVSPost2010Prop53
 90
        2
102
RTVSPost2010PropOp53
 70
     1
102
RTVSPost2010Prop54
  1
strokes_ogs.tif
102
RTVSPost2010PropOp54
 70
     1
102
RTVSPost2010Prop55
280
     0
102
RTVSPost2010PropOp55
 70
     1
102
RTVSPost2010Prop56
140
1.0
102
RTVSPost2010PropOp56
 70
     1
102
RTVSPost2010Prop57
140
1.0
102
RTVSPost2010PropOp57
 70
     1
  0
XRECORD
  5
262
102
{ACAD_REACTORS
330
261
102
}
330
261
100
AcDbXrecord
280
     1
102
RTVSPost2010Prop28
280
     0
102
RTVSPost2010PropOp28
 70
     1
102
RTVSPost2010Prop29
280
     1
102
RTVSPost2010PropOp29
 70
     1
102
RTVSPost2010Prop30
280
     1
102
RTVSPost2010PropOp30
 70
     1
102
RTVSPost2010Prop31
280
     0
102
RTVSPost2010PropOp31
 70
     1
102
RTVSPost2010Prop32
280
     0
102
RTVSPost2010PropOp32
 70
     1
102
RTVSPost2010Prop33
280
     0
102
RTVSPost2010PropOp33
 70
     1
102
RTVSPost2010Prop34
280
     0
102
RTVSPost2010PropOp34
 70
     1
102
RTVSPost2010Prop35
280
     0
102
RTVSPost2010PropOp35
 70
     1
102
RTVSPost2010Prop36
280
     0
102
RTVSPost2010PropOp36
 70
     1
102
RTVSPost2010Prop37
 90
       50
102
RTVSPost2010PropOp37
 70
     1
102
RTVSPost2010Prop38
140
0.0
102
RTVSPost2010PropOp38
 70
     1
102
RTVSPost2010Prop39
140
1.0
102
RTVSPost2010PropOp39
 70
     1
102
RTVSPost2010Prop40
 90
        0
102
RTVSPost2010PropOp40
 70
     1
102
RTVSPost2010Prop41ColorIndex
 90
       18
102
RTVSPost2010Prop41ColorRGB
 90
        0
102
RTVSPost2010PropOp41
 70
     1
102
RTVSPost2010Prop42
 90
       50
102
RTVSPost2010PropOp42
 70
     1
102
RTVSPost2010Prop43
 90
        3
102
RTVSPost2010PropOp43
 70
     1
102
RTVSPost2010Prop44ColorIndex
 90
        5
102
RTVSPost2010Prop44ColorRGB
 90
      255
102
RTVSPost2010PropOp44
 70
     1
102
RTVSPost2010Prop45
280
     0
102
RTVSPost2010PropOp45
 70
     1
102
RTVSPost2010Prop46
 90
       50
102
RTVSPost2010PropOp46
 70
     1
102
RTVSPost2010Prop47
 90
       50
102
RTVSPost2010PropOp47
 70
     1
102
RTVSPost2010Prop48
 90
       50
102
RTVSPost2010PropOp48
 70
     1
102
RTVSPost2010Prop49
280
     0
102
RTVSPost2010PropOp49
 70
     1
102
RTVSPost2010Prop50
 90
       50
102
RTVSPost2010PropOp50
 70
     1
102
RTVSPost2010Prop51ColorIndex
 90
      256
102
RTVSPost2010Prop51ColorRGB
 90
-16777216
102
RTVSPost2010PropOp51
 70
     0
102
RTVSPost2010Prop52
140
1.0
102
RTVSPost2010PropOp52
 70
     0
102
RTVSPost2010Prop53
 90
        2
102
RTVSPost2010PropOp53
 70
     1
102
RTVSPost2010Prop54
  1
strokes_ogs.tif
102
RTVSPost2010PropOp54
 70
     1
102
RTVSPost2010Prop55
280
     0
102
RTVSPost2010PropOp55
 70
     1
102
RTVSPost2010Prop56
140
1.0
102
RTVSPost2010PropOp56
 70
     1
102
RTVSPost2010Prop57
140
1.0
102
RTVSPost2010PropOp57
 70
     1
  0
XRECORD
  5
276
102
{ACAD_REACTORS
330
275
102
}
330
275
100
AcDbXrecord
280
     1
102
RTVSPost2010Prop28
280
     0
102
RTVSPost2010PropOp28
 70
     0
102
RTVSPost2010Prop29
280
     1
102
RTVSPost2010PropOp29
 70
     0
102
RTVSPost2010Prop30
280
     1
102
RTVSPost2010PropOp30
 70
     0
102
RTVSPost2010Prop31
280
     0
102
RTVSPost2010PropOp31
 70
     0
102
RTVSPost2010Prop32
280
     0
102
RTVSPost2010PropOp32
 70
     0
102
RTVSPost2010Prop33
280
     0
102
RTVSPost2010PropOp33
 70
     0
102
RTVSPost2010Prop34
280
     0
102
RTVSPost2010PropOp34
 70
     0
102
RTVSPost2010Prop35
280
     0
102
RTVSPost2010PropOp35
 70
     0
102
RTVSPost2010Prop36
280
     0
102
RTVSPost2010PropOp36
 70
     0
102
RTVSPost2010Prop37
 90
       50
102
RTVSPost2010PropOp37
 70
     0
102
RTVSPost2010Prop38
140
0.0
102
RTVSPost2010PropOp38
 70
     0
102
RTVSPost2010Prop39
140
1.0
102
RTVSPost2010PropOp39
 70
     0
102
RTVSPost2010Prop40
 90
        0
102
RTVSPost2010PropOp40
 70
     0
102
RTVSPost2010Prop41ColorIndex
 90
       18
102
RTVSPost2010Prop41ColorRGB
 90
        0
102
RTVSPost2010PropOp41
 70
     0
102
RTVSPost2010Prop42
 90
       50
102
RTVSPost2010PropOp42
 70
     0
102
RTVSPost2010Prop43
 90
        3
102
RTVSPost2010PropOp43
 70
     0
102
RTVSPost2010Prop44ColorIndex
 90
        5
102
RTVSPost2010Prop44ColorRGB
 90
      255
102
RTVSPost2010PropOp44
 70
     0
102
RTVSPost2010Prop45
280
     0
102
RTVSPost2010PropOp45
 70
     0
102
RTVSPost2010Prop46
 90
       50
102
RTVSPost2010PropOp46
 70
     0
102
RTVSPost2010Prop47
 90
       50
102
RTVSPost2010PropOp47
 70
     0
102
RTVSPost2010Prop48
 90
       50
102
RTVSPost2010PropOp48
 70
     0
102
RTVSPost2010Prop49
280
     0
102
RTVSPost2010PropOp49
 70
     0
102
RTVSPost2010Prop50
 90
       50
102
RTVSPost2010PropOp50
 70
     0
102
RTVSPost2010Prop51ColorIndex
 90
      256
102
RTVSPost2010Prop51ColorRGB
 90
-16777216
102
RTVSPost2010PropOp51
 70
     0
102
RTVSPost2010Prop52
140
1.0
102
RTVSPost2010PropOp52
 70
     0
102
RTVSPost2010Prop53
 90
        2
102
RTVSPost2010PropOp53
 70
     0
102
RTVSPost2010Prop54
  1
strokes_ogs.tif
102
RTVSPost2010PropOp54
 70
     0
102
RTVSPost2010Prop55
280
     0
102
RTVSPost2010PropOp55
 70
     0
102
RTVSPost2010Prop56
140
1.0
102
RTVSPost2010PropOp56
 70
     0
102
RTVSPost2010Prop57
140
1.0
102
RTVSPost2010PropOp57
 70
     0
  0
XRECORD
  5
270
102
{ACAD_REACTORS
330
26F
102
}
330
26F
100
AcDbXrecord
280
     1
102
RTVSPost2010Prop28
280
     0
102
RTVSPost2010PropOp28
 70
     1
102
RTVSPost2010Prop29
280
     1
102
RTVSPost2010PropOp29
 70
     1
102
RTVSPost2010Prop30
280
     1
102
RTVSPost2010PropOp30
 70
     1
102
RTVSPost2010Prop31
280
     0
102
RTVSPost2010PropOp31
 70
     1
102
RTVSPost2010Prop32
280
     0
102
RTVSPost2010PropOp32
 70
     1
102
RTVSPost2010Prop33
280
     0
102
RTVSPost2010PropOp33
 70
     1
102
RTVSPost2010Prop34
280
     0
102
RTVSPost2010PropOp34
 70
     1
102
RTVSPost2010Prop35
280
     0
102
RTVSPost2010PropOp35
 70
     1
102
RTVSPost2010Prop36
280
     0
102
RTVSPost2010PropOp36
 70
     1
102
RTVSPost2010Prop37
 90
       50
102
RTVSPost2010PropOp37
 70
     1
102
RTVSPost2010Prop38
140
0.0
102
RTVSPost2010PropOp38
 70
     1
102
RTVSPost2010Prop39
140
1.0
102
RTVSPost2010PropOp39
 70
     1
102
RTVSPost2010Prop40
 90
        0
102
RTVSPost2010PropOp40
 70
     1
102
RTVSPost2010Prop41ColorIndex
 90
       18
102
RTVSPost2010Prop41ColorRGB
 90
        0
102
RTVSPost2010PropOp41
 70
     1
102
RTVSPost2010Prop42
 90
       50
102
RTVSPost2010PropOp42
 70
     1
102
RTVSPost2010Prop43
 90
        3
102
RTVSPost2010PropOp43
 70
     1
102
RTVSPost2010Prop44ColorIndex
 90
        5
102
RTVSPost2010Prop44ColorRGB
 90
      255
102
RTVSPost2010PropOp44
 70
     1
102
RTVSPost2010Prop45
280
     0
102
RTVSPost2010PropOp45
 70
     1
102
RTVSPost2010Prop46
 90
       50
102
RTVSPost2010PropOp46
 70
     1
102
RTVSPost2010Prop47
 90
       50
102
RTVSPost2010PropOp47
 70
     1
102
RTVSPost2010Prop48
 90
       50
102
RTVSPost2010PropOp48
 70
     1
102
RTVSPost2010Prop49
280
     0
102
RTVSPost2010PropOp49
 70
     1
102
RTVSPost2010Prop50
 90
       50
102
RTVSPost2010PropOp50
 70
     1
102
RTVSPost2010Prop51ColorIndex
 90
      256
102
RTVSPost2010Prop51ColorRGB
 90
-16777216
102
RTVSPost2010PropOp51
 70
     0
102
RTVSPost2010Prop52
140
1.0
102
RTVSPost2010PropOp52
 70
     0
102
RTVSPost2010Prop53
 90
        2
102
RTVSPost2010PropOp53
 70
     1
102
RTVSPost2010Prop54
  1
strokes_ogs.tif
102
RTVSPost2010PropOp54
 70
     1
102
RTVSPost2010Prop55
280
     0
102
RTVSPost2010PropOp55
 70
     1
102
RTVSPost2010Prop56
140
1.0
102
RTVSPost2010PropOp56
 70
     1
102
RTVSPost2010Prop57
140
1.0
102
RTVSPost2010PropOp57
 70
     1
  0
XRECORD
  5
278
102
{ACAD_REACTORS
330
277
102
}
330
277
100
AcDbXrecord
280
     1
102
RTVSPost2010Prop28
280
     0
102
RTVSPost2010PropOp28
 70
     0
102
RTVSPost2010Prop29
280
     1
102
RTVSPost2010PropOp29
 70
     0
102
RTVSPost2010Prop30
280
     1
102
RTVSPost2010PropOp30
 70
     0
102
RTVSPost2010Prop31
280
     0
102
RTVSPost2010PropOp31
 70
     0
102
RTVSPost2010Prop32
280
     0
102
RTVSPost2010PropOp32
 70
     0
102
RTVSPost2010Prop33
280
     0
102
RTVSPost2010PropOp33
 70
     0
102
RTVSPost2010Prop34
280
     0
102
RTVSPost2010PropOp34
 70
     0
102
RTVSPost2010Prop35
280
     0
102
RTVSPost2010PropOp35
 70
     0
102
RTVSPost2010Prop36
280
     0
102
RTVSPost2010PropOp36
 70
     0
102
RTVSPost2010Prop37
 90
       50
102
RTVSPost2010PropOp37
 70
     0
102
RTVSPost2010Prop38
140
0.0
102
RTVSPost2010PropOp38
 70
     0
102
RTVSPost2010Prop39
140
1.0
102
RTVSPost2010PropOp39
 70
     0
102
RTVSPost2010Prop40
 90
        0
102
RTVSPost2010PropOp40
 70
     0
102
RTVSPost2010Prop41ColorIndex
 90
       18
102
RTVSPost2010Prop41ColorRGB
 90
        0
102
RTVSPost2010PropOp41
 70
     0
102
RTVSPost2010Prop42
 90
       50
102
RTVSPost2010PropOp42
 70
     0
102
RTVSPost2010Prop43
 90
        3
102
RTVSPost2010PropOp43
 70
     0
102
RTVSPost2010Prop44ColorIndex
 90
        5
102
RTVSPost2010Prop44ColorRGB
 90
      255
102
RTVSPost2010PropOp44
 70
     0
102
RTVSPost2010Prop45
280
     0
102
RTVSPost2010PropOp45
 70
     0
102
RTVSPost2010Prop46
 90
       50
102
RTVSPost2010PropOp46
 70
     0
102
RTVSPost2010Prop47
 90
       50
102
RTVSPost2010PropOp47
 70
     0
102
RTVSPost2010Prop48
 90
       50
102
RTVSPost2010PropOp48
 70
     0
102
RTVSPost2010Prop49
280
     0
102
RTVSPost2010PropOp49
 70
     0
102
RTVSPost2010Prop50
 90
       50
102
RTVSPost2010PropOp50
 70
     0
102
RTVSPost2010Prop51ColorIndex
 90
      256
102
RTVSPost2010Prop51ColorRGB
 90
-16777216
102
RTVSPost2010PropOp51
 70
     0
102
RTVSPost2010Prop52
140
1.0
102
RTVSPost2010PropOp52
 70
     0
102
RTVSPost2010Prop53
 90
        2
102
RTVSPost2010PropOp53
 70
     0
102
RTVSPost2010Prop54
  1
strokes_ogs.tif
102
RTVSPost2010PropOp54
 70
     0
102
RTVSPost2010Prop55
280
     0
102
RTVSPost2010PropOp55
 70
     0
102
RTVSPost2010Prop56
140
1.0
102
RTVSPost2010PropOp56
 70
     0
102
RTVSPost2010Prop57
140
1.0
102
RTVSPost2010PropOp57
 70
     0
  0
XRECORD
  5
266
102
{ACAD_REACTORS
330
265
102
}
330
265
100
AcDbXrecord
280
     1
102
RTVSPost2010Prop28
280
     0
102
RTVSPost2010PropOp28
 70
     1
102
RTVSPost2010Prop29
280
     1
102
RTVSPost2010PropOp29
 70
     1
102
RTVSPost2010Prop30
280
     1
102
RTVSPost2010PropOp30
 70
     1
102
RTVSPost2010Prop31
280
     0
102
RTVSPost2010PropOp31
 70
     1
102
RTVSPost2010Prop32
280
     0
102
RTVSPost2010PropOp32
 70
     1
102
RTVSPost2010Prop33
280
     0
102
RTVSPost2010PropOp33
 70
     1
102
RTVSPost2010Prop34
280
     0
102
RTVSPost2010PropOp34
 70
     1
102
RTVSPost2010Prop35
280
     0
102
RTVSPost2010PropOp35
 70
     1
102
RTVSPost2010Prop36
280
     0
102
RTVSPost2010PropOp36
 70
     1
102
RTVSPost2010Prop37
 90
       50
102
RTVSPost2010PropOp37
 70
     1
102
RTVSPost2010Prop38
140
0.0
102
RTVSPost2010PropOp38
 70
     1
102
RTVSPost2010Prop39
140
1.0
102
RTVSPost2010PropOp39
 70
     1
102
RTVSPost2010Prop40
 90
        0
102
RTVSPost2010PropOp40
 70
     1
102
RTVSPost2010Prop41ColorIndex
 90
       18
102
RTVSPost2010Prop41ColorRGB
 90
        0
102
RTVSPost2010PropOp41
 70
     1
102
RTVSPost2010Prop42
 90
       50
102
RTVSPost2010PropOp42
 70
     1
102
RTVSPost2010Prop43
 90
        3
102
RTVSPost2010PropOp43
 70
     1
102
RTVSPost2010Prop44ColorIndex
 90
        5
102
RTVSPost2010Prop44ColorRGB
 90
      255
102
RTVSPost2010PropOp44
 70
     1
102
RTVSPost2010Prop45
280
     0
102
RTVSPost2010PropOp45
 70
     1
102
RTVSPost2010Prop46
 90
       50
102
RTVSPost2010PropOp46
 70
     1
102
RTVSPost2010Prop47
 90
       50
102
RTVSPost2010PropOp47
 70
     1
102
RTVSPost2010Prop48
 90
       50
102
RTVSPost2010PropOp48
 70
     1
102
RTVSPost2010Prop49
280
     0
102
RTVSPost2010PropOp49
 70
     1
102
RTVSPost2010Prop50
 90
       50
102
RTVSPost2010PropOp50
 70
     1
102
RTVSPost2010Prop51ColorIndex
 90
      256
102
RTVSPost2010Prop51ColorRGB
 90
-16777216
102
RTVSPost2010PropOp51
 70
     0
102
RTVSPost2010Prop52
140
1.0
102
RTVSPost2010PropOp52
 70
     0
102
RTVSPost2010Prop53
 90
        2
102
RTVSPost2010PropOp53
 70
     1
102
RTVSPost2010Prop54
  1
strokes_ogs.tif
102
RTVSPost2010PropOp54
 70
     1
102
RTVSPost2010Prop55
280
     0
102
RTVSPost2010PropOp55
 70
     1
102
RTVSPost2010Prop56
140
1.0
102
RTVSPost2010PropOp56
 70
     1
102
RTVSPost2010Prop57
140
1.0
102
RTVSPost2010PropOp57
 70
     1
  0
XRECORD
  5
284
102
{ACAD_REACTORS
330
283
102
}
330
283
100
AcDbXrecord
280
     1
102
RTVSPost2010Prop28
280
     0
102
RTVSPost2010PropOp28
 70
     1
102
RTVSPost2010Prop29
280
     1
102
RTVSPost2010PropOp29
 70
     1
102
RTVSPost2010Prop30
280
     1
102
RTVSPost2010PropOp30
 70
     1
102
RTVSPost2010Prop31
280
     0
102
RTVSPost2010PropOp31
 70
     1
102
RTVSPost2010Prop32
280
     0
102
RTVSPost2010PropOp32
 70
     1
102
RTVSPost2010Prop33
280
     0
102
RTVSPost2010PropOp33
 70
     1
102
RTVSPost2010Prop34
280
     0
102
RTVSPost2010PropOp34
 70
     1
102
RTVSPost2010Prop35
280
     0
102
RTVSPost2010PropOp35
 70
     1
102
RTVSPost2010Prop36
280
     0
102
RTVSPost2010PropOp36
 70
     1
102
RTVSPost2010Prop37
 90
       50
102
RTVSPost2010PropOp37
 70
     1
102
RTVSPost2010Prop38
140
0.0
102
RTVSPost2010PropOp38
 70
     1
102
RTVSPost2010Prop39
140
1.0
102
RTVSPost2010PropOp39
 70
     1
102
RTVSPost2010Prop40
 90
        0
102
RTVSPost2010PropOp40
 70
     1
102
RTVSPost2010Prop41ColorIndex
 90
       18
102
RTVSPost2010Prop41ColorRGB
 90
        0
102
RTVSPost2010PropOp41
 70
     1
102
RTVSPost2010Prop42
 90
       50
102
RTVSPost2010PropOp42
 70
     1
102
RTVSPost2010Prop43
 90
        3
102
RTVSPost2010PropOp43
 70
     1
102
RTVSPost2010Prop44ColorIndex
 90
        5
102
RTVSPost2010Prop44ColorRGB
 90
      255
102
RTVSPost2010PropOp44
 70
     1
102
RTVSPost2010Prop45
280
     0
102
RTVSPost2010PropOp45
 70
     1
102
RTVSPost2010Prop46
 90
       50
102
RTVSPost2010PropOp46
 70
     1
102
RTVSPost2010Prop47
 90
       50
102
RTVSPost2010PropOp47
 70
     1
102
RTVSPost2010Prop48
 90
       50
102
RTVSPost2010PropOp48
 70
     1
102
RTVSPost2010Prop49
280
     0
102
RTVSPost2010PropOp49
 70
     1
102
RTVSPost2010Prop50
 90
       50
102
RTVSPost2010PropOp50
 70
     1
102
RTVSPost2010Prop51ColorIndex
 90
      256
102
RTVSPost2010Prop51ColorRGB
 90
-16777216
102
RTVSPost2010PropOp51
 70
     0
102
RTVSPost2010Prop52
140
1.0
102
RTVSPost2010PropOp52
 70
     0
102
RTVSPost2010Prop53
 90
        2
102
RTVSPost2010PropOp53
 70
     1
102
RTVSPost2010Prop54
  1
strokes_ogs.tif
102
RTVSPost2010PropOp54
 70
     1
102
RTVSPost2010Prop55
280
     0
102
RTVSPost2010PropOp55
 70
     1
102
RTVSPost2010Prop56
140
1.0
102
RTVSPost2010PropOp56
 70
     1
102
RTVSPost2010Prop57
140
1.0
102
RTVSPost2010PropOp57
 70
     1
  0
XRECORD
  5
282
102
{ACAD_REACTORS
330
281
102
}
330
281
100
AcDbXrecord
280
     1
102
RTVSPost2010Prop28
280
     0
102
RTVSPost2010PropOp28
 70
     1
102
RTVSPost2010Prop29
280
     1
102
RTVSPost2010PropOp29
 70
     1
102
RTVSPost2010Prop30
280
     1
102
RTVSPost2010PropOp30
 70
     1
102
RTVSPost2010Prop31
280
     0
102
RTVSPost2010PropOp31
 70
     1
102
RTVSPost2010Prop32
280
     0
102
RTVSPost2010PropOp32
 70
     1
102
RTVSPost2010Prop33
280
     0
102
RTVSPost2010PropOp33
 70
     1
102
RTVSPost2010Prop34
280
     0
102
RTVSPost2010PropOp34
 70
     1
102
RTVSPost2010Prop35
280
     0
102
RTVSPost2010PropOp35
 70
     1
102
RTVSPost2010Prop36
280
     0
102
RTVSPost2010PropOp36
 70
     1
102
RTVSPost2010Prop37
 90
       50
102
RTVSPost2010PropOp37
 70
     1
102
RTVSPost2010Prop38
140
0.0
102
RTVSPost2010PropOp38
 70
     1
102
RTVSPost2010Prop39
140
1.0
102
RTVSPost2010PropOp39
 70
     1
102
RTVSPost2010Prop40
 90
        0
102
RTVSPost2010PropOp40
 70
     1
102
RTVSPost2010Prop41ColorIndex
 90
       18
102
RTVSPost2010Prop41ColorRGB
 90
        0
102
RTVSPost2010PropOp41
 70
     1
102
RTVSPost2010Prop42
 90
       50
102
RTVSPost2010PropOp42
 70
     1
102
RTVSPost2010Prop43
 90
        3
102
RTVSPost2010PropOp43
 70
     1
102
RTVSPost2010Prop44ColorIndex
 90
        5
102
RTVSPost2010Prop44ColorRGB
 90
      255
102
RTVSPost2010PropOp44
 70
     1
102
RTVSPost2010Prop45
280
     0
102
RTVSPost2010PropOp45
 70
     1
102
RTVSPost2010Prop46
 90
       50
102
RTVSPost2010PropOp46
 70
     1
102
RTVSPost2010Prop47
 90
       50
102
RTVSPost2010PropOp47
 70
     1
102
RTVSPost2010Prop48
 90
       50
102
RTVSPost2010PropOp48
 70
     1
102
RTVSPost2010Prop49
280
     0
102
RTVSPost2010PropOp49
 70
     1
102
RTVSPost2010Prop50
 90
       50
102
RTVSPost2010PropOp50
 70
     1
102
RTVSPost2010Prop51ColorIndex
 90
      256
102
RTVSPost2010Prop51ColorRGB
 90
-16777216
102
RTVSPost2010PropOp51
 70
     0
102
RTVSPost2010Prop52
140
1.0
102
RTVSPost2010PropOp52
 70
     0
102
RTVSPost2010Prop53
 90
        2
102
RTVSPost2010PropOp53
 70
     1
102
RTVSPost2010Prop54
  1
strokes_ogs.tif
102
RTVSPost2010PropOp54
 70
     1
102
RTVSPost2010Prop55
280
     0
102
RTVSPost2010PropOp55
 70
     1
102
RTVSPost2010Prop56
140
1.0
102
RTVSPost2010PropOp56
 70
     1
102
RTVSPost2010Prop57
140
1.0
102
RTVSPost2010PropOp57
 70
     1
  0
XRECORD
  5
27C
102
{ACAD_REACTORS
330
27B
102
}
330
27B
100
AcDbXrecord
280
     1
102
RTVSPost2010Prop28
280
     0
102
RTVSPost2010PropOp28
 70
     1
102
RTVSPost2010Prop29
280
     1
102
RTVSPost2010PropOp29
 70
     1
102
RTVSPost2010Prop30
280
     1
102
RTVSPost2010PropOp30
 70
     1
102
RTVSPost2010Prop31
280
     0
102
RTVSPost2010PropOp31
 70
     1
102
RTVSPost2010Prop32
280
     0
102
RTVSPost2010PropOp32
 70
     1
102
RTVSPost2010Prop33
280
     0
102
RTVSPost2010PropOp33
 70
     1
102
RTVSPost2010Prop34
280
     0
102
RTVSPost2010PropOp34
 70
     1
102
RTVSPost2010Prop35
280
     0
102
RTVSPost2010PropOp35
 70
     1
102
RTVSPost2010Prop36
280
     0
102
RTVSPost2010PropOp36
 70
     1
102
RTVSPost2010Prop37
 90
       50
102
RTVSPost2010PropOp37
 70
     1
102
RTVSPost2010Prop38
140
0.0
102
RTVSPost2010PropOp38
 70
     1
102
RTVSPost2010Prop39
140
1.0
102
RTVSPost2010PropOp39
 70
     1
102
RTVSPost2010Prop40
 90
        0
102
RTVSPost2010PropOp40
 70
     1
102
RTVSPost2010Prop41ColorIndex
 90
       18
102
RTVSPost2010Prop41ColorRGB
 90
        0
102
RTVSPost2010PropOp41
 70
     1
102
RTVSPost2010Prop42
 90
       50
102
RTVSPost2010PropOp42
 70
     1
102
RTVSPost2010Prop43
 90
        3
102
RTVSPost2010PropOp43
 70
     1
102
RTVSPost2010Prop44ColorIndex
 90
        5
102
RTVSPost2010Prop44ColorRGB
 90
      255
102
RTVSPost2010PropOp44
 70
     1
102
RTVSPost2010Prop45
280
     0
102
RTVSPost2010PropOp45
 70
     1
102
RTVSPost2010Prop46
 90
       50
102
RTVSPost2010PropOp46
 70
     1
102
RTVSPost2010Prop47
 90
       50
102
RTVSPost2010PropOp47
 70
     1
102
RTVSPost2010Prop48
 90
       50
102
RTVSPost2010PropOp48
 70
     1
102
RTVSPost2010Prop49
280
     0
102
RTVSPost2010PropOp49
 70
     1
102
RTVSPost2010Prop50
 90
       50
102
RTVSPost2010PropOp50
 70
     1
102
RTVSPost2010Prop51ColorIndex
 90
      256
102
RTVSPost2010Prop51ColorRGB
 90
-16777216
102
RTVSPost2010PropOp51
 70
     0
102
RTVSPost2010Prop52
140
1.0
102
RTVSPost2010PropOp52
 70
     0
102
RTVSPost2010Prop53
 90
        2
102
RTVSPost2010PropOp53
 70
     1
102
RTVSPost2010Prop54
  1
strokes_ogs.tif
102
RTVSPost2010PropOp54
 70
     1
102
RTVSPost2010Prop55
280
     0
102
RTVSPost2010PropOp55
 70
     1
102
RTVSPost2010Prop56
140
1.0
102
RTVSPost2010PropOp56
 70
     1
102
RTVSPost2010Prop57
140
1.0
102
RTVSPost2010PropOp57
 70
     1
  0
XRECORD
  5
27E
102
{ACAD_REACTORS
330
27D
102
}
330
27D
100
AcDbXrecord
280
     1
102
RTVSPost2010Prop28
280
     0
102
RTVSPost2010PropOp28
 70
     1
102
RTVSPost2010Prop29
280
     1
102
RTVSPost2010PropOp29
 70
     1
102
RTVSPost2010Prop30
280
     1
102
RTVSPost2010PropOp30
 70
     1
102
RTVSPost2010Prop31
280
     0
102
RTVSPost2010PropOp31
 70
     1
102
RTVSPost2010Prop32
280
     0
102
RTVSPost2010PropOp32
 70
     1
102
RTVSPost2010Prop33
280
     0
102
RTVSPost2010PropOp33
 70
     1
102
RTVSPost2010Prop34
280
     0
102
RTVSPost2010PropOp34
 70
     1
102
RTVSPost2010Prop35
280
     0
102
RTVSPost2010PropOp35
 70
     1
102
RTVSPost2010Prop36
280
     0
102
RTVSPost2010PropOp36
 70
     1
102
RTVSPost2010Prop37
 90
       50
102
RTVSPost2010PropOp37
 70
     1
102
RTVSPost2010Prop38
140
0.0
102
RTVSPost2010PropOp38
 70
     1
102
RTVSPost2010Prop39
140
1.0
102
RTVSPost2010PropOp39
 70
     1
102
RTVSPost2010Prop40
 90
        0
102
RTVSPost2010PropOp40
 70
     1
102
RTVSPost2010Prop41ColorIndex
 90
       18
102
RTVSPost2010Prop41ColorRGB
 90
        0
102
RTVSPost2010PropOp41
 70
     1
102
RTVSPost2010Prop42
 90
       50
102
RTVSPost2010PropOp42
 70
     1
102
RTVSPost2010Prop43
 90
        3
102
RTVSPost2010PropOp43
 70
     1
102
RTVSPost2010Prop44ColorIndex
 90
        5
102
RTVSPost2010Prop44ColorRGB
 90
      255
102
RTVSPost2010PropOp44
 70
     1
102
RTVSPost2010Prop45
280
     0
102
RTVSPost2010PropOp45
 70
     1
102
RTVSPost2010Prop46
 90
       50
102
RTVSPost2010PropOp46
 70
     1
102
RTVSPost2010Prop47
 90
       50
102
RTVSPost2010PropOp47
 70
     1
102
RTVSPost2010Prop48
 90
       50
102
RTVSPost2010PropOp48
 70
     1
102
RTVSPost2010Prop49
280
     0
102
RTVSPost2010PropOp49
 70
     1
102
RTVSPost2010Prop50
 90
       50
102
RTVSPost2010PropOp50
 70
     1
102
RTVSPost2010Prop51ColorIndex
 90
      256
102
RTVSPost2010Prop51ColorRGB
 90
-16777216
102
RTVSPost2010PropOp51
 70
     0
102
RTVSPost2010Prop52
140
1.0
102
RTVSPost2010PropOp52
 70
     0
102
RTVSPost2010Prop53
 90
        2
102
RTVSPost2010PropOp53
 70
     1
102
RTVSPost2010Prop54
  1
strokes_ogs.tif
102
RTVSPost2010PropOp54
 70
     1
102
RTVSPost2010Prop55
280
     0
102
RTVSPost2010PropOp55
 70
     1
102
RTVSPost2010Prop56
140
1.0
102
RTVSPost2010PropOp56
 70
     1
102
RTVSPost2010Prop57
140
1.0
102
RTVSPost2010PropOp57
 70
     1
  0
XRECORD
  5
26E
102
{ACAD_REACTORS
330
26D
102
}
330
26D
100
AcDbXrecord
280
     1
102
RTVSPost2010Prop28
280
     0
102
RTVSPost2010PropOp28
 70
     1
102
RTVSPost2010Prop29
280
     1
102
RTVSPost2010PropOp29
 70
     1
102
RTVSPost2010Prop30
280
     1
102
RTVSPost2010PropOp30
 70
     1
102
RTVSPost2010Prop31
280
     0
102
RTVSPost2010PropOp31
 70
     1
102
RTVSPost2010Prop32
280
     0
102
RTVSPost2010PropOp32
 70
     1
102
RTVSPost2010Prop33
280
     0
102
RTVSPost2010PropOp33
 70
     1
102
RTVSPost2010Prop34
280
     0
102
RTVSPost2010PropOp34
 70
     1
102
RTVSPost2010Prop35
280
     0
102
RTVSPost2010PropOp35
 70
     1
102
RTVSPost2010Prop36
280
     0
102
RTVSPost2010PropOp36
 70
     1
102
RTVSPost2010Prop37
 90
       50
102
RTVSPost2010PropOp37
 70
     1
102
RTVSPost2010Prop38
140
0.0
102
RTVSPost2010PropOp38
 70
     1
102
RTVSPost2010Prop39
140
1.0
102
RTVSPost2010PropOp39
 70
     1
102
RTVSPost2010Prop40
 90
        0
102
RTVSPost2010PropOp40
 70
     1
102
RTVSPost2010Prop41ColorIndex
 90
       18
102
RTVSPost2010Prop41ColorRGB
 90
        0
102
RTVSPost2010PropOp41
 70
     1
102
RTVSPost2010Prop42
 90
       50
102
RTVSPost2010PropOp42
 70
     1
102
RTVSPost2010Prop43
 90
        3
102
RTVSPost2010PropOp43
 70
     1
102
RTVSPost2010Prop44ColorIndex
 90
        5
102
RTVSPost2010Prop44ColorRGB
 90
      255
102
RTVSPost2010PropOp44
 70
     1
102
RTVSPost2010Prop45
280
     0
102
RTVSPost2010PropOp45
 70
     1
102
RTVSPost2010Prop46
 90
       50
102
RTVSPost2010PropOp46
 70
     1
102
RTVSPost2010Prop47
 90
       50
102
RTVSPost2010PropOp47
 70
     1
102
RTVSPost2010Prop48
 90
       50
102
RTVSPost2010PropOp48
 70
     1
102
RTVSPost2010Prop49
280
     0
102
RTVSPost2010PropOp49
 70
     1
102
RTVSPost2010Prop50
 90
       50
102
RTVSPost2010PropOp50
 70
     1
102
RTVSPost2010Prop51ColorIndex
 90
      256
102
RTVSPost2010Prop51ColorRGB
 90
-16777216
102
RTVSPost2010PropOp51
 70
     0
102
RTVSPost2010Prop52
140
1.0
102
RTVSPost2010PropOp52
 70
     0
102
RTVSPost2010Prop53
 90
        2
102
RTVSPost2010PropOp53
 70
     1
102
RTVSPost2010Prop54
  1
strokes_ogs.tif
102
RTVSPost2010PropOp54
 70
     1
102
RTVSPost2010Prop55
280
     0
102
RTVSPost2010PropOp55
 70
     1
102
RTVSPost2010Prop56
140
1.0
102
RTVSPost2010PropOp56
 70
     1
102
RTVSPost2010Prop57
140
1.0
102
RTVSPost2010PropOp57
 70
     1
  0
XRECORD
  5
260
102
{ACAD_REACTORS
330
25F
102
}
330
25F
100
AcDbXrecord
280
     1
102
RTVSPost2010Prop28
280
     0
102
RTVSPost2010PropOp28
 70
     1
102
RTVSPost2010Prop29
280
     1
102
RTVSPost2010PropOp29
 70
     1
102
RTVSPost2010Prop30
280
     1
102
RTVSPost2010PropOp30
 70
     1
102
RTVSPost2010Prop31
280
     0
102
RTVSPost2010PropOp31
 70
     1
102
RTVSPost2010Prop32
280
     0
102
RTVSPost2010PropOp32
 70
     1
102
RTVSPost2010Prop33
280
     0
102
RTVSPost2010PropOp33
 70
     1
102
RTVSPost2010Prop34
280
     0
102
RTVSPost2010PropOp34
 70
     1
102
RTVSPost2010Prop35
280
     0
102
RTVSPost2010PropOp35
 70
     1
102
RTVSPost2010Prop36
280
     0
102
RTVSPost2010PropOp36
 70
     1
102
RTVSPost2010Prop37
 90
       50
102
RTVSPost2010PropOp37
 70
     1
102
RTVSPost2010Prop38
140
0.0
102
RTVSPost2010PropOp38
 70
     1
102
RTVSPost2010Prop39
140
1.0
102
RTVSPost2010PropOp39
 70
     1
102
RTVSPost2010Prop40
 90
        0
102
RTVSPost2010PropOp40
 70
     1
102
RTVSPost2010Prop41ColorIndex
 90
       18
102
RTVSPost2010Prop41ColorRGB
 90
        0
102
RTVSPost2010PropOp41
 70
     1
102
RTVSPost2010Prop42
 90
       50
102
RTVSPost2010PropOp42
 70
     1
102
RTVSPost2010Prop43
 90
        3
102
RTVSPost2010PropOp43
 70
     1
102
RTVSPost2010Prop44ColorIndex
 90
        5
102
RTVSPost2010Prop44ColorRGB
 90
      255
102
RTVSPost2010PropOp44
 70
     1
102
RTVSPost2010Prop45
280
     0
102
RTVSPost2010PropOp45
 70
     1
102
RTVSPost2010Prop46
 90
       50
102
RTVSPost2010PropOp46
 70
     1
102
RTVSPost2010Prop47
 90
       50
102
RTVSPost2010PropOp47
 70
     1
102
RTVSPost2010Prop48
 90
       50
102
RTVSPost2010PropOp48
 70
     1
102
RTVSPost2010Prop49
280
     0
102
RTVSPost2010PropOp49
 70
     1
102
RTVSPost2010Prop50
 90
       50
102
RTVSPost2010PropOp50
 70
     1
102
RTVSPost2010Prop51ColorIndex
 90
      256
102
RTVSPost2010Prop51ColorRGB
 90
-16777216
102
RTVSPost2010PropOp51
 70
     0
102
RTVSPost2010Prop52
140
1.0
102
RTVSPost2010PropOp52
 70
     0
102
RTVSPost2010Prop53
 90
        2
102
RTVSPost2010PropOp53
 70
     1
102
RTVSPost2010Prop54
  1
strokes_ogs.tif
102
RTVSPost2010PropOp54
 70
     1
102
RTVSPost2010Prop55
280
     0
102
RTVSPost2010PropOp55
 70
     1
102
RTVSPost2010Prop56
140
1.0
102
RTVSPost2010PropOp56
 70
     1
102
RTVSPost2010Prop57
140
1.0
102
RTVSPost2010PropOp57
 70
     1
  0
XRECORD
  5
280
102
{ACAD_REACTORS
330
27F
102
}
330
27F
100
AcDbXrecord
280
     1
102
RTVSPost2010Prop28
280
     0
102
RTVSPost2010PropOp28
 70
     1
102
RTVSPost2010Prop29
280
     1
102
RTVSPost2010PropOp29
 70
     1
102
RTVSPost2010Prop30
280
     1
102
RTVSPost2010PropOp30
 70
     1
102
RTVSPost2010Prop31
280
     0
102
RTVSPost2010PropOp31
 70
     1
102
RTVSPost2010Prop32
280
     0
102
RTVSPost2010PropOp32
 70
     1
102
RTVSPost2010Prop33
280
     0
102
RTVSPost2010PropOp33
 70
     1
102
RTVSPost2010Prop34
280
     0
102
RTVSPost2010PropOp34
 70
     1
102
RTVSPost2010Prop35
280
     0
102
RTVSPost2010PropOp35
 70
     1
102
RTVSPost2010Prop36
280
     0
102
RTVSPost2010PropOp36
 70
     1
102
RTVSPost2010Prop37
 90
       50
102
RTVSPost2010PropOp37
 70
     1
102
RTVSPost2010Prop38
140
0.0
102
RTVSPost2010PropOp38
 70
     1
102
RTVSPost2010Prop39
140
1.0
102
RTVSPost2010PropOp39
 70
     1
102
RTVSPost2010Prop40
 90
        0
102
RTVSPost2010PropOp40
 70
     1
102
RTVSPost2010Prop41ColorIndex
 90
       18
102
RTVSPost2010Prop41ColorRGB
 90
        0
102
RTVSPost2010PropOp41
 70
     1
102
RTVSPost2010Prop42
 90
       50
102
RTVSPost2010PropOp42
 70
     1
102
RTVSPost2010Prop43
 90
        3
102
RTVSPost2010PropOp43
 70
     1
102
RTVSPost2010Prop44ColorIndex
 90
        5
102
RTVSPost2010Prop44ColorRGB
 90
      255
102
RTVSPost2010PropOp44
 70
     1
102
RTVSPost2010Prop45
280
     0
102
RTVSPost2010PropOp45
 70
     1
102
RTVSPost2010Prop46
 90
       50
102
RTVSPost2010PropOp46
 70
     1
102
RTVSPost2010Prop47
 90
       50
102
RTVSPost2010PropOp47
 70
     1
102
RTVSPost2010Prop48
 90
       50
102
RTVSPost2010PropOp48
 70
     1
102
RTVSPost2010Prop49
280
     0
102
RTVSPost2010PropOp49
 70
     1
102
RTVSPost2010Prop50
 90
       50
102
RTVSPost2010PropOp50
 70
     1
102
RTVSPost2010Prop51ColorIndex
 90
      256
102
RTVSPost2010Prop51ColorRGB
 90
-16777216
102
RTVSPost2010PropOp51
 70
     0
102
RTVSPost2010Prop52
140
1.0
102
RTVSPost2010PropOp52
 70
     0
102
RTVSPost2010Prop53
 90
        2
102
RTVSPost2010PropOp53
 70
     1
102
RTVSPost2010Prop54
  1
strokes_ogs.tif
102
RTVSPost2010PropOp54
 70
     1
102
RTVSPost2010Prop55
280
     0
102
RTVSPost2010PropOp55
 70
     1
102
RTVSPost2010Prop56
140
1.0
102
RTVSPost2010PropOp56
 70
     1
102
RTVSPost2010Prop57
140
1.0
102
RTVSPost2010PropOp57
 70
     1
  0
ENDSEC
  0
EOF
