  0
SECTION
  2
HEADER
  9
$ACADVER
  1
AC1015
  9
$ACADMAINTVER
 70
     6
  9
$DWGCODEPAGE
  3
ANSI_1252
  9
$INSBASE
 10
0.0
 20
0.0
 30
0.0
  9
$EXTMIN
 10
-96.211426
 20
84.815369
 30
0.0
  9
$EXTMAX
 10
559.087952
 20
379.317078
 30
0.0
  9
$LIMMIN
 10
-96.211426
 20
84.815369
  9
$LIMMAX
 10
559.087952
 20
379.317078
  9
$ORTHOMODE
 70
     0
  9
$REGENMODE
 70
     1
  9
$FILLMODE
 70
     1
  9
$QTEXTMODE
 70
     0
  9
$MIRRTEXT
 70
     1
  9
$LTSCALE
 40
1.0
  9
$ATTMODE
 70
     1
  9
$TEXTSIZE
 40
2.5
  9
$TRACEWID
 40
1.0
  9
$TEXTSTYLE
  7
Standard
  9
$CLAYER
  8
0
  9
$CELTYPE
  6
ByLayer
  9
$CECOLOR
 62
   256
  9
$CELTSCALE
 40
1.0
  9
$DISPSILH
 70
     0
  9
$DIMSCALE
 40
1.0
  9
$DIMASZ
 40
2.5
  9
$DIMEXO
 40
0.625
  9
$DIMDLI
 40
3.75
  9
$DIMRND
 40
0.0
  9
$DIMDLE
 40
0.0
  9
$DIMEXE
 40
1.25
  9
$DIMTP
 40
0.0
  9
$DIMTM
 40
0.0
  9
$DIMTXT
 40
2.5
  9
$DIMCEN
 40
2.5
  9
$DIMTSZ
 40
0.0
  9
$DIMTOL
 70
     0
  9
$DIMLIM
 70
     0
  9
$DIMTIH
 70
     0
  9
$DIMTOH
 70
     0
  9
$DIMSE1
 70
     0
  9
$DIMSE2
 70
     0
  9
$DIMTAD
 70
     1
  9
$DIMZIN
 70
     8
  9
$DIMBLK
  1

  9
$DIMASO
 70
     1
  9
$DIMSHO
 70
     1
  9
$DIMPOST
  1

  9
$DIMAPOST
  1

  9
$DIMALT
 70
     0
  9
$DIMALTD
 70
     3
  9
$DIMALTF
 40
0.03937
  9
$DIMLFAC
 40
1.0
  9
$DIMTOFL
 70
     1
  9
$DIMTVP
 40
0.0
  9
$DIMTIX
 70
     0
  9
$DIMSOXD
 70
     0
  9
$DIMSAH
 70
     0
  9
$DIMBLK1
  1

  9
$DIMBLK2
  1

  9
$DIMSTYLE
  2
ISO-25
  9
$DIMCLRD
 70
     0
  9
$DIMCLRE
 70
     0
  9
$DIMCLRT
 70
     0
  9
$DIMTFAC
 40
1.0
  9
$DIMGAP
 40
0.625
  9
$DIMJUST
 70
     0
  9
$DIMSD1
 70
     0
  9
$DIMSD2
 70
     0
  9
$DIMTOLJ
 70
     0
  9
$DIMTZIN
 70
     8
  9
$DIMALTZ
 70
     0
  9
$DIMALTTZ
 70
     0
  9
$DIMUPT
 70
     0
  9
$DIMDEC
 70
     2
  9
$DIMTDEC
 70
     2
  9
$DIMALTU
 70
     2
  9
$DIMALTTD
 70
     3
  9
$DIMTXSTY
  7
Standard
  9
$DIMAUNIT
 70
     0
  9
$DIMADEC
 70
     0
  9
$DIMALTRND
 40
0.0
  9
$DIMAZIN
 70
     0
  9
$DIMDSEP
 70
    44
  9
$DIMATFIT
 70
     3
  9
$DIMFRAC
 70
     0
  9
$DIMLDRBLK
  1

  9
$DIMLUNIT
 70
     2
  9
$DIMLWD
 70
    -2
  9
$DIMLWE
 70
    -2
  9
$DIMTMOVE
 70
     0
  9
$LUNITS
 70
     2
  9
$LUPREC
 70
     4
  9
$SKETCHINC
 40
1.0
  9
$FILLETRAD
 40
10.0
  9
$AUNITS
 70
     0
  9
$AUPREC
 70
     0
  9
$MENU
  1
.
  9
$ELEVATION
 40
0.0
  9
$PELEVATION
 40
0.0
  9
$THICKNESS
 40
0.0
  9
$LIMCHECK
 70
     0
  9
$CHAMFERA
 40
10.0
  9
$CHAMFERB
 40
10.0
  9
$CHAMFERC
 40
20.0
  9
$CHAMFERD
 40
0.0
  9
$SKPOLY
 70
     0
  9
$TDCREATE
 40
2455554.63711331
  9
$TDUCREATE
 40
2455554.595446643
  9
$TDUPDATE
 40
2455554.637113322
  9
$TDUUPDATE
 40
2455554.595446655
  9
$TDINDWG
 40
0.0000000116
  9
$TDUSRTIMER
 40
0.0000000116
  9
$USRTIMER
 70
     1
  9
$ANGBASE
 50
0.0
  9
$ANGDIR
 70
     0
  9
$PDMODE
 70
     0
  9
$PDSIZE
 40
0.0
  9
$PLINEWID
 40
0.0
  9
$SPLFRAME
 70
     0
  9
$SPLINETYPE
 70
     6
  9
$SPLINESEGS
 70
     8
  9
$HANDSEED
  5
128
  9
$SURFTAB1
 70
     6
  9
$SURFTAB2
 70
     6
  9
$SURFTYPE
 70
     6
  9
$SURFU
 70
     6
  9
$SURFV
 70
     6
  9
$UCSBASE
  2

  9
$UCSNAME
  2

  9
$UCSORG
 10
0.0
 20
0.0
 30
0.0
  9
$UCSXDIR
 10
1.0
 20
0.0
 30
0.0
  9
$UCSYDIR
 10
0.0
 20
1.0
 30
0.0
  9
$UCSORTHOREF
  2

  9
$UCSORTHOVIEW
 70
     0
  9
$UCSORGTOP
 10
0.0
 20
0.0
 30
0.0
  9
$UCSORGBOTTOM
 10
0.0
 20
0.0
 30
0.0
  9
$UCSORGLEFT
 10
0.0
 20
0.0
 30
0.0
  9
$UCSORGRIGHT
 10
0.0
 20
0.0
 30
0.0
  9
$UCSORGFRONT
 10
0.0
 20
0.0
 30
0.0
  9
$UCSORGBACK
 10
0.0
 20
0.0
 30
0.0
  9
$PUCSBASE
  2

  9
$PUCSNAME
  2

  9
$PUCSORG
 10
0.0
 20
0.0
 30
0.0
  9
$PUCSXDIR
 10
1.0
 20
0.0
 30
0.0
  9
$PUCSYDIR
 10
0.0
 20
1.0
 30
0.0
  9
$PUCSORTHOREF
  2

  9
$PUCSORTHOVIEW
 70
     0
  9
$PUCSORGTOP
 10
0.0
 20
0.0
 30
0.0
  9
$PUCSORGBOTTOM
 10
0.0
 20
0.0
 30
0.0
  9
$PUCSORGLEFT
 10
0.0
 20
0.0
 30
0.0
  9
$PUCSORGRIGHT
 10
0.0
 20
0.0
 30
0.0
  9
$PUCSORGFRONT
 10
0.0
 20
0.0
 30
0.0
  9
$PUCSORGBACK
 10
0.0
 20
0.0
 30
0.0
  9
$USERI1
 70
     0
  9
$USERI2
 70
     0
  9
$USERI3
 70
     0
  9
$USERI4
 70
     0
  9
$USERI5
 70
     0
  9
$USERR1
 40
0.0
  9
$USERR2
 40
0.0
  9
$USERR3
 40
0.0
  9
$USERR4
 40
0.0
  9
$USERR5
 40
0.0
  9
$WORLDVIEW
 70
     1
  9
$SHADEDGE
 70
     3
  9
$SHADEDIF
 70
    70
  9
$TILEMODE
 70
     1
  9
$MAXACTVP
 70
    64
  9
$PINSBASE
 10
0.0
 20
0.0
 30
0.0
  9
$PLIMCHECK
 70
     0
  9
$PEXTMIN
 10
1.000000E+20
 20
1.000000E+20
 30
1.000000E+20
  9
$PEXTMAX
 10
-1.000000E+20
 20
-1.000000E+20
 30
-1.000000E+20
  9
$PLIMMIN
 10
0.0
 20
0.0
  9
$PLIMMAX
 10
420.0
 20
297.0
  9
$UNITMODE
 70
     0
  9
$VISRETAIN
 70
     1
  9
$PLINEGEN
 70
     0
  9
$PSLTSCALE
 70
     1
  9
$TREEDEPTH
 70
  3020
  9
$CMLSTYLE
  2
Standard
  9
$CMLJUST
 70
     0
  9
$CMLSCALE
 40
20.0
  9
$PROXYGRAPHICS
 70
     1
  9
$MEASUREMENT
 70
     1
  9
$CELWEIGHT
370
    -1
  9
$ENDCAPS
280
     0
  9
$JOINSTYLE
280
     0
  9
$LWDISPLAY
290
     0
  9
$INSUNITS
 70
     4
  9
$HYPERLINKBASE
  1

  9
$STYLESHEET
  1

  9
$XEDIT
290
     1
  9
$CEPSNTYPE
380
     0
  9
$PSTYLEMODE
290
     1
  9
$FINGERPRINTGUID
  2
{46373F6A-BC94-46E1-AAA0-E7C0FC1623B4}
  9
$VERSIONGUID
  2
{FAEB1C32-E019-11D5-929B-00C0DF256EC4}
  9
$EXTNAMES
290
     1
  9
$PSVPSCALE
 40
0.0
  9
$OLESTARTUP
290
     0
  0
ENDSEC
  0
SECTION
  2
CLASSES
  0
CLASS
  1
ACDBDICTIONARYWDFLT
  2
AcDbDictionaryWithDefault
  3
ObjectDBX Classes
 90
        0
280
     0
281
     0
  0
CLASS
  1
VISUALSTYLE
  2
AcDbVisualStyle
  3
ObjectDBX Classes
 90
     4095
280
     0
281
     0
  0
CLASS
  1
DICTIONARYVAR
  2
AcDbDictionaryVar
  3
ObjectDBX Classes
 90
        0
280
     0
281
     0
  0
CLASS
  1
ACDBPLACEHOLDER
  2
AcDbPlaceHolder
  3
ObjectDBX Classes
 90
        0
280
     0
281
     0
  0
CLASS
  1
LAYOUT
  2
AcDbLayout
  3
ObjectDBX Classes
 90
        0
280
     0
281
     0
  0
ENDSEC
  0
SECTION
  2
TABLES
  0
TABLE
  2
VPORT
  5
8
330
0
100
AcDbSymbolTable
 70
     1
  0
VPORT
  5
29
330
8
100
AcDbSymbolTableRecord
100
AcDbViewportTableRecord
  2
*Active
 70
     0
 10
0.0
 20
0.0
 11
1.0
 21
1.0
 12
344.186916
 22
148.5
 13
0.0
 23
0.0
 14
10.0
 24
10.0
 15
10.0
 25
10.0
 16
0.0
 26
0.0
 36
1.0
 17
0.0
 27
0.0
 37
0.0
 40
297.0
 41
1.972973
 42
50.0
 43
0.0
 44
0.0
 50
0.0
 51
0.0
 71
     0
 72
   100
 73
     1
 74
     3
 75
     0
 76
     0
 77
     0
 78
     0
281
     0
 65
     1
110
0.0
120
0.0
130
0.0
111
1.0
121
0.0
131
0.0
112
0.0
122
1.0
132
0.0
 79
     0
146
0.0
  0
ENDTAB
  0
TABLE
  2
LTYPE
  5
5
330
0
100
AcDbSymbolTable
 70
     1
  0
LTYPE
  5
14
330
5
100
AcDbSymbolTableRecord
100
AcDbLinetypeTableRecord
  2
ByBlock
 70
     0
  3

 72
    65
 73
     0
 40
0.0
  0
LTYPE
  5
15
330
5
100
AcDbSymbolTableRecord
100
AcDbLinetypeTableRecord
  2
ByLayer
 70
     0
  3

 72
    65
 73
     0
 40
0.0
  0
LTYPE
  5
16
330
5
100
AcDbSymbolTableRecord
100
AcDbLinetypeTableRecord
  2
Continuous
 70
     0
  3
Solid line
 72
    65
 73
     0
 40
0.0
  0
ENDTAB
  0
TABLE
  2
LAYER
  5
2
330
0
100
AcDbSymbolTable
 70
     1
  0
LAYER
  5
10
330
2
100
AcDbSymbolTableRecord
100
AcDbLayerTableRecord
  2
0
 70
     0
 62
   106
  6
Continuous
370
     0
390
F
  0
ENDTAB
  0
TABLE
  2
STYLE
  5
3
330
0
100
AcDbSymbolTable
 70
     4
  0
STYLE
  5
11
330
3
100
AcDbSymbolTableRecord
100
AcDbTextStyleTableRecord
  2
Standard
 70
     0
 40
0.0
 41
1.0
 50
0.0
 71
     0
 42
2.5
  3
txt
  4

  0
STYLE
  5
3B
330
3
100
AcDbSymbolTableRecord
100
AcDbTextStyleTableRecord
  2
Default
 70
     0
 40
0.0
 41
1.0
 50
0.0
 71
     0
 42
0.2
  3

  4

1001
ACAD
1000
txt
1071
        0
  0
STYLE
  5
3C
330
3
100
AcDbSymbolTableRecord
100
AcDbTextStyleTableRecord
  2
ISO
 70
     0
 40
0.0
 41
1.0
 50
0.0
 71
     0
 42
0.2
  3

  4

1001
ACAD
1000
txt
1071
        0
  0
STYLE
  5
3D
330
3
100
AcDbSymbolTableRecord
100
AcDbTextStyleTableRecord
  2
GIANLU
 70
     0
 40
0.0
 41
1.0
 50
0.0
 71
     0
 42
0.2
  3

  4

1001
ACAD
1000
Arial
1071
        0
  0
ENDTAB
  0
TABLE
  2
VIEW
  5
6
330
0
100
AcDbSymbolTable
 70
     0
  0
ENDTAB
  0
TABLE
  2
UCS
  5
7
330
0
100
AcDbSymbolTable
 70
     0
  0
ENDTAB
  0
TABLE
  2
APPID
  5
9
330
0
100
AcDbSymbolTable
 70
     1
  0
APPID
  5
12
330
9
100
AcDbSymbolTableRecord
100
AcDbRegAppTableRecord
  2
ACAD
 70
     0
  0
ENDTAB
  0
TABLE
  2
DIMSTYLE
  5
A
330
0
100
AcDbSymbolTable
 70
     4
100
AcDbDimStyleTable
  0
DIMSTYLE
105
27
330
A
100
AcDbSymbolTableRecord
100
AcDbDimStyleTableRecord
  2
ISO-25
 70
     0
 41
2.5
 42
0.625
 43
3.75
 44
1.25
 73
     0
 74
     0
 77
     1
 78
     8
140
2.5
141
2.5
143
0.03937
147
0.625
171
     3
172
     1
271
     2
272
     2
274
     3
278
    44
283
     0
284
     8
340
11
  0
DIMSTYLE
105
3E
330
A
100
AcDbSymbolTableRecord
100
AcDbDimStyleTableRecord
  2
Default
 70
     0
  3
<>
 41
4.375
 42
1.05
 44
2.1
 73
     0
 74
     0
 77
     1
 78
     8
140
3.5
146
0.4
147
1.75
178
     3
271
     2
272
     3
284
     8
340
3B
341
3F
342
3F
  0
DIMSTYLE
105
46
330
A
100
AcDbSymbolTableRecord
100
AcDbDimStyleTableRecord
  2
ISO
 70
     0
  3
<>
 41
4.375
 42
1.05
 44
2.1
 73
     0
 74
     0
 77
     1
 78
     8
140
3.5
146
0.4
147
1.75
178
     3
271
     2
272
     3
284
     8
340
3C
341
3F
342
3F
  0
DIMSTYLE
105
47
330
A
100
AcDbSymbolTableRecord
100
AcDbDimStyleTableRecord
  2
zucchetti_unico
 70
     0
  3
<>
 41
3.0
 42
0.9
 44
1.8
 73
     0
 74
     0
 77
     1
 78
     8
140
3.0
146
0.6
147
1.5
176
   104
177
     3
178
     3
271
     2
272
     2
284
     8
340
3D
  0
ENDTAB
  0
TABLE
  2
BLOCK_RECORD
  5
1
330
0
100
AcDbSymbolTable
 70
     7
  0
BLOCK_RECORD
  5
1F
330
1
100
AcDbSymbolTableRecord
100
AcDbBlockTableRecord
  2
*Model_Space
340
22
  0
BLOCK_RECORD
  5
1B
330
1
100
AcDbSymbolTableRecord
100
AcDbBlockTableRecord
  2
*Paper_Space
340
1E
  0
BLOCK_RECORD
  5
23
330
1
100
AcDbSymbolTableRecord
100
AcDbBlockTableRecord
  2
*Paper_Space0
340
26
  0
BLOCK_RECORD
  5
3F
330
1
100
AcDbSymbolTableRecord
100
AcDbBlockTableRecord
  2
_CLOSED
340
0
  0
BLOCK_RECORD
  5
48
330
1
100
AcDbSymbolTableRecord
100
AcDbBlockTableRecord
  2
a
340
0
102
{BLKREFS
331
71
102
}
  0
BLOCK_RECORD
  5
72
330
1
100
AcDbSymbolTableRecord
100
AcDbBlockTableRecord
  2
b
340
0
102
{BLKREFS
331
A7
102
}
  0
BLOCK_RECORD
  5
A8
330
1
100
AcDbSymbolTableRecord
100
AcDbBlockTableRecord
  2
c
340
0
102
{BLKREFS
331
C2
102
}
  0
BLOCK_RECORD
  5
C3
330
1
100
AcDbSymbolTableRecord
100
AcDbBlockTableRecord
  2
d
340
0
102
{BLKREFS
331
105
102
}
  0
BLOCK_RECORD
  5
106
330
1
100
AcDbSymbolTableRecord
100
AcDbBlockTableRecord
  2
e
340
0
102
{BLKREFS
331
122
102
}
  0
ENDTAB
  0
ENDSEC
  0
SECTION
  2
BLOCKS
  0
BLOCK
  5
20
330
1F
100
AcDbEntity
  8
0
100
AcDbBlockBegin
  2
*Model_Space
 70
     0
 10
0.0
 20
0.0
 30
0.0
  3
*Model_Space
  1

  0
ENDBLK
  5
21
330
1F
100
AcDbEntity
  8
0
100
AcDbBlockEnd
  0
BLOCK
  5
1C
330
1B
100
AcDbEntity
 67
     1
  8
0
100
AcDbBlockBegin
  2
*Paper_Space
 70
     0
 10
0.0
 20
0.0
 30
0.0
  3
*Paper_Space
  1

  0
ENDBLK
  5
1D
330
1B
100
AcDbEntity
 67
     1
  8
0
100
AcDbBlockEnd
  0
BLOCK
  5
24
330
23
100
AcDbEntity
  8
0
100
AcDbBlockBegin
  2
*Paper_Space0
 70
     0
 10
0.0
 20
0.0
 30
0.0
  3
*Paper_Space0
  1

  0
ENDBLK
  5
25
330
23
100
AcDbEntity
  8
0
100
AcDbBlockEnd
  0
BLOCK
  5
40
330
3F
100
AcDbEntity
  8
0
100
AcDbBlockBegin
  2
_CLOSED
 70
     0
 10
0.0
 20
0.0
 30
0.0
  3
_CLOSED
  1

  0
LINE
  5
42
330
3F
100
AcDbEntity
  8
0
  6
ByBlock
 62
     0
370
    -2
100
AcDbLine
 10
-1.0
 20
0.166667
 30
0.0
 11
0.0
 21
0.0
 31
0.0
  0
LINE
  5
43
330
3F
100
AcDbEntity
  8
0
  6
ByBlock
 62
     0
370
    -2
100
AcDbLine
 10
0.0
 20
0.0
 30
0.0
 11
-1.0
 21
-0.166667
 31
0.0
  0
LINE
  5
44
330
3F
100
AcDbEntity
  8
0
  6
ByBlock
 62
     0
370
    -2
100
AcDbLine
 10
-1.0
 20
0.166667
 30
0.0
 11
-1.0
 21
-0.166667
 31
0.0
  0
LINE
  5
45
330
3F
100
AcDbEntity
  8
0
  6
ByBlock
 62
     0
370
    -2
100
AcDbLine
 10
0.0
 20
0.0
 30
0.0
 11
-1.0
 21
0.0
 31
0.0
  0
ENDBLK
  5
41
330
3F
100
AcDbEntity
  8
0
100
AcDbBlockEnd
  0
BLOCK
  5
6F
330
48
100
AcDbEntity
  8
0
100
AcDbBlockBegin
  2
a
 70
     0
 10
3.651821
 20
96.842712
 30
0.0
  3
a
  1

  0
LINE
  5
49
330
48
100
AcDbEntity
  8
0
  6
Continuous
 62
     0
370
    30
100
AcDbLine
 10
293.912022
 20
349.144107
 30
0.0
 11
293.912022
 21
365.317085
 31
0.0
  0
LINE
  5
4A
330
48
100
AcDbEntity
  8
0
  6
Continuous
 62
     0
370
    30
100
AcDbLine
 10
293.912022
 20
333.31707
 30
0.0
 11
293.912022
 21
349.144107
 31
0.0
  0
LINE
  5
4B
330
48
100
AcDbEntity
  8
0
  6
Continuous
 62
     0
370
    30
100
AcDbLine
 10
298.912022
 20
349.144107
 30
0.0
 11
298.912022
 21
365.317085
 31
0.0
  0
LINE
  5
4C
330
48
100
AcDbEntity
  8
0
  6
Continuous
 62
     0
370
    30
100
AcDbLine
 10
298.912022
 20
333.31707
 30
0.0
 11
298.912022
 21
349.144107
 31
0.0
  0
LINE
  5
4D
330
48
100
AcDbEntity
  8
0
  6
Continuous
 62
     0
370
    30
100
AcDbLine
 10
203.912022
 20
340.317078
 30
0.0
 11
203.912022
 21
358.292397
 31
0.0
  0
LINE
  5
4E
330
48
100
AcDbEntity
  8
0
  6
Continuous
 62
     0
370
    30
100
AcDbLine
 10
203.912022
 20
358.292397
 30
0.0
 11
203.912022
 21
358.317078
 31
0.0
  0
LINE
  5
4F
330
48
100
AcDbEntity
  8
0
  6
Continuous
 62
     0
370
     0
100
AcDbLine
 10
130.412022
 20
349.317078
 30
0.0
 11
130.412022
 21
340.317078
 31
0.0
  0
LWPOLYLINE
  5
50
330
48
100
AcDbEntity
  8
0
  6
Continuous
 62
     0
370
     0
100
AcDbPolyline
 90
       13
 70
     0
 43
0.0
 10
130.412018
 20
358.317078
 10
130.412018
 20
358.240326
 10
130.412018
 20
358.011444
 10
130.412018
 20
357.634369
 10
130.412018
 20
357.115448
 10
130.412018
 20
356.463562
 10
130.412018
 20
355.68985
 10
130.412018
 20
354.807465
 10
130.412018
 20
353.831451
 10
130.412018
 20
352.778503
 10
130.412018
 20
351.666626
 10
130.412018
 20
350.51416
 10
130.412018
 20
349.317078
  0
LINE
  5
51
330
48
100
AcDbEntity
  8
0
  6
Continuous
 62
     0
370
     0
100
AcDbLine
 10
203.412022
 20
349.317078
 30
0.0
 11
203.412022
 21
358.317078
 31
0.0
  0
LINE
  5
52
330
48
100
AcDbEntity
  8
0
  6
Continuous
 62
     0
370
     0
100
AcDbLine
 10
203.412022
 20
340.317078
 30
0.0
 11
203.412022
 21
349.317078
 31
0.0
  0
ARC
  5
53
330
48
100
AcDbEntity
  8
0
  6
Continuous
 62
     0
370
    30
100
AcDbCircle
 10
166.912022
 20
349.317078
 30
0.0
 40
30.0
100
AcDbArc
 50
330.209254
 51
342.542397
  0
ARC
  5
54
330
48
100
AcDbEntity
  8
0
  6
Continuous
 62
     0
370
    30
100
AcDbCircle
 10
166.912022
 20
349.317078
 30
0.0
 40
30.0
100
AcDbArc
 50
17.457603
 51
150.209254
  0
ARC
  5
55
330
48
100
AcDbEntity
  8
0
  6
Continuous
 62
     0
370
    30
100
AcDbCircle
 10
166.912022
 20
349.317078
 30
0.0
 40
30.0
100
AcDbArc
 50
150.209254
 51
162.542397
  0
ARC
  5
56
330
48
100
AcDbEntity
  8
0
  6
Continuous
 62
     0
370
    30
100
AcDbCircle
 10
166.912022
 20
349.317078
 30
0.0
 40
30.0
100
AcDbArc
 50
197.457603
 51
330.209254
  0
ARC
  5
57
330
48
100
AcDbEntity
  8
0
  6
Continuous
 62
     0
370
     0
100
AcDbCircle
 10
166.912022
 20
349.317078
 30
0.0
 40
29.5
100
AcDbArc
 50
17.763262
 51
150.209254
  0
ARC
  5
58
330
48
100
AcDbEntity
  8
0
  6
Continuous
 62
     0
370
     0
100
AcDbCircle
 10
166.912022
 20
349.317078
 30
0.0
 40
29.50000000000053
100
AcDbArc
 50
330.209254
 51
342.236738
  0
ARC
  5
59
330
48
100
AcDbEntity
  8
0
  6
Continuous
 62
     0
370
     0
100
AcDbCircle
 10
166.912022
 20
349.317078
 30
0.0
 40
29.50000000000001
100
AcDbArc
 50
197.763262
 51
330.209254
  0
ARC
  5
5A
330
48
100
AcDbEntity
  8
0
  6
Continuous
 62
     0
370
     0
100
AcDbCircle
 10
166.912022
 20
349.317078
 30
0.0
 40
29.50000000000069
100
AcDbArc
 50
150.209254
 51
162.236738
  0
LINE
  5
5B
330
48
100
AcDbEntity
  8
0
  6
Continuous
 62
     0
370
    30
100
AcDbLine
 10
129.912022
 20
340.317078
 30
0.0
 11
129.912022
 21
358.292397
 31
0.0
  0
LINE
  5
5C
330
48
100
AcDbEntity
  8
0
  6
Continuous
 62
     0
370
    30
100
AcDbLine
 10
129.912022
 20
358.292397
 30
0.0
 11
129.912022
 21
358.317078
 31
0.0
  0
LINE
  5
5D
330
48
100
AcDbEntity
  8
0
  6
Continuous
 62
     0
370
    30
100
AcDbLine
 10
39.912022
 20
349.144107
 30
0.0
 11
39.912022
 21
365.317085
 31
0.0
  0
LINE
  5
5E
330
48
100
AcDbEntity
  8
0
  6
Continuous
 62
     0
370
    30
100
AcDbLine
 10
39.912022
 20
333.31707
 30
0.0
 11
39.912022
 21
349.144107
 31
0.0
  0
LINE
  5
5F
330
48
100
AcDbEntity
  8
0
  6
Continuous
 62
     0
370
    30
100
AcDbLine
 10
34.912022
 20
333.31707
 30
0.0
 11
34.912022
 21
349.144107
 31
0.0
  0
LINE
  5
60
330
48
100
AcDbEntity
  8
0
  6
Continuous
 62
     0
370
    30
100
AcDbLine
 10
34.912022
 20
349.144107
 30
0.0
 11
34.912022
 21
365.317085
 31
0.0
  0
LINE
  5
61
330
48
100
AcDbEntity
  8
0
  6
Continuous
 62
     0
370
    30
100
AcDbLine
 10
39.912022
 20
365.317085
 30
0.0
 11
34.912022
 21
365.317085
 31
0.0
  0
LINE
  5
62
330
48
100
AcDbEntity
  8
0
  6
Continuous
 62
     0
370
    30
100
AcDbLine
 10
39.912022
 20
333.31707
 30
0.0
 11
34.912022
 21
333.31707
 31
0.0
  0
LINE
  5
63
330
48
100
AcDbEntity
  8
0
  6
Continuous
 62
     0
370
    30
100
AcDbLine
 10
129.912022
 20
340.317078
 30
0.0
 11
39.912022
 21
340.317078
 31
0.0
  0
LINE
  5
64
330
48
100
AcDbEntity
  8
0
  6
Continuous
 62
     0
370
    30
100
AcDbLine
 10
129.912022
 20
358.317078
 30
0.0
 11
39.912022
 21
358.317078
 31
0.0
  0
ARC
  5
65
330
48
100
AcDbEntity
  8
0
  6
Continuous
 62
     0
370
    30
100
AcDbCircle
 10
203.412018
 20
340.817081
 30
0.0
 40
0.5000034422822024
100
AcDbArc
 50
270.000394
 51
359.999606
  0
ARC
  5
66
330
48
100
AcDbEntity
  8
0
  6
Continuous
 62
     0
370
    30
100
AcDbCircle
 10
203.412018
 20
357.817074
 30
0.0
 40
0.5000034422818409
100
AcDbArc
 50
0.000394
 51
89.999606
  0
LINE
  5
67
330
48
100
AcDbEntity
  8
0
  6
Continuous
 62
     0
370
    30
100
AcDbLine
 10
130.412022
 20
340.317078
 30
0.0
 11
203.412022
 21
340.317078
 31
0.0
  0
LINE
  5
68
330
48
100
AcDbEntity
  8
0
  6
Continuous
 62
     0
370
    30
100
AcDbLine
 10
130.412022
 20
358.317078
 30
0.0
 11
203.412022
 21
358.317078
 31
0.0
  0
ARC
  5
69
330
48
100
AcDbEntity
  8
0
  6
Continuous
 62
     0
370
    30
100
AcDbCircle
 10
130.412025
 20
357.817074
 30
0.0
 40
0.5000034422824484
100
AcDbArc
 50
90.000394
 51
179.999606
  0
ARC
  5
6A
330
48
100
AcDbEntity
  8
0
  6
Continuous
 62
     0
370
    30
100
AcDbCircle
 10
130.412024
 20
340.81708
 30
0.0
 40
0.5000027706881514
100
AcDbArc
 50
180.011777
 51
269.999683
  0
LINE
  5
6B
330
48
100
AcDbEntity
  8
0
  6
Continuous
 62
     0
370
    30
100
AcDbLine
 10
293.912022
 20
340.317078
 30
0.0
 11
203.912022
 21
340.317078
 31
0.0
  0
LINE
  5
6C
330
48
100
AcDbEntity
  8
0
  6
Continuous
 62
     0
370
    30
100
AcDbLine
 10
293.912022
 20
358.317078
 30
0.0
 11
203.912022
 21
358.317078
 31
0.0
  0
LINE
  5
6D
330
48
100
AcDbEntity
  8
0
  6
Continuous
 62
     0
370
    30
100
AcDbLine
 10
298.912022
 20
365.317085
 30
0.0
 11
293.912022
 21
365.317085
 31
0.0
  0
LINE
  5
6E
330
48
100
AcDbEntity
  8
0
  6
Continuous
 62
     0
370
    30
100
AcDbLine
 10
298.912022
 20
333.31707
 30
0.0
 11
293.912022
 21
333.31707
 31
0.0
  0
ENDBLK
  5
70
330
48
100
AcDbEntity
  8
0
100
AcDbBlockEnd
  0
BLOCK
  5
A5
330
72
100
AcDbEntity
  8
0
100
AcDbBlockBegin
  2
b
 70
     0
 10
3.651821
 20
96.842712
 30
0.0
  3
b
  1

  0
LINE
  5
73
330
72
100
AcDbEntity
  8
0
  6
Continuous
 62
     0
370
    30
100
AcDbLine
 10
293.912025
 20
93.682922
 30
0.0
 11
293.912025
 21
125.682002
 31
0.0
  0
LINE
  5
74
330
72
100
AcDbEntity
  8
0
  6
Continuous
 62
     0
370
    30
100
AcDbLine
 10
298.912025
 20
93.682922
 30
0.0
 11
298.912025
 21
125.682002
 31
0.0
  0
LINE
  5
75
330
72
100
AcDbEntity
  8
0
  6
Continuous
 62
     0
370
    30
100
AcDbLine
 10
203.912025
 20
100.68293
 30
0.0
 11
203.912025
 21
109.016863
 31
0.0
  0
LINE
  5
76
330
72
100
AcDbEntity
  8
0
  6
Continuous
 62
     0
370
    30
100
AcDbLine
 10
203.912025
 20
109.016863
 30
0.0
 11
203.912025
 21
118.68293
 31
0.0
  0
LINE
  5
77
330
72
100
AcDbEntity
  8
0
  6
Continuous
 62
     0
370
     0
100
AcDbLine
 10
166.912025
 20
109.68293
 30
0.0
 11
183.912025
 21
118.68293
 31
0.0
  0
ARC
  5
78
330
72
100
AcDbEntity
  8
0
  6
Continuous
 62
     0
370
    30
100
AcDbCircle
 10
183.912025
 20
126.68293
 30
0.0
 40
7.999999999999998
100
AcDbArc
 50
180.0
 51
270.0
  0
LINE
  5
79
330
72
100
AcDbEntity
  8
0
  6
Continuous
 62
     0
370
     0
100
AcDbLine
 10
175.912025
 20
126.68293
 30
0.0
 11
166.912025
 21
109.68293
 31
0.0
  0
LINE
  5
7A
330
72
100
AcDbEntity
  8
0
  6
Continuous
 62
     0
370
     0
100
AcDbLine
 10
166.912025
 20
109.68293
 30
0.0
 11
157.912077
 21
126.682833
 31
0.0
  0
LINE
  5
7B
330
72
100
AcDbEntity
  8
0
  6
Continuous
 62
     0
370
     0
100
AcDbLine
 10
149.912122
 20
118.682879
 30
0.0
 11
166.912025
 21
109.68293
 31
0.0
  0
ARC
  5
7C
330
72
100
AcDbEntity
  8
0
  6
Continuous
 62
     0
370
    30
100
AcDbCircle
 10
130.412025
 20
101.18293
 30
0.0
 40
0.4999999999988631
100
AcDbArc
 50
180.0
 51
270.0
  0
LINE
  5
7D
330
72
100
AcDbEntity
  8
0
  6
Continuous
 62
     0
370
     0
100
AcDbLine
 10
130.412025
 20
118.68293
 30
0.0
 11
130.412025
 21
100.68293
 31
0.0
  0
LINE
  5
7E
330
72
100
AcDbEntity
  8
0
  6
Continuous
 62
     0
370
    30
100
AcDbLine
 10
130.412025
 20
100.68293
 30
0.0
 11
203.412025
 21
100.68293
 31
0.0
  0
LINE
  5
7F
330
72
100
AcDbEntity
  8
0
  6
Continuous
 62
     0
370
     0
100
AcDbLine
 10
203.412025
 20
100.68293
 30
0.0
 11
203.412025
 21
118.68293
 31
0.0
  0
ARC
  5
80
330
72
100
AcDbEntity
  8
0
  6
Continuous
 62
     0
370
    30
100
AcDbCircle
 10
203.412025
 20
101.18293
 30
0.0
 40
0.50000000000027
100
AcDbArc
 50
270.0
 51
360.0
  0
LINE
  5
81
330
72
100
AcDbEntity
  8
0
  6
Continuous
 62
     0
370
    30
100
AcDbLine
 10
175.912025
 20
126.68293
 30
0.0
 11
175.912025
 21
176.18293
 31
0.0
  0
LINE
  5
82
330
72
100
AcDbEntity
  8
0
  6
Continuous
 62
     0
370
     0
100
AcDbLine
 10
175.912025
 20
176.18293
 30
0.0
 11
157.912025
 21
176.18293
 31
0.0
  0
ARC
  5
83
330
72
100
AcDbEntity
  8
0
  6
Continuous
 62
     0
370
    30
100
AcDbCircle
 10
175.412025
 20
176.18293
 30
0.0
 40
0.4999999999999953
100
AcDbArc
 50
360.0
 51
90.0
  0
LINE
  5
84
330
72
100
AcDbEntity
  8
0
  6
Continuous
 62
     0
370
     0
100
AcDbLine
 10
196.912025
 20
181.18293
 30
0.0
 11
140.876654
 21
181.182929
 31
0.0
  0
LINE
  5
85
330
72
100
AcDbEntity
  8
0
  6
Continuous
 62
     0
370
     0
100
AcDbLine
 10
140.876654
 20
181.182929
 30
0.0
 11
136.912025
 21
181.18293
 31
0.0
  0
LWPOLYLINE
  5
86
330
72
100
AcDbEntity
  8
0
  6
Continuous
 62
     0
370
    30
100
AcDbPolyline
 90
        9
 70
     0
 43
0.0
 10
137.412018
 20
181.682922
 10
137.480011
 20
181.682922
 10
137.680573
 20
181.682922
 10
138.007523
 20
181.682922
 10
138.453217
 20
181.682922
 10
139.008972
 20
181.682922
 10
139.665222
 20
181.682922
 10
140.411865
 20
181.682922
 10
141.310577
 20
181.682922
  0
LINE
  5
87
330
72
100
AcDbEntity
  8
0
  6
Continuous
 62
     0
370
    30
100
AcDbLine
 10
141.310577
 20
181.682929
 30
0.0
 11
196.412025
 21
181.68293
 31
0.0
  0
LINE
  5
88
330
72
100
AcDbEntity
  8
0
  6
Continuous
 62
     0
370
     0
100
AcDbLine
 10
140.876654
 20
177.18293
 30
0.0
 11
196.912025
 21
177.18293
 31
0.0
  0
LINE
  5
89
330
72
100
AcDbEntity
  8
0
  6
Continuous
 62
     0
370
     0
100
AcDbLine
 10
136.912025
 20
177.18293
 30
0.0
 11
140.876654
 21
177.18293
 31
0.0
  0
LINE
  5
8A
330
72
100
AcDbEntity
  8
0
  6
Continuous
 62
     0
370
    30
100
AcDbLine
 10
196.412025
 20
176.68293
 30
0.0
 11
141.310577
 21
176.682929
 31
0.0
  0
LINE
  5
8B
330
72
100
AcDbEntity
  8
0
  6
Continuous
 62
     0
370
    30
100
AcDbLine
 10
141.310577
 20
176.682929
 30
0.0
 11
137.412025
 21
176.68293
 31
0.0
  0
LINE
  5
8C
330
72
100
AcDbEntity
  8
0
  6
Continuous
 62
     0
370
    30
100
AcDbLine
 10
129.912025
 20
100.68293
 30
0.0
 11
129.912025
 21
109.016863
 31
0.0
  0
LINE
  5
8D
330
72
100
AcDbEntity
  8
0
  6
Continuous
 62
     0
370
    30
100
AcDbLine
 10
129.912025
 20
109.016863
 30
0.0
 11
129.912025
 21
118.68293
 31
0.0
  0
LINE
  5
8E
330
72
100
AcDbEntity
  8
0
  6
Continuous
 62
     0
370
    30
100
AcDbLine
 10
39.912025
 20
93.682922
 30
0.0
 11
39.912025
 21
125.682002
 31
0.0
  0
LINE
  5
8F
330
72
100
AcDbEntity
  8
0
  6
Continuous
 62
     0
370
    30
100
AcDbLine
 10
34.912025
 20
93.682922
 30
0.0
 11
34.912025
 21
125.682002
 31
0.0
  0
LINE
  5
90
330
72
100
AcDbEntity
  8
0
  6
Continuous
 62
     0
370
    30
100
AcDbLine
 10
39.912025
 20
93.682922
 30
0.0
 11
34.912025
 21
93.682922
 31
0.0
  0
LINE
  5
91
330
72
100
AcDbEntity
  8
0
  6
Continuous
 62
     0
370
    30
100
AcDbLine
 10
39.912025
 20
125.682937
 30
0.0
 11
34.912025
 21
125.682937
 31
0.0
  0
LINE
  5
92
330
72
100
AcDbEntity
  8
0
  6
Continuous
 62
     0
370
    30
100
AcDbLine
 10
129.912025
 20
100.68293
 30
0.0
 11
39.912025
 21
100.68293
 31
0.0
  0
LINE
  5
93
330
72
100
AcDbEntity
  8
0
  6
Continuous
 62
     0
370
    30
100
AcDbLine
 10
129.912025
 20
118.68293
 30
0.0
 11
39.912025
 21
118.68293
 31
0.0
  0
ARC
  5
94
330
72
100
AcDbEntity
  8
0
  6
Continuous
 62
     0
370
    30
100
AcDbCircle
 10
196.41201
 20
177.182945
 30
0.0
 40
0.5000150271648591
100
AcDbArc
 50
270.001722
 51
359.998278
  0
ARC
  5
95
330
72
100
AcDbEntity
  8
0
  6
Continuous
 62
     0
370
    30
100
AcDbCircle
 10
137.41204
 20
177.182945
 30
0.0
 40
0.5000150271646537
100
AcDbArc
 50
180.001722
 51
269.998278
  0
LINE
  5
96
330
72
100
AcDbEntity
  8
0
  6
Continuous
 62
     0
370
    30
100
AcDbLine
 10
196.912025
 20
177.18293
 30
0.0
 11
196.912025
 21
181.18293
 31
0.0
  0
LINE
  5
97
330
72
100
AcDbEntity
  8
0
  6
Continuous
 62
     0
370
    30
100
AcDbLine
 10
136.912025
 20
177.18293
 30
0.0
 11
136.912025
 21
181.18293
 31
0.0
  0
ARC
  5
98
330
72
100
AcDbEntity
  8
0
  6
Continuous
 62
     0
370
    30
100
AcDbCircle
 10
196.41201
 20
181.182915
 30
0.0
 40
0.5000149691642768
100
AcDbArc
 50
0.001715
 51
89.990182
  0
ARC
  5
99
330
72
100
AcDbEntity
  8
0
  6
Continuous
 62
     0
370
    30
100
AcDbCircle
 10
137.41204
 20
181.182915
 30
0.0
 40
0.500014969164275
100
AcDbArc
 50
90.009818
 51
179.998285
  0
ARC
  5
9A
330
72
100
AcDbEntity
  8
0
  6
Continuous
 62
     0
370
    30
100
AcDbCircle
 10
158.412028
 20
176.182927
 30
0.0
 40
0.5000027706879668
100
AcDbArc
 50
90.011777
 51
179.999683
  0
LINE
  5
9B
330
72
100
AcDbEntity
  8
0
  6
Continuous
 62
     0
370
    30
100
AcDbLine
 10
157.912025
 20
126.682111
 30
0.0
 11
157.912025
 21
176.18293
 31
0.0
  0
ARC
  5
9C
330
72
100
AcDbEntity
  8
0
  6
Continuous
 62
     0
370
    30
100
AcDbCircle
 10
203.412022
 20
118.182927
 30
0.0
 40
0.5000034422831563
100
AcDbArc
 50
0.000394
 51
89.999606
  0
LINE
  5
9D
330
72
100
AcDbEntity
  8
0
  6
Continuous
 62
     0
370
    30
100
AcDbLine
 10
130.412025
 20
118.68293
 30
0.0
 11
149.912844
 21
118.68293
 31
0.0
  0
LINE
  5
9E
330
72
100
AcDbEntity
  8
0
  6
Continuous
 62
     0
370
    30
100
AcDbLine
 10
183.912025
 20
118.68293
 30
0.0
 11
203.412025
 21
118.68293
 31
0.0
  0
ARC
  5
9F
330
72
100
AcDbEntity
  8
0
  6
Continuous
 62
     0
370
    30
100
AcDbCircle
 10
130.412029
 20
118.182927
 30
0.0
 40
0.5000034422819875
100
AcDbArc
 50
90.000394
 51
179.999606
  0
ARC
  5
A0
330
72
100
AcDbEntity
  8
0
  6
Continuous
 62
     0
370
    30
100
AcDbCircle
 10
149.91207
 20
126.682886
 30
0.0
 40
8.000007004860946
100
AcDbArc
 50
270.000376
 51
359.999624
  0
LINE
  5
A1
330
72
100
AcDbEntity
  8
0
  6
Continuous
 62
     0
370
    30
100
AcDbLine
 10
293.912025
 20
100.68293
 30
0.0
 11
203.912025
 21
100.68293
 31
0.0
  0
LINE
  5
A2
330
72
100
AcDbEntity
  8
0
  6
Continuous
 62
     0
370
    30
100
AcDbLine
 10
293.912025
 20
118.68293
 30
0.0
 11
203.912025
 21
118.68293
 31
0.0
  0
LINE
  5
A3
330
72
100
AcDbEntity
  8
0
  6
Continuous
 62
     0
370
    30
100
AcDbLine
 10
298.912025
 20
93.682922
 30
0.0
 11
293.912025
 21
93.682922
 31
0.0
  0
LINE
  5
A4
330
72
100
AcDbEntity
  8
0
  6
Continuous
 62
     0
370
    30
100
AcDbLine
 10
298.912025
 20
125.682937
 30
0.0
 11
293.912025
 21
125.682937
 31
0.0
  0
ENDBLK
  5
A6
330
72
100
AcDbEntity
  8
0
100
AcDbBlockEnd
  0
BLOCK
  5
C0
330
A8
100
AcDbEntity
  8
0
100
AcDbBlockBegin
  2
c
 70
     0
 10
3.651821
 20
96.842712
 30
0.0
  3
c
  1

  0
LWPOLYLINE
  5
A9
330
A8
100
AcDbEntity
  8
0
  6
Continuous
 62
     0
370
     0
100
AcDbPolyline
 90
       11
 70
     0
 43
0.0
 10
403.641418
 20
352.902039
 10
403.202301
 20
352.310242
 10
402.818176
 20
351.654938
 10
402.5112
 20
350.933563
 10
402.308441
 20
350.153473
 10
402.234772
 20
349.336456
 10
402.30188
 20
348.518555
 10
402.499054
 20
347.736115
 10
402.801849
 20
347.011688
 10
403.182831
 20
346.353302
 10
403.641388
 20
345.732269
  0
LINE
  5
AA
330
A8
100
AcDbEntity
  8
0
  6
Continuous
 62
     0
370
     0
100
AcDbLine
 10
352.734635
 20
358.317078
 30
0.0
 11
352.734635
 21
349.317078
 31
0.0
  0
LINE
  5
AB
330
A8
100
AcDbEntity
  8
0
  6
Continuous
 62
     0
370
     0
100
AcDbLine
 10
352.734635
 20
349.317078
 30
0.0
 11
352.734635
 21
340.317078
 31
0.0
  0
LINE
  5
AC
330
A8
100
AcDbEntity
  8
0
  6
Continuous
 62
     0
370
     0
100
AcDbLine
 10
347.734635
 20
379.317078
 30
0.0
 11
347.734636
 21
364.222092
 31
0.0
  0
LINE
  5
AD
330
A8
100
AcDbEntity
  8
0
  6
Continuous
 62
     0
370
     0
100
AcDbLine
 10
347.734636
 20
364.222092
 30
0.0
 11
347.734635
 21
319.317078
 31
0.0
  0
LWPOLYLINE
  5
AE
330
A8
100
AcDbEntity
  8
0
  6
Continuous
 62
     0
370
    30
100
AcDbPolyline
 90
       31
 70
     0
 43
0.0
 10
347.23465
 20
319.817078
 10
347.23465
 20
319.893921
 10
347.23465
 20
320.12027
 10
347.23465
 20
320.488556
 10
347.23465
 20
320.989349
 10
347.23465
 20
321.611908
 10
347.23465
 20
322.344574
 10
347.23465
 20
323.175018
 10
347.23465
 20
324.094666
 10
347.23465
 20
325.133179
 10
347.23465
 20
326.300751
 10
347.23465
 20
327.597565
 10
347.23465
 20
329.021973
 10
347.23465
 20
330.570129
 10
347.23465
 20
332.235901
 10
347.23465
 20
334.011017
 10
347.23465
 20
335.884888
 10
347.23465
 20
337.844879
 10
347.23465
 20
339.876678
 10
347.23465
 20
341.964355
 10
347.23465
 20
344.091064
 10
347.23465
 20
346.239227
 10
347.23465
 20
348.391296
 10
347.23465
 20
350.529938
 10
347.23465
 20
352.638641
 10
347.23465
 20
354.702148
 10
347.23465
 20
356.706604
 10
347.23465
 20
358.639954
 10
347.23465
 20
360.492035
 10
347.23465
 20
362.254608
 10
347.23465
 20
363.973663
  0
LINE
  5
AF
330
A8
100
AcDbEntity
  8
0
  6
Continuous
 62
     0
370
    30
100
AcDbLine
 10
347.234636
 20
363.973675
 30
0.0
 11
347.234635
 21
378.817078
 31
0.0
  0
LINE
  5
B0
330
A8
100
AcDbEntity
  8
0
  6
Continuous
 62
     0
370
     0
100
AcDbLine
 10
351.734635
 20
364.222092
 30
0.0
 11
351.734635
 21
379.317078
 31
0.0
  0
LINE
  5
B1
330
A8
100
AcDbEntity
  8
0
  6
Continuous
 62
     0
370
     0
100
AcDbLine
 10
351.734635
 20
319.317078
 30
0.0
 11
351.734635
 21
364.222092
 31
0.0
  0
LINE
  5
B2
330
A8
100
AcDbEntity
  8
0
  6
Continuous
 62
     0
370
    30
100
AcDbLine
 10
352.234635
 20
378.817078
 30
0.0
 11
352.234636
 21
363.973675
 31
0.0
  0
LINE
  5
B3
330
A8
100
AcDbEntity
  8
0
  6
Continuous
 62
     0
370
    30
100
AcDbLine
 10
352.234636
 20
363.973675
 30
0.0
 11
352.234635
 21
319.817078
 31
0.0
  0
ARC
  5
B4
330
A8
100
AcDbEntity
  8
0
  6
Continuous
 62
     0
370
    30
100
AcDbCircle
 10
419.234641
 20
349.317078
 30
0.0
 40
16.00000735239175
100
AcDbArc
 50
179.380583
 51
359.380583
  0
ARC
  5
B5
330
A8
100
AcDbEntity
  8
0
  6
Continuous
 62
     0
370
    30
100
AcDbCircle
 10
419.234641
 20
349.317078
 30
0.0
 40
16.00000735239175
100
AcDbArc
 50
359.380583
 51
179.380583
  0
ARC
  5
B6
330
A8
100
AcDbEntity
  8
0
  6
Continuous
 62
     0
370
    30
100
AcDbCircle
 10
351.73462
 20
378.817063
 30
0.0
 40
0.500015027164782
100
AcDbArc
 50
0.001722
 51
89.998278
  0
ARC
  5
B7
330
A8
100
AcDbEntity
  8
0
  6
Continuous
 62
     0
370
    30
100
AcDbCircle
 10
351.73462
 20
319.817093
 30
0.0
 40
0.5000150271647134
100
AcDbArc
 50
270.001722
 51
359.998278
  0
LINE
  5
B8
330
A8
100
AcDbEntity
  8
0
  6
Continuous
 62
     0
370
    30
100
AcDbLine
 10
351.734635
 20
379.317078
 30
0.0
 11
347.734635
 21
379.317078
 31
0.0
  0
LINE
  5
B9
330
A8
100
AcDbEntity
  8
0
  6
Continuous
 62
     0
370
    30
100
AcDbLine
 10
351.734635
 20
319.317078
 30
0.0
 11
347.734635
 21
319.317078
 31
0.0
  0
ARC
  5
BA
330
A8
100
AcDbEntity
  8
0
  6
Continuous
 62
     0
370
    30
100
AcDbCircle
 10
347.73465
 20
378.817063
 30
0.0
 40
0.5000149691645526
100
AcDbArc
 50
90.001715
 51
179.990182
  0
ARC
  5
BB
330
A8
100
AcDbEntity
  8
0
  6
Continuous
 62
     0
370
    30
100
AcDbCircle
 10
347.73465
 20
319.817093
 30
0.0
 40
0.5000149691641746
100
AcDbArc
 50
180.009818
 51
269.998285
  0
ARC
  5
BC
330
A8
100
AcDbEntity
  8
0
  6
Continuous
 62
     0
370
    30
100
AcDbCircle
 10
352.734639
 20
357.817074
 30
0.0
 40
0.5000034422824491
100
AcDbArc
 50
90.000394
 51
179.999606
  0
ARC
  5
BD
330
A8
100
AcDbEntity
  8
0
  6
Continuous
 62
     0
370
    30
100
AcDbCircle
 10
352.734638
 20
340.81708
 30
0.0
 40
0.5000027706879464
100
AcDbArc
 50
180.011777
 51
269.999683
  0
LINE
  5
BE
330
A8
100
AcDbEntity
  8
0
  6
Continuous
 62
     0
370
    30
100
AcDbLine
 10
406.00587
 20
340.317078
 30
0.0
 11
352.734635
 21
340.317078
 31
0.0
  0
LINE
  5
BF
330
A8
100
AcDbEntity
  8
0
  6
Continuous
 62
     0
370
    30
100
AcDbLine
 10
406.00587
 20
358.317078
 30
0.0
 11
352.734635
 21
358.317078
 31
0.0
  0
ENDBLK
  5
C1
330
A8
100
AcDbEntity
  8
0
100
AcDbBlockEnd
  0
BLOCK
  5
103
330
C3
100
AcDbEntity
  8
0
100
AcDbBlockBegin
  2
d
 70
     0
 10
3.651821
 20
96.842712
 30
0.0
  3
d
  1

  0
ELLIPSE
  5
C4
330
C3
100
AcDbEntity
  8
0
  6
Continuous
 62
     0
370
    30
100
AcDbEllipse
 10
544.239391
 20
131.227345
 30
0.0
 11
-9.237608758798443
 21
-13.0639511517749
 31
0.0
210
0.0
220
0.0
230
-1.0
 40
0.5
 41
0.6046688027560678
 42
3.141592717273146
  0
ELLIPSE
  5
C5
330
C3
100
AcDbEntity
  8
0
  6
Continuous
 62
     0
370
    30
100
AcDbEllipse
 10
544.239391
 20
131.227345
 30
0.0
 11
-9.237608758798443
 21
-13.0639511517749
 31
0.0
210
0.0
220
0.0
230
-1.0
 40
0.5
 41
0.0000000636833553
 42
0.6046688027560675
  0
ELLIPSE
  5
C6
330
C3
100
AcDbEntity
  8
0
  6
Continuous
 62
     0
370
    30
100
AcDbEllipse
 10
547.774925
 20
128.727345
 30
0.0
 11
-9.237608758798443
 21
-13.0639511517749
 31
0.0
210
0.0
220
0.0
230
-1.0
 40
0.5
 41
0.6046688027560678
 42
3.746261456345858
  0
ELLIPSE
  5
C7
330
C3
100
AcDbEntity
  8
0
  6
Continuous
 62
     0
370
    30
100
AcDbEllipse
 10
547.774925
 20
128.727345
 30
0.0
 11
-9.237608758798443
 21
-13.0639511517749
 31
0.0
210
0.0
220
0.0
230
-1.0
 40
0.5
 41
3.746261456345858
 42
6.887854109935653
  0
ELLIPSE
  5
C8
330
C3
100
AcDbEntity
  8
0
  6
Continuous
 62
     0
370
    30
100
AcDbEllipse
 10
480.599781
 20
176.227347
 30
0.0
 11
-5.196152539064806
 21
-7.348469146071881
 31
0.0
210
0.0
220
0.0
230
-0.9999999999999996
 40
0.5
 41
0.0000000636833562
 42
2.112200866181335
  0
ELLIPSE
  5
C9
330
C3
100
AcDbEntity
  8
0
  6
Continuous
 62
     0
370
    30
100
AcDbEllipse
 10
480.599781
 20
176.227347
 30
0.0
 11
-5.196152539064806
 21
-7.348469146071881
 31
0.0
210
0.0
220
0.0
230
-0.9999999999999996
 40
0.5
 41
2.112200866181335
 42
3.141592717273148
  0
LWPOLYLINE
  5
CA
330
C3
100
AcDbEntity
  8
0
  6
Continuous
 62
     0
370
     0
100
AcDbPolyline
 90
       11
 70
     0
 43
0.0
 10
454.436829
 20
201.091309
 10
455.95639
 20
200.739014
 10
457.474701
 20
200.343033
 10
458.990875
 20
199.902283
 10
460.503265
 20
199.414978
 10
462.009827
 20
198.878738
 10
463.507843
 20
198.2892
 10
464.99408
 20
197.640594
 10
466.463715
 20
196.924026
 10
467.908203
 20
196.127609
 10
469.447906
 20
195.13559
  0
LWPOLYLINE
  5
CB
330
C3
100
AcDbEntity
  8
0
  6
Continuous
 62
     0
370
     0
100
AcDbPolyline
 90
        7
 70
     0
 43
0.0
 10
470.492126
 20
194.397247
 10
470.505432
 20
195.19136
 10
470.675903
 20
195.976349
 10
471.000183
 20
196.73671
 10
471.471771
 20
197.457397
 10
472.081757
 20
198.124512
 10
472.821594
 20
198.727341
  0
LWPOLYLINE
  5
CC
330
C3
100
AcDbEntity
  8
0
  6
Continuous
 62
     0
370
     0
100
AcDbPolyline
 90
       33
 70
     0
 43
0.0
 10
472.821594
 20
198.727341
 10
472.74234
 20
199.298767
 10
472.518768
 20
199.811035
 10
472.180664
 20
200.253891
 10
471.759247
 20
200.628189
 10
471.280334
 20
200.942734
 10
470.761047
 20
201.206451
 10
470.213348
 20
201.427383
 10
469.644836
 20
201.61203
 10
469.060944
 20
201.765823
 10
468.46524
 20
201.893082
 10
467.860168
 20
201.996964
 10
467.247253
 20
202.079697
 10
466.628143
 20
202.143478
 10
466.004333
 20
202.19046
 10
465.376801
 20
202.222229
 10
464.746002
 20
202.239731
 10
464.112335
 20
202.243912
 10
463.476227
 20
202.235687
 10
462.838013
 20
202.215912
 10
462.197968
 20
202.18512
 10
461.556274
 20
202.143799
 10
460.913239
 20
202.092438
 10
460.268982
 20
202.031509
 10
459.623779
 20
201.96138
 10
458.977722
 20
201.882248
 10
458.330963
 20
201.794342
 10
457.683685
 20
201.697861
 10
457.036011
 20
201.593033
 10
456.38797
 20
201.479996
 10
455.739685
 20
201.358871
 10
455.091217
 20
201.229736
 10
454.436829
 20
201.091309
  0
LWPOLYLINE
  5
CD
330
C3
100
AcDbEntity
  8
0
  6
Continuous
 62
     0
370
     0
100
AcDbPolyline
 90
        8
 70
     0
 43
0.0
 10
470.525391
 20
195.147934
 10
471.016602
 20
195.584686
 10
471.477264
 20
196.046036
 10
471.896851
 20
196.533157
 10
472.260864
 20
197.045578
 10
472.550476
 20
197.579895
 10
472.743591
 20
198.125412
 10
472.821594
 20
198.727341
  0
LWPOLYLINE
  5
CE
330
C3
100
AcDbEntity
  8
0
  6
Continuous
 62
     0
370
     0
100
AcDbPolyline
 90
        2
 70
     0
 43
0.0
 10
459.114868
 20
201.89978
 10
458.6091
 20
200.017654
  0
LWPOLYLINE
  5
CF
330
C3
100
AcDbEntity
  8
0
  6
Continuous
 62
     0
370
     0
100
AcDbPolyline
 90
       12
 70
     0
 43
0.0
 10
454.436829
 20
201.091309
 10
454.865814
 20
202.058853
 10
455.294464
 20
202.988663
 10
455.722412
 20
203.879227
 10
456.149261
 20
204.728043
 10
456.574646
 20
205.532333
 10
456.997955
 20
206.287537
 10
457.418335
 20
206.987549
 10
457.834625
 20
207.623978
 10
458.245483
 20
208.185699
 10
458.648071
 20
208.654648
 10
459.055817
 20
209.016159
  0
LWPOLYLINE
  5
D0
330
C3
100
AcDbEntity
  8
0
  6
Continuous
 62
     0
370
     0
100
AcDbPolyline
 90
       12
 70
     0
 43
0.0
 10
449.817841
 20
209.016159
 10
450.206451
 20
208.6745
 10
450.60849
 20
208.210693
 10
451.019043
 20
207.652939
 10
451.43512
 20
207.019852
 10
451.855316
 20
206.322693
 10
452.278503
 20
205.570007
 10
452.703796
 20
204.76796
 10
453.130585
 20
203.921219
 10
453.558502
 20
203.032608
 10
453.987122
 20
202.10466
 10
454.436829
 20
201.091309
  0
LWPOLYLINE
  5
D1
330
C3
100
AcDbEntity
  8
0
  6
Continuous
 62
     0
370
     0
100
AcDbPolyline
 90
        6
 70
     0
 43
0.0
 10
422.263458
 20
208.477341
 10
422.309692
 20
207.744781
 10
422.447662
 20
207.087585
 10
422.675354
 20
206.516327
 10
422.989502
 20
206.038895
 10
423.431274
 20
205.628876
  0
LWPOLYLINE
  5
D2
330
C3
100
AcDbEntity
  8
0
  6
Continuous
 62
     0
370
     0
100
AcDbPolyline
 90
       20
 70
     0
 43
0.0
 10
433.823792
 20
220.325668
 10
433.291046
 20
220.605225
 10
432.675995
 20
220.750183
 10
431.989563
 20
220.758072
 10
431.243805
 20
220.628662
 10
430.451904
 20
220.364243
 10
429.627808
 20
219.969543
 10
428.786041
 20
219.451477
 10
427.941498
 20
218.819183
 10
427.109039
 20
218.083847
 10
426.303375
 20
217.258423
 10
425.538727
 20
216.357452
 10
424.828552
 20
215.396866
 10
424.185394
 20
214.393585
 10
423.620636
 20
213.365326
 10
423.144165
 20
212.3302
 10
422.764435
 20
211.306519
 10
422.48819
 20
210.312408
 10
422.32019
 20
209.364914
 10
422.263458
 20
208.477341
  0
ELLIPSE
  5
D3
330
C3
100
AcDbEntity
  8
0
  6
Continuous
 62
     0
370
     0
100
AcDbEllipse
 10
480.246228
 20
176.477347
 30
0.0
 11
-5.196152539064805
 21
-7.348469146071882
 31
0.0
210
0.0
220
0.0
230
-1.0
 40
0.5
 41
0.6154796770017036
 42
3.189723825233096
  0
ELLIPSE
  5
D4
330
C3
100
AcDbEntity
  8
0
  6
Continuous
 62
     0
370
     0
100
AcDbEllipse
 10
480.246228
 20
176.477347
 30
0.0
 11
-5.196152539064805
 21
-7.348469146071882
 31
0.0
210
0.0
220
0.0
230
-1.0
 40
0.5
 41
6.235054262902957
 42
6.898664984181289
  0
ELLIPSE
  5
D5
330
C3
100
AcDbEntity
  8
0
  6
Continuous
 62
     0
370
     0
100
AcDbEllipse
 10
501.459431
 20
227.977348
 30
0.0
 11
5.196152539064805
 21
-7.348469146071882
 31
0.0
210
0.0
220
0.0
230
1.0
 40
0.5
 41
0.6154796770017033
 42
3.141592695156454
  0
ELLIPSE
  5
D6
330
C3
100
AcDbEntity
  8
0
  6
Continuous
 62
     0
370
     0
100
AcDbEllipse
 10
501.459431
 20
227.977348
 30
0.0
 11
5.196152539064805
 21
-7.348469146071882
 31
0.0
210
0.0
220
0.0
230
1.0
 40
0.5
 41
0.0000000415666621
 42
0.6154796770017033
  0
LWPOLYLINE
  5
D7
330
C3
100
AcDbEntity
  8
0
  6
Continuous
 62
     0
370
     0
100
AcDbPolyline
 90
       44
 70
     0
 43
0.0
 10
523.404724
 20
206.920227
 10
524.044983
 20
207.674377
 10
524.619141
 20
208.54538
 10
525.117981
 20
209.535187
 10
525.532593
 20
210.644043
 10
525.854553
 20
211.870377
 10
526.076477
 20
213.210571
 10
526.191956
 20
214.658936
 10
526.195862
 20
216.207687
 10
526.085022
 20
217.847
 10
525.857727
 20
219.565231
 10
525.514282
 20
221.349152
 10
525.057068
 20
223.184265
 10
524.490112
 20
225.055206
 10
523.819336
 20
226.946167
 10
523.052307
 20
228.841339
 10
522.197754
 20
230.725327
 10
521.265564
 20
232.583588
 10
520.266235
 20
234.402664
 10
519.210693
 20
236.170517
 10
518.110046
 20
237.876755
 10
516.975098
 20
239.512619
 10
515.816223
 20
241.071136
 10
514.625
 20
242.569244
 10
513.364563
 20
244.051437
 10
512.037354
 20
245.507751
 10
510.649017
 20
246.925156
 10
509.206757
 20
248.290054
 10
507.719147
 20
249.588623
 10
506.196075
 20
250.807205
 10
504.648651
 20
251.932617
 10
503.088837
 20
252.952576
 10
501.529327
 20
253.856125
 10
499.983063
 20
254.633926
 10
498.463074
 20
255.278625
 10
496.981873
 20
255.785004
 10
495.5513
 20
256.150208
 10
494.18222
 20
256.373718
 10
492.884125
 20
256.457306
 10
491.664978
 20
256.404938
 10
490.531189
 20
256.222504
 10
489.487488
 20
255.917526
 10
488.536835
 20
255.498947
 10
487.674469
 20
254.972244
  0
ARC
  5
D8
330
C3
100
AcDbEntity
  8
0
  6
Continuous
 62
     0
370
     0
100
AcDbCircle
 10
517.930237
 20
212.177671
 30
0.0
 40
7.590194510780089
100
AcDbArc
 50
305.292466
 51
316.158739
  0
ELLIPSE
  5
D9
330
C3
100
AcDbEntity
  8
0
  6
Continuous
 62
     0
370
     0
100
AcDbEllipse
 10
502.166538
 20
228.477348
 30
0.0
 11
-17.32050846354935
 21
24.49489715357294
 31
0.0
210
0.0
220
0.0
230
-1.0
 40
0.5
 41
6.283185265612921
 42
9.329244887576504
  0
ELLIPSE
  5
DA
330
C3
100
AcDbEntity
  8
0
  6
Continuous
 62
     0
370
     0
100
AcDbEllipse
 10
502.166538
 20
228.477348
 30
0.0
 11
-17.32050846354935
 21
24.49489715357294
 31
0.0
210
0.0
220
0.0
230
-1.0
 40
0.5
 41
3.046059580396917
 42
3.141592612023131
  0
LWPOLYLINE
  5
DB
330
C3
100
AcDbEntity
  8
0
  6
Continuous
 62
     0
370
     0
100
AcDbPolyline
 90
       45
 70
     0
 43
0.0
 10
519.915955
 20
205.062851
 10
520.552002
 20
205.81308
 10
521.121521
 20
206.680756
 10
521.615173
 20
207.667816
 10
522.023926
 20
208.774475
 10
522.339355
 20
209.999054
 10
522.553772
 20
211.337769
 10
522.660828
 20
212.784714
 10
522.65564
 20
214.331833
 10
522.53479
 20
215.969025
 10
522.296936
 20
217.684265
 10
521.942566
 20
219.463974
 10
521.474243
 20
221.29332
 10
520.896362
 20
223.156601
 10
520.215149
 20
225.037766
 10
519.438477
 20
226.920776
 10
518.575378
 20
228.790115
 10
517.636108
 20
230.631165
 10
516.631348
 20
232.430511
 10
515.572327
 20
234.176224
 10
514.470154
 20
235.858078
 10
513.335876
 20
237.46756
 10
512.179871
 20
238.998001
 10
510.980103
 20
240.482574
 10
509.7099
 20
241.950485
 10
508.373932
 20
243.389053
 10
506.978363
 20
244.784866
 10
505.530914
 20
246.124023
 10
504.04068
 20
247.392487
 10
502.518066
 20
248.576492
 10
500.974701
 20
249.662903
 10
499.422974
 20
250.639618
 10
497.875885
 20
251.496033
 10
496.34668
 20
252.223297
 10
494.848419
 20
252.814697
 10
493.393616
 20
253.265793
 10
491.993958
 20
253.57457
 10
490.659973
 20
253.741409
 10
489.400696
 20
253.769012
 10
488.223602
 20
253.662216
 10
487.13446
 20
253.427765
 10
486.13736
 20
253.073944
 10
485.234558
 20
252.610275
 10
484.42688
 20
252.047165
 10
483.710022
 20
251.391846
  0
LWPOLYLINE
  5
DC
330
C3
100
AcDbEntity
  8
0
  6
Continuous
 62
     0
370
     0
100
AcDbPolyline
 90
       20
 70
     0
 43
0.0
 10
495.539978
 20
212.768951
 10
496.930389
 20
211.399704
 10
498.369843
 20
210.088501
 10
499.849274
 20
208.848877
 10
501.358429
 20
207.694061
 10
502.885956
 20
206.636612
 10
504.419739
 20
205.687958
 10
505.947205
 20
204.858154
 10
507.455536
 20
204.155472
 10
508.93219
 20
203.586121
 10
510.365143
 20
203.154144
 10
511.743195
 20
202.861252
 10
513.056396
 20
202.706894
 10
514.295959
 20
202.688278
 10
515.454956
 20
202.800598
 10
516.52771
 20
203.037277
 10
517.510559
 20
203.390274
 10
518.401184
 20
203.850327
 10
519.198914
 20
204.407394
 10
519.915955
 20
205.062851
  0
LWPOLYLINE
  5
DD
330
C3
100
AcDbEntity
  8
0
  6
Continuous
 62
     0
370
     0
100
AcDbPolyline
 90
       17
 70
     0
 43
0.0
 10
483.710022
 20
251.391846
 10
483.070618
 20
250.637085
 10
482.498505
 20
249.76355
 10
482.003174
 20
248.769272
 10
481.593903
 20
247.654068
 10
481.279205
 20
246.419693
 10
481.066833
 20
245.070038
 10
480.963165
 20
243.61116
 10
480.973267
 20
242.051361
 10
481.100372
 20
240.400986
 10
481.345825
 20
238.672348
 10
481.708984
 20
236.879318
 10
482.187225
 20
235.037048
 10
482.775818
 20
233.161545
 10
483.468384
 20
231.269165
 10
484.256836
 20
229.37616
 10
485.147675
 20
227.465897
  0
ELLIPSE
  5
DE
330
C3
100
AcDbEntity
  8
0
  6
Continuous
 62
     0
370
    30
100
AcDbEllipse
 10
428.273879
 20
213.227348
 30
0.0
 11
-5.196152539064806
 21
-7.348469146071881
 31
0.0
210
0.0
220
0.0
230
-0.9999999999999996
 40
0.5
 41
6.236764746682081
 42
8.395386173360924
  0
ELLIPSE
  5
DF
330
C3
100
AcDbEntity
  8
0
  6
Continuous
 62
     0
370
    30
100
AcDbEllipse
 10
428.273879
 20
213.227348
 30
0.0
 11
-5.196152539064806
 21
-7.348469146071881
 31
0.0
210
0.0
220
0.0
230
-0.9999999999999996
 40
0.5
 41
2.112200866181337
 42
3.187960739867826
  0
ELLIPSE
  5
E0
330
C3
100
AcDbEntity
  8
0
  6
Continuous
 62
     0
370
    30
100
AcDbEllipse
 10
364.634269
 20
258.227349
 30
0.0
 11
-5.196152539064806
 21
-7.348469146071881
 31
0.0
210
0.0
220
0.0
230
-0.9999999999999996
 40
0.5
 41
2.112200866181337
 42
3.141592717273148
  0
ELLIPSE
  5
E1
330
C3
100
AcDbEntity
  8
0
  6
Continuous
 62
     0
370
    30
100
AcDbEllipse
 10
364.634269
 20
258.227349
 30
0.0
 11
-5.196152539064806
 21
-7.348469146071881
 31
0.0
210
0.0
220
0.0
230
-0.9999999999999996
 40
0.5
 41
0.000000063683358
 42
2.112200866181337
  0
ELLIPSE
  5
E2
330
C3
100
AcDbEntity
  8
0
  6
Continuous
 62
     0
370
    30
100
AcDbEllipse
 10
364.634269
 20
258.227349
 30
0.0
 11
-9.237608758798443
 21
-13.0639511517749
 31
0.0
210
0.0
220
0.0
230
-1.0
 40
0.5
 41
0.6046688027560674
 42
3.74626145634586
  0
ELLIPSE
  5
E3
330
C3
100
AcDbEntity
  8
0
  6
Continuous
 62
     0
370
    30
100
AcDbEllipse
 10
364.634269
 20
258.227349
 30
0.0
 11
-9.237608758798443
 21
-13.0639511517749
 31
0.0
210
0.0
220
0.0
230
-1.0
 40
0.5
 41
5.309795130959002
 42
6.887854109935652
  0
ELLIPSE
  5
E4
330
C3
100
AcDbEntity
  8
0
  6
Continuous
 62
     0
370
    30
100
AcDbEllipse
 10
364.634269
 20
258.227349
 30
0.0
 11
-9.237608758798443
 21
-13.0639511517749
 31
0.0
210
0.0
220
0.0
230
-1.0
 40
0.5
 41
3.74626145634586
 42
4.114982922930097
  0
ELLIPSE
  5
E5
330
C3
100
AcDbEntity
  8
0
  6
Continuous
 62
     0
370
    30
100
AcDbEllipse
 10
361.098735
 20
260.727349
 30
0.0
 11
-9.237608758798443
 21
-13.0639511517749
 31
0.0
210
0.0
220
0.0
230
-1.0
 40
0.5
 41
0.0000000636833557
 42
0.6046688027560675
  0
ELLIPSE
  5
E6
330
C3
100
AcDbEntity
  8
0
  6
Continuous
 62
     0
370
    30
100
AcDbEllipse
 10
361.098735
 20
260.727349
 30
0.0
 11
-9.237608758798443
 21
-13.0639511517749
 31
0.0
210
0.0
220
0.0
230
-1.0
 40
0.5
 41
0.6046688027560675
 42
3.141592717273149
  0
LINE
  5
E7
330
C3
100
AcDbEntity
  8
0
  6
Continuous
 62
     0
370
    30
100
AcDbLine
 10
373.871878
 20
271.2913
 30
0.0
 11
370.336344
 21
273.7913
 31
0.0
  0
LINE
  5
E8
330
C3
100
AcDbEntity
  8
0
  6
Continuous
 62
     0
370
    30
100
AcDbLine
 10
355.39666
 20
245.163398
 30
0.0
 11
351.861126
 21
247.663398
 31
0.0
  0
LINE
  5
E9
330
C3
100
AcDbEntity
  8
0
  6
Continuous
 62
     0
370
    30
100
AcDbLine
 10
423.077726
 20
205.878879
 30
0.0
 11
359.438116
 21
250.87888
 31
0.0
  0
LINE
  5
EA
330
C3
100
AcDbEntity
  8
0
  6
Continuous
 62
     0
370
    30
100
AcDbLine
 10
433.470032
 20
220.575817
 30
0.0
 11
369.830422
 21
265.575818
 31
0.0
  0
ARC
  5
EB
330
C3
100
AcDbEntity
  8
0
  6
Continuous
 62
     0
370
    30
100
AcDbCircle
 10
489.446538
 20
246.472399
 30
0.0
 40
7.963207952253667
100
AcDbArc
 50
125.290377
 51
136.156236
  0
LWPOLYLINE
  5
EC
330
C3
100
AcDbEntity
  8
0
  6
Continuous
 62
     0
370
    30
100
AcDbPolyline
 90
       18
 70
     0
 43
0.0
 10
485.08786
 20
227.423599
 10
484.254547
 20
229.195602
 10
483.504181
 20
230.963928
 10
482.840179
 20
232.720444
 10
482.265625
 20
234.457108
 10
481.783386
 20
236.165939
 10
481.39563
 20
237.839279
 10
481.104279
 20
239.469604
 10
480.91095
 20
241.049637
 10
480.816742
 20
242.572433
 10
480.822479
 20
244.031326
 10
480.928558
 20
245.420059
 10
481.135284
 20
246.732513
 10
481.442627
 20
247.962799
 10
481.850159
 20
249.105148
 10
482.357025
 20
250.153809
 10
482.962128
 20
251.10289
 10
483.703217
 20
251.988464
  0
LWPOLYLINE
  5
ED
330
C3
100
AcDbEntity
  8
0
  6
Continuous
 62
     0
370
    30
100
AcDbPolyline
 90
       19
 70
     0
 43
0.0
 10
519.487061
 20
203.982452
 10
518.54657
 20
203.41127
 10
517.524719
 20
202.96907
 10
516.428772
 20
202.658142
 10
515.265808
 20
202.478745
 10
514.042664
 20
202.43074
 10
512.765686
 20
202.513168
 10
511.440857
 20
202.724319
 10
510.074066
 20
203.062103
 10
508.671417
 20
203.524399
 10
507.239014
 20
204.108566
 10
505.783325
 20
204.811447
 10
504.310944
 20
205.629425
 10
502.828613
 20
206.558594
 10
501.343201
 20
207.594269
 10
499.861755
 20
208.731506
 10
498.391327
 20
209.964691
 10
496.938904
 20
211.287903
 10
495.480133
 20
212.726639
  0
LINE
  5
EE
330
C3
100
AcDbEntity
  8
0
  6
Continuous
 62
     0
370
    30
100
AcDbLine
 10
484.846029
 20
252.972245
 30
0.0
 11
487.674456
 21
254.972245
 31
0.0
  0
LINE
  5
EF
330
C3
100
AcDbEntity
  8
0
  6
Continuous
 62
     0
370
    30
100
AcDbLine
 10
519.487047
 20
203.982452
 30
0.0
 11
522.315474
 21
205.982452
 31
0.0
  0
LWPOLYLINE
  5
F0
330
C3
100
AcDbEntity
  8
0
  6
Continuous
 62
     0
370
    30
100
AcDbPolyline
 90
       45
 70
     0
 43
0.0
 10
522.315491
 20
205.982452
 10
523.181519
 20
206.69194
 10
523.949646
 20
207.525284
 10
524.615051
 20
208.475937
 10
525.175171
 20
209.537079
 10
525.627747
 20
210.701813
 10
525.971497
 20
211.963516
 10
526.206055
 20
213.31572
 10
526.331543
 20
214.751724
 10
526.347961
 20
216.26474
 10
526.255798
 20
217.847687
 10
526.055969
 20
219.493057
 10
525.749878
 20
221.192932
 10
525.339111
 20
222.939148
 10
524.825928
 20
224.72319
 10
524.213013
 20
226.536285
 10
523.50354
 20
228.369431
 10
522.700867
 20
230.213547
 10
521.809326
 20
232.059372
 10
520.833679
 20
233.897644
 10
519.778564
 20
235.719086
 10
518.64917
 20
237.514526
 10
517.451477
 20
239.274918
 10
516.191467
 20
240.991287
 10
514.87561
 20
242.654999
 10
513.510437
 20
244.257507
 10
512.102844
 20
245.790756
 10
510.660004
 20
247.247177
 10
509.189087
 20
248.619293
 10
507.697418
 20
249.90004
 10
506.192413
 20
251.083084
 10
504.681458
 20
252.16246
 10
503.171997
 20
253.132675
 10
501.671295
 20
253.988861
 10
500.186462
 20
254.7267
 10
498.724548
 20
255.342209
 10
497.292297
 20
255.832153
 10
495.896271
 20
256.193573
 10
494.542847
 20
256.424133
 10
493.238312
 20
256.521698
 10
491.988892
 20
256.484436
 10
490.80127
 20
256.311157
 10
489.682526
 20
256.001709
 10
488.639984
 20
255.556259
 10
487.67453
 20
254.97229
  0
LWPOLYLINE
  5
F1
330
C3
100
AcDbEntity
  8
0
  6
Continuous
 62
     0
370
    30
100
AcDbPolyline
 90
       21
 70
     0
 43
0.0
 10
496.27771
 20
235.335938
 10
496.850006
 20
235.638443
 10
497.49231
 20
235.803848
 10
498.184967
 20
235.833511
 10
498.916901
 20
235.734146
 10
499.677551
 20
235.512497
 10
500.458862
 20
235.174545
 10
501.252411
 20
234.7267
 10
502.047882
 20
234.176743
 10
502.834595
 20
233.532745
 10
503.601501
 20
232.804382
 10
504.337128
 20
232.00293
 10
505.030426
 20
231.140945
 10
505.670654
 20
230.231567
 10
506.248138
 20
229.28891
 10
506.753815
 20
228.327438
 10
507.179626
 20
227.361877
 10
507.51889
 20
226.406693
 10
507.766632
 20
225.475082
 10
507.918152
 20
224.580048
 10
507.969849
 20
223.727341
  0
LWPOLYLINE
  5
F2
330
C3
100
AcDbEntity
  8
0
  6
Continuous
 62
     0
370
    30
100
AcDbPolyline
 90
        6
 70
     0
 43
0.0
 10
507.969849
 20
223.727341
 10
507.919067
 20
222.949234
 10
507.764709
 20
222.238007
 10
507.503815
 20
221.605316
 10
507.134338
 20
221.064453
 10
506.655731
 20
220.628998
  0
LINE
  5
F3
330
C3
100
AcDbEntity
  8
0
  6
Continuous
 62
     0
370
    30
100
AcDbLine
 10
470.509118
 20
195.069467
 30
0.0
 11
506.655584
 21
220.628879
 31
0.0
  0
LINE
  5
F4
330
C3
100
AcDbEntity
  8
0
  6
Continuous
 62
     0
370
    30
100
AcDbLine
 10
459.055622
 20
209.01603
 30
0.0
 11
496.263278
 21
235.325817
 31
0.0
  0
LWPOLYLINE
  5
F5
330
C3
100
AcDbEntity
  8
0
  6
Continuous
 62
     0
370
    30
100
AcDbPolyline
 90
        2
 70
     0
 43
0.0
 10
485.619995
 20
183.688385
 10
485.442566
 20
183.825668
  0
LWPOLYLINE
  5
F6
330
C3
100
AcDbEntity
  8
0
  6
Continuous
 62
     0
370
    30
100
AcDbPolyline
 90
        2
 70
     0
 43
0.0
 10
475.049927
 20
169.128998
 10
475.238922
 20
169.007187
  0
LINE
  5
F7
330
C3
100
AcDbEntity
  8
0
  6
Continuous
 62
     0
370
    30
100
AcDbLine
 10
423.43128
 20
205.628879
 30
0.0
 11
475.050075
 21
169.128878
 31
0.0
  0
LINE
  5
F8
330
C3
100
AcDbEntity
  8
0
  6
Continuous
 62
     0
370
    30
100
AcDbLine
 10
433.823585
 20
220.325817
 30
0.0
 11
449.818039
 21
209.01603
 31
0.0
  0
LINE
  5
F9
330
C3
100
AcDbEntity
  8
0
  6
Continuous
 62
     0
370
    30
100
AcDbLine
 10
469.447883
 20
195.135634
 30
0.0
 11
485.44238
 21
183.825816
 31
0.0
  0
LWPOLYLINE
  5
FA
330
C3
100
AcDbEntity
  8
0
  6
Continuous
 62
     0
370
    30
100
AcDbPolyline
 90
       21
 70
     0
 43
0.0
 10
433.823792
 20
220.325668
 10
433.252899
 20
220.632233
 10
432.611145
 20
220.801407
 10
431.918549
 20
220.834305
 10
431.18631
 20
220.737656
 10
430.425049
 20
220.518204
 10
429.642944
 20
220.181992
 10
428.848358
 20
219.735428
 10
428.051666
 20
219.18631
 10
427.26358
 20
218.54274
 10
426.495239
 20
217.814392
 10
425.758057
 20
217.012604
 10
425.063202
 20
216.149948
 10
424.421509
 20
215.239609
 10
423.842621
 20
214.295792
 10
423.335724
 20
213.332977
 10
422.908875
 20
212.365982
 10
422.568787
 20
211.409332
 10
422.320496
 20
210.476303
 10
422.168701
 20
209.579926
 10
422.117035
 20
208.727341
  0
LWPOLYLINE
  5
FB
330
C3
100
AcDbEntity
  8
0
  6
Continuous
 62
     0
370
    30
100
AcDbPolyline
 90
        6
 70
     0
 43
0.0
 10
422.117035
 20
208.727341
 10
422.167816
 20
207.949234
 10
422.322144
 20
207.238007
 10
422.583069
 20
206.605316
 10
422.952545
 20
206.064438
 10
423.431122
 20
205.628998
  0
ARC
  5
FC
330
C3
100
AcDbEntity
  8
0
  6
Continuous
 62
     0
370
    30
100
AcDbCircle
 10
454.43683
 20
215.548322
 30
0.0
 40
8.000262717185153
100
AcDbArc
 50
234.735474
 51
305.264525
  0
LWPOLYLINE
  5
FD
330
C3
100
AcDbEntity
  8
0
  6
Continuous
 62
     0
370
    30
100
AcDbPolyline
 90
        5
 70
     0
 43
0.0
 10
470.609802
 20
195.398132
 10
470.587036
 20
195.347626
 10
470.540497
 20
195.207779
 10
470.498352
 20
195.004333
 10
470.478455
 20
194.729095
  0
LWPOLYLINE
  5
FE
330
C3
100
AcDbEntity
  8
0
  6
Continuous
 62
     0
370
    30
100
AcDbPolyline
 90
        2
 70
     0
 43
0.0
 10
470.508392
 20
194.385742
 10
470.478455
 20
194.725693
  0
LINE
  5
FF
330
C3
100
AcDbEntity
  8
0
  6
Continuous
 62
     0
370
    30
100
AcDbLine
 10
533.642618
 20
127.697692
 30
0.0
 11
475.403628
 21
168.878878
 31
0.0
  0
LINE
  5
100
330
C3
100
AcDbEntity
  8
0
  6
Continuous
 62
     0
370
    30
100
AcDbLine
 10
544.034924
 20
142.394629
 30
0.0
 11
485.795934
 21
183.575816
 31
0.0
  0
LINE
  5
101
330
C3
100
AcDbEntity
  8
0
  6
Continuous
 62
     0
370
    30
100
AcDbLine
 10
557.012534
 20
141.791296
 30
0.0
 11
553.477
 21
144.291296
 31
0.0
  0
LINE
  5
102
330
C3
100
AcDbEntity
  8
0
  6
Continuous
 62
     0
370
    30
100
AcDbLine
 10
538.537316
 20
115.663394
 30
0.0
 11
535.001782
 21
118.163394
 31
0.0
  0
ENDBLK
  5
104
330
C3
100
AcDbEntity
  8
0
100
AcDbBlockEnd
  0
BLOCK
  5
120
330
106
100
AcDbEntity
  8
0
100
AcDbBlockBegin
  2
e
 70
     0
 10
15.377762
 20
0.0
 30
0.0
  3
e
  1

  0
ARC
  5
107
330
106
100
AcDbEntity
  8
0
  6
Continuous
 62
     0
370
    30
100
AcDbCircle
 10
-80.212355
 20
349.317078
 30
0.0
 40
16.00000735239175
100
AcDbArc
 50
0.619417
 51
180.619417
  0
ARC
  5
108
330
106
100
AcDbEntity
  8
0
  6
Continuous
 62
     0
370
    30
100
AcDbCircle
 10
-80.212355
 20
349.317078
 30
0.0
 40
16.00000735239175
100
AcDbArc
 50
180.619417
 51
0.619417
  0
LINE
  5
109
330
106
100
AcDbEntity
  8
0
  6
Continuous
 62
     0
370
     0
100
AcDbLine
 10
-64.212342
 20
349.317078
 30
0.0
 11
-63.212349
 21
349.317078
 31
0.0
  0
LWPOLYLINE
  5
10A
330
106
100
AcDbEntity
  8
0
  6
Continuous
 62
     0
370
     0
100
AcDbPolyline
 90
        6
 70
     0
 43
0.0
 10
-63.212349
 20
349.317078
 10
-63.282928
 20
350.134064
 10
-63.482418
 20
350.913788
 10
-63.784924
 20
351.633545
 10
-64.16301
 20
352.284576
 10
-64.619118
 20
352.901978
  0
LWPOLYLINE
  5
10B
330
106
100
AcDbEntity
  8
0
  6
Continuous
 62
     0
370
     0
100
AcDbPolyline
 90
        6
 70
     0
 43
0.0
 10
-64.619118
 20
345.732178
 10
-64.182243
 20
346.320648
 10
-63.800404
 20
346.970276
 10
-63.494907
 20
347.683624
 10
-63.291138
 20
348.452454
 10
-63.212349
 20
349.317078
  0
LINE
  5
10C
330
106
100
AcDbEntity
  8
0
  6
Continuous
 62
     0
370
     0
100
AcDbLine
 10
-13.712349
 20
349.317078
 30
0.0
 11
-13.712349
 21
358.317078
 31
0.0
  0
LINE
  5
10D
330
106
100
AcDbEntity
  8
0
  6
Continuous
 62
     0
370
     0
100
AcDbLine
 10
-13.712349
 20
340.317078
 30
0.0
 11
-13.712349
 21
349.317078
 31
0.0
  0
LINE
  5
10E
330
106
100
AcDbEntity
  8
0
  6
Continuous
 62
     0
370
     0
100
AcDbLine
 10
-8.71235
 20
334.412064
 30
0.0
 11
-8.712349
 21
379.317078
 31
0.0
  0
LINE
  5
10F
330
106
100
AcDbEntity
  8
0
  6
Continuous
 62
     0
370
     0
100
AcDbLine
 10
-8.712349
 20
319.317078
 30
0.0
 11
-8.71235
 21
334.412064
 31
0.0
  0
LINE
  5
110
330
106
100
AcDbEntity
  8
0
  6
Continuous
 62
     0
370
    30
100
AcDbLine
 10
-8.21235
 20
334.660481
 30
0.0
 11
-8.212349
 21
319.817078
 31
0.0
  0
LWPOLYLINE
  5
111
330
106
100
AcDbEntity
  8
0
  6
Continuous
 62
     0
370
    30
100
AcDbPolyline
 90
       31
 70
     0
 43
0.0
 10
-8.212349
 20
378.817078
 10
-8.212349
 20
378.740234
 10
-8.212349
 20
378.513885
 10
-8.212349
 20
378.145599
 10
-8.212349
 20
377.644806
 10
-8.212349
 20
377.022247
 10
-8.21235
 20
376.289581
 10
-8.21235
 20
375.459137
 10
-8.21235
 20
374.53949
 10
-8.21235
 20
373.500977
 10
-8.21235
 20
372.333405
 10
-8.21235
 20
371.036591
 10
-8.21235
 20
369.612183
 10
-8.21235
 20
368.064026
 10
-8.21235
 20
366.398254
 10
-8.21235
 20
364.623138
 10
-8.21235
 20
362.749268
 10
-8.21235
 20
360.789276
 10
-8.21235
 20
358.757477
 10
-8.21235
 20
356.6698
 10
-8.21235
 20
354.543091
 10
-8.21235
 20
352.394928
 10
-8.21235
 20
350.242859
 10
-8.21235
 20
348.104218
 10
-8.21235
 20
345.995514
 10
-8.21235
 20
343.932007
 10
-8.21235
 20
341.927551
 10
-8.21235
 20
339.994202
 10
-8.21235
 20
338.14212
 10
-8.21235
 20
336.379547
 10
-8.21235
 20
334.660492
  0
LINE
  5
112
330
106
100
AcDbEntity
  8
0
  6
Continuous
 62
     0
370
     0
100
AcDbLine
 10
-12.712349
 20
379.317078
 30
0.0
 11
-12.712349
 21
334.412064
 31
0.0
  0
LINE
  5
113
330
106
100
AcDbEntity
  8
0
  6
Continuous
 62
     0
370
     0
100
AcDbLine
 10
-12.712349
 20
334.412064
 30
0.0
 11
-12.712349
 21
319.317078
 31
0.0
  0
LINE
  5
114
330
106
100
AcDbEntity
  8
0
  6
Continuous
 62
     0
370
    30
100
AcDbLine
 10
-13.21235
 20
334.660481
 30
0.0
 11
-13.212349
 21
378.817078
 31
0.0
  0
LINE
  5
115
330
106
100
AcDbEntity
  8
0
  6
Continuous
 62
     0
370
    30
100
AcDbLine
 10
-13.212349
 20
319.817078
 30
0.0
 11
-13.21235
 21
334.660481
 31
0.0
  0
ARC
  5
116
330
106
100
AcDbEntity
  8
0
  6
Continuous
 62
     0
370
    30
100
AcDbCircle
 10
-12.712334
 20
378.817063
 30
0.0
 40
0.500015027164782
100
AcDbArc
 50
90.001722
 51
179.998278
  0
ARC
  5
117
330
106
100
AcDbEntity
  8
0
  6
Continuous
 62
     0
370
    30
100
AcDbCircle
 10
-12.712334
 20
319.817093
 30
0.0
 40
0.5000150271647134
100
AcDbArc
 50
180.001722
 51
269.998278
  0
LINE
  5
118
330
106
100
AcDbEntity
  8
0
  6
Continuous
 62
     0
370
    30
100
AcDbLine
 10
-12.712349
 20
379.317078
 30
0.0
 11
-8.712349
 21
379.317078
 31
0.0
  0
LINE
  5
119
330
106
100
AcDbEntity
  8
0
  6
Continuous
 62
     0
370
    30
100
AcDbLine
 10
-12.712349
 20
319.317078
 30
0.0
 11
-8.712349
 21
319.317078
 31
0.0
  0
ARC
  5
11A
330
106
100
AcDbEntity
  8
0
  6
Continuous
 62
     0
370
    30
100
AcDbCircle
 10
-8.712364
 20
378.817063
 30
0.0
 40
0.5000149691645455
100
AcDbArc
 50
0.009818
 51
89.998285
  0
ARC
  5
11B
330
106
100
AcDbEntity
  8
0
  6
Continuous
 62
     0
370
    30
100
AcDbCircle
 10
-8.712364
 20
319.817093
 30
0.0
 40
0.5000149691641746
100
AcDbArc
 50
270.001715
 51
359.990182
  0
ARC
  5
11C
330
106
100
AcDbEntity
  8
0
  6
Continuous
 62
     0
370
    30
100
AcDbCircle
 10
-13.712352
 20
357.817074
 30
0.0
 40
0.500003442282436
100
AcDbArc
 50
0.000394
 51
89.999606
  0
ARC
  5
11D
330
106
100
AcDbEntity
  8
0
  6
Continuous
 62
     0
370
    30
100
AcDbCircle
 10
-13.712352
 20
340.81708
 30
0.0
 40
0.5000027706879316
100
AcDbArc
 50
270.000317
 51
359.988223
  0
LINE
  5
11E
330
106
100
AcDbEntity
  8
0
  6
Continuous
 62
     0
370
    30
100
AcDbLine
 10
-66.983584
 20
340.317078
 30
0.0
 11
-13.712349
 21
340.317078
 31
0.0
  0
LINE
  5
11F
330
106
100
AcDbEntity
  8
0
  6
Continuous
 62
     0
370
    30
100
AcDbLine
 10
-66.983584
 20
358.317078
 30
0.0
 11
-13.712349
 21
358.317078
 31
0.0
  0
ENDBLK
  5
121
330
106
100
AcDbEntity
  8
0
100
AcDbBlockEnd
  0
ENDSEC
  0
SECTION
  2
ENTITIES
  0
INSERT
  5
71
330
1F
100
AcDbEntity
  8
0
  6
Continuous
 62
   250
370
     0
100
AcDbBlockReference
  2
a
 10
3.651821
 20
96.842712
 30
0.0
  0
INSERT
  5
A7
330
1F
100
AcDbEntity
  8
0
  6
Continuous
 62
   250
370
     0
100
AcDbBlockReference
  2
b
 10
3.651821
 20
96.842712
 30
0.0
  0
INSERT
  5
C2
330
1F
100
AcDbEntity
  8
0
  6
Continuous
 62
   250
370
     0
100
AcDbBlockReference
  2
c
 10
3.651821
 20
96.842712
 30
0.0
  0
INSERT
  5
105
330
1F
100
AcDbEntity
  8
0
  6
Continuous
 62
   250
370
     0
100
AcDbBlockReference
  2
d
 10
3.651821
 20
96.842712
 30
0.0
  0
INSERT
  5
122
330
1F
100
AcDbEntity
  8
0
  6
Continuous
 62
   250
370
     0
100
AcDbBlockReference
  2
e
 10
15.377762
 20
0.0
 30
0.0
  0
ENDSEC
  0
SECTION
  2
OBJECTS
  0
DICTIONARY
  5
C
330
0
100
AcDbDictionary
281
     1
  3
ACAD_GROUP
350
D
  3
ACAD_LAYOUT
350
1A
  3
ACAD_MLEADERSTYLE
350
125
  3
ACAD_MLINESTYLE
350
17
  3
ACAD_PLOTSETTINGS
350
19
  3
ACAD_PLOTSTYLENAME
350
E
  3
ACAD_VISUALSTYLE
350
2A
  3
AcDbVariableDictionary
350
123
  0
DICTIONARY
  5
D
102
{ACAD_REACTORS
330
C
102
}
330
C
100
AcDbDictionary
281
     1
  0
DICTIONARY
  5
1A
102
{ACAD_REACTORS
330
C
102
}
330
C
100
AcDbDictionary
281
     1
  3
Layout1
350
1E
  3
Layout2
350
26
  3
Model
350
22
  0
DICTIONARY
  5
125
102
{ACAD_REACTORS
330
C
102
}
330
C
100
AcDbDictionary
281
     1
  0
DICTIONARY
  5
17
102
{ACAD_REACTORS
330
C
102
}
330
C
100
AcDbDictionary
281
     1
  3
Standard
350
18
  0
DICTIONARY
  5
19
102
{ACAD_REACTORS
330
C
102
}
330
C
100
AcDbDictionary
281
     1
  0
ACDBDICTIONARYWDFLT
  5
E
102
{ACAD_REACTORS
330
C
102
}
330
C
100
AcDbDictionary
281
     1
  3
Normal
350
F
100
AcDbDictionaryWithDefault
340
F
  0
DICTIONARY
  5
2A
102
{ACAD_REACTORS
330
C
102
}
330
C
100
AcDbDictionary
281
     1
  3
2dWireframe
350
2F
  3
3D Hidden
350
31
  3
3dWireframe
350
30
  3
Basic
350
32
  3
Brighten
350
36
  3
ColorChange
350
3A
  3
Conceptual
350
34
  3
Dim
350
35
  3
Facepattern
350
39
  3
Flat
350
2B
  3
FlatWithEdges
350
2C
  3
Gouraud
350
2D
  3
GouraudWithEdges
350
2E
  3
Linepattern
350
38
  3
Realistic
350
33
  3
Thicken
350
37
  0
DICTIONARY
  5
123
102
{ACAD_REACTORS
330
C
102
}
330
C
100
AcDbDictionary
281
     1
  3
PSOLHEIGHT
350
127
  3
PSOLWIDTH
350
126
  0
LAYOUT
  5
1E
102
{ACAD_REACTORS
330
1A
102
}
330
1A
100
AcDbPlotSettings
  1

  2
none_device
  4

  6

 40
0.0
 41
0.0
 42
0.0
 43
0.0
 44
0.0
 45
0.0
 46
0.0
 47
0.0
 48
0.0
 49
0.0
140
0.0
141
0.0
142
1.0
143
1.0
 70
   688
 72
     0
 73
     0
 74
     5
  7

 75
    16
147
1.0
148
0.0
149
0.0
100
AcDbLayout
  1
Layout1
 70
     1
 71
     1
 10
0.0
 20
0.0
 11
420.0
 21
297.0
 12
0.0
 22
0.0
 32
0.0
 14
1.000000E+20
 24
1.000000E+20
 34
1.000000E+20
 15
-1.000000E+20
 25
-1.000000E+20
 35
-1.000000E+20
146
0.0
 13
0.0
 23
0.0
 33
0.0
 16
1.0
 26
0.0
 36
0.0
 17
0.0
 27
1.0
 37
0.0
 76
     0
330
1B
  0
LAYOUT
  5
26
102
{ACAD_REACTORS
330
1A
102
}
330
1A
100
AcDbPlotSettings
  1

  2
none_device
  4

  6

 40
0.0
 41
0.0
 42
0.0
 43
0.0
 44
0.0
 45
0.0
 46
0.0
 47
0.0
 48
0.0
 49
0.0
140
0.0
141
0.0
142
1.0
143
1.0
 70
   688
 72
     0
 73
     0
 74
     5
  7

 75
    16
147
1.0
148
0.0
149
0.0
100
AcDbLayout
  1
Layout2
 70
     1
 71
     2
 10
0.0
 20
0.0
 11
0.0
 21
0.0
 12
0.0
 22
0.0
 32
0.0
 14
0.0
 24
0.0
 34
0.0
 15
0.0
 25
0.0
 35
0.0
146
0.0
 13
0.0
 23
0.0
 33
0.0
 16
1.0
 26
0.0
 36
0.0
 17
0.0
 27
1.0
 37
0.0
 76
     0
330
23
  0
LAYOUT
  5
22
102
{ACAD_REACTORS
330
1A
102
}
330
1A
100
AcDbPlotSettings
  1

  2
none_device
  4

  6

 40
0.0
 41
0.0
 42
0.0
 43
0.0
 44
0.0
 45
0.0
 46
0.0
 47
0.0
 48
0.0
 49
0.0
140
0.0
141
0.0
142
1.0
143
1.0
 70
  1712
 72
     0
 73
     0
 74
     0
  7

 75
     0
147
1.0
148
0.0
149
0.0
100
AcDbLayout
  1
Model
 70
     1
 71
     0
 10
-96.211426
 20
84.815369
 11
559.087952
 21
379.317078
 12
0.0
 22
0.0
 32
0.0
 14
-96.211426
 24
84.815369
 34
0.0
 15
559.087952
 25
379.317078
 35
0.0
146
0.0
 13
0.0
 23
0.0
 33
0.0
 16
1.0
 26
0.0
 36
0.0
 17
0.0
 27
1.0
 37
0.0
 76
     0
330
1F
331
29
  0
MLINESTYLE
  5
18
102
{ACAD_REACTORS
330
17
102
}
330
17
100
AcDbMlineStyle
  2
Standard
 70
     0
  3

 62
   256
 51
90.0
 52
90.0
 71
     2
 49
0.5
 62
   256
  6
BYLAYER
 49
-0.5
 62
   256
  6
BYLAYER
  0
ACDBPLACEHOLDER
  5
F
102
{ACAD_REACTORS
330
E
102
}
330
E
  0
VISUALSTYLE
  5
2F
102
{ACAD_REACTORS
330
2A
102
}
330
2A
100
AcDbVisualStyle
  2
2dWireframe
 70
     4
 71
     0
 72
     2
 73
     0
 90
        0
 40
-0.6
 41
-30.0
 62
     5
 63
     7
 74
     1
 91
        4
 64
     7
 65
   257
 75
     1
175
     1
 42
1.0
 92
        0
 66
   257
 43
1.0
 76
     1
 77
     6
 78
     2
 67
     7
 79
     5
170
     0
171
     0
290
     0
174
     0
 93
        1
 44
0.0
173
     0
291
     0
 45
0.0
1001
ACAD
1000
AcDbSavedByObjectVersion
1070
     0
  0
VISUALSTYLE
  5
31
102
{ACAD_REACTORS
330
2A
102
}
330
2A
100
AcDbVisualStyle
  2
3D Hidden
 70
     6
 71
     1
 72
     2
 73
     2
 90
        0
 40
-0.6
 41
-30.0
 62
     5
 63
     7
 74
     2
 91
        2
 64
     7
 65
   257
 75
     2
175
     1
 42
40.0
 92
        0
 66
   257
 43
1.0
 76
     1
 77
     6
 78
     2
 67
     7
 79
     3
170
     0
171
     0
290
     0
174
     0
 93
        1
 44
0.0
173
     0
291
     0
 45
0.0
1001
ACAD
1000
AcDbSavedByObjectVersion
1070
     0
  0
VISUALSTYLE
  5
30
102
{ACAD_REACTORS
330
2A
102
}
330
2A
100
AcDbVisualStyle
  2
3dWireframe
 70
     5
 71
     0
 72
     2
 73
     0
 90
        0
 40
-0.6
 41
-30.0
 62
     5
 63
     7
 74
     1
 91
        4
 64
     7
 65
   257
 75
     1
175
     1
 42
1.0
 92
        0
 66
   257
 43
1.0
 76
     1
 77
     6
 78
     2
 67
     7
 79
     5
170
     0
171
     0
290
     0
174
     0
 93
        1
 44
0.0
173
     0
291
     0
 45
0.0
1001
ACAD
1000
AcDbSavedByObjectVersion
1070
     0
  0
VISUALSTYLE
  5
32
102
{ACAD_REACTORS
330
2A
102
}
330
2A
100
AcDbVisualStyle
  2
Basic
 70
     7
 71
     1
 72
     0
 73
     1
 90
        0
 40
-0.6
 41
-30.0
 62
     5
 63
     7
 74
     0
 91
        4
 64
     7
 65
   257
 75
     1
175
     1
 42
1.0
 92
        8
 66
     7
 43
1.0
 76
     1
 77
     6
 78
     2
 67
     7
 79
     5
170
     0
171
     0
290
     0
174
     0
 93
        1
 44
0.0
173
     0
291
     1
 45
0.0
1001
ACAD
1000
AcDbSavedByObjectVersion
1070
     0
  0
VISUALSTYLE
  5
36
102
{ACAD_REACTORS
330
2A
102
}
330
2A
100
AcDbVisualStyle
  2
Brighten
 70
    12
 71
     2
 72
     2
 73
     0
 90
        0
 40
-0.6
 41
-30.0
 62
     5
 63
     7
 74
     1
 91
        4
 64
     7
 65
   257
 75
     1
175
     1
 42
1.0
 92
        8
 66
     7
 43
1.0
 76
     1
 77
     6
 78
     2
 67
     7
 79
     5
170
     0
171
     0
290
     0
174
     0
 93
        1
 44
50.0
173
     0
291
     1
 45
0.0
1001
ACAD
1000
AcDbSavedByObjectVersion
1070
     0
  0
VISUALSTYLE
  5
3A
102
{ACAD_REACTORS
330
2A
102
}
330
2A
100
AcDbVisualStyle
  2
ColorChange
 70
    16
 71
     2
 72
     2
 73
     3
 90
        0
 40
-0.6
 41
-30.0
 62
     5
 63
     8
 74
     1
 91
        4
 64
     7
 65
   257
 75
     1
175
     1
 42
1.0
 92
        8
 66
     8
 43
1.0
 76
     1
 77
     6
 78
     2
 67
     7
 79
     5
170
     0
171
     0
290
     0
174
     0
 93
        1
 44
0.0
173
     0
291
     1
 45
0.0
1001
ACAD
1000
AcDbSavedByObjectVersion
1070
     0
  0
VISUALSTYLE
  5
34
102
{ACAD_REACTORS
330
2A
102
}
330
2A
100
AcDbVisualStyle
  2
Conceptual
 70
     9
 71
     3
 72
     2
 73
     0
 90
        0
 40
-0.6
 41
-30.0
 62
     5
 63
     7
 74
     2
 91
        2
 64
     7
 65
   257
 75
     1
175
     1
 42
40.0
 92
        8
 66
     7
 43
1.0
 76
     1
 77
     6
 78
     2
 67
     7
 79
     3
170
     0
171
     0
290
     0
174
     0
 93
        1
 44
0.0
173
     0
291
     0
 45
0.0
1001
ACAD
1000
AcDbSavedByObjectVersion
1070
     0
  0
VISUALSTYLE
  5
35
102
{ACAD_REACTORS
330
2A
102
}
330
2A
100
AcDbVisualStyle
  2
Dim
 70
    11
 71
     2
 72
     2
 73
     0
 90
        0
 40
-0.6
 41
-30.0
 62
     5
 63
     7
 74
     1
 91
        4
 64
     7
 65
   257
 75
     1
175
     1
 42
1.0
 92
        8
 66
     7
 43
1.0
 76
     1
 77
     6
 78
     2
 67
     7
 79
     5
170
     0
171
     0
290
     0
174
     0
 93
        1
 44
-50.0
173
     0
291
     1
 45
0.0
1001
ACAD
1000
AcDbSavedByObjectVersion
1070
     0
  0
VISUALSTYLE
  5
39
102
{ACAD_REACTORS
330
2A
102
}
330
2A
100
AcDbVisualStyle
  2
Facepattern
 70
    15
 71
     2
 72
     2
 73
     0
 90
        0
 40
-0.6
 41
-30.0
 62
     5
 63
     7
 74
     1
 91
        4
 64
     7
 65
   257
 75
     1
175
     1
 42
1.0
 92
        8
 66
     7
 43
1.0
 76
     1
 77
     6
 78
     2
 67
     7
 79
     5
170
     0
171
     0
290
     0
174
     0
 93
        1
 44
0.0
173
     0
291
     1
 45
0.0
1001
ACAD
1000
AcDbSavedByObjectVersion
1070
     0
  0
VISUALSTYLE
  5
2B
102
{ACAD_REACTORS
330
2A
102
}
330
2A
100
AcDbVisualStyle
  2
Flat
 70
     0
 71
     2
 72
     1
 73
     1
 90
        2
 40
-0.6
 41
30.0
 62
     5
 63
     7
 74
     0
 91
        4
 64
     7
 65
   257
 75
     1
175
     1
 42
1.0
 92
        8
 66
     7
 43
1.0
 76
     1
 77
     6
 78
     2
 67
     7
 79
     5
170
     0
171
     0
290
     0
174
     0
 93
       13
 44
0.0
173
     0
291
     1
 45
0.0
1001
ACAD
1000
AcDbSavedByObjectVersion
1070
     0
  0
VISUALSTYLE
  5
2C
102
{ACAD_REACTORS
330
2A
102
}
330
2A
100
AcDbVisualStyle
  2
FlatWithEdges
 70
     1
 71
     2
 72
     1
 73
     1
 90
        2
 40
-0.6
 41
30.0
 62
     5
 63
     7
 74
     1
 91
        4
 64
     7
 65
   257
 75
     1
175
     1
 42
1.0
 92
        0
 66
   257
 43
1.0
 76
     1
 77
     6
 78
     2
 67
     7
 79
     5
170
     0
171
     0
290
     0
174
     0
 93
       13
 44
0.0
173
     0
291
     1
 45
0.0
1001
ACAD
1000
AcDbSavedByObjectVersion
1070
     0
  0
VISUALSTYLE
  5
2D
102
{ACAD_REACTORS
330
2A
102
}
330
2A
100
AcDbVisualStyle
  2
Gouraud
 70
     2
 71
     2
 72
     2
 73
     1
 90
        2
 40
-0.6
 41
30.0
 62
     5
 63
     7
 74
     0
 91
        4
 64
     7
 65
   257
 75
     1
175
     1
 42
1.0
 92
        0
 66
     7
 43
1.0
 76
     1
 77
     6
 78
     2
 67
     7
 79
     5
170
     0
171
     0
290
     0
174
     0
 93
       13
 44
0.0
173
     0
291
     1
 45
0.0
1001
ACAD
1000
AcDbSavedByObjectVersion
1070
     0
  0
VISUALSTYLE
  5
2E
102
{ACAD_REACTORS
330
2A
102
}
330
2A
100
AcDbVisualStyle
  2
GouraudWithEdges
 70
     3
 71
     2
 72
     2
 73
     1
 90
        2
 40
-0.6
 41
30.0
 62
     5
 63
     7
 74
     1
 91
        4
 64
     7
 65
   257
 75
     1
175
     1
 42
1.0
 92
        0
 66
   257
 43
1.0
 76
     1
 77
     6
 78
     2
 67
     7
 79
     5
170
     0
171
     0
290
     0
174
     0
 93
       13
 44
0.0
173
     0
291
     1
 45
0.0
1001
ACAD
1000
AcDbSavedByObjectVersion
1070
     0
  0
VISUALSTYLE
  5
38
102
{ACAD_REACTORS
330
2A
102
}
330
2A
100
AcDbVisualStyle
  2
Linepattern
 70
    14
 71
     2
 72
     2
 73
     0
 90
        0
 40
-0.6
 41
-30.0
 62
     5
 63
     7
 74
     1
 91
        4
 64
     7
 65
   257
 75
     7
175
     7
 42
1.0
 92
        8
 66
     7
 43
1.0
 76
     1
 77
     6
 78
     2
 67
     7
 79
     5
170
     0
171
     0
290
     0
174
     0
 93
        1
 44
0.0
173
     0
291
     1
 45
0.0
1001
ACAD
1000
AcDbSavedByObjectVersion
1070
     0
  0
VISUALSTYLE
  5
33
102
{ACAD_REACTORS
330
2A
102
}
330
2A
100
AcDbVisualStyle
  2
Realistic
 70
     8
 71
     2
 72
     2
 73
     0
 90
        0
 40
-0.6
 41
-30.0
 62
     5
 63
     7
 74
     1
 91
        0
 64
     7
 65
   257
 75
     1
175
     1
 42
1.0
 92
        8
 66
     8
 43
1.0
 76
     1
 77
     6
 78
     2
 67
     7
 79
     5
170
     0
171
     0
290
     0
174
     0
 93
       13
 44
0.0
173
     0
291
     0
 45
0.0
1001
ACAD
1000
AcDbSavedByObjectVersion
1070
     0
  0
VISUALSTYLE
  5
37
102
{ACAD_REACTORS
330
2A
102
}
330
2A
100
AcDbVisualStyle
  2
Thicken
 70
    13
 71
     2
 72
     2
 73
     0
 90
        0
 40
-0.6
 41
-30.0
 62
     5
 63
     7
 74
     1
 91
        4
 64
     7
 65
   257
 75
     1
175
     1
 42
1.0
 92
       12
 66
     7
 43
1.0
 76
     1
 77
     6
 78
     2
 67
     7
 79
     5
170
     0
171
     0
290
     0
174
     0
 93
        1
 44
0.0
173
     0
291
     1
 45
0.0
1001
ACAD
1000
AcDbSavedByObjectVersion
1070
     0
  0
DICTIONARYVAR
  5
127
102
{ACAD_REACTORS
330
123
102
}
330
123
100
DictionaryVariables
280
     0
  1
80.000000
  0
DICTIONARYVAR
  5
126
102
{ACAD_REACTORS
330
123
102
}
330
123
100
DictionaryVariables
280
     0
  1
5.000000
  0
ENDSEC
  0
EOF
