  0
SECTION
  2
HEADER
  9
$ACADVER
  1
AC1015
  9
$ACADMAINTVER
 70
     6
  9
$DWGCODEPAGE
  3
ANSI_1252
  9
$INSBASE
 10
0.0
 20
0.0
 30
0.0
  9
$EXTMIN
 10
157.393768
 20
63.748283
 30
0.0
  9
$EXTMAX
 10
858.636108
 20
744.810486
 30
0.0
  9
$LIMMIN
 10
157.393768
 20
63.748283
  9
$LIMMAX
 10
858.636108
 20
744.810486
  9
$ORTHOMODE
 70
     0
  9
$REGENMODE
 70
     1
  9
$FILLMODE
 70
     1
  9
$QTEXTMODE
 70
     0
  9
$MIRRTEXT
 70
     1
  9
$LTSCALE
 40
1.0
  9
$ATTMODE
 70
     1
  9
$TEXTSIZE
 40
2.5
  9
$TRACEWID
 40
1.0
  9
$TEXTSTYLE
  7
Standard
  9
$CLAYER
  8
0
  9
$CELTYPE
  6
ByLayer
  9
$CECOLOR
 62
   256
  9
$CELTSCALE
 40
1.0
  9
$DISPSILH
 70
     0
  9
$DIMSCALE
 40
1.0
  9
$DIMASZ
 40
2.5
  9
$DIMEXO
 40
0.625
  9
$DIMDLI
 40
3.75
  9
$DIMRND
 40
0.0
  9
$DIMDLE
 40
0.0
  9
$DIMEXE
 40
1.25
  9
$DIMTP
 40
0.0
  9
$DIMTM
 40
0.0
  9
$DIMTXT
 40
2.5
  9
$DIMCEN
 40
2.5
  9
$DIMTSZ
 40
0.0
  9
$DIMTOL
 70
     0
  9
$DIMLIM
 70
     0
  9
$DIMTIH
 70
     0
  9
$DIMTOH
 70
     0
  9
$DIMSE1
 70
     0
  9
$DIMSE2
 70
     0
  9
$DIMTAD
 70
     1
  9
$DIMZIN
 70
     8
  9
$DIMBLK
  1

  9
$DIMASO
 70
     1
  9
$DIMSHO
 70
     1
  9
$DIMPOST
  1

  9
$DIMAPOST
  1

  9
$DIMALT
 70
     0
  9
$DIMALTD
 70
     3
  9
$DIMALTF
 40
0.03937
  9
$DIMLFAC
 40
1.0
  9
$DIMTOFL
 70
     1
  9
$DIMTVP
 40
0.0
  9
$DIMTIX
 70
     0
  9
$DIMSOXD
 70
     0
  9
$DIMSAH
 70
     0
  9
$DIMBLK1
  1

  9
$DIMBLK2
  1

  9
$DIMSTYLE
  2
ISO-25
  9
$DIMCLRD
 70
     0
  9
$DIMCLRE
 70
     0
  9
$DIMCLRT
 70
     0
  9
$DIMTFAC
 40
1.0
  9
$DIMGAP
 40
0.625
  9
$DIMJUST
 70
     0
  9
$DIMSD1
 70
     0
  9
$DIMSD2
 70
     0
  9
$DIMTOLJ
 70
     0
  9
$DIMTZIN
 70
     8
  9
$DIMALTZ
 70
     0
  9
$DIMALTTZ
 70
     0
  9
$DIMUPT
 70
     0
  9
$DIMDEC
 70
     2
  9
$DIMTDEC
 70
     2
  9
$DIMALTU
 70
     2
  9
$DIMALTTD
 70
     3
  9
$DIMTXSTY
  7
Standard
  9
$DIMAUNIT
 70
     0
  9
$DIMADEC
 70
     0
  9
$DIMALTRND
 40
0.0
  9
$DIMAZIN
 70
     0
  9
$DIMDSEP
 70
    44
  9
$DIMATFIT
 70
     3
  9
$DIMFRAC
 70
     0
  9
$DIMLDRBLK
  1

  9
$DIMLUNIT
 70
     2
  9
$DIMLWD
 70
    -2
  9
$DIMLWE
 70
    -2
  9
$DIMTMOVE
 70
     0
  9
$LUNITS
 70
     2
  9
$LUPREC
 70
     4
  9
$SKETCHINC
 40
1.0
  9
$FILLETRAD
 40
10.0
  9
$AUNITS
 70
     0
  9
$AUPREC
 70
     0
  9
$MENU
  1
.
  9
$ELEVATION
 40
0.0
  9
$PELEVATION
 40
0.0
  9
$THICKNESS
 40
0.0
  9
$LIMCHECK
 70
     0
  9
$CHAMFERA
 40
10.0
  9
$CHAMFERB
 40
10.0
  9
$CHAMFERC
 40
20.0
  9
$CHAMFERD
 40
0.0
  9
$SKPOLY
 70
     0
  9
$TDCREATE
 40
2455554.635475625
  9
$TDUCREATE
 40
2455554.593808958
  9
$TDUPDATE
 40
2455554.635475636
  9
$TDUUPDATE
 40
2455554.59380897
  9
$TDINDWG
 40
0.0000000116
  9
$TDUSRTIMER
 40
0.0000000116
  9
$USRTIMER
 70
     1
  9
$ANGBASE
 50
0.0
  9
$ANGDIR
 70
     0
  9
$PDMODE
 70
     0
  9
$PDSIZE
 40
0.0
  9
$PLINEWID
 40
0.0
  9
$SPLFRAME
 70
     0
  9
$SPLINETYPE
 70
     6
  9
$SPLINESEGS
 70
     8
  9
$HANDSEED
  5
173
  9
$SURFTAB1
 70
     6
  9
$SURFTAB2
 70
     6
  9
$SURFTYPE
 70
     6
  9
$SURFU
 70
     6
  9
$SURFV
 70
     6
  9
$UCSBASE
  2

  9
$UCSNAME
  2

  9
$UCSORG
 10
0.0
 20
0.0
 30
0.0
  9
$UCSXDIR
 10
1.0
 20
0.0
 30
0.0
  9
$UCSYDIR
 10
0.0
 20
1.0
 30
0.0
  9
$UCSORTHOREF
  2

  9
$UCSORTHOVIEW
 70
     0
  9
$UCSORGTOP
 10
0.0
 20
0.0
 30
0.0
  9
$UCSORGBOTTOM
 10
0.0
 20
0.0
 30
0.0
  9
$UCSORGLEFT
 10
0.0
 20
0.0
 30
0.0
  9
$UCSORGRIGHT
 10
0.0
 20
0.0
 30
0.0
  9
$UCSORGFRONT
 10
0.0
 20
0.0
 30
0.0
  9
$UCSORGBACK
 10
0.0
 20
0.0
 30
0.0
  9
$PUCSBASE
  2

  9
$PUCSNAME
  2

  9
$PUCSORG
 10
0.0
 20
0.0
 30
0.0
  9
$PUCSXDIR
 10
1.0
 20
0.0
 30
0.0
  9
$PUCSYDIR
 10
0.0
 20
1.0
 30
0.0
  9
$PUCSORTHOREF
  2

  9
$PUCSORTHOVIEW
 70
     0
  9
$PUCSORGTOP
 10
0.0
 20
0.0
 30
0.0
  9
$PUCSORGBOTTOM
 10
0.0
 20
0.0
 30
0.0
  9
$PUCSORGLEFT
 10
0.0
 20
0.0
 30
0.0
  9
$PUCSORGRIGHT
 10
0.0
 20
0.0
 30
0.0
  9
$PUCSORGFRONT
 10
0.0
 20
0.0
 30
0.0
  9
$PUCSORGBACK
 10
0.0
 20
0.0
 30
0.0
  9
$USERI1
 70
     0
  9
$USERI2
 70
     0
  9
$USERI3
 70
     0
  9
$USERI4
 70
     0
  9
$USERI5
 70
     0
  9
$USERR1
 40
0.0
  9
$USERR2
 40
0.0
  9
$USERR3
 40
0.0
  9
$USERR4
 40
0.0
  9
$USERR5
 40
0.0
  9
$WORLDVIEW
 70
     1
  9
$SHADEDGE
 70
     3
  9
$SHADEDIF
 70
    70
  9
$TILEMODE
 70
     1
  9
$MAXACTVP
 70
    64
  9
$PINSBASE
 10
0.0
 20
0.0
 30
0.0
  9
$PLIMCHECK
 70
     0
  9
$PEXTMIN
 10
1.000000E+20
 20
1.000000E+20
 30
1.000000E+20
  9
$PEXTMAX
 10
-1.000000E+20
 20
-1.000000E+20
 30
-1.000000E+20
  9
$PLIMMIN
 10
0.0
 20
0.0
  9
$PLIMMAX
 10
420.0
 20
297.0
  9
$UNITMODE
 70
     0
  9
$VISRETAIN
 70
     1
  9
$PLINEGEN
 70
     0
  9
$PSLTSCALE
 70
     1
  9
$TREEDEPTH
 70
  3020
  9
$CMLSTYLE
  2
Standard
  9
$CMLJUST
 70
     0
  9
$CMLSCALE
 40
20.0
  9
$PROXYGRAPHICS
 70
     1
  9
$MEASUREMENT
 70
     1
  9
$CELWEIGHT
370
    -1
  9
$ENDCAPS
280
     0
  9
$JOINSTYLE
280
     0
  9
$LWDISPLAY
290
     0
  9
$INSUNITS
 70
     4
  9
$HYPERLINKBASE
  1

  9
$STYLESHEET
  1

  9
$XEDIT
290
     1
  9
$CEPSNTYPE
380
     0
  9
$PSTYLEMODE
290
     1
  9
$FINGERPRINTGUID
  2
{BC68D137-45E2-4204-8381-FFB1A3116F58}
  9
$VERSIONGUID
  2
{FAEB1C32-E019-11D5-929B-00C0DF256EC4}
  9
$EXTNAMES
290
     1
  9
$PSVPSCALE
 40
0.0
  9
$OLESTARTUP
290
     0
  0
ENDSEC
  0
SECTION
  2
CLASSES
  0
CLASS
  1
ACDBDICTIONARYWDFLT
  2
AcDbDictionaryWithDefault
  3
ObjectDBX Classes
 90
        0
280
     0
281
     0
  0
CLASS
  1
VISUALSTYLE
  2
AcDbVisualStyle
  3
ObjectDBX Classes
 90
     4095
280
     0
281
     0
  0
CLASS
  1
DICTIONARYVAR
  2
AcDbDictionaryVar
  3
ObjectDBX Classes
 90
        0
280
     0
281
     0
  0
CLASS
  1
ACDBPLACEHOLDER
  2
AcDbPlaceHolder
  3
ObjectDBX Classes
 90
        0
280
     0
281
     0
  0
CLASS
  1
LAYOUT
  2
AcDbLayout
  3
ObjectDBX Classes
 90
        0
280
     0
281
     0
  0
ENDSEC
  0
SECTION
  2
TABLES
  0
TABLE
  2
VPORT
  5
8
330
0
100
AcDbSymbolTable
 70
     1
  0
VPORT
  5
29
330
8
100
AcDbSymbolTableRecord
100
AcDbViewportTableRecord
  2
*Active
 70
     0
 10
0.0
 20
0.0
 11
1.0
 21
1.0
 12
344.186916
 22
148.5
 13
0.0
 23
0.0
 14
10.0
 24
10.0
 15
10.0
 25
10.0
 16
0.0
 26
0.0
 36
1.0
 17
0.0
 27
0.0
 37
0.0
 40
297.0
 41
1.972973
 42
50.0
 43
0.0
 44
0.0
 50
0.0
 51
0.0
 71
     0
 72
   100
 73
     1
 74
     3
 75
     0
 76
     0
 77
     0
 78
     0
281
     0
 65
     1
110
0.0
120
0.0
130
0.0
111
1.0
121
0.0
131
0.0
112
0.0
122
1.0
132
0.0
 79
     0
146
0.0
  0
ENDTAB
  0
TABLE
  2
LTYPE
  5
5
330
0
100
AcDbSymbolTable
 70
     1
  0
LTYPE
  5
14
330
5
100
AcDbSymbolTableRecord
100
AcDbLinetypeTableRecord
  2
ByBlock
 70
     0
  3

 72
    65
 73
     0
 40
0.0
  0
LTYPE
  5
15
330
5
100
AcDbSymbolTableRecord
100
AcDbLinetypeTableRecord
  2
ByLayer
 70
     0
  3

 72
    65
 73
     0
 40
0.0
  0
LTYPE
  5
16
330
5
100
AcDbSymbolTableRecord
100
AcDbLinetypeTableRecord
  2
Continuous
 70
     0
  3
Solid line
 72
    65
 73
     0
 40
0.0
  0
ENDTAB
  0
TABLE
  2
LAYER
  5
2
330
0
100
AcDbSymbolTable
 70
     1
  0
LAYER
  5
10
330
2
100
AcDbSymbolTableRecord
100
AcDbLayerTableRecord
  2
0
 70
     0
 62
   106
  6
Continuous
370
     0
390
F
  0
ENDTAB
  0
TABLE
  2
STYLE
  5
3
330
0
100
AcDbSymbolTable
 70
     4
  0
STYLE
  5
11
330
3
100
AcDbSymbolTableRecord
100
AcDbTextStyleTableRecord
  2
Standard
 70
     0
 40
0.0
 41
1.0
 50
0.0
 71
     0
 42
2.5
  3
txt
  4

  0
STYLE
  5
3B
330
3
100
AcDbSymbolTableRecord
100
AcDbTextStyleTableRecord
  2
Default
 70
     0
 40
0.0
 41
1.0
 50
0.0
 71
     0
 42
0.2
  3

  4

1001
ACAD
1000
txt
1071
        0
  0
STYLE
  5
3C
330
3
100
AcDbSymbolTableRecord
100
AcDbTextStyleTableRecord
  2
ISO
 70
     0
 40
0.0
 41
1.0
 50
0.0
 71
     0
 42
0.2
  3

  4

1001
ACAD
1000
txt
1071
        0
  0
STYLE
  5
3D
330
3
100
AcDbSymbolTableRecord
100
AcDbTextStyleTableRecord
  2
GIANLU
 70
     0
 40
0.0
 41
1.0
 50
0.0
 71
     0
 42
0.2
  3

  4

1001
ACAD
1000
Arial
1071
        0
  0
ENDTAB
  0
TABLE
  2
VIEW
  5
6
330
0
100
AcDbSymbolTable
 70
     0
  0
ENDTAB
  0
TABLE
  2
UCS
  5
7
330
0
100
AcDbSymbolTable
 70
     0
  0
ENDTAB
  0
TABLE
  2
APPID
  5
9
330
0
100
AcDbSymbolTable
 70
     1
  0
APPID
  5
12
330
9
100
AcDbSymbolTableRecord
100
AcDbRegAppTableRecord
  2
ACAD
 70
     0
  0
ENDTAB
  0
TABLE
  2
DIMSTYLE
  5
A
330
0
100
AcDbSymbolTable
 70
     4
100
AcDbDimStyleTable
  0
DIMSTYLE
105
27
330
A
100
AcDbSymbolTableRecord
100
AcDbDimStyleTableRecord
  2
ISO-25
 70
     0
 41
2.5
 42
0.625
 43
3.75
 44
1.25
 73
     0
 74
     0
 77
     1
 78
     8
140
2.5
141
2.5
143
0.03937
147
0.625
171
     3
172
     1
271
     2
272
     2
274
     3
278
    44
283
     0
284
     8
340
11
  0
DIMSTYLE
105
3E
330
A
100
AcDbSymbolTableRecord
100
AcDbDimStyleTableRecord
  2
Default
 70
     0
  3
<>
 41
4.375
 42
1.05
 44
2.1
 73
     0
 74
     0
 77
     1
 78
     8
140
3.5
146
0.4
147
1.75
178
     3
271
     2
272
     3
284
     8
340
3B
341
3F
342
3F
  0
DIMSTYLE
105
46
330
A
100
AcDbSymbolTableRecord
100
AcDbDimStyleTableRecord
  2
ISO
 70
     0
  3
<>
 41
4.375
 42
1.05
 44
2.1
 73
     0
 74
     0
 77
     1
 78
     8
140
3.5
146
0.4
147
1.75
178
     3
271
     2
272
     3
284
     8
340
3C
341
3F
342
3F
  0
DIMSTYLE
105
47
330
A
100
AcDbSymbolTableRecord
100
AcDbDimStyleTableRecord
  2
zucchetti_unico
 70
     0
  3
<>
 41
3.0
 42
0.9
 44
1.8
 73
     0
 74
     0
 77
     1
 78
     8
140
3.0
146
0.6
147
1.5
176
   104
177
     3
178
     3
271
     2
272
     2
284
     8
340
3D
  0
ENDTAB
  0
TABLE
  2
BLOCK_RECORD
  5
1
330
0
100
AcDbSymbolTable
 70
     7
  0
BLOCK_RECORD
  5
1F
330
1
100
AcDbSymbolTableRecord
100
AcDbBlockTableRecord
  2
*Model_Space
340
22
  0
BLOCK_RECORD
  5
1B
330
1
100
AcDbSymbolTableRecord
100
AcDbBlockTableRecord
  2
*Paper_Space
340
1E
  0
BLOCK_RECORD
  5
23
330
1
100
AcDbSymbolTableRecord
100
AcDbBlockTableRecord
  2
*Paper_Space0
340
26
  0
BLOCK_RECORD
  5
3F
330
1
100
AcDbSymbolTableRecord
100
AcDbBlockTableRecord
  2
_CLOSED
340
0
  0
BLOCK_RECORD
  5
48
330
1
100
AcDbSymbolTableRecord
100
AcDbBlockTableRecord
  2
a
340
0
102
{BLKREFS
331
90
102
}
  0
BLOCK_RECORD
  5
91
330
1
100
AcDbSymbolTableRecord
100
AcDbBlockTableRecord
  2
b
340
0
102
{BLKREFS
331
C7
102
}
  0
BLOCK_RECORD
  5
C8
330
1
100
AcDbSymbolTableRecord
100
AcDbBlockTableRecord
  2
c
340
0
102
{BLKREFS
331
EA
102
}
  0
BLOCK_RECORD
  5
EB
330
1
100
AcDbSymbolTableRecord
100
AcDbBlockTableRecord
  2
d
340
0
102
{BLKREFS
331
148
102
}
  0
BLOCK_RECORD
  5
149
330
1
100
AcDbSymbolTableRecord
100
AcDbBlockTableRecord
  2
e
340
0
102
{BLKREFS
331
16D
102
}
  0
ENDTAB
  0
ENDSEC
  0
SECTION
  2
BLOCKS
  0
BLOCK
  5
20
330
1F
100
AcDbEntity
  8
0
100
AcDbBlockBegin
  2
*Model_Space
 70
     0
 10
0.0
 20
0.0
 30
0.0
  3
*Model_Space
  1

  0
ENDBLK
  5
21
330
1F
100
AcDbEntity
  8
0
100
AcDbBlockEnd
  0
BLOCK
  5
1C
330
1B
100
AcDbEntity
 67
     1
  8
0
100
AcDbBlockBegin
  2
*Paper_Space
 70
     0
 10
0.0
 20
0.0
 30
0.0
  3
*Paper_Space
  1

  0
ENDBLK
  5
1D
330
1B
100
AcDbEntity
 67
     1
  8
0
100
AcDbBlockEnd
  0
BLOCK
  5
24
330
23
100
AcDbEntity
  8
0
100
AcDbBlockBegin
  2
*Paper_Space0
 70
     0
 10
0.0
 20
0.0
 30
0.0
  3
*Paper_Space0
  1

  0
ENDBLK
  5
25
330
23
100
AcDbEntity
  8
0
100
AcDbBlockEnd
  0
BLOCK
  5
40
330
3F
100
AcDbEntity
  8
0
100
AcDbBlockBegin
  2
_CLOSED
 70
     0
 10
0.0
 20
0.0
 30
0.0
  3
_CLOSED
  1

  0
LINE
  5
42
330
3F
100
AcDbEntity
  8
0
  6
ByBlock
 62
     0
370
    -2
100
AcDbLine
 10
-1.0
 20
0.166667
 30
0.0
 11
0.0
 21
0.0
 31
0.0
  0
LINE
  5
43
330
3F
100
AcDbEntity
  8
0
  6
ByBlock
 62
     0
370
    -2
100
AcDbLine
 10
0.0
 20
0.0
 30
0.0
 11
-1.0
 21
-0.166667
 31
0.0
  0
LINE
  5
44
330
3F
100
AcDbEntity
  8
0
  6
ByBlock
 62
     0
370
    -2
100
AcDbLine
 10
-1.0
 20
0.166667
 30
0.0
 11
-1.0
 21
-0.166667
 31
0.0
  0
LINE
  5
45
330
3F
100
AcDbEntity
  8
0
  6
ByBlock
 62
     0
370
    -2
100
AcDbLine
 10
0.0
 20
0.0
 30
0.0
 11
-1.0
 21
0.0
 31
0.0
  0
ENDBLK
  5
41
330
3F
100
AcDbEntity
  8
0
100
AcDbBlockEnd
  0
BLOCK
  5
8E
330
48
100
AcDbEntity
  8
0
100
AcDbBlockBegin
  2
a
 70
     0
 10
298.024719
 20
157.701675
 30
0.0
  3
a
  1

  0
LINE
  5
49
330
48
100
AcDbEntity
  8
0
  6
Continuous
 62
     0
370
     0
100
AcDbLine
 10
372.363899
 20
514.4095
 30
0.0
 11
372.363899
 21
505.4095
 31
0.0
  0
LINE
  5
4A
330
48
100
AcDbEntity
  8
0
  6
Continuous
 62
     0
370
     0
100
AcDbLine
 10
372.363899
 20
523.4095
 30
0.0
 11
372.363899
 21
514.4095
 31
0.0
  0
LINE
  5
4B
330
48
100
AcDbEntity
  8
0
  6
Continuous
 62
     0
370
     0
100
AcDbLine
 10
426.363899
 20
514.4095
 30
0.0
 11
426.363899
 21
523.180759
 31
0.0
  0
LINE
  5
4C
330
48
100
AcDbEntity
  8
0
  6
Continuous
 62
     0
370
     0
100
AcDbLine
 10
426.363899
 20
523.180759
 30
0.0
 11
426.363899
 21
523.4095
 31
0.0
  0
LINE
  5
4D
330
48
100
AcDbEntity
  8
0
  6
Continuous
 62
     0
370
     0
100
AcDbLine
 10
426.363899
 20
505.4095
 30
0.0
 11
426.363899
 21
514.4095
 31
0.0
  0
LINE
  5
4E
330
48
100
AcDbEntity
  8
0
  6
Continuous
 62
     0
370
     0
100
AcDbLine
 10
338.363899
 20
548.4095
 30
0.0
 11
329.363899
 21
548.4095
 31
0.0
  0
LINE
  5
4F
330
48
100
AcDbEntity
  8
0
  6
Continuous
 62
     0
370
     0
100
AcDbLine
 10
347.363899
 20
548.4095
 30
0.0
 11
338.363899
 21
548.4095
 31
0.0
  0
LINE
  5
50
330
48
100
AcDbEntity
  8
0
  6
Continuous
 62
     0
370
     0
100
AcDbLine
 10
338.363899
 20
680.4095
 30
0.0
 11
329.363899
 21
680.4095
 31
0.0
  0
LINE
  5
51
330
48
100
AcDbEntity
  8
0
  6
Continuous
 62
     0
370
     0
100
AcDbLine
 10
347.363899
 20
680.4095
 30
0.0
 11
338.363899
 21
680.4095
 31
0.0
  0
LINE
  5
52
330
48
100
AcDbEntity
  8
0
  6
Continuous
 62
     0
370
     0
100
AcDbLine
 10
372.363899
 20
714.4095
 30
0.0
 11
372.363899
 21
723.4095
 31
0.0
  0
LINE
  5
53
330
48
100
AcDbEntity
  8
0
  6
Continuous
 62
     0
370
     0
100
AcDbLine
 10
372.363899
 20
705.4095
 30
0.0
 11
372.363899
 21
714.4095
 31
0.0
  0
LINE
  5
54
330
48
100
AcDbEntity
  8
0
  6
Continuous
 62
     0
370
    30
100
AcDbLine
 10
426.363899
 20
714.4095
 30
0.0
 11
426.363899
 21
723.4095
 31
0.0
  0
LINE
  5
55
330
48
100
AcDbEntity
  8
0
  6
Continuous
 62
     0
370
    30
100
AcDbLine
 10
426.363899
 20
705.4095
 30
0.0
 11
426.363899
 21
714.4095
 31
0.0
  0
LINE
  5
56
330
48
100
AcDbEntity
  8
0
  6
Continuous
 62
     0
370
     0
100
AcDbLine
 10
554.363899
 20
714.4095
 30
0.0
 11
554.363899
 21
723.4095
 31
0.0
  0
LINE
  5
57
330
48
100
AcDbEntity
  8
0
  6
Continuous
 62
     0
370
     0
100
AcDbLine
 10
554.363899
 20
705.4095
 30
0.0
 11
554.363899
 21
714.4095
 31
0.0
  0
LINE
  5
58
330
48
100
AcDbEntity
  8
0
  6
Continuous
 62
     0
370
    30
100
AcDbLine
 10
500.363899
 20
714.4095
 30
0.0
 11
500.363899
 21
705.4095
 31
0.0
  0
LINE
  5
59
330
48
100
AcDbEntity
  8
0
  6
Continuous
 62
     0
370
    30
100
AcDbLine
 10
500.363899
 20
723.4095
 30
0.0
 11
500.363899
 21
714.4095
 31
0.0
  0
LINE
  5
5A
330
48
100
AcDbEntity
  8
0
  6
Continuous
 62
     0
370
     0
100
AcDbLine
 10
588.363899
 20
680.4095
 30
0.0
 11
597.363899
 21
680.4095
 31
0.0
  0
LINE
  5
5B
330
48
100
AcDbEntity
  8
0
  6
Continuous
 62
     0
370
     0
100
AcDbLine
 10
579.363899
 20
680.4095
 30
0.0
 11
588.363899
 21
680.4095
 31
0.0
  0
LINE
  5
5C
330
48
100
AcDbEntity
  8
0
  6
Continuous
 62
     0
370
     0
100
AcDbLine
 10
588.363899
 20
548.4095
 30
0.0
 11
597.363899
 21
548.4095
 31
0.0
  0
LINE
  5
5D
330
48
100
AcDbEntity
  8
0
  6
Continuous
 62
     0
370
     0
100
AcDbLine
 10
579.363899
 20
548.4095
 30
0.0
 11
588.363899
 21
548.4095
 31
0.0
  0
LINE
  5
5E
330
48
100
AcDbEntity
  8
0
  6
Continuous
 62
     0
370
     0
100
AcDbLine
 10
554.363899
 20
514.4095
 30
0.0
 11
554.363899
 21
505.4095
 31
0.0
  0
LINE
  5
5F
330
48
100
AcDbEntity
  8
0
  6
Continuous
 62
     0
370
     0
100
AcDbLine
 10
554.363899
 20
523.4095
 30
0.0
 11
554.363899
 21
514.4095
 31
0.0
  0
LINE
  5
60
330
48
100
AcDbEntity
  8
0
  6
Continuous
 62
     0
370
     0
100
AcDbLine
 10
500.363899
 20
514.4095
 30
0.0
 11
500.363899
 21
505.4095
 31
0.0
  0
LINE
  5
61
330
48
100
AcDbEntity
  8
0
  6
Continuous
 62
     0
370
     0
100
AcDbLine
 10
500.363899
 20
523.4095
 30
0.0
 11
500.363899
 21
523.180759
 31
0.0
  0
LINE
  5
62
330
48
100
AcDbEntity
  8
0
  6
Continuous
 62
     0
370
     0
100
AcDbLine
 10
500.363899
 20
523.180759
 30
0.0
 11
500.363899
 21
514.4095
 31
0.0
  0
LINE
  5
63
330
48
100
AcDbEntity
  8
0
  6
Continuous
 62
     0
370
     0
100
AcDbLine
 10
463.363899
 20
723.409358
 30
0.0
 11
463.460656
 21
723.409501
 31
0.0
  0
LINE
  5
64
330
48
100
AcDbEntity
  8
0
  6
Continuous
 62
     0
370
    30
100
AcDbLine
 10
463.363899
 20
723.409358
 30
0.0
 11
463.459347
 21
723.409868
 31
0.0
  0
LINE
  5
65
330
48
100
AcDbEntity
  8
0
  6
Continuous
 62
     0
370
     0
100
AcDbLine
 10
463.26845
 20
723.4095
 30
0.0
 11
463.363899
 21
723.409358
 31
0.0
  0
LINE
  5
66
330
48
100
AcDbEntity
  8
0
  6
Continuous
 62
     0
370
     0
100
AcDbLine
 10
463.26845
 20
723.409865
 30
0.0
 11
463.363899
 21
723.409358
 31
0.0
  0
LINE
  5
67
330
48
100
AcDbEntity
  8
0
  6
Continuous
 62
     0
370
     0
100
AcDbLine
 10
426.863899
 20
714.358968
 30
0.0
 11
426.863899
 21
705.4095
 31
0.0
  0
LINE
  5
68
330
48
100
AcDbEntity
  8
0
  6
Continuous
 62
     0
370
     0
100
AcDbLine
 10
426.863899
 20
723.4095
 30
0.0
 11
426.863899
 21
714.358968
 31
0.0
  0
LINE
  5
69
330
48
100
AcDbEntity
  8
0
  6
Continuous
 62
     0
370
     0
100
AcDbLine
 10
499.863899
 20
723.4095
 30
0.0
 11
499.863899
 21
714.358968
 31
0.0
  0
LINE
  5
6A
330
48
100
AcDbEntity
  8
0
  6
Continuous
 62
     0
370
     0
100
AcDbLine
 10
499.863899
 20
714.358968
 30
0.0
 11
499.863899
 21
705.4095
 31
0.0
  0
ARC
  5
6B
330
48
100
AcDbEntity
  8
0
  6
Continuous
 62
     0
370
     0
100
AcDbCircle
 10
463.363899
 20
714.782597
 30
0.0
 40
9.000135979715763
100
AcDbArc
 50
73.441719
 51
106.558281
  0
ARC
  5
6C
330
48
100
AcDbEntity
  8
0
  6
Continuous
 62
     0
370
    30
100
AcDbCircle
 10
463.363899
 20
714.810339
 30
0.0
 40
30.00013553715652
100
AcDbArc
 50
16.656748
 51
163.343252
  0
ARC
  5
6D
330
48
100
AcDbEntity
  8
0
  6
Continuous
 62
     0
370
     0
100
AcDbCircle
 10
463.363899
 20
714.78788
 30
0.0
 40
30.000135893822
100
AcDbArc
 50
16.701525
 51
163.298475
  0
ARC
  5
6E
330
48
100
AcDbEntity
  8
0
  6
Continuous
 62
     0
370
     0
100
AcDbCircle
 10
463.363899
 20
714.785081
 30
0.0
 40
29.50013593524831
100
AcDbArc
 50
16.99881
 51
163.00119
  0
ARC
  5
6F
330
48
100
AcDbEntity
  8
0
  6
Continuous
 62
     0
370
     0
100
AcDbCircle
 10
463.363899
 20
714.786295
 30
0.0
 40
29.50014779378542
100
AcDbArc
 50
198.533305
 51
341.466695
  0
ARC
  5
70
330
48
100
AcDbEntity
  8
0
  6
Continuous
 62
     0
370
    30
100
AcDbCircle
 10
463.363993
 20
714.788986
 30
0.0
 40
30.00003822836953
100
AcDbArc
 50
198.218952
 51
341.781048
  0
ARC
  5
71
330
48
100
AcDbEntity
  8
0
  6
Continuous
 62
     0
370
    30
100
AcDbCircle
 10
499.863896
 20
705.909504
 30
0.0
 40
0.5000034303438747
100
AcDbArc
 50
270.000393
 51
359.999604
  0
ARC
  5
72
330
48
100
AcDbEntity
  8
0
  6
Continuous
 62
     0
370
    30
100
AcDbCircle
 10
499.863896
 20
722.909496
 30
0.0
 40
0.5000034302256724
100
AcDbArc
 50
0.000396
 51
89.999607
  0
LINE
  5
73
330
48
100
AcDbEntity
  8
0
  6
Continuous
 62
     0
370
    30
100
AcDbLine
 10
426.863899
 20
705.4095
 30
0.0
 11
499.863899
 21
705.4095
 31
0.0
  0
LINE
  5
74
330
48
100
AcDbEntity
  8
0
  6
Continuous
 62
     0
370
    30
100
AcDbLine
 10
426.863899
 20
723.4095
 30
0.0
 11
463.26845
 21
723.4095
 31
0.0
  0
LINE
  5
75
330
48
100
AcDbEntity
  8
0
  6
Continuous
 62
     0
370
    30
100
AcDbLine
 10
463.459347
 20
723.4095
 30
0.0
 11
499.863899
 21
723.4095
 31
0.0
  0
ARC
  5
76
330
48
100
AcDbEntity
  8
0
  6
Continuous
 62
     0
370
    30
100
AcDbCircle
 10
426.863903
 20
722.909496
 30
0.0
 40
0.5000034302233276
100
AcDbArc
 50
90.000393
 51
179.999604
  0
ARC
  5
77
330
48
100
AcDbEntity
  8
0
  6
Continuous
 62
     0
370
    30
100
AcDbCircle
 10
426.863902
 20
705.909503
 30
0.0
 40
0.5000027587715484
100
AcDbArc
 50
180.011778
 51
269.999684
  0
LINE
  5
78
330
48
100
AcDbEntity
  8
0
  6
Continuous
 62
     0
370
    30
100
AcDbLine
 10
426.363899
 20
505.4095
 30
0.0
 11
500.363899
 21
505.4095
 31
0.0
  0
LINE
  5
79
330
48
100
AcDbEntity
  8
0
  6
Continuous
 62
     0
370
    30
100
AcDbLine
 10
426.363899
 20
523.4095
 30
0.0
 11
500.363899
 21
523.4095
 31
0.0
  0
LINE
  5
7A
330
48
100
AcDbEntity
  8
0
  6
Continuous
 62
     0
370
    30
100
AcDbLine
 10
500.363899
 20
505.4095
 30
0.0
 11
554.363899
 21
505.4095
 31
0.0
  0
LINE
  5
7B
330
48
100
AcDbEntity
  8
0
  6
Continuous
 62
     0
370
    30
100
AcDbLine
 10
500.363899
 20
523.4095
 30
0.0
 11
554.363899
 21
523.4095
 31
0.0
  0
ARC
  5
7C
330
48
100
AcDbEntity
  8
0
  6
Continuous
 62
     0
370
    30
100
AcDbCircle
 10
554.363898
 20
548.409501
 30
0.0
 40
25.00000087778581
100
AcDbArc
 50
270.000002
 51
359.999998
  0
ARC
  5
7D
330
48
100
AcDbEntity
  8
0
  6
Continuous
 62
     0
370
    30
100
AcDbCircle
 10
554.363898
 20
548.409501
 30
0.0
 40
43.00000122323176
100
AcDbArc
 50
270.000002
 51
359.999998
  0
LINE
  5
7E
330
48
100
AcDbEntity
  8
0
  6
Continuous
 62
     0
370
    30
100
AcDbLine
 10
597.363899
 20
548.4095
 30
0.0
 11
597.363899
 21
680.4095
 31
0.0
  0
LINE
  5
7F
330
48
100
AcDbEntity
  8
0
  6
Continuous
 62
     0
370
    30
100
AcDbLine
 10
579.363899
 20
548.4095
 30
0.0
 11
579.363899
 21
680.4095
 31
0.0
  0
ARC
  5
80
330
48
100
AcDbEntity
  8
0
  6
Continuous
 62
     0
370
    30
100
AcDbCircle
 10
554.363898
 20
680.409499
 30
0.0
 40
25.00000087362401
100
AcDbArc
 50
0.000002
 51
89.999998
  0
ARC
  5
81
330
48
100
AcDbEntity
  8
0
  6
Continuous
 62
     0
370
    30
100
AcDbCircle
 10
554.363898
 20
680.409499
 30
0.0
 40
43.00000121906992
100
AcDbArc
 50
0.000002
 51
89.999998
  0
LINE
  5
82
330
48
100
AcDbEntity
  8
0
  6
Continuous
 62
     0
370
    30
100
AcDbLine
 10
554.363899
 20
723.4095
 30
0.0
 11
500.363899
 21
723.4095
 31
0.0
  0
LINE
  5
83
330
48
100
AcDbEntity
  8
0
  6
Continuous
 62
     0
370
    30
100
AcDbLine
 10
554.363899
 20
705.4095
 30
0.0
 11
500.363899
 21
705.4095
 31
0.0
  0
LINE
  5
84
330
48
100
AcDbEntity
  8
0
  6
Continuous
 62
     0
370
    30
100
AcDbLine
 10
426.363899
 20
723.4095
 30
0.0
 11
372.363899
 21
723.4095
 31
0.0
  0
LINE
  5
85
330
48
100
AcDbEntity
  8
0
  6
Continuous
 62
     0
370
    30
100
AcDbLine
 10
426.363899
 20
705.4095
 30
0.0
 11
372.363899
 21
705.4095
 31
0.0
  0
ARC
  5
86
330
48
100
AcDbEntity
  8
0
  6
Continuous
 62
     0
370
    30
100
AcDbCircle
 10
372.3639
 20
680.409499
 30
0.0
 40
43.00000122323159
100
AcDbArc
 50
90.000002
 51
179.999998
  0
ARC
  5
87
330
48
100
AcDbEntity
  8
0
  6
Continuous
 62
     0
370
    30
100
AcDbCircle
 10
372.3639
 20
680.409499
 30
0.0
 40
25.00000087778561
100
AcDbArc
 50
90.000002
 51
179.999998
  0
LINE
  5
88
330
48
100
AcDbEntity
  8
0
  6
Continuous
 62
     0
370
    30
100
AcDbLine
 10
329.363899
 20
680.4095
 30
0.0
 11
329.363899
 21
548.4095
 31
0.0
  0
LINE
  5
89
330
48
100
AcDbEntity
  8
0
  6
Continuous
 62
     0
370
    30
100
AcDbLine
 10
347.363899
 20
680.4095
 30
0.0
 11
347.363899
 21
548.4095
 31
0.0
  0
ARC
  5
8A
330
48
100
AcDbEntity
  8
0
  6
Continuous
 62
     0
370
    30
100
AcDbCircle
 10
372.3639
 20
548.409501
 30
0.0
 40
43.00000121906997
100
AcDbArc
 50
180.000002
 51
269.999998
  0
ARC
  5
8B
330
48
100
AcDbEntity
  8
0
  6
Continuous
 62
     0
370
    30
100
AcDbCircle
 10
372.3639
 20
548.409501
 30
0.0
 40
25.00000087362405
100
AcDbArc
 50
180.000002
 51
269.999998
  0
LINE
  5
8C
330
48
100
AcDbEntity
  8
0
  6
Continuous
 62
     0
370
    30
100
AcDbLine
 10
372.363899
 20
505.4095
 30
0.0
 11
426.363899
 21
505.4095
 31
0.0
  0
LINE
  5
8D
330
48
100
AcDbEntity
  8
0
  6
Continuous
 62
     0
370
    30
100
AcDbLine
 10
372.363899
 20
523.4095
 30
0.0
 11
426.363899
 21
523.4095
 31
0.0
  0
ENDBLK
  5
8F
330
48
100
AcDbEntity
  8
0
100
AcDbBlockEnd
  0
BLOCK
  5
C5
330
91
100
AcDbEntity
  8
0
100
AcDbBlockBegin
  2
b
 70
     0
 10
298.024719
 20
157.701675
 30
0.0
  3
b
  1

  0
ARC
  5
92
330
91
100
AcDbEntity
  8
0
  6
Continuous
 62
     0
370
    30
100
AcDbCircle
 10
338.363903
 20
157.189495
 30
0.0
 40
9.0
100
AcDbArc
 50
90.0
 51
270.0
  0
LWPOLYLINE
  5
93
330
91
100
AcDbEntity
  8
0
  6
Continuous
 62
     0
370
    30
100
AcDbPolyline
 90
       25
 70
     0
 43
0.0
 10
338.363892
 20
148.189499
 10
338.424164
 20
148.189499
 10
338.610352
 20
148.189499
 10
338.92984
 20
148.189499
 10
339.388916
 20
148.189499
 10
339.992523
 20
148.189499
 10
340.743927
 20
148.189499
 10
341.644623
 20
148.189499
 10
342.694061
 20
148.189499
 10
343.889557
 20
148.189499
 10
345.226318
 20
148.189499
 10
346.697327
 20
148.189499
 10
348.293549
 20
148.189499
 10
350.004089
 20
148.189499
 10
351.816437
 20
148.189499
 10
353.716705
 20
148.189499
 10
355.690094
 20
148.189499
 10
357.721191
 20
148.189499
 10
359.794312
 20
148.189499
 10
361.893982
 20
148.189499
 10
364.005066
 20
148.189499
 10
366.113342
 20
148.189499
 10
368.205505
 20
148.189499
 10
370.26947
 20
148.189499
 10
372.363892
 20
148.189499
  0
LWPOLYLINE
  5
94
330
91
100
AcDbEntity
  8
0
  6
Continuous
 62
     0
370
     0
100
AcDbPolyline
 90
       25
 70
     0
 43
0.0
 10
372.363892
 20
148.189499
 10
372.363892
 20
148.254898
 10
372.363892
 20
148.461533
 10
372.363892
 20
148.821167
 10
372.363892
 20
149.33873
 10
372.363892
 20
150.010727
 10
372.363892
 20
150.8246
 10
372.363892
 20
151.759186
 10
372.363892
 20
152.786606
 10
372.363892
 20
153.874863
 10
372.363892
 20
154.991028
 10
372.363892
 20
156.104095
 10
372.363892
 20
157.187225
 10
372.363892
 20
158.270187
 10
372.363892
 20
159.383179
 10
372.363892
 20
160.49939
 10
372.363892
 20
161.587845
 10
372.363892
 20
162.615585
 10
372.363892
 20
163.550644
 10
372.363892
 20
164.365067
 10
372.363892
 20
165.03772
 10
372.363892
 20
165.555954
 10
372.363892
 20
165.916245
 10
372.363892
 20
166.12352
 10
372.363892
 20
166.189499
  0
LINE
  5
95
330
91
100
AcDbEntity
  8
0
  6
Continuous
 62
     0
370
    30
100
AcDbLine
 10
372.363903
 20
148.189493
 30
0.0
 11
426.363903
 21
148.189493
 31
0.0
  0
LINE
  5
96
330
91
100
AcDbEntity
  8
0
  6
Continuous
 62
     0
370
    30
100
AcDbLine
 10
426.363903
 20
148.189493
 30
0.0
 11
426.363903
 21
166.189493
 31
0.0
  0
LINE
  5
97
330
91
100
AcDbEntity
  8
0
  6
Continuous
 62
     0
370
    30
100
AcDbLine
 10
500.363903
 20
148.189493
 30
0.0
 11
554.363903
 21
148.189493
 31
0.0
  0
LINE
  5
98
330
91
100
AcDbEntity
  8
0
  6
Continuous
 62
     0
370
     0
100
AcDbLine
 10
554.363903
 20
148.189493
 30
0.0
 11
554.363903
 21
166.189493
 31
0.0
  0
LINE
  5
99
330
91
100
AcDbEntity
  8
0
  6
Continuous
 62
     0
370
    30
100
AcDbLine
 10
500.363903
 20
166.189493
 30
0.0
 11
500.363903
 21
148.189493
 31
0.0
  0
LINE
  5
9A
330
91
100
AcDbEntity
  8
0
  6
Continuous
 62
     0
370
    30
100
AcDbLine
 10
554.363903
 20
148.189493
 30
0.0
 11
588.363903
 21
148.189495
 31
0.0
  0
ARC
  5
9B
330
91
100
AcDbEntity
  8
0
  6
Continuous
 62
     0
370
    30
100
AcDbCircle
 10
588.363903
 20
157.189495
 30
0.0
 40
8.999999999999993
100
AcDbArc
 50
270.0
 51
90.0
  0
LWPOLYLINE
  5
9C
330
91
100
AcDbEntity
  8
0
  6
Continuous
 62
     0
370
     0
100
AcDbPolyline
 90
       22
 70
     0
 43
0.0
 10
463.363892
 20
157.138962
 10
464.456451
 20
157.717468
 10
465.546783
 20
158.294998
 10
466.632416
 20
158.87027
 10
467.710907
 20
159.441971
 10
468.779846
 20
160.008804
 10
469.836395
 20
160.569321
 10
470.87738
 20
161.121826
 10
471.899353
 20
161.66449
 10
472.89798
 20
162.195023
 10
473.868835
 20
162.711105
 10
474.806488
 20
163.209869
 10
475.704681
 20
163.687988
 10
476.555542
 20
164.141327
 10
477.350525
 20
164.565338
 10
478.079407
 20
164.95462
 10
478.730316
 20
165.302917
 10
479.290497
 20
165.603409
 10
479.746185
 20
165.848831
 10
480.083893
 20
166.031982
 10
480.292145
 20
166.146744
 10
480.363892
 20
166.189346
  0
ARC
  5
9D
330
91
100
AcDbEntity
  8
0
  6
Continuous
 62
     0
370
    30
100
AcDbCircle
 10
480.36384
 20
174.189288
 30
0.0
 40
7.999936950599722
100
AcDbArc
 50
180.000452
 51
270.000452
  0
LWPOLYLINE
  5
9E
330
91
100
AcDbEntity
  8
0
  6
Continuous
 62
     0
370
     0
100
AcDbPolyline
 90
       22
 70
     0
 43
0.0
 10
463.363892
 20
157.138962
 10
463.942322
 20
158.231613
 10
464.519531
 20
159.32222
 10
465.094299
 20
160.408356
 10
465.665253
 20
161.487564
 10
466.23114
 20
162.557434
 10
466.790497
 20
163.615128
 10
467.341614
 20
164.657501
 10
467.88266
 20
165.681076
 10
468.411346
 20
166.681549
 10
468.925323
 20
167.65448
 10
469.421722
 20
168.594498
 10
469.897217
 20
169.49527
 10
470.347687
 20
170.34903
 10
470.768585
 20
171.147141
 10
471.154449
 20
171.87941
 10
471.499054
 20
172.534027
 10
471.795624
 20
173.098129
 10
472.036865
 20
173.557999
 10
472.215668
 20
173.900085
 10
472.325897
 20
174.112839
 10
472.363892
 20
174.189224
  0
LWPOLYLINE
  5
9F
330
91
100
AcDbEntity
  8
0
  6
Continuous
 62
     0
370
     0
100
AcDbPolyline
 90
       22
 70
     0
 43
0.0
 10
446.364288
 20
166.189438
 10
446.425964
 20
166.152191
 10
446.626099
 20
166.041702
 10
446.957153
 20
165.862045
 10
447.407532
 20
165.619431
 10
447.963959
 20
165.320877
 10
448.612549
 20
164.973801
 10
449.34021
 20
164.585129
 10
450.13504
 20
164.161148
 10
450.986603
 20
163.707443
 10
451.885712
 20
163.228806
 10
452.825226
 20
162.72905
 10
453.798523
 20
162.21167
 10
454.799652
 20
161.679794
 10
455.82431
 20
161.135681
 10
456.868561
 20
160.581451
 10
457.928436
 20
160.01918
 10
459.000793
 20
159.4505
 10
460.082916
 20
158.876877
 10
461.17215
 20
158.299698
 10
462.266022
 20
157.720291
 10
463.363892
 20
157.138962
  0
LWPOLYLINE
  5
A0
330
91
100
AcDbEntity
  8
0
  6
Continuous
 62
     0
370
     0
100
AcDbPolyline
 90
       22
 70
     0
 43
0.0
 10
454.363953
 20
174.189133
 10
454.401031
 20
174.114532
 10
454.510742
 20
173.902786
 10
454.689056
 20
173.56163
 10
454.929749
 20
173.102798
 10
455.225891
 20
172.539474
 10
455.57016
 20
171.885483
 10
455.95578
 20
171.153702
 10
456.376465
 20
170.355911
 10
456.826813
 20
169.502396
 10
457.302032
 20
168.602142
 10
457.798401
 20
167.662231
 10
458.312439
 20
166.689178
 10
458.841064
 20
165.688843
 10
459.382019
 20
164.665405
 10
459.933228
 20
163.622849
 10
460.492645
 20
162.565033
 10
461.058594
 20
161.495056
 10
461.6297
 20
160.415604
 10
462.204498
 20
159.329315
 10
462.781769
 20
158.238647
 10
463.363892
 20
157.138962
  0
LINE
  5
A1
330
91
100
AcDbEntity
  8
0
  6
Continuous
 62
     0
370
     0
100
AcDbLine
 10
426.863903
 20
166.189351
 30
0.0
 11
426.863903
 21
148.189493
 31
0.0
  0
LINE
  5
A2
330
91
100
AcDbEntity
  8
0
  6
Continuous
 62
     0
370
     0
100
AcDbLine
 10
499.863903
 20
166.189351
 30
0.0
 11
499.863903
 21
148.189493
 31
0.0
  0
LINE
  5
A3
330
91
100
AcDbEntity
  8
0
  6
Continuous
 62
     0
370
    30
100
AcDbLine
 10
472.363903
 20
223.688445
 30
0.0
 11
472.363903
 21
174.189225
 31
0.0
  0
ELLIPSE
  5
A4
330
91
100
AcDbEntity
  8
0
  6
Continuous
 62
     0
370
     0
100
AcDbEllipse
 10
463.363903
 20
223.688445
 30
0.0
 11
-9.0
 21
0.0
 31
0.0
210
0.0
220
0.0
230
1.0
 40
0.005615
 41
6.283185307179586
 42
9.42477796076938
  0
ARC
  5
A5
330
91
100
AcDbEntity
  8
0
  6
Continuous
 62
     0
370
    30
100
AcDbCircle
 10
471.863915
 20
223.688444
 30
0.0
 40
0.4999878388288344
100
AcDbArc
 50
0.000067
 51
43.159465
  0
LWPOLYLINE
  5
A6
330
91
100
AcDbEntity
  8
0
  6
Continuous
 62
     0
370
     0
100
AcDbPolyline
 90
       45
 70
     0
 43
0.0
 10
493.267029
 20
228.674835
 10
493.046844
 20
228.66394
 10
492.690552
 20
228.652878
 10
492.190765
 20
228.641724
 10
491.54184
 20
228.630554
 10
490.739899
 20
228.619476
 10
489.783386
 20
228.608566
 10
488.673187
 20
228.597931
 10
487.412842
 20
228.587662
 10
486.008514
 20
228.577881
 10
484.469147
 20
228.568665
 10
482.80603
 20
228.560089
 10
481.032806
 20
228.552246
 10
479.164948
 20
228.545181
 10
477.21933
 20
228.538971
 10
475.213776
 20
228.533615
 10
473.166443
 20
228.529175
 10
471.095428
 20
228.52562
 10
469.01825
 20
228.522949
 10
466.951447
 20
228.521133
 10
464.910156
 20
228.520142
 10
462.90802
 20
228.519943
 10
460.956818
 20
228.520462
 10
459.01593
 20
228.521698
 10
457.045471
 20
228.523697
 10
455.058624
 20
228.526505
 10
453.070068
 20
228.530151
 10
451.095795
 20
228.534653
 10
449.152802
 20
228.540024
 10
447.258667
 20
228.546249
 10
445.431152
 20
228.553329
 10
443.687683
 20
228.561218
 10
442.044891
 20
228.569855
 10
440.518005
 20
228.579193
 10
439.120483
 20
228.589157
 10
437.863617
 20
228.59964
 10
436.756195
 20
228.610565
 10
435.804291
 20
228.621826
 10
435.011322
 20
228.633316
 10
434.377869
 20
228.644943
 10
433.901978
 20
228.656601
 10
433.579437
 20
228.668213
 10
433.40387
 20
228.679672
 10
433.36734
 20
228.690918
 10
433.460785
 20
228.701889
  0
LWPOLYLINE
  5
A7
330
91
100
AcDbEntity
  8
0
  6
Continuous
 62
     0
370
     0
100
AcDbPolyline
 90
        3
 70
     0
 43
0.0
 10
493.363892
 20
228.68837
 10
493.362823
 20
228.686935
 10
493.267029
 20
228.674835
  0
LWPOLYLINE
  5
A8
330
91
100
AcDbEntity
  8
0
  6
Continuous
 62
     0
370
     0
100
AcDbPolyline
 90
       45
 70
     0
 43
0.0
 10
492.768646
 20
229.175064
 10
492.860474
 20
229.185822
 10
492.824829
 20
229.196884
 10
492.652588
 20
229.208145
 10
492.335876
 20
229.219559
 10
491.8685
 20
229.231018
 10
491.246216
 20
229.242447
 10
490.467102
 20
229.253754
 10
489.53183
 20
229.264832
 10
488.443634
 20
229.275574
 10
487.208496
 20
229.285873
 10
485.835083
 20
229.29567
 10
484.334473
 20
229.304855
 10
482.719818
 20
229.313354
 10
481.006195
 20
229.321106
 10
479.209869
 20
229.328064
 10
477.347931
 20
229.334198
 10
475.437897
 20
229.339478
 10
473.49704
 20
229.343918
 10
471.542053
 20
229.347504
 10
469.588654
 20
229.350266
 10
467.651276
 20
229.352234
 10
465.742889
 20
229.353455
 10
463.824951
 20
229.353973
 10
461.856842
 20
229.353775
 10
459.85022
 20
229.352814
 10
457.818359
 20
229.351044
 10
455.776245
 20
229.348419
 10
453.740051
 20
229.344925
 10
451.72699
 20
229.340561
 10
449.754822
 20
229.335312
 10
447.841461
 20
229.329208
 10
446.004395
 20
229.322281
 10
444.260223
 20
229.314575
 10
442.624176
 20
229.306152
 10
441.109619
 20
229.297089
 10
439.727753
 20
229.28746
 10
438.487305
 20
229.27739
 10
437.394409
 20
229.266937
 10
436.452576
 20
229.25621
 10
435.662689
 20
229.245316
 10
435.023193
 20
229.234329
 10
434.530365
 20
229.223373
 10
434.178619
 20
229.212494
 10
433.959167
 20
229.20166
  0
LWPOLYLINE
  5
A9
330
91
100
AcDbEntity
  8
0
  6
Continuous
 62
     0
370
     0
100
AcDbPolyline
 90
       45
 70
     0
 43
0.0
 10
433.959167
 20
229.20166
 10
433.86734
 20
229.190887
 10
433.902954
 20
229.17984
 10
434.075195
 20
229.168564
 10
434.391907
 20
229.157166
 10
434.859314
 20
229.145691
 10
435.481598
 20
229.134262
 10
436.260712
 20
229.122955
 10
437.195984
 20
229.111893
 10
438.28418
 20
229.101151
 10
439.519318
 20
229.090836
 10
440.8927
 20
229.081039
 10
442.393341
 20
229.071869
 10
444.007965
 20
229.06337
 10
445.721619
 20
229.055603
 10
447.517944
 20
229.048645
 10
449.379852
 20
229.042511
 10
451.289886
 20
229.037231
 10
453.230743
 20
229.032806
 10
455.18576
 20
229.029221
 10
457.13916
 20
229.026459
 10
459.076538
 20
229.02449
 10
460.984924
 20
229.02327
 10
462.902863
 20
229.022751
 10
464.870941
 20
229.022934
 10
466.877594
 20
229.023911
 10
468.909424
 20
229.025681
 10
470.951569
 20
229.02829
 10
472.987762
 20
229.031784
 10
475.000824
 20
229.036163
 10
476.972992
 20
229.041397
 10
478.886353
 20
229.047516
 10
480.723389
 20
229.054443
 10
482.46756
 20
229.062149
 10
484.103638
 20
229.070572
 10
485.618195
 20
229.079636
 10
487.000061
 20
229.089249
 10
488.240509
 20
229.099335
 10
489.333374
 20
229.109787
 10
490.275238
 20
229.120514
 10
491.065125
 20
229.131409
 10
491.70462
 20
229.14238
 10
492.197449
 20
229.153351
 10
492.549164
 20
229.16423
 10
492.768646
 20
229.175064
  0
ELLIPSE
  5
AA
330
91
100
AcDbEntity
  8
0
  6
Continuous
 62
     0
370
     0
100
AcDbEllipse
 10
463.363903
 20
224.688429
 30
0.0
 11
-30.0
 21
1.593802315920736E-16
 31
0.0
210
0.0
220
0.0
230
1.0
 40
0.005615
 41
6.283185307179587
 42
9.344390174124056
  0
ELLIPSE
  5
AB
330
91
100
AcDbEntity
  8
0
  6
Continuous
 62
     0
370
     0
100
AcDbEllipse
 10
463.363903
 20
224.688429
 30
0.0
 11
-30.0
 21
1.593802315920736E-16
 31
0.0
210
0.0
220
0.0
230
1.0
 40
0.005615
 41
3.06120486694447
 42
3.141592653589794
  0
LWPOLYLINE
  5
AC
330
91
100
AcDbEntity
  8
0
  6
Continuous
 62
     0
370
     0
100
AcDbPolyline
 90
       45
 70
     0
 43
0.0
 10
492.768646
 20
224.17514
 10
492.552185
 20
224.164429
 10
492.201935
 20
224.153549
 10
491.710663
 20
224.142578
 10
491.072754
 20
224.131607
 10
490.284485
 20
224.120697
 10
489.344269
 20
224.10997
 10
488.252991
 20
224.099518
 10
487.014099
 20
224.089432
 10
485.633667
 20
224.079803
 10
484.120483
 20
224.07074
 10
482.485657
 20
224.062317
 10
480.742554
 20
224.054596
 10
478.906403
 20
224.047653
 10
476.993774
 20
224.04155
 10
475.022156
 20
224.036285
 10
473.00943
 20
224.031906
 10
470.973389
 20
224.028412
 10
468.931244
 20
224.025787
 10
466.8992
 20
224.024002
 10
464.892212
 20
224.023026
 10
462.923645
 20
224.022827
 10
461.005127
 20
224.023331
 10
459.097107
 20
224.024551
 10
457.159973
 20
224.026505
 10
455.206665
 20
224.029266
 10
453.251617
 20
224.032837
 10
451.310516
 20
224.037262
 10
449.400055
 20
224.042542
 10
447.537537
 20
224.04866
 10
445.740417
 20
224.055603
 10
444.025787
 20
224.063354
 10
442.410034
 20
224.071854
 10
440.908112
 20
224.081024
 10
439.533264
 20
224.090805
 10
438.296631
 20
224.10112
 10
437.206818
 20
224.111847
 10
436.269867
 20
224.122925
 10
435.489105
 20
224.134216
 10
434.865143
 20
224.145645
 10
434.396118
 20
224.15712
 10
434.07782
 20
224.168533
 10
433.904083
 20
224.179794
 10
433.867035
 20
224.190857
 10
433.959167
 20
224.201736
  0
LWPOLYLINE
  5
AD
330
91
100
AcDbEntity
  8
0
  6
Continuous
 62
     0
370
    30
100
AcDbPolyline
 90
       44
 70
     0
 43
0.0
 10
433.363892
 20
224.688431
 10
433.874176
 20
224.180328
 10
434.111542
 20
224.166565
 10
434.489746
 20
224.154312
 10
435.020325
 20
224.14241
 10
435.702759
 20
224.130814
 10
436.53418
 20
224.119537
 10
437.510437
 20
224.108627
 10
438.626373
 20
224.098175
 10
439.876068
 20
224.088196
 10
441.252747
 20
224.078781
 10
442.749054
 20
224.069946
 10
444.356903
 20
224.061752
 10
446.067535
 20
224.054245
 10
447.871826
 20
224.04747
 10
449.759979
 20
224.041458
 10
451.72168
 20
224.03624
 10
453.746429
 20
224.031845
 10
455.823242
 20
224.028305
 10
457.940887
 20
224.02562
 10
460.08783
 20
224.023819
 10
462.252533
 20
224.022919
 10
464.423218
 20
224.022903
 10
466.588196
 20
224.023788
 10
468.735657
 20
224.025558
 10
470.854095
 20
224.028229
 10
472.932037
 20
224.031754
 10
474.95816
 20
224.036118
 10
476.921539
 20
224.041321
 10
478.811523
 20
224.047318
 10
480.61792
 20
224.054077
 10
482.330963
 20
224.061569
 10
483.941376
 20
224.069733
 10
485.44046
 20
224.078552
 10
486.820129
 20
224.087967
 10
488.072906
 20
224.097931
 10
489.192169
 20
224.108383
 10
490.171844
 20
224.119263
 10
491.006836
 20
224.130539
 10
491.69281
 20
224.142136
 10
492.227142
 20
224.154022
 10
492.608856
 20
224.16626
 10
492.849182
 20
224.179947
 10
493.363892
 20
224.688431
  0
LINE
  5
AE
330
91
100
AcDbEntity
  8
0
  6
Continuous
 62
     0
370
    30
100
AcDbLine
 10
433.363903
 20
224.688429
 30
0.0
 11
433.363903
 21
228.688366
 31
0.0
  0
LINE
  5
AF
330
91
100
AcDbEntity
  8
0
  6
Continuous
 62
     0
370
    30
100
AcDbLine
 10
493.363903
 20
224.688429
 30
0.0
 11
493.363903
 21
228.688366
 31
0.0
  0
LWPOLYLINE
  5
B0
330
91
100
AcDbEntity
  8
0
  6
Continuous
 62
     0
370
    30
100
AcDbPolyline
 90
       42
 70
     0
 43
0.0
 10
433.924408
 20
229.200455
 10
434.200897
 20
229.213654
 10
434.63031
 20
229.226028
 10
435.217926
 20
229.238052
 10
435.962219
 20
229.249771
 10
436.859955
 20
229.261124
 10
437.906067
 20
229.272079
 10
439.094879
 20
229.282547
 10
440.419891
 20
229.292496
 10
441.873566
 20
229.301849
 10
443.447998
 20
229.310562
 10
445.134155
 20
229.318588
 10
446.922455
 20
229.325897
 10
448.803162
 20
229.332413
 10
450.765625
 20
229.338135
 10
452.798859
 20
229.343018
 10
454.891388
 20
229.347015
 10
457.031494
 20
229.350143
 10
459.207123
 20
229.352341
 10
461.406128
 20
229.353638
 10
463.616089
 20
229.353989
 10
465.824677
 20
229.353424
 10
468.01944
 20
229.351929
 10
470.188049
 20
229.349503
 10
472.318298
 20
229.346191
 10
474.398315
 20
229.34198
 10
476.416382
 20
229.336914
 10
478.361145
 20
229.330994
 10
480.221741
 20
229.324295
 10
481.987701
 20
229.316818
 10
483.649109
 20
229.30864
 10
485.196655
 20
229.299759
 10
486.621735
 20
229.290268
 10
487.91629
 20
229.280197
 10
489.073151
 20
229.269623
 10
490.085876
 20
229.258575
 10
490.948975
 20
229.247131
 10
491.657928
 20
229.235336
 10
492.209442
 20
229.223236
 10
492.602814
 20
229.21077
 10
492.848846
 20
229.196899
 10
493.363892
 20
228.68837
  0
LWPOLYLINE
  5
B1
330
91
100
AcDbEntity
  8
0
  6
Continuous
 62
     0
370
    30
100
AcDbPolyline
 90
       11
 70
     0
 43
0.0
 10
433.363892
 20
228.68837
 10
433.426849
 20
228.931458
 10
433.577179
 20
229.098648
 10
433.699615
 20
229.161987
 10
433.761719
 20
229.179962
 10
433.798492
 20
229.187149
 10
433.825989
 20
229.191238
 10
433.849976
 20
229.194092
 10
433.873108
 20
229.196365
 10
433.896729
 20
229.198395
 10
433.924408
 20
229.200455
  0
LWPOLYLINE
  5
B2
330
91
100
AcDbEntity
  8
0
  6
Continuous
 62
     0
370
    30
100
AcDbPolyline
 90
        3
 70
     0
 43
0.0
 10
472.228729
 20
224.030457
 10
472.289764
 20
223.950577
 10
472.363892
 20
223.688446
  0
LWPOLYLINE
  5
B3
330
91
100
AcDbEntity
  8
0
  6
Continuous
 62
     0
370
    30
100
AcDbPolyline
 90
        3
 70
     0
 43
0.0
 10
454.363892
 20
223.688446
 10
454.373596
 20
223.785385
 10
454.499023
 20
224.030457
  0
LINE
  5
B4
330
91
100
AcDbEntity
  8
0
  6
Continuous
 62
     0
370
    30
100
AcDbLine
 10
454.363903
 20
174.188233
 30
0.0
 11
454.363903
 21
223.688445
 31
0.0
  0
ARC
  5
B5
330
91
100
AcDbEntity
  8
0
  6
Continuous
 62
     0
370
    30
100
AcDbCircle
 10
499.8639
 20
165.689489
 30
0.0
 40
0.5000034302815646
100
AcDbArc
 50
0.000396
 51
89.999607
  0
ARC
  5
B6
330
91
100
AcDbEntity
  8
0
  6
Continuous
 62
     0
370
    30
100
AcDbCircle
 10
499.8639
 20
148.689497
 30
0.0
 40
0.5000034183433608
100
AcDbArc
 50
270.000392
 51
359.999603
  0
LINE
  5
B7
330
91
100
AcDbEntity
  8
0
  6
Continuous
 62
     0
370
    30
100
AcDbLine
 10
426.863903
 20
166.189493
 30
0.0
 11
446.365205
 21
166.189493
 31
0.0
  0
LINE
  5
B8
330
91
100
AcDbEntity
  8
0
  6
Continuous
 62
     0
370
    30
100
AcDbLine
 10
480.363324
 20
166.189493
 30
0.0
 11
499.863903
 21
166.189493
 31
0.0
  0
LINE
  5
B9
330
91
100
AcDbEntity
  8
0
  6
Continuous
 62
     0
370
    30
100
AcDbLine
 10
426.863903
 20
148.189493
 30
0.0
 11
499.863903
 21
148.189493
 31
0.0
  0
ARC
  5
BA
330
91
100
AcDbEntity
  8
0
  6
Continuous
 62
     0
370
    30
100
AcDbCircle
 10
426.863906
 20
148.689497
 30
0.0
 40
0.5000034183430526
100
AcDbArc
 50
180.000397
 51
269.999608
  0
ARC
  5
BB
330
91
100
AcDbEntity
  8
0
  6
Continuous
 62
     0
370
    30
100
AcDbCircle
 10
426.863906
 20
165.68949
 30
0.0
 40
0.5000027587096842
100
AcDbArc
 50
90.000316
 51
179.988222
  0
ARC
  5
BC
330
91
100
AcDbEntity
  8
0
  6
Continuous
 62
     0
370
    30
100
AcDbCircle
 10
446.36417
 20
174.189225
 30
0.0
 40
7.999784433233108
100
AcDbArc
 50
270.000662
 51
359.999322
  0
LINE
  5
BD
330
91
100
AcDbEntity
  8
0
  6
Continuous
 62
     0
370
    30
100
AcDbLine
 10
499.863903
 20
148.189502
 30
0.0
 11
500.363903
 21
148.189502
 31
0.0
  0
LINE
  5
BE
330
91
100
AcDbEntity
  8
0
  6
Continuous
 62
     0
370
    30
100
AcDbLine
 10
426.363903
 20
148.189502
 30
0.0
 11
426.863903
 21
148.189502
 31
0.0
  0
LINE
  5
BF
330
91
100
AcDbEntity
  8
0
  6
Continuous
 62
     0
370
    30
100
AcDbLine
 10
499.863903
 20
166.189502
 30
0.0
 11
500.363903
 21
166.189502
 31
0.0
  0
LINE
  5
C0
330
91
100
AcDbEntity
  8
0
  6
Continuous
 62
     0
370
    30
100
AcDbLine
 10
426.363903
 20
166.189502
 30
0.0
 11
426.863903
 21
166.189502
 31
0.0
  0
LINE
  5
C1
330
91
100
AcDbEntity
  8
0
  6
Continuous
 62
     0
370
    30
100
AcDbLine
 10
554.363903
 20
166.189493
 30
0.0
 11
588.363903
 21
166.189495
 31
0.0
  0
LINE
  5
C2
330
91
100
AcDbEntity
  8
0
  6
Continuous
 62
     0
370
    30
100
AcDbLine
 10
554.363903
 20
166.189493
 30
0.0
 11
500.363903
 21
166.189493
 31
0.0
  0
LINE
  5
C3
330
91
100
AcDbEntity
  8
0
  6
Continuous
 62
     0
370
    30
100
AcDbLine
 10
426.363903
 20
166.189493
 30
0.0
 11
372.363903
 21
166.189493
 31
0.0
  0
LINE
  5
C4
330
91
100
AcDbEntity
  8
0
  6
Continuous
 62
     0
370
    30
100
AcDbLine
 10
338.364053
 20
166.189495
 30
0.0
 11
372.363903
 21
166.189493
 31
0.0
  0
ENDBLK
  5
C6
330
91
100
AcDbEntity
  8
0
100
AcDbBlockEnd
  0
BLOCK
  5
E8
330
C8
100
AcDbEntity
  8
0
100
AcDbBlockBegin
  2
c
 70
     0
 10
298.024719
 20
284.905899
 30
0.0
  3
c
  1

  0
ARC
  5
C9
330
C8
100
AcDbEntity
  8
0
  6
Continuous
 62
     0
370
    30
100
AcDbCircle
 10
729.890362
 20
514.409531
 30
0.0
 40
9.0
100
AcDbArc
 50
180.0
 51
0.0
  0
LINE
  5
CA
330
C8
100
AcDbEntity
  8
0
  6
Continuous
 62
     0
370
    30
100
AcDbLine
 10
738.890362
 20
514.409531
 30
0.0
 11
738.890363
 21
548.409531
 31
0.0
  0
LWPOLYLINE
  5
CB
330
C8
100
AcDbEntity
  8
0
  6
Continuous
 62
     0
370
     0
100
AcDbPolyline
 90
       25
 70
     0
 43
0.0
 10
738.890381
 20
548.409546
 10
738.824951
 20
548.409546
 10
738.618347
 20
548.409546
 10
738.258667
 20
548.409546
 10
737.74115
 20
548.409546
 10
737.069153
 20
548.409546
 10
736.255249
 20
548.409546
 10
735.320679
 20
548.409546
 10
734.293274
 20
548.409546
 10
733.205017
 20
548.409546
 10
732.088806
 20
548.409546
 10
730.975769
 20
548.409546
 10
729.892639
 20
548.409546
 10
728.809692
 20
548.409546
 10
727.696655
 20
548.409546
 10
726.580444
 20
548.409546
 10
725.492004
 20
548.409546
 10
724.464294
 20
548.409546
 10
723.529236
 20
548.409546
 10
722.714783
 20
548.409546
 10
722.042114
 20
548.409546
 10
721.523926
 20
548.409546
 10
721.163635
 20
548.409546
 10
720.95636
 20
548.409546
 10
720.890381
 20
548.409546
  0
LINE
  5
CC
330
C8
100
AcDbEntity
  8
0
  6
Continuous
 62
     0
370
    30
100
AcDbLine
 10
738.890363
 20
548.409531
 30
0.0
 11
738.890363
 21
680.409531
 31
0.0
  0
LINE
  5
CD
330
C8
100
AcDbEntity
  8
0
  6
Continuous
 62
     0
370
     0
100
AcDbLine
 10
738.890363
 20
680.409531
 30
0.0
 11
720.890363
 21
680.409531
 31
0.0
  0
LINE
  5
CE
330
C8
100
AcDbEntity
  8
0
  6
Continuous
 62
     0
370
    30
100
AcDbLine
 10
738.890363
 20
680.409531
 30
0.0
 11
738.890362
 21
714.409531
 31
0.0
  0
ARC
  5
CF
330
C8
100
AcDbEntity
  8
0
  6
Continuous
 62
     0
370
    30
100
AcDbCircle
 10
729.890362
 20
714.409531
 30
0.0
 40
8.999999999999993
100
AcDbArc
 50
360.0
 51
180.0
  0
LWPOLYLINE
  5
D0
330
C8
100
AcDbEntity
  8
0
  6
Continuous
 62
     0
370
     0
100
AcDbPolyline
 90
       33
 70
     0
 43
0.0
 10
720.890381
 20
706.810547
 10
719.856689
 20
707.184814
 10
718.856567
 20
707.607361
 10
717.896912
 20
708.07959
 10
716.985535
 20
708.602966
 10
716.132202
 20
709.178467
 10
715.34845
 20
709.806763
 10
714.646606
 20
710.48761
 10
714.041748
 20
711.217957
 10
713.549561
 20
711.99408
 10
713.185181
 20
712.808594
 10
712.962585
 20
713.65094
 10
712.890747
 20
714.507507
 10
712.973083
 20
715.363037
 10
713.205994
 20
716.202698
 10
713.580261
 20
717.012878
 10
714.081909
 20
717.783264
 10
714.695557
 20
718.506775
 10
715.405334
 20
719.179016
 10
716.196838
 20
719.798157
 10
717.056885
 20
720.363831
 10
717.974121
 20
720.876587
 10
718.939209
 20
721.337708
 10
719.944336
 20
721.748657
 10
720.982239
 20
722.111084
 10
722.047363
 20
722.426392
 10
723.135132
 20
722.695862
 10
724.240906
 20
722.920959
 10
725.36084
 20
723.1026
 10
726.491882
 20
723.241699
 10
727.630859
 20
723.338928
 10
728.774963
 20
723.394775
 10
729.940918
 20
723.409363
  0
LINE
  5
D1
330
C8
100
AcDbEntity
  8
0
  6
Continuous
 62
     0
370
     0
100
AcDbLine
 10
663.391406
 20
714.782905
 30
0.0
 11
663.441938
 21
723.782763
 31
0.0
  0
LINE
  5
D2
330
C8
100
AcDbEntity
  8
0
  6
Continuous
 62
     0
370
     0
100
AcDbLine
 10
663.340874
 20
705.783047
 30
0.0
 11
663.391406
 21
714.782905
 31
0.0
  0
LINE
  5
D3
330
C8
100
AcDbEntity
  8
0
  6
Continuous
 62
     0
370
     0
100
AcDbLine
 10
658.559925
 20
744.810505
 30
0.0
 11
658.37796
 21
712.401979
 31
0.0
  0
LINE
  5
D4
330
C8
100
AcDbEntity
  8
0
  6
Continuous
 62
     0
370
     0
100
AcDbLine
 10
658.37796
 20
712.401979
 30
0.0
 11
658.223045
 21
684.811451
 31
0.0
  0
LWPOLYLINE
  5
D5
330
C8
100
AcDbEntity
  8
0
  6
Continuous
 62
     0
370
    30
100
AcDbPolyline
 90
       22
 70
     0
 43
0.0
 10
657.72583
 20
685.31427
 10
657.726196
 20
685.379089
 10
657.727356
 20
685.579163
 10
657.729248
 20
685.921753
 10
657.732056
 20
686.412415
 10
657.735657
 20
687.054932
 10
657.740112
 20
687.850708
 10
657.745422
 20
688.798645
 10
657.751587
 20
689.895203
 10
657.758545
 20
691.134277
 10
657.766235
 20
692.507202
 10
657.774658
 20
694.002991
 10
657.783691
 20
695.608704
 10
657.793213
 20
697.309692
 10
657.803223
 20
699.09021
 10
657.813538
 20
700.933594
 10
657.824158
 20
702.823059
 10
657.834961
 20
704.741943
 10
657.845764
 20
706.674072
 10
657.856628
 20
708.604431
 10
657.867371
 20
710.518982
 10
657.878174
 20
712.444946
  0
LINE
  5
D6
330
C8
100
AcDbEntity
  8
0
  6
Continuous
 62
     0
370
    30
100
AcDbLine
 10
657.878194
 20
712.444937
 30
0.0
 11
658.057125
 21
744.313321
 31
0.0
  0
LINE
  5
D7
330
C8
100
AcDbEntity
  8
0
  6
Continuous
 62
     0
370
     0
100
AcDbLine
 10
662.377896
 20
712.379521
 30
0.0
 11
662.559862
 21
744.788047
 31
0.0
  0
LINE
  5
D8
330
C8
100
AcDbEntity
  8
0
  6
Continuous
 62
     0
370
     0
100
AcDbLine
 10
662.222982
 20
684.788993
 30
0.0
 11
662.377896
 21
712.379521
 31
0.0
  0
LINE
  5
D9
330
C8
100
AcDbEntity
  8
0
  6
Continuous
 62
     0
370
    30
100
AcDbLine
 10
663.057046
 20
744.285247
 30
0.0
 11
662.878115
 21
712.416863
 31
0.0
  0
LINE
  5
DA
330
C8
100
AcDbEntity
  8
0
  6
Continuous
 62
     0
370
    30
100
AcDbLine
 10
662.878115
 20
712.416863
 30
0.0
 11
662.725782
 21
685.286177
 31
0.0
  0
ARC
  5
DB
330
C8
100
AcDbEntity
  8
0
  6
Continuous
 62
     0
370
    30
100
AcDbCircle
 10
662.557039
 20
744.28804
 30
0.0
 40
0.5000150271669881
100
AcDbArc
 50
359.680024
 51
89.67658
  0
ARC
  5
DC
330
C8
100
AcDbEntity
  8
0
  6
Continuous
 62
     0
370
    30
100
AcDbCircle
 10
662.225775
 20
685.289
 30
0.0
 40
0.5000150271631805
100
AcDbArc
 50
269.680024
 51
359.67658
  0
LINE
  5
DD
330
C8
100
AcDbEntity
  8
0
  6
Continuous
 62
     0
370
    30
100
AcDbLine
 10
662.559862
 20
744.788047
 30
0.0
 11
658.559925
 21
744.810505
 31
0.0
  0
LINE
  5
DE
330
C8
100
AcDbEntity
  8
0
  6
Continuous
 62
     0
370
    30
100
AcDbLine
 10
662.222982
 20
684.788993
 30
0.0
 11
658.223045
 21
684.811451
 31
0.0
  0
ARC
  5
DF
330
C8
100
AcDbEntity
  8
0
  6
Continuous
 62
     0
370
    30
100
AcDbCircle
 10
658.557132
 20
744.310498
 30
0.0
 40
0.5000149691671816
100
AcDbArc
 50
89.680017
 51
179.668484
  0
ARC
  5
E0
330
C8
100
AcDbEntity
  8
0
  6
Continuous
 62
     0
370
    30
100
AcDbCircle
 10
658.225868
 20
685.311458
 30
0.0
 40
0.5000149691639371
100
AcDbArc
 50
179.68812
 51
269.676587
  0
ARC
  5
E1
330
C8
100
AcDbEntity
  8
0
  6
Continuous
 62
     0
370
    30
100
AcDbCircle
 10
663.343685
 20
706.283042
 30
0.0
 40
0.500003442283063
100
AcDbArc
 50
179.678697
 51
269.677908
  0
ARC
  5
E2
330
C8
100
AcDbEntity
  8
0
  6
Continuous
 62
     0
370
    30
100
AcDbCircle
 10
663.439134
 20
723.282768
 30
0.0
 40
0.5000034422857649
100
AcDbArc
 50
89.678697
 51
179.677908
  0
LINE
  5
E3
330
C8
100
AcDbEntity
  8
0
  6
Continuous
 62
     0
370
    30
100
AcDbLine
 10
720.890358
 20
705.459921
 30
0.0
 11
663.340874
 21
705.783047
 31
0.0
  0
LINE
  5
E4
330
C8
100
AcDbEntity
  8
0
  6
Continuous
 62
     0
370
    30
100
AcDbLine
 10
729.94089
 20
723.409389
 30
0.0
 11
663.441938
 21
723.782763
 31
0.0
  0
LINE
  5
E5
330
C8
100
AcDbEntity
  8
0
  6
Continuous
 62
     0
370
    30
100
AcDbLine
 10
720.890363
 20
680.409531
 30
0.0
 11
720.890362
 21
714.409531
 31
0.0
  0
LINE
  5
E6
330
C8
100
AcDbEntity
  8
0
  6
Continuous
 62
     0
370
    30
100
AcDbLine
 10
720.890363
 20
680.409531
 30
0.0
 11
720.890363
 21
548.409531
 31
0.0
  0
LINE
  5
E7
330
C8
100
AcDbEntity
  8
0
  6
Continuous
 62
     0
370
    30
100
AcDbLine
 10
720.890362
 20
514.409572
 30
0.0
 11
720.890363
 21
548.409531
 31
0.0
  0
ENDBLK
  5
E9
330
C8
100
AcDbEntity
  8
0
100
AcDbBlockEnd
  0
BLOCK
  5
146
330
EB
100
AcDbEntity
  8
0
100
AcDbBlockBegin
  2
d
 70
     0
 10
298.024719
 20
63.524841
 30
0.0
  3
d
  1

  0
ELLIPSE
  5
EC
330
EB
100
AcDbEntity
  8
0
  6
Continuous
 62
     0
370
     0
100
AcDbEllipse
 10
696.90104
 20
199.987014
 30
0.0
 11
5.196152539064805
 21
7.348469146071882
 31
0.0
210
0.0
220
0.0
230
1.0
 40
0.5
 41
2.526112976588089
 42
3.141592593522063
  0
ELLIPSE
  5
ED
330
EB
100
AcDbEntity
  8
0
  6
Continuous
 62
     0
370
     0
100
AcDbEllipse
 10
696.90104
 20
199.987014
 30
0.0
 11
5.196152539064805
 21
7.348469146071882
 31
0.0
210
0.0
220
0.0
230
1.0
 40
0.5
 41
6.283185247111853
 42
8.809298283767676
  0
ELLIPSE
  5
EE
330
EB
100
AcDbEntity
  8
0
  6
Continuous
 62
     0
370
     0
100
AcDbEllipse
 10
735.084806
 20
172.987013
 30
0.0
 11
-5.196152539064805
 21
-7.348469146071882
 31
0.0
210
0.0
220
0.0
230
-1.0
 40
0.5
 41
0.6154796770017037
 42
1.960337820674174
  0
ELLIPSE
  5
EF
330
EB
100
AcDbEntity
  8
0
  6
Continuous
 62
     0
370
     0
100
AcDbEllipse
 10
735.084806
 20
172.987013
 30
0.0
 11
-5.196152539064805
 21
-7.348469146071882
 31
0.0
210
0.0
220
0.0
230
-1.0
 40
0.5
 41
1.960337820674174
 42
3.141592713657523
  0
ELLIPSE
  5
F0
330
EB
100
AcDbEntity
  8
0
  6
Continuous
 62
     0
370
     0
100
AcDbEllipse
 10
735.084806
 20
172.987013
 30
0.0
 11
-5.196152539064805
 21
-7.348469146071882
 31
0.0
210
0.0
220
0.0
230
-1.0
 40
0.5
 41
0.0000000600677318
 42
0.6154796770017037
  0
LWPOLYLINE
  5
F1
330
EB
100
AcDbEntity
  8
0
  6
Continuous
 62
     0
370
     0
100
AcDbPolyline
 90
        8
 70
     0
 43
0.0
 10
666.495422
 20
236.528641
 10
665.887024
 20
237.004608
 10
665.330872
 20
237.541443
 10
664.843201
 20
238.135483
 10
664.439758
 20
238.780334
 10
664.134644
 20
239.466888
 10
663.939087
 20
240.183609
 10
663.859436
 20
241.028641
  0
LWPOLYLINE
  5
F2
330
EB
100
AcDbEntity
  8
0
  6
Continuous
 62
     0
370
     0
100
AcDbPolyline
 90
       20
 70
     0
 43
0.0
 10
681.859436
 20
241.028641
 10
681.782959
 20
240.200775
 10
681.557373
 20
239.393738
 10
681.193726
 20
238.626663
 10
680.709106
 20
237.915558
 10
680.12439
 20
237.272308
 10
679.462646
 20
236.704437
 10
678.731567
 20
236.205902
 10
677.89386
 20
235.753494
 10
676.952209
 20
235.360809
 10
675.919312
 20
235.043793
 10
674.813843
 20
234.816559
 10
673.660095
 20
234.689911
 10
672.486023
 20
234.670166
 10
671.321472
 20
234.758286
 10
670.195374
 20
234.949875
 10
669.133545
 20
235.235641
 10
668.156799
 20
235.602524
 10
667.280151
 20
236.035065
 10
666.495422
 20
236.528641
  0
ELLIPSE
  5
F3
330
EB
100
AcDbEntity
  8
0
  6
Continuous
 62
     0
370
     0
100
AcDbEllipse
 10
672.859409
 20
334.366736
 30
0.0
 11
9.0
 21
0.0
 31
0.0
210
0.0
220
0.0
230
-1.0
 40
0.707107
 41
2.356194490192345
 42
3.141592632688127
  0
ELLIPSE
  5
F4
330
EB
100
AcDbEntity
  8
0
  6
Continuous
 62
     0
370
     0
100
AcDbEllipse
 10
672.859409
 20
334.366736
 30
0.0
 11
9.0
 21
0.0
 31
0.0
210
0.0
220
0.0
230
-1.0
 40
0.707107
 41
6.283185286115198
 42
8.639379797371932
  0
LWPOLYLINE
  5
F5
330
EB
100
AcDbEntity
  8
0
  6
Continuous
 62
     0
370
     0
100
AcDbPolyline
 90
       21
 70
     0
 43
0.0
 10
690.537048
 20
336.908356
 10
690.579773
 20
337.674438
 10
690.714417
 20
338.525787
 10
690.94873
 20
339.451111
 10
691.286194
 20
340.433624
 10
691.725403
 20
341.451691
 10
692.259399
 20
342.480011
 10
692.876038
 20
343.491699
 10
693.558594
 20
344.46048
 10
694.287598
 20
345.362946
 10
695.042175
 20
346.180389
 10
695.802246
 20
346.899811
 10
696.549805
 20
347.514252
 10
697.278809
 20
348.028229
 10
698.027039
 20
348.468109
 10
698.787292
 20
348.820129
 10
699.541321
 20
349.065735
 10
700.268921
 20
349.189575
 10
700.949463
 20
349.181244
 10
701.563416
 20
349.036713
 10
702.097168
 20
348.756836
  0
LWPOLYLINE
  5
F6
330
EB
100
AcDbEntity
  8
0
  6
Continuous
 62
     0
370
     0
100
AcDbPolyline
 90
        6
 70
     0
 43
0.0
 10
691.704895
 20
334.059906
 10
691.275269
 20
334.455322
 10
690.944702
 20
334.955627
 10
690.714417
 20
335.54187
 10
690.580994
 20
336.193146
 10
690.537048
 20
336.908356
  0
ELLIPSE
  5
F7
330
EB
100
AcDbEntity
  8
0
  6
Continuous
 62
     0
370
    30
100
AcDbEllipse
 10
735.084806
 20
314.408365
 30
0.0
 11
-5.196152539064805
 21
-7.348469146071882
 31
0.0
210
0.0
220
0.0
230
-1.0
 40
0.5
 41
0.6154796770017034
 42
3.18795810418888
  0
ELLIPSE
  5
F8
330
EB
100
AcDbEntity
  8
0
  6
Continuous
 62
     0
370
    30
100
AcDbEllipse
 10
735.084806
 20
314.408365
 30
0.0
 11
-5.196152539064805
 21
-7.348469146071882
 31
0.0
210
0.0
220
0.0
230
-1.0
 40
0.5
 41
6.236769293445724
 42
6.898664984181289
  0
ELLIPSE
  5
F9
330
EB
100
AcDbEntity
  8
0
  6
Continuous
 62
     0
370
     0
100
AcDbEllipse
 10
825.594474
 20
250.408363
 30
0.0
 11
-5.196152539064805
 21
-7.348469146071882
 31
0.0
210
0.0
220
0.0
230
-1.0
 40
0.5
 41
0.6154796770017037
 42
3.14159271365752
  0
ELLIPSE
  5
FA
330
EB
100
AcDbEntity
  8
0
  6
Continuous
 62
     0
370
     0
100
AcDbEllipse
 10
825.594474
 20
250.408363
 30
0.0
 11
-5.196152539064805
 21
-7.348469146071882
 31
0.0
210
0.0
220
0.0
230
-1.0
 40
0.5
 41
6.283184613677649
 42
6.898664984181289
  0
ELLIPSE
  5
FB
330
EB
100
AcDbEntity
  8
0
  6
Continuous
 62
     0
370
    30
100
AcDbEllipse
 10
787.410708
 20
277.408363
 30
0.0
 11
5.196152539064805
 21
7.348469146071882
 31
0.0
210
0.0
220
0.0
230
1.0
 40
0.5
 41
2.526112976588089
 42
3.141592593522062
  0
ELLIPSE
  5
FC
330
EB
100
AcDbEntity
  8
0
  6
Continuous
 62
     0
370
    30
100
AcDbEllipse
 10
787.410708
 20
277.408363
 30
0.0
 11
5.196152539064805
 21
7.348469146071882
 31
0.0
210
0.0
220
0.0
230
1.0
 40
0.5
 41
6.283185247111857
 42
8.809298283767676
  0
LWPOLYLINE
  5
FD
330
EB
100
AcDbEntity
  8
0
  6
Continuous
 62
     0
370
     0
100
AcDbPolyline
 90
       20
 70
     0
 43
0.0
 10
843.272156
 20
204.86673
 10
844.037537
 20
204.383957
 10
844.911743
 20
203.950073
 10
845.88623
 20
203.581467
 10
846.946289
 20
203.29364
 10
848.071228
 20
203.099716
 10
849.235168
 20
203.009094
 10
850.409302
 20
203.026306
 10
851.563904
 20
203.150482
 10
852.670776
 20
203.375458
 10
853.705627
 20
203.690521
 10
854.649597
 20
204.081619
 10
855.489868
 20
204.532806
 10
856.223022
 20
205.030136
 10
856.886353
 20
205.596176
 10
857.473083
 20
206.237717
 10
857.960388
 20
206.947357
 10
858.327026
 20
207.713287
 10
858.55603
 20
208.519592
 10
858.636108
 20
209.36673
  0
LWPOLYLINE
  5
FE
330
EB
100
AcDbEntity
  8
0
  6
Continuous
 62
     0
370
     0
100
AcDbPolyline
 90
        8
 70
     0
 43
0.0
 10
840.636108
 20
209.36673
 10
840.696289
 20
208.631989
 10
840.874451
 20
207.911835
 10
841.163635
 20
207.21991
 10
841.553101
 20
206.5681
 10
842.028992
 20
205.965897
 10
842.575806
 20
205.420105
 10
843.272156
 20
204.86673
  0
ELLIPSE
  5
FF
330
EB
100
AcDbEntity
  8
0
  6
Continuous
 62
     0
370
     0
100
AcDbEllipse
 10
849.636105
 20
116.02864
 30
0.0
 11
-9.0
 21
0.0
 31
0.0
210
0.0
220
0.0
230
1.0
 40
0.707107
 41
0.7853981633974483
 42
3.141592674564445
  0
ELLIPSE
  5
100
330
EB
100
AcDbEntity
  8
0
  6
Continuous
 62
     0
370
     0
100
AcDbEllipse
 10
849.636105
 20
116.02864
 30
0.0
 11
-9.0
 21
0.0
 31
0.0
210
0.0
220
0.0
230
1.0
 40
0.707107
 41
0.0000000209016635
 42
0.7853981633974483
  0
LWPOLYLINE
  5
101
330
EB
100
AcDbEntity
  8
0
  6
Continuous
 62
     0
370
     0
100
AcDbPolyline
 90
        6
 70
     0
 43
0.0
 10
819.23053
 20
104.487007
 10
819.271973
 20
103.790939
 10
819.402771
 20
103.138138
 10
819.630249
 20
102.549759
 10
819.958008
 20
102.046761
 10
820.398315
 20
101.638542
  0
LWPOLYLINE
  5
102
330
EB
100
AcDbEntity
  8
0
  6
Continuous
 62
     0
370
     0
100
AcDbPolyline
 90
       21
 70
     0
 43
0.0
 10
830.790649
 20
116.335472
 10
830.260376
 20
116.614037
 10
829.646973
 20
116.759422
 10
828.966797
 20
116.768585
 10
828.23938
 20
116.645538
 10
827.485413
 20
116.40065
 10
826.725159
 20
116.049248
 10
825.976807
 20
115.609825
 10
825.247803
 20
115.096375
 10
824.500427
 20
114.48259
 10
823.740356
 20
113.763802
 10
822.985657
 20
112.946938
 10
822.25647
 20
112.044945
 10
821.573547
 20
111.076515
 10
820.956421
 20
110.065018
 10
820.421875
 20
109.036713
 10
819.982056
 20
108.018509
 10
819.643921
 20
107.035683
 10
819.408997
 20
106.109955
 10
819.273743
 20
105.25811
 10
819.23053
 20
104.487007
  0
ELLIPSE
  5
103
330
EB
100
AcDbEntity
  8
0
  6
Continuous
 62
     0
370
     0
100
AcDbEllipse
 10
787.410708
 20
135.987012
 30
0.0
 11
5.196152539064805
 21
7.348469146071882
 31
0.0
210
0.0
220
0.0
230
1.0
 40
0.5
 41
2.526112976588089
 42
3.141592593522063
  0
ELLIPSE
  5
104
330
EB
100
AcDbEntity
  8
0
  6
Continuous
 62
     0
370
     0
100
AcDbEllipse
 10
787.410708
 20
135.987012
 30
0.0
 11
5.196152539064805
 21
7.348469146071882
 31
0.0
210
0.0
220
0.0
230
1.0
 40
0.5
 41
6.283185247111857
 42
7.464440139888023
  0
ELLIPSE
  5
105
330
EB
100
AcDbEntity
  8
0
  6
Continuous
 62
     0
370
     0
100
AcDbEllipse
 10
787.410708
 20
135.987012
 30
0.0
 11
5.196152539064805
 21
7.348469146071882
 31
0.0
210
0.0
220
0.0
230
1.0
 40
0.5
 41
1.181254832708436
 42
2.526112976588089
  0
LWPOLYLINE
  5
106
330
EB
100
AcDbEntity
  8
0
  6
Continuous
 62
     0
370
     0
100
AcDbPolyline
 90
       11
 70
     0
 43
0.0
 10
761.212036
 20
302.246948
 10
762.839294
 20
301.871338
 10
764.460327
 20
301.447113
 10
766.068298
 20
300.975098
 10
767.656067
 20
300.456024
 10
769.215454
 20
299.89035
 10
770.736877
 20
299.27832
 10
772.208313
 20
298.620331
 10
773.616028
 20
297.917114
 10
774.942505
 20
297.170013
 10
776.297668
 20
296.289154
  0
ELLIPSE
  5
107
330
EB
100
AcDbEntity
  8
0
  6
Continuous
 62
     0
370
     0
100
AcDbEllipse
 10
785.289198
 20
295.975723
 30
0.0
 11
7.999872894416074
 21
0.0450962657765498
 31
0.0
210
0.0
220
0.0
230
-1.0
 40
0.709903
 41
3.141372120648609
 42
3.930984724715344
  0
LWPOLYLINE
  5
108
330
EB
100
AcDbEntity
  8
0
  6
Continuous
 62
     0
370
     0
100
AcDbPolyline
 90
       22
 70
     0
 43
0.0
 10
761.212036
 20
302.246948
 10
762.393311
 20
302.495239
 10
763.572266
 20
302.716766
 10
764.746338
 20
302.910675
 10
765.912842
 20
303.076141
 10
767.069153
 20
303.21228
 10
768.21228
 20
303.317963
 10
769.338745
 20
303.391815
 10
770.444763
 20
303.432251
 10
771.525818
 20
303.437439
 10
772.577026
 20
303.405457
 10
773.592529
 20
303.334137
 10
774.565552
 20
303.221008
 10
775.487732
 20
303.063416
 10
776.34967
 20
302.858673
 10
777.140442
 20
302.604187
 10
777.847168
 20
302.297729
 10
778.456116
 20
301.937561
 10
778.952393
 20
301.523468
 10
779.32135
 20
301.057098
 10
779.550537
 20
300.541992
 10
779.632324
 20
299.975708
  0
LWPOLYLINE
  5
109
330
EB
100
AcDbEntity
  8
0
  6
Continuous
 62
     0
370
     0
100
AcDbPolyline
 90
        7
 70
     0
 43
0.0
 10
779.632324
 20
299.975708
 10
779.566101
 20
299.411194
 10
779.364441
 20
298.824768
 10
779.033875
 20
298.22525
 10
778.585083
 20
297.621002
 10
778.030457
 20
297.019104
 10
777.341492
 20
296.390076
  0
LWPOLYLINE
  5
10A
330
EB
100
AcDbEntity
  8
0
  6
Continuous
 62
     0
370
     0
100
AcDbPolyline
 90
       12
 70
     0
 43
0.0
 10
756.588318
 20
310.225769
 10
756.922241
 20
309.938049
 10
757.284241
 20
309.533325
 10
757.668945
 20
309.02533
 10
758.072021
 20
308.425934
 10
758.489624
 20
307.745636
 10
758.919006
 20
306.992432
 10
759.357544
 20
306.173889
 10
759.80304
 20
305.296295
 10
760.253723
 20
304.364746
 10
760.707825
 20
303.383911
 10
761.212036
 20
302.246948
  0
LWPOLYLINE
  5
10B
330
EB
100
AcDbEntity
  8
0
  6
Continuous
 62
     0
370
     0
100
AcDbPolyline
 90
       11
 70
     0
 43
0.0
 10
765.853455
 20
310.24292
 10
765.474915
 20
309.909973
 10
765.063721
 20
309.436188
 10
764.62677
 20
308.839539
 10
764.169861
 20
308.135773
 10
763.697449
 20
307.337585
 10
763.213135
 20
306.455383
 10
762.720032
 20
305.498627
 10
762.220764
 20
304.474396
 10
761.71759
 20
303.389221
 10
761.212036
 20
302.246948
  0
LWPOLYLINE
  5
10C
330
EB
100
AcDbEntity
  8
0
  6
Continuous
 62
     0
370
     0
100
AcDbPolyline
 90
        2
 70
     0
 43
0.0
 10
765.417664
 20
301.172394
 10
765.92749
 20
303.078033
  0
ELLIPSE
  5
10D
330
EB
100
AcDbEntity
  8
0
  6
Continuous
 62
     0
370
     0
100
AcDbEllipse
 10
735.438359
 20
314.158365
 30
0.0
 11
5.196152539064805
 21
7.348469146071882
 31
0.0
210
0.0
220
0.0
230
1.0
 40
0.5
 41
2.531727659553135
 42
3.141592593522062
  0
ELLIPSE
  5
10E
330
EB
100
AcDbEntity
  8
0
  6
Continuous
 62
     0
370
     0
100
AcDbEllipse
 10
735.438359
 20
314.158365
 30
0.0
 11
5.196152539064805
 21
7.348469146071882
 31
0.0
210
0.0
220
0.0
230
1.0
 40
0.5
 41
6.283185247111856
 42
8.814912966732717
  0
ELLIPSE
  5
10F
330
EB
100
AcDbEntity
  8
0
  6
Continuous
 62
     0
370
     0
100
AcDbEllipse
 10
787.057154
 20
277.658363
 30
0.0
 11
5.196152539064805
 21
7.348469146071882
 31
0.0
210
0.0
220
0.0
230
1.0
 40
0.5
 41
6.235054138750687
 42
8.814912966732718
  0
ELLIPSE
  5
110
330
EB
100
AcDbEntity
  8
0
  6
Continuous
 62
     0
370
     0
100
AcDbEllipse
 10
787.057154
 20
277.658363
 30
0.0
 11
5.196152539064805
 21
7.348469146071882
 31
0.0
210
0.0
220
0.0
230
1.0
 40
0.5
 41
2.531727659553134
 42
3.189723701883183
  0
ELLIPSE
  5
111
330
EB
100
AcDbEntity
  8
0
  6
Continuous
 62
     0
370
     0
100
AcDbEllipse
 10
808.269617
 20
329.421857
 30
0.0
 11
-5.223550029329949
 21
7.32901938127381
 31
0.0
210
0.0
220
0.0
230
-1.0
 40
0.496022
 41
6.283185267108697
 42
8.811157500803676
  0
ELLIPSE
  5
112
330
EB
100
AcDbEntity
  8
0
  6
Continuous
 62
     0
370
     0
100
AcDbEllipse
 10
808.269617
 20
329.421857
 30
0.0
 11
-5.223550029329949
 21
7.32901938127381
 31
0.0
210
0.0
220
0.0
230
-1.0
 40
0.496022
 41
2.527972193624094
 42
3.141592613518908
  0
LWPOLYLINE
  5
113
330
EB
100
AcDbEntity
  8
0
  6
Continuous
 62
     0
370
     0
100
AcDbPolyline
 90
       37
 70
     0
 43
0.0
 10
832.940247
 20
318.686768
 10
832.787292
 20
320.087585
 10
832.547607
 20
321.568848
 10
832.216797
 20
323.125854
 10
831.79126
 20
324.75235
 10
831.268494
 20
326.440613
 10
830.647339
 20
328.181396
 10
829.927917
 20
329.964081
 10
829.111938
 20
331.776855
 10
828.202576
 20
333.606812
 10
827.20459
 20
335.440338
 10
826.124207
 20
337.263489
 10
824.969055
 20
339.062134
 10
823.747986
 20
340.82251
 10
822.470703
 20
342.531464
 10
821.147644
 20
344.176849
 10
819.789734
 20
345.747681
 10
818.408142
 20
347.234528
 10
817.013611
 20
348.629578
 10
815.616821
 20
349.926727
 10
814.227722
 20
351.121552
 10
812.855347
 20
352.211456
 10
811.508057
 20
353.195404
 10
810.192993
 20
354.073822
 10
808.893616
 20
354.861572
 10
807.575134
 20
355.577759
 10
806.244507
 20
356.21286
 10
804.910278
 20
356.756989
 10
803.582092
 20
357.200775
 10
802.269958
 20
357.535583
 10
800.984375
 20
357.753876
 10
799.736206
 20
357.849335
 10
798.536011
 20
357.817322
 10
797.394226
 20
357.654938
 10
796.320618
 20
357.361115
 10
795.324097
 20
356.93692
 10
794.393311
 20
356.371735
  0
LWPOLYLINE
  5
114
330
EB
100
AcDbEntity
  8
0
  6
Continuous
 62
     0
370
     0
100
AcDbPolyline
 90
       12
 70
     0
 43
0.0
 10
829.210083
 20
307.506714
 10
829.973816
 20
308.13028
 10
830.654724
 20
308.854034
 10
831.249939
 20
309.671387
 10
831.75769
 20
310.574799
 10
832.177612
 20
311.555878
 10
832.510132
 20
312.605652
 10
832.757019
 20
313.714783
 10
832.920776
 20
314.873779
 10
833.004822
 20
316.07312
 10
833.013184
 20
317.303589
 10
832.940247
 20
318.686768
  0
ELLIPSE
  5
115
330
EB
100
AcDbEntity
  8
0
  6
Continuous
 62
     0
370
     0
100
AcDbEllipse
 10
808.976712
 20
329.925819
 30
0.0
 11
-17.41183343109983
 21
24.43006460424603
 31
0.0
210
0.0
220
0.0
230
-1.0
 40
0.496022
 41
6.283185146485891
 42
8.730769714158399
  0
ELLIPSE
  5
116
330
EB
100
AcDbEntity
  8
0
  6
Continuous
 62
     0
370
     0
100
AcDbEllipse
 10
808.976712
 20
329.925819
 30
0.0
 11
-17.41183343109983
 21
24.43006460424603
 31
0.0
210
0.0
220
0.0
230
-1.0
 40
0.496022
 41
2.447584406978813
 42
3.141592679274092
  0
LWPOLYLINE
  5
117
330
EB
100
AcDbEntity
  8
0
  6
Continuous
 62
     0
370
     0
100
AcDbPolyline
 90
       46
 70
     0
 43
0.0
 10
829.406067
 20
316.639862
 10
829.249939
 20
318.059052
 10
829.003357
 20
319.56192
 10
828.66156
 20
321.143372
 10
828.220764
 20
322.79657
 10
827.678467
 20
324.513092
 10
827.033569
 20
326.282776
 10
826.286499
 20
328.094055
 10
825.439331
 20
329.93396
 10
824.495911
 20
331.788513
 10
823.461731
 20
333.642944
 10
822.343933
 20
335.482239
 10
821.151062
 20
337.291321
 10
819.892944
 20
339.055573
 10
818.580322
 20
340.761292
 10
817.224731
 20
342.395905
 10
815.837891
 20
343.948303
 10
814.431702
 20
345.409149
 10
813.0177
 20
346.770935
 10
811.606812
 20
348.028046
 10
810.209351
 20
349.176849
 10
808.834595
 20
350.215485
 10
807.490662
 20
351.143799
 10
806.176147
 20
351.968262
 10
804.847046
 20
352.716492
 10
803.502686
 20
353.383331
 10
802.152222
 20
353.958069
 10
800.805603
 20
354.430481
 10
799.47345
 20
354.791138
 10
798.167114
 20
355.031647
 10
796.89801
 20
355.145081
 10
795.677612
 20
355.12619
 10
794.517212
 20
354.971588
 10
793.427185
 20
354.680115
 10
792.417236
 20
354.252686
 10
791.495667
 20
353.692535
 10
790.669373
 20
353.004974
 10
789.943665
 20
352.197296
 10
789.322083
 20
351.278564
 10
788.806519
 20
350.259216
 10
788.396973
 20
349.150818
 10
788.092041
 20
347.965698
 10
787.888611
 20
346.716492
 10
787.782471
 20
345.415955
 10
787.768311
 20
344.076569
 10
787.840271
 20
342.707825
  0
LWPOLYLINE
  5
118
330
EB
100
AcDbEntity
  8
0
  6
Continuous
 62
     0
370
     0
100
AcDbPolyline
 90
       30
 70
     0
 43
0.0
 10
802.498901
 20
314.256989
 10
803.872986
 20
312.909454
 10
805.246643
 20
311.659729
 10
806.610229
 20
310.511597
 10
807.954956
 20
309.467285
 10
809.27301
 20
308.527405
 10
810.557861
 20
307.690857
 10
811.842041
 20
306.934326
 10
813.143799
 20
306.250488
 10
814.455322
 20
305.649261
 10
815.767761
 20
305.140289
 10
817.071655
 20
304.732605
 10
818.356812
 20
304.434479
 10
819.612793
 20
304.253021
 10
820.829041
 20
304.194
 10
821.995056
 20
304.261536
 10
823.100769
 20
304.458038
 10
824.136719
 20
304.783875
 10
825.094421
 20
305.237549
 10
825.966614
 20
305.815491
 10
826.747314
 20
306.51236
 10
827.432068
 20
307.320984
 10
828.017822
 20
308.232819
 10
828.503296
 20
309.238007
 10
828.88855
 20
310.325775
 10
829.175293
 20
311.484772
 10
829.366272
 20
312.703339
 10
829.465515
 20
313.969727
 10
829.477966
 20
315.272552
 10
829.406067
 20
316.639862
  0
LWPOLYLINE
  5
119
330
EB
100
AcDbEntity
  8
0
  6
Continuous
 62
     0
370
     0
100
AcDbPolyline
 90
        9
 70
     0
 43
0.0
 10
787.840271
 20
342.707825
 10
788.000183
 20
341.261047
 10
788.254089
 20
339.727509
 10
788.607056
 20
338.11264
 10
789.062927
 20
336.423737
 10
789.624268
 20
334.669861
 10
790.292175
 20
332.861847
 10
791.065979
 20
331.012146
 10
792.051819
 20
328.915039
  0
LWPOLYLINE
  5
11A
330
EB
100
AcDbEntity
  8
0
  6
Continuous
 62
     0
370
    30
100
AcDbPolyline
 90
       11
 70
     0
 43
0.0
 10
791.56488
 20
354.355896
 10
790.730713
 20
353.669312
 10
789.98938
 20
352.865845
 10
789.345459
 20
351.95163
 10
788.80127
 20
350.932861
 10
788.358582
 20
349.815796
 10
788.01886
 20
348.606659
 10
787.78241
 20
347.311462
 10
787.649109
 20
345.936157
 10
787.618958
 20
344.486847
 10
787.695496
 20
342.919037
  0
LWPOLYLINE
  5
11B
330
EB
100
AcDbEntity
  8
0
  6
Continuous
 62
     0
370
    30
100
AcDbPolyline
 90
        9
 70
     0
 43
0.0
 10
791.993164
 20
328.87323
 10
791.137573
 20
330.67038
 10
790.36731
 20
332.463623
 10
789.686096
 20
334.244385
 10
789.097412
 20
336.004059
 10
788.603943
 20
337.734558
 10
788.207947
 20
339.428009
 10
787.911682
 20
341.076538
 10
787.695496
 20
342.919037
  0
LWPOLYLINE
  5
11C
330
EB
100
AcDbEntity
  8
0
  6
Continuous
 62
     0
370
    30
100
AcDbPolyline
 90
       19
 70
     0
 43
0.0
 10
826.38855
 20
305.495758
 10
825.456482
 20
304.925598
 10
824.442444
 20
304.484222
 10
823.353882
 20
304.173981
 10
822.197815
 20
303.995026
 10
820.981018
 20
303.947052
 10
819.7099
 20
304.029266
 10
818.390259
 20
304.23996
 10
817.028076
 20
304.576935
 10
815.629395
 20
305.037994
 10
814.200256
 20
305.620605
 10
812.747009
 20
306.321655
 10
811.276367
 20
307.137543
 10
809.794983
 20
308.064148
 10
808.309814
 20
309.097107
 10
806.827759
 20
310.231293
 10
805.355957
 20
311.461182
 10
803.901428
 20
312.780823
 10
802.440369
 20
314.215271
  0
LINE
  5
11D
330
EB
100
AcDbEntity
  8
0
  6
Continuous
 62
     0
370
    30
100
AcDbLine
 10
791.564878
 20
354.355883
 30
0.0
 11
794.393261
 21
356.371732
 31
0.0
  0
LINE
  5
11E
330
EB
100
AcDbEntity
  8
0
  6
Continuous
 62
     0
370
    30
100
AcDbLine
 10
826.388546
 20
305.495755
 30
0.0
 11
829.216929
 21
307.511604
 31
0.0
  0
LWPOLYLINE
  5
11F
330
EB
100
AcDbEntity
  8
0
  6
Continuous
 62
     0
370
    30
100
AcDbPolyline
 90
       45
 70
     0
 43
0.0
 10
829.216919
 20
307.511597
 10
830.073853
 20
308.219818
 10
830.832336
 20
309.051605
 10
831.48761
 20
310.000366
 10
832.03717
 20
311.059174
 10
832.478821
 20
312.221191
 10
832.811401
 20
313.479797
 10
833.034668
 20
314.828552
 10
833.148804
 20
316.260773
 10
833.15387
 20
317.769745
 10
833.050415
 20
319.34845
 10
832.839355
 20
320.98938
 10
832.522156
 20
322.684662
 10
832.100586
 20
324.426117
 10
831.576782
 20
326.205322
 10
830.953613
 20
328.013489
 10
830.234192
 20
329.841705
 10
829.42218
 20
331.680786
 10
828.521606
 20
333.521637
 10
827.537354
 20
335.354919
 10
826.474243
 20
337.171448
 10
825.337463
 20
338.962006
 10
824.132996
 20
340.717651
 10
822.867004
 20
342.429382
 10
821.545654
 20
344.08847
 10
820.175781
 20
345.686707
 10
818.764343
 20
347.216034
 10
817.318359
 20
348.668488
 10
815.844971
 20
350.036835
 10
814.351685
 20
351.314117
 10
812.845886
 20
352.493958
 10
811.334961
 20
353.570496
 10
809.826294
 20
354.538086
 10
808.327209
 20
355.391968
 10
806.844788
 20
356.127869
 10
805.386047
 20
356.74176
 10
803.957703
 20
357.230377
 10
802.566284
 20
357.590851
 10
801.21814
 20
357.820862
 10
799.919495
 20
357.918182
 10
798.676575
 20
357.880981
 10
797.495911
 20
357.70813
 10
796.384644
 20
357.399292
 10
795.350098
 20
356.95462
 10
794.393311
 20
356.371735
  0
LWPOLYLINE
  5
120
330
EB
100
AcDbEntity
  8
0
  6
Continuous
 62
     0
370
    30
100
AcDbPolyline
 90
        6
 70
     0
 43
0.0
 10
813.493286
 20
322.092957
 10
813.961426
 20
322.521362
 10
814.326111
 20
323.058411
 10
814.582642
 20
323.686462
 10
814.732849
 20
324.39212
 10
814.780029
 20
325.174652
  0
LWPOLYLINE
  5
121
330
EB
100
AcDbEntity
  8
0
  6
Continuous
 62
     0
370
    30
100
AcDbPolyline
 90
       21
 70
     0
 43
0.0
 10
803.059387
 20
336.760284
 10
803.628296
 20
337.063263
 10
804.267761
 20
337.228821
 10
804.957947
 20
337.258453
 10
805.687866
 20
337.159088
 10
806.44696
 20
336.937592
 10
807.227356
 20
336.599884
 10
808.020752
 20
336.152496
 10
808.816711
 20
335.603119
 10
809.604553
 20
334.959808
 10
810.37323
 20
334.2323
 10
811.111267
 20
333.431885
 10
811.807434
 20
332.571075
 10
812.450989
 20
331.663025
 10
813.032227
 20
330.721893
 10
813.54187
 20
329.762146
 10
813.971924
 20
328.798462
 10
814.315674
 20
327.845215
 10
814.567871
 20
326.915833
 10
814.723816
 20
326.023529
 10
814.780029
 20
325.174652
  0
LINE
  5
122
330
EB
100
AcDbEntity
  8
0
  6
Continuous
 62
     0
370
    30
100
AcDbLine
 10
777.324977
 20
296.314989
 30
0.0
 11
813.493167
 21
322.092837
 31
0.0
  0
LINE
  5
123
330
EB
100
AcDbEntity
  8
0
  6
Continuous
 62
     0
370
    30
100
AcDbLine
 10
765.851967
 20
310.24184
 30
0.0
 11
803.046067
 21
336.750876
 31
0.0
  0
LWPOLYLINE
  5
124
330
EB
100
AcDbEntity
  8
0
  6
Continuous
 62
     0
370
    30
100
AcDbPolyline
 90
        2
 70
     0
 43
0.0
 10
792.430908
 20
284.869385
 10
792.253479
 20
285.006714
  0
LWPOLYLINE
  5
125
330
EB
100
AcDbEntity
  8
0
  6
Continuous
 62
     0
370
    30
100
AcDbPolyline
 90
        2
 70
     0
 43
0.0
 10
781.860901
 20
270.309998
 10
782.049866
 20
270.188202
  0
LINE
  5
126
330
EB
100
AcDbEntity
  8
0
  6
Continuous
 62
     0
370
    30
100
AcDbLine
 10
730.242207
 20
306.809896
 30
0.0
 11
781.861002
 21
270.309894
 31
0.0
  0
LINE
  5
127
330
EB
100
AcDbEntity
  8
0
  6
Continuous
 62
     0
370
    30
100
AcDbLine
 10
740.634512
 20
321.506834
 30
0.0
 11
756.590052
 21
310.224563
 31
0.0
  0
LINE
  5
128
330
EB
100
AcDbEntity
  8
0
  6
Continuous
 62
     0
370
    30
100
AcDbLine
 10
776.297659
 20
296.28918
 30
0.0
 11
792.253307
 21
285.006832
 31
0.0
  0
LWPOLYLINE
  5
129
330
EB
100
AcDbEntity
  8
0
  6
Continuous
 62
     0
370
    30
100
AcDbPolyline
 90
       21
 70
     0
 43
0.0
 10
740.622681
 20
321.515137
 10
740.049194
 20
321.818939
 10
739.405273
 20
321.984894
 10
738.710693
 20
322.014404
 10
737.976746
 20
321.914276
 10
737.213928
 20
321.691223
 10
736.43042
 20
321.351318
 10
735.634705
 20
320.901031
 10
734.837219
 20
320.348175
 10
734.048706
 20
319.700958
 10
733.280334
 20
318.969116
 10
732.54364
 20
318.164093
 10
731.849731
 20
317.298492
 10
731.209473
 20
316.38562
 10
730.632507
 20
315.439728
 10
730.128052
 20
314.475372
 10
729.704102
 20
313.507446
 10
729.367371
 20
312.550415
 10
729.122803
 20
311.617645
 10
728.975159
 20
310.722137
 10
728.92804
 20
309.871887
  0
LWPOLYLINE
  5
12A
330
EB
100
AcDbEntity
  8
0
  6
Continuous
 62
     0
370
    30
100
AcDbPolyline
 90
        6
 70
     0
 43
0.0
 10
728.92804
 20
309.871887
 10
728.982239
 20
309.105011
 10
729.137756
 20
308.403839
 10
729.397522
 20
307.779724
 10
729.763428
 20
307.245483
 10
730.242065
 20
306.809998
  0
ARC
  5
12B
330
EB
100
AcDbEntity
  8
0
  6
Continuous
 62
     0
370
    30
100
AcDbCircle
 10
761.208842
 20
316.756663
 30
0.0
 40
8.000103051224466
100
AcDbArc
 50
234.7359
 51
305.478216
  0
LWPOLYLINE
  5
12C
330
EB
100
AcDbEntity
  8
0
  6
Continuous
 62
     0
370
    30
100
AcDbPolyline
 90
        5
 70
     0
 43
0.0
 10
777.425781
 20
296.633759
 10
777.401245
 20
296.579498
 10
777.351685
 20
296.429932
 10
777.307861
 20
296.213165
 10
777.289307
 20
295.9328
  0
LWPOLYLINE
  5
12D
330
EB
100
AcDbEntity
  8
0
  6
Continuous
 62
     0
370
    30
100
AcDbPolyline
 90
        2
 70
     0
 43
0.0
 10
777.326416
 20
295.561737
 10
777.289307
 20
295.929382
  0
LINE
  5
12E
330
EB
100
AcDbEntity
  8
0
  6
Continuous
 62
     0
370
    30
100
AcDbLine
 10
729.888653
 20
165.638544
 30
0.0
 11
782.214555
 21
128.638543
 31
0.0
  0
LINE
  5
12F
330
EB
100
AcDbEntity
  8
0
  6
Continuous
 62
     0
370
    30
100
AcDbLine
 10
740.280959
 20
180.335482
 30
0.0
 11
792.606861
 21
143.335481
 31
0.0
  0
LINE
  5
130
330
EB
100
AcDbEntity
  8
0
  6
Continuous
 62
     0
370
    30
100
AcDbLine
 10
782.214555
 20
128.638543
 30
0.0
 11
820.398321
 21
101.638542
 31
0.0
  0
LINE
  5
131
330
EB
100
AcDbEntity
  8
0
  6
Continuous
 62
     0
370
    30
100
AcDbLine
 10
792.606861
 20
143.335481
 30
0.0
 11
830.790627
 21
116.33548
 31
0.0
  0
LWPOLYLINE
  5
132
330
EB
100
AcDbEntity
  8
0
  6
Continuous
 62
     0
370
    30
100
AcDbPolyline
 90
       13
 70
     0
 43
0.0
 10
840.016846
 20
112.632576
 10
839.845764
 20
112.603813
 10
839.55426
 20
112.584541
 10
839.132751
 20
112.59671
 10
838.581299
 20
112.660858
 10
837.907715
 20
112.793968
 10
837.123169
 20
113.009415
 10
836.241943
 20
113.315399
 10
835.278442
 20
113.716614
 10
834.246704
 20
114.21489
 10
833.15979
 20
114.809944
 10
832.029358
 20
115.500099
 10
830.790649
 20
116.335472
  0
LWPOLYLINE
  5
133
330
EB
100
AcDbEntity
  8
0
  6
Continuous
 62
     0
370
    30
100
AcDbPolyline
 90
        9
 70
     0
 43
0.0
 10
840.636108
 20
116.028641
 10
840.608276
 20
115.146446
 10
840.532227
 20
114.389191
 10
840.422058
 20
113.765785
 10
840.294556
 20
113.281288
 10
840.169006
 20
112.934235
 10
840.064148
 20
112.713623
 10
839.995728
 20
112.6007
 10
839.970642
 20
112.567574
  0
LWPOLYLINE
  5
134
330
EB
100
AcDbEntity
  8
0
  6
Continuous
 62
     0
370
    30
100
AcDbPolyline
 90
       32
 70
     0
 43
0.0
 10
858.636108
 20
116.028641
 10
858.589111
 20
114.29142
 10
858.445801
 20
112.583
 10
858.202026
 20
110.906288
 10
857.853394
 20
109.264412
 10
857.395325
 20
107.661926
 10
856.823425
 20
106.105301
 10
856.133789
 20
104.602013
 10
855.323914
 20
103.162064
 10
854.39325
 20
101.796951
 10
853.343628
 20
100.519386
 10
852.180115
 20
99.342499
 10
850.910706
 20
98.278885
 10
849.546387
 20
97.339729
 10
848.100037
 20
96.533516
 10
846.585999
 20
95.866173
 10
845.018982
 20
95.340233
 10
843.412476
 20
94.955078
 10
841.778687
 20
94.707726
 10
840.127747
 20
94.593513
 10
838.467834
 20
94.60643
 10
836.803772
 20
94.740295
 10
835.139648
 20
94.988892
 10
833.478455
 20
95.346458
 10
831.821289
 20
95.80793
 10
830.169189
 20
96.36879
 10
828.522705
 20
97.025085
 10
826.882935
 20
97.773468
 10
825.250671
 20
98.610901
 10
823.627197
 20
99.534363
 10
822.013855
 20
100.541107
 10
820.398315
 20
101.638542
  0
LINE
  5
135
330
EB
100
AcDbEntity
  8
0
  6
Continuous
 62
     0
370
    30
100
AcDbLine
 10
858.636105
 20
116.02864
 30
0.0
 11
858.636105
 21
209.366732
 31
0.0
  0
LINE
  5
136
330
EB
100
AcDbEntity
  8
0
  6
Continuous
 62
     0
370
    30
100
AcDbLine
 10
840.636105
 20
116.02864
 30
0.0
 11
840.636105
 21
209.366732
 31
0.0
  0
LWPOLYLINE
  5
137
330
EB
100
AcDbEntity
  8
0
  6
Continuous
 62
     0
370
    30
100
AcDbPolyline
 90
       24
 70
     0
 43
0.0
 10
820.398315
 20
243.059891
 10
821.725891
 20
242.075455
 10
823.068542
 20
240.987381
 10
824.414978
 20
239.802414
 10
825.755371
 20
238.527985
 10
827.079895
 20
237.1716
 10
828.3797
 20
235.74118
 10
829.646606
 20
234.244949
 10
830.873291
 20
232.69162
 10
832.052429
 20
231.089935
 10
833.177063
 20
229.448822
 10
834.240967
 20
227.77771
 10
835.238098
 20
226.086258
 10
836.163086
 20
224.384552
 10
837.010742
 20
222.682907
 10
837.776184
 20
220.992035
 10
838.455811
 20
219.323715
 10
839.046082
 20
217.690033
 10
839.543823
 20
216.103302
 10
839.947021
 20
214.577103
 10
840.255554
 20
213.126236
 10
840.470886
 20
211.766647
 10
840.595581
 20
210.514526
 10
840.636108
 20
209.36673
  0
LWPOLYLINE
  5
138
330
EB
100
AcDbEntity
  8
0
  6
Continuous
 62
     0
370
    30
100
AcDbPolyline
 90
       23
 70
     0
 43
0.0
 10
830.790649
 20
257.756836
 10
832.827454
 20
256.244446
 10
834.835449
 20
254.609695
 10
836.807922
 20
252.859894
 10
838.738281
 20
251.002472
 10
840.619812
 20
249.044922
 10
842.44519
 20
246.995758
 10
844.206909
 20
244.863876
 10
845.897827
 20
242.658691
 10
847.510498
 20
240.389816
 10
849.038025
 20
238.067108
 10
850.473633
 20
235.700623
 10
851.810913
 20
233.30043
 10
853.043945
 20
230.876419
 10
854.166992
 20
228.4384
 10
855.175171
 20
225.995468
 10
856.063538
 20
223.556458
 10
856.827698
 20
221.129562
 10
857.463501
 20
218.722244
 10
857.966797
 20
216.340881
 10
858.333191
 20
213.99057
 10
858.558105
 20
211.676254
 10
858.636108
 20
209.36673
  0
LINE
  5
139
330
EB
100
AcDbEntity
  8
0
  6
Continuous
 62
     0
370
    30
100
AcDbLine
 10
830.790627
 20
257.756832
 30
0.0
 11
792.606861
 21
284.756832
 31
0.0
  0
LINE
  5
13A
330
EB
100
AcDbEntity
  8
0
  6
Continuous
 62
     0
370
    30
100
AcDbLine
 10
820.398321
 20
243.059894
 30
0.0
 11
782.214555
 21
270.059894
 31
0.0
  0
LINE
  5
13B
330
EB
100
AcDbEntity
  8
0
  6
Continuous
 62
     0
370
    30
100
AcDbLine
 10
740.280959
 20
321.756834
 30
0.0
 11
702.097193
 21
348.756835
 31
0.0
  0
LINE
  5
13C
330
EB
100
AcDbEntity
  8
0
  6
Continuous
 62
     0
370
    30
100
AcDbLine
 10
729.888653
 20
307.059896
 30
0.0
 11
691.704887
 21
334.059897
 31
0.0
  0
LWPOLYLINE
  5
13D
330
EB
100
AcDbEntity
  8
0
  6
Continuous
 62
     0
370
    30
100
AcDbPolyline
 90
       32
 70
     0
 43
0.0
 10
663.859436
 20
334.36673
 10
663.906372
 20
336.103943
 10
664.049683
 20
337.812378
 10
664.293457
 20
339.489105
 10
664.642151
 20
341.130951
 10
665.10022
 20
342.733459
 10
665.672058
 20
344.29007
 10
666.361694
 20
345.793365
 10
667.171631
 20
347.233307
 10
668.102295
 20
348.598419
 10
669.151855
 20
349.875977
 10
670.315369
 20
351.052887
 10
671.584778
 20
352.116486
 10
672.949158
 20
353.055664
 10
674.395508
 20
353.861877
 10
675.909546
 20
354.529205
 10
677.476562
 20
355.055145
 10
679.083069
 20
355.440308
 10
680.716858
 20
355.687653
 10
682.367737
 20
355.80188
 10
684.02771
 20
355.78894
 10
685.691711
 20
355.65509
 10
687.355835
 20
355.406494
 10
689.01709
 20
355.04892
 10
690.674194
 20
354.587463
 10
692.326355
 20
354.026581
 10
693.972778
 20
353.3703
 10
695.61261
 20
352.621918
 10
697.244812
 20
351.784485
 10
698.868347
 20
350.861023
 10
700.481628
 20
349.854279
 10
702.097168
 20
348.756836
  0
LWPOLYLINE
  5
13E
330
EB
100
AcDbEntity
  8
0
  6
Continuous
 62
     0
370
    30
100
AcDbPolyline
 90
        8
 70
     0
 43
0.0
 10
682.478699
 20
337.762878
 10
682.402466
 20
337.626648
 10
682.298584
 20
337.392517
 10
682.180481
 20
337.046844
 10
682.063293
 20
336.582703
 10
681.962341
 20
335.999542
 10
681.890808
 20
335.301666
 10
681.859436
 20
334.36673
  0
LWPOLYLINE
  5
13F
330
EB
100
AcDbEntity
  8
0
  6
Continuous
 62
     0
370
    30
100
AcDbPolyline
 90
       14
 70
     0
 43
0.0
 10
691.704895
 20
334.059906
 10
690.498108
 20
334.874847
 10
689.325928
 20
335.591125
 10
688.200195
 20
336.205139
 10
687.134705
 20
336.715485
 10
686.143799
 20
337.12146
 10
685.243042
 20
337.425415
 10
684.448669
 20
337.633179
 10
683.776123
 20
337.754944
 10
683.237366
 20
337.806244
 10
682.839355
 20
337.80719
 10
682.578857
 20
337.781921
 10
682.441711
 20
337.75351
 10
682.402283
 20
337.740967
  0
LINE
  5
140
330
EB
100
AcDbEntity
  8
0
  6
Continuous
 62
     0
370
    30
100
AcDbLine
 10
663.859409
 20
334.366736
 30
0.0
 11
663.859409
 21
241.028644
 31
0.0
  0
LINE
  5
141
330
EB
100
AcDbEntity
  8
0
  6
Continuous
 62
     0
370
    30
100
AcDbLine
 10
681.859409
 20
334.366737
 30
0.0
 11
681.859409
 21
241.028645
 31
0.0
  0
LWPOLYLINE
  5
142
330
EB
100
AcDbEntity
  8
0
  6
Continuous
 62
     0
370
    30
100
AcDbPolyline
 90
       23
 70
     0
 43
0.0
 10
691.704895
 20
192.63855
 10
689.668091
 20
194.15094
 10
687.660034
 20
195.78569
 10
685.687561
 20
197.535477
 10
683.757202
 20
199.392914
 10
681.875732
 20
201.350449
 10
680.050354
 20
203.399628
 10
678.288574
 20
205.531509
 10
676.597717
 20
207.736694
 10
674.985046
 20
210.005554
 10
673.45752
 20
212.328262
 10
672.021912
 20
214.694748
 10
670.684631
 20
217.094955
 10
669.451599
 20
219.518951
 10
668.328491
 20
221.95697
 10
667.320374
 20
224.399902
 10
666.432007
 20
226.838913
 10
665.667847
 20
229.265808
 10
665.031982
 20
231.673141
 10
664.528687
 20
234.054489
 10
664.162354
 20
236.404816
 10
663.937378
 20
238.719116
 10
663.859436
 20
241.028641
  0
LWPOLYLINE
  5
143
330
EB
100
AcDbEntity
  8
0
  6
Continuous
 62
     0
370
    30
100
AcDbPolyline
 90
       24
 70
     0
 43
0.0
 10
681.859436
 20
241.028641
 10
681.898315
 20
239.904144
 10
682.021362
 20
238.654343
 10
682.234863
 20
237.296661
 10
682.541443
 20
235.847397
 10
682.942932
 20
234.322571
 10
683.438843
 20
232.736954
 10
684.027344
 20
231.104065
 10
684.705139
 20
229.436264
 10
685.468933
 20
227.745712
 10
686.315002
 20
226.044205
 10
687.238525
 20
224.342392
 10
688.234375
 20
222.650681
 10
689.296997
 20
220.97908
 10
690.420471
 20
219.337296
 10
691.598633
 20
217.734772
 10
692.824341
 20
216.180389
 10
694.090576
 20
214.682953
 10
695.389832
 20
213.251175
 10
696.713989
 20
211.893295
 10
698.054138
 20
210.617188
 10
699.400513
 20
209.430374
 10
700.743347
 20
208.340347
 10
702.097168
 20
207.33548
  0
LINE
  5
144
330
EB
100
AcDbEntity
  8
0
  6
Continuous
 62
     0
370
    30
100
AcDbLine
 10
691.704887
 20
192.638545
 30
0.0
 11
729.888653
 21
165.638544
 31
0.0
  0
LINE
  5
145
330
EB
100
AcDbEntity
  8
0
  6
Continuous
 62
     0
370
    30
100
AcDbLine
 10
702.097193
 20
207.335483
 30
0.0
 11
740.280959
 21
180.335482
 31
0.0
  0
ENDBLK
  5
147
330
EB
100
AcDbEntity
  8
0
100
AcDbBlockEnd
  0
BLOCK
  5
16B
330
149
100
AcDbEntity
  8
0
100
AcDbBlockBegin
  2
e
 70
     0
 10
283.847931
 20
-0.000015
 30
0.0
  3
e
  1

  0
ARC
  5
14A
330
149
100
AcDbEntity
  8
0
  6
Continuous
 62
     0
370
    30
100
AcDbCircle
 10
166.393766
 20
714.4095
 30
0.0
 40
9.0
100
AcDbArc
 50
0.0
 51
180.0
  0
LINE
  5
14B
330
149
100
AcDbEntity
  8
0
  6
Continuous
 62
     0
370
    30
100
AcDbLine
 10
157.393766
 20
714.4095
 30
0.0
 11
157.393765
 21
680.4095
 31
0.0
  0
LWPOLYLINE
  5
14C
330
149
100
AcDbEntity
  8
0
  6
Continuous
 62
     0
370
     0
100
AcDbPolyline
 90
       25
 70
     0
 43
0.0
 10
157.393768
 20
680.409485
 10
157.459167
 20
680.409485
 10
157.665802
 20
680.409485
 10
158.025436
 20
680.409485
 10
158.542999
 20
680.409485
 10
159.214996
 20
680.409485
 10
160.02887
 20
680.409485
 10
160.963455
 20
680.409485
 10
161.990875
 20
680.409485
 10
163.079147
 20
680.409485
 10
164.195297
 20
680.409485
 10
165.308365
 20
680.409485
 10
166.391495
 20
680.409485
 10
167.474457
 20
680.409485
 10
168.587448
 20
680.409485
 10
169.703659
 20
680.409485
 10
170.792114
 20
680.409485
 10
171.819855
 20
680.409485
 10
172.754913
 20
680.409485
 10
173.569351
 20
680.409485
 10
174.241989
 20
680.409485
 10
174.760223
 20
680.409485
 10
175.120514
 20
680.409485
 10
175.327789
 20
680.409485
 10
175.393768
 20
680.409485
  0
LINE
  5
14D
330
149
100
AcDbEntity
  8
0
  6
Continuous
 62
     0
370
    30
100
AcDbLine
 10
157.393765
 20
680.4095
 30
0.0
 11
157.393765
 21
548.4095
 31
0.0
  0
LINE
  5
14E
330
149
100
AcDbEntity
  8
0
  6
Continuous
 62
     0
370
     0
100
AcDbLine
 10
157.393765
 20
548.4095
 30
0.0
 11
175.393765
 21
548.4095
 31
0.0
  0
LINE
  5
14F
330
149
100
AcDbEntity
  8
0
  6
Continuous
 62
     0
370
    30
100
AcDbLine
 10
157.393765
 20
548.4095
 30
0.0
 11
157.393766
 21
514.4095
 31
0.0
  0
ARC
  5
150
330
149
100
AcDbEntity
  8
0
  6
Continuous
 62
     0
370
    30
100
AcDbCircle
 10
166.393766
 20
514.4095
 30
0.0
 40
8.99999999999999
100
AcDbArc
 50
180.0
 51
360.0
  0
LINE
  5
151
330
149
100
AcDbEntity
  8
0
  6
Continuous
 62
     0
370
     0
100
AcDbLine
 10
175.393628
 20
714.460032
 30
0.0
 11
183.393502
 21
714.504949
 31
0.0
  0
LWPOLYLINE
  5
152
330
149
100
AcDbEntity
  8
0
  6
Continuous
 62
     0
370
     0
100
AcDbPolyline
 90
       21
 70
     0
 43
0.0
 10
166.343231
 20
723.409363
 10
167.489731
 20
723.395386
 10
168.63385
 20
723.340393
 10
169.772766
 20
723.243896
 10
170.903687
 20
723.105347
 10
172.023727
 20
722.924438
 10
173.129532
 20
722.700195
 10
174.217407
 20
722.431458
 10
175.283005
 20
722.117126
 10
176.321274
 20
721.755615
 10
177.326767
 20
721.345581
 10
178.292679
 20
720.885437
 10
179.210953
 20
720.373718
 10
180.071884
 20
719.809143
 10
180.86467
 20
719.190979
 10
181.576019
 20
718.519897
 10
182.191559
 20
717.797485
 10
182.695526
 20
717.027832
 10
183.072189
 20
716.218567
 10
183.307648
 20
715.379456
 10
183.393509
 20
714.504944
  0
LWPOLYLINE
  5
153
330
149
100
AcDbEntity
  8
0
  6
Continuous
 62
     0
370
     0
100
AcDbPolyline
 90
       13
 70
     0
 43
0.0
 10
183.393509
 20
714.504944
 10
183.321335
 20
713.650085
 10
183.099197
 20
712.809326
 10
182.735825
 20
711.996277
 10
182.244873
 20
711.221436
 10
181.641739
 20
710.491882
 10
180.942017
 20
709.812317
 10
180.160172
 20
709.184692
 10
179.309448
 20
708.60968
 10
178.400482
 20
708.086609
 10
177.443359
 20
707.614441
 10
176.44603
 20
707.191895
 10
175.393768
 20
706.810486
  0
LINE
  5
154
330
149
100
AcDbEntity
  8
0
  6
Continuous
 62
     0
370
     0
100
AcDbLine
 10
232.84219
 20
723.782733
 30
0.0
 11
232.892722
 21
714.782875
 31
0.0
  0
LINE
  5
155
330
149
100
AcDbEntity
  8
0
  6
Continuous
 62
     0
370
     0
100
AcDbLine
 10
232.892722
 20
714.782875
 30
0.0
 11
232.943254
 21
705.783016
 31
0.0
  0
LINE
  5
156
330
149
100
AcDbEntity
  8
0
  6
Continuous
 62
     0
370
     0
100
AcDbLine
 10
237.879116
 20
717.219947
 30
0.0
 11
237.724204
 21
744.810475
 31
0.0
  0
LINE
  5
157
330
149
100
AcDbEntity
  8
0
  6
Continuous
 62
     0
370
     0
100
AcDbLine
 10
238.061083
 20
684.811421
 30
0.0
 11
237.879116
 21
717.219947
 31
0.0
  0
LINE
  5
158
330
149
100
AcDbEntity
  8
0
  6
Continuous
 62
     0
370
    30
100
AcDbLine
 10
238.379334
 20
717.182604
 30
0.0
 11
238.558268
 21
685.31422
 31
0.0
  0
LWPOLYLINE
  5
159
330
149
100
AcDbEntity
  8
0
  6
Continuous
 62
     0
370
    30
100
AcDbPolyline
 90
       22
 70
     0
 43
0.0
 10
238.227005
 20
744.313293
 10
238.227371
 20
744.248474
 10
238.228485
 20
744.048401
 10
238.230408
 20
743.705811
 10
238.23317
 20
743.215088
 10
238.236771
 20
742.572571
 10
238.241241
 20
741.776855
 10
238.246567
 20
740.828918
 10
238.252716
 20
739.732361
 10
238.259674
 20
738.493286
 10
238.267395
 20
737.120361
 10
238.275787
 20
735.624573
 10
238.284805
 20
734.01886
 10
238.294357
 20
732.317871
 10
238.304352
 20
730.537354
 10
238.314697
 20
728.69397
 10
238.325302
 20
726.804443
 10
238.33609
 20
724.88562
 10
238.346939
 20
722.95343
 10
238.357773
 20
721.023132
 10
238.368515
 20
719.108582
 10
238.379333
 20
717.182617
  0
LINE
  5
15A
330
149
100
AcDbEntity
  8
0
  6
Continuous
 62
     0
370
     0
100
AcDbLine
 10
233.724267
 20
744.788016
 30
0.0
 11
233.87918
 21
717.197488
 31
0.0
  0
LINE
  5
15B
330
149
100
AcDbEntity
  8
0
  6
Continuous
 62
     0
370
     0
100
AcDbLine
 10
233.87918
 20
717.197488
 30
0.0
 11
234.061146
 21
684.788962
 31
0.0
  0
LINE
  5
15C
330
149
100
AcDbEntity
  8
0
  6
Continuous
 62
     0
370
    30
100
AcDbLine
 10
233.379412
 20
717.154531
 30
0.0
 11
233.227082
 21
744.285217
 31
0.0
  0
LINE
  5
15D
330
149
100
AcDbEntity
  8
0
  6
Continuous
 62
     0
370
    30
100
AcDbLine
 10
233.558346
 20
685.286147
 30
0.0
 11
233.379412
 21
717.154531
 31
0.0
  0
ARC
  5
15E
330
149
100
AcDbEntity
  8
0
  6
Continuous
 62
     0
370
    30
100
AcDbCircle
 10
233.727089
 20
744.288009
 30
0.0
 40
0.5000150271669881
100
AcDbArc
 50
90.32342
 51
180.319976
  0
ARC
  5
15F
330
149
100
AcDbEntity
  8
0
  6
Continuous
 62
     0
370
    30
100
AcDbCircle
 10
234.058353
 20
685.288969
 30
0.0
 40
0.5000150271631805
100
AcDbArc
 50
180.32342
 51
270.319976
  0
LINE
  5
160
330
149
100
AcDbEntity
  8
0
  6
Continuous
 62
     0
370
    30
100
AcDbLine
 10
233.724267
 20
744.788016
 30
0.0
 11
237.724204
 21
744.810475
 31
0.0
  0
LINE
  5
161
330
149
100
AcDbEntity
  8
0
  6
Continuous
 62
     0
370
    30
100
AcDbLine
 10
234.061146
 20
684.788962
 30
0.0
 11
238.061083
 21
684.811421
 31
0.0
  0
ARC
  5
162
330
149
100
AcDbEntity
  8
0
  6
Continuous
 62
     0
370
    30
100
AcDbCircle
 10
237.726996
 20
744.310468
 30
0.0
 40
0.5000149691671816
100
AcDbArc
 50
0.331516
 51
90.319983
  0
ARC
  5
163
330
149
100
AcDbEntity
  8
0
  6
Continuous
 62
     0
370
    30
100
AcDbCircle
 10
238.05826
 20
685.311428
 30
0.0
 40
0.5000149691639371
100
AcDbArc
 50
270.323413
 51
0.31188
  0
ARC
  5
164
330
149
100
AcDbEntity
  8
0
  6
Continuous
 62
     0
370
    30
100
AcDbCircle
 10
232.940443
 20
706.283012
 30
0.0
 40
0.5000034422831232
100
AcDbArc
 50
270.322092
 51
0.321303
  0
ARC
  5
165
330
149
100
AcDbEntity
  8
0
  6
Continuous
 62
     0
370
    30
100
AcDbCircle
 10
232.844994
 20
723.282737
 30
0.0
 40
0.5000034422857508
100
AcDbArc
 50
0.322092
 51
90.321303
  0
LINE
  5
166
330
149
100
AcDbEntity
  8
0
  6
Continuous
 62
     0
370
    30
100
AcDbLine
 10
175.39377
 20
705.459891
 30
0.0
 11
232.943254
 21
705.783016
 31
0.0
  0
LINE
  5
167
330
149
100
AcDbEntity
  8
0
  6
Continuous
 62
     0
370
    30
100
AcDbLine
 10
166.343238
 20
723.409358
 30
0.0
 11
232.84219
 21
723.782733
 31
0.0
  0
LINE
  5
168
330
149
100
AcDbEntity
  8
0
  6
Continuous
 62
     0
370
    30
100
AcDbLine
 10
175.393765
 20
548.4095
 30
0.0
 11
175.393766
 21
514.4095
 31
0.0
  0
LINE
  5
169
330
149
100
AcDbEntity
  8
0
  6
Continuous
 62
     0
370
    30
100
AcDbLine
 10
175.393765
 20
548.4095
 30
0.0
 11
175.393765
 21
680.4095
 31
0.0
  0
LINE
  5
16A
330
149
100
AcDbEntity
  8
0
  6
Continuous
 62
     0
370
    30
100
AcDbLine
 10
175.393766
 20
714.4095
 30
0.0
 11
175.393765
 21
680.4095
 31
0.0
  0
ENDBLK
  5
16C
330
149
100
AcDbEntity
  8
0
100
AcDbBlockEnd
  0
ENDSEC
  0
SECTION
  2
ENTITIES
  0
INSERT
  5
90
330
1F
100
AcDbEntity
  8
0
  6
Continuous
 62
   250
370
     0
100
AcDbBlockReference
  2
a
 10
298.024719
 20
157.701675
 30
0.0
  0
INSERT
  5
C7
330
1F
100
AcDbEntity
  8
0
  6
Continuous
 62
   250
370
     0
100
AcDbBlockReference
  2
b
 10
298.024719
 20
157.701675
 30
0.0
  0
INSERT
  5
EA
330
1F
100
AcDbEntity
  8
0
  6
Continuous
 62
   250
370
     0
100
AcDbBlockReference
  2
c
 10
298.024719
 20
284.905899
 30
0.0
  0
INSERT
  5
148
330
1F
100
AcDbEntity
  8
0
  6
Continuous
 62
   250
370
     0
100
AcDbBlockReference
  2
d
 10
298.024719
 20
63.524841
 30
0.0
  0
INSERT
  5
16D
330
1F
100
AcDbEntity
  8
0
  6
Continuous
 62
   250
370
     0
100
AcDbBlockReference
  2
e
 10
283.847931
 20
-0.000015
 30
0.0
  0
ENDSEC
  0
SECTION
  2
OBJECTS
  0
DICTIONARY
  5
C
330
0
100
AcDbDictionary
281
     1
  3
ACAD_GROUP
350
D
  3
ACAD_LAYOUT
350
1A
  3
ACAD_MLEADERSTYLE
350
170
  3
ACAD_MLINESTYLE
350
17
  3
ACAD_PLOTSETTINGS
350
19
  3
ACAD_PLOTSTYLENAME
350
E
  3
ACAD_VISUALSTYLE
350
2A
  3
AcDbVariableDictionary
350
16E
  0
DICTIONARY
  5
D
102
{ACAD_REACTORS
330
C
102
}
330
C
100
AcDbDictionary
281
     1
  0
DICTIONARY
  5
1A
102
{ACAD_REACTORS
330
C
102
}
330
C
100
AcDbDictionary
281
     1
  3
Layout1
350
1E
  3
Layout2
350
26
  3
Model
350
22
  0
DICTIONARY
  5
170
102
{ACAD_REACTORS
330
C
102
}
330
C
100
AcDbDictionary
281
     1
  0
DICTIONARY
  5
17
102
{ACAD_REACTORS
330
C
102
}
330
C
100
AcDbDictionary
281
     1
  3
Standard
350
18
  0
DICTIONARY
  5
19
102
{ACAD_REACTORS
330
C
102
}
330
C
100
AcDbDictionary
281
     1
  0
ACDBDICTIONARYWDFLT
  5
E
102
{ACAD_REACTORS
330
C
102
}
330
C
100
AcDbDictionary
281
     1
  3
Normal
350
F
100
AcDbDictionaryWithDefault
340
F
  0
DICTIONARY
  5
2A
102
{ACAD_REACTORS
330
C
102
}
330
C
100
AcDbDictionary
281
     1
  3
2dWireframe
350
2F
  3
3D Hidden
350
31
  3
3dWireframe
350
30
  3
Basic
350
32
  3
Brighten
350
36
  3
ColorChange
350
3A
  3
Conceptual
350
34
  3
Dim
350
35
  3
Facepattern
350
39
  3
Flat
350
2B
  3
FlatWithEdges
350
2C
  3
Gouraud
350
2D
  3
GouraudWithEdges
350
2E
  3
Linepattern
350
38
  3
Realistic
350
33
  3
Thicken
350
37
  0
DICTIONARY
  5
16E
102
{ACAD_REACTORS
330
C
102
}
330
C
100
AcDbDictionary
281
     1
  3
PSOLHEIGHT
350
172
  3
PSOLWIDTH
350
171
  0
LAYOUT
  5
1E
102
{ACAD_REACTORS
330
1A
102
}
330
1A
100
AcDbPlotSettings
  1

  2
none_device
  4

  6

 40
0.0
 41
0.0
 42
0.0
 43
0.0
 44
0.0
 45
0.0
 46
0.0
 47
0.0
 48
0.0
 49
0.0
140
0.0
141
0.0
142
1.0
143
1.0
 70
   688
 72
     0
 73
     0
 74
     5
  7

 75
    16
147
1.0
148
0.0
149
0.0
100
AcDbLayout
  1
Layout1
 70
     1
 71
     1
 10
0.0
 20
0.0
 11
420.0
 21
297.0
 12
0.0
 22
0.0
 32
0.0
 14
1.000000E+20
 24
1.000000E+20
 34
1.000000E+20
 15
-1.000000E+20
 25
-1.000000E+20
 35
-1.000000E+20
146
0.0
 13
0.0
 23
0.0
 33
0.0
 16
1.0
 26
0.0
 36
0.0
 17
0.0
 27
1.0
 37
0.0
 76
     0
330
1B
  0
LAYOUT
  5
26
102
{ACAD_REACTORS
330
1A
102
}
330
1A
100
AcDbPlotSettings
  1

  2
none_device
  4

  6

 40
0.0
 41
0.0
 42
0.0
 43
0.0
 44
0.0
 45
0.0
 46
0.0
 47
0.0
 48
0.0
 49
0.0
140
0.0
141
0.0
142
1.0
143
1.0
 70
   688
 72
     0
 73
     0
 74
     5
  7

 75
    16
147
1.0
148
0.0
149
0.0
100
AcDbLayout
  1
Layout2
 70
     1
 71
     2
 10
0.0
 20
0.0
 11
0.0
 21
0.0
 12
0.0
 22
0.0
 32
0.0
 14
0.0
 24
0.0
 34
0.0
 15
0.0
 25
0.0
 35
0.0
146
0.0
 13
0.0
 23
0.0
 33
0.0
 16
1.0
 26
0.0
 36
0.0
 17
0.0
 27
1.0
 37
0.0
 76
     0
330
23
  0
LAYOUT
  5
22
102
{ACAD_REACTORS
330
1A
102
}
330
1A
100
AcDbPlotSettings
  1

  2
none_device
  4

  6

 40
0.0
 41
0.0
 42
0.0
 43
0.0
 44
0.0
 45
0.0
 46
0.0
 47
0.0
 48
0.0
 49
0.0
140
0.0
141
0.0
142
1.0
143
1.0
 70
  1712
 72
     0
 73
     0
 74
     0
  7

 75
     0
147
1.0
148
0.0
149
0.0
100
AcDbLayout
  1
Model
 70
     1
 71
     0
 10
157.393768
 20
63.748283
 11
858.636108
 21
744.810486
 12
0.0
 22
0.0
 32
0.0
 14
157.393768
 24
63.748283
 34
0.0
 15
858.636108
 25
744.810486
 35
0.0
146
0.0
 13
0.0
 23
0.0
 33
0.0
 16
1.0
 26
0.0
 36
0.0
 17
0.0
 27
1.0
 37
0.0
 76
     0
330
1F
331
29
  0
MLINESTYLE
  5
18
102
{ACAD_REACTORS
330
17
102
}
330
17
100
AcDbMlineStyle
  2
Standard
 70
     0
  3

 62
   256
 51
90.0
 52
90.0
 71
     2
 49
0.5
 62
   256
  6
BYLAYER
 49
-0.5
 62
   256
  6
BYLAYER
  0
ACDBPLACEHOLDER
  5
F
102
{ACAD_REACTORS
330
E
102
}
330
E
  0
VISUALSTYLE
  5
2F
102
{ACAD_REACTORS
330
2A
102
}
330
2A
100
AcDbVisualStyle
  2
2dWireframe
 70
     4
 71
     0
 72
     2
 73
     0
 90
        0
 40
-0.6
 41
-30.0
 62
     5
 63
     7
 74
     1
 91
        4
 64
     7
 65
   257
 75
     1
175
     1
 42
1.0
 92
        0
 66
   257
 43
1.0
 76
     1
 77
     6
 78
     2
 67
     7
 79
     5
170
     0
171
     0
290
     0
174
     0
 93
        1
 44
0.0
173
     0
291
     0
 45
0.0
1001
ACAD
1000
AcDbSavedByObjectVersion
1070
     0
  0
VISUALSTYLE
  5
31
102
{ACAD_REACTORS
330
2A
102
}
330
2A
100
AcDbVisualStyle
  2
3D Hidden
 70
     6
 71
     1
 72
     2
 73
     2
 90
        0
 40
-0.6
 41
-30.0
 62
     5
 63
     7
 74
     2
 91
        2
 64
     7
 65
   257
 75
     2
175
     1
 42
40.0
 92
        0
 66
   257
 43
1.0
 76
     1
 77
     6
 78
     2
 67
     7
 79
     3
170
     0
171
     0
290
     0
174
     0
 93
        1
 44
0.0
173
     0
291
     0
 45
0.0
1001
ACAD
1000
AcDbSavedByObjectVersion
1070
     0
  0
VISUALSTYLE
  5
30
102
{ACAD_REACTORS
330
2A
102
}
330
2A
100
AcDbVisualStyle
  2
3dWireframe
 70
     5
 71
     0
 72
     2
 73
     0
 90
        0
 40
-0.6
 41
-30.0
 62
     5
 63
     7
 74
     1
 91
        4
 64
     7
 65
   257
 75
     1
175
     1
 42
1.0
 92
        0
 66
   257
 43
1.0
 76
     1
 77
     6
 78
     2
 67
     7
 79
     5
170
     0
171
     0
290
     0
174
     0
 93
        1
 44
0.0
173
     0
291
     0
 45
0.0
1001
ACAD
1000
AcDbSavedByObjectVersion
1070
     0
  0
VISUALSTYLE
  5
32
102
{ACAD_REACTORS
330
2A
102
}
330
2A
100
AcDbVisualStyle
  2
Basic
 70
     7
 71
     1
 72
     0
 73
     1
 90
        0
 40
-0.6
 41
-30.0
 62
     5
 63
     7
 74
     0
 91
        4
 64
     7
 65
   257
 75
     1
175
     1
 42
1.0
 92
        8
 66
     7
 43
1.0
 76
     1
 77
     6
 78
     2
 67
     7
 79
     5
170
     0
171
     0
290
     0
174
     0
 93
        1
 44
0.0
173
     0
291
     1
 45
0.0
1001
ACAD
1000
AcDbSavedByObjectVersion
1070
     0
  0
VISUALSTYLE
  5
36
102
{ACAD_REACTORS
330
2A
102
}
330
2A
100
AcDbVisualStyle
  2
Brighten
 70
    12
 71
     2
 72
     2
 73
     0
 90
        0
 40
-0.6
 41
-30.0
 62
     5
 63
     7
 74
     1
 91
        4
 64
     7
 65
   257
 75
     1
175
     1
 42
1.0
 92
        8
 66
     7
 43
1.0
 76
     1
 77
     6
 78
     2
 67
     7
 79
     5
170
     0
171
     0
290
     0
174
     0
 93
        1
 44
50.0
173
     0
291
     1
 45
0.0
1001
ACAD
1000
AcDbSavedByObjectVersion
1070
     0
  0
VISUALSTYLE
  5
3A
102
{ACAD_REACTORS
330
2A
102
}
330
2A
100
AcDbVisualStyle
  2
ColorChange
 70
    16
 71
     2
 72
     2
 73
     3
 90
        0
 40
-0.6
 41
-30.0
 62
     5
 63
     8
 74
     1
 91
        4
 64
     7
 65
   257
 75
     1
175
     1
 42
1.0
 92
        8
 66
     8
 43
1.0
 76
     1
 77
     6
 78
     2
 67
     7
 79
     5
170
     0
171
     0
290
     0
174
     0
 93
        1
 44
0.0
173
     0
291
     1
 45
0.0
1001
ACAD
1000
AcDbSavedByObjectVersion
1070
     0
  0
VISUALSTYLE
  5
34
102
{ACAD_REACTORS
330
2A
102
}
330
2A
100
AcDbVisualStyle
  2
Conceptual
 70
     9
 71
     3
 72
     2
 73
     0
 90
        0
 40
-0.6
 41
-30.0
 62
     5
 63
     7
 74
     2
 91
        2
 64
     7
 65
   257
 75
     1
175
     1
 42
40.0
 92
        8
 66
     7
 43
1.0
 76
     1
 77
     6
 78
     2
 67
     7
 79
     3
170
     0
171
     0
290
     0
174
     0
 93
        1
 44
0.0
173
     0
291
     0
 45
0.0
1001
ACAD
1000
AcDbSavedByObjectVersion
1070
     0
  0
VISUALSTYLE
  5
35
102
{ACAD_REACTORS
330
2A
102
}
330
2A
100
AcDbVisualStyle
  2
Dim
 70
    11
 71
     2
 72
     2
 73
     0
 90
        0
 40
-0.6
 41
-30.0
 62
     5
 63
     7
 74
     1
 91
        4
 64
     7
 65
   257
 75
     1
175
     1
 42
1.0
 92
        8
 66
     7
 43
1.0
 76
     1
 77
     6
 78
     2
 67
     7
 79
     5
170
     0
171
     0
290
     0
174
     0
 93
        1
 44
-50.0
173
     0
291
     1
 45
0.0
1001
ACAD
1000
AcDbSavedByObjectVersion
1070
     0
  0
VISUALSTYLE
  5
39
102
{ACAD_REACTORS
330
2A
102
}
330
2A
100
AcDbVisualStyle
  2
Facepattern
 70
    15
 71
     2
 72
     2
 73
     0
 90
        0
 40
-0.6
 41
-30.0
 62
     5
 63
     7
 74
     1
 91
        4
 64
     7
 65
   257
 75
     1
175
     1
 42
1.0
 92
        8
 66
     7
 43
1.0
 76
     1
 77
     6
 78
     2
 67
     7
 79
     5
170
     0
171
     0
290
     0
174
     0
 93
        1
 44
0.0
173
     0
291
     1
 45
0.0
1001
ACAD
1000
AcDbSavedByObjectVersion
1070
     0
  0
VISUALSTYLE
  5
2B
102
{ACAD_REACTORS
330
2A
102
}
330
2A
100
AcDbVisualStyle
  2
Flat
 70
     0
 71
     2
 72
     1
 73
     1
 90
        2
 40
-0.6
 41
30.0
 62
     5
 63
     7
 74
     0
 91
        4
 64
     7
 65
   257
 75
     1
175
     1
 42
1.0
 92
        8
 66
     7
 43
1.0
 76
     1
 77
     6
 78
     2
 67
     7
 79
     5
170
     0
171
     0
290
     0
174
     0
 93
       13
 44
0.0
173
     0
291
     1
 45
0.0
1001
ACAD
1000
AcDbSavedByObjectVersion
1070
     0
  0
VISUALSTYLE
  5
2C
102
{ACAD_REACTORS
330
2A
102
}
330
2A
100
AcDbVisualStyle
  2
FlatWithEdges
 70
     1
 71
     2
 72
     1
 73
     1
 90
        2
 40
-0.6
 41
30.0
 62
     5
 63
     7
 74
     1
 91
        4
 64
     7
 65
   257
 75
     1
175
     1
 42
1.0
 92
        0
 66
   257
 43
1.0
 76
     1
 77
     6
 78
     2
 67
     7
 79
     5
170
     0
171
     0
290
     0
174
     0
 93
       13
 44
0.0
173
     0
291
     1
 45
0.0
1001
ACAD
1000
AcDbSavedByObjectVersion
1070
     0
  0
VISUALSTYLE
  5
2D
102
{ACAD_REACTORS
330
2A
102
}
330
2A
100
AcDbVisualStyle
  2
Gouraud
 70
     2
 71
     2
 72
     2
 73
     1
 90
        2
 40
-0.6
 41
30.0
 62
     5
 63
     7
 74
     0
 91
        4
 64
     7
 65
   257
 75
     1
175
     1
 42
1.0
 92
        0
 66
     7
 43
1.0
 76
     1
 77
     6
 78
     2
 67
     7
 79
     5
170
     0
171
     0
290
     0
174
     0
 93
       13
 44
0.0
173
     0
291
     1
 45
0.0
1001
ACAD
1000
AcDbSavedByObjectVersion
1070
     0
  0
VISUALSTYLE
  5
2E
102
{ACAD_REACTORS
330
2A
102
}
330
2A
100
AcDbVisualStyle
  2
GouraudWithEdges
 70
     3
 71
     2
 72
     2
 73
     1
 90
        2
 40
-0.6
 41
30.0
 62
     5
 63
     7
 74
     1
 91
        4
 64
     7
 65
   257
 75
     1
175
     1
 42
1.0
 92
        0
 66
   257
 43
1.0
 76
     1
 77
     6
 78
     2
 67
     7
 79
     5
170
     0
171
     0
290
     0
174
     0
 93
       13
 44
0.0
173
     0
291
     1
 45
0.0
1001
ACAD
1000
AcDbSavedByObjectVersion
1070
     0
  0
VISUALSTYLE
  5
38
102
{ACAD_REACTORS
330
2A
102
}
330
2A
100
AcDbVisualStyle
  2
Linepattern
 70
    14
 71
     2
 72
     2
 73
     0
 90
        0
 40
-0.6
 41
-30.0
 62
     5
 63
     7
 74
     1
 91
        4
 64
     7
 65
   257
 75
     7
175
     7
 42
1.0
 92
        8
 66
     7
 43
1.0
 76
     1
 77
     6
 78
     2
 67
     7
 79
     5
170
     0
171
     0
290
     0
174
     0
 93
        1
 44
0.0
173
     0
291
     1
 45
0.0
1001
ACAD
1000
AcDbSavedByObjectVersion
1070
     0
  0
VISUALSTYLE
  5
33
102
{ACAD_REACTORS
330
2A
102
}
330
2A
100
AcDbVisualStyle
  2
Realistic
 70
     8
 71
     2
 72
     2
 73
     0
 90
        0
 40
-0.6
 41
-30.0
 62
     5
 63
     7
 74
     1
 91
        0
 64
     7
 65
   257
 75
     1
175
     1
 42
1.0
 92
        8
 66
     8
 43
1.0
 76
     1
 77
     6
 78
     2
 67
     7
 79
     5
170
     0
171
     0
290
     0
174
     0
 93
       13
 44
0.0
173
     0
291
     0
 45
0.0
1001
ACAD
1000
AcDbSavedByObjectVersion
1070
     0
  0
VISUALSTYLE
  5
37
102
{ACAD_REACTORS
330
2A
102
}
330
2A
100
AcDbVisualStyle
  2
Thicken
 70
    13
 71
     2
 72
     2
 73
     0
 90
        0
 40
-0.6
 41
-30.0
 62
     5
 63
     7
 74
     1
 91
        4
 64
     7
 65
   257
 75
     1
175
     1
 42
1.0
 92
       12
 66
     7
 43
1.0
 76
     1
 77
     6
 78
     2
 67
     7
 79
     5
170
     0
171
     0
290
     0
174
     0
 93
        1
 44
0.0
173
     0
291
     1
 45
0.0
1001
ACAD
1000
AcDbSavedByObjectVersion
1070
     0
  0
DICTIONARYVAR
  5
172
102
{ACAD_REACTORS
330
16E
102
}
330
16E
100
DictionaryVariables
280
     0
  1
80.000000
  0
DICTIONARYVAR
  5
171
102
{ACAD_REACTORS
330
16E
102
}
330
16E
100
DictionaryVariables
280
     0
  1
5.000000
  0
ENDSEC
  0
EOF
