  0
SECTION
  2
HEADER
  9
$ACADVER
  1
AC1015
  9
$ACADMAINTVER
 70
     6
  9
$DWGCODEPAGE
  3
ANSI_1252
  9
$INSBASE
 10
0.0
 20
0.0
 30
0.0
  9
$EXTMIN
 10
-82.834351
 20
42.967247
 30
0.0
  9
$EXTMAX
 10
1352.733276
 20
631.768921
 30
0.0
  9
$LIMMIN
 10
-82.834351
 20
42.967247
  9
$LIMMAX
 10
1352.733276
 20
631.768921
  9
$ORTHOMODE
 70
     0
  9
$REGENMODE
 70
     1
  9
$FILLMODE
 70
     1
  9
$QTEXTMODE
 70
     0
  9
$MIRRTEXT
 70
     1
  9
$LTSCALE
 40
1.0
  9
$ATTMODE
 70
     1
  9
$TEXTSIZE
 40
2.5
  9
$TRACEWID
 40
1.0
  9
$TEXTSTYLE
  7
Standard
  9
$CLAYER
  8
0
  9
$CELTYPE
  6
ByLayer
  9
$CECOLOR
 62
   256
  9
$CELTSCALE
 40
1.0
  9
$DISPSILH
 70
     0
  9
$DIMSCALE
 40
1.0
  9
$DIMASZ
 40
2.5
  9
$DIMEXO
 40
0.625
  9
$DIMDLI
 40
3.75
  9
$DIMRND
 40
0.0
  9
$DIMDLE
 40
0.0
  9
$DIMEXE
 40
1.25
  9
$DIMTP
 40
0.0
  9
$DIMTM
 40
0.0
  9
$DIMTXT
 40
2.5
  9
$DIMCEN
 40
2.5
  9
$DIMTSZ
 40
0.0
  9
$DIMTOL
 70
     0
  9
$DIMLIM
 70
     0
  9
$DIMTIH
 70
     0
  9
$DIMTOH
 70
     0
  9
$DIMSE1
 70
     0
  9
$DIMSE2
 70
     0
  9
$DIMTAD
 70
     1
  9
$DIMZIN
 70
     8
  9
$DIMBLK
  1

  9
$DIMASO
 70
     1
  9
$DIMSHO
 70
     1
  9
$DIMPOST
  1

  9
$DIMAPOST
  1

  9
$DIMALT
 70
     0
  9
$DIMALTD
 70
     3
  9
$DIMALTF
 40
0.03937
  9
$DIMLFAC
 40
1.0
  9
$DIMTOFL
 70
     1
  9
$DIMTVP
 40
0.0
  9
$DIMTIX
 70
     0
  9
$DIMSOXD
 70
     0
  9
$DIMSAH
 70
     0
  9
$DIMBLK1
  1

  9
$DIMBLK2
  1

  9
$DIMSTYLE
  2
ISO-25
  9
$DIMCLRD
 70
     0
  9
$DIMCLRE
 70
     0
  9
$DIMCLRT
 70
     0
  9
$DIMTFAC
 40
1.0
  9
$DIMGAP
 40
0.625
  9
$DIMJUST
 70
     0
  9
$DIMSD1
 70
     0
  9
$DIMSD2
 70
     0
  9
$DIMTOLJ
 70
     0
  9
$DIMTZIN
 70
     8
  9
$DIMALTZ
 70
     0
  9
$DIMALTTZ
 70
     0
  9
$DIMUPT
 70
     0
  9
$DIMDEC
 70
     2
  9
$DIMTDEC
 70
     2
  9
$DIMALTU
 70
     2
  9
$DIMALTTD
 70
     3
  9
$DIMTXSTY
  7
Standard
  9
$DIMAUNIT
 70
     0
  9
$DIMADEC
 70
     0
  9
$DIMALTRND
 40
0.0
  9
$DIMAZIN
 70
     0
  9
$DIMDSEP
 70
    44
  9
$DIMATFIT
 70
     3
  9
$DIMFRAC
 70
     0
  9
$DIMLDRBLK
  1

  9
$DIMLUNIT
 70
     2
  9
$DIMLWD
 70
    -2
  9
$DIMLWE
 70
    -2
  9
$DIMTMOVE
 70
     0
  9
$LUNITS
 70
     2
  9
$LUPREC
 70
     4
  9
$SKETCHINC
 40
1.0
  9
$FILLETRAD
 40
10.0
  9
$AUNITS
 70
     0
  9
$AUPREC
 70
     0
  9
$MENU
  1
.
  9
$ELEVATION
 40
0.0
  9
$PELEVATION
 40
0.0
  9
$THICKNESS
 40
0.0
  9
$LIMCHECK
 70
     0
  9
$CHAMFERA
 40
10.0
  9
$CHAMFERB
 40
10.0
  9
$CHAMFERC
 40
20.0
  9
$CHAMFERD
 40
0.0
  9
$SKPOLY
 70
     0
  9
$TDCREATE
 40
2455554.634830938
  9
$TDUCREATE
 40
2455554.593164271
  9
$TDUPDATE
 40
2455554.634830949
  9
$TDUUPDATE
 40
2455554.593164282
  9
$TDINDWG
 40
0.0000000116
  9
$TDUSRTIMER
 40
0.0000000116
  9
$USRTIMER
 70
     1
  9
$ANGBASE
 50
0.0
  9
$ANGDIR
 70
     0
  9
$PDMODE
 70
     0
  9
$PDSIZE
 40
0.0
  9
$PLINEWID
 40
0.0
  9
$SPLFRAME
 70
     0
  9
$SPLINETYPE
 70
     6
  9
$SPLINESEGS
 70
     8
  9
$HANDSEED
  5
151
  9
$SURFTAB1
 70
     6
  9
$SURFTAB2
 70
     6
  9
$SURFTYPE
 70
     6
  9
$SURFU
 70
     6
  9
$SURFV
 70
     6
  9
$UCSBASE
  2

  9
$UCSNAME
  2

  9
$UCSORG
 10
0.0
 20
0.0
 30
0.0
  9
$UCSXDIR
 10
1.0
 20
0.0
 30
0.0
  9
$UCSYDIR
 10
0.0
 20
1.0
 30
0.0
  9
$UCSORTHOREF
  2

  9
$UCSORTHOVIEW
 70
     0
  9
$UCSORGTOP
 10
0.0
 20
0.0
 30
0.0
  9
$UCSORGBOTTOM
 10
0.0
 20
0.0
 30
0.0
  9
$UCSORGLEFT
 10
0.0
 20
0.0
 30
0.0
  9
$UCSORGRIGHT
 10
0.0
 20
0.0
 30
0.0
  9
$UCSORGFRONT
 10
0.0
 20
0.0
 30
0.0
  9
$UCSORGBACK
 10
0.0
 20
0.0
 30
0.0
  9
$PUCSBASE
  2

  9
$PUCSNAME
  2

  9
$PUCSORG
 10
0.0
 20
0.0
 30
0.0
  9
$PUCSXDIR
 10
1.0
 20
0.0
 30
0.0
  9
$PUCSYDIR
 10
0.0
 20
1.0
 30
0.0
  9
$PUCSORTHOREF
  2

  9
$PUCSORTHOVIEW
 70
     0
  9
$PUCSORGTOP
 10
0.0
 20
0.0
 30
0.0
  9
$PUCSORGBOTTOM
 10
0.0
 20
0.0
 30
0.0
  9
$PUCSORGLEFT
 10
0.0
 20
0.0
 30
0.0
  9
$PUCSORGRIGHT
 10
0.0
 20
0.0
 30
0.0
  9
$PUCSORGFRONT
 10
0.0
 20
0.0
 30
0.0
  9
$PUCSORGBACK
 10
0.0
 20
0.0
 30
0.0
  9
$USERI1
 70
     0
  9
$USERI2
 70
     0
  9
$USERI3
 70
     0
  9
$USERI4
 70
     0
  9
$USERI5
 70
     0
  9
$USERR1
 40
0.0
  9
$USERR2
 40
0.0
  9
$USERR3
 40
0.0
  9
$USERR4
 40
0.0
  9
$USERR5
 40
0.0
  9
$WORLDVIEW
 70
     1
  9
$SHADEDGE
 70
     3
  9
$SHADEDIF
 70
    70
  9
$TILEMODE
 70
     1
  9
$MAXACTVP
 70
    64
  9
$PINSBASE
 10
0.0
 20
0.0
 30
0.0
  9
$PLIMCHECK
 70
     0
  9
$PEXTMIN
 10
1.000000E+20
 20
1.000000E+20
 30
1.000000E+20
  9
$PEXTMAX
 10
-1.000000E+20
 20
-1.000000E+20
 30
-1.000000E+20
  9
$PLIMMIN
 10
0.0
 20
0.0
  9
$PLIMMAX
 10
420.0
 20
297.0
  9
$UNITMODE
 70
     0
  9
$VISRETAIN
 70
     1
  9
$PLINEGEN
 70
     0
  9
$PSLTSCALE
 70
     1
  9
$TREEDEPTH
 70
  3020
  9
$CMLSTYLE
  2
Standard
  9
$CMLJUST
 70
     0
  9
$CMLSCALE
 40
20.0
  9
$PROXYGRAPHICS
 70
     1
  9
$MEASUREMENT
 70
     1
  9
$CELWEIGHT
370
    -1
  9
$ENDCAPS
280
     0
  9
$JOINSTYLE
280
     0
  9
$LWDISPLAY
290
     0
  9
$INSUNITS
 70
     4
  9
$HYPERLINKBASE
  1

  9
$STYLESHEET
  1

  9
$XEDIT
290
     1
  9
$CEPSNTYPE
380
     0
  9
$PSTYLEMODE
290
     1
  9
$FINGERPRINTGUID
  2
{FA0F9957-1D61-4D92-AFD4-E40C9B2B163B}
  9
$VERSIONGUID
  2
{FAEB1C32-E019-11D5-929B-00C0DF256EC4}
  9
$EXTNAMES
290
     1
  9
$PSVPSCALE
 40
0.0
  9
$OLESTARTUP
290
     0
  0
ENDSEC
  0
SECTION
  2
CLASSES
  0
CLASS
  1
ACDBDICTIONARYWDFLT
  2
AcDbDictionaryWithDefault
  3
ObjectDBX Classes
 90
        0
280
     0
281
     0
  0
CLASS
  1
VISUALSTYLE
  2
AcDbVisualStyle
  3
ObjectDBX Classes
 90
     4095
280
     0
281
     0
  0
CLASS
  1
DICTIONARYVAR
  2
AcDbDictionaryVar
  3
ObjectDBX Classes
 90
        0
280
     0
281
     0
  0
CLASS
  1
ACDBPLACEHOLDER
  2
AcDbPlaceHolder
  3
ObjectDBX Classes
 90
        0
280
     0
281
     0
  0
CLASS
  1
LAYOUT
  2
AcDbLayout
  3
ObjectDBX Classes
 90
        0
280
     0
281
     0
  0
ENDSEC
  0
SECTION
  2
TABLES
  0
TABLE
  2
VPORT
  5
8
330
0
100
AcDbSymbolTable
 70
     1
  0
VPORT
  5
29
330
8
100
AcDbSymbolTableRecord
100
AcDbViewportTableRecord
  2
*Active
 70
     0
 10
0.0
 20
0.0
 11
1.0
 21
1.0
 12
344.186916
 22
148.5
 13
0.0
 23
0.0
 14
10.0
 24
10.0
 15
10.0
 25
10.0
 16
0.0
 26
0.0
 36
1.0
 17
0.0
 27
0.0
 37
0.0
 40
297.0
 41
1.972973
 42
50.0
 43
0.0
 44
0.0
 50
0.0
 51
0.0
 71
     0
 72
   100
 73
     1
 74
     3
 75
     0
 76
     0
 77
     0
 78
     0
281
     0
 65
     1
110
0.0
120
0.0
130
0.0
111
1.0
121
0.0
131
0.0
112
0.0
122
1.0
132
0.0
 79
     0
146
0.0
  0
ENDTAB
  0
TABLE
  2
LTYPE
  5
5
330
0
100
AcDbSymbolTable
 70
     1
  0
LTYPE
  5
14
330
5
100
AcDbSymbolTableRecord
100
AcDbLinetypeTableRecord
  2
ByBlock
 70
     0
  3

 72
    65
 73
     0
 40
0.0
  0
LTYPE
  5
15
330
5
100
AcDbSymbolTableRecord
100
AcDbLinetypeTableRecord
  2
ByLayer
 70
     0
  3

 72
    65
 73
     0
 40
0.0
  0
LTYPE
  5
16
330
5
100
AcDbSymbolTableRecord
100
AcDbLinetypeTableRecord
  2
Continuous
 70
     0
  3
Solid line
 72
    65
 73
     0
 40
0.0
  0
ENDTAB
  0
TABLE
  2
LAYER
  5
2
330
0
100
AcDbSymbolTable
 70
     1
  0
LAYER
  5
10
330
2
100
AcDbSymbolTableRecord
100
AcDbLayerTableRecord
  2
0
 70
     0
 62
   106
  6
Continuous
370
     0
390
F
  0
ENDTAB
  0
TABLE
  2
STYLE
  5
3
330
0
100
AcDbSymbolTable
 70
     4
  0
STYLE
  5
11
330
3
100
AcDbSymbolTableRecord
100
AcDbTextStyleTableRecord
  2
Standard
 70
     0
 40
0.0
 41
1.0
 50
0.0
 71
     0
 42
2.5
  3
txt
  4

  0
STYLE
  5
3B
330
3
100
AcDbSymbolTableRecord
100
AcDbTextStyleTableRecord
  2
Default
 70
     0
 40
0.0
 41
1.0
 50
0.0
 71
     0
 42
0.2
  3

  4

1001
ACAD
1000
txt
1071
        0
  0
STYLE
  5
3C
330
3
100
AcDbSymbolTableRecord
100
AcDbTextStyleTableRecord
  2
ISO
 70
     0
 40
0.0
 41
1.0
 50
0.0
 71
     0
 42
0.2
  3

  4

1001
ACAD
1000
txt
1071
        0
  0
STYLE
  5
3D
330
3
100
AcDbSymbolTableRecord
100
AcDbTextStyleTableRecord
  2
GIANLU
 70
     0
 40
0.0
 41
1.0
 50
0.0
 71
     0
 42
0.2
  3

  4

1001
ACAD
1000
Arial
1071
        0
  0
ENDTAB
  0
TABLE
  2
VIEW
  5
6
330
0
100
AcDbSymbolTable
 70
     0
  0
ENDTAB
  0
TABLE
  2
UCS
  5
7
330
0
100
AcDbSymbolTable
 70
     0
  0
ENDTAB
  0
TABLE
  2
APPID
  5
9
330
0
100
AcDbSymbolTable
 70
     1
  0
APPID
  5
12
330
9
100
AcDbSymbolTableRecord
100
AcDbRegAppTableRecord
  2
ACAD
 70
     0
  0
ENDTAB
  0
TABLE
  2
DIMSTYLE
  5
A
330
0
100
AcDbSymbolTable
 70
     4
100
AcDbDimStyleTable
  0
DIMSTYLE
105
27
330
A
100
AcDbSymbolTableRecord
100
AcDbDimStyleTableRecord
  2
ISO-25
 70
     0
 41
2.5
 42
0.625
 43
3.75
 44
1.25
 73
     0
 74
     0
 77
     1
 78
     8
140
2.5
141
2.5
143
0.03937
147
0.625
171
     3
172
     1
271
     2
272
     2
274
     3
278
    44
283
     0
284
     8
340
11
  0
DIMSTYLE
105
3E
330
A
100
AcDbSymbolTableRecord
100
AcDbDimStyleTableRecord
  2
Default
 70
     0
  3
<>
 41
4.375
 42
1.05
 44
2.1
 73
     0
 74
     0
 77
     1
 78
     8
140
3.5
146
0.4
147
1.75
178
     3
271
     2
272
     3
284
     8
340
3B
341
3F
342
3F
  0
DIMSTYLE
105
46
330
A
100
AcDbSymbolTableRecord
100
AcDbDimStyleTableRecord
  2
ISO
 70
     0
  3
<>
 41
4.375
 42
1.05
 44
2.1
 73
     0
 74
     0
 77
     1
 78
     8
140
3.5
146
0.4
147
1.75
178
     3
271
     2
272
     3
284
     8
340
3C
341
3F
342
3F
  0
DIMSTYLE
105
47
330
A
100
AcDbSymbolTableRecord
100
AcDbDimStyleTableRecord
  2
zucchetti_unico
 70
     0
  3
<>
 41
3.0
 42
0.9
 44
1.8
 73
     0
 74
     0
 77
     1
 78
     8
140
3.0
146
0.6
147
1.5
176
   104
177
     3
178
     3
271
     2
272
     2
284
     8
340
3D
  0
ENDTAB
  0
TABLE
  2
BLOCK_RECORD
  5
1
330
0
100
AcDbSymbolTable
 70
     7
  0
BLOCK_RECORD
  5
1F
330
1
100
AcDbSymbolTableRecord
100
AcDbBlockTableRecord
  2
*Model_Space
340
22
  0
BLOCK_RECORD
  5
1B
330
1
100
AcDbSymbolTableRecord
100
AcDbBlockTableRecord
  2
*Paper_Space
340
1E
  0
BLOCK_RECORD
  5
23
330
1
100
AcDbSymbolTableRecord
100
AcDbBlockTableRecord
  2
*Paper_Space0
340
26
  0
BLOCK_RECORD
  5
3F
330
1
100
AcDbSymbolTableRecord
100
AcDbBlockTableRecord
  2
_CLOSED
340
0
  0
BLOCK_RECORD
  5
48
330
1
100
AcDbSymbolTableRecord
100
AcDbBlockTableRecord
  2
a
340
0
102
{BLKREFS
331
6F
102
}
  0
BLOCK_RECORD
  5
70
330
1
100
AcDbSymbolTableRecord
100
AcDbBlockTableRecord
  2
b
340
0
102
{BLKREFS
331
BB
102
}
  0
BLOCK_RECORD
  5
BC
330
1
100
AcDbSymbolTableRecord
100
AcDbBlockTableRecord
  2
c
340
0
102
{BLKREFS
331
D8
102
}
  0
BLOCK_RECORD
  5
D9
330
1
100
AcDbSymbolTableRecord
100
AcDbBlockTableRecord
  2
e
340
0
102
{BLKREFS
331
F5
102
}
  0
BLOCK_RECORD
  5
F6
330
1
100
AcDbSymbolTableRecord
100
AcDbBlockTableRecord
  2
d
340
0
102
{BLKREFS
331
14B
102
}
  0
ENDTAB
  0
ENDSEC
  0
SECTION
  2
BLOCKS
  0
BLOCK
  5
20
330
1F
100
AcDbEntity
  8
0
100
AcDbBlockBegin
  2
*Model_Space
 70
     0
 10
0.0
 20
0.0
 30
0.0
  3
*Model_Space
  1

  0
ENDBLK
  5
21
330
1F
100
AcDbEntity
  8
0
100
AcDbBlockEnd
  0
BLOCK
  5
1C
330
1B
100
AcDbEntity
 67
     1
  8
0
100
AcDbBlockBegin
  2
*Paper_Space
 70
     0
 10
0.0
 20
0.0
 30
0.0
  3
*Paper_Space
  1

  0
ENDBLK
  5
1D
330
1B
100
AcDbEntity
 67
     1
  8
0
100
AcDbBlockEnd
  0
BLOCK
  5
24
330
23
100
AcDbEntity
  8
0
100
AcDbBlockBegin
  2
*Paper_Space0
 70
     0
 10
0.0
 20
0.0
 30
0.0
  3
*Paper_Space0
  1

  0
ENDBLK
  5
25
330
23
100
AcDbEntity
  8
0
100
AcDbBlockEnd
  0
BLOCK
  5
40
330
3F
100
AcDbEntity
  8
0
100
AcDbBlockBegin
  2
_CLOSED
 70
     0
 10
0.0
 20
0.0
 30
0.0
  3
_CLOSED
  1

  0
LINE
  5
42
330
3F
100
AcDbEntity
  8
0
  6
ByBlock
 62
     0
370
    -2
100
AcDbLine
 10
-1.0
 20
0.166667
 30
0.0
 11
0.0
 21
0.0
 31
0.0
  0
LINE
  5
43
330
3F
100
AcDbEntity
  8
0
  6
ByBlock
 62
     0
370
    -2
100
AcDbLine
 10
0.0
 20
0.0
 30
0.0
 11
-1.0
 21
-0.166667
 31
0.0
  0
LINE
  5
44
330
3F
100
AcDbEntity
  8
0
  6
ByBlock
 62
     0
370
    -2
100
AcDbLine
 10
-1.0
 20
0.166667
 30
0.0
 11
-1.0
 21
-0.166667
 31
0.0
  0
LINE
  5
45
330
3F
100
AcDbEntity
  8
0
  6
ByBlock
 62
     0
370
    -2
100
AcDbLine
 10
0.0
 20
0.0
 30
0.0
 11
-1.0
 21
0.0
 31
0.0
  0
ENDBLK
  5
41
330
3F
100
AcDbEntity
  8
0
100
AcDbBlockEnd
  0
BLOCK
  5
6D
330
48
100
AcDbEntity
  8
0
100
AcDbBlockBegin
  2
a
 70
     0
 10
24.278866
 20
126.982704
 30
0.0
  3
a
  1

  0
LINE
  5
49
330
48
100
AcDbEntity
  8
0
  6
Continuous
 62
     0
370
    30
100
AcDbLine
 10
755.678116
 20
593.268951
 30
0.0
 11
755.678116
 21
601.768951
 31
0.0
  0
LINE
  5
4A
330
48
100
AcDbEntity
  8
0
  6
Continuous
 62
     0
370
    30
100
AcDbLine
 10
755.678116
 20
601.768951
 30
0.0
 11
755.678116
 21
610.268951
 31
0.0
  0
LINE
  5
4B
330
48
100
AcDbEntity
  8
0
  6
Continuous
 62
     0
370
     0
100
AcDbLine
 10
755.178116
 20
592.768951
 30
0.0
 11
755.178116
 21
601.768951
 31
0.0
  0
LINE
  5
4C
330
48
100
AcDbEntity
  8
0
  6
Continuous
 62
     0
370
     0
100
AcDbLine
 10
755.178116
 20
601.768951
 30
0.0
 11
755.178116
 21
610.768951
 31
0.0
  0
LINE
  5
4D
330
48
100
AcDbEntity
  8
0
  6
Continuous
 62
     0
370
     0
100
AcDbLine
 10
682.178116
 20
592.768951
 30
0.0
 11
682.178116
 21
601.768951
 31
0.0
  0
LINE
  5
4E
330
48
100
AcDbEntity
  8
0
  6
Continuous
 62
     0
370
     0
100
AcDbLine
 10
682.178116
 20
601.768951
 30
0.0
 11
682.178116
 21
610.768951
 31
0.0
  0
ARC
  5
4F
330
48
100
AcDbEntity
  8
0
  6
Continuous
 62
     0
370
    30
100
AcDbCircle
 10
718.678116
 20
601.768951
 30
0.0
 40
30.0
100
AcDbArc
 50
197.457603
 51
342.542397
  0
ARC
  5
50
330
48
100
AcDbEntity
  8
0
  6
Continuous
 62
     0
370
    30
100
AcDbCircle
 10
718.678116
 20
601.768951
 30
0.0
 40
30.0
100
AcDbArc
 50
17.457603
 51
162.542397
  0
ARC
  5
51
330
48
100
AcDbEntity
  8
0
  6
Continuous
 62
     0
370
     0
100
AcDbCircle
 10
718.678116
 20
601.768951
 30
0.0
 40
29.50000000000001
100
AcDbArc
 50
197.763262
 51
342.236738
  0
ARC
  5
52
330
48
100
AcDbEntity
  8
0
  6
Continuous
 62
     0
370
     0
100
AcDbCircle
 10
718.678116
 20
601.768951
 30
0.0
 40
29.49999999999999
100
AcDbArc
 50
17.763262
 51
162.236738
  0
LINE
  5
53
330
48
100
AcDbEntity
  8
0
  6
Continuous
 62
     0
370
    30
100
AcDbLine
 10
681.678116
 20
592.768951
 30
0.0
 11
681.678116
 21
610.768951
 31
0.0
  0
LINE
  5
54
330
48
100
AcDbEntity
  8
0
  6
Continuous
 62
     0
370
    30
100
AcDbLine
 10
681.678116
 20
592.768951
 30
0.0
 11
155.678116
 21
592.768951
 31
0.0
  0
LINE
  5
55
330
48
100
AcDbEntity
  8
0
  6
Continuous
 62
     0
370
    30
100
AcDbLine
 10
155.678116
 20
610.768951
 30
0.0
 11
155.678116
 21
592.768951
 31
0.0
  0
LINE
  5
56
330
48
100
AcDbEntity
  8
0
  6
Continuous
 62
     0
370
    30
100
AcDbLine
 10
81.678116
 20
610.268951
 30
0.0
 11
81.678116
 21
601.768951
 31
0.0
  0
LINE
  5
57
330
48
100
AcDbEntity
  8
0
  6
Continuous
 62
     0
370
    30
100
AcDbLine
 10
81.678116
 20
601.768951
 30
0.0
 11
81.678116
 21
593.268951
 31
0.0
  0
LINE
  5
58
330
48
100
AcDbEntity
  8
0
  6
Continuous
 62
     0
370
     0
100
AcDbLine
 10
82.178116
 20
610.768951
 30
0.0
 11
82.178116
 21
601.768951
 31
0.0
  0
LINE
  5
59
330
48
100
AcDbEntity
  8
0
  6
Continuous
 62
     0
370
     0
100
AcDbLine
 10
82.178116
 20
601.768951
 30
0.0
 11
82.178116
 21
592.768951
 31
0.0
  0
LINE
  5
5A
330
48
100
AcDbEntity
  8
0
  6
Continuous
 62
     0
370
     0
100
AcDbLine
 10
155.178116
 20
610.768951
 30
0.0
 11
155.178116
 21
601.768951
 31
0.0
  0
LINE
  5
5B
330
48
100
AcDbEntity
  8
0
  6
Continuous
 62
     0
370
     0
100
AcDbLine
 10
155.178116
 20
601.768951
 30
0.0
 11
155.178116
 21
592.768951
 31
0.0
  0
ARC
  5
5C
330
48
100
AcDbEntity
  8
0
  6
Continuous
 62
     0
370
    30
100
AcDbCircle
 10
118.678116
 20
601.768951
 30
0.0
 40
30.0
100
AcDbArc
 50
17.457603
 51
162.542397
  0
ARC
  5
5D
330
48
100
AcDbEntity
  8
0
  6
Continuous
 62
     0
370
    30
100
AcDbCircle
 10
118.678116
 20
601.768951
 30
0.0
 40
30.0
100
AcDbArc
 50
197.457603
 51
342.542397
  0
ARC
  5
5E
330
48
100
AcDbEntity
  8
0
  6
Continuous
 62
     0
370
     0
100
AcDbCircle
 10
118.678116
 20
601.768951
 30
0.0
 40
29.49999999999999
100
AcDbArc
 50
17.763262
 51
162.236738
  0
ARC
  5
5F
330
48
100
AcDbEntity
  8
0
  6
Continuous
 62
     0
370
     0
100
AcDbCircle
 10
118.678116
 20
601.768951
 30
0.0
 40
29.49999999999993
100
AcDbArc
 50
197.763262
 51
342.236738
  0
ARC
  5
60
330
48
100
AcDbEntity
  8
0
  6
Continuous
 62
     0
370
    30
100
AcDbCircle
 10
155.178112
 20
593.268955
 30
0.0
 40
0.5000034422821953
100
AcDbArc
 50
270.000394
 51
359.999606
  0
ARC
  5
61
330
48
100
AcDbEntity
  8
0
  6
Continuous
 62
     0
370
    30
100
AcDbCircle
 10
155.178112
 20
610.268948
 30
0.0
 40
0.5000034422901223
100
AcDbArc
 50
0.000394
 51
89.999606
  0
LINE
  5
62
330
48
100
AcDbEntity
  8
0
  6
Continuous
 62
     0
370
    30
100
AcDbLine
 10
82.178116
 20
592.768951
 30
0.0
 11
155.178116
 21
592.768951
 31
0.0
  0
LINE
  5
63
330
48
100
AcDbEntity
  8
0
  6
Continuous
 62
     0
370
    30
100
AcDbLine
 10
82.178116
 20
610.768951
 30
0.0
 11
155.178116
 21
610.768951
 31
0.0
  0
ARC
  5
64
330
48
100
AcDbEntity
  8
0
  6
Continuous
 62
     0
370
    30
100
AcDbCircle
 10
82.178119
 20
610.268949
 30
0.0
 40
0.5000027706873706
100
AcDbArc
 50
90.000317
 51
179.988223
  0
ARC
  5
65
330
48
100
AcDbEntity
  8
0
  6
Continuous
 62
     0
370
    30
100
AcDbCircle
 10
82.178119
 20
593.268954
 30
0.0
 40
0.5000027706785273
100
AcDbArc
 50
180.011777
 51
269.999683
  0
LINE
  5
66
330
48
100
AcDbEntity
  8
0
  6
Continuous
 62
     0
370
    30
100
AcDbLine
 10
681.678116
 20
610.768951
 30
0.0
 11
155.678116
 21
610.768951
 31
0.0
  0
ARC
  5
67
330
48
100
AcDbEntity
  8
0
  6
Continuous
 62
     0
370
    30
100
AcDbCircle
 10
682.178119
 20
610.268948
 30
0.0
 40
0.5000034422840605
100
AcDbArc
 50
90.000394
 51
179.999606
  0
ARC
  5
68
330
48
100
AcDbEntity
  8
0
  6
Continuous
 62
     0
370
    30
100
AcDbCircle
 10
682.178119
 20
593.268955
 30
0.0
 40
0.5000034422880857
100
AcDbArc
 50
180.000394
 51
269.999606
  0
LINE
  5
69
330
48
100
AcDbEntity
  8
0
  6
Continuous
 62
     0
370
    30
100
AcDbLine
 10
755.178116
 20
610.768951
 30
0.0
 11
682.178116
 21
610.768951
 31
0.0
  0
LINE
  5
6A
330
48
100
AcDbEntity
  8
0
  6
Continuous
 62
     0
370
    30
100
AcDbLine
 10
755.178116
 20
592.768951
 30
0.0
 11
682.178116
 21
592.768951
 31
0.0
  0
ARC
  5
6B
330
48
100
AcDbEntity
  8
0
  6
Continuous
 62
     0
370
    30
100
AcDbCircle
 10
755.178113
 20
593.268954
 30
0.0
 40
0.500002770698483
100
AcDbArc
 50
270.000317
 51
359.988223
  0
ARC
  5
6C
330
48
100
AcDbEntity
  8
0
  6
Continuous
 62
     0
370
    30
100
AcDbCircle
 10
755.178113
 20
610.268949
 30
0.0
 40
0.5000027706982644
100
AcDbArc
 50
0.011777
 51
89.999683
  0
ENDBLK
  5
6E
330
48
100
AcDbEntity
  8
0
100
AcDbBlockEnd
  0
BLOCK
  5
B9
330
70
100
AcDbEntity
  8
0
100
AcDbBlockBegin
  2
b
 70
     0
 10
24.278866
 20
126.982704
 30
0.0
  3
b
  1

  0
ARC
  5
71
330
70
100
AcDbEntity
  8
0
  6
Continuous
 62
     0
370
    30
100
AcDbCircle
 10
701.678131
 20
123.00898
 30
0.0
 40
8.0
100
AcDbArc
 50
270.0
 51
360.0
  0
LINE
  5
72
330
70
100
AcDbEntity
  8
0
  6
Continuous
 62
     0
370
     0
100
AcDbLine
 10
709.678131
 20
123.00898
 30
0.0
 11
718.678131
 21
106.00898
 31
0.0
  0
LINE
  5
73
330
70
100
AcDbEntity
  8
0
  6
Continuous
 62
     0
370
     0
100
AcDbLine
 10
701.678131
 20
115.00898
 30
0.0
 11
718.678131
 21
106.00898
 31
0.0
  0
LINE
  5
74
330
70
100
AcDbEntity
  8
0
  6
Continuous
 62
     0
370
     0
100
AcDbLine
 10
718.678131
 20
106.00898
 30
0.0
 11
735.678034
 21
115.008929
 31
0.0
  0
LINE
  5
75
330
70
100
AcDbEntity
  8
0
  6
Continuous
 62
     0
370
     0
100
AcDbLine
 10
718.678131
 20
106.00898
 30
0.0
 11
727.67808
 21
123.008884
 31
0.0
  0
LINE
  5
76
330
70
100
AcDbEntity
  8
0
  6
Continuous
 62
     0
370
    30
100
AcDbLine
 10
755.678131
 20
97.50898
 30
0.0
 11
755.678131
 21
114.50898
 31
0.0
  0
ARC
  5
77
330
70
100
AcDbEntity
  8
0
  6
Continuous
 62
     0
370
    30
100
AcDbCircle
 10
755.178131
 20
97.50898
 30
0.0
 40
0.5000000000000069
100
AcDbArc
 50
270.0
 51
0.0
  0
LINE
  5
78
330
70
100
AcDbEntity
  8
0
  6
Continuous
 62
     0
370
     0
100
AcDbLine
 10
755.178131
 20
97.00898
 30
0.0
 11
755.178131
 21
115.00898
 31
0.0
  0
LINE
  5
79
330
70
100
AcDbEntity
  8
0
  6
Continuous
 62
     0
370
    30
100
AcDbLine
 10
755.178131
 20
97.00898
 30
0.0
 11
682.178131
 21
97.00898
 31
0.0
  0
LINE
  5
7A
330
70
100
AcDbEntity
  8
0
  6
Continuous
 62
     0
370
     0
100
AcDbLine
 10
682.178131
 20
97.00898
 30
0.0
 11
682.178131
 21
115.00898
 31
0.0
  0
ARC
  5
7B
330
70
100
AcDbEntity
  8
0
  6
Continuous
 62
     0
370
    30
100
AcDbCircle
 10
682.178131
 20
97.50898
 30
0.0
 40
0.5
100
AcDbArc
 50
180.0
 51
270.0
  0
LINE
  5
7C
330
70
100
AcDbEntity
  8
0
  6
Continuous
 62
     0
370
    30
100
AcDbLine
 10
709.678131
 20
172.50898
 30
0.0
 11
709.678131
 21
123.00898
 31
0.0
  0
LINE
  5
7D
330
70
100
AcDbEntity
  8
0
  6
Continuous
 62
     0
370
     0
100
AcDbLine
 10
709.678131
 20
172.50898
 30
0.0
 11
727.678131
 21
172.50898
 31
0.0
  0
ARC
  5
7E
330
70
100
AcDbEntity
  8
0
  6
Continuous
 62
     0
370
    30
100
AcDbCircle
 10
710.178131
 20
172.50898
 30
0.0
 40
0.5
100
AcDbArc
 50
90.0
 51
180.0
  0
ARC
  5
7F
330
70
100
AcDbEntity
  8
0
  6
Continuous
 62
     0
370
    30
100
AcDbCircle
 10
748.178131
 20
177.50898
 30
0.0
 40
0.5000000007241852
100
AcDbArc
 50
0.0
 51
90.0
  0
LINE
  5
80
330
70
100
AcDbEntity
  8
0
  6
Continuous
 62
     0
370
     0
100
AcDbLine
 10
748.678131
 20
177.50898
 30
0.0
 11
688.678131
 21
177.50898
 31
0.0
  0
LINE
  5
81
330
70
100
AcDbEntity
  8
0
  6
Continuous
 62
     0
370
    30
100
AcDbLine
 10
689.178131
 20
178.00898
 30
0.0
 11
748.178131
 21
178.00898
 31
0.0
  0
LINE
  5
82
330
70
100
AcDbEntity
  8
0
  6
Continuous
 62
     0
370
    30
100
AcDbLine
 10
748.678131
 20
177.50898
 30
0.0
 11
748.678131
 21
173.50898
 31
0.0
  0
LINE
  5
83
330
70
100
AcDbEntity
  8
0
  6
Continuous
 62
     0
370
     0
100
AcDbLine
 10
688.678131
 20
173.50898
 30
0.0
 11
748.678131
 21
173.50898
 31
0.0
  0
ARC
  5
84
330
70
100
AcDbEntity
  8
0
  6
Continuous
 62
     0
370
    30
100
AcDbCircle
 10
748.178131
 20
173.50898
 30
0.0
 40
0.499999999714646
100
AcDbArc
 50
270.0
 51
0.0
  0
LINE
  5
85
330
70
100
AcDbEntity
  8
0
  6
Continuous
 62
     0
370
    30
100
AcDbLine
 10
748.178131
 20
173.00898
 30
0.0
 11
689.178131
 21
173.00898
 31
0.0
  0
LINE
  5
86
330
70
100
AcDbEntity
  8
0
  6
Continuous
 62
     0
370
    30
100
AcDbLine
 10
681.678131
 20
97.00898
 30
0.0
 11
681.678131
 21
106.00898
 31
0.0
  0
LINE
  5
87
330
70
100
AcDbEntity
  8
0
  6
Continuous
 62
     0
370
    30
100
AcDbLine
 10
681.678131
 20
106.00898
 30
0.0
 11
681.678131
 21
115.00898
 31
0.0
  0
LINE
  5
88
330
70
100
AcDbEntity
  8
0
  6
Continuous
 62
     0
370
    30
100
AcDbLine
 10
155.678131
 20
115.00898
 30
0.0
 11
155.678131
 21
106.00898
 31
0.0
  0
LINE
  5
89
330
70
100
AcDbEntity
  8
0
  6
Continuous
 62
     0
370
    30
100
AcDbLine
 10
155.678131
 20
106.00898
 30
0.0
 11
155.678131
 21
97.00898
 31
0.0
  0
LINE
  5
8A
330
70
100
AcDbEntity
  8
0
  6
Continuous
 62
     0
370
     0
100
AcDbLine
 10
118.678131
 20
106.00898
 30
0.0
 11
135.678131
 21
115.00898
 31
0.0
  0
ARC
  5
8B
330
70
100
AcDbEntity
  8
0
  6
Continuous
 62
     0
370
    30
100
AcDbCircle
 10
135.678131
 20
123.00898
 30
0.0
 40
8.0
100
AcDbArc
 50
180.0
 51
270.0
  0
LINE
  5
8C
330
70
100
AcDbEntity
  8
0
  6
Continuous
 62
     0
370
     0
100
AcDbLine
 10
118.678131
 20
106.00898
 30
0.0
 11
127.678131
 21
123.00898
 31
0.0
  0
LWPOLYLINE
  5
8D
330
70
100
AcDbEntity
  8
0
  6
Continuous
 62
     0
370
     0
100
AcDbPolyline
 90
       22
 70
     0
 43
0.0
 10
101.67823
 20
115.008926
 10
101.748245
 20
114.971863
 10
101.95549
 20
114.862144
 10
102.29229
 20
114.683838
 10
102.746956
 20
114.44313
 10
103.306351
 20
114.14698
 10
103.956665
 20
113.802696
 10
104.685036
 20
113.417091
 10
105.479706
 20
112.996384
 10
106.330353
 20
112.546036
 10
107.228012
 20
112.070808
 10
108.165588
 20
111.57444
 10
109.136559
 20
111.060402
 10
110.135056
 20
110.531784
 10
111.156883
 20
109.990814
 10
112.198074
 20
109.439598
 10
113.254738
 20
108.880188
 10
114.323784
 20
108.314224
 10
115.402527
 20
107.743126
 10
116.488312
 20
107.168297
 10
117.578682
 20
106.591042
 10
118.678131
 20
106.00898
  0
LWPOLYLINE
  5
8E
330
70
100
AcDbEntity
  8
0
  6
Continuous
 62
     0
370
     0
100
AcDbPolyline
 90
       22
 70
     0
 43
0.0
 10
109.678185
 20
123.008881
 10
109.715248
 20
122.938866
 10
109.824966
 20
122.731621
 10
110.003273
 20
122.394821
 10
110.24398
 20
121.940155
 10
110.540131
 20
121.38076
 10
110.884415
 20
120.730446
 10
111.27002
 20
120.002075
 10
111.690727
 20
119.207405
 10
112.141075
 20
118.356758
 10
112.616302
 20
117.459099
 10
113.112671
 20
116.521523
 10
113.626709
 20
115.550552
 10
114.155327
 20
114.552055
 10
114.696297
 20
113.530228
 10
115.247513
 20
112.489037
 10
115.806923
 20
111.432373
 10
116.372887
 20
110.363327
 10
116.943985
 20
109.284584
 10
117.518814
 20
108.198799
 10
118.096069
 20
107.108429
 10
118.678131
 20
106.00898
  0
LINE
  5
8F
330
70
100
AcDbEntity
  8
0
  6
Continuous
 62
     0
370
    30
100
AcDbLine
 10
81.678131
 20
114.50898
 30
0.0
 11
81.678131
 21
97.50898
 31
0.0
  0
ARC
  5
90
330
70
100
AcDbEntity
  8
0
  6
Continuous
 62
     0
370
    30
100
AcDbCircle
 10
82.178131
 20
97.50898
 30
0.0
 40
0.5000000000000069
100
AcDbArc
 50
180.0
 51
270.0
  0
LINE
  5
91
330
70
100
AcDbEntity
  8
0
  6
Continuous
 62
     0
370
     0
100
AcDbLine
 10
82.178131
 20
115.00898
 30
0.0
 11
82.178131
 21
97.00898
 31
0.0
  0
LINE
  5
92
330
70
100
AcDbEntity
  8
0
  6
Continuous
 62
     0
370
    30
100
AcDbLine
 10
82.178131
 20
97.00898
 30
0.0
 11
155.178131
 21
97.00898
 31
0.0
  0
LINE
  5
93
330
70
100
AcDbEntity
  8
0
  6
Continuous
 62
     0
370
     0
100
AcDbLine
 10
155.178131
 20
115.00898
 30
0.0
 11
155.178131
 21
97.00898
 31
0.0
  0
ARC
  5
94
330
70
100
AcDbEntity
  8
0
  6
Continuous
 62
     0
370
    30
100
AcDbCircle
 10
155.178131
 20
97.50898
 30
0.0
 40
0.5
100
AcDbArc
 50
270.0
 51
0.0
  0
LINE
  5
95
330
70
100
AcDbEntity
  8
0
  6
Continuous
 62
     0
370
    30
100
AcDbLine
 10
127.678131
 20
172.50898
 30
0.0
 11
127.678131
 21
123.00898
 31
0.0
  0
LINE
  5
96
330
70
100
AcDbEntity
  8
0
  6
Continuous
 62
     0
370
     0
100
AcDbLine
 10
109.678131
 20
172.50898
 30
0.0
 11
127.678131
 21
172.50898
 31
0.0
  0
ARC
  5
97
330
70
100
AcDbEntity
  8
0
  6
Continuous
 62
     0
370
    30
100
AcDbCircle
 10
127.178131
 20
172.50898
 30
0.0
 40
0.5
100
AcDbArc
 50
0.0
 51
90.0
  0
LINE
  5
98
330
70
100
AcDbEntity
  8
0
  6
Continuous
 62
     0
370
     0
100
AcDbLine
 10
148.58125
 20
177.50898
 30
0.0
 11
88.678131
 21
177.50898
 31
0.0
  0
LINE
  5
99
330
70
100
AcDbEntity
  8
0
  6
Continuous
 62
     0
370
     0
100
AcDbLine
 10
148.678131
 20
177.50898
 30
0.0
 11
148.58125
 21
177.50898
 31
0.0
  0
LINE
  5
9A
330
70
100
AcDbEntity
  8
0
  6
Continuous
 62
     0
370
    30
100
AcDbLine
 10
148.082865
 20
178.00898
 30
0.0
 11
148.178131
 21
178.00898
 31
0.0
  0
LINE
  5
9B
330
70
100
AcDbEntity
  8
0
  6
Continuous
 62
     0
370
    30
100
AcDbLine
 10
89.178131
 20
178.00898
 30
0.0
 11
148.082865
 21
178.00898
 31
0.0
  0
LINE
  5
9C
330
70
100
AcDbEntity
  8
0
  6
Continuous
 62
     0
370
     0
100
AcDbLine
 10
88.678131
 20
173.50898
 30
0.0
 11
148.58125
 21
173.50898
 31
0.0
  0
LINE
  5
9D
330
70
100
AcDbEntity
  8
0
  6
Continuous
 62
     0
370
     0
100
AcDbLine
 10
148.58125
 20
173.50898
 30
0.0
 11
148.678131
 21
173.50898
 31
0.0
  0
LINE
  5
9E
330
70
100
AcDbEntity
  8
0
  6
Continuous
 62
     0
370
    30
100
AcDbLine
 10
148.082865
 20
173.00898
 30
0.0
 11
89.178131
 21
173.00898
 31
0.0
  0
LINE
  5
9F
330
70
100
AcDbEntity
  8
0
  6
Continuous
 62
     0
370
    30
100
AcDbLine
 10
148.178131
 20
173.00898
 30
0.0
 11
148.082865
 21
173.00898
 31
0.0
  0
ARC
  5
A0
330
70
100
AcDbEntity
  8
0
  6
Continuous
 62
     0
370
    30
100
AcDbCircle
 10
89.178146
 20
173.508995
 30
0.0
 40
0.500015027588721
100
AcDbArc
 50
180.001722
 51
269.998278
  0
ARC
  5
A1
330
70
100
AcDbEntity
  8
0
  6
Continuous
 62
     0
370
    30
100
AcDbCircle
 10
148.178116
 20
173.508995
 30
0.0
 40
0.5000150270549452
100
AcDbArc
 50
270.001722
 51
359.998278
  0
LINE
  5
A2
330
70
100
AcDbEntity
  8
0
  6
Continuous
 62
     0
370
    30
100
AcDbLine
 10
88.678131
 20
173.50898
 30
0.0
 11
88.678131
 21
177.50898
 31
0.0
  0
LINE
  5
A3
330
70
100
AcDbEntity
  8
0
  6
Continuous
 62
     0
370
    30
100
AcDbLine
 10
148.678131
 20
173.50898
 30
0.0
 11
148.678131
 21
177.50898
 31
0.0
  0
ARC
  5
A4
330
70
100
AcDbEntity
  8
0
  6
Continuous
 62
     0
370
    30
100
AcDbCircle
 10
89.178146
 20
177.508965
 30
0.0
 40
0.5000149682216684
100
AcDbArc
 50
90.009818
 51
179.998285
  0
ARC
  5
A5
330
70
100
AcDbEntity
  8
0
  6
Continuous
 62
     0
370
    30
100
AcDbCircle
 10
148.178116
 20
177.508965
 30
0.0
 40
0.5000149702942206
100
AcDbArc
 50
0.001715
 51
89.990182
  0
ARC
  5
A6
330
70
100
AcDbEntity
  8
0
  6
Continuous
 62
     0
370
    30
100
AcDbCircle
 10
110.178135
 20
172.508977
 30
0.0
 40
0.5000034419636514
100
AcDbArc
 50
90.000394
 51
179.999606
  0
LINE
  5
A7
330
70
100
AcDbEntity
  8
0
  6
Continuous
 62
     0
370
    30
100
AcDbLine
 10
109.678131
 20
123.007989
 30
0.0
 11
109.678131
 21
172.50898
 31
0.0
  0
ARC
  5
A8
330
70
100
AcDbEntity
  8
0
  6
Continuous
 62
     0
370
    30
100
AcDbCircle
 10
155.178128
 20
114.508977
 30
0.0
 40
0.5000034423605348
100
AcDbArc
 50
0.000394
 51
89.999606
  0
LINE
  5
A9
330
70
100
AcDbEntity
  8
0
  6
Continuous
 62
     0
370
    30
100
AcDbLine
 10
82.178131
 20
115.00898
 30
0.0
 11
101.679123
 21
115.00898
 31
0.0
  0
LINE
  5
AA
330
70
100
AcDbEntity
  8
0
  6
Continuous
 62
     0
370
    30
100
AcDbLine
 10
135.678131
 20
115.00898
 30
0.0
 11
155.178131
 21
115.00898
 31
0.0
  0
ARC
  5
AB
330
70
100
AcDbEntity
  8
0
  6
Continuous
 62
     0
370
    30
100
AcDbCircle
 10
82.178134
 20
114.508978
 30
0.0
 40
0.5000027707886567
100
AcDbArc
 50
90.000317
 51
179.988223
  0
ARC
  5
AC
330
70
100
AcDbEntity
  8
0
  6
Continuous
 62
     0
370
    30
100
AcDbCircle
 10
101.678175
 20
123.008936
 30
0.0
 40
8.000007069279498
100
AcDbArc
 50
270.000377
 51
359.999623
  0
LINE
  5
AD
330
70
100
AcDbEntity
  8
0
  6
Continuous
 62
     0
370
    30
100
AcDbLine
 10
681.678131
 20
97.00898
 30
0.0
 11
155.678131
 21
97.00898
 31
0.0
  0
LINE
  5
AE
330
70
100
AcDbEntity
  8
0
  6
Continuous
 62
     0
370
    30
100
AcDbLine
 10
681.678131
 20
115.00898
 30
0.0
 11
155.678131
 21
115.00898
 31
0.0
  0
ARC
  5
AF
330
70
100
AcDbEntity
  8
0
  6
Continuous
 62
     0
370
    30
100
AcDbCircle
 10
689.178146
 20
173.508995
 30
0.0
 40
0.5000150283755569
100
AcDbArc
 50
180.001722
 51
269.998278
  0
LINE
  5
B0
330
70
100
AcDbEntity
  8
0
  6
Continuous
 62
     0
370
    30
100
AcDbLine
 10
688.678131
 20
173.50898
 30
0.0
 11
688.678131
 21
177.50898
 31
0.0
  0
ARC
  5
B1
330
70
100
AcDbEntity
  8
0
  6
Continuous
 62
     0
370
    30
100
AcDbCircle
 10
689.178146
 20
177.508965
 30
0.0
 40
0.5000149689308883
100
AcDbArc
 50
90.009818
 51
179.998285
  0
ARC
  5
B2
330
70
100
AcDbEntity
  8
0
  6
Continuous
 62
     0
370
    30
100
AcDbCircle
 10
727.178128
 20
172.508977
 30
0.0
 40
0.5000034422880733
100
AcDbArc
 50
0.000394
 51
89.999606
  0
LINE
  5
B3
330
70
100
AcDbEntity
  8
0
  6
Continuous
 62
     0
370
    30
100
AcDbLine
 10
727.678131
 20
123.007989
 30
0.0
 11
727.678131
 21
172.50898
 31
0.0
  0
ARC
  5
B4
330
70
100
AcDbEntity
  8
0
  6
Continuous
 62
     0
370
    30
100
AcDbCircle
 10
682.178135
 20
114.508977
 30
0.0
 40
0.5000034426604002
100
AcDbArc
 50
90.000394
 51
179.999605
  0
LINE
  5
B5
330
70
100
AcDbEntity
  8
0
  6
Continuous
 62
     0
370
    30
100
AcDbLine
 10
755.178131
 20
115.00898
 30
0.0
 11
735.677139
 21
115.00898
 31
0.0
  0
LINE
  5
B6
330
70
100
AcDbEntity
  8
0
  6
Continuous
 62
     0
370
    30
100
AcDbLine
 10
701.678131
 20
115.00898
 30
0.0
 11
682.178131
 21
115.00898
 31
0.0
  0
ARC
  5
B7
330
70
100
AcDbEntity
  8
0
  6
Continuous
 62
     0
370
    30
100
AcDbCircle
 10
755.178128
 20
114.508978
 30
0.0
 40
0.5000027712567899
100
AcDbArc
 50
0.011777
 51
89.999682
  0
ARC
  5
B8
330
70
100
AcDbEntity
  8
0
  6
Continuous
 62
     0
370
    30
100
AcDbCircle
 10
735.678087
 20
123.008936
 30
0.0
 40
8.000007069331527
100
AcDbArc
 50
180.000377
 51
269.999623
  0
ENDBLK
  5
BA
330
70
100
AcDbEntity
  8
0
100
AcDbBlockEnd
  0
BLOCK
  5
D6
330
BC
100
AcDbEntity
  8
0
100
AcDbBlockBegin
  2
c
 70
     0
 10
24.278866
 20
126.982704
 30
0.0
  3
c
  1

  0
LWPOLYLINE
  5
BD
330
BC
100
AcDbEntity
  8
0
  6
Continuous
 62
     0
370
     0
100
AcDbPolyline
 90
       41
 70
     0
 43
0.0
 10
919.115173
 20
592.768921
 10
917.968018
 20
592.789368
 10
916.823486
 20
592.850952
 10
915.684326
 20
592.954041
 10
914.553345
 20
593.098999
 10
913.433533
 20
593.286438
 10
912.328247
 20
593.517212
 10
911.241272
 20
593.792419
 10
910.176941
 20
594.113281
 10
909.140076
 20
594.48114
 10
908.136414
 20
594.8974
 10
907.172852
 20
595.363647
 10
906.257141
 20
595.881409
 10
905.399109
 20
596.45166
 10
904.610291
 20
597.075073
 10
903.902954
 20
597.751587
 10
903.292236
 20
598.478271
 10
902.793823
 20
599.251526
 10
902.422974
 20
600.064026
 10
902.193726
 20
600.905334
 10
902.115295
 20
601.761902
 10
902.191162
 20
602.618469
 10
902.41803
 20
603.460144
 10
902.786621
 20
604.273193
 10
903.283142
 20
605.047241
 10
903.892212
 20
605.774963
 10
904.5979
 20
606.452026
 10
905.385864
 20
607.076355
 10
906.242737
 20
607.647522
 10
907.157349
 20
608.166016
 10
908.120056
 20
608.633118
 10
909.123291
 20
609.050232
 10
910.159607
 20
609.418884
 10
911.22345
 20
609.74054
 10
912.310242
 20
610.016418
 10
913.415344
 20
610.247925
 10
914.534851
 20
610.436096
 10
915.66571
 20
610.581665
 10
916.80481
 20
610.685425
 10
917.94928
 20
610.747742
 10
919.115173
 20
610.768921
  0
ARC
  5
BE
330
BC
100
AcDbEntity
  8
0
  6
Continuous
 62
     0
370
     0
100
AcDbCircle
 10
919.115192
 20
601.76889
 30
0.0
 40
8.5
100
AcDbArc
 50
0.0
 51
180.0
  0
ARC
  5
BF
330
BC
100
AcDbEntity
  8
0
  6
Continuous
 62
     0
370
     0
100
AcDbCircle
 10
919.115192
 20
601.76889
 30
0.0
 40
8.5
100
AcDbArc
 50
180.0
 51
0.0
  0
ARC
  5
C0
330
BC
100
AcDbEntity
  8
0
  6
Continuous
 62
     0
370
    30
100
AcDbCircle
 10
919.115192
 20
601.76889
 30
0.0
 40
9.0
100
AcDbArc
 50
0.0
 51
180.0
  0
ARC
  5
C1
330
BC
100
AcDbEntity
  8
0
  6
Continuous
 62
     0
370
    30
100
AcDbCircle
 10
919.115192
 20
601.76889
 30
0.0
 40
9.0
100
AcDbArc
 50
180.0
 51
0.0
  0
LINE
  5
C2
330
BC
100
AcDbEntity
  8
0
  6
Continuous
 62
     0
370
     0
100
AcDbLine
 10
852.61519
 20
601.76889
 30
0.0
 11
852.61519
 21
610.76889
 31
0.0
  0
LINE
  5
C3
330
BC
100
AcDbEntity
  8
0
  6
Continuous
 62
     0
370
     0
100
AcDbLine
 10
852.61519
 20
592.76889
 30
0.0
 11
852.61519
 21
601.76889
 31
0.0
  0
LINE
  5
C4
330
BC
100
AcDbEntity
  8
0
  6
Continuous
 62
     0
370
     0
100
AcDbLine
 10
847.61519
 20
631.76889
 30
0.0
 11
847.615191
 21
599.359853
 31
0.0
  0
LINE
  5
C5
330
BC
100
AcDbEntity
  8
0
  6
Continuous
 62
     0
370
     0
100
AcDbLine
 10
847.615191
 20
599.359853
 30
0.0
 11
847.61519
 21
571.76889
 31
0.0
  0
LWPOLYLINE
  5
C6
330
BC
100
AcDbEntity
  8
0
  6
Continuous
 62
     0
370
    30
100
AcDbPolyline
 90
       22
 70
     0
 43
0.0
 10
847.115173
 20
572.26886
 10
847.115173
 20
572.33374
 10
847.115173
 20
572.533813
 10
847.115173
 20
572.876404
 10
847.115173
 20
573.367126
 10
847.115173
 20
574.009644
 10
847.115173
 20
574.805359
 10
847.115173
 20
575.753296
 10
847.115173
 20
576.849915
 10
847.115173
 20
578.088989
 10
847.115173
 20
579.461914
 10
847.115173
 20
580.957764
 10
847.115173
 20
582.563477
 10
847.115173
 20
584.264526
 10
847.115173
 20
586.045044
 10
847.115173
 20
587.888489
 10
847.115173
 20
589.778015
 10
847.115173
 20
591.696899
 10
847.115173
 20
593.629089
 10
847.115173
 20
595.559448
 10
847.115173
 20
597.473999
 10
847.115173
 20
599.400024
  0
LINE
  5
C7
330
BC
100
AcDbEntity
  8
0
  6
Continuous
 62
     0
370
    30
100
AcDbLine
 10
847.115191
 20
599.400004
 30
0.0
 11
847.11519
 21
631.26889
 31
0.0
  0
LINE
  5
C8
330
BC
100
AcDbEntity
  8
0
  6
Continuous
 62
     0
370
     0
100
AcDbLine
 10
851.61519
 20
599.359853
 30
0.0
 11
851.61519
 21
631.76889
 31
0.0
  0
LINE
  5
C9
330
BC
100
AcDbEntity
  8
0
  6
Continuous
 62
     0
370
     0
100
AcDbLine
 10
851.61519
 20
571.76889
 30
0.0
 11
851.61519
 21
599.359853
 31
0.0
  0
LINE
  5
CA
330
BC
100
AcDbEntity
  8
0
  6
Continuous
 62
     0
370
    30
100
AcDbLine
 10
852.11519
 20
631.26889
 30
0.0
 11
852.115191
 21
599.400004
 31
0.0
  0
LINE
  5
CB
330
BC
100
AcDbEntity
  8
0
  6
Continuous
 62
     0
370
    30
100
AcDbLine
 10
852.115191
 20
599.400004
 30
0.0
 11
852.11519
 21
572.26889
 31
0.0
  0
ARC
  5
CC
330
BC
100
AcDbEntity
  8
0
  6
Continuous
 62
     0
370
    30
100
AcDbCircle
 10
851.615175
 20
631.268875
 30
0.0
 40
0.5000150271208561
100
AcDbArc
 50
0.001722
 51
89.998278
  0
ARC
  5
CD
330
BC
100
AcDbEntity
  8
0
  6
Continuous
 62
     0
370
    30
100
AcDbCircle
 10
851.615175
 20
572.268905
 30
0.0
 40
0.5000150268163128
100
AcDbArc
 50
270.001722
 51
359.998278
  0
LINE
  5
CE
330
BC
100
AcDbEntity
  8
0
  6
Continuous
 62
     0
370
    30
100
AcDbLine
 10
851.61519
 20
631.76889
 30
0.0
 11
847.61519
 21
631.76889
 31
0.0
  0
LINE
  5
CF
330
BC
100
AcDbEntity
  8
0
  6
Continuous
 62
     0
370
    30
100
AcDbLine
 10
851.61519
 20
571.76889
 30
0.0
 11
847.61519
 21
571.76889
 31
0.0
  0
ARC
  5
D0
330
BC
100
AcDbEntity
  8
0
  6
Continuous
 62
     0
370
    30
100
AcDbCircle
 10
847.615205
 20
631.268875
 30
0.0
 40
0.5000149692002794
100
AcDbArc
 50
90.001715
 51
179.990182
  0
ARC
  5
D1
330
BC
100
AcDbEntity
  8
0
  6
Continuous
 62
     0
370
    30
100
AcDbCircle
 10
847.615205
 20
572.268905
 30
0.0
 40
0.5000149703669323
100
AcDbArc
 50
180.009818
 51
269.998285
  0
ARC
  5
D2
330
BC
100
AcDbEntity
  8
0
  6
Continuous
 62
     0
370
    30
100
AcDbCircle
 10
852.615193
 20
593.268894
 30
0.0
 40
0.5000034425021257
100
AcDbArc
 50
180.000394
 51
269.999606
  0
ARC
  5
D3
330
BC
100
AcDbEntity
  8
0
  6
Continuous
 62
     0
370
    30
100
AcDbCircle
 10
852.615193
 20
610.268887
 30
0.0
 40
0.5000034416013059
100
AcDbArc
 50
90.000394
 51
179.999606
  0
LINE
  5
D4
330
BC
100
AcDbEntity
  8
0
  6
Continuous
 62
     0
370
    30
100
AcDbLine
 10
919.11519
 20
592.76889
 30
0.0
 11
852.61519
 21
592.76889
 31
0.0
  0
LINE
  5
D5
330
BC
100
AcDbEntity
  8
0
  6
Continuous
 62
     0
370
    30
100
AcDbLine
 10
919.11519
 20
610.76889
 30
0.0
 11
852.61519
 21
610.76889
 31
0.0
  0
ENDBLK
  5
D7
330
BC
100
AcDbEntity
  8
0
100
AcDbBlockEnd
  0
BLOCK
  5
F3
330
D9
100
AcDbEntity
  8
0
100
AcDbBlockBegin
  2
e
 70
     0
 10
47.91761
 20
-0.000122
 30
0.0
  3
e
  1

  0
LWPOLYLINE
  5
DA
330
D9
100
AcDbEntity
  8
0
  6
Continuous
 62
     0
370
     0
100
AcDbPolyline
 90
       41
 70
     0
 43
0.0
 10
-73.834351
 20
610.768921
 10
-72.687187
 20
610.748413
 10
-71.542656
 20
610.686829
 10
-70.403511
 20
610.58374
 10
-69.272522
 20
610.438782
 10
-68.152718
 20
610.251343
 10
-67.04744
 20
610.020569
 10
-65.960434
 20
609.745361
 10
-64.896118
 20
609.4245
 10
-63.859219
 20
609.056641
 10
-62.855572
 20
608.640381
 10
-61.891987
 20
608.174133
 10
-60.976284
 20
607.656372
 10
-60.118294
 20
607.086121
 10
-59.329445
 20
606.462708
 10
-58.622093
 20
605.786194
 10
-58.011391
 20
605.059509
 10
-57.512993
 20
604.286255
 10
-57.142124
 20
603.473755
 10
-56.912899
 20
602.632446
 10
-56.834457
 20
601.775879
 10
-56.910351
 20
600.919312
 10
-57.137196
 20
600.077637
 10
-57.505787
 20
599.264587
 10
-58.002308
 20
598.49054
 10
-58.61137
 20
597.762817
 10
-59.317085
 20
597.085754
 10
-60.105007
 20
596.461426
 10
-60.961903
 20
595.890259
 10
-61.876484
 20
595.371765
 10
-62.839237
 20
594.904663
 10
-63.842468
 20
594.487549
 10
-64.878792
 20
594.118896
 10
-65.942635
 20
593.797241
 10
-67.029388
 20
593.521362
 10
-68.134491
 20
593.289856
 10
-69.254036
 20
593.101685
 10
-70.384903
 20
592.956116
 10
-71.523987
 20
592.852356
 10
-72.668419
 20
592.790039
 10
-73.834351
 20
592.768921
  0
ARC
  5
DB
330
D9
100
AcDbEntity
  8
0
  6
Continuous
 62
     0
370
     0
100
AcDbCircle
 10
-73.834354
 20
601.76889
 30
0.0
 40
8.5
100
AcDbArc
 50
180.0
 51
0.0
  0
ARC
  5
DC
330
D9
100
AcDbEntity
  8
0
  6
Continuous
 62
     0
370
     0
100
AcDbCircle
 10
-73.834354
 20
601.76889
 30
0.0
 40
8.5
100
AcDbArc
 50
0.0
 51
180.0
  0
ARC
  5
DD
330
D9
100
AcDbEntity
  8
0
  6
Continuous
 62
     0
370
    30
100
AcDbCircle
 10
-73.834354
 20
601.76889
 30
0.0
 40
9.0
100
AcDbArc
 50
180.0
 51
0.0
  0
ARC
  5
DE
330
D9
100
AcDbEntity
  8
0
  6
Continuous
 62
     0
370
    30
100
AcDbCircle
 10
-73.834354
 20
601.76889
 30
0.0
 40
9.0
100
AcDbArc
 50
0.0
 51
180.0
  0
LINE
  5
DF
330
D9
100
AcDbEntity
  8
0
  6
Continuous
 62
     0
370
     0
100
AcDbLine
 10
-7.334352
 20
601.76889
 30
0.0
 11
-7.334352
 21
592.76889
 31
0.0
  0
LINE
  5
E0
330
D9
100
AcDbEntity
  8
0
  6
Continuous
 62
     0
370
     0
100
AcDbLine
 10
-7.334352
 20
610.76889
 30
0.0
 11
-7.334352
 21
601.76889
 31
0.0
  0
LINE
  5
E1
330
D9
100
AcDbEntity
  8
0
  6
Continuous
 62
     0
370
     0
100
AcDbLine
 10
-2.334352
 20
571.76889
 30
0.0
 11
-2.334354
 21
601.76889
 31
0.0
  0
LINE
  5
E2
330
D9
100
AcDbEntity
  8
0
  6
Continuous
 62
     0
370
     0
100
AcDbLine
 10
-2.334354
 20
601.76889
 30
0.0
 11
-2.334352
 21
631.76889
 31
0.0
  0
LINE
  5
E3
330
D9
100
AcDbEntity
  8
0
  6
Continuous
 62
     0
370
    30
100
AcDbLine
 10
-1.834352
 20
631.26889
 30
0.0
 11
-1.834354
 21
601.76889
 31
0.0
  0
LINE
  5
E4
330
D9
100
AcDbEntity
  8
0
  6
Continuous
 62
     0
370
    30
100
AcDbLine
 10
-1.834354
 20
601.76889
 30
0.0
 11
-1.834352
 21
572.26889
 31
0.0
  0
LINE
  5
E5
330
D9
100
AcDbEntity
  8
0
  6
Continuous
 62
     0
370
     0
100
AcDbLine
 10
-6.334352
 20
601.76889
 30
0.0
 11
-6.334352
 21
571.76889
 31
0.0
  0
LINE
  5
E6
330
D9
100
AcDbEntity
  8
0
  6
Continuous
 62
     0
370
     0
100
AcDbLine
 10
-6.334352
 20
631.76889
 30
0.0
 11
-6.334352
 21
601.76889
 31
0.0
  0
LINE
  5
E7
330
D9
100
AcDbEntity
  8
0
  6
Continuous
 62
     0
370
    30
100
AcDbLine
 10
-6.834352
 20
572.26889
 30
0.0
 11
-6.834354
 21
601.76889
 31
0.0
  0
LINE
  5
E8
330
D9
100
AcDbEntity
  8
0
  6
Continuous
 62
     0
370
    30
100
AcDbLine
 10
-6.834354
 20
601.76889
 30
0.0
 11
-6.834352
 21
631.26889
 31
0.0
  0
ARC
  5
E9
330
D9
100
AcDbEntity
  8
0
  6
Continuous
 62
     0
370
    30
100
AcDbCircle
 10
-6.334337
 20
572.268905
 30
0.0
 40
0.5000150268554543
100
AcDbArc
 50
180.001722
 51
269.998278
  0
ARC
  5
EA
330
D9
100
AcDbEntity
  8
0
  6
Continuous
 62
     0
370
    30
100
AcDbCircle
 10
-6.334337
 20
631.268875
 30
0.0
 40
0.5000150274220678
100
AcDbArc
 50
90.001722
 51
179.998278
  0
LINE
  5
EB
330
D9
100
AcDbEntity
  8
0
  6
Continuous
 62
     0
370
    30
100
AcDbLine
 10
-6.334352
 20
571.76889
 30
0.0
 11
-2.334352
 21
571.76889
 31
0.0
  0
LINE
  5
EC
330
D9
100
AcDbEntity
  8
0
  6
Continuous
 62
     0
370
    30
100
AcDbLine
 10
-6.334352
 20
631.76889
 30
0.0
 11
-2.334352
 21
631.76889
 31
0.0
  0
ARC
  5
ED
330
D9
100
AcDbEntity
  8
0
  6
Continuous
 62
     0
370
    30
100
AcDbCircle
 10
-2.334367
 20
572.268905
 30
0.0
 40
0.5000149690811477
100
AcDbArc
 50
270.001715
 51
359.990182
  0
ARC
  5
EE
330
D9
100
AcDbEntity
  8
0
  6
Continuous
 62
     0
370
    30
100
AcDbCircle
 10
-2.334367
 20
631.268875
 30
0.0
 40
0.5000149693878482
100
AcDbArc
 50
0.009818
 51
89.998285
  0
ARC
  5
EF
330
D9
100
AcDbEntity
  8
0
  6
Continuous
 62
     0
370
    30
100
AcDbCircle
 10
-7.334356
 20
610.268887
 30
0.0
 40
0.5000034428113751
100
AcDbArc
 50
0.000395
 51
89.999605
  0
ARC
  5
F0
330
D9
100
AcDbEntity
  8
0
  6
Continuous
 62
     0
370
    30
100
AcDbCircle
 10
-7.334356
 20
593.268894
 30
0.0
 40
0.5000034434980737
100
AcDbArc
 50
270.000395
 51
359.999605
  0
LINE
  5
F1
330
D9
100
AcDbEntity
  8
0
  6
Continuous
 62
     0
370
    30
100
AcDbLine
 10
-73.834352
 20
610.76889
 30
0.0
 11
-7.334352
 21
610.76889
 31
0.0
  0
LINE
  5
F2
330
D9
100
AcDbEntity
  8
0
  6
Continuous
 62
     0
370
    30
100
AcDbLine
 10
-73.834352
 20
592.76889
 30
0.0
 11
-7.334352
 21
592.76889
 31
0.0
  0
ENDBLK
  5
F4
330
D9
100
AcDbEntity
  8
0
100
AcDbBlockEnd
  0
BLOCK
  5
149
330
F6
100
AcDbEntity
  8
0
100
AcDbBlockBegin
  2
d
 70
     0
 10
-56.206364
 20
6.876991
 30
0.0
  3
d
  1

  0
LWPOLYLINE
  5
F7
330
F6
100
AcDbEntity
  8
0
  6
Continuous
 62
     0
370
     0
100
AcDbPolyline
 90
       11
 70
     0
 43
0.0
 10
1285.434326
 20
101.63903
 10
1285.059082
 20
101.310631
 10
1284.650879
 20
100.842285
 10
1284.217163
 20
100.252586
 10
1283.763062
 20
99.555893
 10
1283.293335
 20
98.765472
 10
1282.811523
 20
97.891914
 10
1282.320557
 20
96.943649
 10
1281.823242
 20
95.928497
 10
1281.321777
 20
94.852356
 10
1280.815552
 20
93.714294
  0
LWPOLYLINE
  5
F8
330
F6
100
AcDbEntity
  8
0
  6
Continuous
 62
     0
370
     0
100
AcDbPolyline
 90
       11
 70
     0
 43
0.0
 10
1276.196777
 20
101.63903
 10
1276.572021
 20
101.310631
 10
1276.980103
 20
100.842285
 10
1277.41394
 20
100.252586
 10
1277.868042
 20
99.555893
 10
1278.337769
 20
98.765472
 10
1278.81958
 20
97.891914
 10
1279.310547
 20
96.943649
 10
1279.807739
 20
95.928497
 10
1280.309204
 20
94.852356
 10
1280.815552
 20
93.714294
  0
LWPOLYLINE
  5
F9
330
F6
100
AcDbEntity
  8
0
  6
Continuous
 62
     0
370
     0
100
AcDbPolyline
 90
       11
 70
     0
 43
0.0
 10
1280.815552
 20
93.714294
 10
1282.441772
 20
93.335594
 10
1284.061401
 20
92.908165
 10
1285.667847
 20
92.432892
 10
1287.253906
 20
91.910477
 10
1288.811401
 20
91.34127
 10
1290.3302
 20
90.725624
 10
1291.799316
 20
90.063942
 10
1293.204346
 20
89.356956
 10
1294.527832
 20
88.606049
 10
1295.871338
 20
87.726967
  0
LWPOLYLINE
  5
FA
330
F6
100
AcDbEntity
  8
0
  6
Continuous
 62
     0
370
     0
100
AcDbPolyline
 90
       28
 70
     0
 43
0.0
 10
1280.815552
 20
93.714294
 10
1281.986572
 20
93.956184
 10
1283.155151
 20
94.171646
 10
1284.318848
 20
94.359932
 10
1285.475098
 20
94.520287
 10
1286.621338
 20
94.65181
 10
1287.754395
 20
94.753319
 10
1288.871338
 20
94.823563
 10
1289.968018
 20
94.860977
 10
1291.040405
 20
94.863907
 10
1292.083862
 20
94.830475
 10
1293.092407
 20
94.758537
 10
1294.059692
 20
94.645752
 10
1294.978027
 20
94.489647
 10
1295.837891
 20
94.287605
 10
1296.628662
 20
94.036957
 10
1297.338867
 20
93.735519
 10
1297.954468
 20
93.38208
 10
1298.461182
 20
92.975739
 10
1298.845215
 20
92.517899
 10
1299.093506
 20
92.011902
 10
1299.197144
 20
91.463661
 10
1299.152466
 20
90.881378
 10
1298.960815
 20
90.27433
 10
1298.629395
 20
89.652626
 10
1298.169922
 20
89.025497
 10
1297.595825
 20
88.401115
 10
1296.904175
 20
87.77108
  0
ELLIPSE
  5
FB
330
F6
100
AcDbEntity
  8
0
  6
Continuous
 62
     0
370
     0
100
AcDbEllipse
 10
1306.978483
 20
68.850336
 30
0.0
 11
-4.907477260115853
 21
-6.940220957681807
 31
0.0
210
0.0
220
0.0
230
-1.0
 40
0.5
 41
3.757072370327904
 42
6.898665023917729
  0
ELLIPSE
  5
FC
330
F6
100
AcDbEntity
  8
0
  6
Continuous
 62
     0
370
     0
100
AcDbEllipse
 10
1306.978483
 20
68.850336
 30
0.0
 11
-4.907477260115853
 21
-6.940220957681807
 31
0.0
210
0.0
220
0.0
230
-1.0
 40
0.5
 41
0.6154797167381435
 42
3.757072370327904
  0
ELLIPSE
  5
FD
330
F6
100
AcDbEntity
  8
0
  6
Continuous
 62
     0
370
     0
100
AcDbEllipse
 10
1306.62493
 20
69.100336
 30
0.0
 11
-5.196152393063845
 21
-7.348469249310151
 31
0.0
210
0.0
220
0.0
230
-0.9999999999999999
 40
0.5
 41
6.280169593283856
 42
6.89866502391772
  0
ELLIPSE
  5
FE
330
F6
100
AcDbEntity
  8
0
  6
Continuous
 62
     0
370
     0
100
AcDbEllipse
 10
1306.62493
 20
69.100336
 30
0.0
 11
-5.196152393063845
 21
-7.348469249310151
 31
0.0
210
0.0
220
0.0
230
-0.9999999999999999
 40
0.5
 41
0.6154797167381335
 42
3.144856577924136
  0
ELLIPSE
  5
FF
330
F6
100
AcDbEntity
  8
0
  6
Continuous
 62
     0
370
     0
100
AcDbEllipse
 10
1255.006135
 20
105.600335
 30
0.0
 11
-5.196152393063845
 21
-7.348469249310151
 31
0.0
210
0.0
220
0.0
230
-0.9999999999999999
 40
0.5
 41
0.0000000121016165
 42
0.6154797167381335
  0
ELLIPSE
  5
100
330
F6
100
AcDbEntity
  8
0
  6
Continuous
 62
     0
370
     0
100
AcDbEllipse
 10
1255.006135
 20
105.600335
 30
0.0
 11
-5.196152393063845
 21
-7.348469249310151
 31
0.0
210
0.0
220
0.0
230
-0.9999999999999999
 40
0.5
 41
0.6154797167381335
 42
3.141592665691409
  0
ELLIPSE
  5
101
330
F6
100
AcDbEntity
  8
0
  6
Continuous
 62
     0
370
     0
100
AcDbEllipse
 10
1327.838133
 20
120.600335
 30
0.0
 11
-5.196152393063845
 21
7.348469249310151
 31
0.0
210
0.0
220
0.0
230
-0.9999999999999999
 40
0.5
 41
2.526112936851673
 42
3.141592649555928
  0
ELLIPSE
  5
102
330
F6
100
AcDbEntity
  8
0
  6
Continuous
 62
     0
370
     0
100
AcDbEllipse
 10
1327.838133
 20
120.600335
 30
0.0
 11
-5.196152393063845
 21
7.348469249310151
 31
0.0
210
0.0
220
0.0
230
-0.9999999999999999
 40
0.5
 41
6.283185303145716
 42
8.80929824403126
  0
LWPOLYLINE
  5
103
330
F6
100
AcDbEntity
  8
0
  6
Continuous
 62
     0
370
     0
100
AcDbPolyline
 90
       10
 70
     0
 43
0.0
 10
1348.694214
 20
98.605438
 10
1349.533325
 20
99.294685
 10
1350.271484
 20
100.100586
 10
1350.90625
 20
101.013489
 10
1351.436279
 20
102.02253
 10
1351.862305
 20
103.115974
 10
1352.186523
 20
104.281601
 10
1352.412109
 20
105.506989
 10
1352.543823
 20
106.779854
 10
1352.586914
 20
108.100334
  0
LWPOLYLINE
  5
104
330
F6
100
AcDbEntity
  8
0
  6
Continuous
 62
     0
370
     0
100
AcDbPolyline
 90
       38
 70
     0
 43
0.0
 10
1352.586914
 20
108.100334
 10
1352.546143
 20
109.443443
 10
1352.420044
 20
110.873138
 10
1352.203613
 20
112.385475
 10
1351.892334
 20
113.974937
 10
1351.483032
 20
115.63446
 10
1350.973633
 20
117.355377
 10
1350.363281
 20
119.127541
 10
1349.652832
 20
120.939453
 10
1348.844604
 20
122.778488
 10
1347.942505
 20
124.631119
 10
1346.952026
 20
126.483269
 10
1345.880005
 20
128.320633
 10
1344.734863
 20
130.129089
 10
1343.525879
 20
131.894974
 10
1342.262939
 20
133.605484
 10
1340.957031
 20
135.248993
 10
1339.618896
 20
136.815262
 10
1338.259766
 20
138.295578
 10
1336.890137
 20
139.682999
 10
1335.520264
 20
140.972275
 10
1334.159546
 20
142.159866
 10
1332.816895
 20
143.243896
 10
1331.499756
 20
144.224045
 10
1330.187988
 20
145.118759
 10
1328.849731
 20
145.947586
 10
1327.491821
 20
146.700195
 10
1326.123047
 20
147.366211
 10
1324.752563
 20
147.935593
 10
1323.390503
 20
148.399002
 10
1322.047485
 20
148.748077
 10
1320.734497
 20
148.975693
 10
1319.462402
 20
149.076263
 10
1318.242065
 20
149.045944
 10
1317.083862
 20
148.882797
 10
1315.996948
 20
148.586914
 10
1314.990112
 20
148.1604
 10
1314.053101
 20
147.59523
  0
ELLIPSE
  5
105
330
F6
100
AcDbEntity
  8
0
  6
Continuous
 62
     0
370
     0
100
AcDbEllipse
 10
1328.54524
 20
121.100335
 30
0.0
 11
-17.32050797687948
 21
24.4948974977005
 31
0.0
210
0.0
220
0.0
230
-0.9999999999999999
 40
0.5
 41
2.526112936851663
 42
3.141592649555921
  0
ELLIPSE
  5
106
330
F6
100
AcDbEntity
  8
0
  6
Continuous
 62
     0
370
     0
100
AcDbEllipse
 10
1328.54524
 20
121.100335
 30
0.0
 11
-17.32050797687948
 21
24.4948974977005
 31
0.0
210
0.0
220
0.0
230
-0.9999999999999999
 40
0.5
 41
6.283185303145713
 42
8.80929824403125
  0
LWPOLYLINE
  5
107
330
F6
100
AcDbEntity
  8
0
  6
Continuous
 62
     0
370
     0
100
AcDbPolyline
 90
       29
 70
     0
 43
0.0
 10
1321.918701
 20
105.391945
 10
1323.25647
 20
104.072624
 10
1324.591064
 20
102.849785
 10
1325.913696
 20
101.726234
 10
1327.216187
 20
100.703262
 10
1328.49353
 20
99.779472
 10
1329.782593
 20
98.926491
 10
1331.095581
 20
98.140419
 10
1332.424927
 20
97.431381
 10
1333.762207
 20
96.809273
 10
1335.098267
 20
96.283562
 10
1336.423096
 20
95.862976
 10
1337.726562
 20
95.555237
 10
1338.997925
 20
95.366798
 10
1340.226807
 20
95.302589
 10
1341.402832
 20
95.365829
 10
1342.516357
 20
95.557869
 10
1343.558594
 20
95.878143
 10
1344.521484
 20
96.32412
 10
1345.39856
 20
96.891396
 10
1346.184692
 20
97.573822
 10
1346.875977
 20
98.363701
 10
1347.470215
 20
99.252045
 10
1347.966797
 20
100.228821
 10
1348.366455
 20
101.283302
 10
1348.671021
 20
102.40432
 10
1348.883789
 20
103.580566
 10
1349.008911
 20
104.80088
 10
1349.051392
 20
106.100334
  0
LWPOLYLINE
  5
108
330
F6
100
AcDbEntity
  8
0
  6
Continuous
 62
     0
370
     0
100
AcDbPolyline
 90
       10
 70
     0
 43
0.0
 10
1307.332031
 20
135.600342
 10
1307.376709
 20
134.204391
 10
1307.515015
 20
132.713882
 10
1307.75293
 20
131.133514
 10
1308.095215
 20
129.469894
 10
1308.54541
 20
127.731552
 10
1309.105713
 20
125.928917
 10
1309.776245
 20
124.074203
 10
1310.555664
 20
122.18119
 10
1311.526367
 20
120.088882
  0
LWPOLYLINE
  5
109
330
F6
100
AcDbEntity
  8
0
  6
Continuous
 62
     0
370
     0
100
AcDbPolyline
 90
       46
 70
     0
 43
0.0
 10
1349.051392
 20
106.100334
 10
1349.009033
 20
107.457207
 10
1348.878296
 20
108.903687
 10
1348.653564
 20
110.435524
 10
1348.330444
 20
112.046745
 10
1347.905273
 20
113.729668
 10
1347.376221
 20
115.474892
 10
1346.742676
 20
117.271408
 10
1346.005737
 20
119.106758
 10
1345.168213
 20
120.9673
 10
1344.234619
 20
122.838486
 10
1343.211304
 20
124.705269
 10
1342.105835
 20
126.552429
 10
1340.927612
 20
128.365067
 10
1339.686523
 20
130.128922
 10
1338.393921
 20
131.830795
 10
1337.061035
 20
133.458847
 10
1335.699829
 20
135.002838
 10
1334.321777
 20
136.454346
 10
1332.937866
 20
137.806778
 10
1331.558838
 20
139.055466
 10
1330.194336
 20
140.197586
 10
1328.852783
 20
141.232025
 10
1327.533447
 20
142.165009
 10
1326.192017
 20
143.027863
 10
1324.827515
 20
143.815735
 10
1323.448486
 20
144.517487
 10
1322.064697
 20
145.122299
 10
1320.686523
 20
145.619995
 10
1319.325317
 20
146.001358
 10
1317.992432
 20
146.258469
 10
1316.699585
 20
146.384995
 10
1315.458496
 20
146.376495
 10
1314.280029
 20
146.230545
 10
1313.174438
 20
145.94696
 10
1312.150879
 20
145.527725
 10
1311.217163
 20
144.977081
 10
1310.379395
 20
144.301254
 10
1309.642212
 20
143.508362
 10
1309.008423
 20
142.608063
 10
1308.479126
 20
141.611237
 10
1308.053833
 20
140.529663
 10
1307.730347
 20
139.375671
 10
1307.505493
 20
138.161758
 10
1307.374512
 20
136.900284
 10
1307.332031
 20
135.600342
  0
ELLIPSE
  5
10A
330
F6
100
AcDbEntity
  8
0
  6
Continuous
 62
     0
370
    30
100
AcDbEllipse
 10
1254.652582
 20
105.850335
 30
0.0
 11
-5.196152393063845
 21
-7.348469249310151
 31
0.0
210
0.0
220
0.0
230
-0.9999999999999999
 40
0.5
 41
6.23677195377499
 42
8.46946135071262
  0
ELLIPSE
  5
10B
330
F6
100
AcDbEntity
  8
0
  6
Continuous
 62
     0
370
    30
100
AcDbEllipse
 10
1254.652582
 20
105.850335
 30
0.0
 11
-5.196152393063845
 21
-7.348469249310151
 31
0.0
210
0.0
220
0.0
230
-0.9999999999999999
 40
0.5
 41
2.186276043533035
 42
3.18796068406143
  0
ELLIPSE
  5
10C
330
F6
100
AcDbEntity
  8
0
  6
Continuous
 62
     0
370
    30
100
AcDbEllipse
 10
882.714415
 20
368.850333
 30
0.0
 11
5.196152393063845
 21
7.348469249310151
 31
0.0
210
0.0
220
0.0
230
0.9999999999999999
 40
0.5
 41
6.28318529507797
 42
7.23850191723635
  0
ELLIPSE
  5
10D
330
F6
100
AcDbEntity
  8
0
  6
Continuous
 62
     0
370
    30
100
AcDbEllipse
 10
882.714415
 20
368.850333
 30
0.0
 11
5.196152393063845
 21
7.348469249310151
 31
0.0
210
0.0
220
0.0
230
0.9999999999999999
 40
0.5
 41
0.955316610056764
 42
3.141592641488177
  0
LWPOLYLINE
  5
10E
330
F6
100
AcDbEntity
  8
0
  6
Continuous
 62
     0
370
     0
100
AcDbPolyline
 90
       11
 70
     0
 43
0.0
 10
856.551453
 20
393.714294
 10
858.16864
 20
393.337891
 10
859.77948
 20
392.913269
 10
861.377136
 20
392.441254
 10
862.954712
 20
391.922638
 10
864.504211
 20
391.357788
 10
866.016174
 20
390.746979
 10
867.478882
 20
390.090668
 10
868.879089
 20
389.389465
 10
870.199585
 20
388.644775
 10
871.562561
 20
387.758575
  0
ELLIPSE
  5
10F
330
F6
100
AcDbEntity
  8
0
  6
Continuous
 62
     0
370
     0
100
AcDbEllipse
 10
880.593094
 20
387.350333
 30
0.0
 11
8.0
 21
0.0
 31
0.0
210
0.0
220
0.0
230
-1.0
 40
0.707107
 41
3.141304572432932
 42
3.92699081698725
  0
LWPOLYLINE
  5
110
330
F6
100
AcDbEntity
  8
0
  6
Continuous
 62
     0
370
     0
100
AcDbPolyline
 90
       22
 70
     0
 43
0.0
 10
856.551453
 20
393.714294
 10
857.732666
 20
393.958191
 10
858.911377
 20
394.175262
 10
860.085083
 20
394.364594
 10
861.251099
 20
394.525421
 10
862.406738
 20
394.65683
 10
863.54895
 20
394.757751
 10
864.674438
 20
394.826752
 10
865.779358
 20
394.862335
 10
866.85907
 20
394.86264
 10
867.908752
 20
394.825775
 10
868.922607
 20
394.749573
 10
869.893799
 20
394.631561
 10
870.813904
 20
394.469177
 10
871.673645
 20
394.259705
 10
872.462036
 20
394.000641
 10
873.166199
 20
393.689758
 10
873.772339
 20
393.325439
 10
874.265686
 20
392.90744
 10
874.631592
 20
392.437592
 10
874.857666
 20
391.919403
 10
874.936218
 20
391.350342
  0
LWPOLYLINE
  5
111
330
F6
100
AcDbEntity
  8
0
  6
Continuous
 62
     0
370
     0
100
AcDbPolyline
 90
        7
 70
     0
 43
0.0
 10
874.936218
 20
391.350342
 10
874.867371
 20
390.785889
 10
874.664124
 20
390.200226
 10
874.332825
 20
389.602051
 10
873.884216
 20
388.999573
 10
873.330383
 20
388.399841
 10
872.640076
 20
387.770996
  0
LWPOLYLINE
  5
112
330
F6
100
AcDbEntity
  8
0
  6
Continuous
 62
     0
370
     0
100
AcDbPolyline
 90
       11
 70
     0
 43
0.0
 10
851.931213
 20
401.640015
 10
852.306641
 20
401.31192
 10
852.714722
 20
400.843994
 10
853.148743
 20
400.253998
 10
853.602966
 20
399.557495
 10
854.072876
 20
398.767029
 10
854.554993
 20
397.892914
 10
855.046021
 20
396.944458
 10
855.543579
 20
395.92868
 10
856.045227
 20
394.852112
 10
856.551453
 20
393.714294
  0
LWPOLYLINE
  5
113
330
F6
100
AcDbEntity
  8
0
  6
Continuous
 62
     0
370
     0
100
AcDbPolyline
 90
       11
 70
     0
 43
0.0
 10
861.171692
 20
401.640015
 10
860.796265
 20
401.31192
 10
860.388184
 20
400.843994
 10
859.954163
 20
400.253998
 10
859.5
 20
399.557495
 10
859.03009
 20
398.767029
 10
858.547974
 20
397.892914
 10
858.056885
 20
396.944458
 10
857.559326
 20
395.92868
 10
857.057678
 20
394.852112
 10
856.551453
 20
393.714294
  0
LWPOLYLINE
  5
114
330
F6
100
AcDbEntity
  8
0
  6
Continuous
 62
     0
370
     0
100
AcDbPolyline
 90
        2
 70
     0
 43
0.0
 10
860.723572
 20
392.640625
 10
861.229492
 20
394.522675
  0
ELLIPSE
  5
115
330
F6
100
AcDbEntity
  8
0
  6
Continuous
 62
     0
370
     0
100
AcDbEllipse
 10
830.742066
 20
405.600333
 30
0.0
 11
5.196152393063845
 21
7.348469249310151
 31
0.0
210
0.0
220
0.0
230
0.9999999999999999
 40
0.5
 41
6.28318529507798
 42
8.809298244031247
  0
ELLIPSE
  5
116
330
F6
100
AcDbEntity
  8
0
  6
Continuous
 62
     0
370
     0
100
AcDbEllipse
 10
830.742066
 20
405.600333
 30
0.0
 11
5.196152393063845
 21
7.348469249310151
 31
0.0
210
0.0
220
0.0
230
0.9999999999999999
 40
0.5
 41
2.52611293685166
 42
3.141592641488181
  0
ELLIPSE
  5
117
330
F6
100
AcDbEntity
  8
0
  6
Continuous
 62
     0
370
     0
100
AcDbEllipse
 10
882.360861
 20
369.100333
 30
0.0
 11
5.196152393063845
 21
7.348469249310151
 31
0.0
210
0.0
220
0.0
230
0.9999999999999999
 40
0.5
 41
6.235054191903092
 42
8.809298244031247
  0
ELLIPSE
  5
118
330
F6
100
AcDbEntity
  8
0
  6
Continuous
 62
     0
370
     0
100
AcDbEllipse
 10
882.360861
 20
369.100333
 30
0.0
 11
5.196152393063845
 21
7.348469249310151
 31
0.0
210
0.0
220
0.0
230
0.9999999999999999
 40
0.5
 41
2.52611293685166
 42
3.189723744663015
  0
ELLIPSE
  5
119
330
F6
100
AcDbEntity
  8
0
  6
Continuous
 62
     0
370
     0
100
AcDbEllipse
 10
903.574065
 20
420.600333
 30
0.0
 11
-5.196152393063845
 21
7.348469249310151
 31
0.0
210
0.0
220
0.0
230
-0.9999999999999999
 40
0.5
 41
6.283185303145721
 42
8.809298244031247
  0
ELLIPSE
  5
11A
330
F6
100
AcDbEntity
  8
0
  6
Continuous
 62
     0
370
     0
100
AcDbEllipse
 10
903.574065
 20
420.600333
 30
0.0
 11
-5.196152393063845
 21
7.348469249310151
 31
0.0
210
0.0
220
0.0
230
-0.9999999999999999
 40
0.5
 41
2.52611293685166
 42
3.141592649555923
  0
LWPOLYLINE
  5
11B
330
F6
100
AcDbEntity
  8
0
  6
Continuous
 62
     0
370
     0
100
AcDbPolyline
 90
       37
 70
     0
 43
0.0
 10
928.254272
 20
409.852234
 10
928.108826
 20
411.257172
 10
927.876831
 20
412.742493
 10
927.553894
 20
414.303497
 10
927.136414
 20
415.93396
 10
926.621826
 20
417.626068
 10
926.008911
 20
419.370575
 10
925.297729
 20
421.156891
 10
924.489868
 20
422.973145
 10
923.58844
 20
424.806427
 10
922.598206
 20
426.643158
 10
921.525269
 20
428.46933
 10
920.377136
 20
430.270874
 10
919.162598
 20
432.033966
 10
917.891296
 20
433.745453
 10
916.57373
 20
435.393219
 10
915.220642
 20
436.966248
 10
913.84314
 20
438.455139
 10
912.452148
 20
439.85202
 10
911.058105
 20
441.150818
 10
909.671021
 20
442.347137
 10
908.300049
 20
443.438324
 10
906.95343
 20
444.42337
 10
905.638489
 20
445.302673
 10
904.3396
 20
446.090576
 10
903.021179
 20
446.806763
 10
901.689941
 20
447.441803
 10
900.354492
 20
447.98584
 10
899.024292
 20
448.429443
 10
897.70929
 20
448.764038
 10
896.420105
 20
448.982025
 10
895.167419
 20
449.077118
 10
893.961914
 20
449.044617
 10
892.814026
 20
448.881622
 10
891.733459
 20
448.587097
 10
890.729187
 20
448.161987
 10
889.789124
 20
447.595245
  0
LWPOLYLINE
  5
11C
330
F6
100
AcDbEntity
  8
0
  6
Continuous
 62
     0
370
     0
100
AcDbPolyline
 90
       12
 70
     0
 43
0.0
 10
924.430115
 20
398.605438
 10
925.20343
 20
399.233002
 10
925.893921
 20
399.961395
 10
926.498596
 20
400.783997
 10
927.015625
 20
401.693207
 10
927.444519
 20
402.680573
 10
927.785767
 20
403.73703
 10
928.040955
 20
404.853119
 10
928.212646
 20
406.019287
 10
928.304199
 20
407.225952
 10
928.319702
 20
408.463776
 10
928.254272
 20
409.852234
  0
ELLIPSE
  5
11D
330
F6
100
AcDbEntity
  8
0
  6
Continuous
 62
     0
370
     0
100
AcDbEllipse
 10
904.281171
 20
421.100333
 30
0.0
 11
-17.32050797687948
 21
24.4948974977005
 31
0.0
210
0.0
220
0.0
230
-0.9999999999999999
 40
0.5
 41
6.283184868918778
 42
8.728910457385972
  0
ELLIPSE
  5
11E
330
F6
100
AcDbEntity
  8
0
  6
Continuous
 62
     0
370
     0
100
AcDbEllipse
 10
904.281171
 20
421.100333
 30
0.0
 11
-17.32050797687948
 21
24.4948974977005
 31
0.0
210
0.0
220
0.0
230
-0.9999999999999999
 40
0.5
 41
2.445725150206385
 42
3.141592649555921
  0
LWPOLYLINE
  5
11F
330
F6
100
AcDbEntity
  8
0
  6
Continuous
 62
     0
370
     0
100
AcDbPolyline
 90
       46
 70
     0
 43
0.0
 10
924.71991
 20
407.823029
 10
924.571228
 20
409.247467
 10
924.332153
 20
410.755707
 10
923.997925
 20
412.342529
 10
923.564697
 20
414.001129
 10
923.029968
 20
415.722992
 10
922.392517
 20
417.497986
 10
921.65271
 20
419.314423
 10
920.812561
 20
421.159302
 10
919.875854
 20
423.018616
 10
918.848022
 20
424.877594
 10
917.736145
 20
426.7211
 10
916.548767
 20
428.534058
 10
915.295532
 20
430.301819
 10
913.987366
 20
432.010681
 10
912.635559
 20
433.64798
 10
911.252014
 20
435.202698
 10
909.84845
 20
436.665405
 10
908.436462
 20
438.028625
 10
907.027039
 20
439.286804
 10
905.630493
 20
440.436249
 10
904.256104
 20
441.475128
 10
902.912048
 20
442.403381
 10
901.596985
 20
443.227386
 10
900.266724
 20
443.974854
 10
898.920776
 20
444.640564
 10
897.568176
 20
445.213776
 10
896.218811
 20
445.684235
 10
894.883423
 20
446.042572
 10
893.573181
 20
446.280334
 10
892.299622
 20
446.390625
 10
891.07428
 20
446.368164
 10
889.908325
 20
446.209656
 10
888.812317
 20
445.913879
 10
887.795898
 20
445.481873
 10
886.867432
 20
444.91684
 10
886.033936
 20
444.224152
 10
885.300781
 20
443.411163
 10
884.67157
 20
442.486969
 10
884.148132
 20
441.462067
 10
883.730713
 20
440.348022
 10
883.417786
 20
439.157257
 10
883.206482
 20
437.902466
 10
883.09259
 20
436.596405
 10
883.070862
 20
435.251587
 10
883.135315
 20
433.877655
  0
LWPOLYLINE
  5
120
330
F6
100
AcDbEntity
  8
0
  6
Continuous
 62
     0
370
     0
100
AcDbPolyline
 90
       30
 70
     0
 43
0.0
 10
897.654602
 20
405.391937
 10
899.027771
 20
404.039062
 10
900.401245
 20
402.784424
 10
901.765503
 20
401.631897
 10
903.111511
 20
400.58371
 10
904.431458
 20
399.640503
 10
905.718628
 20
398.80127
 10
907.004395
 20
398.043243
 10
908.308472
 20
397.358154
 10
909.622986
 20
396.756012
 10
910.939148
 20
396.24649
 10
912.247437
 20
395.838684
 10
913.537659
 20
395.540894
 10
914.799377
 20
395.360321
 10
916.021973
 20
395.302704
 10
917.194885
 20
395.372223
 10
918.307922
 20
395.571289
 10
919.351685
 20
395.900269
 10
920.317566
 20
396.357635
 10
921.198242
 20
396.939819
 10
921.987549
 20
397.641418
 10
922.680908
 20
398.455261
 10
923.275391
 20
399.372681
 10
923.76947
 20
400.383789
 10
924.16333
 20
401.477753
 10
924.458313
 20
402.643127
 10
924.65741
 20
403.868164
 10
924.764465
 20
405.141113
 10
924.784363
 20
406.45047
 10
924.71991
 20
407.823029
  0
LWPOLYLINE
  5
121
330
F6
100
AcDbEntity
  8
0
  6
Continuous
 62
     0
370
     0
100
AcDbPolyline
 90
        9
 70
     0
 43
0.0
 10
883.135315
 20
433.877655
 10
883.286926
 20
432.430908
 10
883.531799
 20
430.897888
 10
883.874878
 20
429.284088
 10
884.320068
 20
427.59668
 10
884.870056
 20
425.844635
 10
885.52594
 20
424.038727
 10
886.287109
 20
422.191284
 10
887.262329
 20
420.088867
  0
LWPOLYLINE
  5
122
330
F6
100
AcDbEntity
  8
0
  6
Continuous
 62
     0
370
    30
100
AcDbPolyline
 90
       11
 70
     0
 43
0.0
 10
886.960693
 20
445.595245
 10
886.115417
 20
444.905273
 10
885.362915
 20
444.097473
 10
884.707886
 20
443.177948
 10
884.153015
 20
442.152954
 10
883.699829
 20
441.028839
 10
883.349792
 20
439.81189
 10
883.103577
 20
438.508118
 10
882.961121
 20
437.123413
 10
882.922363
 20
435.663849
 10
882.990356
 20
434.08963
  0
LWPOLYLINE
  5
123
330
F6
100
AcDbEntity
  8
0
  6
Continuous
 62
     0
370
    30
100
AcDbPolyline
 90
        9
 70
     0
 43
0.0
 10
887.202454
 20
420.04657
 10
886.359131
 20
421.841278
 10
885.600708
 20
423.63205
 10
884.931213
 20
425.410431
 10
884.353638
 20
427.168091
 10
883.870544
 20
428.896973
 10
883.484436
 20
430.588959
 10
883.197571
 20
432.236145
 10
882.990356
 20
434.08963
  0
LWPOLYLINE
  5
124
330
F6
100
AcDbEntity
  8
0
  6
Continuous
 62
     0
370
    30
100
AcDbPolyline
 90
       19
 70
     0
 43
0.0
 10
921.601685
 20
396.605438
 10
920.661255
 20
396.034271
 10
919.639343
 20
395.592041
 10
918.543518
 20
395.281158
 10
917.380676
 20
395.10199
 10
916.157471
 20
395.053894
 10
914.880432
 20
395.136047
 10
913.555603
 20
395.347168
 10
912.188782
 20
395.685211
 10
910.786072
 20
396.147644
 10
909.35376
 20
396.731598
 10
907.898193
 20
397.434235
 10
906.425781
 20
398.252258
 10
904.943481
 20
399.181519
 10
903.458069
 20
400.217255
 10
901.976685
 20
401.354279
 10
900.506287
 20
402.587463
 10
899.053894
 20
403.910736
 10
897.594849
 20
405.349701
  0
LINE
  5
125
330
F6
100
AcDbEntity
  8
0
  6
Continuous
 62
     0
370
    30
100
AcDbLine
 10
886.960663
 20
445.59523
 30
0.0
 11
889.789091
 21
447.59523
 31
0.0
  0
LINE
  5
126
330
F6
100
AcDbEntity
  8
0
  6
Continuous
 62
     0
370
    30
100
AcDbLine
 10
921.601679
 20
396.605435
 30
0.0
 11
924.430107
 21
398.605435
 31
0.0
  0
LWPOLYLINE
  5
127
330
F6
100
AcDbEntity
  8
0
  6
Continuous
 62
     0
370
    30
100
AcDbPolyline
 90
       45
 70
     0
 43
0.0
 10
924.430115
 20
398.605438
 10
925.295898
 20
399.314789
 10
926.06427
 20
400.148254
 10
926.729736
 20
401.098938
 10
927.289734
 20
402.160004
 10
927.74231
 20
403.324707
 10
928.086121
 20
404.586395
 10
928.32074
 20
405.938568
 10
928.446106
 20
407.374603
 10
928.462585
 20
408.887543
 10
928.370483
 20
410.470459
 10
928.170715
 20
412.115784
 10
927.864502
 20
413.815704
 10
927.453796
 20
415.561859
 10
926.940674
 20
417.345825
 10
926.327698
 20
419.158936
 10
925.618225
 20
420.992065
 10
924.815796
 20
422.836151
 10
923.924316
 20
424.681976
 10
922.948608
 20
426.520233
 10
921.893372
 20
428.341644
 10
920.764038
 20
430.137085
 10
919.566406
 20
431.897491
 10
918.306458
 20
433.6138
 10
916.99054
 20
435.277466
 10
915.625427
 20
436.880096
 10
914.217896
 20
438.413391
 10
912.775085
 20
439.869781
 10
911.304138
 20
441.241882
 10
909.8125
 20
442.522614
 10
908.307495
 20
443.705688
 10
906.79657
 20
444.785095
 10
905.28717
 20
445.75528
 10
903.786438
 20
446.611572
 10
902.301636
 20
447.349457
 10
900.839722
 20
447.965027
 10
899.407532
 20
448.454926
 10
898.011536
 20
448.816406
 10
896.658081
 20
449.047058
 10
895.353455
 20
449.144684
 10
894.104065
 20
449.107452
 10
892.916443
 20
448.934296
 10
891.797668
 20
448.624908
 10
890.755066
 20
448.179413
 10
889.789124
 20
447.595245
  0
LWPOLYLINE
  5
128
330
F6
100
AcDbEntity
  8
0
  6
Continuous
 62
     0
370
    30
100
AcDbPolyline
 90
        6
 70
     0
 43
0.0
 10
908.770386
 20
413.251984
 10
909.244263
 20
413.682159
 10
909.615234
 20
414.222198
 10
909.877258
 20
414.854156
 10
910.032715
 20
415.564819
 10
910.084473
 20
416.350342
  0
LWPOLYLINE
  5
129
330
F6
100
AcDbEntity
  8
0
  6
Continuous
 62
     0
370
    30
100
AcDbPolyline
 90
       21
 70
     0
 43
0.0
 10
898.393066
 20
427.959412
 10
898.965332
 20
428.261566
 10
899.607361
 20
428.427002
 10
900.30011
 20
428.456543
 10
901.031555
 20
428.357117
 10
901.792175
 20
428.135406
 10
902.573242
 20
427.797699
 10
903.366333
 20
427.350342
 10
904.161621
 20
426.800507
 10
904.948181
 20
426.156677
 10
905.714783
 20
425.428589
 10
906.450317
 20
424.627625
 10
907.143433
 20
423.765991
 10
907.783752
 20
422.856903
 10
908.361267
 20
421.914642
 10
908.866821
 20
420.953491
 10
909.292908
 20
419.988098
 10
909.632568
 20
419.03302
 10
909.880493
 20
418.101685
 10
910.032349
 20
417.206848
 10
910.084473
 20
416.350342
  0
LINE
  5
12A
330
F6
100
AcDbEntity
  8
0
  6
Continuous
 62
     0
370
    30
100
AcDbLine
 10
872.623751
 20
387.692452
 30
0.0
 11
908.770217
 21
413.251863
 31
0.0
  0
LINE
  5
12B
330
F6
100
AcDbEntity
  8
0
  6
Continuous
 62
     0
370
    30
100
AcDbLine
 10
861.17033
 20
401.639069
 30
0.0
 11
898.377912
 21
427.948802
 31
0.0
  0
LWPOLYLINE
  5
12C
330
F6
100
AcDbEntity
  8
0
  6
Continuous
 62
     0
370
    30
100
AcDbPolyline
 90
        2
 70
     0
 43
0.0
 10
887.734619
 20
376.311371
 10
887.55719
 20
376.448669
  0
LWPOLYLINE
  5
12D
330
F6
100
AcDbEntity
  8
0
  6
Continuous
 62
     0
370
    30
100
AcDbPolyline
 90
        2
 70
     0
 43
0.0
 10
877.164551
 20
361.751984
 10
877.353333
 20
361.630341
  0
LINE
  5
12E
330
F6
100
AcDbEntity
  8
0
  6
Continuous
 62
     0
370
    30
100
AcDbLine
 10
825.545914
 20
398.251864
 30
0.0
 11
877.164709
 21
361.751864
 31
0.0
  0
LINE
  5
12F
330
F6
100
AcDbEntity
  8
0
  6
Continuous
 62
     0
370
    30
100
AcDbLine
 10
835.938219
 20
412.948802
 30
0.0
 11
851.932597
 21
401.639069
 31
0.0
  0
LINE
  5
130
330
F6
100
AcDbEntity
  8
0
  6
Continuous
 62
     0
370
    30
100
AcDbLine
 10
871.56255
 20
387.758596
 30
0.0
 11
887.557014
 21
376.448802
 31
0.0
  0
LWPOLYLINE
  5
131
330
F6
100
AcDbEntity
  8
0
  6
Continuous
 62
     0
370
    30
100
AcDbPolyline
 90
        6
 70
     0
 43
0.0
 10
824.231628
 20
401.350342
 10
824.28241
 20
400.572205
 10
824.436768
 20
399.860992
 10
824.697693
 20
399.228302
 10
825.067139
 20
398.687439
 10
825.545776
 20
398.251984
  0
LWPOLYLINE
  5
132
330
F6
100
AcDbEntity
  8
0
  6
Continuous
 62
     0
370
    30
100
AcDbPolyline
 90
       21
 70
     0
 43
0.0
 10
835.923096
 20
412.959412
 10
835.35083
 20
413.261566
 10
834.70874
 20
413.427002
 10
834.015991
 20
413.456543
 10
833.284546
 20
413.357117
 10
832.523987
 20
413.135406
 10
831.742859
 20
412.797699
 10
830.949768
 20
412.350342
 10
830.15448
 20
411.800507
 10
829.367981
 20
411.156677
 10
828.601318
 20
410.428589
 10
827.865845
 20
409.627625
 10
827.172668
 20
408.765991
 10
826.53241
 20
407.856903
 10
825.954834
 20
406.914642
 10
825.44928
 20
405.953491
 10
825.023193
 20
404.988098
 10
824.683533
 20
404.03302
 10
824.435669
 20
403.101685
 10
824.283813
 20
402.206848
 10
824.231628
 20
401.350342
  0
ARC
  5
133
330
F6
100
AcDbEntity
  8
0
  6
Continuous
 62
     0
370
    30
100
AcDbCircle
 10
856.551464
 20
408.172359
 30
0.0
 40
8.001121170326005
100
AcDbArc
 50
234.739824
 51
305.260176
  0
LWPOLYLINE
  5
134
330
F6
100
AcDbEntity
  8
0
  6
Continuous
 62
     0
370
    30
100
AcDbPolyline
 90
        5
 70
     0
 43
0.0
 10
872.724426
 20
388.021118
 10
872.70166
 20
387.970612
 10
872.655151
 20
387.83078
 10
872.612976
 20
387.627319
 10
872.593079
 20
387.352081
  0
LWPOLYLINE
  5
135
330
F6
100
AcDbEntity
  8
0
  6
Continuous
 62
     0
370
    30
100
AcDbPolyline
 90
        2
 70
     0
 43
0.0
 10
872.623657
 20
387.00827
 10
872.593079
 20
387.348694
  0
LINE
  5
136
330
F6
100
AcDbEntity
  8
0
  6
Continuous
 62
     0
370
    30
100
AcDbLine
 10
1249.456429
 20
98.501866
 30
0.0
 11
877.518262
 21
361.501864
 31
0.0
  0
LINE
  5
137
330
F6
100
AcDbEntity
  8
0
  6
Continuous
 62
     0
370
    30
100
AcDbLine
 10
1259.848734
 20
113.198805
 30
0.0
 11
887.910567
 21
376.198802
 31
0.0
  0
LWPOLYLINE
  5
138
330
F6
100
AcDbEntity
  8
0
  6
Continuous
 62
     0
370
    30
100
AcDbPolyline
 90
       19
 70
     0
 43
0.0
 10
1311.466553
 20
120.046616
 10
1310.614258
 20
121.861244
 10
1309.848877
 20
123.671799
 10
1309.174316
 20
125.469543
 10
1308.593872
 20
127.24585
 10
1308.110352
 20
128.992233
 10
1307.726196
 20
130.700424
 10
1307.443604
 20
132.36232
 10
1307.263794
 20
133.970306
 10
1307.18811
 20
135.516907
 10
1307.217529
 20
136.995041
 10
1307.352173
 20
138.39798
 10
1307.592407
 20
139.719284
 10
1307.937988
 20
140.952713
 10
1308.38855
 20
142.092041
 10
1308.942993
 20
143.130981
 10
1309.599121
 20
144.06308
 10
1310.354614
 20
144.881836
 10
1311.224731
 20
145.595245
  0
LWPOLYLINE
  5
139
330
F6
100
AcDbEntity
  8
0
  6
Continuous
 62
     0
370
    30
100
AcDbPolyline
 90
       19
 70
     0
 43
0.0
 10
1345.865723
 20
96.605438
 10
1344.925293
 20
96.034264
 10
1343.903442
 20
95.592064
 10
1342.807495
 20
95.281136
 10
1341.644531
 20
95.101738
 10
1340.421387
 20
95.053726
 10
1339.144409
 20
95.136162
 10
1337.81958
 20
95.347298
 10
1336.452759
 20
95.685081
 10
1335.050171
 20
96.147377
 10
1333.617798
 20
96.731522
 10
1332.162109
 20
97.434418
 10
1330.689697
 20
98.252403
 10
1329.207397
 20
99.181557
 10
1327.721924
 20
100.217255
 10
1326.240479
 20
101.354446
 10
1324.77002
 20
102.587624
 10
1323.317627
 20
103.910866
 10
1321.858887
 20
105.349693
  0
LINE
  5
13A
330
F6
100
AcDbEntity
  8
0
  6
Continuous
 62
     0
370
    30
100
AcDbLine
 10
1345.865748
 20
96.605438
 30
0.0
 11
1348.694175
 21
98.605438
 31
0.0
  0
LINE
  5
13B
330
F6
100
AcDbEntity
  8
0
  6
Continuous
 62
     0
370
    30
100
AcDbLine
 10
1311.224732
 20
145.595233
 30
0.0
 11
1314.053159
 21
147.595233
 31
0.0
  0
LWPOLYLINE
  5
13C
330
F6
100
AcDbEntity
  8
0
  6
Continuous
 62
     0
370
    30
100
AcDbPolyline
 90
       37
 70
     0
 43
0.0
 10
1352.733276
 20
108.350334
 10
1352.68103
 20
109.879974
 10
1352.524658
 20
111.472855
 10
1352.265259
 20
113.12104
 10
1351.904541
 20
114.816887
 10
1351.444214
 20
116.552757
 10
1350.886475
 20
118.320465
 10
1350.234253
 20
120.111496
 10
1349.490723
 20
121.917259
 10
1348.659546
 20
123.729134
 10
1347.744751
 20
125.538361
 10
1346.750977
 20
127.336143
 10
1345.682861
 20
129.113724
 10
1344.545654
 20
130.862534
 10
1343.345093
 20
132.574066
 10
1342.086792
 20
134.239883
 10
1340.776978
 20
135.851898
 10
1339.421997
 20
137.402237
 10
1338.028564
 20
138.883392
 10
1336.603149
 20
140.288071
 10
1335.152832
 20
141.609512
 10
1333.68457
 20
142.841232
 10
1332.205322
 20
143.97728
 10
1330.722168
 20
145.012131
 10
1329.241943
 20
145.94072
 10
1327.771484
 20
146.758667
 10
1326.317749
 20
147.461761
 10
1324.887085
 20
148.046509
 10
1323.485962
 20
148.509842
 10
1322.120605
 20
148.84906
 10
1320.796997
 20
149.061981
 10
1319.520874
 20
149.146591
 10
1318.298462
 20
149.101135
 10
1317.135864
 20
148.924774
 10
1316.039917
 20
148.617264
 10
1315.0177
 20
148.178787
 10
1314.053223
 20
147.59523
  0
LWPOLYLINE
  5
13D
330
F6
100
AcDbEntity
  8
0
  6
Continuous
 62
     0
370
    30
100
AcDbPolyline
 90
       10
 70
     0
 43
0.0
 10
1348.694214
 20
98.605438
 10
1349.523926
 20
99.280869
 10
1350.264404
 20
100.06971
 10
1350.911377
 20
100.96627
 10
1351.462402
 20
101.964577
 10
1351.915649
 20
103.058594
 10
1352.269653
 20
104.242447
 10
1352.523926
 20
105.510635
 10
1352.678345
 20
106.857582
 10
1352.733276
 20
108.350334
  0
LWPOLYLINE
  5
13E
330
F6
100
AcDbEntity
  8
0
  6
Continuous
 62
     0
370
    30
100
AcDbPolyline
 90
       26
 70
     0
 43
0.0
 10
1322.641846
 20
127.948685
 10
1323.210815
 20
128.254501
 10
1323.850342
 20
128.423782
 10
1324.540405
 20
128.457611
 10
1325.269897
 20
128.362595
 10
1326.028564
 20
128.145462
 10
1326.807983
 20
127.812309
 10
1327.599854
 20
127.369278
 10
1328.394165
 20
126.824074
 10
1329.180176
 20
126.184898
 10
1329.946899
 20
125.461166
 10
1330.682983
 20
124.664032
 10
1331.377319
 20
123.805954
 10
1332.019409
 20
122.900124
 10
1332.599121
 20
121.960327
 10
1333.10791
 20
121.001076
 10
1333.537476
 20
120.036888
 10
1333.881226
 20
119.082146
 10
1334.133667
 20
118.15049
 10
1334.290649
 20
117.254829
 10
1334.348267
 20
116.407112
 10
1334.303711
 20
115.61721
 10
1334.153809
 20
114.895493
 10
1333.89563
 20
114.253067
 10
1333.526611
 20
113.703217
 10
1333.046387
 20
113.260468
  0
LINE
  5
13F
330
F6
100
AcDbEntity
  8
0
  6
Continuous
 62
     0
370
    30
100
AcDbLine
 10
1285.434328
 20
101.639021
 30
0.0
 11
1322.641981
 21
127.948804
 31
0.0
  0
LINE
  5
140
330
F6
100
AcDbEntity
  8
0
  6
Continuous
 62
     0
370
    30
100
AcDbLine
 10
1296.888035
 20
87.692607
 30
0.0
 11
1333.034286
 21
113.251866
 31
0.0
  0
LWPOLYLINE
  5
141
330
F6
100
AcDbEntity
  8
0
  6
Continuous
 62
     0
370
    30
100
AcDbPolyline
 90
       21
 70
     0
 43
0.0
 10
1260.187866
 20
112.958923
 10
1259.615601
 20
113.261436
 10
1258.973267
 20
113.426834
 10
1258.28064
 20
113.45649
 10
1257.548706
 20
113.357132
 10
1256.787964
 20
113.135483
 10
1256.006714
 20
112.797531
 10
1255.213135
 20
112.349686
 10
1254.417725
 20
111.799728
 10
1253.630981
 20
111.155724
 10
1252.864136
 20
110.427361
 10
1252.128418
 20
109.625923
 10
1251.435181
 20
108.763931
 10
1250.794922
 20
107.854553
 10
1250.217407
 20
106.911896
 10
1249.711792
 20
105.950424
 10
1249.285889
 20
104.984863
 10
1248.946655
 20
104.029678
 10
1248.698975
 20
103.098076
 10
1248.547363
 20
102.203033
 10
1248.495728
 20
101.350334
  0
LWPOLYLINE
  5
142
330
F6
100
AcDbEntity
  8
0
  6
Continuous
 62
     0
370
    30
100
AcDbPolyline
 90
        6
 70
     0
 43
0.0
 10
1249.809814
 20
98.251984
 10
1249.335815
 20
98.68206
 10
1248.965332
 20
99.221771
 10
1248.703125
 20
99.853592
 10
1248.547607
 20
100.563957
 10
1248.495728
 20
101.350334
  0
LINE
  5
143
330
F6
100
AcDbEntity
  8
0
  6
Continuous
 62
     0
370
    30
100
AcDbLine
 10
1311.821082
 20
76.448805
 30
0.0
 11
1295.826793
 21
87.758476
 31
0.0
  0
LINE
  5
144
330
F6
100
AcDbEntity
  8
0
  6
Continuous
 62
     0
370
    30
100
AcDbLine
 10
1276.196737
 20
101.639021
 30
0.0
 11
1260.202287
 21
112.948805
 31
0.0
  0
LINE
  5
145
330
F6
100
AcDbEntity
  8
0
  6
Continuous
 62
     0
370
    30
100
AcDbLine
 10
1301.428778
 20
61.751866
 30
0.0
 11
1249.809983
 21
98.251866
 31
0.0
  0
LWPOLYLINE
  5
146
330
F6
100
AcDbEntity
  8
0
  6
Continuous
 62
     0
370
    30
100
AcDbPolyline
 90
       26
 70
     0
 43
0.0
 10
1311.821289
 20
76.448662
 10
1312.299683
 20
76.013535
 10
1312.672485
 20
75.466362
 10
1312.934326
 20
74.826088
 10
1313.087646
 20
74.105705
 10
1313.135376
 20
73.317047
 10
1313.080322
 20
72.470131
 10
1312.925903
 20
71.57476
 10
1312.675659
 20
70.643051
 10
1312.333984
 20
69.687912
 10
1311.906006
 20
68.722908
 10
1311.39856
 20
67.762505
 10
1310.819824
 20
66.821236
 10
1310.178467
 20
65.913666
 10
1309.484497
 20
65.053696
 10
1308.748535
 20
64.254486
 10
1307.981567
 20
63.528591
 10
1307.195068
 20
62.887112
 10
1306.400024
 20
62.339684
 10
1305.607422
 20
61.894608
 10
1304.827026
 20
61.559444
 10
1304.067139
 20
61.340267
 10
1303.336792
 20
61.243439
 10
1302.645264
 20
61.275681
 10
1302.004639
 20
61.443424
 10
1301.428589
 20
61.751984
  0
LWPOLYLINE
  5
147
330
F6
100
AcDbEntity
  8
0
  6
Continuous
 62
     0
370
    30
100
AcDbPolyline
 90
        6
 70
     0
 43
0.0
 10
1296.887939
 20
87.008148
 10
1296.858887
 20
87.265678
 10
1296.865845
 20
87.533714
 10
1296.90564
 20
87.777367
 10
1296.95874
 20
87.952713
 10
1296.98877
 20
88.02153
  0
ARC
  5
148
330
F6
100
AcDbEntity
  8
0
  6
Continuous
 62
     0
370
    30
100
AcDbCircle
 10
1280.815532
 20
108.171218
 30
0.0
 40
8.000195926422464
100
AcDbArc
 50
234.736485
 51
305.263515
  0
ENDBLK
  5
14A
330
F6
100
AcDbEntity
  8
0
100
AcDbBlockEnd
  0
ENDSEC
  0
SECTION
  2
ENTITIES
  0
INSERT
  5
6F
330
1F
100
AcDbEntity
  8
0
  6
Continuous
 62
   250
370
     0
100
AcDbBlockReference
  2
a
 10
24.278866
 20
126.982704
 30
0.0
  0
INSERT
  5
BB
330
1F
100
AcDbEntity
  8
0
  6
Continuous
 62
   250
370
     0
100
AcDbBlockReference
  2
b
 10
24.278866
 20
126.982704
 30
0.0
  0
INSERT
  5
D8
330
1F
100
AcDbEntity
  8
0
  6
Continuous
 62
   250
370
     0
100
AcDbBlockReference
  2
c
 10
24.278866
 20
126.982704
 30
0.0
  0
INSERT
  5
F5
330
1F
100
AcDbEntity
  8
0
  6
Continuous
 62
   250
370
     0
100
AcDbBlockReference
  2
e
 10
47.91761
 20
-0.000122
 30
0.0
  0
INSERT
  5
14B
330
1F
100
AcDbEntity
  8
0
  6
Continuous
 62
   250
370
     0
100
AcDbBlockReference
  2
d
 10
-56.206364
 20
6.876991
 30
0.0
  0
ENDSEC
  0
SECTION
  2
OBJECTS
  0
DICTIONARY
  5
C
330
0
100
AcDbDictionary
281
     1
  3
ACAD_GROUP
350
D
  3
ACAD_LAYOUT
350
1A
  3
ACAD_MLEADERSTYLE
350
14E
  3
ACAD_MLINESTYLE
350
17
  3
ACAD_PLOTSETTINGS
350
19
  3
ACAD_PLOTSTYLENAME
350
E
  3
ACAD_VISUALSTYLE
350
2A
  3
AcDbVariableDictionary
350
14C
  0
DICTIONARY
  5
D
102
{ACAD_REACTORS
330
C
102
}
330
C
100
AcDbDictionary
281
     1
  0
DICTIONARY
  5
1A
102
{ACAD_REACTORS
330
C
102
}
330
C
100
AcDbDictionary
281
     1
  3
Layout1
350
1E
  3
Layout2
350
26
  3
Model
350
22
  0
DICTIONARY
  5
14E
102
{ACAD_REACTORS
330
C
102
}
330
C
100
AcDbDictionary
281
     1
  0
DICTIONARY
  5
17
102
{ACAD_REACTORS
330
C
102
}
330
C
100
AcDbDictionary
281
     1
  3
Standard
350
18
  0
DICTIONARY
  5
19
102
{ACAD_REACTORS
330
C
102
}
330
C
100
AcDbDictionary
281
     1
  0
ACDBDICTIONARYWDFLT
  5
E
102
{ACAD_REACTORS
330
C
102
}
330
C
100
AcDbDictionary
281
     1
  3
Normal
350
F
100
AcDbDictionaryWithDefault
340
F
  0
DICTIONARY
  5
2A
102
{ACAD_REACTORS
330
C
102
}
330
C
100
AcDbDictionary
281
     1
  3
2dWireframe
350
2F
  3
3D Hidden
350
31
  3
3dWireframe
350
30
  3
Basic
350
32
  3
Brighten
350
36
  3
ColorChange
350
3A
  3
Conceptual
350
34
  3
Dim
350
35
  3
Facepattern
350
39
  3
Flat
350
2B
  3
FlatWithEdges
350
2C
  3
Gouraud
350
2D
  3
GouraudWithEdges
350
2E
  3
Linepattern
350
38
  3
Realistic
350
33
  3
Thicken
350
37
  0
DICTIONARY
  5
14C
102
{ACAD_REACTORS
330
C
102
}
330
C
100
AcDbDictionary
281
     1
  3
PSOLHEIGHT
350
150
  3
PSOLWIDTH
350
14F
  0
LAYOUT
  5
1E
102
{ACAD_REACTORS
330
1A
102
}
330
1A
100
AcDbPlotSettings
  1

  2
none_device
  4

  6

 40
0.0
 41
0.0
 42
0.0
 43
0.0
 44
0.0
 45
0.0
 46
0.0
 47
0.0
 48
0.0
 49
0.0
140
0.0
141
0.0
142
1.0
143
1.0
 70
   688
 72
     0
 73
     0
 74
     5
  7

 75
    16
147
1.0
148
0.0
149
0.0
100
AcDbLayout
  1
Layout1
 70
     1
 71
     1
 10
0.0
 20
0.0
 11
420.0
 21
297.0
 12
0.0
 22
0.0
 32
0.0
 14
1.000000E+20
 24
1.000000E+20
 34
1.000000E+20
 15
-1.000000E+20
 25
-1.000000E+20
 35
-1.000000E+20
146
0.0
 13
0.0
 23
0.0
 33
0.0
 16
1.0
 26
0.0
 36
0.0
 17
0.0
 27
1.0
 37
0.0
 76
     0
330
1B
  0
LAYOUT
  5
26
102
{ACAD_REACTORS
330
1A
102
}
330
1A
100
AcDbPlotSettings
  1

  2
none_device
  4

  6

 40
0.0
 41
0.0
 42
0.0
 43
0.0
 44
0.0
 45
0.0
 46
0.0
 47
0.0
 48
0.0
 49
0.0
140
0.0
141
0.0
142
1.0
143
1.0
 70
   688
 72
     0
 73
     0
 74
     5
  7

 75
    16
147
1.0
148
0.0
149
0.0
100
AcDbLayout
  1
Layout2
 70
     1
 71
     2
 10
0.0
 20
0.0
 11
0.0
 21
0.0
 12
0.0
 22
0.0
 32
0.0
 14
0.0
 24
0.0
 34
0.0
 15
0.0
 25
0.0
 35
0.0
146
0.0
 13
0.0
 23
0.0
 33
0.0
 16
1.0
 26
0.0
 36
0.0
 17
0.0
 27
1.0
 37
0.0
 76
     0
330
23
  0
LAYOUT
  5
22
102
{ACAD_REACTORS
330
1A
102
}
330
1A
100
AcDbPlotSettings
  1

  2
none_device
  4

  6

 40
0.0
 41
0.0
 42
0.0
 43
0.0
 44
0.0
 45
0.0
 46
0.0
 47
0.0
 48
0.0
 49
0.0
140
0.0
141
0.0
142
1.0
143
1.0
 70
  1712
 72
     0
 73
     0
 74
     0
  7

 75
     0
147
1.0
148
0.0
149
0.0
100
AcDbLayout
  1
Model
 70
     1
 71
     0
 10
-82.834351
 20
42.967247
 11
1352.733276
 21
631.768921
 12
0.0
 22
0.0
 32
0.0
 14
-82.834351
 24
42.967247
 34
0.0
 15
1352.733276
 25
631.768921
 35
0.0
146
0.0
 13
0.0
 23
0.0
 33
0.0
 16
1.0
 26
0.0
 36
0.0
 17
0.0
 27
1.0
 37
0.0
 76
     0
330
1F
331
29
  0
MLINESTYLE
  5
18
102
{ACAD_REACTORS
330
17
102
}
330
17
100
AcDbMlineStyle
  2
Standard
 70
     0
  3

 62
   256
 51
90.0
 52
90.0
 71
     2
 49
0.5
 62
   256
  6
BYLAYER
 49
-0.5
 62
   256
  6
BYLAYER
  0
ACDBPLACEHOLDER
  5
F
102
{ACAD_REACTORS
330
E
102
}
330
E
  0
VISUALSTYLE
  5
2F
102
{ACAD_REACTORS
330
2A
102
}
330
2A
100
AcDbVisualStyle
  2
2dWireframe
 70
     4
 71
     0
 72
     2
 73
     0
 90
        0
 40
-0.6
 41
-30.0
 62
     5
 63
     7
 74
     1
 91
        4
 64
     7
 65
   257
 75
     1
175
     1
 42
1.0
 92
        0
 66
   257
 43
1.0
 76
     1
 77
     6
 78
     2
 67
     7
 79
     5
170
     0
171
     0
290
     0
174
     0
 93
        1
 44
0.0
173
     0
291
     0
 45
0.0
1001
ACAD
1000
AcDbSavedByObjectVersion
1070
     0
  0
VISUALSTYLE
  5
31
102
{ACAD_REACTORS
330
2A
102
}
330
2A
100
AcDbVisualStyle
  2
3D Hidden
 70
     6
 71
     1
 72
     2
 73
     2
 90
        0
 40
-0.6
 41
-30.0
 62
     5
 63
     7
 74
     2
 91
        2
 64
     7
 65
   257
 75
     2
175
     1
 42
40.0
 92
        0
 66
   257
 43
1.0
 76
     1
 77
     6
 78
     2
 67
     7
 79
     3
170
     0
171
     0
290
     0
174
     0
 93
        1
 44
0.0
173
     0
291
     0
 45
0.0
1001
ACAD
1000
AcDbSavedByObjectVersion
1070
     0
  0
VISUALSTYLE
  5
30
102
{ACAD_REACTORS
330
2A
102
}
330
2A
100
AcDbVisualStyle
  2
3dWireframe
 70
     5
 71
     0
 72
     2
 73
     0
 90
        0
 40
-0.6
 41
-30.0
 62
     5
 63
     7
 74
     1
 91
        4
 64
     7
 65
   257
 75
     1
175
     1
 42
1.0
 92
        0
 66
   257
 43
1.0
 76
     1
 77
     6
 78
     2
 67
     7
 79
     5
170
     0
171
     0
290
     0
174
     0
 93
        1
 44
0.0
173
     0
291
     0
 45
0.0
1001
ACAD
1000
AcDbSavedByObjectVersion
1070
     0
  0
VISUALSTYLE
  5
32
102
{ACAD_REACTORS
330
2A
102
}
330
2A
100
AcDbVisualStyle
  2
Basic
 70
     7
 71
     1
 72
     0
 73
     1
 90
        0
 40
-0.6
 41
-30.0
 62
     5
 63
     7
 74
     0
 91
        4
 64
     7
 65
   257
 75
     1
175
     1
 42
1.0
 92
        8
 66
     7
 43
1.0
 76
     1
 77
     6
 78
     2
 67
     7
 79
     5
170
     0
171
     0
290
     0
174
     0
 93
        1
 44
0.0
173
     0
291
     1
 45
0.0
1001
ACAD
1000
AcDbSavedByObjectVersion
1070
     0
  0
VISUALSTYLE
  5
36
102
{ACAD_REACTORS
330
2A
102
}
330
2A
100
AcDbVisualStyle
  2
Brighten
 70
    12
 71
     2
 72
     2
 73
     0
 90
        0
 40
-0.6
 41
-30.0
 62
     5
 63
     7
 74
     1
 91
        4
 64
     7
 65
   257
 75
     1
175
     1
 42
1.0
 92
        8
 66
     7
 43
1.0
 76
     1
 77
     6
 78
     2
 67
     7
 79
     5
170
     0
171
     0
290
     0
174
     0
 93
        1
 44
50.0
173
     0
291
     1
 45
0.0
1001
ACAD
1000
AcDbSavedByObjectVersion
1070
     0
  0
VISUALSTYLE
  5
3A
102
{ACAD_REACTORS
330
2A
102
}
330
2A
100
AcDbVisualStyle
  2
ColorChange
 70
    16
 71
     2
 72
     2
 73
     3
 90
        0
 40
-0.6
 41
-30.0
 62
     5
 63
     8
 74
     1
 91
        4
 64
     7
 65
   257
 75
     1
175
     1
 42
1.0
 92
        8
 66
     8
 43
1.0
 76
     1
 77
     6
 78
     2
 67
     7
 79
     5
170
     0
171
     0
290
     0
174
     0
 93
        1
 44
0.0
173
     0
291
     1
 45
0.0
1001
ACAD
1000
AcDbSavedByObjectVersion
1070
     0
  0
VISUALSTYLE
  5
34
102
{ACAD_REACTORS
330
2A
102
}
330
2A
100
AcDbVisualStyle
  2
Conceptual
 70
     9
 71
     3
 72
     2
 73
     0
 90
        0
 40
-0.6
 41
-30.0
 62
     5
 63
     7
 74
     2
 91
        2
 64
     7
 65
   257
 75
     1
175
     1
 42
40.0
 92
        8
 66
     7
 43
1.0
 76
     1
 77
     6
 78
     2
 67
     7
 79
     3
170
     0
171
     0
290
     0
174
     0
 93
        1
 44
0.0
173
     0
291
     0
 45
0.0
1001
ACAD
1000
AcDbSavedByObjectVersion
1070
     0
  0
VISUALSTYLE
  5
35
102
{ACAD_REACTORS
330
2A
102
}
330
2A
100
AcDbVisualStyle
  2
Dim
 70
    11
 71
     2
 72
     2
 73
     0
 90
        0
 40
-0.6
 41
-30.0
 62
     5
 63
     7
 74
     1
 91
        4
 64
     7
 65
   257
 75
     1
175
     1
 42
1.0
 92
        8
 66
     7
 43
1.0
 76
     1
 77
     6
 78
     2
 67
     7
 79
     5
170
     0
171
     0
290
     0
174
     0
 93
        1
 44
-50.0
173
     0
291
     1
 45
0.0
1001
ACAD
1000
AcDbSavedByObjectVersion
1070
     0
  0
VISUALSTYLE
  5
39
102
{ACAD_REACTORS
330
2A
102
}
330
2A
100
AcDbVisualStyle
  2
Facepattern
 70
    15
 71
     2
 72
     2
 73
     0
 90
        0
 40
-0.6
 41
-30.0
 62
     5
 63
     7
 74
     1
 91
        4
 64
     7
 65
   257
 75
     1
175
     1
 42
1.0
 92
        8
 66
     7
 43
1.0
 76
     1
 77
     6
 78
     2
 67
     7
 79
     5
170
     0
171
     0
290
     0
174
     0
 93
        1
 44
0.0
173
     0
291
     1
 45
0.0
1001
ACAD
1000
AcDbSavedByObjectVersion
1070
     0
  0
VISUALSTYLE
  5
2B
102
{ACAD_REACTORS
330
2A
102
}
330
2A
100
AcDbVisualStyle
  2
Flat
 70
     0
 71
     2
 72
     1
 73
     1
 90
        2
 40
-0.6
 41
30.0
 62
     5
 63
     7
 74
     0
 91
        4
 64
     7
 65
   257
 75
     1
175
     1
 42
1.0
 92
        8
 66
     7
 43
1.0
 76
     1
 77
     6
 78
     2
 67
     7
 79
     5
170
     0
171
     0
290
     0
174
     0
 93
       13
 44
0.0
173
     0
291
     1
 45
0.0
1001
ACAD
1000
AcDbSavedByObjectVersion
1070
     0
  0
VISUALSTYLE
  5
2C
102
{ACAD_REACTORS
330
2A
102
}
330
2A
100
AcDbVisualStyle
  2
FlatWithEdges
 70
     1
 71
     2
 72
     1
 73
     1
 90
        2
 40
-0.6
 41
30.0
 62
     5
 63
     7
 74
     1
 91
        4
 64
     7
 65
   257
 75
     1
175
     1
 42
1.0
 92
        0
 66
   257
 43
1.0
 76
     1
 77
     6
 78
     2
 67
     7
 79
     5
170
     0
171
     0
290
     0
174
     0
 93
       13
 44
0.0
173
     0
291
     1
 45
0.0
1001
ACAD
1000
AcDbSavedByObjectVersion
1070
     0
  0
VISUALSTYLE
  5
2D
102
{ACAD_REACTORS
330
2A
102
}
330
2A
100
AcDbVisualStyle
  2
Gouraud
 70
     2
 71
     2
 72
     2
 73
     1
 90
        2
 40
-0.6
 41
30.0
 62
     5
 63
     7
 74
     0
 91
        4
 64
     7
 65
   257
 75
     1
175
     1
 42
1.0
 92
        0
 66
     7
 43
1.0
 76
     1
 77
     6
 78
     2
 67
     7
 79
     5
170
     0
171
     0
290
     0
174
     0
 93
       13
 44
0.0
173
     0
291
     1
 45
0.0
1001
ACAD
1000
AcDbSavedByObjectVersion
1070
     0
  0
VISUALSTYLE
  5
2E
102
{ACAD_REACTORS
330
2A
102
}
330
2A
100
AcDbVisualStyle
  2
GouraudWithEdges
 70
     3
 71
     2
 72
     2
 73
     1
 90
        2
 40
-0.6
 41
30.0
 62
     5
 63
     7
 74
     1
 91
        4
 64
     7
 65
   257
 75
     1
175
     1
 42
1.0
 92
        0
 66
   257
 43
1.0
 76
     1
 77
     6
 78
     2
 67
     7
 79
     5
170
     0
171
     0
290
     0
174
     0
 93
       13
 44
0.0
173
     0
291
     1
 45
0.0
1001
ACAD
1000
AcDbSavedByObjectVersion
1070
     0
  0
VISUALSTYLE
  5
38
102
{ACAD_REACTORS
330
2A
102
}
330
2A
100
AcDbVisualStyle
  2
Linepattern
 70
    14
 71
     2
 72
     2
 73
     0
 90
        0
 40
-0.6
 41
-30.0
 62
     5
 63
     7
 74
     1
 91
        4
 64
     7
 65
   257
 75
     7
175
     7
 42
1.0
 92
        8
 66
     7
 43
1.0
 76
     1
 77
     6
 78
     2
 67
     7
 79
     5
170
     0
171
     0
290
     0
174
     0
 93
        1
 44
0.0
173
     0
291
     1
 45
0.0
1001
ACAD
1000
AcDbSavedByObjectVersion
1070
     0
  0
VISUALSTYLE
  5
33
102
{ACAD_REACTORS
330
2A
102
}
330
2A
100
AcDbVisualStyle
  2
Realistic
 70
     8
 71
     2
 72
     2
 73
     0
 90
        0
 40
-0.6
 41
-30.0
 62
     5
 63
     7
 74
     1
 91
        0
 64
     7
 65
   257
 75
     1
175
     1
 42
1.0
 92
        8
 66
     8
 43
1.0
 76
     1
 77
     6
 78
     2
 67
     7
 79
     5
170
     0
171
     0
290
     0
174
     0
 93
       13
 44
0.0
173
     0
291
     0
 45
0.0
1001
ACAD
1000
AcDbSavedByObjectVersion
1070
     0
  0
VISUALSTYLE
  5
37
102
{ACAD_REACTORS
330
2A
102
}
330
2A
100
AcDbVisualStyle
  2
Thicken
 70
    13
 71
     2
 72
     2
 73
     0
 90
        0
 40
-0.6
 41
-30.0
 62
     5
 63
     7
 74
     1
 91
        4
 64
     7
 65
   257
 75
     1
175
     1
 42
1.0
 92
       12
 66
     7
 43
1.0
 76
     1
 77
     6
 78
     2
 67
     7
 79
     5
170
     0
171
     0
290
     0
174
     0
 93
        1
 44
0.0
173
     0
291
     1
 45
0.0
1001
ACAD
1000
AcDbSavedByObjectVersion
1070
     0
  0
DICTIONARYVAR
  5
150
102
{ACAD_REACTORS
330
14C
102
}
330
14C
100
DictionaryVariables
280
     0
  1
80.000000
  0
DICTIONARYVAR
  5
14F
102
{ACAD_REACTORS
330
14C
102
}
330
14C
100
DictionaryVariables
280
     0
  1
5.000000
  0
ENDSEC
  0
EOF
