  0
SECTION
  2
HEADER
  9
$ACADVER
  1
AC1015
  9
$ACADMAINTVER
 70
     6
  9
$DWGCODEPAGE
  3
ANSI_1252
  9
$INSBASE
 10
0.0
 20
0.0
 30
0.0
  9
$EXTMIN
 10
-112.213326
 20
202.125092
 30
0.0
  9
$EXTMAX
 10
1114.542725
 20
682.322815
 30
0.0
  9
$LIMMIN
 10
-112.213326
 20
202.125092
  9
$LIMMAX
 10
1114.542725
 20
682.322815
  9
$ORTHOMODE
 70
     0
  9
$REGENMODE
 70
     1
  9
$FILLMODE
 70
     1
  9
$QTEXTMODE
 70
     0
  9
$MIRRTEXT
 70
     1
  9
$LTSCALE
 40
1.0
  9
$ATTMODE
 70
     1
  9
$TEXTSIZE
 40
2.5
  9
$TRACEWID
 40
1.0
  9
$TEXTSTYLE
  7
Standard
  9
$CLAYER
  8
0
  9
$CELTYPE
  6
ByLayer
  9
$CECOLOR
 62
   256
  9
$CELTSCALE
 40
1.0
  9
$DISPSILH
 70
     0
  9
$DIMSCALE
 40
1.0
  9
$DIMASZ
 40
2.5
  9
$DIMEXO
 40
0.625
  9
$DIMDLI
 40
3.75
  9
$DIMRND
 40
0.0
  9
$DIMDLE
 40
0.0
  9
$DIMEXE
 40
1.25
  9
$DIMTP
 40
0.0
  9
$DIMTM
 40
0.0
  9
$DIMTXT
 40
2.5
  9
$DIMCEN
 40
2.5
  9
$DIMTSZ
 40
0.0
  9
$DIMTOL
 70
     0
  9
$DIMLIM
 70
     0
  9
$DIMTIH
 70
     0
  9
$DIMTOH
 70
     0
  9
$DIMSE1
 70
     0
  9
$DIMSE2
 70
     0
  9
$DIMTAD
 70
     1
  9
$DIMZIN
 70
     8
  9
$DIMBLK
  1

  9
$DIMASO
 70
     1
  9
$DIMSHO
 70
     1
  9
$DIMPOST
  1

  9
$DIMAPOST
  1

  9
$DIMALT
 70
     0
  9
$DIMALTD
 70
     3
  9
$DIMALTF
 40
0.03937
  9
$DIMLFAC
 40
1.0
  9
$DIMTOFL
 70
     1
  9
$DIMTVP
 40
0.0
  9
$DIMTIX
 70
     0
  9
$DIMSOXD
 70
     0
  9
$DIMSAH
 70
     0
  9
$DIMBLK1
  1

  9
$DIMBLK2
  1

  9
$DIMSTYLE
  2
ISO-25
  9
$DIMCLRD
 70
     0
  9
$DIMCLRE
 70
     0
  9
$DIMCLRT
 70
     0
  9
$DIMTFAC
 40
1.0
  9
$DIMGAP
 40
0.625
  9
$DIMJUST
 70
     0
  9
$DIMSD1
 70
     0
  9
$DIMSD2
 70
     0
  9
$DIMTOLJ
 70
     0
  9
$DIMTZIN
 70
     8
  9
$DIMALTZ
 70
     0
  9
$DIMALTTZ
 70
     0
  9
$DIMUPT
 70
     0
  9
$DIMDEC
 70
     2
  9
$DIMTDEC
 70
     2
  9
$DIMALTU
 70
     2
  9
$DIMALTTD
 70
     3
  9
$DIMTXSTY
  7
Standard
  9
$DIMAUNIT
 70
     0
  9
$DIMADEC
 70
     0
  9
$DIMALTRND
 40
0.0
  9
$DIMAZIN
 70
     0
  9
$DIMDSEP
 70
    44
  9
$DIMATFIT
 70
     3
  9
$DIMFRAC
 70
     0
  9
$DIMLDRBLK
  1

  9
$DIMLUNIT
 70
     2
  9
$DIMLWD
 70
    -2
  9
$DIMLWE
 70
    -2
  9
$DIMTMOVE
 70
     0
  9
$LUNITS
 70
     2
  9
$LUPREC
 70
     4
  9
$SKETCHINC
 40
1.0
  9
$FILLETRAD
 40
10.0
  9
$AUNITS
 70
     0
  9
$AUPREC
 70
     0
  9
$MENU
  1
.
  9
$ELEVATION
 40
0.0
  9
$PELEVATION
 40
0.0
  9
$THICKNESS
 40
0.0
  9
$LIMCHECK
 70
     0
  9
$CHAMFERA
 40
10.0
  9
$CHAMFERB
 40
10.0
  9
$CHAMFERC
 40
20.0
  9
$CHAMFERD
 40
0.0
  9
$SKPOLY
 70
     0
  9
$TDCREATE
 40
2455554.633652778
  9
$TDUCREATE
 40
2455554.591986111
  9
$TDUPDATE
 40
2455554.63365279
  9
$TDUUPDATE
 40
2455554.591986123
  9
$TDINDWG
 40
0.0000000116
  9
$TDUSRTIMER
 40
0.0000000116
  9
$USRTIMER
 70
     1
  9
$ANGBASE
 50
0.0
  9
$ANGDIR
 70
     0
  9
$PDMODE
 70
     0
  9
$PDSIZE
 40
0.0
  9
$PLINEWID
 40
0.0
  9
$SPLFRAME
 70
     0
  9
$SPLINETYPE
 70
     6
  9
$SPLINESEGS
 70
     8
  9
$HANDSEED
  5
151
  9
$SURFTAB1
 70
     6
  9
$SURFTAB2
 70
     6
  9
$SURFTYPE
 70
     6
  9
$SURFU
 70
     6
  9
$SURFV
 70
     6
  9
$UCSBASE
  2

  9
$UCSNAME
  2

  9
$UCSORG
 10
0.0
 20
0.0
 30
0.0
  9
$UCSXDIR
 10
1.0
 20
0.0
 30
0.0
  9
$UCSYDIR
 10
0.0
 20
1.0
 30
0.0
  9
$UCSORTHOREF
  2

  9
$UCSORTHOVIEW
 70
     0
  9
$UCSORGTOP
 10
0.0
 20
0.0
 30
0.0
  9
$UCSORGBOTTOM
 10
0.0
 20
0.0
 30
0.0
  9
$UCSORGLEFT
 10
0.0
 20
0.0
 30
0.0
  9
$UCSORGRIGHT
 10
0.0
 20
0.0
 30
0.0
  9
$UCSORGFRONT
 10
0.0
 20
0.0
 30
0.0
  9
$UCSORGBACK
 10
0.0
 20
0.0
 30
0.0
  9
$PUCSBASE
  2

  9
$PUCSNAME
  2

  9
$PUCSORG
 10
0.0
 20
0.0
 30
0.0
  9
$PUCSXDIR
 10
1.0
 20
0.0
 30
0.0
  9
$PUCSYDIR
 10
0.0
 20
1.0
 30
0.0
  9
$PUCSORTHOREF
  2

  9
$PUCSORTHOVIEW
 70
     0
  9
$PUCSORGTOP
 10
0.0
 20
0.0
 30
0.0
  9
$PUCSORGBOTTOM
 10
0.0
 20
0.0
 30
0.0
  9
$PUCSORGLEFT
 10
0.0
 20
0.0
 30
0.0
  9
$PUCSORGRIGHT
 10
0.0
 20
0.0
 30
0.0
  9
$PUCSORGFRONT
 10
0.0
 20
0.0
 30
0.0
  9
$PUCSORGBACK
 10
0.0
 20
0.0
 30
0.0
  9
$USERI1
 70
     0
  9
$USERI2
 70
     0
  9
$USERI3
 70
     0
  9
$USERI4
 70
     0
  9
$USERI5
 70
     0
  9
$USERR1
 40
0.0
  9
$USERR2
 40
0.0
  9
$USERR3
 40
0.0
  9
$USERR4
 40
0.0
  9
$USERR5
 40
0.0
  9
$WORLDVIEW
 70
     1
  9
$SHADEDGE
 70
     3
  9
$SHADEDIF
 70
    70
  9
$TILEMODE
 70
     1
  9
$MAXACTVP
 70
    64
  9
$PINSBASE
 10
0.0
 20
0.0
 30
0.0
  9
$PLIMCHECK
 70
     0
  9
$PEXTMIN
 10
1.000000E+20
 20
1.000000E+20
 30
1.000000E+20
  9
$PEXTMAX
 10
-1.000000E+20
 20
-1.000000E+20
 30
-1.000000E+20
  9
$PLIMMIN
 10
0.0
 20
0.0
  9
$PLIMMAX
 10
420.0
 20
297.0
  9
$UNITMODE
 70
     0
  9
$VISRETAIN
 70
     1
  9
$PLINEGEN
 70
     0
  9
$PSLTSCALE
 70
     1
  9
$TREEDEPTH
 70
  3020
  9
$CMLSTYLE
  2
Standard
  9
$CMLJUST
 70
     0
  9
$CMLSCALE
 40
20.0
  9
$PROXYGRAPHICS
 70
     1
  9
$MEASUREMENT
 70
     1
  9
$CELWEIGHT
370
    -1
  9
$ENDCAPS
280
     0
  9
$JOINSTYLE
280
     0
  9
$LWDISPLAY
290
     0
  9
$INSUNITS
 70
     4
  9
$HYPERLINKBASE
  1

  9
$STYLESHEET
  1

  9
$XEDIT
290
     1
  9
$CEPSNTYPE
380
     0
  9
$PSTYLEMODE
290
     1
  9
$FINGERPRINTGUID
  2
{302F5715-09AD-4FB4-8711-24C417CBDDF7}
  9
$VERSIONGUID
  2
{FAEB1C32-E019-11D5-929B-00C0DF256EC4}
  9
$EXTNAMES
290
     1
  9
$PSVPSCALE
 40
0.0
  9
$OLESTARTUP
290
     0
  0
ENDSEC
  0
SECTION
  2
CLASSES
  0
CLASS
  1
ACDBDICTIONARYWDFLT
  2
AcDbDictionaryWithDefault
  3
ObjectDBX Classes
 90
        0
280
     0
281
     0
  0
CLASS
  1
VISUALSTYLE
  2
AcDbVisualStyle
  3
ObjectDBX Classes
 90
     4095
280
     0
281
     0
  0
CLASS
  1
DICTIONARYVAR
  2
AcDbDictionaryVar
  3
ObjectDBX Classes
 90
        0
280
     0
281
     0
  0
CLASS
  1
ACDBPLACEHOLDER
  2
AcDbPlaceHolder
  3
ObjectDBX Classes
 90
        0
280
     0
281
     0
  0
CLASS
  1
LAYOUT
  2
AcDbLayout
  3
ObjectDBX Classes
 90
        0
280
     0
281
     0
  0
ENDSEC
  0
SECTION
  2
TABLES
  0
TABLE
  2
VPORT
  5
8
330
0
100
AcDbSymbolTable
 70
     1
  0
VPORT
  5
29
330
8
100
AcDbSymbolTableRecord
100
AcDbViewportTableRecord
  2
*Active
 70
     0
 10
0.0
 20
0.0
 11
1.0
 21
1.0
 12
344.186916
 22
148.5
 13
0.0
 23
0.0
 14
10.0
 24
10.0
 15
10.0
 25
10.0
 16
0.0
 26
0.0
 36
1.0
 17
0.0
 27
0.0
 37
0.0
 40
297.0
 41
1.972973
 42
50.0
 43
0.0
 44
0.0
 50
0.0
 51
0.0
 71
     0
 72
   100
 73
     1
 74
     3
 75
     0
 76
     0
 77
     0
 78
     0
281
     0
 65
     1
110
0.0
120
0.0
130
0.0
111
1.0
121
0.0
131
0.0
112
0.0
122
1.0
132
0.0
 79
     0
146
0.0
  0
ENDTAB
  0
TABLE
  2
LTYPE
  5
5
330
0
100
AcDbSymbolTable
 70
     1
  0
LTYPE
  5
14
330
5
100
AcDbSymbolTableRecord
100
AcDbLinetypeTableRecord
  2
ByBlock
 70
     0
  3

 72
    65
 73
     0
 40
0.0
  0
LTYPE
  5
15
330
5
100
AcDbSymbolTableRecord
100
AcDbLinetypeTableRecord
  2
ByLayer
 70
     0
  3

 72
    65
 73
     0
 40
0.0
  0
LTYPE
  5
16
330
5
100
AcDbSymbolTableRecord
100
AcDbLinetypeTableRecord
  2
Continuous
 70
     0
  3
Solid line
 72
    65
 73
     0
 40
0.0
  0
ENDTAB
  0
TABLE
  2
LAYER
  5
2
330
0
100
AcDbSymbolTable
 70
     1
  0
LAYER
  5
10
330
2
100
AcDbSymbolTableRecord
100
AcDbLayerTableRecord
  2
0
 70
     0
 62
   106
  6
Continuous
370
     0
390
F
  0
ENDTAB
  0
TABLE
  2
STYLE
  5
3
330
0
100
AcDbSymbolTable
 70
     4
  0
STYLE
  5
11
330
3
100
AcDbSymbolTableRecord
100
AcDbTextStyleTableRecord
  2
Standard
 70
     0
 40
0.0
 41
1.0
 50
0.0
 71
     0
 42
2.5
  3
txt
  4

  0
STYLE
  5
3B
330
3
100
AcDbSymbolTableRecord
100
AcDbTextStyleTableRecord
  2
Default
 70
     0
 40
0.0
 41
1.0
 50
0.0
 71
     0
 42
0.2
  3

  4

1001
ACAD
1000
txt
1071
        0
  0
STYLE
  5
3C
330
3
100
AcDbSymbolTableRecord
100
AcDbTextStyleTableRecord
  2
ISO
 70
     0
 40
0.0
 41
1.0
 50
0.0
 71
     0
 42
0.2
  3

  4

1001
ACAD
1000
txt
1071
        0
  0
STYLE
  5
3D
330
3
100
AcDbSymbolTableRecord
100
AcDbTextStyleTableRecord
  2
GIANLU
 70
     0
 40
0.0
 41
1.0
 50
0.0
 71
     0
 42
0.2
  3

  4

1001
ACAD
1000
Arial
1071
        0
  0
ENDTAB
  0
TABLE
  2
VIEW
  5
6
330
0
100
AcDbSymbolTable
 70
     0
  0
ENDTAB
  0
TABLE
  2
UCS
  5
7
330
0
100
AcDbSymbolTable
 70
     0
  0
ENDTAB
  0
TABLE
  2
APPID
  5
9
330
0
100
AcDbSymbolTable
 70
     1
  0
APPID
  5
12
330
9
100
AcDbSymbolTableRecord
100
AcDbRegAppTableRecord
  2
ACAD
 70
     0
  0
ENDTAB
  0
TABLE
  2
DIMSTYLE
  5
A
330
0
100
AcDbSymbolTable
 70
     4
100
AcDbDimStyleTable
  0
DIMSTYLE
105
27
330
A
100
AcDbSymbolTableRecord
100
AcDbDimStyleTableRecord
  2
ISO-25
 70
     0
 41
2.5
 42
0.625
 43
3.75
 44
1.25
 73
     0
 74
     0
 77
     1
 78
     8
140
2.5
141
2.5
143
0.03937
147
0.625
171
     3
172
     1
271
     2
272
     2
274
     3
278
    44
283
     0
284
     8
340
11
  0
DIMSTYLE
105
3E
330
A
100
AcDbSymbolTableRecord
100
AcDbDimStyleTableRecord
  2
Default
 70
     0
  3
<>
 41
4.375
 42
1.05
 44
2.1
 73
     0
 74
     0
 77
     1
 78
     8
140
3.5
146
0.4
147
1.75
178
     3
271
     2
272
     3
284
     8
340
3B
341
3F
342
3F
  0
DIMSTYLE
105
46
330
A
100
AcDbSymbolTableRecord
100
AcDbDimStyleTableRecord
  2
ISO
 70
     0
  3
<>
 41
4.375
 42
1.05
 44
2.1
 73
     0
 74
     0
 77
     1
 78
     8
140
3.5
146
0.4
147
1.75
178
     3
271
     2
272
     3
284
     8
340
3C
341
3F
342
3F
  0
DIMSTYLE
105
47
330
A
100
AcDbSymbolTableRecord
100
AcDbDimStyleTableRecord
  2
zucchetti_unico
 70
     0
  3
<>
 41
3.0
 42
0.9
 44
1.8
 73
     0
 74
     0
 77
     1
 78
     8
140
3.0
146
0.6
147
1.5
176
   104
177
     3
178
     3
271
     2
272
     2
284
     8
340
3D
  0
ENDTAB
  0
TABLE
  2
BLOCK_RECORD
  5
1
330
0
100
AcDbSymbolTable
 70
     7
  0
BLOCK_RECORD
  5
1F
330
1
100
AcDbSymbolTableRecord
100
AcDbBlockTableRecord
  2
*Model_Space
340
22
  0
BLOCK_RECORD
  5
1B
330
1
100
AcDbSymbolTableRecord
100
AcDbBlockTableRecord
  2
*Paper_Space
340
1E
  0
BLOCK_RECORD
  5
23
330
1
100
AcDbSymbolTableRecord
100
AcDbBlockTableRecord
  2
*Paper_Space0
340
26
  0
BLOCK_RECORD
  5
3F
330
1
100
AcDbSymbolTableRecord
100
AcDbBlockTableRecord
  2
_CLOSED
340
0
  0
BLOCK_RECORD
  5
48
330
1
100
AcDbSymbolTableRecord
100
AcDbBlockTableRecord
  2
a
340
0
102
{BLKREFS
331
6F
102
}
  0
BLOCK_RECORD
  5
70
330
1
100
AcDbSymbolTableRecord
100
AcDbBlockTableRecord
  2
b
340
0
102
{BLKREFS
331
BB
102
}
  0
BLOCK_RECORD
  5
BC
330
1
100
AcDbSymbolTableRecord
100
AcDbBlockTableRecord
  2
c
340
0
102
{BLKREFS
331
D8
102
}
  0
BLOCK_RECORD
  5
D9
330
1
100
AcDbSymbolTableRecord
100
AcDbBlockTableRecord
  2
d
340
0
102
{BLKREFS
331
12E
102
}
  0
BLOCK_RECORD
  5
12F
330
1
100
AcDbSymbolTableRecord
100
AcDbBlockTableRecord
  2
e
340
0
102
{BLKREFS
331
14B
102
}
  0
ENDTAB
  0
ENDSEC
  0
SECTION
  2
BLOCKS
  0
BLOCK
  5
20
330
1F
100
AcDbEntity
  8
0
100
AcDbBlockBegin
  2
*Model_Space
 70
     0
 10
0.0
 20
0.0
 30
0.0
  3
*Model_Space
  1

  0
ENDBLK
  5
21
330
1F
100
AcDbEntity
  8
0
100
AcDbBlockEnd
  0
BLOCK
  5
1C
330
1B
100
AcDbEntity
 67
     1
  8
0
100
AcDbBlockBegin
  2
*Paper_Space
 70
     0
 10
0.0
 20
0.0
 30
0.0
  3
*Paper_Space
  1

  0
ENDBLK
  5
1D
330
1B
100
AcDbEntity
 67
     1
  8
0
100
AcDbBlockEnd
  0
BLOCK
  5
24
330
23
100
AcDbEntity
  8
0
100
AcDbBlockBegin
  2
*Paper_Space0
 70
     0
 10
0.0
 20
0.0
 30
0.0
  3
*Paper_Space0
  1

  0
ENDBLK
  5
25
330
23
100
AcDbEntity
  8
0
100
AcDbBlockEnd
  0
BLOCK
  5
40
330
3F
100
AcDbEntity
  8
0
100
AcDbBlockBegin
  2
_CLOSED
 70
     0
 10
0.0
 20
0.0
 30
0.0
  3
_CLOSED
  1

  0
LINE
  5
42
330
3F
100
AcDbEntity
  8
0
  6
ByBlock
 62
     0
370
    -2
100
AcDbLine
 10
-1.0
 20
0.166667
 30
0.0
 11
0.0
 21
0.0
 31
0.0
  0
LINE
  5
43
330
3F
100
AcDbEntity
  8
0
  6
ByBlock
 62
     0
370
    -2
100
AcDbLine
 10
0.0
 20
0.0
 30
0.0
 11
-1.0
 21
-0.166667
 31
0.0
  0
LINE
  5
44
330
3F
100
AcDbEntity
  8
0
  6
ByBlock
 62
     0
370
    -2
100
AcDbLine
 10
-1.0
 20
0.166667
 30
0.0
 11
-1.0
 21
-0.166667
 31
0.0
  0
LINE
  5
45
330
3F
100
AcDbEntity
  8
0
  6
ByBlock
 62
     0
370
    -2
100
AcDbLine
 10
0.0
 20
0.0
 30
0.0
 11
-1.0
 21
0.0
 31
0.0
  0
ENDBLK
  5
41
330
3F
100
AcDbEntity
  8
0
100
AcDbBlockEnd
  0
BLOCK
  5
6D
330
48
100
AcDbEntity
  8
0
100
AcDbBlockBegin
  2
a
 70
     0
 10
36.997002
 20
231.266052
 30
0.0
  3
a
  1

  0
LINE
  5
49
330
48
100
AcDbEntity
  8
0
  6
Continuous
 62
     0
370
    30
100
AcDbLine
 10
597.457214
 20
643.822815
 30
0.0
 11
597.457214
 21
652.322815
 31
0.0
  0
LINE
  5
4A
330
48
100
AcDbEntity
  8
0
  6
Continuous
 62
     0
370
    30
100
AcDbLine
 10
597.457214
 20
652.322815
 30
0.0
 11
597.457214
 21
660.822815
 31
0.0
  0
LINE
  5
4B
330
48
100
AcDbEntity
  8
0
  6
Continuous
 62
     0
370
     0
100
AcDbLine
 10
596.957214
 20
643.322815
 30
0.0
 11
596.957214
 21
652.322815
 31
0.0
  0
LINE
  5
4C
330
48
100
AcDbEntity
  8
0
  6
Continuous
 62
     0
370
     0
100
AcDbLine
 10
596.957214
 20
652.322815
 30
0.0
 11
596.957214
 21
661.322815
 31
0.0
  0
LINE
  5
4D
330
48
100
AcDbEntity
  8
0
  6
Continuous
 62
     0
370
     0
100
AcDbLine
 10
523.957214
 20
643.322815
 30
0.0
 11
523.957214
 21
652.322815
 31
0.0
  0
LINE
  5
4E
330
48
100
AcDbEntity
  8
0
  6
Continuous
 62
     0
370
     0
100
AcDbLine
 10
523.957214
 20
652.322815
 30
0.0
 11
523.957214
 21
661.322815
 31
0.0
  0
ARC
  5
4F
330
48
100
AcDbEntity
  8
0
  6
Continuous
 62
     0
370
    30
100
AcDbCircle
 10
560.457214
 20
652.322815
 30
0.0
 40
30.0
100
AcDbArc
 50
197.457603
 51
342.542397
  0
ARC
  5
50
330
48
100
AcDbEntity
  8
0
  6
Continuous
 62
     0
370
    30
100
AcDbCircle
 10
560.457214
 20
652.322815
 30
0.0
 40
30.0
100
AcDbArc
 50
17.457603
 51
162.542397
  0
ARC
  5
51
330
48
100
AcDbEntity
  8
0
  6
Continuous
 62
     0
370
     0
100
AcDbCircle
 10
560.457214
 20
652.322815
 30
0.0
 40
29.5
100
AcDbArc
 50
197.763262
 51
342.236738
  0
ARC
  5
52
330
48
100
AcDbEntity
  8
0
  6
Continuous
 62
     0
370
     0
100
AcDbCircle
 10
560.457214
 20
652.322815
 30
0.0
 40
29.49999999999999
100
AcDbArc
 50
17.763262
 51
162.236738
  0
LINE
  5
53
330
48
100
AcDbEntity
  8
0
  6
Continuous
 62
     0
370
    30
100
AcDbLine
 10
523.457214
 20
643.322815
 30
0.0
 11
523.457214
 21
661.322815
 31
0.0
  0
LINE
  5
54
330
48
100
AcDbEntity
  8
0
  6
Continuous
 62
     0
370
    30
100
AcDbLine
 10
523.457214
 20
643.322815
 30
0.0
 11
147.457214
 21
643.322815
 31
0.0
  0
LINE
  5
55
330
48
100
AcDbEntity
  8
0
  6
Continuous
 62
     0
370
    30
100
AcDbLine
 10
147.457214
 20
661.322815
 30
0.0
 11
147.457214
 21
643.322815
 31
0.0
  0
LINE
  5
56
330
48
100
AcDbEntity
  8
0
  6
Continuous
 62
     0
370
    30
100
AcDbLine
 10
73.457214
 20
660.822815
 30
0.0
 11
73.457214
 21
652.322815
 31
0.0
  0
LINE
  5
57
330
48
100
AcDbEntity
  8
0
  6
Continuous
 62
     0
370
    30
100
AcDbLine
 10
73.457214
 20
652.322815
 30
0.0
 11
73.457214
 21
643.822815
 31
0.0
  0
LINE
  5
58
330
48
100
AcDbEntity
  8
0
  6
Continuous
 62
     0
370
     0
100
AcDbLine
 10
73.957214
 20
661.322815
 30
0.0
 11
73.957214
 21
652.322815
 31
0.0
  0
LINE
  5
59
330
48
100
AcDbEntity
  8
0
  6
Continuous
 62
     0
370
     0
100
AcDbLine
 10
73.957214
 20
652.322815
 30
0.0
 11
73.957214
 21
643.322815
 31
0.0
  0
LINE
  5
5A
330
48
100
AcDbEntity
  8
0
  6
Continuous
 62
     0
370
     0
100
AcDbLine
 10
146.957214
 20
661.322815
 30
0.0
 11
146.957214
 21
652.322815
 31
0.0
  0
LINE
  5
5B
330
48
100
AcDbEntity
  8
0
  6
Continuous
 62
     0
370
     0
100
AcDbLine
 10
146.957214
 20
652.322815
 30
0.0
 11
146.957214
 21
643.322815
 31
0.0
  0
ARC
  5
5C
330
48
100
AcDbEntity
  8
0
  6
Continuous
 62
     0
370
    30
100
AcDbCircle
 10
110.457214
 20
652.322815
 30
0.0
 40
30.0
100
AcDbArc
 50
17.457603
 51
162.542397
  0
ARC
  5
5D
330
48
100
AcDbEntity
  8
0
  6
Continuous
 62
     0
370
    30
100
AcDbCircle
 10
110.457214
 20
652.322815
 30
0.0
 40
30.0
100
AcDbArc
 50
197.457603
 51
342.542397
  0
ARC
  5
5E
330
48
100
AcDbEntity
  8
0
  6
Continuous
 62
     0
370
     0
100
AcDbCircle
 10
110.457214
 20
652.322815
 30
0.0
 40
29.50000000000008
100
AcDbArc
 50
17.763262
 51
162.236738
  0
ARC
  5
5F
330
48
100
AcDbEntity
  8
0
  6
Continuous
 62
     0
370
     0
100
AcDbCircle
 10
110.457214
 20
652.322815
 30
0.0
 40
29.50000000000006
100
AcDbArc
 50
197.763262
 51
342.236738
  0
ARC
  5
60
330
48
100
AcDbEntity
  8
0
  6
Continuous
 62
     0
370
    30
100
AcDbCircle
 10
146.957211
 20
643.822818
 30
0.0
 40
0.5000034422824795
100
AcDbArc
 50
270.000394
 51
359.999606
  0
ARC
  5
61
330
48
100
AcDbEntity
  8
0
  6
Continuous
 62
     0
370
    30
100
AcDbCircle
 10
146.957211
 20
660.822811
 30
0.0
 40
0.5000034422855917
100
AcDbArc
 50
0.000394
 51
89.999606
  0
LINE
  5
62
330
48
100
AcDbEntity
  8
0
  6
Continuous
 62
     0
370
    30
100
AcDbLine
 10
73.957214
 20
643.322815
 30
0.0
 11
146.957214
 21
643.322815
 31
0.0
  0
LINE
  5
63
330
48
100
AcDbEntity
  8
0
  6
Continuous
 62
     0
370
    30
100
AcDbLine
 10
73.957214
 20
661.322815
 30
0.0
 11
146.957214
 21
661.322815
 31
0.0
  0
ARC
  5
64
330
48
100
AcDbEntity
  8
0
  6
Continuous
 62
     0
370
    30
100
AcDbCircle
 10
73.957217
 20
660.822812
 30
0.0
 40
0.5000027707157757
100
AcDbArc
 50
90.000317
 51
179.988223
  0
ARC
  5
65
330
48
100
AcDbEntity
  8
0
  6
Continuous
 62
     0
370
    30
100
AcDbCircle
 10
73.957217
 20
643.822818
 30
0.0
 40
0.5000027707032298
100
AcDbArc
 50
180.011777
 51
269.999683
  0
LINE
  5
66
330
48
100
AcDbEntity
  8
0
  6
Continuous
 62
     0
370
    30
100
AcDbLine
 10
523.457214
 20
661.322815
 30
0.0
 11
147.457214
 21
661.322815
 31
0.0
  0
ARC
  5
67
330
48
100
AcDbEntity
  8
0
  6
Continuous
 62
     0
370
    30
100
AcDbCircle
 10
523.957218
 20
660.822811
 30
0.0
 40
0.5000034422844912
100
AcDbArc
 50
90.000394
 51
179.999606
  0
ARC
  5
68
330
48
100
AcDbEntity
  8
0
  6
Continuous
 62
     0
370
    30
100
AcDbCircle
 10
523.957218
 20
643.822818
 30
0.0
 40
0.5000034422867428
100
AcDbArc
 50
180.000394
 51
269.999606
  0
LINE
  5
69
330
48
100
AcDbEntity
  8
0
  6
Continuous
 62
     0
370
    30
100
AcDbLine
 10
596.957214
 20
661.322815
 30
0.0
 11
523.957214
 21
661.322815
 31
0.0
  0
LINE
  5
6A
330
48
100
AcDbEntity
  8
0
  6
Continuous
 62
     0
370
    30
100
AcDbLine
 10
596.957214
 20
643.322815
 30
0.0
 11
523.957214
 21
643.322815
 31
0.0
  0
ARC
  5
6B
330
48
100
AcDbEntity
  8
0
  6
Continuous
 62
     0
370
    30
100
AcDbCircle
 10
596.957212
 20
643.822818
 30
0.0
 40
0.500002770680315
100
AcDbArc
 50
270.000317
 51
359.988223
  0
ARC
  5
6C
330
48
100
AcDbEntity
  8
0
  6
Continuous
 62
     0
370
    30
100
AcDbCircle
 10
596.957212
 20
660.822812
 30
0.0
 40
0.5000027706833698
100
AcDbArc
 50
0.011777
 51
89.999683
  0
ENDBLK
  5
6E
330
48
100
AcDbEntity
  8
0
100
AcDbBlockEnd
  0
BLOCK
  5
B9
330
70
100
AcDbEntity
  8
0
100
AcDbBlockBegin
  2
b
 70
     0
 10
36.997002
 20
231.266052
 30
0.0
  3
b
  1

  0
ARC
  5
71
330
70
100
AcDbEntity
  8
0
  6
Continuous
 62
     0
370
    30
100
AcDbCircle
 10
543.457233
 20
236.677168
 30
0.0
 40
8.0
100
AcDbArc
 50
270.0
 51
360.0
  0
LINE
  5
72
330
70
100
AcDbEntity
  8
0
  6
Continuous
 62
     0
370
     0
100
AcDbLine
 10
551.457233
 20
236.677168
 30
0.0
 11
560.457233
 21
219.677167
 31
0.0
  0
LINE
  5
73
330
70
100
AcDbEntity
  8
0
  6
Continuous
 62
     0
370
     0
100
AcDbLine
 10
543.457233
 20
228.677168
 30
0.0
 11
560.457233
 21
219.677167
 31
0.0
  0
LINE
  5
74
330
70
100
AcDbEntity
  8
0
  6
Continuous
 62
     0
370
     0
100
AcDbLine
 10
560.457233
 20
219.677167
 30
0.0
 11
577.457137
 21
228.677117
 31
0.0
  0
LINE
  5
75
330
70
100
AcDbEntity
  8
0
  6
Continuous
 62
     0
370
     0
100
AcDbLine
 10
560.457233
 20
219.677167
 30
0.0
 11
569.457182
 21
236.677071
 31
0.0
  0
LINE
  5
76
330
70
100
AcDbEntity
  8
0
  6
Continuous
 62
     0
370
    30
100
AcDbLine
 10
597.457233
 20
211.177168
 30
0.0
 11
597.457233
 21
228.177168
 31
0.0
  0
ARC
  5
77
330
70
100
AcDbEntity
  8
0
  6
Continuous
 62
     0
370
    30
100
AcDbCircle
 10
596.957233
 20
211.177168
 30
0.0
 40
0.5000000000000069
100
AcDbArc
 50
270.0
 51
0.0
  0
LINE
  5
78
330
70
100
AcDbEntity
  8
0
  6
Continuous
 62
     0
370
     0
100
AcDbLine
 10
596.957233
 20
210.677168
 30
0.0
 11
596.957233
 21
228.677168
 31
0.0
  0
LINE
  5
79
330
70
100
AcDbEntity
  8
0
  6
Continuous
 62
     0
370
    30
100
AcDbLine
 10
596.957233
 20
210.677168
 30
0.0
 11
523.957233
 21
210.677168
 31
0.0
  0
LINE
  5
7A
330
70
100
AcDbEntity
  8
0
  6
Continuous
 62
     0
370
     0
100
AcDbLine
 10
523.957233
 20
210.677168
 30
0.0
 11
523.957233
 21
228.677168
 31
0.0
  0
ARC
  5
7B
330
70
100
AcDbEntity
  8
0
  6
Continuous
 62
     0
370
    30
100
AcDbCircle
 10
523.957233
 20
211.177168
 30
0.0
 40
0.5
100
AcDbArc
 50
180.0
 51
270.0
  0
LINE
  5
7C
330
70
100
AcDbEntity
  8
0
  6
Continuous
 62
     0
370
    30
100
AcDbLine
 10
551.457233
 20
286.177168
 30
0.0
 11
551.457233
 21
236.677168
 31
0.0
  0
LINE
  5
7D
330
70
100
AcDbEntity
  8
0
  6
Continuous
 62
     0
370
     0
100
AcDbLine
 10
551.457233
 20
286.177168
 30
0.0
 11
569.457233
 21
286.177168
 31
0.0
  0
ARC
  5
7E
330
70
100
AcDbEntity
  8
0
  6
Continuous
 62
     0
370
    30
100
AcDbCircle
 10
551.957233
 20
286.177168
 30
0.0
 40
0.5
100
AcDbArc
 50
90.0
 51
180.0
  0
ARC
  5
7F
330
70
100
AcDbEntity
  8
0
  6
Continuous
 62
     0
370
    30
100
AcDbCircle
 10
589.957233
 20
291.177168
 30
0.0
 40
0.4999999999932783
100
AcDbArc
 50
360.0
 51
90.0
  0
LINE
  5
80
330
70
100
AcDbEntity
  8
0
  6
Continuous
 62
     0
370
     0
100
AcDbLine
 10
590.457233
 20
291.177168
 30
0.0
 11
530.457233
 21
291.177168
 31
0.0
  0
LINE
  5
81
330
70
100
AcDbEntity
  8
0
  6
Continuous
 62
     0
370
    30
100
AcDbLine
 10
530.957233
 20
291.677168
 30
0.0
 11
589.957233
 21
291.677168
 31
0.0
  0
LINE
  5
82
330
70
100
AcDbEntity
  8
0
  6
Continuous
 62
     0
370
    30
100
AcDbLine
 10
590.457233
 20
291.177168
 30
0.0
 11
590.457233
 21
287.177168
 31
0.0
  0
LINE
  5
83
330
70
100
AcDbEntity
  8
0
  6
Continuous
 62
     0
370
     0
100
AcDbLine
 10
530.457233
 20
287.177168
 30
0.0
 11
590.457233
 21
287.177168
 31
0.0
  0
ARC
  5
84
330
70
100
AcDbEntity
  8
0
  6
Continuous
 62
     0
370
    30
100
AcDbCircle
 10
589.957233
 20
287.177168
 30
0.0
 40
0.5000000000004903
100
AcDbArc
 50
270.0
 51
360.0
  0
LINE
  5
85
330
70
100
AcDbEntity
  8
0
  6
Continuous
 62
     0
370
    30
100
AcDbLine
 10
589.957233
 20
286.677168
 30
0.0
 11
530.957233
 21
286.677168
 31
0.0
  0
LINE
  5
86
330
70
100
AcDbEntity
  8
0
  6
Continuous
 62
     0
370
    30
100
AcDbLine
 10
523.457233
 20
210.677168
 30
0.0
 11
523.457233
 21
219.677167
 31
0.0
  0
LINE
  5
87
330
70
100
AcDbEntity
  8
0
  6
Continuous
 62
     0
370
    30
100
AcDbLine
 10
523.457233
 20
219.677167
 30
0.0
 11
523.457233
 21
228.677168
 31
0.0
  0
LINE
  5
88
330
70
100
AcDbEntity
  8
0
  6
Continuous
 62
     0
370
    30
100
AcDbLine
 10
147.457233
 20
228.677168
 30
0.0
 11
147.457233
 21
219.677167
 31
0.0
  0
LINE
  5
89
330
70
100
AcDbEntity
  8
0
  6
Continuous
 62
     0
370
    30
100
AcDbLine
 10
147.457233
 20
219.677167
 30
0.0
 11
147.457233
 21
210.677168
 31
0.0
  0
LINE
  5
8A
330
70
100
AcDbEntity
  8
0
  6
Continuous
 62
     0
370
     0
100
AcDbLine
 10
110.457233
 20
219.677167
 30
0.0
 11
127.457233
 21
228.677168
 31
0.0
  0
ARC
  5
8B
330
70
100
AcDbEntity
  8
0
  6
Continuous
 62
     0
370
    30
100
AcDbCircle
 10
127.457233
 20
236.677168
 30
0.0
 40
8.0
100
AcDbArc
 50
180.0
 51
270.0
  0
LINE
  5
8C
330
70
100
AcDbEntity
  8
0
  6
Continuous
 62
     0
370
     0
100
AcDbLine
 10
110.457233
 20
219.677167
 30
0.0
 11
119.457233
 21
236.677168
 31
0.0
  0
LWPOLYLINE
  5
8D
330
70
100
AcDbEntity
  8
0
  6
Continuous
 62
     0
370
     0
100
AcDbPolyline
 90
       22
 70
     0
 43
0.0
 10
93.457329
 20
228.677124
 10
93.527344
 20
228.640045
 10
93.734596
 20
228.530334
 10
94.071396
 20
228.35202
 10
94.526062
 20
228.111313
 10
95.085457
 20
227.81517
 10
95.735764
 20
227.470886
 10
96.464142
 20
227.085281
 10
97.258804
 20
226.664566
 10
98.109459
 20
226.214218
 10
99.007111
 20
225.738998
 10
99.944695
 20
225.24263
 10
100.915657
 20
224.728592
 10
101.914162
 20
224.199966
 10
102.935989
 20
223.658997
 10
103.977173
 20
223.107788
 10
105.033844
 20
222.54837
 10
106.10289
 20
221.982407
 10
107.181633
 20
221.411316
 10
108.26741
 20
220.836487
 10
109.357788
 20
220.259232
 10
110.45723
 20
219.67717
  0
LWPOLYLINE
  5
8E
330
70
100
AcDbEntity
  8
0
  6
Continuous
 62
     0
370
     0
100
AcDbPolyline
 90
       22
 70
     0
 43
0.0
 10
101.457283
 20
236.677078
 10
101.494354
 20
236.607056
 10
101.604073
 20
236.399811
 10
101.782379
 20
236.063004
 10
102.023087
 20
235.608337
 10
102.319237
 20
235.04895
 10
102.663513
 20
234.398636
 10
103.049126
 20
233.670258
 10
103.469833
 20
232.875595
 10
103.920174
 20
232.024948
 10
104.395401
 20
231.127289
 10
104.891769
 20
230.189713
 10
105.405807
 20
229.21875
 10
105.934433
 20
228.220245
 10
106.475395
 20
227.19841
 10
107.026611
 20
226.157227
 10
107.586029
 20
225.100555
 10
108.151993
 20
224.031509
 10
108.723091
 20
222.952774
 10
109.297913
 20
221.866989
 10
109.875175
 20
220.776611
 10
110.45723
 20
219.67717
  0
LINE
  5
8F
330
70
100
AcDbEntity
  8
0
  6
Continuous
 62
     0
370
    30
100
AcDbLine
 10
73.457233
 20
228.177168
 30
0.0
 11
73.457233
 21
211.177168
 31
0.0
  0
ARC
  5
90
330
70
100
AcDbEntity
  8
0
  6
Continuous
 62
     0
370
    30
100
AcDbCircle
 10
73.957233
 20
211.177168
 30
0.0
 40
0.5000000000000069
100
AcDbArc
 50
180.0
 51
270.0
  0
LINE
  5
91
330
70
100
AcDbEntity
  8
0
  6
Continuous
 62
     0
370
     0
100
AcDbLine
 10
73.957233
 20
228.677168
 30
0.0
 11
73.957233
 21
210.677168
 31
0.0
  0
LINE
  5
92
330
70
100
AcDbEntity
  8
0
  6
Continuous
 62
     0
370
    30
100
AcDbLine
 10
73.957233
 20
210.677168
 30
0.0
 11
146.957233
 21
210.677168
 31
0.0
  0
LINE
  5
93
330
70
100
AcDbEntity
  8
0
  6
Continuous
 62
     0
370
     0
100
AcDbLine
 10
146.957233
 20
228.677168
 30
0.0
 11
146.957233
 21
210.677168
 31
0.0
  0
ARC
  5
94
330
70
100
AcDbEntity
  8
0
  6
Continuous
 62
     0
370
    30
100
AcDbCircle
 10
146.957233
 20
211.177168
 30
0.0
 40
0.5
100
AcDbArc
 50
270.0
 51
0.0
  0
LINE
  5
95
330
70
100
AcDbEntity
  8
0
  6
Continuous
 62
     0
370
    30
100
AcDbLine
 10
119.457233
 20
286.177168
 30
0.0
 11
119.457233
 21
236.677168
 31
0.0
  0
LINE
  5
96
330
70
100
AcDbEntity
  8
0
  6
Continuous
 62
     0
370
     0
100
AcDbLine
 10
101.457233
 20
286.177168
 30
0.0
 11
119.457233
 21
286.177168
 31
0.0
  0
ARC
  5
97
330
70
100
AcDbEntity
  8
0
  6
Continuous
 62
     0
370
    30
100
AcDbCircle
 10
118.957233
 20
286.177168
 30
0.0
 40
0.5
100
AcDbArc
 50
0.0
 51
90.0
  0
LINE
  5
98
330
70
100
AcDbEntity
  8
0
  6
Continuous
 62
     0
370
     0
100
AcDbLine
 10
140.360353
 20
291.177168
 30
0.0
 11
80.457233
 21
291.177168
 31
0.0
  0
LINE
  5
99
330
70
100
AcDbEntity
  8
0
  6
Continuous
 62
     0
370
     0
100
AcDbLine
 10
140.457233
 20
291.177168
 30
0.0
 11
140.360353
 21
291.177168
 31
0.0
  0
LINE
  5
9A
330
70
100
AcDbEntity
  8
0
  6
Continuous
 62
     0
370
    30
100
AcDbLine
 10
139.861967
 20
291.677168
 30
0.0
 11
139.957233
 21
291.677168
 31
0.0
  0
LINE
  5
9B
330
70
100
AcDbEntity
  8
0
  6
Continuous
 62
     0
370
    30
100
AcDbLine
 10
80.957233
 20
291.677168
 30
0.0
 11
139.861967
 21
291.677168
 31
0.0
  0
LINE
  5
9C
330
70
100
AcDbEntity
  8
0
  6
Continuous
 62
     0
370
     0
100
AcDbLine
 10
80.457233
 20
287.177168
 30
0.0
 11
140.360353
 21
287.177168
 31
0.0
  0
LINE
  5
9D
330
70
100
AcDbEntity
  8
0
  6
Continuous
 62
     0
370
     0
100
AcDbLine
 10
140.360353
 20
287.177168
 30
0.0
 11
140.457233
 21
287.177168
 31
0.0
  0
LINE
  5
9E
330
70
100
AcDbEntity
  8
0
  6
Continuous
 62
     0
370
    30
100
AcDbLine
 10
139.861967
 20
286.677168
 30
0.0
 11
80.957233
 21
286.677168
 31
0.0
  0
LINE
  5
9F
330
70
100
AcDbEntity
  8
0
  6
Continuous
 62
     0
370
    30
100
AcDbLine
 10
139.957233
 20
286.677168
 30
0.0
 11
139.861967
 21
286.677168
 31
0.0
  0
ARC
  5
A0
330
70
100
AcDbEntity
  8
0
  6
Continuous
 62
     0
370
    30
100
AcDbCircle
 10
80.957248
 20
287.177183
 30
0.0
 40
0.5000150271930148
100
AcDbArc
 50
180.001722
 51
269.998278
  0
ARC
  5
A1
330
70
100
AcDbEntity
  8
0
  6
Continuous
 62
     0
370
    30
100
AcDbCircle
 10
139.957218
 20
287.177183
 30
0.0
 40
0.5000150271534152
100
AcDbArc
 50
270.001722
 51
359.998278
  0
LINE
  5
A2
330
70
100
AcDbEntity
  8
0
  6
Continuous
 62
     0
370
    30
100
AcDbLine
 10
80.457233
 20
287.177168
 30
0.0
 11
80.457233
 21
291.177168
 31
0.0
  0
LINE
  5
A3
330
70
100
AcDbEntity
  8
0
  6
Continuous
 62
     0
370
    30
100
AcDbLine
 10
140.457233
 20
287.177168
 30
0.0
 11
140.457233
 21
291.177168
 31
0.0
  0
ARC
  5
A4
330
70
100
AcDbEntity
  8
0
  6
Continuous
 62
     0
370
    30
100
AcDbCircle
 10
80.957248
 20
291.177153
 30
0.0
 40
0.5000149691707771
100
AcDbArc
 50
90.009818
 51
179.998285
  0
ARC
  5
A5
330
70
100
AcDbEntity
  8
0
  6
Continuous
 62
     0
370
    30
100
AcDbCircle
 10
139.957218
 20
291.177153
 30
0.0
 40
0.5000149691603234
100
AcDbArc
 50
0.001715
 51
89.990182
  0
ARC
  5
A6
330
70
100
AcDbEntity
  8
0
  6
Continuous
 62
     0
370
    30
100
AcDbCircle
 10
101.957237
 20
286.177164
 30
0.0
 40
0.5000034422801222
100
AcDbArc
 50
90.000394
 51
179.999606
  0
LINE
  5
A7
330
70
100
AcDbEntity
  8
0
  6
Continuous
 62
     0
370
    30
100
AcDbLine
 10
101.457233
 20
236.676176
 30
0.0
 11
101.457233
 21
286.177168
 31
0.0
  0
ARC
  5
A8
330
70
100
AcDbEntity
  8
0
  6
Continuous
 62
     0
370
    30
100
AcDbCircle
 10
146.95723
 20
228.177164
 30
0.0
 40
0.5000034422917867
100
AcDbArc
 50
0.000394
 51
89.999606
  0
LINE
  5
A9
330
70
100
AcDbEntity
  8
0
  6
Continuous
 62
     0
370
    30
100
AcDbLine
 10
73.957233
 20
228.677168
 30
0.0
 11
93.458225
 21
228.677168
 31
0.0
  0
LINE
  5
AA
330
70
100
AcDbEntity
  8
0
  6
Continuous
 62
     0
370
    30
100
AcDbLine
 10
127.457233
 20
228.677168
 30
0.0
 11
146.957233
 21
228.677168
 31
0.0
  0
ARC
  5
AB
330
70
100
AcDbEntity
  8
0
  6
Continuous
 62
     0
370
    30
100
AcDbCircle
 10
73.957236
 20
228.177165
 30
0.0
 40
0.5000027707159027
100
AcDbArc
 50
90.000317
 51
179.988223
  0
ARC
  5
AC
330
70
100
AcDbEntity
  8
0
  6
Continuous
 62
     0
370
    30
100
AcDbCircle
 10
93.457278
 20
236.677124
 30
0.0
 40
8.000007004865031
100
AcDbArc
 50
270.000376
 51
359.999624
  0
LINE
  5
AD
330
70
100
AcDbEntity
  8
0
  6
Continuous
 62
     0
370
    30
100
AcDbLine
 10
523.457233
 20
210.677168
 30
0.0
 11
147.457233
 21
210.677168
 31
0.0
  0
LINE
  5
AE
330
70
100
AcDbEntity
  8
0
  6
Continuous
 62
     0
370
    30
100
AcDbLine
 10
523.457233
 20
228.677168
 30
0.0
 11
147.457233
 21
228.677168
 31
0.0
  0
ARC
  5
AF
330
70
100
AcDbEntity
  8
0
  6
Continuous
 62
     0
370
    30
100
AcDbCircle
 10
530.957248
 20
287.177183
 30
0.0
 40
0.5000150271636401
100
AcDbArc
 50
180.001722
 51
269.998278
  0
LINE
  5
B0
330
70
100
AcDbEntity
  8
0
  6
Continuous
 62
     0
370
    30
100
AcDbLine
 10
530.457233
 20
287.177168
 30
0.0
 11
530.457233
 21
291.177168
 31
0.0
  0
ARC
  5
B1
330
70
100
AcDbEntity
  8
0
  6
Continuous
 62
     0
370
    30
100
AcDbCircle
 10
530.957248
 20
291.177153
 30
0.0
 40
0.5000149691619085
100
AcDbArc
 50
90.009818
 51
179.998285
  0
ARC
  5
B2
330
70
100
AcDbEntity
  8
0
  6
Continuous
 62
     0
370
    30
100
AcDbCircle
 10
568.95723
 20
286.177164
 30
0.0
 40
0.5000034422899846
100
AcDbArc
 50
0.000394
 51
89.999606
  0
LINE
  5
B3
330
70
100
AcDbEntity
  8
0
  6
Continuous
 62
     0
370
    30
100
AcDbLine
 10
569.457233
 20
236.676176
 30
0.0
 11
569.457233
 21
286.177168
 31
0.0
  0
ARC
  5
B4
330
70
100
AcDbEntity
  8
0
  6
Continuous
 62
     0
370
    30
100
AcDbCircle
 10
523.957237
 20
228.177164
 30
0.0
 40
0.5000034422905548
100
AcDbArc
 50
90.000394
 51
179.999606
  0
LINE
  5
B5
330
70
100
AcDbEntity
  8
0
  6
Continuous
 62
     0
370
    30
100
AcDbLine
 10
596.957233
 20
228.677168
 30
0.0
 11
577.456242
 21
228.677168
 31
0.0
  0
LINE
  5
B6
330
70
100
AcDbEntity
  8
0
  6
Continuous
 62
     0
370
    30
100
AcDbLine
 10
543.457233
 20
228.677168
 30
0.0
 11
523.957233
 21
228.677168
 31
0.0
  0
ARC
  5
B7
330
70
100
AcDbEntity
  8
0
  6
Continuous
 62
     0
370
    30
100
AcDbCircle
 10
596.957231
 20
228.177165
 30
0.0
 40
0.5000027706758232
100
AcDbArc
 50
0.011777
 51
89.999683
  0
ARC
  5
B8
330
70
100
AcDbEntity
  8
0
  6
Continuous
 62
     0
370
    30
100
AcDbCircle
 10
577.457189
 20
236.677124
 30
0.0
 40
8.000007004850517
100
AcDbArc
 50
180.000376
 51
269.999624
  0
ENDBLK
  5
BA
330
70
100
AcDbEntity
  8
0
100
AcDbBlockEnd
  0
BLOCK
  5
D6
330
BC
100
AcDbEntity
  8
0
100
AcDbBlockBegin
  2
c
 70
     0
 10
36.997002
 20
246.098053
 30
0.0
  3
c
  1

  0
LWPOLYLINE
  5
BD
330
BC
100
AcDbEntity
  8
0
  6
Continuous
 62
     0
370
     0
100
AcDbPolyline
 90
       41
 70
     0
 43
0.0
 10
757.063599
 20
643.322815
 10
755.916443
 20
643.343262
 10
754.771912
 20
643.404846
 10
753.632751
 20
643.507935
 10
752.50177
 20
643.652893
 10
751.381958
 20
643.840332
 10
750.276672
 20
644.071167
 10
749.189697
 20
644.346375
 10
748.125366
 20
644.667236
 10
747.088501
 20
645.035034
 10
746.084839
 20
645.451355
 10
745.121277
 20
645.917603
 10
744.205566
 20
646.435303
 10
743.347534
 20
647.005554
 10
742.558716
 20
647.629028
 10
741.851379
 20
648.305542
 10
741.240662
 20
649.032227
 10
740.742249
 20
649.805481
 10
740.371399
 20
650.617981
 10
740.142151
 20
651.459229
 10
740.063721
 20
652.315796
 10
740.139587
 20
653.172363
 10
740.366455
 20
654.014038
 10
740.735046
 20
654.827087
 10
741.231567
 20
655.601135
 10
741.840637
 20
656.328918
 10
742.546326
 20
657.00592
 10
743.33429
 20
657.63031
 10
744.191162
 20
658.201416
 10
745.105774
 20
658.719971
 10
746.068481
 20
659.187012
 10
747.071716
 20
659.604126
 10
748.108032
 20
659.972839
 10
749.171875
 20
660.294434
 10
750.258667
 20
660.570374
 10
751.36377
 20
660.80188
 10
752.483276
 20
660.990051
 10
753.614136
 20
661.13562
 10
754.753235
 20
661.239319
 10
755.897705
 20
661.301636
 10
757.063599
 20
661.322815
  0
ARC
  5
BE
330
BC
100
AcDbEntity
  8
0
  6
Continuous
 62
     0
370
     0
100
AcDbCircle
 10
757.063619
 20
652.322815
 30
0.0
 40
8.5
100
AcDbArc
 50
0.0
 51
180.0
  0
ARC
  5
BF
330
BC
100
AcDbEntity
  8
0
  6
Continuous
 62
     0
370
     0
100
AcDbCircle
 10
757.063619
 20
652.322815
 30
0.0
 40
8.5
100
AcDbArc
 50
180.0
 51
0.0
  0
ARC
  5
C0
330
BC
100
AcDbEntity
  8
0
  6
Continuous
 62
     0
370
    30
100
AcDbCircle
 10
757.063619
 20
652.322815
 30
0.0
 40
9.0
100
AcDbArc
 50
0.0
 51
180.0
  0
ARC
  5
C1
330
BC
100
AcDbEntity
  8
0
  6
Continuous
 62
     0
370
    30
100
AcDbCircle
 10
757.063619
 20
652.322815
 30
0.0
 40
9.0
100
AcDbArc
 50
180.0
 51
0.0
  0
LINE
  5
C2
330
BC
100
AcDbEntity
  8
0
  6
Continuous
 62
     0
370
     0
100
AcDbLine
 10
690.563617
 20
652.322815
 30
0.0
 11
690.563617
 21
661.322815
 31
0.0
  0
LINE
  5
C3
330
BC
100
AcDbEntity
  8
0
  6
Continuous
 62
     0
370
     0
100
AcDbLine
 10
690.563617
 20
643.322815
 30
0.0
 11
690.563617
 21
652.322815
 31
0.0
  0
LINE
  5
C4
330
BC
100
AcDbEntity
  8
0
  6
Continuous
 62
     0
370
     0
100
AcDbLine
 10
685.563617
 20
682.322815
 30
0.0
 11
685.563618
 21
649.913778
 31
0.0
  0
LINE
  5
C5
330
BC
100
AcDbEntity
  8
0
  6
Continuous
 62
     0
370
     0
100
AcDbLine
 10
685.563618
 20
649.913778
 30
0.0
 11
685.563617
 21
622.322815
 31
0.0
  0
LWPOLYLINE
  5
C6
330
BC
100
AcDbEntity
  8
0
  6
Continuous
 62
     0
370
    30
100
AcDbPolyline
 90
       22
 70
     0
 43
0.0
 10
685.063599
 20
622.822815
 10
685.063599
 20
622.887634
 10
685.063599
 20
623.087708
 10
685.063599
 20
623.430298
 10
685.063599
 20
623.921021
 10
685.063599
 20
624.563538
 10
685.063599
 20
625.359314
 10
685.063599
 20
626.307251
 10
685.063599
 20
627.40387
 10
685.063599
 20
628.642944
 10
685.063599
 20
630.015869
 10
685.063599
 20
631.511658
 10
685.063599
 20
633.117432
 10
685.063599
 20
634.81842
 10
685.063599
 20
636.598999
 10
685.063599
 20
638.442383
 10
685.063599
 20
640.331909
 10
685.063599
 20
642.250793
 10
685.063599
 20
644.182983
 10
685.063599
 20
646.113342
 10
685.063599
 20
648.027954
 10
685.063599
 20
649.953918
  0
LINE
  5
C7
330
BC
100
AcDbEntity
  8
0
  6
Continuous
 62
     0
370
    30
100
AcDbLine
 10
685.063618
 20
649.953929
 30
0.0
 11
685.063617
 21
681.822815
 31
0.0
  0
LINE
  5
C8
330
BC
100
AcDbEntity
  8
0
  6
Continuous
 62
     0
370
     0
100
AcDbLine
 10
689.563617
 20
649.913778
 30
0.0
 11
689.563617
 21
682.322815
 31
0.0
  0
LINE
  5
C9
330
BC
100
AcDbEntity
  8
0
  6
Continuous
 62
     0
370
     0
100
AcDbLine
 10
689.563617
 20
622.322815
 30
0.0
 11
689.563617
 21
649.913778
 31
0.0
  0
LINE
  5
CA
330
BC
100
AcDbEntity
  8
0
  6
Continuous
 62
     0
370
    30
100
AcDbLine
 10
690.063617
 20
681.822815
 30
0.0
 11
690.063618
 21
649.953929
 31
0.0
  0
LINE
  5
CB
330
BC
100
AcDbEntity
  8
0
  6
Continuous
 62
     0
370
    30
100
AcDbLine
 10
690.063618
 20
649.953929
 30
0.0
 11
690.063617
 21
622.822815
 31
0.0
  0
ARC
  5
CC
330
BC
100
AcDbEntity
  8
0
  6
Continuous
 62
     0
370
    30
100
AcDbCircle
 10
689.563602
 20
681.8228
 30
0.0
 40
0.5000150271659886
100
AcDbArc
 50
0.001722
 51
89.998278
  0
ARC
  5
CD
330
BC
100
AcDbEntity
  8
0
  6
Continuous
 62
     0
370
    30
100
AcDbCircle
 10
689.563602
 20
622.82283
 30
0.0
 40
0.5000150271675073
100
AcDbArc
 50
270.001722
 51
359.998278
  0
LINE
  5
CE
330
BC
100
AcDbEntity
  8
0
  6
Continuous
 62
     0
370
    30
100
AcDbLine
 10
689.563617
 20
682.322815
 30
0.0
 11
685.563617
 21
682.322815
 31
0.0
  0
LINE
  5
CF
330
BC
100
AcDbEntity
  8
0
  6
Continuous
 62
     0
370
    30
100
AcDbLine
 10
689.563617
 20
622.322815
 30
0.0
 11
685.563617
 21
622.322815
 31
0.0
  0
ARC
  5
D0
330
BC
100
AcDbEntity
  8
0
  6
Continuous
 62
     0
370
    30
100
AcDbCircle
 10
685.563632
 20
681.8228
 30
0.0
 40
0.5000149691636901
100
AcDbArc
 50
90.001715
 51
179.990182
  0
ARC
  5
D1
330
BC
100
AcDbEntity
  8
0
  6
Continuous
 62
     0
370
    30
100
AcDbCircle
 10
685.563632
 20
622.82283
 30
0.0
 40
0.5000149691629475
100
AcDbArc
 50
180.009818
 51
269.998285
  0
ARC
  5
D2
330
BC
100
AcDbEntity
  8
0
  6
Continuous
 62
     0
370
    30
100
AcDbCircle
 10
690.563621
 20
643.822818
 30
0.0
 40
0.5000034422816935
100
AcDbArc
 50
180.000394
 51
269.999606
  0
ARC
  5
D3
330
BC
100
AcDbEntity
  8
0
  6
Continuous
 62
     0
370
    30
100
AcDbCircle
 10
690.563621
 20
660.822811
 30
0.0
 40
0.5000034422826465
100
AcDbArc
 50
90.000394
 51
179.999606
  0
LINE
  5
D4
330
BC
100
AcDbEntity
  8
0
  6
Continuous
 62
     0
370
    30
100
AcDbLine
 10
757.063617
 20
643.322815
 30
0.0
 11
690.563617
 21
643.322815
 31
0.0
  0
LINE
  5
D5
330
BC
100
AcDbEntity
  8
0
  6
Continuous
 62
     0
370
    30
100
AcDbLine
 10
757.063617
 20
661.322815
 30
0.0
 11
690.563617
 21
661.322815
 31
0.0
  0
ENDBLK
  5
D7
330
BC
100
AcDbEntity
  8
0
100
AcDbBlockEnd
  0
BLOCK
  5
12C
330
D9
100
AcDbEntity
  8
0
100
AcDbBlockBegin
  2
d
 70
     0
 10
36.997002
 20
231.266052
 30
0.0
  3
d
  1

  0
LWPOLYLINE
  5
DA
330
D9
100
AcDbEntity
  8
0
  6
Continuous
 62
     0
370
     0
100
AcDbPolyline
 90
       11
 70
     0
 43
0.0
 10
1047.243774
 20
288.661285
 10
1046.86853
 20
288.332916
 10
1046.460327
 20
287.864563
 10
1046.026611
 20
287.274872
 10
1045.57251
 20
286.578156
 10
1045.102661
 20
285.78775
 10
1044.62085
 20
284.914185
 10
1044.130005
 20
283.965912
 10
1043.63269
 20
282.950775
 10
1043.131226
 20
281.874634
 10
1042.625
 20
280.736572
  0
LWPOLYLINE
  5
DB
330
D9
100
AcDbEntity
  8
0
  6
Continuous
 62
     0
370
     0
100
AcDbPolyline
 90
       11
 70
     0
 43
0.0
 10
1038.006104
 20
288.661285
 10
1038.38147
 20
288.332916
 10
1038.789551
 20
287.864563
 10
1039.223267
 20
287.274872
 10
1039.677368
 20
286.578156
 10
1040.147217
 20
285.78775
 10
1040.629028
 20
284.914185
 10
1041.119873
 20
283.965912
 10
1041.617188
 20
282.950775
 10
1042.118652
 20
281.874634
 10
1042.625
 20
280.736572
  0
LWPOLYLINE
  5
DC
330
D9
100
AcDbEntity
  8
0
  6
Continuous
 62
     0
370
     0
100
AcDbPolyline
 90
       11
 70
     0
 43
0.0
 10
1042.625
 20
280.736572
 10
1044.251099
 20
280.35788
 10
1045.87085
 20
279.93045
 10
1047.477295
 20
279.45517
 10
1049.063354
 20
278.932739
 10
1050.620728
 20
278.363525
 10
1052.139648
 20
277.747894
 10
1053.608765
 20
277.086212
 10
1055.013794
 20
276.379242
 10
1056.33728
 20
275.628326
 10
1057.680786
 20
274.749237
  0
LWPOLYLINE
  5
DD
330
D9
100
AcDbEntity
  8
0
  6
Continuous
 62
     0
370
     0
100
AcDbPolyline
 90
       28
 70
     0
 43
0.0
 10
1042.625
 20
280.736572
 10
1043.795898
 20
280.978455
 10
1044.964478
 20
281.193909
 10
1046.128174
 20
281.382202
 10
1047.284546
 20
281.542572
 10
1048.430786
 20
281.674072
 10
1049.563843
 20
281.775604
 10
1050.680786
 20
281.845825
 10
1051.777466
 20
281.88324
 10
1052.849854
 20
281.886169
 10
1053.893188
 20
281.852753
 10
1054.901855
 20
281.780823
 10
1055.869019
 20
281.66803
 10
1056.787476
 20
281.511932
 10
1057.647217
 20
281.309875
 10
1058.43811
 20
281.059235
 10
1059.148315
 20
280.757782
 10
1059.763916
 20
280.404358
 10
1060.27063
 20
279.998016
 10
1060.654541
 20
279.540161
 10
1060.902954
 20
279.03418
 10
1061.006592
 20
278.485931
 10
1060.961914
 20
277.903656
 10
1060.770142
 20
277.2966
 10
1060.438843
 20
276.674896
 10
1059.979248
 20
276.04776
 10
1059.405151
 20
275.42337
 10
1058.713623
 20
274.793335
  0
ELLIPSE
  5
DE
330
D9
100
AcDbEntity
  8
0
  6
Continuous
 62
     0
370
     0
100
AcDbEllipse
 10
1068.7879
 20
255.872605
 30
0.0
 11
-4.907477633398217
 21
-6.940220693731306
 31
0.0
210
0.0
220
0.0
230
-0.9999999999999998
 40
0.5
 41
3.757072262757178
 42
6.898664916346966
  0
ELLIPSE
  5
DF
330
D9
100
AcDbEntity
  8
0
  6
Continuous
 62
     0
370
     0
100
AcDbEllipse
 10
1068.7879
 20
255.872605
 30
0.0
 11
-4.907477633398217
 21
-6.940220693731306
 31
0.0
210
0.0
220
0.0
230
-0.9999999999999998
 40
0.5
 41
0.6154796091673802
 42
3.757072262757178
  0
ELLIPSE
  5
E0
330
D9
100
AcDbEntity
  8
0
  6
Continuous
 62
     0
370
     0
100
AcDbEllipse
 10
1068.434347
 20
256.122605
 30
0.0
 11
-5.196152788303994
 21
-7.348468969833148
 31
0.0
210
0.0
220
0.0
230
-0.9999999999999998
 40
0.5
 41
6.280169613033239
 42
6.898664916346966
  0
ELLIPSE
  5
E1
330
D9
100
AcDbEntity
  8
0
  6
Continuous
 62
     0
370
     0
100
AcDbEllipse
 10
1068.434347
 20
256.122605
 30
0.0
 11
-5.196152788303994
 21
-7.348468969833148
 31
0.0
210
0.0
220
0.0
230
-0.9999999999999998
 40
0.5
 41
0.6154796091673798
 42
3.144856569906005
  0
ELLIPSE
  5
E2
330
D9
100
AcDbEntity
  8
0
  6
Continuous
 62
     0
370
     0
100
AcDbEllipse
 10
1016.815551
 20
292.62261
 30
0.0
 11
-5.196152788303994
 21
-7.348468969833148
 31
0.0
210
0.0
220
0.0
230
-0.9999999999999998
 40
0.5
 41
0.0000000169224556
 42
0.6154796091673796
  0
ELLIPSE
  5
E3
330
D9
100
AcDbEntity
  8
0
  6
Continuous
 62
     0
370
     0
100
AcDbEllipse
 10
1016.815551
 20
292.62261
 30
0.0
 11
-5.196152788303994
 21
-7.348468969833148
 31
0.0
210
0.0
220
0.0
230
-0.9999999999999998
 40
0.5
 41
0.6154796091673796
 42
3.141592670512252
  0
ELLIPSE
  5
E4
330
D9
100
AcDbEntity
  8
0
  6
Continuous
 62
     0
370
     0
100
AcDbEllipse
 10
1089.647549
 20
307.622612
 30
0.0
 11
-5.196152891542255
 21
7.348468896832665
 31
0.0
210
0.0
220
0.0
230
-1.0
 40
0.5
 41
2.526113072520309
 42
3.141592644735077
  0
ELLIPSE
  5
E5
330
D9
100
AcDbEntity
  8
0
  6
Continuous
 62
     0
370
     0
100
AcDbEllipse
 10
1089.647549
 20
307.622612
 30
0.0
 11
-5.196152891542255
 21
7.348468896832665
 31
0.0
210
0.0
220
0.0
230
-1.0
 40
0.5
 41
6.283185298324875
 42
8.809298379699896
  0
LWPOLYLINE
  5
E6
330
D9
100
AcDbEntity
  8
0
  6
Continuous
 62
     0
370
     0
100
AcDbPolyline
 90
       10
 70
     0
 43
0.0
 10
1110.50354
 20
285.627716
 10
1111.342651
 20
286.316956
 10
1112.080933
 20
287.122864
 10
1112.715576
 20
288.035767
 10
1113.245728
 20
289.0448
 10
1113.671753
 20
290.138245
 10
1113.995972
 20
291.303864
 10
1114.221558
 20
292.529266
 10
1114.353271
 20
293.802124
 10
1114.39624
 20
295.12262
  0
LWPOLYLINE
  5
E7
330
D9
100
AcDbEntity
  8
0
  6
Continuous
 62
     0
370
     0
100
AcDbPolyline
 90
       38
 70
     0
 43
0.0
 10
1114.39624
 20
295.12262
 10
1114.355591
 20
296.465729
 10
1114.229492
 20
297.895416
 10
1114.013062
 20
299.407745
 10
1113.701782
 20
300.997223
 10
1113.29248
 20
302.656738
 10
1112.783081
 20
304.377655
 10
1112.172729
 20
306.149811
 10
1111.46228
 20
307.961731
 10
1110.653931
 20
309.800751
 10
1109.751831
 20
311.653381
 10
1108.761353
 20
313.505554
 10
1107.689453
 20
315.342926
 10
1106.544312
 20
317.151367
 10
1105.335205
 20
318.917236
 10
1104.072388
 20
320.627747
 10
1102.766479
 20
322.271271
 10
1101.428345
 20
323.837524
 10
1100.069214
 20
325.317871
 10
1098.699585
 20
326.705292
 10
1097.32959
 20
327.994537
 10
1095.968994
 20
329.182129
 10
1094.626221
 20
330.266174
 10
1093.309082
 20
331.246307
 10
1091.997437
 20
332.141022
 10
1090.659058
 20
332.969849
 10
1089.30127
 20
333.722473
 10
1087.932495
 20
334.388489
 10
1086.562012
 20
334.957855
 10
1085.199951
 20
335.421265
 10
1083.856934
 20
335.770355
 10
1082.543945
 20
335.997986
 10
1081.271851
 20
336.098541
 10
1080.051514
 20
336.068237
 10
1078.893188
 20
335.90506
 10
1077.806396
 20
335.609192
 10
1076.799561
 20
335.182678
 10
1075.862549
 20
334.617493
  0
ELLIPSE
  5
E8
330
D9
100
AcDbEntity
  8
0
  6
Continuous
 62
     0
370
     0
100
AcDbEllipse
 10
1090.354656
 20
308.122612
 30
0.0
 11
-17.32050963847418
 21
24.49489632277555
 31
0.0
210
0.0
220
0.0
230
-1.0
 40
0.5
 41
2.526113072520311
 42
3.14159264473508
  0
ELLIPSE
  5
E9
330
D9
100
AcDbEntity
  8
0
  6
Continuous
 62
     0
370
     0
100
AcDbEllipse
 10
1090.354656
 20
308.122612
 30
0.0
 11
-17.32050963847418
 21
24.49489632277555
 31
0.0
210
0.0
220
0.0
230
-1.0
 40
0.5
 41
6.283183671075255
 42
8.809298379699896
  0
LWPOLYLINE
  5
EA
330
D9
100
AcDbEntity
  8
0
  6
Continuous
 62
     0
370
     0
100
AcDbPolyline
 90
       29
 70
     0
 43
0.0
 10
1083.728149
 20
292.414215
 10
1085.065918
 20
291.09491
 10
1086.400513
 20
289.87207
 10
1087.723145
 20
288.748505
 10
1089.025635
 20
287.725525
 10
1090.302856
 20
286.801758
 10
1091.592041
 20
285.948761
 10
1092.905029
 20
285.162689
 10
1094.234375
 20
284.453644
 10
1095.571655
 20
283.831543
 10
1096.907715
 20
283.305847
 10
1098.232544
 20
282.885254
 10
1099.535889
 20
282.577515
 10
1100.807373
 20
282.389069
 10
1102.036255
 20
282.32486
 10
1103.21228
 20
282.388092
 10
1104.325806
 20
282.580139
 10
1105.368042
 20
282.900421
 10
1106.330933
 20
283.346405
 10
1107.208008
 20
283.913666
 10
1107.994141
 20
284.5961
 10
1108.685425
 20
285.385986
 10
1109.279663
 20
286.274323
 10
1109.776245
 20
287.251099
 10
1110.175903
 20
288.305573
 10
1110.480469
 20
289.426605
 10
1110.693237
 20
290.602844
 10
1110.818359
 20
291.823151
 10
1110.860718
 20
293.12262
  0
LWPOLYLINE
  5
EB
330
D9
100
AcDbEntity
  8
0
  6
Continuous
 62
     0
370
     0
100
AcDbPolyline
 90
       10
 70
     0
 43
0.0
 10
1069.141479
 20
322.62262
 10
1069.186157
 20
321.226685
 10
1069.324463
 20
319.736176
 10
1069.562378
 20
318.155792
 10
1069.904663
 20
316.492157
 10
1070.354858
 20
314.753815
 10
1070.915161
 20
312.951202
 10
1071.585693
 20
311.096497
 10
1072.36499
 20
309.203461
 10
1073.335815
 20
307.111145
  0
LWPOLYLINE
  5
EC
330
D9
100
AcDbEntity
  8
0
  6
Continuous
 62
     0
370
     0
100
AcDbPolyline
 90
       46
 70
     0
 43
0.0
 10
1110.860718
 20
293.12262
 10
1110.818481
 20
294.479492
 10
1110.687744
 20
295.925964
 10
1110.463013
 20
297.457794
 10
1110.139771
 20
299.069031
 10
1109.714722
 20
300.751953
 10
1109.185669
 20
302.497162
 10
1108.552124
 20
304.293671
 10
1107.815186
 20
306.129028
 10
1106.977661
 20
307.989563
 10
1106.044067
 20
309.860748
 10
1105.020752
 20
311.727539
 10
1103.915283
 20
313.574707
 10
1102.736938
 20
315.387329
 10
1101.495972
 20
317.151184
 10
1100.203369
 20
318.853058
 10
1098.870483
 20
320.48111
 10
1097.509277
 20
322.025116
 10
1096.131104
 20
323.476624
 10
1094.747314
 20
324.829041
 10
1093.368286
 20
326.077728
 10
1092.003662
 20
327.219849
 10
1090.662231
 20
328.254303
 10
1089.342896
 20
329.187286
 10
1088.001465
 20
330.05014
 10
1086.636963
 20
330.838013
 10
1085.257935
 20
331.539764
 10
1083.874146
 20
332.144562
 10
1082.495972
 20
332.642273
 10
1081.134644
 20
333.023621
 10
1079.801758
 20
333.280731
 10
1078.509033
 20
333.407288
 10
1077.267944
 20
333.398773
 10
1076.089478
 20
333.252838
 10
1074.983887
 20
332.969238
 10
1073.960327
 20
332.550018
 10
1073.026489
 20
331.999359
 10
1072.188843
 20
331.323547
 10
1071.45166
 20
330.53064
 10
1070.817871
 20
329.630341
 10
1070.288574
 20
328.633514
 10
1069.863159
 20
327.551941
 10
1069.539795
 20
326.397949
 10
1069.314819
 20
325.184021
 10
1069.183838
 20
323.922546
 10
1069.141479
 20
322.62262
  0
ELLIPSE
  5
ED
330
D9
100
AcDbEntity
  8
0
  6
Continuous
 62
     0
370
    30
100
AcDbEllipse
 10
1016.461997
 20
292.87261
 30
0.0
 11
-5.196152788303994
 21
-7.348468969833148
 31
0.0
210
0.0
220
0.0
230
-0.9999999999999998
 40
0.5
 41
6.236771949226651
 42
8.469461243141865
  0
ELLIPSE
  5
EE
330
D9
100
AcDbEntity
  8
0
  6
Continuous
 62
     0
370
    30
100
AcDbEllipse
 10
1016.461997
 20
292.87261
 30
0.0
 11
-5.196152788303994
 21
-7.348468969833148
 31
0.0
210
0.0
220
0.0
230
-0.9999999999999998
 40
0.5
 41
2.186275935962279
 42
3.187960698216047
  0
ELLIPSE
  5
EF
330
D9
100
AcDbEntity
  8
0
  6
Continuous
 62
     0
370
    30
100
AcDbEllipse
 10
750.589844
 20
480.872632
 30
0.0
 11
5.196152788303994
 21
7.348468969833148
 31
0.0
210
0.0
220
0.0
230
0.9999999999999998
 40
0.5
 41
6.283185290257132
 42
7.238502024807101
  0
ELLIPSE
  5
F0
330
D9
100
AcDbEntity
  8
0
  6
Continuous
 62
     0
370
    30
100
AcDbEllipse
 10
750.589844
 20
480.872632
 30
0.0
 11
5.196152788303994
 21
7.348468969833148
 31
0.0
210
0.0
220
0.0
230
0.9999999999999998
 40
0.5
 41
0.9553167176275146
 42
3.141592636667335
  0
LWPOLYLINE
  5
F1
330
D9
100
AcDbEntity
  8
0
  6
Continuous
 62
     0
370
     0
100
AcDbPolyline
 90
       11
 70
     0
 43
0.0
 10
724.42688
 20
505.736603
 10
726.044067
 20
505.360168
 10
727.654907
 20
504.935577
 10
729.252563
 20
504.463562
 10
730.830139
 20
503.944946
 10
732.379639
 20
503.380096
 10
733.891602
 20
502.769287
 10
735.354309
 20
502.112946
 10
736.754517
 20
501.411774
 10
738.075073
 20
500.667084
 10
739.437988
 20
499.780884
  0
ELLIPSE
  5
F2
330
D9
100
AcDbEntity
  8
0
  6
Continuous
 62
     0
370
     0
100
AcDbEllipse
 10
748.468523
 20
499.372635
 30
0.0
 11
7.999999999999998
 21
-1.685874275736410E-7
 31
0.0
210
0.0
220
0.0
230
-1.0
 40
0.707107
 41
3.1413045718141
 42
3.926990787184917
  0
LWPOLYLINE
  5
F3
330
D9
100
AcDbEntity
  8
0
  6
Continuous
 62
     0
370
     0
100
AcDbPolyline
 90
       22
 70
     0
 43
0.0
 10
724.42688
 20
505.736603
 10
725.608093
 20
505.980499
 10
726.786804
 20
506.19754
 10
727.96051
 20
506.386902
 10
729.126526
 20
506.547699
 10
730.282166
 20
506.679138
 10
731.424377
 20
506.78006
 10
732.549866
 20
506.84906
 10
733.654785
 20
506.884644
 10
734.734497
 20
506.884949
 10
735.78418
 20
506.848083
 10
736.798035
 20
506.771851
 10
737.769226
 20
506.65387
 10
738.689331
 20
506.491486
 10
739.549133
 20
506.282013
 10
740.337463
 20
506.022949
 10
741.041626
 20
505.712067
 10
741.647766
 20
505.347748
 10
742.141113
 20
504.929749
 10
742.507019
 20
504.459869
 10
742.733093
 20
503.941711
 10
742.811646
 20
503.37265
  0
LWPOLYLINE
  5
F4
330
D9
100
AcDbEntity
  8
0
  6
Continuous
 62
     0
370
     0
100
AcDbPolyline
 90
        7
 70
     0
 43
0.0
 10
742.811646
 20
503.37265
 10
742.742798
 20
502.808197
 10
742.539551
 20
502.222534
 10
742.208252
 20
501.624329
 10
741.759644
 20
501.021881
 10
741.205811
 20
500.42215
 10
740.515503
 20
499.793304
  0
LWPOLYLINE
  5
F5
330
D9
100
AcDbEntity
  8
0
  6
Continuous
 62
     0
370
     0
100
AcDbPolyline
 90
       11
 70
     0
 43
0.0
 10
719.806641
 20
513.662354
 10
720.182068
 20
513.334229
 10
720.590149
 20
512.866333
 10
721.02417
 20
512.276306
 10
721.478394
 20
511.579803
 10
721.948303
 20
510.789337
 10
722.43042
 20
509.915192
 10
722.921448
 20
508.966736
 10
723.419006
 20
507.950989
 10
723.920654
 20
506.87439
 10
724.42688
 20
505.736603
  0
LWPOLYLINE
  5
F6
330
D9
100
AcDbEntity
  8
0
  6
Continuous
 62
     0
370
     0
100
AcDbPolyline
 90
       11
 70
     0
 43
0.0
 10
729.047119
 20
513.662354
 10
728.671692
 20
513.334229
 10
728.263611
 20
512.866333
 10
727.82959
 20
512.276306
 10
727.375427
 20
511.579803
 10
726.905518
 20
510.789337
 10
726.423401
 20
509.915192
 10
725.932312
 20
508.966736
 10
725.434753
 20
507.950989
 10
724.933105
 20
506.87439
 10
724.42688
 20
505.736603
  0
LWPOLYLINE
  5
F7
330
D9
100
AcDbEntity
  8
0
  6
Continuous
 62
     0
370
     0
100
AcDbPolyline
 90
        2
 70
     0
 43
0.0
 10
728.598999
 20
504.662933
 10
729.104919
 20
506.544983
  0
ELLIPSE
  5
F8
330
D9
100
AcDbEntity
  8
0
  6
Continuous
 62
     0
370
     0
100
AcDbEllipse
 10
698.617495
 20
517.622637
 30
0.0
 11
5.196152788303994
 21
7.348468969833148
 31
0.0
210
0.0
220
0.0
230
0.9999999999999998
 40
0.5
 41
6.283185290257123
 42
8.809298351602
  0
ELLIPSE
  5
F9
330
D9
100
AcDbEntity
  8
0
  6
Continuous
 62
     0
370
     0
100
AcDbEllipse
 10
698.617495
 20
517.622637
 30
0.0
 11
5.196152788303994
 21
7.348468969833148
 31
0.0
210
0.0
220
0.0
230
0.9999999999999998
 40
0.5
 41
2.526113044422414
 42
3.141592636667338
  0
ELLIPSE
  5
FA
330
D9
100
AcDbEntity
  8
0
  6
Continuous
 62
     0
370
     0
100
AcDbEllipse
 10
750.23629
 20
481.122632
 30
0.0
 11
5.196152788303994
 21
7.348468969833148
 31
0.0
210
0.0
220
0.0
230
0.9999999999999998
 40
0.5
 41
6.23505417655509
 42
8.809298351601996
  0
ELLIPSE
  5
FB
330
D9
100
AcDbEntity
  8
0
  6
Continuous
 62
     0
370
     0
100
AcDbEllipse
 10
750.23629
 20
481.122632
 30
0.0
 11
5.196152788303994
 21
7.348468969833148
 31
0.0
210
0.0
220
0.0
230
0.9999999999999998
 40
0.5
 41
2.526113044422409
 42
3.189723750369431
  0
ELLIPSE
  5
FC
330
D9
100
AcDbEntity
  8
0
  6
Continuous
 62
     0
370
     0
100
AcDbEllipse
 10
771.449493
 20
532.622639
 30
0.0
 11
-5.196152891542255
 21
7.348468896832665
 31
0.0
210
0.0
220
0.0
230
-1.0
 40
0.5
 41
6.283185298324874
 42
8.809298379699898
  0
ELLIPSE
  5
FD
330
D9
100
AcDbEntity
  8
0
  6
Continuous
 62
     0
370
     0
100
AcDbEllipse
 10
771.449493
 20
532.622639
 30
0.0
 11
-5.196152891542255
 21
7.348468896832665
 31
0.0
210
0.0
220
0.0
230
-1.0
 40
0.5
 41
2.526113072520312
 42
3.141592644735085
  0
LWPOLYLINE
  5
FE
330
D9
100
AcDbEntity
  8
0
  6
Continuous
 62
     0
370
     0
100
AcDbPolyline
 90
       37
 70
     0
 43
0.0
 10
796.1297
 20
521.874512
 10
795.984253
 20
523.27948
 10
795.752258
 20
524.764832
 10
795.429321
 20
526.325806
 10
795.011841
 20
527.956238
 10
794.497253
 20
529.648376
 10
793.884338
 20
531.392883
 10
793.173157
 20
533.179199
 10
792.365295
 20
534.995422
 10
791.463867
 20
536.828735
 10
790.473633
 20
538.665466
 10
789.400696
 20
540.491638
 10
788.252563
 20
542.293152
 10
787.038025
 20
544.056274
 10
785.766724
 20
545.767761
 10
784.449158
 20
547.415527
 10
783.096069
 20
548.988525
 10
781.718567
 20
550.477417
 10
780.327576
 20
551.874329
 10
778.933533
 20
553.173096
 10
777.546448
 20
554.369446
 10
776.175476
 20
555.460632
 10
774.828857
 20
556.445679
 10
773.513916
 20
557.325012
 10
772.215027
 20
558.112915
 10
770.896606
 20
558.829102
 10
769.565369
 20
559.464111
 10
768.229919
 20
560.008118
 10
766.899658
 20
560.451782
 10
765.584717
 20
560.786316
 10
764.295532
 20
561.004333
 10
763.042847
 20
561.099426
 10
761.837341
 20
561.066956
 10
760.689453
 20
560.903931
 10
759.608887
 20
560.609375
 10
758.604614
 20
560.184265
 10
757.664551
 20
559.617554
  0
LWPOLYLINE
  5
FF
330
D9
100
AcDbEntity
  8
0
  6
Continuous
 62
     0
370
     0
100
AcDbPolyline
 90
       12
 70
     0
 43
0.0
 10
792.292358
 20
510.618469
 10
793.068237
 20
511.245453
 10
793.760986
 20
511.973663
 10
794.367676
 20
512.796509
 10
794.886475
 20
513.70636
 10
795.316833
 20
514.694641
 10
795.659302
 20
515.75238
 10
795.915344
 20
516.869995
 10
796.087646
 20
518.037842
 10
796.179565
 20
519.246399
 10
796.195129
 20
520.486206
 10
796.1297
 20
521.874512
  0
ELLIPSE
  5
100
330
D9
100
AcDbEntity
  8
0
  6
Continuous
 62
     0
370
     0
100
AcDbEllipse
 10
772.156599
 20
533.122639
 30
0.0
 11
-17.32050963847418
 21
24.49489632277555
 31
0.0
210
0.0
220
0.0
230
-0.9999999999999998
 40
0.5
 41
6.283185145924039
 42
8.728910593054621
  0
ELLIPSE
  5
101
330
D9
100
AcDbEntity
  8
0
  6
Continuous
 62
     0
370
     0
100
AcDbEllipse
 10
772.156599
 20
533.122639
 30
0.0
 11
-17.32050963847418
 21
24.49489632277555
 31
0.0
210
0.0
220
0.0
230
-0.9999999999999998
 40
0.5
 41
2.445725285875036
 42
3.141592644735081
  0
LWPOLYLINE
  5
102
330
D9
100
AcDbEntity
  8
0
  6
Continuous
 62
     0
370
     0
100
AcDbPolyline
 90
       46
 70
     0
 43
0.0
 10
792.595337
 20
519.845337
 10
792.446655
 20
521.269775
 10
792.207581
 20
522.778015
 10
791.873352
 20
524.364807
 10
791.440125
 20
526.023438
 10
790.905396
 20
527.7453
 10
790.267944
 20
529.520264
 10
789.528137
 20
531.336731
 10
788.687988
 20
533.18158
 10
787.751282
 20
535.040894
 10
786.72345
 20
536.899902
 10
785.611572
 20
538.743408
 10
784.424194
 20
540.556335
 10
783.171021
 20
542.324158
 10
781.862793
 20
544.032959
 10
780.510986
 20
545.670288
 10
779.127441
 20
547.224976
 10
777.723877
 20
548.687683
 10
776.31189
 20
550.050964
 10
774.902466
 20
551.309082
 10
773.50592
 20
552.458557
 10
772.131531
 20
553.497437
 10
770.787476
 20
554.425659
 10
769.472412
 20
555.249695
 10
768.142151
 20
555.997192
 10
766.796204
 20
556.662842
 10
765.443604
 20
557.236084
 10
764.094238
 20
557.706543
 10
762.75885
 20
558.06488
 10
761.448608
 20
558.302612
 10
760.175049
 20
558.412903
 10
758.949707
 20
558.390442
 10
757.783752
 20
558.231934
 10
756.687744
 20
557.936157
 10
755.671326
 20
557.50415
 10
754.742859
 20
556.939148
 10
753.909363
 20
556.24646
 10
753.176208
 20
555.433472
 10
752.546997
 20
554.509277
 10
752.02356
 20
553.484375
 10
751.60614
 20
552.370361
 10
751.293213
 20
551.179565
 10
751.081909
 20
549.924805
 10
750.968018
 20
548.618713
 10
750.946289
 20
547.273865
 10
751.010742
 20
545.899963
  0
LWPOLYLINE
  5
103
330
D9
100
AcDbEntity
  8
0
  6
Continuous
 62
     0
370
     0
100
AcDbPolyline
 90
       30
 70
     0
 43
0.0
 10
765.530029
 20
517.414246
 10
766.903198
 20
516.06134
 10
768.276672
 20
514.806702
 10
769.64093
 20
513.654236
 10
770.986938
 20
512.606018
 10
772.306885
 20
511.662811
 10
773.594055
 20
510.823578
 10
774.879822
 20
510.065552
 10
776.183899
 20
509.380463
 10
777.498413
 20
508.77832
 10
778.814575
 20
508.268799
 10
780.122864
 20
507.860992
 10
781.413086
 20
507.563202
 10
782.674805
 20
507.382629
 10
783.8974
 20
507.325012
 10
785.070312
 20
507.394531
 10
786.18335
 20
507.593567
 10
787.227112
 20
507.922577
 10
788.192993
 20
508.379944
 10
789.073669
 20
508.962128
 10
789.862976
 20
509.663727
 10
790.556335
 20
510.47757
 10
791.150818
 20
511.394989
 10
791.644958
 20
512.406128
 10
792.038757
 20
513.500061
 10
792.33374
 20
514.665466
 10
792.532837
 20
515.890503
 10
792.639893
 20
517.163452
 10
792.65979
 20
518.472778
 10
792.595337
 20
519.845337
  0
LWPOLYLINE
  5
104
330
D9
100
AcDbEntity
  8
0
  6
Continuous
 62
     0
370
     0
100
AcDbPolyline
 90
        9
 70
     0
 43
0.0
 10
751.010742
 20
545.899963
 10
751.162354
 20
544.453186
 10
751.407227
 20
542.920227
 10
751.750305
 20
541.306396
 10
752.195496
 20
539.618958
 10
752.745483
 20
537.866943
 10
753.401367
 20
536.061035
 10
754.162537
 20
534.213562
 10
755.137756
 20
532.111206
  0
LWPOLYLINE
  5
105
330
D9
100
AcDbEntity
  8
0
  6
Continuous
 62
     0
370
    30
100
AcDbPolyline
 90
       11
 70
     0
 43
0.0
 10
754.83606
 20
557.617554
 10
753.990845
 20
556.927551
 10
753.238342
 20
556.119751
 10
752.583374
 20
555.200256
 10
752.028381
 20
554.175293
 10
751.575195
 20
553.051147
 10
751.225281
 20
551.834045
 10
750.979065
 20
550.530212
 10
750.836548
 20
549.14563
 10
750.797729
 20
547.686462
 10
750.865784
 20
546.111938
  0
LWPOLYLINE
  5
106
330
D9
100
AcDbEntity
  8
0
  6
Continuous
 62
     0
370
    30
100
AcDbPolyline
 90
        9
 70
     0
 43
0.0
 10
755.077881
 20
532.068848
 10
754.234192
 20
533.864197
 10
753.475647
 20
535.65564
 10
752.805786
 20
537.434753
 10
752.228027
 20
539.193115
 10
751.745056
 20
540.922363
 10
751.359131
 20
542.614929
 10
751.072388
 20
544.262878
 10
750.865784
 20
546.111938
  0
LWPOLYLINE
  5
107
330
D9
100
AcDbEntity
  8
0
  6
Continuous
 62
     0
370
    30
100
AcDbPolyline
 90
       19
 70
     0
 43
0.0
 10
789.477112
 20
508.627747
 10
788.536682
 20
508.05658
 10
787.514771
 20
507.61438
 10
786.418884
 20
507.303528
 10
785.255981
 20
507.124146
 10
784.032776
 20
507.076019
 10
782.755798
 20
507.158417
 10
781.430908
 20
507.369629
 10
780.064148
 20
507.707489
 10
778.661499
 20
508.169708
 10
777.229126
 20
508.753784
 10
775.773438
 20
509.456665
 10
774.301086
 20
510.274719
 10
772.818726
 20
511.203827
 10
771.333374
 20
512.239563
 10
769.851929
 20
513.376709
 10
768.38147
 20
514.609863
 10
766.929016
 20
515.933044
 10
765.470276
 20
517.372009
  0
LINE
  5
108
330
D9
100
AcDbEntity
  8
0
  6
Continuous
 62
     0
370
    30
100
AcDbLine
 10
754.83609
 20
557.617535
 30
0.0
 11
757.664517
 21
559.617535
 31
0.0
  0
LINE
  5
109
330
D9
100
AcDbEntity
  8
0
  6
Continuous
 62
     0
370
    30
100
AcDbLine
 10
789.477109
 20
508.627742
 30
0.0
 11
792.305536
 21
510.627743
 31
0.0
  0
LWPOLYLINE
  5
10A
330
D9
100
AcDbEntity
  8
0
  6
Continuous
 62
     0
370
    30
100
AcDbPolyline
 90
       45
 70
     0
 43
0.0
 10
792.305542
 20
510.627747
 10
793.171387
 20
511.337158
 10
793.939697
 20
512.170593
 10
794.605164
 20
513.121277
 10
795.165283
 20
514.182434
 10
795.617798
 20
515.347107
 10
795.961548
 20
516.608826
 10
796.196167
 20
517.96106
 10
796.321655
 20
519.397034
 10
796.338013
 20
520.910095
 10
796.24585
 20
522.493103
 10
796.046082
 20
524.138428
 10
795.739929
 20
525.838318
 10
795.329102
 20
527.584595
 10
794.815979
 20
529.368591
 10
794.203064
 20
531.181702
 10
793.493469
 20
533.014893
 10
792.690857
 20
534.859009
 10
791.7995
 20
536.704834
 10
790.82373
 20
538.543091
 10
789.768433
 20
540.364502
 10
788.639099
 20
542.159973
 10
787.441467
 20
543.920349
 10
786.181396
 20
545.636719
 10
784.86554
 20
547.300415
 10
783.500366
 20
548.902893
 10
782.092773
 20
550.436218
 10
780.649902
 20
551.892639
 10
779.179016
 20
553.264709
 10
777.687317
 20
554.545471
 10
776.182251
 20
555.728516
 10
774.671326
 20
556.807861
 10
773.161865
 20
557.778137
 10
771.661133
 20
558.634277
 10
770.17627
 20
559.37207
 10
768.714355
 20
559.98761
 10
767.282104
 20
560.477539
 10
765.886108
 20
560.838928
 10
764.532654
 20
561.069458
 10
763.228149
 20
561.166992
 10
761.978699
 20
561.1297
 10
760.791016
 20
560.95636
 10
759.672363
 20
560.646912
 10
758.629944
 20
560.201538
 10
757.664551
 20
559.617554
  0
LWPOLYLINE
  5
10B
330
D9
100
AcDbEntity
  8
0
  6
Continuous
 62
     0
370
    30
100
AcDbPolyline
 90
        6
 70
     0
 43
0.0
 10
776.645813
 20
525.274292
 10
777.119751
 20
525.704346
 10
777.490356
 20
526.24408
 10
777.752502
 20
526.875916
 10
777.90802
 20
527.586243
 10
777.9599
 20
528.37262
  0
LWPOLYLINE
  5
10C
330
D9
100
AcDbEntity
  8
0
  6
Continuous
 62
     0
370
    30
100
AcDbPolyline
 90
       21
 70
     0
 43
0.0
 10
766.267761
 20
539.981201
 10
766.840088
 20
540.283752
 10
767.482361
 20
540.449158
 10
768.175049
 20
540.478821
 10
768.906982
 20
540.379456
 10
769.667603
 20
540.157776
 10
770.448914
 20
539.819824
 10
771.242493
 20
539.372009
 10
772.037964
 20
538.822021
 10
772.824646
 20
538.17804
 10
773.591553
 20
537.449646
 10
774.327209
 20
536.648193
 10
775.020508
 20
535.786255
 10
775.660706
 20
534.876831
 10
776.23822
 20
533.934204
 10
776.743896
 20
532.972717
 10
777.169678
 20
532.007141
 10
777.508972
 20
531.052002
 10
777.756714
 20
530.120361
 10
777.908203
 20
529.225342
 10
777.9599
 20
528.37262
  0
LINE
  5
10D
330
D9
100
AcDbEntity
  8
0
  6
Continuous
 62
     0
370
    30
100
AcDbLine
 10
740.49918
 20
499.714755
 30
0.0
 11
776.645646
 21
525.27417
 31
0.0
  0
LINE
  5
10E
330
D9
100
AcDbEntity
  8
0
  6
Continuous
 62
     0
370
    30
100
AcDbLine
 10
729.045759
 20
513.661372
 30
0.0
 11
766.25334
 21
539.971108
 31
0.0
  0
LWPOLYLINE
  5
10F
330
D9
100
AcDbEntity
  8
0
  6
Continuous
 62
     0
370
    30
100
AcDbPolyline
 90
        2
 70
     0
 43
0.0
 10
755.610046
 20
488.333649
 10
755.432617
 20
488.470947
  0
LWPOLYLINE
  5
110
330
D9
100
AcDbEntity
  8
0
  6
Continuous
 62
     0
370
    30
100
AcDbPolyline
 90
        2
 70
     0
 43
0.0
 10
745.039978
 20
473.774292
 10
745.229004
 20
473.652466
  0
LINE
  5
111
330
D9
100
AcDbEntity
  8
0
  6
Continuous
 62
     0
370
    30
100
AcDbLine
 10
693.421342
 20
510.274168
 30
0.0
 11
745.040138
 21
473.774164
 31
0.0
  0
LINE
  5
112
330
D9
100
AcDbEntity
  8
0
  6
Continuous
 62
     0
370
    30
100
AcDbLine
 10
703.813647
 20
524.971106
 30
0.0
 11
719.808025
 21
513.661371
 31
0.0
  0
LINE
  5
113
330
D9
100
AcDbEntity
  8
0
  6
Continuous
 62
     0
370
    30
100
AcDbLine
 10
739.43798
 20
499.780896
 30
0.0
 11
755.432443
 21
488.471101
 31
0.0
  0
LWPOLYLINE
  5
114
330
D9
100
AcDbEntity
  8
0
  6
Continuous
 62
     0
370
    30
100
AcDbPolyline
 90
        6
 70
     0
 43
0.0
 10
692.107117
 20
513.37262
 10
692.157837
 20
512.594543
 10
692.312195
 20
511.883301
 10
692.57312
 20
511.25061
 10
692.942566
 20
510.709747
 10
693.421204
 20
510.274292
  0
LWPOLYLINE
  5
115
330
D9
100
AcDbEntity
  8
0
  6
Continuous
 62
     0
370
    30
100
AcDbPolyline
 90
       21
 70
     0
 43
0.0
 10
703.799194
 20
524.981201
 10
703.226929
 20
525.283752
 10
702.584595
 20
525.449158
 10
701.891968
 20
525.478821
 10
701.160034
 20
525.379456
 10
700.399353
 20
525.157776
 10
699.618042
 20
524.819824
 10
698.824524
 20
524.372009
 10
698.029053
 20
523.822021
 10
697.24231
 20
523.17804
 10
696.475464
 20
522.449646
 10
695.739807
 20
521.648193
 10
695.046509
 20
520.786255
 10
694.406311
 20
519.876831
 10
693.828796
 20
518.934204
 10
693.32312
 20
517.972717
 10
692.897278
 20
517.007141
 10
692.558044
 20
516.052002
 10
692.310303
 20
515.120361
 10
692.158752
 20
514.225342
 10
692.107117
 20
513.37262
  0
ARC
  5
116
330
D9
100
AcDbEntity
  8
0
  6
Continuous
 62
     0
370
    30
100
AcDbCircle
 10
724.426892
 20
520.19361
 30
0.0
 40
8.000262717071575
100
AcDbArc
 50
234.735474
 51
305.264527
  0
LWPOLYLINE
  5
117
330
D9
100
AcDbEntity
  8
0
  6
Continuous
 62
     0
370
    30
100
AcDbPolyline
 90
        5
 70
     0
 43
0.0
 10
740.599854
 20
500.043427
 10
740.577087
 20
499.99292
 10
740.530579
 20
499.853088
 10
740.488403
 20
499.649628
 10
740.468506
 20
499.37439
  0
LWPOLYLINE
  5
118
330
D9
100
AcDbEntity
  8
0
  6
Continuous
 62
     0
370
    30
100
AcDbPolyline
 90
        2
 70
     0
 43
0.0
 10
740.499084
 20
499.030579
 10
740.468506
 20
499.371002
  0
LINE
  5
119
330
D9
100
AcDbEntity
  8
0
  6
Continuous
 62
     0
370
    30
100
AcDbLine
 10
1011.265845
 20
285.524141
 30
0.0
 11
745.393691
 21
473.524164
 31
0.0
  0
LINE
  5
11A
330
D9
100
AcDbEntity
  8
0
  6
Continuous
 62
     0
370
    30
100
AcDbLine
 10
1021.65815
 20
300.221079
 30
0.0
 11
755.785997
 21
488.221101
 31
0.0
  0
LWPOLYLINE
  5
11B
330
D9
100
AcDbEntity
  8
0
  6
Continuous
 62
     0
370
    30
100
AcDbPolyline
 90
       19
 70
     0
 43
0.0
 10
1073.276001
 20
307.068878
 10
1072.423706
 20
308.883514
 10
1071.658325
 20
310.694061
 10
1070.983765
 20
312.491821
 10
1070.40332
 20
314.268127
 10
1069.9198
 20
316.014496
 10
1069.535645
 20
317.722687
 10
1069.25293
 20
319.384583
 10
1069.073242
 20
320.992584
 10
1068.997559
 20
322.539185
 10
1069.026855
 20
324.017303
 10
1069.161621
 20
325.420258
 10
1069.401855
 20
326.741547
 10
1069.747437
 20
327.975006
 10
1070.197876
 20
329.114319
 10
1070.752319
 20
330.153259
 10
1071.408569
 20
331.085358
 10
1072.164062
 20
331.904114
 10
1073.03418
 20
332.617523
  0
LWPOLYLINE
  5
11C
330
D9
100
AcDbEntity
  8
0
  6
Continuous
 62
     0
370
    30
100
AcDbPolyline
 90
       19
 70
     0
 43
0.0
 10
1107.675171
 20
283.627716
 10
1106.734741
 20
283.056549
 10
1105.712891
 20
282.614349
 10
1104.616943
 20
282.303406
 10
1103.453979
 20
282.124023
 10
1102.230835
 20
282.075989
 10
1100.953857
 20
282.158447
 10
1099.629028
 20
282.369568
 10
1098.262207
 20
282.707367
 10
1096.859497
 20
283.169647
 10
1095.427124
 20
283.753784
 10
1093.971436
 20
284.456696
 10
1092.499146
 20
285.274689
 10
1091.016724
 20
286.203827
 10
1089.531372
 20
287.239532
 10
1088.049927
 20
288.376709
 10
1086.579468
 20
289.609894
 10
1085.127075
 20
290.933136
 10
1083.668335
 20
292.371979
  0
LINE
  5
11D
330
D9
100
AcDbEntity
  8
0
  6
Continuous
 62
     0
370
    30
100
AcDbLine
 10
1107.675165
 20
283.627715
 30
0.0
 11
1110.503593
 21
285.627716
 31
0.0
  0
LINE
  5
11E
330
D9
100
AcDbEntity
  8
0
  6
Continuous
 62
     0
370
    30
100
AcDbLine
 10
1073.034146
 20
332.617508
 30
0.0
 11
1075.862573
 21
334.617508
 31
0.0
  0
LWPOLYLINE
  5
11F
330
D9
100
AcDbEntity
  8
0
  6
Continuous
 62
     0
370
    30
100
AcDbPolyline
 90
       37
 70
     0
 43
0.0
 10
1114.542725
 20
295.37262
 10
1114.490479
 20
296.902313
 10
1114.334106
 20
298.495117
 10
1114.074707
 20
300.143219
 10
1113.713989
 20
301.839111
 10
1113.25354
 20
303.575043
 10
1112.695801
 20
305.342743
 10
1112.043701
 20
307.133759
 10
1111.300171
 20
308.939514
 10
1110.468994
 20
310.751404
 10
1109.554199
 20
312.560638
 10
1108.560425
 20
314.358429
 10
1107.49231
 20
316.135986
 10
1106.355103
 20
317.884796
 10
1105.154541
 20
319.596344
 10
1103.89624
 20
321.262177
 10
1102.586426
 20
322.874176
 10
1101.231445
 20
324.4245
 10
1099.837891
 20
325.90567
 10
1098.412598
 20
327.310364
 10
1096.96228
 20
328.631775
 10
1095.494019
 20
329.863495
 10
1094.014771
 20
330.999573
 10
1092.531494
 20
332.034363
 10
1091.05127
 20
332.962982
 10
1089.580933
 20
333.780945
 10
1088.127075
 20
334.484039
 10
1086.696533
 20
335.068817
 10
1085.29541
 20
335.532074
 10
1083.930054
 20
335.871307
 10
1082.606323
 20
336.084259
 10
1081.330322
 20
336.168884
 10
1080.107788
 20
336.123413
 10
1078.94519
 20
335.947052
 10
1077.849365
 20
335.639557
 10
1076.827148
 20
335.20105
 10
1075.862549
 20
334.617523
  0
LWPOLYLINE
  5
120
330
D9
100
AcDbEntity
  8
0
  6
Continuous
 62
     0
370
    30
100
AcDbPolyline
 90
       10
 70
     0
 43
0.0
 10
1110.50354
 20
285.627716
 10
1111.333374
 20
286.303131
 10
1112.073853
 20
287.09198
 10
1112.720825
 20
287.988556
 10
1113.271851
 20
288.986847
 10
1113.725098
 20
290.080872
 10
1114.078979
 20
291.264709
 10
1114.333252
 20
292.532898
 10
1114.487793
 20
293.879852
 10
1114.542725
 20
295.37262
  0
LWPOLYLINE
  5
121
330
D9
100
AcDbEntity
  8
0
  6
Continuous
 62
     0
370
    30
100
AcDbPolyline
 90
       26
 70
     0
 43
0.0
 10
1084.451294
 20
314.970978
 10
1085.020264
 20
315.276794
 10
1085.65979
 20
315.446045
 10
1086.349731
 20
315.479889
 10
1087.079346
 20
315.384857
 10
1087.838013
 20
315.167755
 10
1088.617432
 20
314.834595
 10
1089.409302
 20
314.391541
 10
1090.203613
 20
313.846344
 10
1090.989624
 20
313.207184
 10
1091.756348
 20
312.483459
 10
1092.49231
 20
311.68631
 10
1093.186768
 20
310.828217
 10
1093.828735
 20
309.922394
 10
1094.408569
 20
308.982605
 10
1094.917358
 20
308.023346
 10
1095.346924
 20
307.059174
 10
1095.690674
 20
306.104431
 10
1095.943115
 20
305.17276
 10
1096.100098
 20
304.2771
 10
1096.157715
 20
303.429382
 10
1096.113159
 20
302.639496
 10
1095.963257
 20
301.917786
 10
1095.705078
 20
301.27533
 10
1095.33606
 20
300.725494
 10
1094.855835
 20
300.282745
  0
LINE
  5
122
330
D9
100
AcDbEntity
  8
0
  6
Continuous
 62
     0
370
    30
100
AcDbLine
 10
1047.243745
 20
288.661294
 30
0.0
 11
1084.451396
 21
314.97108
 31
0.0
  0
LINE
  5
123
330
D9
100
AcDbEntity
  8
0
  6
Continuous
 62
     0
370
    30
100
AcDbLine
 10
1058.697451
 20
274.71488
 30
0.0
 11
1094.843702
 21
300.274143
 31
0.0
  0
LWPOLYLINE
  5
124
330
D9
100
AcDbEntity
  8
0
  6
Continuous
 62
     0
370
    30
100
AcDbPolyline
 90
       21
 70
     0
 43
0.0
 10
1021.997253
 20
299.981201
 10
1021.424988
 20
300.283722
 10
1020.782654
 20
300.449097
 10
1020.090027
 20
300.47876
 10
1019.358093
 20
300.379395
 10
1018.597412
 20
300.157745
 10
1017.816101
 20
299.819794
 10
1017.022583
 20
299.371948
 10
1016.227112
 20
298.821991
 10
1015.440369
 20
298.178009
 10
1014.673523
 20
297.449646
 10
1013.937866
 20
296.648193
 10
1013.244568
 20
295.786194
 10
1012.60437
 20
294.876831
 10
1012.026855
 20
293.934174
 10
1011.521179
 20
292.972687
 10
1011.095337
 20
292.007141
 10
1010.756104
 20
291.051941
 10
1010.508362
 20
290.120331
 10
1010.356812
 20
289.225311
 10
1010.305115
 20
288.37262
  0
LWPOLYLINE
  5
125
330
D9
100
AcDbEntity
  8
0
  6
Continuous
 62
     0
370
    30
100
AcDbPolyline
 90
        6
 70
     0
 43
0.0
 10
1011.619263
 20
285.274261
 10
1011.145264
 20
285.704346
 10
1010.774719
 20
286.244049
 10
1010.512512
 20
286.875854
 10
1010.357056
 20
287.586243
 10
1010.305115
 20
288.37262
  0
LINE
  5
126
330
D9
100
AcDbEntity
  8
0
  6
Continuous
 62
     0
370
    30
100
AcDbLine
 10
1073.630499
 20
263.471074
 30
0.0
 11
1057.63621
 21
274.780746
 31
0.0
  0
LINE
  5
127
330
D9
100
AcDbEntity
  8
0
  6
Continuous
 62
     0
370
    30
100
AcDbLine
 10
1038.006153
 20
288.661294
 30
0.0
 11
1022.011704
 21
299.971079
 31
0.0
  0
LINE
  5
128
330
D9
100
AcDbEntity
  8
0
  6
Continuous
 62
     0
370
    30
100
AcDbLine
 10
1063.238194
 20
248.774136
 30
0.0
 11
1011.619398
 21
285.274141
 31
0.0
  0
LWPOLYLINE
  5
129
330
D9
100
AcDbEntity
  8
0
  6
Continuous
 62
     0
370
    30
100
AcDbPolyline
 90
       26
 70
     0
 43
0.0
 10
1073.630737
 20
263.470917
 10
1074.109131
 20
263.035797
 10
1074.481934
 20
262.488647
 10
1074.743774
 20
261.848358
 10
1074.897095
 20
261.127991
 10
1074.944702
 20
260.339325
 10
1074.889771
 20
259.492401
 10
1074.735229
 20
258.597015
 10
1074.485107
 20
257.665314
 10
1074.143433
 20
256.710175
 10
1073.715454
 20
255.745178
 10
1073.208008
 20
254.784775
 10
1072.629272
 20
253.843506
 10
1071.987915
 20
252.935928
 10
1071.293823
 20
252.075974
 10
1070.557861
 20
251.276764
 10
1069.791016
 20
250.550858
 10
1069.004517
 20
249.909378
 10
1068.209473
 20
249.361954
 10
1067.416748
 20
248.916885
 10
1066.636353
 20
248.581711
 10
1065.876587
 20
248.362534
 10
1065.146118
 20
248.265717
 10
1064.454712
 20
248.297958
 10
1063.813965
 20
248.465698
 10
1063.238037
 20
248.774246
  0
LWPOLYLINE
  5
12A
330
D9
100
AcDbEntity
  8
0
  6
Continuous
 62
     0
370
    30
100
AcDbPolyline
 90
        6
 70
     0
 43
0.0
 10
1058.697388
 20
274.030426
 10
1058.668335
 20
274.287933
 10
1058.675171
 20
274.556
 10
1058.715088
 20
274.799652
 10
1058.768066
 20
274.974976
 10
1058.798218
 20
275.043793
  0
ARC
  5
12B
330
D9
100
AcDbEntity
  8
0
  6
Continuous
 62
     0
370
    30
100
AcDbCircle
 10
1042.624949
 20
295.193491
 30
0.0
 40
8.000195926086356
100
AcDbArc
 50
234.736482
 51
305.263519
  0
ENDBLK
  5
12D
330
D9
100
AcDbEntity
  8
0
100
AcDbBlockEnd
  0
BLOCK
  5
149
330
12F
100
AcDbEntity
  8
0
100
AcDbBlockBegin
  2
e
 70
     0
 10
14.057938
 20
0.0
 30
0.0
  3
e
  1

  0
LWPOLYLINE
  5
130
330
12F
100
AcDbEntity
  8
0
  6
Continuous
 62
     0
370
     0
100
AcDbPolyline
 90
       41
 70
     0
 43
0.0
 10
-103.213326
 20
661.322754
 10
-102.066154
 20
661.302307
 10
-100.921631
 20
661.240723
 10
-99.782486
 20
661.137634
 10
-98.651489
 20
660.992676
 10
-97.531693
 20
660.805237
 10
-96.426407
 20
660.574463
 10
-95.339401
 20
660.299255
 10
-94.275093
 20
659.978394
 10
-93.23819
 20
659.610535
 10
-92.23455
 20
659.194275
 10
-91.270958
 20
658.728027
 10
-90.355255
 20
658.210266
 10
-89.497269
 20
657.640015
 10
-88.70842
 20
657.016602
 10
-88.001068
 20
656.340088
 10
-87.390366
 20
655.613403
 10
-86.891968
 20
654.840149
 10
-86.521095
 20
654.027649
 10
-86.291878
 20
653.18634
 10
-86.213432
 20
652.329773
 10
-86.289322
 20
651.473206
 10
-86.516167
 20
650.631531
 10
-86.884758
 20
649.818481
 10
-87.381279
 20
649.044434
 10
-87.990349
 20
648.316711
 10
-88.69606
 20
647.639648
 10
-89.483978
 20
647.01532
 10
-90.340874
 20
646.444153
 10
-91.255455
 20
645.925659
 10
-92.218208
 20
645.458557
 10
-93.221443
 20
645.041443
 10
-94.257767
 20
644.672791
 10
-95.321609
 20
644.351135
 10
-96.408363
 20
644.075256
 10
-97.513458
 20
643.84375
 10
-98.633011
 20
643.655579
 10
-99.76387
 20
643.51001
 10
-100.902954
 20
643.40625
 10
-102.047394
 20
643.343933
 10
-103.213326
 20
643.322754
  0
ARC
  5
131
330
12F
100
AcDbEntity
  8
0
  6
Continuous
 62
     0
370
     0
100
AcDbCircle
 10
-103.213327
 20
652.322784
 30
0.0
 40
8.5
100
AcDbArc
 50
180.0
 51
0.0
  0
ARC
  5
132
330
12F
100
AcDbEntity
  8
0
  6
Continuous
 62
     0
370
     0
100
AcDbCircle
 10
-103.213327
 20
652.322784
 30
0.0
 40
8.5
100
AcDbArc
 50
0.0
 51
180.0
  0
ARC
  5
133
330
12F
100
AcDbEntity
  8
0
  6
Continuous
 62
     0
370
    30
100
AcDbCircle
 10
-103.213327
 20
652.322784
 30
0.0
 40
9.0
100
AcDbArc
 50
180.0
 51
0.0
  0
ARC
  5
134
330
12F
100
AcDbEntity
  8
0
  6
Continuous
 62
     0
370
    30
100
AcDbCircle
 10
-103.213327
 20
652.322784
 30
0.0
 40
9.0
100
AcDbArc
 50
0.0
 51
180.0
  0
LINE
  5
135
330
12F
100
AcDbEntity
  8
0
  6
Continuous
 62
     0
370
     0
100
AcDbLine
 10
-36.713326
 20
652.322784
 30
0.0
 11
-36.713326
 21
643.322784
 31
0.0
  0
LINE
  5
136
330
12F
100
AcDbEntity
  8
0
  6
Continuous
 62
     0
370
     0
100
AcDbLine
 10
-36.713326
 20
661.322784
 30
0.0
 11
-36.713326
 21
652.322784
 31
0.0
  0
LINE
  5
137
330
12F
100
AcDbEntity
  8
0
  6
Continuous
 62
     0
370
     0
100
AcDbLine
 10
-31.713326
 20
622.322784
 30
0.0
 11
-31.713327
 21
652.322784
 31
0.0
  0
LINE
  5
138
330
12F
100
AcDbEntity
  8
0
  6
Continuous
 62
     0
370
     0
100
AcDbLine
 10
-31.713327
 20
652.322784
 30
0.0
 11
-31.713326
 21
682.322784
 31
0.0
  0
LINE
  5
139
330
12F
100
AcDbEntity
  8
0
  6
Continuous
 62
     0
370
    30
100
AcDbLine
 10
-31.213326
 20
681.822784
 30
0.0
 11
-31.213327
 21
652.322784
 31
0.0
  0
LINE
  5
13A
330
12F
100
AcDbEntity
  8
0
  6
Continuous
 62
     0
370
    30
100
AcDbLine
 10
-31.213327
 20
652.322784
 30
0.0
 11
-31.213326
 21
622.822784
 31
0.0
  0
LINE
  5
13B
330
12F
100
AcDbEntity
  8
0
  6
Continuous
 62
     0
370
     0
100
AcDbLine
 10
-35.713326
 20
652.322784
 30
0.0
 11
-35.713326
 21
622.322784
 31
0.0
  0
LINE
  5
13C
330
12F
100
AcDbEntity
  8
0
  6
Continuous
 62
     0
370
     0
100
AcDbLine
 10
-35.713326
 20
682.322784
 30
0.0
 11
-35.713326
 21
652.322784
 31
0.0
  0
LINE
  5
13D
330
12F
100
AcDbEntity
  8
0
  6
Continuous
 62
     0
370
    30
100
AcDbLine
 10
-36.213326
 20
622.822784
 30
0.0
 11
-36.213327
 21
652.322784
 31
0.0
  0
LINE
  5
13E
330
12F
100
AcDbEntity
  8
0
  6
Continuous
 62
     0
370
    30
100
AcDbLine
 10
-36.213327
 20
652.322784
 30
0.0
 11
-36.213326
 21
681.822784
 31
0.0
  0
ARC
  5
13F
330
12F
100
AcDbEntity
  8
0
  6
Continuous
 62
     0
370
    30
100
AcDbCircle
 10
-35.713311
 20
622.822799
 30
0.0
 40
0.5000150271673315
100
AcDbArc
 50
180.001722
 51
269.998278
  0
ARC
  5
140
330
12F
100
AcDbEntity
  8
0
  6
Continuous
 62
     0
370
    30
100
AcDbCircle
 10
-35.713311
 20
681.822769
 30
0.0
 40
0.5000150271639563
100
AcDbArc
 50
90.001722
 51
179.998278
  0
LINE
  5
141
330
12F
100
AcDbEntity
  8
0
  6
Continuous
 62
     0
370
    30
100
AcDbLine
 10
-35.713326
 20
622.322784
 30
0.0
 11
-31.713326
 21
622.322784
 31
0.0
  0
LINE
  5
142
330
12F
100
AcDbEntity
  8
0
  6
Continuous
 62
     0
370
    30
100
AcDbLine
 10
-35.713326
 20
682.322784
 30
0.0
 11
-31.713326
 21
682.322784
 31
0.0
  0
ARC
  5
143
330
12F
100
AcDbEntity
  8
0
  6
Continuous
 62
     0
370
    30
100
AcDbCircle
 10
-31.713341
 20
622.822799
 30
0.0
 40
0.5000149691635267
100
AcDbArc
 50
270.001715
 51
359.990182
  0
ARC
  5
144
330
12F
100
AcDbEntity
  8
0
  6
Continuous
 62
     0
370
    30
100
AcDbCircle
 10
-31.713341
 20
681.822769
 30
0.0
 40
0.5000149691643279
100
AcDbArc
 50
0.009818
 51
89.998285
  0
ARC
  5
145
330
12F
100
AcDbEntity
  8
0
  6
Continuous
 62
     0
370
    30
100
AcDbCircle
 10
-36.713329
 20
660.822781
 30
0.0
 40
0.500003442280927
100
AcDbArc
 50
0.000394
 51
89.999606
  0
ARC
  5
146
330
12F
100
AcDbEntity
  8
0
  6
Continuous
 62
     0
370
    30
100
AcDbCircle
 10
-36.713329
 20
643.822788
 30
0.0
 40
0.5000034422819457
100
AcDbArc
 50
270.000394
 51
359.999606
  0
LINE
  5
147
330
12F
100
AcDbEntity
  8
0
  6
Continuous
 62
     0
370
    30
100
AcDbLine
 10
-103.213326
 20
661.322784
 30
0.0
 11
-36.713326
 21
661.322784
 31
0.0
  0
LINE
  5
148
330
12F
100
AcDbEntity
  8
0
  6
Continuous
 62
     0
370
    30
100
AcDbLine
 10
-103.213326
 20
643.322784
 30
0.0
 11
-36.713326
 21
643.322784
 31
0.0
  0
ENDBLK
  5
14A
330
12F
100
AcDbEntity
  8
0
100
AcDbBlockEnd
  0
ENDSEC
  0
SECTION
  2
ENTITIES
  0
INSERT
  5
6F
330
1F
100
AcDbEntity
  8
0
  6
Continuous
 62
   250
370
     0
100
AcDbBlockReference
  2
a
 10
36.997002
 20
231.266052
 30
0.0
  0
INSERT
  5
BB
330
1F
100
AcDbEntity
  8
0
  6
Continuous
 62
   250
370
     0
100
AcDbBlockReference
  2
b
 10
36.997002
 20
231.266052
 30
0.0
  0
INSERT
  5
D8
330
1F
100
AcDbEntity
  8
0
  6
Continuous
 62
   250
370
     0
100
AcDbBlockReference
  2
c
 10
36.997002
 20
246.098053
 30
0.0
  0
INSERT
  5
12E
330
1F
100
AcDbEntity
  8
0
  6
Continuous
 62
   250
370
     0
100
AcDbBlockReference
  2
d
 10
36.997002
 20
231.266052
 30
0.0
  0
INSERT
  5
14B
330
1F
100
AcDbEntity
  8
0
  6
Continuous
 62
   250
370
     0
100
AcDbBlockReference
  2
e
 10
14.057938
 20
0.0
 30
0.0
  0
ENDSEC
  0
SECTION
  2
OBJECTS
  0
DICTIONARY
  5
C
330
0
100
AcDbDictionary
281
     1
  3
ACAD_GROUP
350
D
  3
ACAD_LAYOUT
350
1A
  3
ACAD_MLEADERSTYLE
350
14E
  3
ACAD_MLINESTYLE
350
17
  3
ACAD_PLOTSETTINGS
350
19
  3
ACAD_PLOTSTYLENAME
350
E
  3
ACAD_VISUALSTYLE
350
2A
  3
AcDbVariableDictionary
350
14C
  0
DICTIONARY
  5
D
102
{ACAD_REACTORS
330
C
102
}
330
C
100
AcDbDictionary
281
     1
  0
DICTIONARY
  5
1A
102
{ACAD_REACTORS
330
C
102
}
330
C
100
AcDbDictionary
281
     1
  3
Layout1
350
1E
  3
Layout2
350
26
  3
Model
350
22
  0
DICTIONARY
  5
14E
102
{ACAD_REACTORS
330
C
102
}
330
C
100
AcDbDictionary
281
     1
  0
DICTIONARY
  5
17
102
{ACAD_REACTORS
330
C
102
}
330
C
100
AcDbDictionary
281
     1
  3
Standard
350
18
  0
DICTIONARY
  5
19
102
{ACAD_REACTORS
330
C
102
}
330
C
100
AcDbDictionary
281
     1
  0
ACDBDICTIONARYWDFLT
  5
E
102
{ACAD_REACTORS
330
C
102
}
330
C
100
AcDbDictionary
281
     1
  3
Normal
350
F
100
AcDbDictionaryWithDefault
340
F
  0
DICTIONARY
  5
2A
102
{ACAD_REACTORS
330
C
102
}
330
C
100
AcDbDictionary
281
     1
  3
2dWireframe
350
2F
  3
3D Hidden
350
31
  3
3dWireframe
350
30
  3
Basic
350
32
  3
Brighten
350
36
  3
ColorChange
350
3A
  3
Conceptual
350
34
  3
Dim
350
35
  3
Facepattern
350
39
  3
Flat
350
2B
  3
FlatWithEdges
350
2C
  3
Gouraud
350
2D
  3
GouraudWithEdges
350
2E
  3
Linepattern
350
38
  3
Realistic
350
33
  3
Thicken
350
37
  0
DICTIONARY
  5
14C
102
{ACAD_REACTORS
330
C
102
}
330
C
100
AcDbDictionary
281
     1
  3
PSOLHEIGHT
350
150
  3
PSOLWIDTH
350
14F
  0
LAYOUT
  5
1E
102
{ACAD_REACTORS
330
1A
102
}
330
1A
100
AcDbPlotSettings
  1

  2
none_device
  4

  6

 40
0.0
 41
0.0
 42
0.0
 43
0.0
 44
0.0
 45
0.0
 46
0.0
 47
0.0
 48
0.0
 49
0.0
140
0.0
141
0.0
142
1.0
143
1.0
 70
   688
 72
     0
 73
     0
 74
     5
  7

 75
    16
147
1.0
148
0.0
149
0.0
100
AcDbLayout
  1
Layout1
 70
     1
 71
     1
 10
0.0
 20
0.0
 11
420.0
 21
297.0
 12
0.0
 22
0.0
 32
0.0
 14
1.000000E+20
 24
1.000000E+20
 34
1.000000E+20
 15
-1.000000E+20
 25
-1.000000E+20
 35
-1.000000E+20
146
0.0
 13
0.0
 23
0.0
 33
0.0
 16
1.0
 26
0.0
 36
0.0
 17
0.0
 27
1.0
 37
0.0
 76
     0
330
1B
  0
LAYOUT
  5
26
102
{ACAD_REACTORS
330
1A
102
}
330
1A
100
AcDbPlotSettings
  1

  2
none_device
  4

  6

 40
0.0
 41
0.0
 42
0.0
 43
0.0
 44
0.0
 45
0.0
 46
0.0
 47
0.0
 48
0.0
 49
0.0
140
0.0
141
0.0
142
1.0
143
1.0
 70
   688
 72
     0
 73
     0
 74
     5
  7

 75
    16
147
1.0
148
0.0
149
0.0
100
AcDbLayout
  1
Layout2
 70
     1
 71
     2
 10
0.0
 20
0.0
 11
0.0
 21
0.0
 12
0.0
 22
0.0
 32
0.0
 14
0.0
 24
0.0
 34
0.0
 15
0.0
 25
0.0
 35
0.0
146
0.0
 13
0.0
 23
0.0
 33
0.0
 16
1.0
 26
0.0
 36
0.0
 17
0.0
 27
1.0
 37
0.0
 76
     0
330
23
  0
LAYOUT
  5
22
102
{ACAD_REACTORS
330
1A
102
}
330
1A
100
AcDbPlotSettings
  1

  2
none_device
  4

  6

 40
0.0
 41
0.0
 42
0.0
 43
0.0
 44
0.0
 45
0.0
 46
0.0
 47
0.0
 48
0.0
 49
0.0
140
0.0
141
0.0
142
1.0
143
1.0
 70
  1712
 72
     0
 73
     0
 74
     0
  7

 75
     0
147
1.0
148
0.0
149
0.0
100
AcDbLayout
  1
Model
 70
     1
 71
     0
 10
-112.213326
 20
202.125092
 11
1114.542725
 21
682.322815
 12
0.0
 22
0.0
 32
0.0
 14
-112.213326
 24
202.125092
 34
0.0
 15
1114.542725
 25
682.322815
 35
0.0
146
0.0
 13
0.0
 23
0.0
 33
0.0
 16
1.0
 26
0.0
 36
0.0
 17
0.0
 27
1.0
 37
0.0
 76
     0
330
1F
331
29
  0
MLINESTYLE
  5
18
102
{ACAD_REACTORS
330
17
102
}
330
17
100
AcDbMlineStyle
  2
Standard
 70
     0
  3

 62
   256
 51
90.0
 52
90.0
 71
     2
 49
0.5
 62
   256
  6
BYLAYER
 49
-0.5
 62
   256
  6
BYLAYER
  0
ACDBPLACEHOLDER
  5
F
102
{ACAD_REACTORS
330
E
102
}
330
E
  0
VISUALSTYLE
  5
2F
102
{ACAD_REACTORS
330
2A
102
}
330
2A
100
AcDbVisualStyle
  2
2dWireframe
 70
     4
 71
     0
 72
     2
 73
     0
 90
        0
 40
-0.6
 41
-30.0
 62
     5
 63
     7
 74
     1
 91
        4
 64
     7
 65
   257
 75
     1
175
     1
 42
1.0
 92
        0
 66
   257
 43
1.0
 76
     1
 77
     6
 78
     2
 67
     7
 79
     5
170
     0
171
     0
290
     0
174
     0
 93
        1
 44
0.0
173
     0
291
     0
 45
0.0
1001
ACAD
1000
AcDbSavedByObjectVersion
1070
     0
  0
VISUALSTYLE
  5
31
102
{ACAD_REACTORS
330
2A
102
}
330
2A
100
AcDbVisualStyle
  2
3D Hidden
 70
     6
 71
     1
 72
     2
 73
     2
 90
        0
 40
-0.6
 41
-30.0
 62
     5
 63
     7
 74
     2
 91
        2
 64
     7
 65
   257
 75
     2
175
     1
 42
40.0
 92
        0
 66
   257
 43
1.0
 76
     1
 77
     6
 78
     2
 67
     7
 79
     3
170
     0
171
     0
290
     0
174
     0
 93
        1
 44
0.0
173
     0
291
     0
 45
0.0
1001
ACAD
1000
AcDbSavedByObjectVersion
1070
     0
  0
VISUALSTYLE
  5
30
102
{ACAD_REACTORS
330
2A
102
}
330
2A
100
AcDbVisualStyle
  2
3dWireframe
 70
     5
 71
     0
 72
     2
 73
     0
 90
        0
 40
-0.6
 41
-30.0
 62
     5
 63
     7
 74
     1
 91
        4
 64
     7
 65
   257
 75
     1
175
     1
 42
1.0
 92
        0
 66
   257
 43
1.0
 76
     1
 77
     6
 78
     2
 67
     7
 79
     5
170
     0
171
     0
290
     0
174
     0
 93
        1
 44
0.0
173
     0
291
     0
 45
0.0
1001
ACAD
1000
AcDbSavedByObjectVersion
1070
     0
  0
VISUALSTYLE
  5
32
102
{ACAD_REACTORS
330
2A
102
}
330
2A
100
AcDbVisualStyle
  2
Basic
 70
     7
 71
     1
 72
     0
 73
     1
 90
        0
 40
-0.6
 41
-30.0
 62
     5
 63
     7
 74
     0
 91
        4
 64
     7
 65
   257
 75
     1
175
     1
 42
1.0
 92
        8
 66
     7
 43
1.0
 76
     1
 77
     6
 78
     2
 67
     7
 79
     5
170
     0
171
     0
290
     0
174
     0
 93
        1
 44
0.0
173
     0
291
     1
 45
0.0
1001
ACAD
1000
AcDbSavedByObjectVersion
1070
     0
  0
VISUALSTYLE
  5
36
102
{ACAD_REACTORS
330
2A
102
}
330
2A
100
AcDbVisualStyle
  2
Brighten
 70
    12
 71
     2
 72
     2
 73
     0
 90
        0
 40
-0.6
 41
-30.0
 62
     5
 63
     7
 74
     1
 91
        4
 64
     7
 65
   257
 75
     1
175
     1
 42
1.0
 92
        8
 66
     7
 43
1.0
 76
     1
 77
     6
 78
     2
 67
     7
 79
     5
170
     0
171
     0
290
     0
174
     0
 93
        1
 44
50.0
173
     0
291
     1
 45
0.0
1001
ACAD
1000
AcDbSavedByObjectVersion
1070
     0
  0
VISUALSTYLE
  5
3A
102
{ACAD_REACTORS
330
2A
102
}
330
2A
100
AcDbVisualStyle
  2
ColorChange
 70
    16
 71
     2
 72
     2
 73
     3
 90
        0
 40
-0.6
 41
-30.0
 62
     5
 63
     8
 74
     1
 91
        4
 64
     7
 65
   257
 75
     1
175
     1
 42
1.0
 92
        8
 66
     8
 43
1.0
 76
     1
 77
     6
 78
     2
 67
     7
 79
     5
170
     0
171
     0
290
     0
174
     0
 93
        1
 44
0.0
173
     0
291
     1
 45
0.0
1001
ACAD
1000
AcDbSavedByObjectVersion
1070
     0
  0
VISUALSTYLE
  5
34
102
{ACAD_REACTORS
330
2A
102
}
330
2A
100
AcDbVisualStyle
  2
Conceptual
 70
     9
 71
     3
 72
     2
 73
     0
 90
        0
 40
-0.6
 41
-30.0
 62
     5
 63
     7
 74
     2
 91
        2
 64
     7
 65
   257
 75
     1
175
     1
 42
40.0
 92
        8
 66
     7
 43
1.0
 76
     1
 77
     6
 78
     2
 67
     7
 79
     3
170
     0
171
     0
290
     0
174
     0
 93
        1
 44
0.0
173
     0
291
     0
 45
0.0
1001
ACAD
1000
AcDbSavedByObjectVersion
1070
     0
  0
VISUALSTYLE
  5
35
102
{ACAD_REACTORS
330
2A
102
}
330
2A
100
AcDbVisualStyle
  2
Dim
 70
    11
 71
     2
 72
     2
 73
     0
 90
        0
 40
-0.6
 41
-30.0
 62
     5
 63
     7
 74
     1
 91
        4
 64
     7
 65
   257
 75
     1
175
     1
 42
1.0
 92
        8
 66
     7
 43
1.0
 76
     1
 77
     6
 78
     2
 67
     7
 79
     5
170
     0
171
     0
290
     0
174
     0
 93
        1
 44
-50.0
173
     0
291
     1
 45
0.0
1001
ACAD
1000
AcDbSavedByObjectVersion
1070
     0
  0
VISUALSTYLE
  5
39
102
{ACAD_REACTORS
330
2A
102
}
330
2A
100
AcDbVisualStyle
  2
Facepattern
 70
    15
 71
     2
 72
     2
 73
     0
 90
        0
 40
-0.6
 41
-30.0
 62
     5
 63
     7
 74
     1
 91
        4
 64
     7
 65
   257
 75
     1
175
     1
 42
1.0
 92
        8
 66
     7
 43
1.0
 76
     1
 77
     6
 78
     2
 67
     7
 79
     5
170
     0
171
     0
290
     0
174
     0
 93
        1
 44
0.0
173
     0
291
     1
 45
0.0
1001
ACAD
1000
AcDbSavedByObjectVersion
1070
     0
  0
VISUALSTYLE
  5
2B
102
{ACAD_REACTORS
330
2A
102
}
330
2A
100
AcDbVisualStyle
  2
Flat
 70
     0
 71
     2
 72
     1
 73
     1
 90
        2
 40
-0.6
 41
30.0
 62
     5
 63
     7
 74
     0
 91
        4
 64
     7
 65
   257
 75
     1
175
     1
 42
1.0
 92
        8
 66
     7
 43
1.0
 76
     1
 77
     6
 78
     2
 67
     7
 79
     5
170
     0
171
     0
290
     0
174
     0
 93
       13
 44
0.0
173
     0
291
     1
 45
0.0
1001
ACAD
1000
AcDbSavedByObjectVersion
1070
     0
  0
VISUALSTYLE
  5
2C
102
{ACAD_REACTORS
330
2A
102
}
330
2A
100
AcDbVisualStyle
  2
FlatWithEdges
 70
     1
 71
     2
 72
     1
 73
     1
 90
        2
 40
-0.6
 41
30.0
 62
     5
 63
     7
 74
     1
 91
        4
 64
     7
 65
   257
 75
     1
175
     1
 42
1.0
 92
        0
 66
   257
 43
1.0
 76
     1
 77
     6
 78
     2
 67
     7
 79
     5
170
     0
171
     0
290
     0
174
     0
 93
       13
 44
0.0
173
     0
291
     1
 45
0.0
1001
ACAD
1000
AcDbSavedByObjectVersion
1070
     0
  0
VISUALSTYLE
  5
2D
102
{ACAD_REACTORS
330
2A
102
}
330
2A
100
AcDbVisualStyle
  2
Gouraud
 70
     2
 71
     2
 72
     2
 73
     1
 90
        2
 40
-0.6
 41
30.0
 62
     5
 63
     7
 74
     0
 91
        4
 64
     7
 65
   257
 75
     1
175
     1
 42
1.0
 92
        0
 66
     7
 43
1.0
 76
     1
 77
     6
 78
     2
 67
     7
 79
     5
170
     0
171
     0
290
     0
174
     0
 93
       13
 44
0.0
173
     0
291
     1
 45
0.0
1001
ACAD
1000
AcDbSavedByObjectVersion
1070
     0
  0
VISUALSTYLE
  5
2E
102
{ACAD_REACTORS
330
2A
102
}
330
2A
100
AcDbVisualStyle
  2
GouraudWithEdges
 70
     3
 71
     2
 72
     2
 73
     1
 90
        2
 40
-0.6
 41
30.0
 62
     5
 63
     7
 74
     1
 91
        4
 64
     7
 65
   257
 75
     1
175
     1
 42
1.0
 92
        0
 66
   257
 43
1.0
 76
     1
 77
     6
 78
     2
 67
     7
 79
     5
170
     0
171
     0
290
     0
174
     0
 93
       13
 44
0.0
173
     0
291
     1
 45
0.0
1001
ACAD
1000
AcDbSavedByObjectVersion
1070
     0
  0
VISUALSTYLE
  5
38
102
{ACAD_REACTORS
330
2A
102
}
330
2A
100
AcDbVisualStyle
  2
Linepattern
 70
    14
 71
     2
 72
     2
 73
     0
 90
        0
 40
-0.6
 41
-30.0
 62
     5
 63
     7
 74
     1
 91
        4
 64
     7
 65
   257
 75
     7
175
     7
 42
1.0
 92
        8
 66
     7
 43
1.0
 76
     1
 77
     6
 78
     2
 67
     7
 79
     5
170
     0
171
     0
290
     0
174
     0
 93
        1
 44
0.0
173
     0
291
     1
 45
0.0
1001
ACAD
1000
AcDbSavedByObjectVersion
1070
     0
  0
VISUALSTYLE
  5
33
102
{ACAD_REACTORS
330
2A
102
}
330
2A
100
AcDbVisualStyle
  2
Realistic
 70
     8
 71
     2
 72
     2
 73
     0
 90
        0
 40
-0.6
 41
-30.0
 62
     5
 63
     7
 74
     1
 91
        0
 64
     7
 65
   257
 75
     1
175
     1
 42
1.0
 92
        8
 66
     8
 43
1.0
 76
     1
 77
     6
 78
     2
 67
     7
 79
     5
170
     0
171
     0
290
     0
174
     0
 93
       13
 44
0.0
173
     0
291
     0
 45
0.0
1001
ACAD
1000
AcDbSavedByObjectVersion
1070
     0
  0
VISUALSTYLE
  5
37
102
{ACAD_REACTORS
330
2A
102
}
330
2A
100
AcDbVisualStyle
  2
Thicken
 70
    13
 71
     2
 72
     2
 73
     0
 90
        0
 40
-0.6
 41
-30.0
 62
     5
 63
     7
 74
     1
 91
        4
 64
     7
 65
   257
 75
     1
175
     1
 42
1.0
 92
       12
 66
     7
 43
1.0
 76
     1
 77
     6
 78
     2
 67
     7
 79
     5
170
     0
171
     0
290
     0
174
     0
 93
        1
 44
0.0
173
     0
291
     1
 45
0.0
1001
ACAD
1000
AcDbSavedByObjectVersion
1070
     0
  0
DICTIONARYVAR
  5
150
102
{ACAD_REACTORS
330
14C
102
}
330
14C
100
DictionaryVariables
280
     0
  1
80.000000
  0
DICTIONARYVAR
  5
14F
102
{ACAD_REACTORS
330
14C
102
}
330
14C
100
DictionaryVariables
280
     0
  1
5.000000
  0
ENDSEC
  0
EOF
